  0
SECTION
  2
HEADER
  9
$ACADVER
  1
AC1015
  9
$ACADMAINTVER
 70
     6
  9
$DWGCODEPAGE
  3
ANSI_1252
  9
$INSBASE
 10
0.0
 20
0.0
 30
0.0
  9
$EXTMIN
 10
49.9295482219131
 20
83.94119470961051
 30
-0.0015258207003612
  9
$EXTMAX
 10
158.600647226364
 20
202.9581109983855
 30
0.0000000349246008
  9
$LIMMIN
 10
49.93286946614583
 20
83.7626736111111
  9
$LIMMAX
 10
158.7717041015625
 20
203.1457397460937
  9
$ORTHOMODE
 70
     0
  9
$REGENMODE
 70
     1
  9
$FILLMODE
 70
     1
  9
$QTEXTMODE
 70
     0
  9
$MIRRTEXT
 70
     1
  9
$LTSCALE
 40
1.0
  9
$ATTMODE
 70
     1
  9
$TEXTSIZE
 40
0.2
  9
$TRACEWID
 40
0.05
  9
$TEXTSTYLE
  7
STANDARD
  9
$CLAYER
  8
0
  9
$CELTYPE
  6
CONTINUOUS
  9
$CECOLOR
 62
   256
  9
$CELTSCALE
 40
1.0
  9
$DISPSILH
 70
     0
  9
$DIMSCALE
 40
1.0
  9
$DIMASZ
 40
0.18
  9
$DIMEXO
 40
0.0625
  9
$DIMDLI
 40
0.38
  9
$DIMRND
 40
0.0
  9
$DIMDLE
 40
0.0
  9
$DIMEXE
 40
0.18
  9
$DIMTP
 40
0.0
  9
$DIMTM
 40
0.0
  9
$DIMTXT
 40
0.18
  9
$DIMCEN
 40
0.09
  9
$DIMTSZ
 40
0.0
  9
$DIMTOL
 70
     0
  9
$DIMLIM
 70
     0
  9
$DIMTIH
 70
     1
  9
$DIMTOH
 70
     1
  9
$DIMSE1
 70
     0
  9
$DIMSE2
 70
     0
  9
$DIMTAD
 70
     0
  9
$DIMZIN
 70
     0
  9
$DIMBLK
  1

  9
$DIMASO
 70
     1
  9
$DIMSHO
 70
     1
  9
$DIMPOST
  1

  9
$DIMAPOST
  1

  9
$DIMALT
 70
     0
  9
$DIMALTD
 70
     2
  9
$DIMALTF
 40
25.4
  9
$DIMLFAC
 40
1.0
  9
$DIMTOFL
 70
     0
  9
$DIMTVP
 40
0.0
  9
$DIMTIX
 70
     0
  9
$DIMSOXD
 70
     0
  9
$DIMSAH
 70
     0
  9
$DIMBLK1
  1

  9
$DIMBLK2
  1

  9
$DIMSTYLE
  2
STANDARD
  9
$DIMCLRD
 70
     0
  9
$DIMCLRE
 70
     0
  9
$DIMCLRT
 70
     0
  9
$DIMTFAC
 40
1.0
  9
$DIMGAP
 40
0.09
  9
$DIMJUST
 70
     0
  9
$DIMSD1
 70
     0
  9
$DIMSD2
 70
     0
  9
$DIMTOLJ
 70
     1
  9
$DIMTZIN
 70
     0
  9
$DIMALTZ
 70
     0
  9
$DIMALTTZ
 70
     0
  9
$DIMUPT
 70
     0
  9
$DIMDEC
 70
     4
  9
$DIMTDEC
 70
     4
  9
$DIMALTU
 70
     2
  9
$DIMALTTD
 70
     2
  9
$DIMTXSTY
  7
STANDARD
  9
$DIMAUNIT
 70
     0
  9
$DIMADEC
 70
     0
  9
$DIMALTRND
 40
0.0
  9
$DIMAZIN
 70
     0
  9
$DIMDSEP
 70
    46
  9
$DIMATFIT
 70
     3
  9
$DIMFRAC
 70
     0
  9
$DIMLDRBLK
  1

  9
$DIMLUNIT
 70
     2
  9
$DIMLWD
 70
    -2
  9
$DIMLWE
 70
    -2
  9
$DIMTMOVE
 70
     0
  9
$LUNITS
 70
     2
  9
$LUPREC
 70
     4
  9
$SKETCHINC
 40
0.1
  9
$FILLETRAD
 40
0.0
  9
$AUNITS
 70
     0
  9
$AUPREC
 70
     0
  9
$MENU
  1
acad
  9
$ELEVATION
 40
0.0
  9
$PELEVATION
 40
0.0
  9
$THICKNESS
 40
0.0
  9
$LIMCHECK
 70
     0
  9
$CHAMFERA
 40
0.0
  9
$CHAMFERB
 40
0.0
  9
$CHAMFERC
 40
0.0
  9
$CHAMFERD
 40
0.0
  9
$SKPOLY
 70
     0
  9
$TDCREATE
 40
2444972.0
  9
$TDUCREATE
 40
2444972.333333334
  9
$TDUPDATE
 40
2453721.964921806
  9
$TDUUPDATE
 40
2453722.298255139
  9
$TDINDWG
 40
0.0014153009
  9
$TDUSRTIMER
 40
0.0014153009
  9
$USRTIMER
 70
     1
  9
$ANGBASE
 50
0.0
  9
$ANGDIR
 70
     0
  9
$PDMODE
 70
     0
  9
$PDSIZE
 40
0.0
  9
$PLINEWID
 40
0.0
  9
$SPLFRAME
 70
     0
  9
$SPLINETYPE
 70
     6
  9
$SPLINESEGS
 70
     8
  9
$HANDSEED
  5
AA8
  9
$SURFTAB1
 70
     6
  9
$SURFTAB2
 70
     6
  9
$SURFTYPE
 70
     6
  9
$SURFU
 70
     6
  9
$SURFV
 70
     6
  9
$UCSBASE
  2

  9
$UCSNAME
  2

  9
$UCSORG
 10
0.0
 20
0.0
 30
0.0
  9
$UCSXDIR
 10
1.0
 20
0.0
 30
0.0
  9
$UCSYDIR
 10
0.0
 20
1.0
 30
0.0
  9
$UCSORTHOREF
  2

  9
$UCSORTHOVIEW
 70
     0
  9
$UCSORGTOP
 10
0.0
 20
0.0
 30
0.0
  9
$UCSORGBOTTOM
 10
0.0
 20
0.0
 30
0.0
  9
$UCSORGLEFT
 10
0.0
 20
0.0
 30
0.0
  9
$UCSORGRIGHT
 10
0.0
 20
0.0
 30
0.0
  9
$UCSORGFRONT
 10
0.0
 20
0.0
 30
0.0
  9
$UCSORGBACK
 10
0.0
 20
0.0
 30
0.0
  9
$PUCSBASE
  2

  9
$PUCSNAME
  2

  9
$PUCSORG
 10
0.0
 20
0.0
 30
0.0
  9
$PUCSXDIR
 10
1.0
 20
0.0
 30
0.0
  9
$PUCSYDIR
 10
0.0
 20
1.0
 30
0.0
  9
$PUCSORTHOREF
  2

  9
$PUCSORTHOVIEW
 70
     0
  9
$PUCSORGTOP
 10
0.0
 20
0.0
 30
0.0
  9
$PUCSORGBOTTOM
 10
0.0
 20
0.0
 30
0.0
  9
$PUCSORGLEFT
 10
0.0
 20
0.0
 30
0.0
  9
$PUCSORGRIGHT
 10
0.0
 20
0.0
 30
0.0
  9
$PUCSORGFRONT
 10
0.0
 20
0.0
 30
0.0
  9
$PUCSORGBACK
 10
0.0
 20
0.0
 30
0.0
  9
$USERI1
 70
     0
  9
$USERI2
 70
     0
  9
$USERI3
 70
     0
  9
$USERI4
 70
     0
  9
$USERI5
 70
     0
  9
$USERR1
 40
0.0
  9
$USERR2
 40
0.0
  9
$USERR3
 40
0.0
  9
$USERR4
 40
0.0
  9
$USERR5
 40
0.0
  9
$WORLDVIEW
 70
     1
  9
$SHADEDGE
 70
     3
  9
$SHADEDIF
 70
    70
  9
$TILEMODE
 70
     1
  9
$MAXACTVP
 70
    16
  9
$PINSBASE
 10
0.0
 20
0.0
 30
0.0
  9
$PLIMCHECK
 70
     0
  9
$PEXTMIN
 10
1.000000000000000E+20
 20
1.000000000000000E+20
 30
1.000000000000000E+20
  9
$PEXTMAX
 10
-1.000000000000000E+20
 20
-1.000000000000000E+20
 30
-1.000000000000000E+20
  9
$PLIMMIN
 10
0.0
 20
0.0
  9
$PLIMMAX
 10
12.0
 20
9.0
  9
$UNITMODE
 70
     0
  9
$VISRETAIN
 70
     0
  9
$PLINEGEN
 70
     1
  9
$PSLTSCALE
 70
     0
  9
$TREEDEPTH
 70
  3020
  9
$CMLSTYLE
  2
STANDARD
  9
$CMLJUST
 70
     0
  9
$CMLSCALE
 40
1.0
  9
$PROXYGRAPHICS
 70
     1
  9
$MEASUREMENT
 70
     0
  9
$CELWEIGHT
370
    -1
  9
$ENDCAPS
280
     0
  9
$JOINSTYLE
280
     0
  9
$LWDISPLAY
290
     0
  9
$INSUNITS
 70
     0
  9
$HYPERLINKBASE
  1

  9
$STYLESHEET
  1

  9
$XEDIT
290
     1
  9
$CEPSNTYPE
380
     0
  9
$PSTYLEMODE
290
     1
  9
$FINGERPRINTGUID
  2
{7CE358B2-60B6-4FE7-A831-0FCD12781405}
  9
$VERSIONGUID
  2
{7299FCDC-5B61-46DF-B00D-6B01B775CD92}
  9
$EXTNAMES
290
     1
  9
$PSVPSCALE
 40
0.0
  9
$OLESTARTUP
290
     0
  0
ENDSEC
  0
SECTION
  2
CLASSES
  0
CLASS
  1
LWPOLYLINE
  2
AcDbPolyline
  3
AutoCAD 2000
 90
        0
280
     0
281
     1
  0
CLASS
  1
IMAGE
  2
AcDbRasterImage
  3
ISM
 90
      127
280
     0
281
     1
  0
CLASS
  1
OLE2FRAME
  2
AcDbOle2Frame
  3
AutoCAD 2000
 90
        0
280
     0
281
     1
  0
CLASS
  1
HATCH
  2
AcDbHatch
  3
AutoCAD 2000
 90
        0
280
     0
281
     1
  0
CLASS
  1
DICTIONARYVAR
  2
AcDbDictionaryVar
  3
AutoCAD 2000
 90
        0
280
     0
281
     0
  0
CLASS
  1
RASTERVARIABLES
  2
AcDbRasterVariables
  3
ISM
 90
        0
280
     0
281
     0
  0
CLASS
  1
IMAGEDEF
  2
AcDbRasterImageDef
  3
ISM
 90
        0
280
     0
281
     0
  0
CLASS
  1
IMAGEDEF_REACTOR
  2
AcDbRasterImageDefReactor
  3
ISM
 90
        1
280
     0
281
     0
  0
CLASS
  1
IDBUFFER
  2
AcDbIdBuffer
  3
AutoCAD 2000
 90
        0
280
     0
281
     0
  0
CLASS
  1
SPATIAL_FILTER
  2
AcDbSpatialFilter
  3
AutoCAD 2000
 90
        0
280
     0
281
     0
  0
CLASS
  1
XRECORD
  2
AcDbXrecord
  3
AutoCAD 2000
 90
        0
280
     0
281
     0
  0
CLASS
  1
SORTENTSTABLE
  2
AcDbSortentsTable
  3
AutoCAD 2000
 90
        0
280
     0
281
     0
  0
CLASS
  1
LAYER_INDEX
  2
AcDbLayerIndex
  3
AutoCAD 2000
 90
        0
280
     0
281
     0
  0
CLASS
  1
SPATIAL_INDEX
  2
AcDbSpatialIndex
  3
AutoCAD 2000
 90
        0
280
     0
281
     0
  0
CLASS
  1
OBJECT_PTR
  2
CAseDLPNTableRecord
  3
ASE-LPNTableRecord
 90
   -65535
280
     1
281
     0
  0
CLASS
  1
LAYOUT
  2
AcDbLayout
  3
ObjectDBX Classes
 90
        0
280
     0
281
     0
  0
CLASS
  1
PLOTSETTINGS
  2
AcDbPlotSettings
  3
AutoCAD 2000
 90
        0
280
     0
281
     0
  0
CLASS
  1
ACDBDICTIONARYWDFLT
  2
AcDbDictionaryWithDefault
  3
AutoCAD 2000
 90
        0
280
     0
281
     0
  0
CLASS
  1
ACDBPLACEHOLDER
  2
AcDbPlaceHolder
  3
ObjectDBX Classes
 90
        0
280
     0
281
     0
  0
CLASS
  1
VBAPROJECT
  2
AcDbVbaProject
  3
ObjectDBX Classes
 90
        0
280
     0
281
     0
  0
CLASS
  1
WIPEOUT
  2
AcDbWipeout
  3
WipeOut|AutoCAD Express Tool|expresstools@autodesk.com
 90
      127
280
     0
281
     1
  0
CLASS
  1
WIPEOUTVARIABLES
  2
AcDbWipeoutVariables
  3
WipeOut|AutoCAD Express Tool|expresstools@autodesk.com
 90
        0
280
     0
281
     0
  0
CLASS
  1
RTEXT
  2
RText
  3
RText|AutoCAD Express Tool|expresstools@autodesk.com
 90
        0
280
     0
281
     1
  0
CLASS
  1
ARCALIGNEDTEXT
  2
AcDbArcAlignedText
  3
ATEXT|AutoCAD Express Tool|expresstools@autodesk.com
 90
        0
280
     0
281
     1
  0
ENDSEC
  0
SECTION
  2
TABLES
  0
TABLE
  2
VPORT
  5
7
330
0
100
AcDbSymbolTable
 70
     4
  0
VPORT
  5
A9E
330
7
100
AcDbSymbolTableRecord
100
AcDbViewportTableRecord
  2
*Active
 70
     0
 10
0.0
 20
0.0
 11
1.0
 21
1.0
 12
104.3506261617378
 22
143.4542066786024
 13
0.0
 23
0.0
 14
1.0
 24
1.0
 15
0.0
 25
0.0
 16
0.0
 26
0.0
 36
1.0
 17
0.0
 27
0.0
 37
0.0
 40
121.3401655798184
 41
1.761643835616438
 42
50.0
 43
0.0
 44
0.0
 50
0.0
 51
0.0
 71
     0
 72
   100
 73
     1
 74
     1
 75
     0
 76
     0
 77
     0
 78
     0
281
     0
 65
     1
110
0.0
120
0.0
130
0.0
111
1.0
121
0.0
131
0.0
112
0.0
122
1.0
132
0.0
 79
     0
146
0.0
  0
ENDTAB
  0
TABLE
  2
LTYPE
  5
4
330
0
100
AcDbSymbolTable
 70
     1
  0
LTYPE
  5
11
330
4
100
AcDbSymbolTableRecord
100
AcDbLinetypeTableRecord
  2
BYBLOCK
 70
     0
  3

 72
    65
 73
     0
 40
0.0
  0
LTYPE
  5
12
330
4
100
AcDbSymbolTableRecord
100
AcDbLinetypeTableRecord
  2
BYLAYER
 70
     0
  3

 72
    65
 73
     0
 40
0.0
  0
LTYPE
  5
13
330
4
100
AcDbSymbolTableRecord
100
AcDbLinetypeTableRecord
  2
CONTINUOUS
 70
     0
  3
Solid line
 72
    65
 73
     0
 40
0.0
  0
ENDTAB
  0
TABLE
  2
LAYER
  5
2
330
0
100
AcDbSymbolTable
 70
     4
  0
LAYER
  5
14
330
2
100
AcDbSymbolTableRecord
100
AcDbLayerTableRecord
  2
0
 70
     0
 62
     7
  6
CONTINUOUS
370
    -3
390
A0C
  0
LAYER
  5
21
330
2
100
AcDbSymbolTableRecord
100
AcDbLayerTableRecord
  2
LGT
 70
     0
 62
     5
  6
CONTINUOUS
370
    -3
390
A0C
  0
LAYER
  5
1BA
330
2
100
AcDbSymbolTableRecord
100
AcDbLayerTableRecord
  2
TIE_PLATE
 70
     0
 62
     3
  6
CONTINUOUS
370
    -3
390
A0C
  0
LAYER
  5
76F
330
2
100
AcDbSymbolTableRecord
100
AcDbLayerTableRecord
  2
WOOD
 70
     0
 62
     5
  6
CONTINUOUS
370
    -3
390
A0C
  0
ENDTAB
  0
TABLE
  2
STYLE
  5
3
330
0
100
AcDbSymbolTable
 70
     5
  0
STYLE
  5
17
330
3
100
AcDbSymbolTableRecord
100
AcDbTextStyleTableRecord
  2
STANDARD
 70
     0
 40
0.0
 41
1.0
 50
0.0
 71
     0
 42
0.2
  3
txt
  4

  0
ENDTAB
  0
TABLE
  2
VIEW
  5
5
330
0
100
AcDbSymbolTable
 70
     0
  0
ENDTAB
  0
TABLE
  2
UCS
  5
6
330
0
100
AcDbSymbolTable
 70
     0
  0
ENDTAB
  0
TABLE
  2
APPID
  5
8
330
0
100
AcDbSymbolTable
 70
     2
  0
APPID
  5
16
330
8
100
AcDbSymbolTableRecord
100
AcDbRegAppTableRecord
  2
ACAD
 70
     0
  0
APPID
  5
A59
330
8
100
AcDbSymbolTableRecord
100
AcDbRegAppTableRecord
  2
DCO15
 70
     0
  0
ENDTAB
  0
TABLE
  2
DIMSTYLE
  5
9
330
0
100
AcDbSymbolTable
 70
     1
100
AcDbDimStyleTable
  0
DIMSTYLE
105
18
330
9
100
AcDbSymbolTableRecord
100
AcDbDimStyleTableRecord
  2
STANDARD
 70
     0
  3

  4

289
     0
340
17
  0
ENDTAB
  0
TABLE
  2
BLOCK_RECORD
  5
1
330
0
100
AcDbSymbolTable
 70
   177
  0
BLOCK_RECORD
  5
A
330
1
100
AcDbSymbolTableRecord
100
AcDbBlockTableRecord
  2
*MODEL_SPACE
340
A0F
  0
BLOCK_RECORD
  5
B
330
1
100
AcDbSymbolTableRecord
100
AcDbBlockTableRecord
  2
*PAPER_SPACE
340
A10
  0
BLOCK_RECORD
  5
22
330
1
100
AcDbSymbolTableRecord
100
AcDbBlockTableRecord
  2
AI9-BLK1
340
0
102
{BLKREFS
331
23
102
}
  0
BLOCK_RECORD
  5
25
330
1
100
AcDbSymbolTableRecord
100
AcDbBlockTableRecord
  2
AI9-BLK2
340
0
102
{BLKREFS
331
26
102
}
  0
BLOCK_RECORD
  5
28
330
1
100
AcDbSymbolTableRecord
100
AcDbBlockTableRecord
  2
AI9-BLK3
340
0
102
{BLKREFS
331
29
102
}
  0
BLOCK_RECORD
  5
2D
330
1
100
AcDbSymbolTableRecord
100
AcDbBlockTableRecord
  2
AI9-BLK4
340
0
102
{BLKREFS
331
2E
102
}
  0
BLOCK_RECORD
  5
3E
330
1
100
AcDbSymbolTableRecord
100
AcDbBlockTableRecord
  2
AI9-BLK5
340
0
102
{BLKREFS
331
3F
102
}
  0
BLOCK_RECORD
  5
4E
330
1
100
AcDbSymbolTableRecord
100
AcDbBlockTableRecord
  2
AI9-BLK6
340
0
102
{BLKREFS
331
4F
102
}
  0
BLOCK_RECORD
  5
51
330
1
100
AcDbSymbolTableRecord
100
AcDbBlockTableRecord
  2
AI9-BLK7
340
0
102
{BLKREFS
331
52
102
}
  0
BLOCK_RECORD
  5
54
330
1
100
AcDbSymbolTableRecord
100
AcDbBlockTableRecord
  2
AI9-BLK8
340
0
102
{BLKREFS
331
55
102
}
  0
BLOCK_RECORD
  5
59
330
1
100
AcDbSymbolTableRecord
100
AcDbBlockTableRecord
  2
AI9-BLK9
340
0
102
{BLKREFS
331
5A
102
}
  0
BLOCK_RECORD
  5
6A
330
1
100
AcDbSymbolTableRecord
100
AcDbBlockTableRecord
  2
AI9-BLK10
340
0
102
{BLKREFS
331
6B
102
}
  0
BLOCK_RECORD
  5
86
330
1
100
AcDbSymbolTableRecord
100
AcDbBlockTableRecord
  2
AI9-BLK11
340
0
102
{BLKREFS
331
87
102
}
  0
BLOCK_RECORD
  5
8D
330
1
100
AcDbSymbolTableRecord
100
AcDbBlockTableRecord
  2
AI9-BLK12
340
0
102
{BLKREFS
331
8E
102
}
  0
BLOCK_RECORD
  5
AC
330
1
100
AcDbSymbolTableRecord
100
AcDbBlockTableRecord
  2
AI9-BLK13
340
0
102
{BLKREFS
331
AD
102
}
  0
BLOCK_RECORD
  5
B2
330
1
100
AcDbSymbolTableRecord
100
AcDbBlockTableRecord
  2
AI9-BLK14
340
0
102
{BLKREFS
331
B3
102
}
  0
BLOCK_RECORD
  5
B8
330
1
100
AcDbSymbolTableRecord
100
AcDbBlockTableRecord
  2
AI9-BLK15
340
0
102
{BLKREFS
331
B9
102
}
  0
BLOCK_RECORD
  5
BE
330
1
100
AcDbSymbolTableRecord
100
AcDbBlockTableRecord
  2
AI9-BLK16
340
0
102
{BLKREFS
331
BF
102
}
  0
BLOCK_RECORD
  5
C4
330
1
100
AcDbSymbolTableRecord
100
AcDbBlockTableRecord
  2
AI9-BLK17
340
0
102
{BLKREFS
331
C5
102
}
  0
BLOCK_RECORD
  5
CA
330
1
100
AcDbSymbolTableRecord
100
AcDbBlockTableRecord
  2
AI9-BLK18
340
0
102
{BLKREFS
331
CB
102
}
  0
BLOCK_RECORD
  5
D0
330
1
100
AcDbSymbolTableRecord
100
AcDbBlockTableRecord
  2
AI9-BLK19
340
0
102
{BLKREFS
331
D1
102
}
  0
BLOCK_RECORD
  5
D6
330
1
100
AcDbSymbolTableRecord
100
AcDbBlockTableRecord
  2
AI9-BLK20
340
0
102
{BLKREFS
331
D7
102
}
  0
BLOCK_RECORD
  5
DC
330
1
100
AcDbSymbolTableRecord
100
AcDbBlockTableRecord
  2
AI9-BLK21
340
0
102
{BLKREFS
331
DD
102
}
  0
BLOCK_RECORD
  5
E2
330
1
100
AcDbSymbolTableRecord
100
AcDbBlockTableRecord
  2
AI9-BLK22
340
0
102
{BLKREFS
331
E3
102
}
  0
BLOCK_RECORD
  5
E8
330
1
100
AcDbSymbolTableRecord
100
AcDbBlockTableRecord
  2
AI9-BLK23
340
0
102
{BLKREFS
331
E9
102
}
  0
BLOCK_RECORD
  5
EE
330
1
100
AcDbSymbolTableRecord
100
AcDbBlockTableRecord
  2
AI9-BLK24
340
0
102
{BLKREFS
331
EF
102
}
  0
BLOCK_RECORD
  5
F4
330
1
100
AcDbSymbolTableRecord
100
AcDbBlockTableRecord
  2
AI9-BLK25
340
0
102
{BLKREFS
331
F5
102
}
  0
BLOCK_RECORD
  5
FA
330
1
100
AcDbSymbolTableRecord
100
AcDbBlockTableRecord
  2
AI9-BLK26
340
0
102
{BLKREFS
331
FB
102
}
  0
BLOCK_RECORD
  5
100
330
1
100
AcDbSymbolTableRecord
100
AcDbBlockTableRecord
  2
AI9-BLK27
340
0
102
{BLKREFS
331
101
102
}
  0
BLOCK_RECORD
  5
106
330
1
100
AcDbSymbolTableRecord
100
AcDbBlockTableRecord
  2
AI9-BLK28
340
0
102
{BLKREFS
331
107
102
}
  0
BLOCK_RECORD
  5
10C
330
1
100
AcDbSymbolTableRecord
100
AcDbBlockTableRecord
  2
AI9-BLK29
340
0
102
{BLKREFS
331
10D
102
}
  0
BLOCK_RECORD
  5
112
330
1
100
AcDbSymbolTableRecord
100
AcDbBlockTableRecord
  2
AI9-BLK30
340
0
102
{BLKREFS
331
113
102
}
  0
BLOCK_RECORD
  5
118
330
1
100
AcDbSymbolTableRecord
100
AcDbBlockTableRecord
  2
AI9-BLK31
340
0
102
{BLKREFS
331
119
102
}
  0
BLOCK_RECORD
  5
11E
330
1
100
AcDbSymbolTableRecord
100
AcDbBlockTableRecord
  2
AI9-BLK32
340
0
102
{BLKREFS
331
11F
102
}
  0
BLOCK_RECORD
  5
124
330
1
100
AcDbSymbolTableRecord
100
AcDbBlockTableRecord
  2
AI9-BLK33
340
0
102
{BLKREFS
331
125
102
}
  0
BLOCK_RECORD
  5
12A
330
1
100
AcDbSymbolTableRecord
100
AcDbBlockTableRecord
  2
AI9-BLK34
340
0
102
{BLKREFS
331
12B
102
}
  0
BLOCK_RECORD
  5
130
330
1
100
AcDbSymbolTableRecord
100
AcDbBlockTableRecord
  2
AI9-BLK35
340
0
102
{BLKREFS
331
131
102
}
  0
BLOCK_RECORD
  5
136
330
1
100
AcDbSymbolTableRecord
100
AcDbBlockTableRecord
  2
AI9-BLK36
340
0
102
{BLKREFS
331
137
102
}
  0
BLOCK_RECORD
  5
13C
330
1
100
AcDbSymbolTableRecord
100
AcDbBlockTableRecord
  2
AI9-BLK37
340
0
102
{BLKREFS
331
13D
102
}
  0
BLOCK_RECORD
  5
142
330
1
100
AcDbSymbolTableRecord
100
AcDbBlockTableRecord
  2
AI9-BLK38
340
0
102
{BLKREFS
331
143
102
}
  0
BLOCK_RECORD
  5
148
330
1
100
AcDbSymbolTableRecord
100
AcDbBlockTableRecord
  2
AI9-BLK39
340
0
102
{BLKREFS
331
149
102
}
  0
BLOCK_RECORD
  5
15C
330
1
100
AcDbSymbolTableRecord
100
AcDbBlockTableRecord
  2
AI9-BLK40
340
0
102
{BLKREFS
331
15D
102
}
  0
BLOCK_RECORD
  5
170
330
1
100
AcDbSymbolTableRecord
100
AcDbBlockTableRecord
  2
AI9-BLK41
340
0
102
{BLKREFS
331
171
102
}
  0
BLOCK_RECORD
  5
184
330
1
100
AcDbSymbolTableRecord
100
AcDbBlockTableRecord
  2
AI9-BLK42
340
0
102
{BLKREFS
331
185
102
}
  0
BLOCK_RECORD
  5
198
330
1
100
AcDbSymbolTableRecord
100
AcDbBlockTableRecord
  2
AI9-BLK43
340
0
102
{BLKREFS
331
199
102
}
  0
BLOCK_RECORD
  5
19E
330
1
100
AcDbSymbolTableRecord
100
AcDbBlockTableRecord
  2
AI9-BLK44
340
0
102
{BLKREFS
331
19F
102
}
  0
BLOCK_RECORD
  5
1A6
330
1
100
AcDbSymbolTableRecord
100
AcDbBlockTableRecord
  2
AI9-BLK45
340
0
102
{BLKREFS
331
1A7
102
}
  0
BLOCK_RECORD
  5
1BE
330
1
100
AcDbSymbolTableRecord
100
AcDbBlockTableRecord
  2
AI9-BLK47
340
0
  0
BLOCK_RECORD
  5
1C9
330
1
100
AcDbSymbolTableRecord
100
AcDbBlockTableRecord
  2
AI9-BLK48
340
0
  0
BLOCK_RECORD
  5
1D4
330
1
100
AcDbSymbolTableRecord
100
AcDbBlockTableRecord
  2
AI9-BLK49
340
0
  0
BLOCK_RECORD
  5
1DF
330
1
100
AcDbSymbolTableRecord
100
AcDbBlockTableRecord
  2
AI9-BLK50
340
0
  0
BLOCK_RECORD
  5
1EA
330
1
100
AcDbSymbolTableRecord
100
AcDbBlockTableRecord
  2
AI9-BLK51
340
0
  0
BLOCK_RECORD
  5
1F5
330
1
100
AcDbSymbolTableRecord
100
AcDbBlockTableRecord
  2
AI9-BLK52
340
0
  0
BLOCK_RECORD
  5
200
330
1
100
AcDbSymbolTableRecord
100
AcDbBlockTableRecord
  2
AI9-BLK53
340
0
  0
BLOCK_RECORD
  5
20B
330
1
100
AcDbSymbolTableRecord
100
AcDbBlockTableRecord
  2
AI9-BLK54
340
0
  0
BLOCK_RECORD
  5
216
330
1
100
AcDbSymbolTableRecord
100
AcDbBlockTableRecord
  2
AI9-BLK55
340
0
  0
BLOCK_RECORD
  5
221
330
1
100
AcDbSymbolTableRecord
100
AcDbBlockTableRecord
  2
AI9-BLK56
340
0
  0
BLOCK_RECORD
  5
22C
330
1
100
AcDbSymbolTableRecord
100
AcDbBlockTableRecord
  2
AI9-BLK57
340
0
  0
BLOCK_RECORD
  5
237
330
1
100
AcDbSymbolTableRecord
100
AcDbBlockTableRecord
  2
AI9-BLK58
340
0
  0
BLOCK_RECORD
  5
242
330
1
100
AcDbSymbolTableRecord
100
AcDbBlockTableRecord
  2
AI9-BLK59
340
0
  0
BLOCK_RECORD
  5
24D
330
1
100
AcDbSymbolTableRecord
100
AcDbBlockTableRecord
  2
AI9-BLK60
340
0
  0
BLOCK_RECORD
  5
258
330
1
100
AcDbSymbolTableRecord
100
AcDbBlockTableRecord
  2
AI9-BLK61
340
0
  0
BLOCK_RECORD
  5
263
330
1
100
AcDbSymbolTableRecord
100
AcDbBlockTableRecord
  2
AI9-BLK62
340
0
  0
BLOCK_RECORD
  5
26E
330
1
100
AcDbSymbolTableRecord
100
AcDbBlockTableRecord
  2
AI9-BLK63
340
0
  0
BLOCK_RECORD
  5
279
330
1
100
AcDbSymbolTableRecord
100
AcDbBlockTableRecord
  2
AI9-BLK64
340
0
  0
BLOCK_RECORD
  5
284
330
1
100
AcDbSymbolTableRecord
100
AcDbBlockTableRecord
  2
AI9-BLK65
340
0
  0
BLOCK_RECORD
  5
28F
330
1
100
AcDbSymbolTableRecord
100
AcDbBlockTableRecord
  2
AI9-BLK66
340
0
  0
BLOCK_RECORD
  5
29A
330
1
100
AcDbSymbolTableRecord
100
AcDbBlockTableRecord
  2
AI9-BLK67
340
0
  0
BLOCK_RECORD
  5
2A5
330
1
100
AcDbSymbolTableRecord
100
AcDbBlockTableRecord
  2
AI9-BLK68
340
0
  0
BLOCK_RECORD
  5
2B0
330
1
100
AcDbSymbolTableRecord
100
AcDbBlockTableRecord
  2
AI9-BLK69
340
0
  0
BLOCK_RECORD
  5
2BB
330
1
100
AcDbSymbolTableRecord
100
AcDbBlockTableRecord
  2
AI9-BLK70
340
0
  0
BLOCK_RECORD
  5
2C6
330
1
100
AcDbSymbolTableRecord
100
AcDbBlockTableRecord
  2
AI9-BLK71
340
0
  0
BLOCK_RECORD
  5
2D1
330
1
100
AcDbSymbolTableRecord
100
AcDbBlockTableRecord
  2
AI9-BLK72
340
0
  0
BLOCK_RECORD
  5
2DC
330
1
100
AcDbSymbolTableRecord
100
AcDbBlockTableRecord
  2
AI9-BLK73
340
0
  0
BLOCK_RECORD
  5
2E7
330
1
100
AcDbSymbolTableRecord
100
AcDbBlockTableRecord
  2
AI9-BLK74
340
0
  0
BLOCK_RECORD
  5
2F2
330
1
100
AcDbSymbolTableRecord
100
AcDbBlockTableRecord
  2
AI9-BLK75
340
0
  0
BLOCK_RECORD
  5
2FD
330
1
100
AcDbSymbolTableRecord
100
AcDbBlockTableRecord
  2
AI9-BLK76
340
0
  0
BLOCK_RECORD
  5
308
330
1
100
AcDbSymbolTableRecord
100
AcDbBlockTableRecord
  2
AI9-BLK77
340
0
  0
BLOCK_RECORD
  5
313
330
1
100
AcDbSymbolTableRecord
100
AcDbBlockTableRecord
  2
AI9-BLK78
340
0
  0
BLOCK_RECORD
  5
31E
330
1
100
AcDbSymbolTableRecord
100
AcDbBlockTableRecord
  2
AI9-BLK79
340
0
  0
BLOCK_RECORD
  5
329
330
1
100
AcDbSymbolTableRecord
100
AcDbBlockTableRecord
  2
AI9-BLK80
340
0
  0
BLOCK_RECORD
  5
334
330
1
100
AcDbSymbolTableRecord
100
AcDbBlockTableRecord
  2
AI9-BLK81
340
0
  0
BLOCK_RECORD
  5
33F
330
1
100
AcDbSymbolTableRecord
100
AcDbBlockTableRecord
  2
AI9-BLK82
340
0
  0
BLOCK_RECORD
  5
34A
330
1
100
AcDbSymbolTableRecord
100
AcDbBlockTableRecord
  2
AI9-BLK83
340
0
  0
BLOCK_RECORD
  5
355
330
1
100
AcDbSymbolTableRecord
100
AcDbBlockTableRecord
  2
AI9-BLK84
340
0
  0
BLOCK_RECORD
  5
360
330
1
100
AcDbSymbolTableRecord
100
AcDbBlockTableRecord
  2
AI9-BLK85
340
0
  0
BLOCK_RECORD
  5
36B
330
1
100
AcDbSymbolTableRecord
100
AcDbBlockTableRecord
  2
AI9-BLK86
340
0
  0
BLOCK_RECORD
  5
376
330
1
100
AcDbSymbolTableRecord
100
AcDbBlockTableRecord
  2
AI9-BLK87
340
0
  0
BLOCK_RECORD
  5
381
330
1
100
AcDbSymbolTableRecord
100
AcDbBlockTableRecord
  2
AI9-BLK88
340
0
  0
BLOCK_RECORD
  5
38C
330
1
100
AcDbSymbolTableRecord
100
AcDbBlockTableRecord
  2
AI9-BLK89
340
0
  0
BLOCK_RECORD
  5
397
330
1
100
AcDbSymbolTableRecord
100
AcDbBlockTableRecord
  2
AI9-BLK90
340
0
  0
BLOCK_RECORD
  5
3A2
330
1
100
AcDbSymbolTableRecord
100
AcDbBlockTableRecord
  2
AI9-BLK91
340
0
  0
BLOCK_RECORD
  5
3AD
330
1
100
AcDbSymbolTableRecord
100
AcDbBlockTableRecord
  2
AI9-BLK92
340
0
  0
BLOCK_RECORD
  5
3B8
330
1
100
AcDbSymbolTableRecord
100
AcDbBlockTableRecord
  2
AI9-BLK93
340
0
  0
BLOCK_RECORD
  5
3C3
330
1
100
AcDbSymbolTableRecord
100
AcDbBlockTableRecord
  2
AI9-BLK94
340
0
  0
BLOCK_RECORD
  5
3CE
330
1
100
AcDbSymbolTableRecord
100
AcDbBlockTableRecord
  2
AI9-BLK95
340
0
  0
BLOCK_RECORD
  5
3D9
330
1
100
AcDbSymbolTableRecord
100
AcDbBlockTableRecord
  2
AI9-BLK96
340
0
  0
BLOCK_RECORD
  5
3E4
330
1
100
AcDbSymbolTableRecord
100
AcDbBlockTableRecord
  2
AI9-BLK97
340
0
  0
BLOCK_RECORD
  5
3EF
330
1
100
AcDbSymbolTableRecord
100
AcDbBlockTableRecord
  2
AI9-BLK98
340
0
  0
BLOCK_RECORD
  5
3FA
330
1
100
AcDbSymbolTableRecord
100
AcDbBlockTableRecord
  2
AI9-BLK99
340
0
  0
BLOCK_RECORD
  5
405
330
1
100
AcDbSymbolTableRecord
100
AcDbBlockTableRecord
  2
AI9-BLK100
340
0
  0
BLOCK_RECORD
  5
410
330
1
100
AcDbSymbolTableRecord
100
AcDbBlockTableRecord
  2
AI9-BLK101
340
0
  0
BLOCK_RECORD
  5
41B
330
1
100
AcDbSymbolTableRecord
100
AcDbBlockTableRecord
  2
AI9-BLK102
340
0
  0
BLOCK_RECORD
  5
426
330
1
100
AcDbSymbolTableRecord
100
AcDbBlockTableRecord
  2
AI9-BLK103
340
0
  0
BLOCK_RECORD
  5
431
330
1
100
AcDbSymbolTableRecord
100
AcDbBlockTableRecord
  2
AI9-BLK104
340
0
  0
BLOCK_RECORD
  5
43C
330
1
100
AcDbSymbolTableRecord
100
AcDbBlockTableRecord
  2
AI9-BLK105
340
0
  0
BLOCK_RECORD
  5
447
330
1
100
AcDbSymbolTableRecord
100
AcDbBlockTableRecord
  2
AI9-BLK106
340
0
  0
BLOCK_RECORD
  5
452
330
1
100
AcDbSymbolTableRecord
100
AcDbBlockTableRecord
  2
AI9-BLK107
340
0
  0
BLOCK_RECORD
  5
45D
330
1
100
AcDbSymbolTableRecord
100
AcDbBlockTableRecord
  2
AI9-BLK108
340
0
  0
BLOCK_RECORD
  5
468
330
1
100
AcDbSymbolTableRecord
100
AcDbBlockTableRecord
  2
AI9-BLK109
340
0
  0
BLOCK_RECORD
  5
473
330
1
100
AcDbSymbolTableRecord
100
AcDbBlockTableRecord
  2
AI9-BLK110
340
0
  0
BLOCK_RECORD
  5
47E
330
1
100
AcDbSymbolTableRecord
100
AcDbBlockTableRecord
  2
AI9-BLK111
340
0
  0
BLOCK_RECORD
  5
499
330
1
100
AcDbSymbolTableRecord
100
AcDbBlockTableRecord
  2
AI9-BLK113
340
0
102
{BLKREFS
331
A55
102
}
  0
BLOCK_RECORD
  5
4A4
330
1
100
AcDbSymbolTableRecord
100
AcDbBlockTableRecord
  2
AI9-BLK114
340
0
102
{BLKREFS
331
A54
102
}
  0
BLOCK_RECORD
  5
4AF
330
1
100
AcDbSymbolTableRecord
100
AcDbBlockTableRecord
  2
AI9-BLK115
340
0
102
{BLKREFS
331
A53
102
}
  0
BLOCK_RECORD
  5
4BA
330
1
100
AcDbSymbolTableRecord
100
AcDbBlockTableRecord
  2
AI9-BLK116
340
0
102
{BLKREFS
331
A52
102
}
  0
BLOCK_RECORD
  5
4C5
330
1
100
AcDbSymbolTableRecord
100
AcDbBlockTableRecord
  2
AI9-BLK117
340
0
102
{BLKREFS
331
A51
102
}
  0
BLOCK_RECORD
  5
4D0
330
1
100
AcDbSymbolTableRecord
100
AcDbBlockTableRecord
  2
AI9-BLK118
340
0
102
{BLKREFS
331
A50
102
}
  0
BLOCK_RECORD
  5
4DB
330
1
100
AcDbSymbolTableRecord
100
AcDbBlockTableRecord
  2
AI9-BLK119
340
0
102
{BLKREFS
331
A4F
102
}
  0
BLOCK_RECORD
  5
4E6
330
1
100
AcDbSymbolTableRecord
100
AcDbBlockTableRecord
  2
AI9-BLK120
340
0
102
{BLKREFS
331
A4E
102
}
  0
BLOCK_RECORD
  5
4F1
330
1
100
AcDbSymbolTableRecord
100
AcDbBlockTableRecord
  2
AI9-BLK121
340
0
102
{BLKREFS
331
A4D
102
}
  0
BLOCK_RECORD
  5
4FC
330
1
100
AcDbSymbolTableRecord
100
AcDbBlockTableRecord
  2
AI9-BLK122
340
0
102
{BLKREFS
331
A4C
102
}
  0
BLOCK_RECORD
  5
507
330
1
100
AcDbSymbolTableRecord
100
AcDbBlockTableRecord
  2
AI9-BLK123
340
0
102
{BLKREFS
331
A4B
102
}
  0
BLOCK_RECORD
  5
512
330
1
100
AcDbSymbolTableRecord
100
AcDbBlockTableRecord
  2
AI9-BLK124
340
0
102
{BLKREFS
331
A4A
102
}
  0
BLOCK_RECORD
  5
51D
330
1
100
AcDbSymbolTableRecord
100
AcDbBlockTableRecord
  2
AI9-BLK125
340
0
102
{BLKREFS
331
A49
102
}
  0
BLOCK_RECORD
  5
528
330
1
100
AcDbSymbolTableRecord
100
AcDbBlockTableRecord
  2
AI9-BLK126
340
0
102
{BLKREFS
331
A48
102
}
  0
BLOCK_RECORD
  5
533
330
1
100
AcDbSymbolTableRecord
100
AcDbBlockTableRecord
  2
AI9-BLK127
340
0
102
{BLKREFS
331
A47
102
}
  0
BLOCK_RECORD
  5
53E
330
1
100
AcDbSymbolTableRecord
100
AcDbBlockTableRecord
  2
AI9-BLK128
340
0
102
{BLKREFS
331
A46
102
}
  0
BLOCK_RECORD
  5
549
330
1
100
AcDbSymbolTableRecord
100
AcDbBlockTableRecord
  2
AI9-BLK129
340
0
102
{BLKREFS
331
A45
102
}
  0
BLOCK_RECORD
  5
554
330
1
100
AcDbSymbolTableRecord
100
AcDbBlockTableRecord
  2
AI9-BLK130
340
0
102
{BLKREFS
331
A44
102
}
  0
BLOCK_RECORD
  5
55F
330
1
100
AcDbSymbolTableRecord
100
AcDbBlockTableRecord
  2
AI9-BLK131
340
0
102
{BLKREFS
331
A43
102
}
  0
BLOCK_RECORD
  5
56A
330
1
100
AcDbSymbolTableRecord
100
AcDbBlockTableRecord
  2
AI9-BLK132
340
0
102
{BLKREFS
331
A42
102
}
  0
BLOCK_RECORD
  5
575
330
1
100
AcDbSymbolTableRecord
100
AcDbBlockTableRecord
  2
AI9-BLK133
340
0
102
{BLKREFS
331
A41
102
}
  0
BLOCK_RECORD
  5
580
330
1
100
AcDbSymbolTableRecord
100
AcDbBlockTableRecord
  2
AI9-BLK134
340
0
102
{BLKREFS
331
A40
102
}
  0
BLOCK_RECORD
  5
58B
330
1
100
AcDbSymbolTableRecord
100
AcDbBlockTableRecord
  2
AI9-BLK135
340
0
102
{BLKREFS
331
A3F
102
}
  0
BLOCK_RECORD
  5
596
330
1
100
AcDbSymbolTableRecord
100
AcDbBlockTableRecord
  2
AI9-BLK136
340
0
102
{BLKREFS
331
A3E
102
}
  0
BLOCK_RECORD
  5
5A1
330
1
100
AcDbSymbolTableRecord
100
AcDbBlockTableRecord
  2
AI9-BLK137
340
0
102
{BLKREFS
331
A3D
102
}
  0
BLOCK_RECORD
  5
5AC
330
1
100
AcDbSymbolTableRecord
100
AcDbBlockTableRecord
  2
AI9-BLK138
340
0
102
{BLKREFS
331
A3C
102
}
  0
BLOCK_RECORD
  5
5B7
330
1
100
AcDbSymbolTableRecord
100
AcDbBlockTableRecord
  2
AI9-BLK139
340
0
102
{BLKREFS
331
A3B
102
}
  0
BLOCK_RECORD
  5
5C2
330
1
100
AcDbSymbolTableRecord
100
AcDbBlockTableRecord
  2
AI9-BLK140
340
0
102
{BLKREFS
331
A3A
102
}
  0
BLOCK_RECORD
  5
5CD
330
1
100
AcDbSymbolTableRecord
100
AcDbBlockTableRecord
  2
AI9-BLK141
340
0
102
{BLKREFS
331
A39
102
}
  0
BLOCK_RECORD
  5
5D8
330
1
100
AcDbSymbolTableRecord
100
AcDbBlockTableRecord
  2
AI9-BLK142
340
0
102
{BLKREFS
331
A38
102
}
  0
BLOCK_RECORD
  5
5E3
330
1
100
AcDbSymbolTableRecord
100
AcDbBlockTableRecord
  2
AI9-BLK143
340
0
102
{BLKREFS
331
A37
102
}
  0
BLOCK_RECORD
  5
5EE
330
1
100
AcDbSymbolTableRecord
100
AcDbBlockTableRecord
  2
AI9-BLK144
340
0
102
{BLKREFS
331
A36
102
}
  0
BLOCK_RECORD
  5
5F9
330
1
100
AcDbSymbolTableRecord
100
AcDbBlockTableRecord
  2
AI9-BLK145
340
0
102
{BLKREFS
331
A35
102
}
  0
BLOCK_RECORD
  5
604
330
1
100
AcDbSymbolTableRecord
100
AcDbBlockTableRecord
  2
AI9-BLK146
340
0
102
{BLKREFS
331
A34
102
}
  0
BLOCK_RECORD
  5
60F
330
1
100
AcDbSymbolTableRecord
100
AcDbBlockTableRecord
  2
AI9-BLK147
340
0
102
{BLKREFS
331
A33
102
}
  0
BLOCK_RECORD
  5
61A
330
1
100
AcDbSymbolTableRecord
100
AcDbBlockTableRecord
  2
AI9-BLK148
340
0
102
{BLKREFS
331
A32
102
}
  0
BLOCK_RECORD
  5
625
330
1
100
AcDbSymbolTableRecord
100
AcDbBlockTableRecord
  2
AI9-BLK149
340
0
102
{BLKREFS
331
A31
102
}
  0
BLOCK_RECORD
  5
630
330
1
100
AcDbSymbolTableRecord
100
AcDbBlockTableRecord
  2
AI9-BLK150
340
0
102
{BLKREFS
331
A30
102
}
  0
BLOCK_RECORD
  5
63B
330
1
100
AcDbSymbolTableRecord
100
AcDbBlockTableRecord
  2
AI9-BLK151
340
0
102
{BLKREFS
331
A2F
102
}
  0
BLOCK_RECORD
  5
646
330
1
100
AcDbSymbolTableRecord
100
AcDbBlockTableRecord
  2
AI9-BLK152
340
0
102
{BLKREFS
331
A2E
102
}
  0
BLOCK_RECORD
  5
651
330
1
100
AcDbSymbolTableRecord
100
AcDbBlockTableRecord
  2
AI9-BLK153
340
0
102
{BLKREFS
331
A2D
102
}
  0
BLOCK_RECORD
  5
65C
330
1
100
AcDbSymbolTableRecord
100
AcDbBlockTableRecord
  2
AI9-BLK154
340
0
102
{BLKREFS
331
A2C
102
}
  0
BLOCK_RECORD
  5
667
330
1
100
AcDbSymbolTableRecord
100
AcDbBlockTableRecord
  2
AI9-BLK155
340
0
102
{BLKREFS
331
A2B
102
}
  0
BLOCK_RECORD
  5
672
330
1
100
AcDbSymbolTableRecord
100
AcDbBlockTableRecord
  2
AI9-BLK156
340
0
102
{BLKREFS
331
A2A
102
}
  0
BLOCK_RECORD
  5
67D
330
1
100
AcDbSymbolTableRecord
100
AcDbBlockTableRecord
  2
AI9-BLK157
340
0
102
{BLKREFS
331
A29
102
}
  0
BLOCK_RECORD
  5
688
330
1
100
AcDbSymbolTableRecord
100
AcDbBlockTableRecord
  2
AI9-BLK158
340
0
102
{BLKREFS
331
A28
102
}
  0
BLOCK_RECORD
  5
693
330
1
100
AcDbSymbolTableRecord
100
AcDbBlockTableRecord
  2
AI9-BLK159
340
0
102
{BLKREFS
331
A27
102
}
  0
BLOCK_RECORD
  5
69E
330
1
100
AcDbSymbolTableRecord
100
AcDbBlockTableRecord
  2
AI9-BLK160
340
0
102
{BLKREFS
331
A26
102
}
  0
BLOCK_RECORD
  5
6A9
330
1
100
AcDbSymbolTableRecord
100
AcDbBlockTableRecord
  2
AI9-BLK161
340
0
102
{BLKREFS
331
A25
102
}
  0
BLOCK_RECORD
  5
6B4
330
1
100
AcDbSymbolTableRecord
100
AcDbBlockTableRecord
  2
AI9-BLK162
340
0
102
{BLKREFS
331
A24
102
}
  0
BLOCK_RECORD
  5
6BF
330
1
100
AcDbSymbolTableRecord
100
AcDbBlockTableRecord
  2
AI9-BLK163
340
0
102
{BLKREFS
331
A23
102
}
  0
BLOCK_RECORD
  5
6CA
330
1
100
AcDbSymbolTableRecord
100
AcDbBlockTableRecord
  2
AI9-BLK164
340
0
102
{BLKREFS
331
A22
102
}
  0
BLOCK_RECORD
  5
6D5
330
1
100
AcDbSymbolTableRecord
100
AcDbBlockTableRecord
  2
AI9-BLK165
340
0
102
{BLKREFS
331
A21
102
}
  0
BLOCK_RECORD
  5
6E0
330
1
100
AcDbSymbolTableRecord
100
AcDbBlockTableRecord
  2
AI9-BLK166
340
0
102
{BLKREFS
331
A20
102
}
  0
BLOCK_RECORD
  5
6EB
330
1
100
AcDbSymbolTableRecord
100
AcDbBlockTableRecord
  2
AI9-BLK167
340
0
102
{BLKREFS
331
A1F
102
}
  0
BLOCK_RECORD
  5
6F6
330
1
100
AcDbSymbolTableRecord
100
AcDbBlockTableRecord
  2
AI9-BLK168
340
0
102
{BLKREFS
331
A1E
102
}
  0
BLOCK_RECORD
  5
701
330
1
100
AcDbSymbolTableRecord
100
AcDbBlockTableRecord
  2
AI9-BLK169
340
0
102
{BLKREFS
331
A1D
102
}
  0
BLOCK_RECORD
  5
70C
330
1
100
AcDbSymbolTableRecord
100
AcDbBlockTableRecord
  2
AI9-BLK170
340
0
102
{BLKREFS
331
A1C
102
}
  0
BLOCK_RECORD
  5
717
330
1
100
AcDbSymbolTableRecord
100
AcDbBlockTableRecord
  2
AI9-BLK171
340
0
102
{BLKREFS
331
A1B
102
}
  0
BLOCK_RECORD
  5
722
330
1
100
AcDbSymbolTableRecord
100
AcDbBlockTableRecord
  2
AI9-BLK172
340
0
102
{BLKREFS
331
A1A
102
}
  0
BLOCK_RECORD
  5
72D
330
1
100
AcDbSymbolTableRecord
100
AcDbBlockTableRecord
  2
AI9-BLK173
340
0
102
{BLKREFS
331
A19
102
}
  0
BLOCK_RECORD
  5
738
330
1
100
AcDbSymbolTableRecord
100
AcDbBlockTableRecord
  2
AI9-BLK174
340
0
102
{BLKREFS
331
A18
102
}
  0
BLOCK_RECORD
  5
743
330
1
100
AcDbSymbolTableRecord
100
AcDbBlockTableRecord
  2
AI9-BLK175
340
0
102
{BLKREFS
331
A17
102
}
  0
BLOCK_RECORD
  5
74E
330
1
100
AcDbSymbolTableRecord
100
AcDbBlockTableRecord
  2
AI9-BLK176
340
0
102
{BLKREFS
331
A16
102
}
  0
BLOCK_RECORD
  5
759
330
1
100
AcDbSymbolTableRecord
100
AcDbBlockTableRecord
  2
AI9-BLK177
340
0
102
{BLKREFS
331
A15
102
}
  0
ENDTAB
  0
ENDSEC
  0
SECTION
  2
BLOCKS
  0
BLOCK
  5
D
330
A
100
AcDbEntity
  8
0
100
AcDbBlockBegin
  2
*MODEL_SPACE
 70
     0
 10
0.0
 20
0.0
 30
0.0
  3
*MODEL_SPACE
  1

  4

  0
ENDBLK
  5
E
330
A
100
AcDbEntity
  8
0
100
AcDbBlockEnd
  0
BLOCK
  5
F
330
B
100
AcDbEntity
 67
     1
  8
0
100
AcDbBlockBegin
  2
*PAPER_SPACE
 70
     0
 10
0.0
 20
0.0
 30
0.0
  3
*PAPER_SPACE
  1

  4

  0
ENDBLK
  5
10
330
B
100
AcDbEntity
 67
     1
  8
0
100
AcDbBlockEnd
  0
BLOCK
  5
24
330
22
100
AcDbEntity
  8
0
 62
     7
100
AcDbBlockBegin
  2
AI9-BLK1
 70
     0
 10
0.0
 20
0.0
 30
0.0
  3
AI9-BLK1
  1

  4

  0
INSERT
  5
3F
330
22
100
AcDbEntity
  8
LGT
 62
     7
100
AcDbBlockReference
  2
AI9-BLK5
 10
0.0
 20
-2.843840196397569
 30
0.0
  0
INSERT
  5
26
330
22
100
AcDbEntity
  8
LGT
 62
     7
100
AcDbBlockReference
  2
AI9-BLK2
 10
0.1826761881510416
 20
2.652981906467014
 30
0.0
  0
ENDBLK
  5
4D
330
22
100
AcDbEntity
  8
0
100
AcDbBlockEnd
  0
BLOCK
  5
27
330
25
100
AcDbEntity
  8
0
 62
     7
100
AcDbBlockBegin
  2
AI9-BLK2
 70
     0
 10
0.0
 20
0.0
 30
0.0
  3
AI9-BLK2
  1

  4

  0
INSERT
  5
2E
330
25
100
AcDbEntity
  8
LGT
 62
     7
100
AcDbBlockReference
  2
AI9-BLK4
 10
-1.465802001953125
 20
1.617300075954861
 30
0.0
  0
INSERT
  5
29
330
25
100
AcDbEntity
  8
LGT
 62
     7
100
AcDbBlockReference
  2
AI9-BLK3
 10
1.723495144314236
 20
-2.199607340494791
 30
0.0
  0
ENDBLK
  5
3D
330
25
100
AcDbEntity
  8
0
100
AcDbBlockEnd
  0
BLOCK
  5
2A
330
28
100
AcDbEntity
  8
0
 62
     7
100
AcDbBlockBegin
  2
AI9-BLK3
 70
     0
 10
0.0
 20
0.0
 30
0.0
  3
AI9-BLK3
  1

  4

  0
SPLINE
  5
2B
330
28
100
AcDbEntity
  8
LGT
 62
     7
100
AcDbSpline
210
0.0
220
0.0
230
1.0
 70
    11
 71
     3
 72
    56
 73
    52
 74
     0
 42
0.0000000001
 43
0.0000000001
 40
0.0
 40
0.0
 40
0.0
 40
0.0
 40
1.0
 40
1.0
 40
1.0
 40
2.0
 40
2.0
 40
2.0
 40
3.0
 40
3.0
 40
3.0
 40
4.0
 40
4.0
 40
4.0
 40
5.0
 40
5.0
 40
5.0
 40
6.0
 40
6.0
 40
6.0
 40
7.0
 40
7.0
 40
7.0
 40
8.0
 40
8.0
 40
8.0
 40
9.0
 40
9.0
 40
9.0
 40
10.0
 40
10.0
 40
10.0
 40
11.0
 40
11.0
 40
11.0
 40
12.0
 40
12.0
 40
12.0
 40
13.0
 40
13.0
 40
13.0
 40
14.0
 40
14.0
 40
14.0
 40
15.0
 40
15.0
 40
15.0
 40
16.0
 40
16.0
 40
16.0
 40
17.0
 40
17.0
 40
17.0
 40
17.0
 10
-1.4417724609375
 20
-1.985839165581597
 30
0.0
 10
-1.434882269965278
 20
-1.768798149956597
 30
0.0
 10
-1.407493760850694
 20
-1.420498996310764
 30
0.0
 10
-1.35960693359375
 20
-1.139895968967014
 30
0.0
 10
-1.297939724392361
 20
-0.8015875922309027
 30
0.0
 10
-1.044552951388889
 20
-0.4095357259114583
 30
0.0
 10
-0.4554416232638889
 20
0.0424608018663194
 30
0.0
 10
-0.4554416232638889
 20
0.0424608018663194
 30
0.0
 10
0.0103352864583333
 20
0.4000617133246527
 30
0.0
 10
0.0103352864583333
 20
0.4000617133246527
 30
0.0
 10
0.3184990776909722
 20
0.646041531032986
 30
0.0
 10
0.4830023871527777
 20
0.7626580132378471
 30
0.0
 10
0.4830023871527777
 20
1.248933241102431
 30
0.0
 10
0.4830023871527777
 20
1.714710150824653
 30
0.0
 10
0.2980007595486111
 20
1.91245863172743
 30
0.0
 10
0.0239434136284722
 20
1.992040337456597
 30
0.0
 10
-0.1746663411458333
 20
2.049917941623264
 30
0.0
 10
-0.3527777777777778
 20
2.039927164713542
 30
0.0
 10
-0.4211629231770833
 20
1.868189154730903
 30
0.0
 10
-0.5171088324652777
 20
1.669923909505208
 30
0.0
 10
-0.4897203233506944
 20
1.401723225911458
 30
0.0
 10
-0.4966105143229166
 20
1.164011637369792
 30
0.0
 10
-0.4966105143229166
 20
1.164011637369792
 30
0.0
 10
-1.393885633680555
 20
1.424977620442708
 30
0.0
 10
-1.393885633680555
 20
1.424977620442708
 30
0.0
 10
-1.393885633680555
 20
1.424977620442708
 30
0.0
 10
-1.393885633680555
 20
1.568810356987847
 30
0.0
 10
-1.393885633680555
 20
1.568810356987847
 30
0.0
 10
-1.393885633680555
 20
2.020806884765625
 30
0.0
 10
-1.414383951822916
 20
3.177669949001736
 30
0.0
 10
0.0651123046875
 20
2.733597140842014
 30
0.0
 10
0.8733317057291666
 20
2.491579182942708
 30
0.0
 10
1.4417724609375
 20
1.826331244574653
 30
0.0
 10
1.4417724609375
 20
1.004331461588542
 30
0.0
 10
1.4417724609375
 20
0.4357184516059027
 30
0.0
 10
1.229554578993056
 20
0.0660597059461805
 30
0.0
 10
0.8323350694444444
 20
-0.2226392957899305
 30
0.0
 10
0.8323350694444444
 20
-0.2226392957899305
 30
0.0
 10
0.0787204318576389
 20
-0.7843621148003471
 30
0.0
 10
0.0787204318576389
 20
-0.7843621148003471
 30
0.0
 10
-0.1198893229166667
 20
-0.9319844563802082
 30
0.0
 10
-0.4144449869791667
 20
-1.181926133897569
 30
0.0
 10
-0.4211629231770833
 20
-1.529364013671875
 30
0.0
 10
-0.4211629231770833
 20
-1.529364013671875
 30
0.0
 10
1.366497124565972
 20
-2.049228922526042
 30
0.0
 10
1.366497124565972
 20
-2.049228922526042
 30
0.0
 10
1.366497124565972
 20
-2.049228922526042
 30
0.0
 10
1.366497124565972
 20
-2.802671305338541
 30
0.0
 10
1.366497124565972
 20
-2.802671305338541
 30
0.0
 10
1.366497124565972
 20
-2.802671305338541
 30
0.0
 10
-1.4417724609375
 20
-1.985839165581597
 30
0.0
 10
-1.4417724609375
 20
-1.985839165581597
 30
0.0
  0
ENDBLK
  5
2C
330
28
100
AcDbEntity
  8
0
100
AcDbBlockEnd
  0
BLOCK
  5
2F
330
2D
100
AcDbEntity
  8
0
 62
     7
100
AcDbBlockBegin
  2
AI9-BLK4
 70
     0
 10
0.0
 20
0.0
 30
0.0
  3
AI9-BLK4
  1

  4

  0
LWPOLYLINE
  5
30
330
2D
100
AcDbEntity
  8
LGT
 62
     7
100
AcDbPolyline
 90
       10
 70
     1
 43
0.0
 10
-1.699465603298611
 20
-3.036334906684028
 10
-1.699465603298611
 20
3.384978569878472
 10
1.699465603298611
 20
2.396408420138889
 10
1.699465603298611
 20
1.454519314236111
 10
-0.5009168836805555
 20
2.094618055555555
 10
-0.5009168836805555
 20
0.4678439670138889
 10
1.562523057725694
 20
-0.1322916666666666
 10
1.562523057725694
 20
-1.074180772569444
 10
-0.5009168836805555
 20
-0.4740451388888888
 10
-0.5009168836805555
 20
-3.384978569878472
  0
ENDBLK
  5
3C
330
2D
100
AcDbEntity
  8
0
100
AcDbBlockEnd
  0
BLOCK
  5
40
330
3E
100
AcDbEntity
  8
0
 62
     7
100
AcDbBlockBegin
  2
AI9-BLK5
 70
     0
 10
0.0
 20
0.0
 30
0.0
  3
AI9-BLK5
  1

  4

  0
LINE
  5
4B
330
3E
100
AcDbEntity
  8
LGT
 62
     7
100
AcDbLine
 10
-9.480902777777777
 20
3.286965603298611
 30
0.0
 11
10.80381944444444
 21
-3.692108832465277
 31
0.0
  0
LWPOLYLINE
  5
46
330
3E
100
AcDbEntity
  8
LGT
 62
     7
100
AcDbPolyline
 90
        3
 70
     1
 43
0.0
 10
-13.18506944444444
 20
4.421780056423611
 10
-7.452430555555555
 20
4.811420355902778
 10
-7.452430555555555
 20
0.489892578125
  0
LWPOLYLINE
  5
41
330
3E
100
AcDbEntity
  8
LGT
 62
     7
100
AcDbPolyline
 90
        3
 70
     1
 43
0.0
 10
13.18506944444444
 20
-4.421607801649305
 10
7.452430555555555
 20
-4.811420355902778
 10
7.452430555555555
 20
-0.489892578125
  0
ENDBLK
  5
4C
330
3E
100
AcDbEntity
  8
0
100
AcDbBlockEnd
  0
BLOCK
  5
50
330
4E
100
AcDbEntity
  8
0
 62
     7
100
AcDbBlockBegin
  2
AI9-BLK6
 70
     0
 10
0.0
 20
0.0
 30
0.0
  3
AI9-BLK6
  1

  4

  0
INSERT
  5
6B
330
4E
100
AcDbEntity
  8
LGT
 62
     7
100
AcDbBlockReference
  2
AI9-BLK10
 10
0.0
 20
4.430392795138888
 30
0.0
  0
INSERT
  5
52
330
4E
100
AcDbEntity
  8
LGT
 62
     7
100
AcDbBlockReference
  2
AI9-BLK7
 10
0.839828152126736
 20
-3.015061442057291
 30
0.0
  0
ENDBLK
  5
79
330
4E
100
AcDbEntity
  8
0
100
AcDbBlockEnd
  0
BLOCK
  5
53
330
51
100
AcDbEntity
  8
0
 62
     7
100
AcDbBlockBegin
  2
AI9-BLK7
 70
     0
 10
0.0
 20
0.0
 30
0.0
  3
AI9-BLK7
  1

  4

  0
INSERT
  5
5A
330
51
100
AcDbEntity
  8
LGT
 62
     7
100
AcDbBlockReference
  2
AI9-BLK9
 10
-1.337386067708333
 20
0.5742974175347222
 30
0.0
  0
INSERT
  5
55
330
51
100
AcDbEntity
  8
LGT
 62
     7
100
AcDbBlockReference
  2
AI9-BLK8
 10
1.978690592447917
 20
-1.363224283854167
 30
0.0
  0
ENDBLK
  5
69
330
51
100
AcDbEntity
  8
0
100
AcDbBlockEnd
  0
BLOCK
  5
56
330
54
100
AcDbEntity
  8
0
 62
     7
100
AcDbBlockBegin
  2
AI9-BLK8
 70
     0
 10
0.0
 20
0.0
 30
0.0
  3
AI9-BLK8
  1

  4

  0
SPLINE
  5
57
330
54
100
AcDbEntity
  8
LGT
 62
     7
100
AcDbSpline
210
0.0
220
0.0
230
1.0
 70
    11
 71
     3
 72
    26
 73
    22
 74
     0
 42
0.0000000001
 43
0.0000000001
 40
0.0
 40
0.0
 40
0.0
 40
0.0
 40
1.0
 40
1.0
 40
1.0
 40
2.0
 40
2.0
 40
2.0
 40
3.0
 40
3.0
 40
3.0
 40
4.0
 40
4.0
 40
4.0
 40
5.0
 40
5.0
 40
5.0
 40
6.0
 40
6.0
 40
6.0
 40
7.0
 40
7.0
 40
7.0
 40
7.0
 10
0.0993048773871528
 20
0.9356018066406249
 30
0.0
 10
0.0993048773871528
 20
0.9356018066406249
 30
0.0
 10
-1.058247205946181
 20
0.7962476942274305
 30
0.0
 10
-1.058247205946181
 20
0.7962476942274305
 30
0.0
 10
-1.058247205946181
 20
0.7962476942274305
 30
0.0
 10
-1.058247205946181
 20
1.481304931640625
 30
0.0
 10
-1.058247205946181
 20
1.481304931640625
 30
0.0
 10
-0.3938605414496528
 20
1.567949083116319
 30
0.0
 10
0.1609720865885417
 20
1.812895372178819
 30
0.0
 10
0.3526916503906249
 20
2.541360812717014
 30
0.0
 10
0.3526916503906249
 20
2.541360812717014
 30
0.0
 10
1.058247205946181
 20
2.626110161675347
 30
0.0
 10
1.058247205946181
 20
2.626110161675347
 30
0.0
 10
1.058247205946181
 20
2.626110161675347
 30
0.0
 10
1.058247205946181
 20
-2.51087171766493
 30
0.0
 10
1.058247205946181
 20
-2.51087171766493
 30
0.0
 10
1.058247205946181
 20
-2.51087171766493
 30
0.0
 10
0.0993048773871528
 20
-2.626110161675347
 30
0.0
 10
0.0993048773871528
 20
-2.626110161675347
 30
0.0
 10
0.0993048773871528
 20
-2.626110161675347
 30
0.0
 10
0.0993048773871528
 20
0.9356018066406249
 30
0.0
 10
0.0993048773871528
 20
0.9356018066406249
 30
0.0
  0
ENDBLK
  5
58
330
54
100
AcDbEntity
  8
0
100
AcDbBlockEnd
  0
BLOCK
  5
5B
330
59
100
AcDbEntity
  8
0
 62
     7
100
AcDbBlockBegin
  2
AI9-BLK9
 70
     0
 10
0.0
 20
0.0
 30
0.0
  3
AI9-BLK9
  1

  4

  0
LWPOLYLINE
  5
5C
330
59
100
AcDbEntity
  8
LGT
 62
     7
100
AcDbPolyline
 90
       10
 70
     1
 43
0.0
 10
-1.699551730685764
 20
-3.415037027994791
 10
-1.699551730685764
 20
3.006276448567708
 10
1.699551730685764
 20
3.415037027994791
 10
1.699551730685764
 20
2.473147922092014
 10
-0.5008307562934027
 20
2.20856458875868
 10
-0.5008307562934027
 20
0.5817905002170138
 10
1.562436930338542
 20
0.8300096299913193
 10
1.562436930338542
 20
-0.1117072211371528
 10
-0.5008307562934027
 20
-0.3599263509114583
 10
-0.5008307562934027
 20
-3.270859781901041
  0
ENDBLK
  5
68
330
59
100
AcDbEntity
  8
0
100
AcDbBlockEnd
  0
BLOCK
  5
6C
330
6A
100
AcDbEntity
  8
0
 62
     7
100
AcDbBlockBegin
  2
AI9-BLK10
 70
     0
 10
0.0
 20
0.0
 30
0.0
  3
AI9-BLK10
  1

  4

  0
LINE
  5
77
330
6A
100
AcDbEntity
  8
LGT
 62
     7
100
AcDbLine
 10
-9.480902777777777
 20
-0.6109876844618055
 30
0.0
 11
10.80381944444444
 21
0.7496527777777777
 31
0.0
  0
LWPOLYLINE
  5
72
330
6A
100
AcDbEntity
  8
LGT
 62
     7
100
AcDbPolyline
 90
        3
 70
     1
 43
0.0
 10
-13.18506944444444
 20
-0.9990776909722221
 10
-7.452430555555555
 20
1.747524685329861
 10
-7.452430555555555
 20
-2.574003092447916
  0
LWPOLYLINE
  5
6D
330
6A
100
AcDbEntity
  8
LGT
 62
     7
100
AcDbPolyline
 90
        3
 70
     1
 43
0.0
 10
13.18506944444444
 20
0.9992499457465277
 10
7.452430555555555
 20
-1.747524685329861
 10
7.452430555555555
 20
2.574003092447916
  0
ENDBLK
  5
78
330
6A
100
AcDbEntity
  8
0
100
AcDbBlockEnd
  0
BLOCK
  5
88
330
86
100
AcDbEntity
  8
0
 62
     7
100
AcDbBlockBegin
  2
AI9-BLK11
 70
     0
 10
0.0
 20
0.0
 30
0.0
  3
AI9-BLK11
  1

  4

  0
LINE
  5
8B
330
86
100
AcDbEntity
  8
LGT
 62
     7
100
AcDbLine
 10
0.0
 20
-5.144733344184028
 30
0.0
 11
0.0
 21
-5.55625
 31
0.0
  0
LINE
  5
8A
330
86
100
AcDbEntity
  8
LGT
 62
     7
100
AcDbLine
 10
0.0
 20
4.556655544704861
 30
0.0
 11
0.0
 21
-4.73304443359375
 31
0.0
  0
LINE
  5
89
330
86
100
AcDbEntity
  8
LGT
 62
     7
100
AcDbLine
 10
0.0
 20
5.55625
 30
0.0
 11
0.0
 21
5.085822211371528
 31
0.0
  0
ENDBLK
  5
8C
330
86
100
AcDbEntity
  8
0
100
AcDbBlockEnd
  0
BLOCK
  5
8F
330
8D
100
AcDbEntity
  8
0
 62
     7
100
AcDbBlockBegin
  2
AI9-BLK12
 70
     0
 10
0.0
 20
0.0
 30
0.0
  3
AI9-BLK12
  1

  4

  0
LINE
  5
92
330
8D
100
AcDbEntity
  8
LGT
 62
     7
100
AcDbLine
 10
0.0
 20
-4.350983344184027
 30
0.0
 11
0.0
 21
-4.762499999999999
 31
0.0
  0
LINE
  5
91
330
8D
100
AcDbEntity
  8
LGT
 62
     7
100
AcDbLine
 10
0.0
 20
-0.9406833224826388
 30
0.0
 11
0.0
 21
-3.93929443359375
 31
0.0
  0
LINE
  5
90
330
8D
100
AcDbEntity
  8
LGT
 62
     7
100
AcDbLine
 10
0.0
 20
4.762499999999999
 30
0.0
 11
0.0
 21
0.4113444010416666
 31
0.0
  0
ENDBLK
  5
93
330
8D
100
AcDbEntity
  8
0
100
AcDbBlockEnd
  0
BLOCK
  5
AE
330
AC
100
AcDbEntity
  8
0
 62
     7
100
AcDbBlockBegin
  2
AI9-BLK13
 70
     0
 10
0.0
 20
0.0
 30
0.0
  3
AI9-BLK13
  1

  4

  0
ELLIPSE
  5
B0
330
AC
100
AcDbEntity
  8
LGT
 62
     7
100
AcDbEllipse
 10
-0.1508951822916667
 20
0.0557244194878472
 30
0.0
 11
-0.05236545138888889
 21
-0.8798773871527778
 31
0.0
210
0.0
220
0.0
230
1.0
 40
0.8504478012731331
 41
0.0
 42
6.283185307179586
  0
SPLINE
  5
AF
330
AC
100
AcDbEntity
  8
LGT
 62
     7
100
AcDbSpline
210
0.0
220
0.0
230
1.0
 70
    11
 71
     3
 72
    23
 73
    19
 74
     0
 42
0.0000000001
 43
0.0000000001
 40
0.0
 40
0.0
 40
0.0
 40
0.0
 40
1.0
 40
1.0
 40
1.0
 40
2.0
 40
2.0
 40
2.0
 40
3.0
 40
3.0
 40
3.0
 40
4.0
 40
4.0
 40
4.0
 40
5.0
 40
5.0
 40
5.0
 40
6.0
 40
6.0
 40
6.0
 40
6.0
 10
0.2408121744791666
 20
0.8494744194878472
 30
0.0
 10
0.142626953125
 20
0.9163092719184027
 30
0.0
 10
0.0237711588541667
 20
0.9287116156684027
 30
0.0
 10
-0.0981852213541667
 20
0.9362908257378472
 30
0.0
 10
-0.5115966796875
 20
0.9610955132378471
 30
0.0
 10
-0.8702311197916666
 20
0.5869581434461805
 30
0.0
 10
-0.8991699218749999
 20
0.1005106608072917
 30
0.0
 10
-0.927419704861111
 20
-0.3735344780815972
 30
0.0
 10
-0.6494004991319444
 20
-0.8110616048177083
 30
0.0
 10
-0.2514919704861111
 20
-0.853780788845486
 30
0.0
 10
-0.1477945963541666
 20
-0.8985670301649305
 30
0.0
 10
-0.0237711588541667
 20
-0.9302619086371528
 30
0.0
 10
0.0981852213541667
 20
-0.9378411187065971
 30
0.0
 10
0.5115966796875
 20
-0.9626458062065971
 30
0.0
 10
0.8702311197916666
 20
-0.5885084364149305
 30
0.0
 10
0.8991699218749999
 20
-0.1020609537760417
 30
0.0
 10
0.927419704861111
 20
0.3719841851128472
 30
0.0
 10
0.6228732638888889
 20
0.7716152615017361
 30
0.0
 10
0.2408121744791666
 20
0.8494744194878472
 30
0.0
  0
ENDBLK
  5
B1
330
AC
100
AcDbEntity
  8
0
100
AcDbBlockEnd
  0
BLOCK
  5
B4
330
B2
100
AcDbEntity
  8
0
 62
     7
100
AcDbBlockBegin
  2
AI9-BLK14
 70
     0
 10
0.0
 20
0.0
 30
0.0
  3
AI9-BLK14
  1

  4

  0
ELLIPSE
  5
B6
330
B2
100
AcDbEntity
  8
LGT
 62
     7
100
AcDbEllipse
 10
-0.1173055013020833
 20
-0.0001722547743056
 30
0.0
 11
0.007923719618055557
 21
-0.8815999348958334
 31
0.0
210
0.0
220
0.0
230
1.0
 40
0.8503302304978985
 41
0.0
 42
6.283185307179586
  0
SPLINE
  5
B5
330
B2
100
AcDbEntity
  8
LGT
 62
     7
100
AcDbSpline
210
0.0
220
0.0
230
1.0
 70
    11
 71
     3
 72
    29
 73
    25
 74
     0
 42
0.0000000001
 43
0.0000000001
 40
0.0
 40
0.0
 40
0.0
 40
0.0
 40
1.0
 40
1.0
 40
1.0
 40
2.0
 40
2.0
 40
2.0
 40
3.0
 40
3.0
 40
3.0
 40
4.0
 40
4.0
 40
4.0
 40
5.0
 40
5.0
 40
5.0
 40
6.0
 40
6.0
 40
6.0
 40
7.0
 40
7.0
 40
7.0
 40
8.0
 40
8.0
 40
8.0
 40
8.0
 10
0.1097262912326389
 20
0.8814276801215277
 30
0.0
 10
0.0725192599826389
 20
0.8810831705729166
 30
0.0
 10
0.0370347764756944
 20
0.8741929796006944
 30
0.0
 10
0.00155029296875
 20
0.8676472981770833
 30
0.0
 10
-0.0401353624131944
 20
0.8755710177951388
 30
0.0
 10
-0.0818210177951389
 20
0.8817721896701388
 30
0.0
 10
-0.1252292209201389
 20
0.8814276801215277
 30
0.0
 10
-0.5393296983506944
 20
0.8779825846354166
 30
0.0
 10
-0.8714369032118055
 20
0.4800740559895833
 30
0.0
 10
-0.866958279079861
 20
-0.0067179361979167
 30
0.0
 10
-0.8624796549479166
 20
-0.4941989474826388
 30
0.0
 10
-0.5234822591145832
 20
-0.8859063042534722
 30
0.0
 10
-0.1093817816840278
 20
-0.8817721896701388
 30
0.0
 10
-0.0721747504340278
 20
-0.8814276801215277
 30
0.0
 10
-0.0366902669270833
 20
-0.8745374891493055
 30
0.0
 10
-0.0012057834201389
 20
-0.8679918077256944
 30
0.0
 10
0.0404798719618056
 20
-0.8759155273437499
 30
0.0
 10
0.08216552734375
 20
-0.8821166992187499
 30
0.0
 10
0.12557373046875
 20
-0.8817721896701388
 30
0.0
 10
0.5396742078993055
 20
-0.8783270941840277
 30
0.0
 10
0.8717814127604165
 20
-0.4804185655381944
 30
0.0
 10
0.8673027886284721
 20
0.0063734266493056
 30
0.0
 10
0.8628241644965277
 20
0.4938544379340277
 30
0.0
 10
0.5238267686631944
 20
0.8855617947048611
 30
0.0
 10
0.1097262912326389
 20
0.8814276801215277
 30
0.0
  0
ENDBLK
  5
B7
330
B2
100
AcDbEntity
  8
0
100
AcDbBlockEnd
  0
BLOCK
  5
BA
330
B8
100
AcDbEntity
  8
0
 62
     7
100
AcDbBlockBegin
  2
AI9-BLK15
 70
     0
 10
0.0
 20
0.0
 30
0.0
  3
AI9-BLK15
  1

  4

  0
ELLIPSE
  5
BC
330
B8
100
AcDbEntity
  8
LGT
 62
     7
100
AcDbEllipse
 10
-0.1174777560763889
 20
-0.0001722547743056
 30
0.0
 11
0.007923719618055557
 21
-0.8815999348958334
 31
0.0
210
0.0
220
0.0
230
1.0
 40
0.8503302304978985
 41
0.0
 42
6.283185307179586
  0
SPLINE
  5
BB
330
B8
100
AcDbEntity
  8
LGT
 62
     7
100
AcDbSpline
210
0.0
220
0.0
230
1.0
 70
    11
 71
     3
 72
    29
 73
    25
 74
     0
 42
0.0000000001
 43
0.0000000001
 40
0.0
 40
0.0
 40
0.0
 40
0.0
 40
1.0
 40
1.0
 40
1.0
 40
2.0
 40
2.0
 40
2.0
 40
3.0
 40
3.0
 40
3.0
 40
4.0
 40
4.0
 40
4.0
 40
5.0
 40
5.0
 40
5.0
 40
6.0
 40
6.0
 40
6.0
 40
7.0
 40
7.0
 40
7.0
 40
8.0
 40
8.0
 40
8.0
 40
8.0
 10
0.1095540364583333
 20
0.8814276801215277
 30
0.0
 10
0.0723470052083333
 20
0.8810831705729166
 30
0.0
 10
0.0368625217013889
 20
0.8741929796006944
 30
0.0
 10
0.0013780381944444
 20
0.8676472981770833
 30
0.0
 10
-0.0403076171875
 20
0.8755710177951388
 30
0.0
 10
-0.0819932725694444
 20
0.8817721896701388
 30
0.0
 10
-0.1254014756944444
 20
0.8814276801215277
 30
0.0
 10
-0.5395019531249999
 20
0.8779825846354166
 30
0.0
 10
-0.8716091579861111
 20
0.4800740559895833
 30
0.0
 10
-0.8671305338541666
 20
-0.0067179361979167
 30
0.0
 10
-0.8626519097222222
 20
-0.4941989474826388
 30
0.0
 10
-0.5236545138888888
 20
-0.8859063042534722
 30
0.0
 10
-0.1095540364583333
 20
-0.8817721896701388
 30
0.0
 10
-0.0723470052083333
 20
-0.8814276801215277
 30
0.0
 10
-0.0368625217013889
 20
-0.8745374891493055
 30
0.0
 10
-0.0013780381944444
 20
-0.8679918077256944
 30
0.0
 10
0.0403076171875
 20
-0.8759155273437499
 30
0.0
 10
0.0819932725694444
 20
-0.8821166992187499
 30
0.0
 10
0.1254014756944444
 20
-0.8817721896701388
 30
0.0
 10
0.5395019531249999
 20
-0.8783270941840277
 30
0.0
 10
0.8716091579861111
 20
-0.4804185655381944
 30
0.0
 10
0.8671305338541666
 20
0.0063734266493056
 30
0.0
 10
0.8626519097222222
 20
0.4938544379340277
 30
0.0
 10
0.5236545138888888
 20
0.8855617947048611
 30
0.0
 10
0.1095540364583333
 20
0.8814276801215277
 30
0.0
  0
ENDBLK
  5
BD
330
B8
100
AcDbEntity
  8
0
100
AcDbBlockEnd
  0
BLOCK
  5
C0
330
BE
100
AcDbEntity
  8
0
 62
     7
100
AcDbBlockBegin
  2
AI9-BLK16
 70
     0
 10
0.0
 20
0.0
 30
0.0
  3
AI9-BLK16
  1

  4

  0
ELLIPSE
  5
C2
330
BE
100
AcDbEntity
  8
LGT
 62
     7
100
AcDbEllipse
 10
-0.1174777560763889
 20
0.0000861273871528
 30
0.0
 11
0.007923719618055557
 21
-0.8815999348958334
 31
0.0
210
0.0
220
0.0
230
1.0
 40
0.8503302304978985
 41
0.0
 42
6.283185307179586
  0
SPLINE
  5
C1
330
BE
100
AcDbEntity
  8
LGT
 62
     7
100
AcDbSpline
210
0.0
220
0.0
230
1.0
 70
    11
 71
     3
 72
    29
 73
    25
 74
     0
 42
0.0000000001
 43
0.0000000001
 40
0.0
 40
0.0
 40
0.0
 40
0.0
 40
1.0
 40
1.0
 40
1.0
 40
2.0
 40
2.0
 40
2.0
 40
3.0
 40
3.0
 40
3.0
 40
4.0
 40
4.0
 40
4.0
 40
5.0
 40
5.0
 40
5.0
 40
6.0
 40
6.0
 40
6.0
 40
7.0
 40
7.0
 40
7.0
 40
8.0
 40
8.0
 40
8.0
 40
8.0
 10
0.1095540364583333
 20
0.8816860622829861
 30
0.0
 10
0.0723470052083333
 20
0.8813415527343749
 30
0.0
 10
0.0368625217013889
 20
0.8744513617621527
 30
0.0
 10
0.0013780381944444
 20
0.8679056803385415
 30
0.0
 10
-0.0403076171875
 20
0.8758293999565971
 30
0.0
 10
-0.0819932725694444
 20
0.8820305718315972
 30
0.0
 10
-0.1254014756944444
 20
0.8816860622829861
 30
0.0
 10
-0.5395019531249999
 20
0.8782409667968749
 30
0.0
 10
-0.8716091579861111
 20
0.4803324381510416
 30
0.0
 10
-0.8671305338541666
 20
-0.0064595540364583
 30
0.0
 10
-0.8626519097222222
 20
-0.4939405653211805
 30
0.0
 10
-0.5236545138888888
 20
-0.8856479220920138
 30
0.0
 10
-0.1095540364583333
 20
-0.8815138075086805
 30
0.0
 10
-0.0723470052083333
 20
-0.8811692979600694
 30
0.0
 10
-0.0368625217013889
 20
-0.8742791069878472
 30
0.0
 10
-0.0013780381944444
 20
-0.8677334255642361
 30
0.0
 10
0.0403076171875
 20
-0.8756571451822915
 30
0.0
 10
0.0819932725694444
 20
-0.8818583170572916
 30
0.0
 10
0.1254014756944444
 20
-0.8815138075086805
 30
0.0
 10
0.5395019531249999
 20
-0.8780687120225694
 30
0.0
 10
0.8716091579861111
 20
-0.4801601833767361
 30
0.0
 10
0.8671305338541666
 20
0.0066318088107639
 30
0.0
 10
0.8626519097222222
 20
0.4941128200954861
 30
0.0
 10
0.5236545138888888
 20
0.8858201768663193
 30
0.0
 10
0.1095540364583333
 20
0.8816860622829861
 30
0.0
  0
ENDBLK
  5
C3
330
BE
100
AcDbEntity
  8
0
100
AcDbBlockEnd
  0
BLOCK
  5
C6
330
C4
100
AcDbEntity
  8
0
 62
     7
100
AcDbBlockBegin
  2
AI9-BLK17
 70
     0
 10
0.0
 20
0.0
 30
0.0
  3
AI9-BLK17
  1

  4

  0
ELLIPSE
  5
C8
330
C4
100
AcDbEntity
  8
LGT
 62
     7
100
AcDbEllipse
 10
-0.1174777560763889
 20
0.0000861273871528
 30
0.0
 11
0.007923719618055557
 21
-0.8815999348958334
 31
0.0
210
0.0
220
0.0
230
1.0
 40
0.8503302304978985
 41
0.0
 42
6.283185307179586
  0
SPLINE
  5
C7
330
C4
100
AcDbEntity
  8
LGT
 62
     7
100
AcDbSpline
210
0.0
220
0.0
230
1.0
 70
    11
 71
     3
 72
    29
 73
    25
 74
     0
 42
0.0000000001
 43
0.0000000001
 40
0.0
 40
0.0
 40
0.0
 40
0.0
 40
1.0
 40
1.0
 40
1.0
 40
2.0
 40
2.0
 40
2.0
 40
3.0
 40
3.0
 40
3.0
 40
4.0
 40
4.0
 40
4.0
 40
5.0
 40
5.0
 40
5.0
 40
6.0
 40
6.0
 40
6.0
 40
7.0
 40
7.0
 40
7.0
 40
8.0
 40
8.0
 40
8.0
 40
8.0
 10
0.1095540364583333
 20
0.8816860622829861
 30
0.0
 10
0.0723470052083333
 20
0.8813415527343749
 30
0.0
 10
0.0368625217013889
 20
0.8744513617621527
 30
0.0
 10
0.0013780381944444
 20
0.8679056803385415
 30
0.0
 10
-0.0403076171875
 20
0.8758293999565971
 30
0.0
 10
-0.0819932725694444
 20
0.8820305718315972
 30
0.0
 10
-0.1254014756944444
 20
0.8816860622829861
 30
0.0
 10
-0.5395019531249999
 20
0.8782409667968749
 30
0.0
 10
-0.8716091579861111
 20
0.4803324381510416
 30
0.0
 10
-0.8671305338541666
 20
-0.0064595540364583
 30
0.0
 10
-0.8626519097222222
 20
-0.4939405653211805
 30
0.0
 10
-0.5236545138888888
 20
-0.8856479220920138
 30
0.0
 10
-0.1095540364583333
 20
-0.8815138075086805
 30
0.0
 10
-0.0723470052083333
 20
-0.8811692979600694
 30
0.0
 10
-0.0368625217013889
 20
-0.8742791069878472
 30
0.0
 10
-0.0013780381944444
 20
-0.8677334255642361
 30
0.0
 10
0.0403076171875
 20
-0.8756571451822915
 30
0.0
 10
0.0819932725694444
 20
-0.8818583170572916
 30
0.0
 10
0.1254014756944444
 20
-0.8815138075086805
 30
0.0
 10
0.5395019531249999
 20
-0.8780687120225694
 30
0.0
 10
0.8716091579861111
 20
-0.4801601833767361
 30
0.0
 10
0.8671305338541666
 20
0.0066318088107639
 30
0.0
 10
0.8626519097222222
 20
0.4941128200954861
 30
0.0
 10
0.5236545138888888
 20
0.8858201768663193
 30
0.0
 10
0.1095540364583333
 20
0.8816860622829861
 30
0.0
  0
ENDBLK
  5
C9
330
C4
100
AcDbEntity
  8
0
100
AcDbBlockEnd
  0
BLOCK
  5
CC
330
CA
100
AcDbEntity
  8
0
 62
     7
100
AcDbBlockBegin
  2
AI9-BLK18
 70
     0
 10
0.0
 20
0.0
 30
0.0
  3
AI9-BLK18
  1

  4

  0
ELLIPSE
  5
CE
330
CA
100
AcDbEntity
  8
LGT
 62
     7
100
AcDbEllipse
 10
-0.1174777560763889
 20
0.0000861273871528
 30
0.0
 11
0.007923719618055557
 21
-0.8815999348958334
 31
0.0
210
0.0
220
0.0
230
1.0
 40
0.8503302304978985
 41
0.0
 42
6.283185307179586
  0
SPLINE
  5
CD
330
CA
100
AcDbEntity
  8
LGT
 62
     7
100
AcDbSpline
210
0.0
220
0.0
230
1.0
 70
    11
 71
     3
 72
    29
 73
    25
 74
     0
 42
0.0000000001
 43
0.0000000001
 40
0.0
 40
0.0
 40
0.0
 40
0.0
 40
1.0
 40
1.0
 40
1.0
 40
2.0
 40
2.0
 40
2.0
 40
3.0
 40
3.0
 40
3.0
 40
4.0
 40
4.0
 40
4.0
 40
5.0
 40
5.0
 40
5.0
 40
6.0
 40
6.0
 40
6.0
 40
7.0
 40
7.0
 40
7.0
 40
8.0
 40
8.0
 40
8.0
 40
8.0
 10
0.1095540364583333
 20
0.8816860622829861
 30
0.0
 10
0.0723470052083333
 20
0.8813415527343749
 30
0.0
 10
0.0368625217013889
 20
0.8744513617621527
 30
0.0
 10
0.0013780381944444
 20
0.8679056803385415
 30
0.0
 10
-0.0403076171875
 20
0.8758293999565971
 30
0.0
 10
-0.0819932725694444
 20
0.8820305718315972
 30
0.0
 10
-0.1254014756944444
 20
0.8816860622829861
 30
0.0
 10
-0.5395019531249999
 20
0.8782409667968749
 30
0.0
 10
-0.8716091579861111
 20
0.4803324381510416
 30
0.0
 10
-0.8671305338541666
 20
-0.0064595540364583
 30
0.0
 10
-0.8626519097222222
 20
-0.4939405653211805
 30
0.0
 10
-0.5236545138888888
 20
-0.8856479220920138
 30
0.0
 10
-0.1095540364583333
 20
-0.8815138075086805
 30
0.0
 10
-0.0723470052083333
 20
-0.8811692979600694
 30
0.0
 10
-0.0368625217013889
 20
-0.8742791069878472
 30
0.0
 10
-0.0013780381944444
 20
-0.8677334255642361
 30
0.0
 10
0.0403076171875
 20
-0.8756571451822915
 30
0.0
 10
0.0819932725694444
 20
-0.8818583170572916
 30
0.0
 10
0.1254014756944444
 20
-0.8815138075086805
 30
0.0
 10
0.5395019531249999
 20
-0.8780687120225694
 30
0.0
 10
0.8716091579861111
 20
-0.4801601833767361
 30
0.0
 10
0.8671305338541666
 20
0.0066318088107639
 30
0.0
 10
0.8626519097222222
 20
0.4941128200954861
 30
0.0
 10
0.5236545138888888
 20
0.8858201768663193
 30
0.0
 10
0.1095540364583333
 20
0.8816860622829861
 30
0.0
  0
ENDBLK
  5
CF
330
CA
100
AcDbEntity
  8
0
100
AcDbBlockEnd
  0
BLOCK
  5
D2
330
D0
100
AcDbEntity
  8
0
 62
     7
100
AcDbBlockBegin
  2
AI9-BLK19
 70
     0
 10
0.0
 20
0.0
 30
0.0
  3
AI9-BLK19
  1

  4

  0
ELLIPSE
  5
D4
330
D0
100
AcDbEntity
  8
LGT
 62
     7
100
AcDbEllipse
 10
-0.1166164822048611
 20
-0.0001722547743056
 30
0.0
 11
0.007923719618055557
 21
-0.8815999348958334
 31
0.0
210
0.0
220
0.0
230
1.0
 40
0.8503302304978985
 41
0.0
 42
6.283185307179586
  0
SPLINE
  5
D3
330
D0
100
AcDbEntity
  8
LGT
 62
     7
100
AcDbSpline
210
0.0
220
0.0
230
1.0
 70
    11
 71
     3
 72
    29
 73
    25
 74
     0
 42
0.0000000001
 43
0.0000000001
 40
0.0
 40
0.0
 40
0.0
 40
0.0
 40
1.0
 40
1.0
 40
1.0
 40
2.0
 40
2.0
 40
2.0
 40
3.0
 40
3.0
 40
3.0
 40
4.0
 40
4.0
 40
4.0
 40
5.0
 40
5.0
 40
5.0
 40
6.0
 40
6.0
 40
6.0
 40
7.0
 40
7.0
 40
7.0
 40
8.0
 40
8.0
 40
8.0
 40
8.0
 10
0.1104153103298611
 20
0.8814276801215277
 30
0.0
 10
0.0732082790798611
 20
0.8810831705729166
 30
0.0
 10
0.0377237955729167
 20
0.8741929796006944
 30
0.0
 10
0.0022393120659722
 20
0.8676472981770833
 30
0.0
 10
-0.0394463433159722
 20
0.8755710177951388
 30
0.0
 10
-0.0811319986979167
 20
0.8817721896701388
 30
0.0
 10
-0.1245402018229167
 20
0.8814276801215277
 30
0.0
 10
-0.5386406792534721
 20
0.8779825846354166
 30
0.0
 10
-0.8707478841145833
 20
0.4800740559895833
 30
0.0
 10
-0.8662692599826388
 20
-0.0067179361979167
 30
0.0
 10
-0.8617906358506944
 20
-0.4941989474826388
 30
0.0
 10
-0.5227932400173611
 20
-0.8859063042534722
 30
0.0
 10
-0.1086927625868056
 20
-0.8817721896701388
 30
0.0
 10
-0.0714857313368056
 20
-0.8814276801215277
 30
0.0
 10
-0.0360012478298611
 20
-0.8745374891493055
 30
0.0
 10
-0.0005167643229167
 20
-0.8679918077256944
 30
0.0
 10
0.0411688910590278
 20
-0.8759155273437499
 30
0.0
 10
0.0828545464409722
 20
-0.8821166992187499
 30
0.0
 10
0.1262627495659722
 20
-0.8817721896701388
 30
0.0
 10
0.5403632269965277
 20
-0.8783270941840277
 30
0.0
 10
0.8724704318576388
 20
-0.4804185655381944
 30
0.0
 10
0.8679918077256944
 20
0.0063734266493056
 30
0.0
 10
0.86351318359375
 20
0.4938544379340277
 30
0.0
 10
0.5245157877604166
 20
0.8855617947048611
 30
0.0
 10
0.1104153103298611
 20
0.8814276801215277
 30
0.0
  0
ENDBLK
  5
D5
330
D0
100
AcDbEntity
  8
0
100
AcDbBlockEnd
  0
BLOCK
  5
D8
330
D6
100
AcDbEntity
  8
0
 62
     7
100
AcDbBlockBegin
  2
AI9-BLK20
 70
     0
 10
0.0
 20
0.0
 30
0.0
  3
AI9-BLK20
  1

  4

  0
ELLIPSE
  5
DA
330
D6
100
AcDbEntity
  8
LGT
 62
     7
100
AcDbEllipse
 10
-0.1173055013020833
 20
-0.0001722547743056
 30
0.0
 11
0.007923719618055557
 21
-0.8815999348958334
 31
0.0
210
0.0
220
0.0
230
1.0
 40
0.8503302304978985
 41
0.0
 42
6.283185307179586
  0
SPLINE
  5
D9
330
D6
100
AcDbEntity
  8
LGT
 62
     7
100
AcDbSpline
210
0.0
220
0.0
230
1.0
 70
    11
 71
     3
 72
    29
 73
    25
 74
     0
 42
0.0000000001
 43
0.0000000001
 40
0.0
 40
0.0
 40
0.0
 40
0.0
 40
1.0
 40
1.0
 40
1.0
 40
2.0
 40
2.0
 40
2.0
 40
3.0
 40
3.0
 40
3.0
 40
4.0
 40
4.0
 40
4.0
 40
5.0
 40
5.0
 40
5.0
 40
6.0
 40
6.0
 40
6.0
 40
7.0
 40
7.0
 40
7.0
 40
8.0
 40
8.0
 40
8.0
 40
8.0
 10
0.1097262912326389
 20
0.8814276801215277
 30
0.0
 10
0.0725192599826389
 20
0.8810831705729166
 30
0.0
 10
0.0370347764756944
 20
0.8741929796006944
 30
0.0
 10
0.00155029296875
 20
0.8676472981770833
 30
0.0
 10
-0.0401353624131944
 20
0.8755710177951388
 30
0.0
 10
-0.0818210177951389
 20
0.8817721896701388
 30
0.0
 10
-0.1252292209201389
 20
0.8814276801215277
 30
0.0
 10
-0.5393296983506944
 20
0.8779825846354166
 30
0.0
 10
-0.8714369032118055
 20
0.4800740559895833
 30
0.0
 10
-0.866958279079861
 20
-0.0067179361979167
 30
0.0
 10
-0.8624796549479166
 20
-0.4941989474826388
 30
0.0
 10
-0.5234822591145832
 20
-0.8859063042534722
 30
0.0
 10
-0.1093817816840278
 20
-0.8817721896701388
 30
0.0
 10
-0.0721747504340278
 20
-0.8814276801215277
 30
0.0
 10
-0.0366902669270833
 20
-0.8745374891493055
 30
0.0
 10
-0.0012057834201389
 20
-0.8679918077256944
 30
0.0
 10
0.0404798719618056
 20
-0.8759155273437499
 30
0.0
 10
0.08216552734375
 20
-0.8821166992187499
 30
0.0
 10
0.12557373046875
 20
-0.8817721896701388
 30
0.0
 10
0.5396742078993055
 20
-0.8783270941840277
 30
0.0
 10
0.8717814127604165
 20
-0.4804185655381944
 30
0.0
 10
0.8673027886284721
 20
0.0063734266493056
 30
0.0
 10
0.8628241644965277
 20
0.4938544379340277
 30
0.0
 10
0.5238267686631944
 20
0.8855617947048611
 30
0.0
 10
0.1097262912326389
 20
0.8814276801215277
 30
0.0
  0
ENDBLK
  5
DB
330
D6
100
AcDbEntity
  8
0
100
AcDbBlockEnd
  0
BLOCK
  5
DE
330
DC
100
AcDbEntity
  8
0
 62
     7
100
AcDbBlockBegin
  2
AI9-BLK21
 70
     0
 10
0.0
 20
0.0
 30
0.0
  3
AI9-BLK21
  1

  4

  0
ELLIPSE
  5
E0
330
DC
100
AcDbEntity
  8
LGT
 62
     7
100
AcDbEllipse
 10
-0.1173055013020833
 20
-0.0001722547743056
 30
0.0
 11
0.007923719618055557
 21
-0.8815999348958334
 31
0.0
210
0.0
220
0.0
230
1.0
 40
0.8503302304978985
 41
0.0
 42
6.283185307179586
  0
SPLINE
  5
DF
330
DC
100
AcDbEntity
  8
LGT
 62
     7
100
AcDbSpline
210
0.0
220
0.0
230
1.0
 70
    11
 71
     3
 72
    29
 73
    25
 74
     0
 42
0.0000000001
 43
0.0000000001
 40
0.0
 40
0.0
 40
0.0
 40
0.0
 40
1.0
 40
1.0
 40
1.0
 40
2.0
 40
2.0
 40
2.0
 40
3.0
 40
3.0
 40
3.0
 40
4.0
 40
4.0
 40
4.0
 40
5.0
 40
5.0
 40
5.0
 40
6.0
 40
6.0
 40
6.0
 40
7.0
 40
7.0
 40
7.0
 40
8.0
 40
8.0
 40
8.0
 40
8.0
 10
0.1097262912326389
 20
0.8814276801215277
 30
0.0
 10
0.0725192599826389
 20
0.8810831705729166
 30
0.0
 10
0.0370347764756944
 20
0.8741929796006944
 30
0.0
 10
0.00155029296875
 20
0.8676472981770833
 30
0.0
 10
-0.0401353624131944
 20
0.8755710177951388
 30
0.0
 10
-0.0818210177951389
 20
0.8817721896701388
 30
0.0
 10
-0.1252292209201389
 20
0.8814276801215277
 30
0.0
 10
-0.5393296983506944
 20
0.8779825846354166
 30
0.0
 10
-0.8714369032118055
 20
0.4800740559895833
 30
0.0
 10
-0.866958279079861
 20
-0.0067179361979167
 30
0.0
 10
-0.8624796549479166
 20
-0.4941989474826388
 30
0.0
 10
-0.5234822591145832
 20
-0.8859063042534722
 30
0.0
 10
-0.1093817816840278
 20
-0.8817721896701388
 30
0.0
 10
-0.0721747504340278
 20
-0.8814276801215277
 30
0.0
 10
-0.0366902669270833
 20
-0.8745374891493055
 30
0.0
 10
-0.0012057834201389
 20
-0.8679918077256944
 30
0.0
 10
0.0404798719618056
 20
-0.8759155273437499
 30
0.0
 10
0.08216552734375
 20
-0.8821166992187499
 30
0.0
 10
0.12557373046875
 20
-0.8817721896701388
 30
0.0
 10
0.5396742078993055
 20
-0.8783270941840277
 30
0.0
 10
0.8717814127604165
 20
-0.4804185655381944
 30
0.0
 10
0.8673027886284721
 20
0.0063734266493056
 30
0.0
 10
0.8628241644965277
 20
0.4938544379340277
 30
0.0
 10
0.5238267686631944
 20
0.8855617947048611
 30
0.0
 10
0.1097262912326389
 20
0.8814276801215277
 30
0.0
  0
ENDBLK
  5
E1
330
DC
100
AcDbEntity
  8
0
100
AcDbBlockEnd
  0
BLOCK
  5
E4
330
E2
100
AcDbEntity
  8
0
 62
     7
100
AcDbBlockBegin
  2
AI9-BLK22
 70
     0
 10
0.0
 20
0.0
 30
0.0
  3
AI9-BLK22
  1

  4

  0
ELLIPSE
  5
E6
330
E2
100
AcDbEntity
  8
LGT
 62
     7
100
AcDbEllipse
 10
-0.1173916286892361
 20
0.0000861273871528
 30
0.0
 11
0.007923719618055557
 21
-0.8815999348958334
 31
0.0
210
0.0
220
0.0
230
1.0
 40
0.8503302304978985
 41
0.0
 42
6.283185307179586
  0
SPLINE
  5
E5
330
E2
100
AcDbEntity
  8
LGT
 62
     7
100
AcDbSpline
210
0.0
220
0.0
230
1.0
 70
    11
 71
     3
 72
    29
 73
    25
 74
     0
 42
0.0000000001
 43
0.0000000001
 40
0.0
 40
0.0
 40
0.0
 40
0.0
 40
1.0
 40
1.0
 40
1.0
 40
2.0
 40
2.0
 40
2.0
 40
3.0
 40
3.0
 40
3.0
 40
4.0
 40
4.0
 40
4.0
 40
5.0
 40
5.0
 40
5.0
 40
6.0
 40
6.0
 40
6.0
 40
7.0
 40
7.0
 40
7.0
 40
8.0
 40
8.0
 40
8.0
 40
8.0
 10
0.1096401638454861
 20
0.8816860622829861
 30
0.0
 10
0.0724331325954861
 20
0.8813415527343749
 30
0.0
 10
0.0369486490885417
 20
0.8744513617621527
 30
0.0
 10
0.0014641655815972
 20
0.8679056803385415
 30
0.0
 10
-0.0402214898003472
 20
0.8758293999565971
 30
0.0
 10
-0.0819071451822917
 20
0.8820305718315972
 30
0.0
 10
-0.1253153483072917
 20
0.8816860622829861
 30
0.0
 10
-0.5394158257378472
 20
0.8782409667968749
 30
0.0
 10
-0.8715230305989583
 20
0.4803324381510416
 30
0.0
 10
-0.8670444064670139
 20
-0.0064595540364583
 30
0.0
 10
-0.8625657823350694
 20
-0.4939405653211805
 30
0.0
 10
-0.5235683865017361
 20
-0.8856479220920138
 30
0.0
 10
-0.1094679090711806
 20
-0.8815138075086805
 30
0.0
 10
-0.0722608778211806
 20
-0.8811692979600694
 30
0.0
 10
-0.0367763943142361
 20
-0.8742791069878472
 30
0.0
 10
-0.0012919108072917
 20
-0.8677334255642361
 30
0.0
 10
0.0403937445746528
 20
-0.8756571451822915
 30
0.0
 10
0.0820793999565972
 20
-0.8818583170572916
 30
0.0
 10
0.1254876030815972
 20
-0.8815138075086805
 30
0.0
 10
0.5395880805121527
 20
-0.8780687120225694
 30
0.0
 10
0.8716952853732638
 20
-0.4801601833767361
 30
0.0
 10
0.8672166612413194
 20
0.0066318088107639
 30
0.0
 10
0.8627380371093749
 20
0.4941128200954861
 30
0.0
 10
0.5237406412760416
 20
0.8858201768663193
 30
0.0
 10
0.1096401638454861
 20
0.8816860622829861
 30
0.0
  0
ENDBLK
  5
E7
330
E2
100
AcDbEntity
  8
0
100
AcDbBlockEnd
  0
BLOCK
  5
EA
330
E8
100
AcDbEntity
  8
0
 62
     7
100
AcDbBlockBegin
  2
AI9-BLK23
 70
     0
 10
0.0
 20
0.0
 30
0.0
  3
AI9-BLK23
  1

  4

  0
ELLIPSE
  5
EC
330
E8
100
AcDbEntity
  8
LGT
 62
     7
100
AcDbEllipse
 10
-0.1174777560763889
 20
-0.0001722547743056
 30
0.0
 11
0.007923719618055557
 21
-0.8815999348958334
 31
0.0
210
0.0
220
0.0
230
1.0
 40
0.8503302304978985
 41
0.0
 42
6.283185307179586
  0
SPLINE
  5
EB
330
E8
100
AcDbEntity
  8
LGT
 62
     7
100
AcDbSpline
210
0.0
220
0.0
230
1.0
 70
    11
 71
     3
 72
    29
 73
    25
 74
     0
 42
0.0000000001
 43
0.0000000001
 40
0.0
 40
0.0
 40
0.0
 40
0.0
 40
1.0
 40
1.0
 40
1.0
 40
2.0
 40
2.0
 40
2.0
 40
3.0
 40
3.0
 40
3.0
 40
4.0
 40
4.0
 40
4.0
 40
5.0
 40
5.0
 40
5.0
 40
6.0
 40
6.0
 40
6.0
 40
7.0
 40
7.0
 40
7.0
 40
8.0
 40
8.0
 40
8.0
 40
8.0
 10
0.1095540364583333
 20
0.8814276801215277
 30
0.0
 10
0.0723470052083333
 20
0.8810831705729166
 30
0.0
 10
0.0368625217013889
 20
0.8741929796006944
 30
0.0
 10
0.0013780381944444
 20
0.8676472981770833
 30
0.0
 10
-0.0403076171875
 20
0.8755710177951388
 30
0.0
 10
-0.0819932725694444
 20
0.8817721896701388
 30
0.0
 10
-0.1254014756944444
 20
0.8814276801215277
 30
0.0
 10
-0.5395019531249999
 20
0.8779825846354166
 30
0.0
 10
-0.8716091579861111
 20
0.4800740559895833
 30
0.0
 10
-0.8671305338541666
 20
-0.0067179361979167
 30
0.0
 10
-0.8626519097222222
 20
-0.4941989474826388
 30
0.0
 10
-0.5236545138888888
 20
-0.8859063042534722
 30
0.0
 10
-0.1095540364583333
 20
-0.8817721896701388
 30
0.0
 10
-0.0723470052083333
 20
-0.8814276801215277
 30
0.0
 10
-0.0368625217013889
 20
-0.8745374891493055
 30
0.0
 10
-0.0013780381944444
 20
-0.8679918077256944
 30
0.0
 10
0.0403076171875
 20
-0.8759155273437499
 30
0.0
 10
0.0819932725694444
 20
-0.8821166992187499
 30
0.0
 10
0.1254014756944444
 20
-0.8817721896701388
 30
0.0
 10
0.5395019531249999
 20
-0.8783270941840277
 30
0.0
 10
0.8716091579861111
 20
-0.4804185655381944
 30
0.0
 10
0.8671305338541666
 20
0.0063734266493056
 30
0.0
 10
0.8626519097222222
 20
0.4938544379340277
 30
0.0
 10
0.5236545138888888
 20
0.8855617947048611
 30
0.0
 10
0.1095540364583333
 20
0.8814276801215277
 30
0.0
  0
ENDBLK
  5
ED
330
E8
100
AcDbEntity
  8
0
100
AcDbBlockEnd
  0
BLOCK
  5
F0
330
EE
100
AcDbEntity
  8
0
 62
     7
100
AcDbBlockBegin
  2
AI9-BLK24
 70
     0
 10
0.0
 20
0.0
 30
0.0
  3
AI9-BLK24
  1

  4

  0
ELLIPSE
  5
F2
330
EE
100
AcDbEntity
  8
LGT
 62
     7
100
AcDbEllipse
 10
-0.1174777560763889
 20
0.0001722547743056
 30
0.0
 11
0.007923719618055557
 21
-0.8815999348958334
 31
0.0
210
0.0
220
0.0
230
1.0
 40
0.8503302304978985
 41
0.0
 42
6.283185307179586
  0
SPLINE
  5
F1
330
EE
100
AcDbEntity
  8
LGT
 62
     7
100
AcDbSpline
210
0.0
220
0.0
230
1.0
 70
    11
 71
     3
 72
    29
 73
    25
 74
     0
 42
0.0000000001
 43
0.0000000001
 40
0.0
 40
0.0
 40
0.0
 40
0.0
 40
1.0
 40
1.0
 40
1.0
 40
2.0
 40
2.0
 40
2.0
 40
3.0
 40
3.0
 40
3.0
 40
4.0
 40
4.0
 40
4.0
 40
5.0
 40
5.0
 40
5.0
 40
6.0
 40
6.0
 40
6.0
 40
7.0
 40
7.0
 40
7.0
 40
8.0
 40
8.0
 40
8.0
 40
8.0
 10
0.1095540364583333
 20
0.8817721896701388
 30
0.0
 10
0.0723470052083333
 20
0.8814276801215277
 30
0.0
 10
0.0368625217013889
 20
0.8745374891493055
 30
0.0
 10
0.0013780381944444
 20
0.8679918077256944
 30
0.0
 10
-0.0403076171875
 20
0.8759155273437499
 30
0.0
 10
-0.0819932725694444
 20
0.8821166992187499
 30
0.0
 10
-0.1254014756944444
 20
0.8817721896701388
 30
0.0
 10
-0.5395019531249999
 20
0.8783270941840277
 30
0.0
 10
-0.8716091579861111
 20
0.4804185655381944
 30
0.0
 10
-0.8671305338541666
 20
-0.0063734266493056
 30
0.0
 10
-0.8626519097222222
 20
-0.4938544379340277
 30
0.0
 10
-0.5236545138888888
 20
-0.8855617947048611
 30
0.0
 10
-0.1095540364583333
 20
-0.8814276801215277
 30
0.0
 10
-0.0723470052083333
 20
-0.8810831705729166
 30
0.0
 10
-0.0368625217013889
 20
-0.8741929796006944
 30
0.0
 10
-0.0013780381944444
 20
-0.8676472981770833
 30
0.0
 10
0.0403076171875
 20
-0.8755710177951388
 30
0.0
 10
0.0819932725694444
 20
-0.8817721896701388
 30
0.0
 10
0.1254014756944444
 20
-0.8814276801215277
 30
0.0
 10
0.5395019531249999
 20
-0.8779825846354166
 30
0.0
 10
0.8716091579861111
 20
-0.4800740559895833
 30
0.0
 10
0.8671305338541666
 20
0.0067179361979167
 30
0.0
 10
0.8626519097222222
 20
0.4941989474826388
 30
0.0
 10
0.5236545138888888
 20
0.8859063042534722
 30
0.0
 10
0.1095540364583333
 20
0.8817721896701388
 30
0.0
  0
ENDBLK
  5
F3
330
EE
100
AcDbEntity
  8
0
100
AcDbBlockEnd
  0
BLOCK
  5
F6
330
F4
100
AcDbEntity
  8
0
 62
     7
100
AcDbBlockBegin
  2
AI9-BLK25
 70
     0
 10
0.0
 20
0.0
 30
0.0
  3
AI9-BLK25
  1

  4

  0
ELLIPSE
  5
F8
330
F4
100
AcDbEntity
  8
LGT
 62
     7
100
AcDbEllipse
 10
-0.1181667751736111
 20
0.0001722547743056
 30
0.0
 11
0.007923719618055557
 21
-0.8815999348958334
 31
0.0
210
0.0
220
0.0
230
1.0
 40
0.8503302304978985
 41
0.0
 42
6.283185307179586
  0
SPLINE
  5
F7
330
F4
100
AcDbEntity
  8
LGT
 62
     7
100
AcDbSpline
210
0.0
220
0.0
230
1.0
 70
    11
 71
     3
 72
    29
 73
    25
 74
     0
 42
0.0000000001
 43
0.0000000001
 40
0.0
 40
0.0
 40
0.0
 40
0.0
 40
1.0
 40
1.0
 40
1.0
 40
2.0
 40
2.0
 40
2.0
 40
3.0
 40
3.0
 40
3.0
 40
4.0
 40
4.0
 40
4.0
 40
5.0
 40
5.0
 40
5.0
 40
6.0
 40
6.0
 40
6.0
 40
7.0
 40
7.0
 40
7.0
 40
8.0
 40
8.0
 40
8.0
 40
8.0
 10
0.1088650173611111
 20
0.8817721896701388
 30
0.0
 10
0.0716579861111111
 20
0.8814276801215277
 30
0.0
 10
0.0361735026041667
 20
0.8745374891493055
 30
0.0
 10
0.0006890190972222
 20
0.8679918077256944
 30
0.0
 10
-0.0409966362847222
 20
0.8759155273437499
 30
0.0
 10
-0.0826822916666667
 20
0.8821166992187499
 30
0.0
 10
-0.1260904947916667
 20
0.8817721896701388
 30
0.0
 10
-0.5401909722222221
 20
0.8783270941840277
 30
0.0
 10
-0.8722981770833332
 20
0.4804185655381944
 30
0.0
 10
-0.8678195529513888
 20
-0.0063734266493056
 30
0.0
 10
-0.8633409288194444
 20
-0.4938544379340277
 30
0.0
 10
-0.524343532986111
 20
-0.8855617947048611
 30
0.0
 10
-0.1102430555555556
 20
-0.8814276801215277
 30
0.0
 10
-0.0730360243055555
 20
-0.8810831705729166
 30
0.0
 10
-0.0375515407986111
 20
-0.8741929796006944
 30
0.0
 10
-0.0020670572916667
 20
-0.8676472981770833
 30
0.0
 10
0.0396185980902778
 20
-0.8755710177951388
 30
0.0
 10
0.0813042534722222
 20
-0.8817721896701388
 30
0.0
 10
0.1247124565972222
 20
-0.8814276801215277
 30
0.0
 10
0.5388129340277778
 20
-0.8779825846354166
 30
0.0
 10
0.8709201388888889
 20
-0.4800740559895833
 30
0.0
 10
0.8664415147569444
 20
0.0067179361979167
 30
0.0
 10
0.8619628906249999
 20
0.4941989474826388
 30
0.0
 10
0.5229654947916667
 20
0.8859063042534722
 30
0.0
 10
0.1088650173611111
 20
0.8817721896701388
 30
0.0
  0
ENDBLK
  5
F9
330
F4
100
AcDbEntity
  8
0
100
AcDbBlockEnd
  0
BLOCK
  5
FC
330
FA
100
AcDbEntity
  8
0
 62
     7
100
AcDbBlockBegin
  2
AI9-BLK26
 70
     0
 10
0.0
 20
0.0
 30
0.0
  3
AI9-BLK26
  1

  4

  0
ELLIPSE
  5
FE
330
FA
100
AcDbEntity
  8
LGT
 62
     7
100
AcDbEllipse
 10
-0.1174777560763889
 20
0.0001722547743056
 30
0.0
 11
0.007923719618055557
 21
-0.8815999348958334
 31
0.0
210
0.0
220
0.0
230
1.0
 40
0.8503302304978985
 41
0.0
 42
6.283185307179586
  0
SPLINE
  5
FD
330
FA
100
AcDbEntity
  8
LGT
 62
     7
100
AcDbSpline
210
0.0
220
0.0
230
1.0
 70
    11
 71
     3
 72
    29
 73
    25
 74
     0
 42
0.0000000001
 43
0.0000000001
 40
0.0
 40
0.0
 40
0.0
 40
0.0
 40
1.0
 40
1.0
 40
1.0
 40
2.0
 40
2.0
 40
2.0
 40
3.0
 40
3.0
 40
3.0
 40
4.0
 40
4.0
 40
4.0
 40
5.0
 40
5.0
 40
5.0
 40
6.0
 40
6.0
 40
6.0
 40
7.0
 40
7.0
 40
7.0
 40
8.0
 40
8.0
 40
8.0
 40
8.0
 10
0.1095540364583333
 20
0.8817721896701388
 30
0.0
 10
0.0723470052083333
 20
0.8814276801215277
 30
0.0
 10
0.0368625217013889
 20
0.8745374891493055
 30
0.0
 10
0.0013780381944444
 20
0.8679918077256944
 30
0.0
 10
-0.0403076171875
 20
0.8759155273437499
 30
0.0
 10
-0.0819932725694444
 20
0.8821166992187499
 30
0.0
 10
-0.1254014756944444
 20
0.8817721896701388
 30
0.0
 10
-0.5395019531249999
 20
0.8783270941840277
 30
0.0
 10
-0.8716091579861111
 20
0.4804185655381944
 30
0.0
 10
-0.8671305338541666
 20
-0.0063734266493056
 30
0.0
 10
-0.8626519097222222
 20
-0.4938544379340277
 30
0.0
 10
-0.5236545138888888
 20
-0.8855617947048611
 30
0.0
 10
-0.1095540364583333
 20
-0.8814276801215277
 30
0.0
 10
-0.0723470052083333
 20
-0.8810831705729166
 30
0.0
 10
-0.0368625217013889
 20
-0.8741929796006944
 30
0.0
 10
-0.0013780381944444
 20
-0.8676472981770833
 30
0.0
 10
0.0403076171875
 20
-0.8755710177951388
 30
0.0
 10
0.0819932725694444
 20
-0.8817721896701388
 30
0.0
 10
0.1254014756944444
 20
-0.8814276801215277
 30
0.0
 10
0.5395019531249999
 20
-0.8779825846354166
 30
0.0
 10
0.8716091579861111
 20
-0.4800740559895833
 30
0.0
 10
0.8671305338541666
 20
0.0067179361979167
 30
0.0
 10
0.8626519097222222
 20
0.4941989474826388
 30
0.0
 10
0.5236545138888888
 20
0.8859063042534722
 30
0.0
 10
0.1095540364583333
 20
0.8817721896701388
 30
0.0
  0
ENDBLK
  5
FF
330
FA
100
AcDbEntity
  8
0
100
AcDbBlockEnd
  0
BLOCK
  5
102
330
100
100
AcDbEntity
  8
0
 62
     7
100
AcDbBlockBegin
  2
AI9-BLK27
 70
     0
 10
0.0
 20
0.0
 30
0.0
  3
AI9-BLK27
  1

  4

  0
ELLIPSE
  5
104
330
100
100
AcDbEntity
  8
LGT
 62
     7
100
AcDbEllipse
 10
-0.1181667751736111
 20
0.0000861273871528
 30
0.0
 11
0.007923719618055557
 21
-0.8815999348958334
 31
0.0
210
0.0
220
0.0
230
1.0
 40
0.8503302304978985
 41
0.0
 42
6.283185307179586
  0
SPLINE
  5
103
330
100
100
AcDbEntity
  8
LGT
 62
     7
100
AcDbSpline
210
0.0
220
0.0
230
1.0
 70
    11
 71
     3
 72
    29
 73
    25
 74
     0
 42
0.0000000001
 43
0.0000000001
 40
0.0
 40
0.0
 40
0.0
 40
0.0
 40
1.0
 40
1.0
 40
1.0
 40
2.0
 40
2.0
 40
2.0
 40
3.0
 40
3.0
 40
3.0
 40
4.0
 40
4.0
 40
4.0
 40
5.0
 40
5.0
 40
5.0
 40
6.0
 40
6.0
 40
6.0
 40
7.0
 40
7.0
 40
7.0
 40
8.0
 40
8.0
 40
8.0
 40
8.0
 10
0.1088650173611111
 20
0.8816860622829861
 30
0.0
 10
0.0716579861111111
 20
0.8813415527343749
 30
0.0
 10
0.0361735026041667
 20
0.8744513617621527
 30
0.0
 10
0.0006890190972222
 20
0.8679056803385415
 30
0.0
 10
-0.0409966362847222
 20
0.8758293999565971
 30
0.0
 10
-0.0826822916666667
 20
0.8820305718315972
 30
0.0
 10
-0.1260904947916667
 20
0.8816860622829861
 30
0.0
 10
-0.5401909722222221
 20
0.8782409667968749
 30
0.0
 10
-0.8722981770833332
 20
0.4803324381510416
 30
0.0
 10
-0.8678195529513888
 20
-0.0064595540364583
 30
0.0
 10
-0.8633409288194444
 20
-0.4939405653211805
 30
0.0
 10
-0.524343532986111
 20
-0.8856479220920138
 30
0.0
 10
-0.1102430555555556
 20
-0.8815138075086805
 30
0.0
 10
-0.0730360243055555
 20
-0.8811692979600694
 30
0.0
 10
-0.0375515407986111
 20
-0.8742791069878472
 30
0.0
 10
-0.0020670572916667
 20
-0.8677334255642361
 30
0.0
 10
0.0396185980902778
 20
-0.8756571451822915
 30
0.0
 10
0.0813042534722222
 20
-0.8818583170572916
 30
0.0
 10
0.1247124565972222
 20
-0.8815138075086805
 30
0.0
 10
0.5388129340277778
 20
-0.8780687120225694
 30
0.0
 10
0.8709201388888889
 20
-0.4801601833767361
 30
0.0
 10
0.8664415147569444
 20
0.0066318088107639
 30
0.0
 10
0.8619628906249999
 20
0.4941128200954861
 30
0.0
 10
0.5229654947916667
 20
0.8858201768663193
 30
0.0
 10
0.1088650173611111
 20
0.8816860622829861
 30
0.0
  0
ENDBLK
  5
105
330
100
100
AcDbEntity
  8
0
100
AcDbBlockEnd
  0
BLOCK
  5
108
330
106
100
AcDbEntity
  8
0
 62
     7
100
AcDbBlockBegin
  2
AI9-BLK28
 70
     0
 10
0.0
 20
0.0
 30
0.0
  3
AI9-BLK28
  1

  4

  0
ELLIPSE
  5
10A
330
106
100
AcDbEntity
  8
LGT
 62
     7
100
AcDbEllipse
 10
-0.1174777560763889
 20
0.0000861273871528
 30
0.0
 11
0.007923719618055557
 21
-0.8815999348958334
 31
0.0
210
0.0
220
0.0
230
1.0
 40
0.8503302304978985
 41
0.0
 42
6.283185307179586
  0
SPLINE
  5
109
330
106
100
AcDbEntity
  8
LGT
 62
     7
100
AcDbSpline
210
0.0
220
0.0
230
1.0
 70
    11
 71
     3
 72
    29
 73
    25
 74
     0
 42
0.0000000001
 43
0.0000000001
 40
0.0
 40
0.0
 40
0.0
 40
0.0
 40
1.0
 40
1.0
 40
1.0
 40
2.0
 40
2.0
 40
2.0
 40
3.0
 40
3.0
 40
3.0
 40
4.0
 40
4.0
 40
4.0
 40
5.0
 40
5.0
 40
5.0
 40
6.0
 40
6.0
 40
6.0
 40
7.0
 40
7.0
 40
7.0
 40
8.0
 40
8.0
 40
8.0
 40
8.0
 10
0.1095540364583333
 20
0.8816860622829861
 30
0.0
 10
0.0723470052083333
 20
0.8813415527343749
 30
0.0
 10
0.0368625217013889
 20
0.8744513617621527
 30
0.0
 10
0.0013780381944444
 20
0.8679056803385415
 30
0.0
 10
-0.0403076171875
 20
0.8758293999565971
 30
0.0
 10
-0.0819932725694444
 20
0.8820305718315972
 30
0.0
 10
-0.1254014756944444
 20
0.8816860622829861
 30
0.0
 10
-0.5395019531249999
 20
0.8782409667968749
 30
0.0
 10
-0.8716091579861111
 20
0.4803324381510416
 30
0.0
 10
-0.8671305338541666
 20
-0.0064595540364583
 30
0.0
 10
-0.8626519097222222
 20
-0.4939405653211805
 30
0.0
 10
-0.5236545138888888
 20
-0.8856479220920138
 30
0.0
 10
-0.1095540364583333
 20
-0.8815138075086805
 30
0.0
 10
-0.0723470052083333
 20
-0.8811692979600694
 30
0.0
 10
-0.0368625217013889
 20
-0.8742791069878472
 30
0.0
 10
-0.0013780381944444
 20
-0.8677334255642361
 30
0.0
 10
0.0403076171875
 20
-0.8756571451822915
 30
0.0
 10
0.0819932725694444
 20
-0.8818583170572916
 30
0.0
 10
0.1254014756944444
 20
-0.8815138075086805
 30
0.0
 10
0.5395019531249999
 20
-0.8780687120225694
 30
0.0
 10
0.8716091579861111
 20
-0.4801601833767361
 30
0.0
 10
0.8671305338541666
 20
0.0066318088107639
 30
0.0
 10
0.8626519097222222
 20
0.4941128200954861
 30
0.0
 10
0.5236545138888888
 20
0.8858201768663193
 30
0.0
 10
0.1095540364583333
 20
0.8816860622829861
 30
0.0
  0
ENDBLK
  5
10B
330
106
100
AcDbEntity
  8
0
100
AcDbBlockEnd
  0
BLOCK
  5
10E
330
10C
100
AcDbEntity
  8
0
 62
     7
100
AcDbBlockBegin
  2
AI9-BLK29
 70
     0
 10
0.0
 20
0.0
 30
0.0
  3
AI9-BLK29
  1

  4

  0
ELLIPSE
  5
110
330
10C
100
AcDbEntity
  8
LGT
 62
     7
100
AcDbEllipse
 10
-0.1174777560763889
 20
0.0000861273871528
 30
0.0
 11
0.007923719618055557
 21
-0.8815999348958334
 31
0.0
210
0.0
220
0.0
230
1.0
 40
0.8503302304978985
 41
0.0
 42
6.283185307179586
  0
SPLINE
  5
10F
330
10C
100
AcDbEntity
  8
LGT
 62
     7
100
AcDbSpline
210
0.0
220
0.0
230
1.0
 70
    11
 71
     3
 72
    29
 73
    25
 74
     0
 42
0.0000000001
 43
0.0000000001
 40
0.0
 40
0.0
 40
0.0
 40
0.0
 40
1.0
 40
1.0
 40
1.0
 40
2.0
 40
2.0
 40
2.0
 40
3.0
 40
3.0
 40
3.0
 40
4.0
 40
4.0
 40
4.0
 40
5.0
 40
5.0
 40
5.0
 40
6.0
 40
6.0
 40
6.0
 40
7.0
 40
7.0
 40
7.0
 40
8.0
 40
8.0
 40
8.0
 40
8.0
 10
0.1095540364583333
 20
0.8816860622829861
 30
0.0
 10
0.0723470052083333
 20
0.8813415527343749
 30
0.0
 10
0.0368625217013889
 20
0.8744513617621527
 30
0.0
 10
0.0013780381944444
 20
0.8679056803385415
 30
0.0
 10
-0.0403076171875
 20
0.8758293999565971
 30
0.0
 10
-0.0819932725694444
 20
0.8820305718315972
 30
0.0
 10
-0.1254014756944444
 20
0.8816860622829861
 30
0.0
 10
-0.5395019531249999
 20
0.8782409667968749
 30
0.0
 10
-0.8716091579861111
 20
0.4803324381510416
 30
0.0
 10
-0.8671305338541666
 20
-0.0064595540364583
 30
0.0
 10
-0.8626519097222222
 20
-0.4939405653211805
 30
0.0
 10
-0.5236545138888888
 20
-0.8856479220920138
 30
0.0
 10
-0.1095540364583333
 20
-0.8815138075086805
 30
0.0
 10
-0.0723470052083333
 20
-0.8811692979600694
 30
0.0
 10
-0.0368625217013889
 20
-0.8742791069878472
 30
0.0
 10
-0.0013780381944444
 20
-0.8677334255642361
 30
0.0
 10
0.0403076171875
 20
-0.8756571451822915
 30
0.0
 10
0.0819932725694444
 20
-0.8818583170572916
 30
0.0
 10
0.1254014756944444
 20
-0.8815138075086805
 30
0.0
 10
0.5395019531249999
 20
-0.8780687120225694
 30
0.0
 10
0.8716091579861111
 20
-0.4801601833767361
 30
0.0
 10
0.8671305338541666
 20
0.0066318088107639
 30
0.0
 10
0.8626519097222222
 20
0.4941128200954861
 30
0.0
 10
0.5236545138888888
 20
0.8858201768663193
 30
0.0
 10
0.1095540364583333
 20
0.8816860622829861
 30
0.0
  0
ENDBLK
  5
111
330
10C
100
AcDbEntity
  8
0
100
AcDbBlockEnd
  0
BLOCK
  5
114
330
112
100
AcDbEntity
  8
0
 62
     7
100
AcDbBlockBegin
  2
AI9-BLK30
 70
     0
 10
0.0
 20
0.0
 30
0.0
  3
AI9-BLK30
  1

  4

  0
ELLIPSE
  5
116
330
112
100
AcDbEntity
  8
LGT
 62
     7
100
AcDbEllipse
 10
-0.1174777560763889
 20
0.0000861273871528
 30
0.0
 11
0.007923719618055557
 21
-0.8815999348958334
 31
0.0
210
0.0
220
0.0
230
1.0
 40
0.8503302304978985
 41
0.0
 42
6.283185307179586
  0
SPLINE
  5
115
330
112
100
AcDbEntity
  8
LGT
 62
     7
100
AcDbSpline
210
0.0
220
0.0
230
1.0
 70
    11
 71
     3
 72
    29
 73
    25
 74
     0
 42
0.0000000001
 43
0.0000000001
 40
0.0
 40
0.0
 40
0.0
 40
0.0
 40
1.0
 40
1.0
 40
1.0
 40
2.0
 40
2.0
 40
2.0
 40
3.0
 40
3.0
 40
3.0
 40
4.0
 40
4.0
 40
4.0
 40
5.0
 40
5.0
 40
5.0
 40
6.0
 40
6.0
 40
6.0
 40
7.0
 40
7.0
 40
7.0
 40
8.0
 40
8.0
 40
8.0
 40
8.0
 10
0.1095540364583333
 20
0.8816860622829861
 30
0.0
 10
0.0723470052083333
 20
0.8813415527343749
 30
0.0
 10
0.0368625217013889
 20
0.8744513617621527
 30
0.0
 10
0.0013780381944444
 20
0.8679056803385415
 30
0.0
 10
-0.0403076171875
 20
0.8758293999565971
 30
0.0
 10
-0.0819932725694444
 20
0.8820305718315972
 30
0.0
 10
-0.1254014756944444
 20
0.8816860622829861
 30
0.0
 10
-0.5395019531249999
 20
0.8782409667968749
 30
0.0
 10
-0.8716091579861111
 20
0.4803324381510416
 30
0.0
 10
-0.8671305338541666
 20
-0.0064595540364583
 30
0.0
 10
-0.8626519097222222
 20
-0.4939405653211805
 30
0.0
 10
-0.5236545138888888
 20
-0.8856479220920138
 30
0.0
 10
-0.1095540364583333
 20
-0.8815138075086805
 30
0.0
 10
-0.0723470052083333
 20
-0.8811692979600694
 30
0.0
 10
-0.0368625217013889
 20
-0.8742791069878472
 30
0.0
 10
-0.0013780381944444
 20
-0.8677334255642361
 30
0.0
 10
0.0403076171875
 20
-0.8756571451822915
 30
0.0
 10
0.0819932725694444
 20
-0.8818583170572916
 30
0.0
 10
0.1254014756944444
 20
-0.8815138075086805
 30
0.0
 10
0.5395019531249999
 20
-0.8780687120225694
 30
0.0
 10
0.8716091579861111
 20
-0.4801601833767361
 30
0.0
 10
0.8671305338541666
 20
0.0066318088107639
 30
0.0
 10
0.8626519097222222
 20
0.4941128200954861
 30
0.0
 10
0.5236545138888888
 20
0.8858201768663193
 30
0.0
 10
0.1095540364583333
 20
0.8816860622829861
 30
0.0
  0
ENDBLK
  5
117
330
112
100
AcDbEntity
  8
0
100
AcDbBlockEnd
  0
BLOCK
  5
11A
330
118
100
AcDbEntity
  8
0
 62
     7
100
AcDbBlockBegin
  2
AI9-BLK31
 70
     0
 10
0.0
 20
0.0
 30
0.0
  3
AI9-BLK31
  1

  4

  0
ELLIPSE
  5
11C
330
118
100
AcDbEntity
  8
LGT
 62
     7
100
AcDbEllipse
 10
-0.1173055013020833
 20
-0.0001722547743056
 30
0.0
 11
0.007923719618055557
 21
-0.8815999348958334
 31
0.0
210
0.0
220
0.0
230
1.0
 40
0.8503302304978985
 41
0.0
 42
6.283185307179586
  0
SPLINE
  5
11B
330
118
100
AcDbEntity
  8
LGT
 62
     7
100
AcDbSpline
210
0.0
220
0.0
230
1.0
 70
    11
 71
     3
 72
    29
 73
    25
 74
     0
 42
0.0000000001
 43
0.0000000001
 40
0.0
 40
0.0
 40
0.0
 40
0.0
 40
1.0
 40
1.0
 40
1.0
 40
2.0
 40
2.0
 40
2.0
 40
3.0
 40
3.0
 40
3.0
 40
4.0
 40
4.0
 40
4.0
 40
5.0
 40
5.0
 40
5.0
 40
6.0
 40
6.0
 40
6.0
 40
7.0
 40
7.0
 40
7.0
 40
8.0
 40
8.0
 40
8.0
 40
8.0
 10
0.1097262912326389
 20
0.8814276801215277
 30
0.0
 10
0.0725192599826389
 20
0.8810831705729166
 30
0.0
 10
0.0370347764756944
 20
0.8741929796006944
 30
0.0
 10
0.00155029296875
 20
0.8676472981770833
 30
0.0
 10
-0.0401353624131944
 20
0.8755710177951388
 30
0.0
 10
-0.0818210177951389
 20
0.8817721896701388
 30
0.0
 10
-0.1252292209201389
 20
0.8814276801215277
 30
0.0
 10
-0.5393296983506944
 20
0.8779825846354166
 30
0.0
 10
-0.8714369032118055
 20
0.4800740559895833
 30
0.0
 10
-0.866958279079861
 20
-0.0067179361979167
 30
0.0
 10
-0.8624796549479166
 20
-0.4941989474826388
 30
0.0
 10
-0.5234822591145832
 20
-0.8859063042534722
 30
0.0
 10
-0.1093817816840278
 20
-0.8817721896701388
 30
0.0
 10
-0.0721747504340278
 20
-0.8814276801215277
 30
0.0
 10
-0.0366902669270833
 20
-0.8745374891493055
 30
0.0
 10
-0.0012057834201389
 20
-0.8679918077256944
 30
0.0
 10
0.0404798719618056
 20
-0.8759155273437499
 30
0.0
 10
0.08216552734375
 20
-0.8821166992187499
 30
0.0
 10
0.12557373046875
 20
-0.8817721896701388
 30
0.0
 10
0.5396742078993055
 20
-0.8783270941840277
 30
0.0
 10
0.8717814127604165
 20
-0.4804185655381944
 30
0.0
 10
0.8673027886284721
 20
0.0063734266493056
 30
0.0
 10
0.8628241644965277
 20
0.4938544379340277
 30
0.0
 10
0.5238267686631944
 20
0.8855617947048611
 30
0.0
 10
0.1097262912326389
 20
0.8814276801215277
 30
0.0
  0
ENDBLK
  5
11D
330
118
100
AcDbEntity
  8
0
100
AcDbBlockEnd
  0
BLOCK
  5
120
330
11E
100
AcDbEntity
  8
0
 62
     7
100
AcDbBlockBegin
  2
AI9-BLK32
 70
     0
 10
0.0
 20
0.0
 30
0.0
  3
AI9-BLK32
  1

  4

  0
ELLIPSE
  5
122
330
11E
100
AcDbEntity
  8
LGT
 62
     7
100
AcDbEllipse
 10
-0.1166164822048611
 20
-0.0001722547743056
 30
0.0
 11
0.007923719618055557
 21
-0.8815999348958334
 31
0.0
210
0.0
220
0.0
230
1.0
 40
0.8503302304978985
 41
0.0
 42
6.283185307179586
  0
SPLINE
  5
121
330
11E
100
AcDbEntity
  8
LGT
 62
     7
100
AcDbSpline
210
0.0
220
0.0
230
1.0
 70
    11
 71
     3
 72
    29
 73
    25
 74
     0
 42
0.0000000001
 43
0.0000000001
 40
0.0
 40
0.0
 40
0.0
 40
0.0
 40
1.0
 40
1.0
 40
1.0
 40
2.0
 40
2.0
 40
2.0
 40
3.0
 40
3.0
 40
3.0
 40
4.0
 40
4.0
 40
4.0
 40
5.0
 40
5.0
 40
5.0
 40
6.0
 40
6.0
 40
6.0
 40
7.0
 40
7.0
 40
7.0
 40
8.0
 40
8.0
 40
8.0
 40
8.0
 10
0.1104153103298611
 20
0.8814276801215277
 30
0.0
 10
0.0732082790798611
 20
0.8810831705729166
 30
0.0
 10
0.0377237955729167
 20
0.8741929796006944
 30
0.0
 10
0.0022393120659722
 20
0.8676472981770833
 30
0.0
 10
-0.0394463433159722
 20
0.8755710177951388
 30
0.0
 10
-0.0811319986979167
 20
0.8817721896701388
 30
0.0
 10
-0.1245402018229167
 20
0.8814276801215277
 30
0.0
 10
-0.5386406792534721
 20
0.8779825846354166
 30
0.0
 10
-0.8707478841145833
 20
0.4800740559895833
 30
0.0
 10
-0.8662692599826388
 20
-0.0067179361979167
 30
0.0
 10
-0.8617906358506944
 20
-0.4941989474826388
 30
0.0
 10
-0.5227932400173611
 20
-0.8859063042534722
 30
0.0
 10
-0.1086927625868056
 20
-0.8817721896701388
 30
0.0
 10
-0.0714857313368056
 20
-0.8814276801215277
 30
0.0
 10
-0.0360012478298611
 20
-0.8745374891493055
 30
0.0
 10
-0.0005167643229167
 20
-0.8679918077256944
 30
0.0
 10
0.0411688910590278
 20
-0.8759155273437499
 30
0.0
 10
0.0828545464409722
 20
-0.8821166992187499
 30
0.0
 10
0.1262627495659722
 20
-0.8817721896701388
 30
0.0
 10
0.5403632269965277
 20
-0.8783270941840277
 30
0.0
 10
0.8724704318576388
 20
-0.4804185655381944
 30
0.0
 10
0.8679918077256944
 20
0.0063734266493056
 30
0.0
 10
0.86351318359375
 20
0.4938544379340277
 30
0.0
 10
0.5245157877604166
 20
0.8855617947048611
 30
0.0
 10
0.1104153103298611
 20
0.8814276801215277
 30
0.0
  0
ENDBLK
  5
123
330
11E
100
AcDbEntity
  8
0
100
AcDbBlockEnd
  0
BLOCK
  5
126
330
124
100
AcDbEntity
  8
0
 62
     7
100
AcDbBlockBegin
  2
AI9-BLK33
 70
     0
 10
0.0
 20
0.0
 30
0.0
  3
AI9-BLK33
  1

  4

  0
ELLIPSE
  5
128
330
124
100
AcDbEntity
  8
LGT
 62
     7
100
AcDbEllipse
 10
-0.1173055013020833
 20
-0.0001722547743056
 30
0.0
 11
0.007923719618055557
 21
-0.8815999348958334
 31
0.0
210
0.0
220
0.0
230
1.0
 40
0.8503302304978985
 41
0.0
 42
6.283185307179586
  0
SPLINE
  5
127
330
124
100
AcDbEntity
  8
LGT
 62
     7
100
AcDbSpline
210
0.0
220
0.0
230
1.0
 70
    11
 71
     3
 72
    29
 73
    25
 74
     0
 42
0.0000000001
 43
0.0000000001
 40
0.0
 40
0.0
 40
0.0
 40
0.0
 40
1.0
 40
1.0
 40
1.0
 40
2.0
 40
2.0
 40
2.0
 40
3.0
 40
3.0
 40
3.0
 40
4.0
 40
4.0
 40
4.0
 40
5.0
 40
5.0
 40
5.0
 40
6.0
 40
6.0
 40
6.0
 40
7.0
 40
7.0
 40
7.0
 40
8.0
 40
8.0
 40
8.0
 40
8.0
 10
0.1097262912326389
 20
0.8814276801215277
 30
0.0
 10
0.0725192599826389
 20
0.8810831705729166
 30
0.0
 10
0.0370347764756944
 20
0.8741929796006944
 30
0.0
 10
0.00155029296875
 20
0.8676472981770833
 30
0.0
 10
-0.0401353624131944
 20
0.8755710177951388
 30
0.0
 10
-0.0818210177951389
 20
0.8817721896701388
 30
0.0
 10
-0.1252292209201389
 20
0.8814276801215277
 30
0.0
 10
-0.5393296983506944
 20
0.8779825846354166
 30
0.0
 10
-0.8714369032118055
 20
0.4800740559895833
 30
0.0
 10
-0.866958279079861
 20
-0.0067179361979167
 30
0.0
 10
-0.8624796549479166
 20
-0.4941989474826388
 30
0.0
 10
-0.5234822591145832
 20
-0.8859063042534722
 30
0.0
 10
-0.1093817816840278
 20
-0.8817721896701388
 30
0.0
 10
-0.0721747504340278
 20
-0.8814276801215277
 30
0.0
 10
-0.0366902669270833
 20
-0.8745374891493055
 30
0.0
 10
-0.0012057834201389
 20
-0.8679918077256944
 30
0.0
 10
0.0404798719618056
 20
-0.8759155273437499
 30
0.0
 10
0.08216552734375
 20
-0.8821166992187499
 30
0.0
 10
0.12557373046875
 20
-0.8817721896701388
 30
0.0
 10
0.5396742078993055
 20
-0.8783270941840277
 30
0.0
 10
0.8717814127604165
 20
-0.4804185655381944
 30
0.0
 10
0.8673027886284721
 20
0.0063734266493056
 30
0.0
 10
0.8628241644965277
 20
0.4938544379340277
 30
0.0
 10
0.5238267686631944
 20
0.8855617947048611
 30
0.0
 10
0.1097262912326389
 20
0.8814276801215277
 30
0.0
  0
ENDBLK
  5
129
330
124
100
AcDbEntity
  8
0
100
AcDbBlockEnd
  0
BLOCK
  5
12C
330
12A
100
AcDbEntity
  8
0
 62
     7
100
AcDbBlockBegin
  2
AI9-BLK34
 70
     0
 10
0.0
 20
0.0
 30
0.0
  3
AI9-BLK34
  1

  4

  0
ELLIPSE
  5
12E
330
12A
100
AcDbEntity
  8
LGT
 62
     7
100
AcDbEllipse
 10
-0.1173055013020833
 20
-0.0001722547743056
 30
0.0
 11
0.007923719618055557
 21
-0.8815999348958334
 31
0.0
210
0.0
220
0.0
230
1.0
 40
0.8503302304978985
 41
0.0
 42
6.283185307179586
  0
SPLINE
  5
12D
330
12A
100
AcDbEntity
  8
LGT
 62
     7
100
AcDbSpline
210
0.0
220
0.0
230
1.0
 70
    11
 71
     3
 72
    29
 73
    25
 74
     0
 42
0.0000000001
 43
0.0000000001
 40
0.0
 40
0.0
 40
0.0
 40
0.0
 40
1.0
 40
1.0
 40
1.0
 40
2.0
 40
2.0
 40
2.0
 40
3.0
 40
3.0
 40
3.0
 40
4.0
 40
4.0
 40
4.0
 40
5.0
 40
5.0
 40
5.0
 40
6.0
 40
6.0
 40
6.0
 40
7.0
 40
7.0
 40
7.0
 40
8.0
 40
8.0
 40
8.0
 40
8.0
 10
0.1097262912326389
 20
0.8814276801215277
 30
0.0
 10
0.0725192599826389
 20
0.8810831705729166
 30
0.0
 10
0.0370347764756944
 20
0.8741929796006944
 30
0.0
 10
0.00155029296875
 20
0.8676472981770833
 30
0.0
 10
-0.0401353624131944
 20
0.8755710177951388
 30
0.0
 10
-0.0818210177951389
 20
0.8817721896701388
 30
0.0
 10
-0.1252292209201389
 20
0.8814276801215277
 30
0.0
 10
-0.5393296983506944
 20
0.8779825846354166
 30
0.0
 10
-0.8714369032118055
 20
0.4800740559895833
 30
0.0
 10
-0.866958279079861
 20
-0.0067179361979167
 30
0.0
 10
-0.8624796549479166
 20
-0.4941989474826388
 30
0.0
 10
-0.5234822591145832
 20
-0.8859063042534722
 30
0.0
 10
-0.1093817816840278
 20
-0.8817721896701388
 30
0.0
 10
-0.0721747504340278
 20
-0.8814276801215277
 30
0.0
 10
-0.0366902669270833
 20
-0.8745374891493055
 30
0.0
 10
-0.0012057834201389
 20
-0.8679918077256944
 30
0.0
 10
0.0404798719618056
 20
-0.8759155273437499
 30
0.0
 10
0.08216552734375
 20
-0.8821166992187499
 30
0.0
 10
0.12557373046875
 20
-0.8817721896701388
 30
0.0
 10
0.5396742078993055
 20
-0.8783270941840277
 30
0.0
 10
0.8717814127604165
 20
-0.4804185655381944
 30
0.0
 10
0.8673027886284721
 20
0.0063734266493056
 30
0.0
 10
0.8628241644965277
 20
0.4938544379340277
 30
0.0
 10
0.5238267686631944
 20
0.8855617947048611
 30
0.0
 10
0.1097262912326389
 20
0.8814276801215277
 30
0.0
  0
ENDBLK
  5
12F
330
12A
100
AcDbEntity
  8
0
100
AcDbBlockEnd
  0
BLOCK
  5
132
330
130
100
AcDbEntity
  8
0
 62
     7
100
AcDbBlockBegin
  2
AI9-BLK35
 70
     0
 10
0.0
 20
0.0
 30
0.0
  3
AI9-BLK35
  1

  4

  0
ELLIPSE
  5
134
330
130
100
AcDbEntity
  8
LGT
 62
     7
100
AcDbEllipse
 10
-0.1392679850260417
 20
0.0383266872829861
 30
0.0
 11
-0.03221164279513889
 21
-0.88056640625
 31
0.0
210
0.0
220
0.0
230
1.0
 40
0.850359167443235
 41
0.0
 42
6.283185307179586
  0
SPLINE
  5
133
330
130
100
AcDbEntity
  8
LGT
 62
     7
100
AcDbSpline
210
0.0
220
0.0
230
1.0
 70
    11
 71
     3
 72
    35
 73
    31
 74
     0
 42
0.0000000001
 43
0.0000000001
 40
0.0
 40
0.0
 40
0.0
 40
0.0
 40
1.0
 40
1.0
 40
1.0
 40
2.0
 40
2.0
 40
2.0
 40
3.0
 40
3.0
 40
3.0
 40
4.0
 40
4.0
 40
4.0
 40
5.0
 40
5.0
 40
5.0
 40
6.0
 40
6.0
 40
6.0
 40
7.0
 40
7.0
 40
7.0
 40
8.0
 40
8.0
 40
8.0
 40
9.0
 40
9.0
 40
9.0
 40
10.0
 40
10.0
 40
10.0
 40
10.0
 10
-0.0646816677517361
 20
0.9147589789496528
 30
0.0
 10
-0.1056783040364583
 20
0.918893093532986
 30
0.0
 10
-0.1466749403211805
 20
0.9202711317274305
 30
0.0
 10
-0.1876715766059028
 20
0.9168260362413193
 30
0.0
 10
-0.5655985514322917
 20
0.8844421386718749
 30
0.0
 10
-0.8711785210503471
 20
0.5206400553385416
 30
0.0
 10
-0.8880594889322916
 20
0.065887451171875
 30
0.0
 10
-0.9045959472656249
 20
-0.3854200575086805
 30
0.0
 10
-0.6413906521267361
 20
-0.7905632866753471
 30
0.0
 10
-0.2700093587239583
 20
-0.851885986328125
 30
0.0
 10
-0.203863525390625
 20
-0.8780687120225694
 30
0.0
 10
-0.1311720106336805
 20
-0.8966722276475694
 30
0.0
 10
-0.0564134385850694
 20
-0.9070075141059028
 30
0.0
 10
-0.0154168023003472
 20
-0.9125196668836805
 30
0.0
 10
0.0248908148871528
 20
-0.913897705078125
 30
0.0
 10
0.0655429416232639
 20
-0.9132086859809027
 30
0.0
 10
0.1068840874565972
 20
-0.917342800564236
 30
0.0
 10
0.1475362141927083
 20
-0.9187208387586805
 30
0.0
 10
0.1885328504774305
 20
-0.9152757432725693
 30
0.0
 10
0.5664598253038194
 20
-0.8815138075086805
 30
0.0
 10
0.8730733235677083
 20
-0.5190897623697917
 30
0.0
 10
0.8889207628038194
 20
-0.0650261773003472
 30
0.0
 10
0.9064907497829861
 20
0.3876593695746528
 30
0.0
 10
0.6236484103732638
 20
0.7679979112413193
 30
0.0
 10
0.2615688747829861
 20
0.8527472601996528
 30
0.0
 10
0.199212646484375
 20
0.8871982150607638
 30
0.0
 10
0.1303107367621528
 20
0.9037346733940972
 30
0.0
 10
0.0579637315538194
 20
0.9113138834635416
 30
0.0
 10
0.0173116048177083
 20
0.9154479980468749
 30
0.0
 10
-0.0233405219184028
 20
0.9147589789496528
 30
0.0
 10
-0.0646816677517361
 20
0.9147589789496528
 30
0.0
  0
ENDBLK
  5
135
330
130
100
AcDbEntity
  8
0
100
AcDbBlockEnd
  0
BLOCK
  5
138
330
136
100
AcDbEntity
  8
0
 62
     7
100
AcDbBlockBegin
  2
AI9-BLK36
 70
     0
 10
0.0
 20
0.0
 30
0.0
  3
AI9-BLK36
  1

  4

  0
ELLIPSE
  5
13A
330
136
100
AcDbEntity
  8
LGT
 62
     7
100
AcDbEllipse
 10
-0.1393541124131944
 20
0.0375515407986111
 30
0.0
 11
-0.03229777018229167
 21
-0.88056640625
 31
0.0
210
0.0
220
0.0
230
1.0
 40
0.8502584477492877
 41
0.0
 42
6.283185307179586
  0
SPLINE
  5
139
330
136
100
AcDbEntity
  8
LGT
 62
     7
100
AcDbSpline
210
0.0
220
0.0
230
1.0
 70
    11
 71
     3
 72
    35
 73
    31
 74
     0
 42
0.0000000001
 43
0.0000000001
 40
0.0
 40
0.0
 40
0.0
 40
0.0
 40
1.0
 40
1.0
 40
1.0
 40
2.0
 40
2.0
 40
2.0
 40
3.0
 40
3.0
 40
3.0
 40
4.0
 40
4.0
 40
4.0
 40
5.0
 40
5.0
 40
5.0
 40
6.0
 40
6.0
 40
6.0
 40
7.0
 40
7.0
 40
7.0
 40
8.0
 40
8.0
 40
8.0
 40
9.0
 40
9.0
 40
9.0
 40
10.0
 40
10.0
 40
10.0
 40
10.0
 10
-0.0646816677517361
 20
0.9139838324652777
 30
0.0
 10
-0.1058505588107639
 20
0.9181179470486111
 30
0.0
 10
-0.1468471950954861
 20
0.9194959852430554
 30
0.0
 10
-0.1878438313802083
 20
0.9160508897569444
 30
0.0
 10
-0.5659430609809028
 20
0.8836669921874999
 30
0.0
 10
-0.8713507758246527
 20
0.5198649088541666
 30
0.0
 10
-0.8880594889322916
 20
0.0651123046875
 30
0.0
 10
-0.9047682020399305
 20
-0.3861952039930555
 30
0.0
 10
-0.6415629069010416
 20
-0.7913384331597222
 30
0.0
 10
-0.2701816134982639
 20
-0.8526611328124999
 30
0.0
 10
-0.2042080349392361
 20
-0.8788438585069444
 30
0.0
 10
-0.1313442654079861
 20
-0.8974473741319443
 30
0.0
 10
-0.0564134385850694
 20
-0.9077826605902777
 30
0.0
 10
-0.0155890570746528
 20
-0.9132948133680555
 30
0.0
 10
0.0248908148871528
 20
-0.9146728515624999
 30
0.0
 10
0.0653706868489583
 20
-0.9139838324652777
 30
0.0
 10
0.1065395779079861
 20
-0.9181179470486111
 30
0.0
 10
0.1473639594184028
 20
-0.9194959852430554
 30
0.0
 10
0.188360595703125
 20
-0.9160508897569444
 30
0.0
 10
0.5664598253038194
 20
-0.8822889539930555
 30
0.0
 10
0.8729010687934027
 20
-0.5198649088541666
 30
0.0
 10
0.8889207628038194
 20
-0.0658013237847222
 30
0.0
 10
0.9063184950086805
 20
0.3868842230902778
 30
0.0
 10
0.6233039008246527
 20
0.7672227647569444
 30
0.0
 10
0.2613966200086805
 20
0.8519721137152777
 30
0.0
 10
0.1988681369357639
 20
0.8864230685763889
 30
0.0
 10
0.1301384819878472
 20
0.9029595269097221
 30
0.0
 10
0.0579637315538194
 20
0.9105387369791665
 30
0.0
 10
0.0173116048177083
 20
0.9146728515624999
 30
0.0
 10
-0.0235127766927083
 20
0.9139838324652777
 30
0.0
 10
-0.0646816677517361
 20
0.9139838324652777
 30
0.0
  0
ENDBLK
  5
13B
330
136
100
AcDbEntity
  8
0
100
AcDbBlockEnd
  0
BLOCK
  5
13E
330
13C
100
AcDbEntity
  8
0
 62
     7
100
AcDbBlockBegin
  2
AI9-BLK37
 70
     0
 10
0.0
 20
0.0
 30
0.0
  3
AI9-BLK37
  1

  4

  0
ELLIPSE
  5
140
330
13C
100
AcDbEntity
  8
LGT
 62
     7
100
AcDbEllipse
 10
-0.1500339084201389
 20
0.0564995659722222
 30
0.0
 11
-0.05236545138888889
 21
-0.8798773871527778
 31
0.0
210
0.0
220
0.0
230
1.0
 40
0.8504478012731331
 41
0.0
 42
6.283185307179586
  0
SPLINE
  5
13F
330
13C
100
AcDbEntity
  8
LGT
 62
     7
100
AcDbSpline
210
0.0
220
0.0
230
1.0
 70
    11
 71
     3
 72
    23
 73
    19
 74
     0
 42
0.0000000001
 43
0.0000000001
 40
0.0
 40
0.0
 40
0.0
 40
0.0
 40
1.0
 40
1.0
 40
1.0
 40
2.0
 40
2.0
 40
2.0
 40
3.0
 40
3.0
 40
3.0
 40
4.0
 40
4.0
 40
4.0
 40
5.0
 40
5.0
 40
5.0
 40
6.0
 40
6.0
 40
6.0
 40
6.0
 10
0.2416734483506944
 20
0.8502495659722221
 30
0.0
 10
0.1434882269965278
 20
0.9170844184027777
 30
0.0
 10
0.0246324327256944
 20
0.9294867621527777
 30
0.0
 10
-0.0973239474826389
 20
0.9370659722222221
 30
0.0
 10
-0.5107354058159722
 20
0.9618706597222222
 30
0.0
 10
-0.8693698459201388
 20
0.5877332899305555
 30
0.0
 10
-0.8983086480034721
 20
0.1012858072916667
 30
0.0
 10
-0.9265584309895832
 20
-0.3727593315972222
 30
0.0
 10
-0.6485392252604166
 20
-0.8102864583333332
 30
0.0
 10
-0.2506306966145833
 20
-0.853005642361111
 30
0.0
 10
-0.1469333224826389
 20
-0.8977918836805555
 30
0.0
 10
-0.0229098849826389
 20
-0.9294867621527777
 30
0.0
 10
0.0990464952256944
 20
-0.9370659722222221
 30
0.0
 10
0.5124579535590277
 20
-0.9618706597222222
 30
0.0
 10
0.8710923936631944
 20
-0.5877332899305555
 30
0.0
 10
0.9000311957465277
 20
-0.1012858072916667
 30
0.0
 10
0.9282809787326388
 20
0.3727593315972222
 30
0.0
 10
0.6237345377604167
 20
0.772390407986111
 30
0.0
 10
0.2416734483506944
 20
0.8502495659722221
 30
0.0
  0
ENDBLK
  5
141
330
13C
100
AcDbEntity
  8
0
100
AcDbBlockEnd
  0
BLOCK
  5
144
330
142
100
AcDbEntity
  8
0
 62
     7
100
AcDbBlockBegin
  2
AI9-BLK38
 70
     0
 10
0.0
 20
0.0
 30
0.0
  3
AI9-BLK38
  1

  4

  0
ELLIPSE
  5
146
330
142
100
AcDbEntity
  8
LGT
 62
     7
100
AcDbEllipse
 10
-0.1510674370659722
 20
0.055035400390625
 30
0.0
 11
-0.05236545138888889
 21
-0.8798773871527778
 31
0.0
210
0.0
220
0.0
230
1.0
 40
0.8504478012731331
 41
0.0
 42
6.283185307179586
  0
SPLINE
  5
145
330
142
100
AcDbEntity
  8
LGT
 62
     7
100
AcDbSpline
210
0.0
220
0.0
230
1.0
 70
    11
 71
     3
 72
    23
 73
    19
 74
     0
 42
0.0000000001
 43
0.0000000001
 40
0.0
 40
0.0
 40
0.0
 40
0.0
 40
1.0
 40
1.0
 40
1.0
 40
2.0
 40
2.0
 40
2.0
 40
3.0
 40
3.0
 40
3.0
 40
4.0
 40
4.0
 40
4.0
 40
5.0
 40
5.0
 40
5.0
 40
6.0
 40
6.0
 40
6.0
 40
6.0
 10
0.2406399197048611
 20
0.8487854003906249
 30
0.0
 10
0.1424546983506944
 20
0.9156202528211804
 30
0.0
 10
0.0235989040798611
 20
0.9280225965711805
 30
0.0
 10
-0.0983574761284722
 20
0.9356018066406249
 30
0.0
 10
-0.5117689344618055
 20
0.960406494140625
 30
0.0
 10
-0.8704033745659722
 20
0.5862691243489583
 30
0.0
 10
-0.8993421766493055
 20
0.0998216417100694
 30
0.0
 10
-0.9275919596354166
 20
-0.3742234971788194
 30
0.0
 10
-0.6495727539062499
 20
-0.8117506239149305
 30
0.0
 10
-0.2516642252604167
 20
-0.8544698079427082
 30
0.0
 10
-0.1479668511284722
 20
-0.8992560492621528
 30
0.0
 10
-0.0239434136284722
 20
-0.9309509277343749
 30
0.0
 10
0.0980129665798611
 20
-0.9385301378038193
 30
0.0
 10
0.5114244249131944
 20
-0.9633348253038193
 30
0.0
 10
0.8700588650173611
 20
-0.5891974555121528
 30
0.0
 10
0.8989976671006944
 20
-0.1027499728732639
 30
0.0
 10
0.9272474500868054
 20
0.371295166015625
 30
0.0
 10
0.6227010091145833
 20
0.7709262424045138
 30
0.0
 10
0.2406399197048611
 20
0.8487854003906249
 30
0.0
  0
ENDBLK
  5
147
330
142
100
AcDbEntity
  8
0
100
AcDbBlockEnd
  0
BLOCK
  5
14A
330
148
100
AcDbEntity
  8
0
 62
     7
100
AcDbBlockBegin
  2
AI9-BLK39
 70
     0
 10
0.0
 20
0.0
 30
0.0
  3
AI9-BLK39
  1

  4

  0
LWPOLYLINE
  5
153
330
148
100
AcDbEntity
  8
LGT
 62
     7
100
AcDbPolyline
 90
        6
 70
     1
 43
0.0
 10
0.5118550618489582
 20
-0.8965861002604166
 10
-0.4911844889322916
 20
-0.9076104058159722
 10
-1.002953423394097
 20
-0.0115410698784722
 10
-0.5116828070746528
 20
0.8965861002604166
 10
0.4913567437065972
 20
0.9076104058159722
 10
1.002953423394097
 20
0.0111965603298611
  0
LWPOLYLINE
  5
14B
330
148
100
AcDbEntity
  8
LGT
 62
     7
100
AcDbPolyline
 90
        6
 70
     1
 43
0.0
 10
0.9533440483940971
 20
0.0036173502604167
 10
0.5085822211371527
 20
0.8311292860243055
 10
-0.0018086751302083
 20
0.8252726236979165
 10
-0.4314120822482638
 20
-0.0177422417534722
 10
0.0164503309461806
 20
-0.8497328016493054
 10
0.5211568196614583
 20
-0.8442206488715277
  0
ENDBLK
  5
15B
330
148
100
AcDbEntity
  8
0
100
AcDbBlockEnd
  0
BLOCK
  5
15E
330
15C
100
AcDbEntity
  8
0
 62
     7
100
AcDbBlockBegin
  2
AI9-BLK40
 70
     0
 10
0.0
 20
0.0
 30
0.0
  3
AI9-BLK40
  1

  4

  0
LWPOLYLINE
  5
167
330
15C
100
AcDbEntity
  8
LGT
 62
     7
100
AcDbPolyline
 90
        6
 70
     1
 43
0.0
 10
0.5118550618489582
 20
-0.8965861002604166
 10
-0.4911844889322916
 20
-0.9076104058159722
 10
-1.002953423394097
 20
-0.0115410698784722
 10
-0.5116828070746528
 20
0.8965861002604166
 10
0.4913567437065972
 20
0.9076104058159722
 10
1.002953423394097
 20
0.0111965603298611
  0
LWPOLYLINE
  5
15F
330
15C
100
AcDbEntity
  8
LGT
 62
     7
100
AcDbPolyline
 90
        6
 70
     1
 43
0.0
 10
0.9533440483940971
 20
0.0036173502604167
 10
0.5085822211371527
 20
0.8311292860243055
 10
-0.0018086751302083
 20
0.8252726236979165
 10
-0.4314120822482638
 20
-0.0177422417534722
 10
0.0164503309461806
 20
-0.8497328016493054
 10
0.5211568196614583
 20
-0.8442206488715277
  0
ENDBLK
  5
16F
330
15C
100
AcDbEntity
  8
0
100
AcDbBlockEnd
  0
BLOCK
  5
172
330
170
100
AcDbEntity
  8
0
 62
     7
100
AcDbBlockBegin
  2
AI9-BLK41
 70
     0
 10
0.0
 20
0.0
 30
0.0
  3
AI9-BLK41
  1

  4

  0
LWPOLYLINE
  5
17B
330
170
100
AcDbEntity
  8
LGT
 62
     7
100
AcDbPolyline
 90
        6
 70
     1
 43
0.0
 10
0.5118550618489582
 20
-0.8965861002604166
 10
-0.4911844889322916
 20
-0.9076104058159722
 10
-1.002953423394097
 20
-0.0115410698784722
 10
-0.5116828070746528
 20
0.8965861002604166
 10
0.4913567437065972
 20
0.9076104058159722
 10
1.002953423394097
 20
0.0111965603298611
  0
LWPOLYLINE
  5
173
330
170
100
AcDbEntity
  8
LGT
 62
     7
100
AcDbPolyline
 90
        6
 70
     1
 43
0.0
 10
0.9533440483940971
 20
0.0036173502604167
 10
0.5085822211371527
 20
0.8311292860243055
 10
-0.0018086751302083
 20
0.8252726236979165
 10
-0.4314120822482638
 20
-0.0177422417534722
 10
0.0164503309461806
 20
-0.8497328016493054
 10
0.5211568196614583
 20
-0.8442206488715277
  0
ENDBLK
  5
183
330
170
100
AcDbEntity
  8
0
100
AcDbBlockEnd
  0
BLOCK
  5
186
330
184
100
AcDbEntity
  8
0
 62
     7
100
AcDbBlockBegin
  2
AI9-BLK42
 70
     0
 10
0.0
 20
0.0
 30
0.0
  3
AI9-BLK42
  1

  4

  0
LWPOLYLINE
  5
18F
330
184
100
AcDbEntity
  8
LGT
 62
     7
100
AcDbPolyline
 90
        6
 70
     1
 43
0.0
 10
0.5118550618489582
 20
-0.8965861002604166
 10
-0.4911844889322916
 20
-0.9076104058159722
 10
-1.002953423394097
 20
-0.0115410698784722
 10
-0.5116828070746528
 20
0.8965861002604166
 10
0.4913567437065972
 20
0.9076104058159722
 10
1.002953423394097
 20
0.0111965603298611
  0
LWPOLYLINE
  5
187
330
184
100
AcDbEntity
  8
LGT
 62
     7
100
AcDbPolyline
 90
        6
 70
     1
 43
0.0
 10
0.9533440483940971
 20
0.0036173502604167
 10
0.5085822211371527
 20
0.8311292860243055
 10
-0.0018086751302083
 20
0.8252726236979165
 10
-0.4314120822482638
 20
-0.0177422417534722
 10
0.0164503309461806
 20
-0.8497328016493054
 10
0.5211568196614583
 20
-0.8442206488715277
  0
ENDBLK
  5
197
330
184
100
AcDbEntity
  8
0
100
AcDbBlockEnd
  0
BLOCK
  5
19A
330
198
100
AcDbEntity
  8
0
 62
     7
100
AcDbBlockBegin
  2
AI9-BLK43
 70
     0
 10
0.0
 20
0.0
 30
0.0
  3
AI9-BLK43
  1

  4

  0
SPLINE
  5
19C
330
198
100
AcDbEntity
  8
LGT
 62
     7
100
AcDbSpline
210
0.0
220
0.0
230
1.0
 70
     8
 71
     3
 72
    17
 73
    13
 74
     0
 42
0.0000000001
 43
0.0000000001
 40
0.0
 40
0.0
 40
0.0
 40
0.0
 40
1.0
 40
1.0
 40
1.0
 40
2.0
 40
2.0
 40
2.0
 40
3.0
 40
3.0
 40
3.0
 40
4.0
 40
4.0
 40
4.0
 40
4.0
 10
1.987561713324653
 20
-1.5223876953125
 30
0.0
 10
1.987561713324653
 20
-1.5223876953125
 30
0.0
 10
1.987561713324653
 20
-1.5223876953125
 30
0.0
 10
1.987561713324653
 20
-1.5223876953125
 30
0.0
 10
2.174113633897569
 20
-1.319471571180555
 30
0.0
 10
2.161194525824653
 20
-1.003556315104167
 30
0.0
 10
1.959311930338542
 20
-0.8164876302083333
 30
0.0
 10
1.959311930338542
 20
-0.8164876302083333
 30
0.0
 10
1.721083577473958
 20
-0.5973795572916666
 30
0.0
 10
1.721083577473958
 20
-0.5973795572916666
 30
0.0
 10
1.721083577473958
 20
-0.5973795572916666
 30
0.0
 10
-0.0913811577690972
 20
1.085549587673611
 30
0.0
 10
-0.0913811577690972
 20
1.085549587673611
 30
0.0
  0
LINE
  5
19B
330
198
100
AcDbEntity
  8
LGT
 62
     7
100
AcDbLine
 10
-2.074894883897569
 20
1.550981987847222
 30
0.0
 11
1.281661648220486
 21
-1.550981987847222
 31
0.0
  0
ENDBLK
  5
19D
330
198
100
AcDbEntity
  8
0
100
AcDbBlockEnd
  0
BLOCK
  5
1A0
330
19E
100
AcDbEntity
  8
0
 62
     7
100
AcDbBlockBegin
  2
AI9-BLK44
 70
     0
 10
0.0
 20
0.0
 30
0.0
  3
AI9-BLK44
  1

  4

  0
SPLINE
  5
1A4
330
19E
100
AcDbEntity
  8
LGT
 62
     7
100
AcDbSpline
210
0.0
220
0.0
230
1.0
 70
     8
 71
     3
 72
    17
 73
    13
 74
     0
 42
0.0000000001
 43
0.0000000001
 40
0.0
 40
0.0
 40
0.0
 40
0.0
 40
1.0
 40
1.0
 40
1.0
 40
2.0
 40
2.0
 40
2.0
 40
3.0
 40
3.0
 40
3.0
 40
4.0
 40
4.0
 40
4.0
 40
4.0
 10
-3.630097113715277
 20
-3.698137749565972
 30
0.0
 10
-3.630097113715277
 20
-3.698137749565972
 30
0.0
 10
-3.630097113715277
 20
-3.698137749565972
 30
0.0
 10
-3.630097113715277
 20
-3.698137749565972
 30
0.0
 10
-3.431659613715278
 20
-3.88968505859375
 30
0.0
 10
-3.115399848090278
 20
-3.884172905815972
 30
0.0
 10
-2.923508029513889
 20
-3.686424424913194
 30
0.0
 10
-2.923508029513889
 20
-3.686424424913194
 30
0.0
 10
-2.698887803819444
 20
-3.453535970052083
 30
0.0
 10
-2.698887803819444
 20
-3.453535970052083
 30
0.0
 10
-2.698887803819444
 20
-3.453535970052083
 30
0.0
 10
-0.9742730034722221
 20
-1.681034342447917
 30
0.0
 10
-0.9742730034722221
 20
-1.681034342447917
 30
0.0
  0
SPLINE
  5
1A3
330
19E
100
AcDbEntity
  8
LGT
 62
     7
100
AcDbSpline
210
0.0
220
0.0
230
1.0
 70
     8
 71
     3
 72
    17
 73
    13
 74
     0
 42
0.0000000001
 43
0.0000000001
 40
0.0
 40
0.0
 40
0.0
 40
0.0
 40
1.0
 40
1.0
 40
1.0
 40
2.0
 40
2.0
 40
2.0
 40
3.0
 40
3.0
 40
3.0
 40
4.0
 40
4.0
 40
4.0
 40
4.0
 10
3.501595052083333
 20
2.94710693359375
 30
0.0
 10
3.693486870659722
 20
3.14554443359375
 30
0.0
 10
3.688319227430555
 20
3.46180419921875
 30
0.0
 10
3.489537217881944
 20
3.653696017795139
 30
0.0
 10
3.489537217881944
 20
3.653696017795139
 30
0.0
 10
3.489537217881944
 20
3.653696017795139
 30
0.0
 10
3.489537217881944
 20
3.653696017795139
 30
0.0
 10
3.291099717881944
 20
3.845587836371527
 30
0.0
 10
2.974839952256944
 20
3.840420193142361
 30
0.0
 10
2.782948133680555
 20
3.641982693142361
 30
0.0
 10
2.782948133680555
 20
3.641982693142361
 30
0.0
 10
-3.642154947916666
 20
-2.991893174913194
 30
0.0
 10
-3.642154947916666
 20
-2.991893174913194
 30
0.0
  0
LINE
  5
1A2
330
19E
100
AcDbEntity
  8
LGT
 62
     7
100
AcDbLine
 10
1.518942599826389
 20
0.8976196289062499
 30
0.0
 11
3.153984917534722
 21
2.587955729166667
 31
0.0
  0
LINE
  5
1A1
330
19E
100
AcDbEntity
  8
LGT
 62
     7
100
AcDbLine
 10
-0.4840359157986111
 20
-1.173227267795139
 30
0.0
 11
1.151350911458333
 21
0.5169365776909721
 31
0.0
  0
ENDBLK
  5
1A5
330
19E
100
AcDbEntity
  8
0
100
AcDbBlockEnd
  0
BLOCK
  5
1A8
330
1A6
100
AcDbEntity
  8
0
 62
     7
100
AcDbBlockBegin
  2
AI9-BLK45
 70
     0
 10
0.0
 20
0.0
 30
0.0
  3
AI9-BLK45
  1

  4

  0
SPLINE
  5
1AC
330
1A6
100
AcDbEntity
  8
LGT
 62
     7
100
AcDbSpline
210
0.0
220
0.0
230
1.0
 70
     8
 71
     3
 72
    17
 73
    13
 74
     0
 42
0.0000000001
 43
0.0000000001
 40
0.0
 40
0.0
 40
0.0
 40
0.0
 40
1.0
 40
1.0
 40
1.0
 40
2.0
 40
2.0
 40
2.0
 40
3.0
 40
3.0
 40
3.0
 40
4.0
 40
4.0
 40
4.0
 40
4.0
 10
-0.0001722547743056
 20
-4.93148193359375
 30
0.0
 10
-0.0001722547743056
 20
-4.93148193359375
 30
0.0
 10
-0.0001722547743056
 20
-4.93148193359375
 30
0.0
 10
-0.0001722547743056
 20
-4.93148193359375
 30
0.0
 10
0.2761244032118055
 20
-4.93148193359375
 30
0.0
 10
0.4997111002604166
 20
-4.707722981770833
 30
0.0
 10
0.4997111002604166
 20
-4.431770833333333
 30
0.0
 10
0.4997111002604166
 20
-4.431770833333333
 30
0.0
 10
0.4997111002604166
 20
-4.1082763671875
 30
0.0
 10
0.4997111002604166
 20
-4.1082763671875
 30
0.0
 10
0.4997111002604166
 20
-4.1082763671875
 30
0.0
 10
0.4997111002604166
 20
-2.050520833333333
 30
0.0
 10
0.4997111002604166
 20
-2.050520833333333
 30
0.0
  0
SPLINE
  5
1AB
330
1A6
100
AcDbEntity
  8
LGT
 62
     7
100
AcDbSpline
210
0.0
220
0.0
230
1.0
 70
     8
 71
     3
 72
    17
 73
    13
 74
     0
 42
0.0000000001
 43
0.0000000001
 40
0.0
 40
0.0
 40
0.0
 40
0.0
 40
1.0
 40
1.0
 40
1.0
 40
2.0
 40
2.0
 40
2.0
 40
3.0
 40
3.0
 40
3.0
 40
4.0
 40
4.0
 40
4.0
 40
4.0
 10
0.4997111002604166
 20
4.387673611111111
 30
0.0
 10
0.4997111002604166
 20
4.66362575954861
 30
0.0
 10
0.2761244032118055
 20
4.887384711371527
 30
0.0
 10
-0.0001722547743056
 20
4.887384711371527
 30
0.0
 10
-0.0001722547743056
 20
4.887384711371527
 30
0.0
 10
-0.0001722547743056
 20
4.887384711371527
 30
0.0
 10
-0.0001722547743056
 20
4.887384711371527
 30
0.0
 10
-0.2761244032118055
 20
4.887384711371527
 30
0.0
 10
-0.4997111002604166
 20
4.66362575954861
 30
0.0
 10
-0.4997111002604166
 20
4.387673611111111
 30
0.0
 10
-0.4997111002604166
 20
4.387673611111111
 30
0.0
 10
-0.4997111002604166
 20
-4.431770833333333
 30
0.0
 10
-0.4997111002604166
 20
-4.431770833333333
 30
0.0
  0
LINE
  5
1AA
330
1A6
100
AcDbEntity
  8
LGT
 62
     7
100
AcDbLine
 10
0.4997111002604166
 20
1.536168077256944
 30
0.0
 11
0.4997111002604166
 21
3.887962510850694
 31
0.0
  0
LINE
  5
1A9
330
1A6
100
AcDbEntity
  8
LGT
 62
     7
100
AcDbLine
 10
0.4997111002604166
 20
-1.344793023003472
 30
0.0
 11
0.4997111002604166
 21
1.007001410590278
 31
0.0
  0
ENDBLK
  5
1AD
330
1A6
100
AcDbEntity
  8
0
100
AcDbBlockEnd
  0
BLOCK
  5
1C0
330
1BE
100
AcDbEntity
  8
0
 62
     7
100
AcDbBlockBegin
  2
AI9-BLK47
 70
     0
 10
0.0
 20
0.0
 30
0.0
  3
AI9-BLK47
  1

  4

  0
LWPOLYLINE
  5
1C2
330
1BE
100
AcDbEntity
  8
TIE_PLATE
 62
     7
100
AcDbPolyline
 90
        4
 70
     1
 43
0.0
 10
0.5778286404079861
 20
0.0300584581163194
 10
-1.080295817057292
 20
0.5090989854600694
 10
-1.080984836154514
 20
0.1144632975260417
 10
0.9030456542968749
 20
-0.4577670627170138
  0
LINE
  5
1C1
330
1BE
100
AcDbEntity
  8
TIE_PLATE
 62
     7
100
AcDbLine
 10
0.4296895345052083
 20
0.0755337185329861
 30
0.0
 11
1.158671739366319
 21
-0.1471917046440972
 31
0.0
  0
ENDBLK
  5
1C8
330
1BE
100
AcDbEntity
  8
0
100
AcDbBlockEnd
  0
BLOCK
  5
1CB
330
1C9
100
AcDbEntity
  8
0
 62
     7
100
AcDbBlockBegin
  2
AI9-BLK48
 70
     0
 10
0.0
 20
0.0
 30
0.0
  3
AI9-BLK48
  1

  4

  0
LWPOLYLINE
  5
1CD
330
1C9
100
AcDbEntity
  8
TIE_PLATE
 62
     7
100
AcDbPolyline
 90
        4
 70
     1
 43
0.0
 10
0.6129686143663194
 20
0.0019809299045139
 10
-1.099588351779514
 20
0.5249464246961805
 10
-1.099932861328125
 20
0.1401292588975694
 10
0.9226826985677082
 20
-0.4717196994357639
  0
LINE
  5
1CC
330
1C9
100
AcDbEntity
  8
TIE_PLATE
 62
     7
100
AcDbLine
 10
1.165906439887153
 20
-0.1670010036892361
 30
0.0
 11
0.472064208984375
 21
0.0450446234809028
 31
0.0
  0
ENDBLK
  5
1D3
330
1C9
100
AcDbEntity
  8
0
100
AcDbBlockEnd
  0
BLOCK
  5
1D6
330
1D4
100
AcDbEntity
  8
0
 62
     7
100
AcDbBlockBegin
  2
AI9-BLK49
 70
     0
 10
0.0
 20
0.0
 30
0.0
  3
AI9-BLK49
  1

  4

  0
LWPOLYLINE
  5
1D8
330
1D4
100
AcDbEntity
  8
TIE_PLATE
 62
     7
100
AcDbPolyline
 90
        4
 70
     1
 43
0.0
 10
0.5826517740885416
 20
0.0064595540364583
 10
-1.050667995876736
 20
0.5056538899739583
 10
-1.051012505425347
 20
0.1297939724392361
 10
0.8782409667968749
 20
-0.4538052029079861
  0
LINE
  5
1D7
330
1D4
100
AcDbEntity
  8
TIE_PLATE
 62
     7
100
AcDbLine
 10
1.110440402560764
 20
-0.1544264051649305
 30
0.0
 11
0.4479485405815972
 21
0.0478006998697917
 31
0.0
  0
ENDBLK
  5
1DE
330
1D4
100
AcDbEntity
  8
0
100
AcDbBlockEnd
  0
BLOCK
  5
1E1
330
1DF
100
AcDbEntity
  8
0
 62
     7
100
AcDbBlockBegin
  2
AI9-BLK50
 70
     0
 10
0.0
 20
0.0
 30
0.0
  3
AI9-BLK50
  1

  4

  0
LWPOLYLINE
  5
1E3
330
1DF
100
AcDbEntity
  8
TIE_PLATE
 62
     7
100
AcDbPolyline
 90
        4
 70
     1
 43
0.0
 10
0.5544019911024305
 20
0.0110243055555556
 10
-1.00553724500868
 20
0.4874810112847222
 10
-1.00553724500868
 20
0.1200615776909722
 10
0.8368998209635415
 20
-0.4370103624131944
  0
LINE
  5
1E2
330
1DF
100
AcDbEntity
  8
TIE_PLATE
 62
     7
100
AcDbLine
 10
0.4258999294704861
 20
0.0504706488715278
 30
0.0
 11
1.058419460720486
 21
-0.1427992078993055
 31
0.0
  0
ENDBLK
  5
1E9
330
1DF
100
AcDbEntity
  8
0
100
AcDbBlockEnd
  0
BLOCK
  5
1EC
330
1EA
100
AcDbEntity
  8
0
 62
     7
100
AcDbBlockBegin
  2
AI9-BLK51
 70
     0
 10
0.0
 20
0.0
 30
0.0
  3
AI9-BLK51
  1

  4

  0
LWPOLYLINE
  5
1EE
330
1EA
100
AcDbEntity
  8
TIE_PLATE
 62
     7
100
AcDbPolyline
 90
        4
 70
     1
 43
0.0
 10
-0.1992987738715278
 20
0.2656168619791666
 10
-0.3016181098090278
 20
0.2731960720486111
 10
-0.30230712890625
 20
-0.1259182400173611
 10
0.1338419596354167
 20
-0.2311659071180555
  0
LINE
  5
1ED
330
1EA
100
AcDbEntity
  8
TIE_PLATE
 62
     7
100
AcDbLine
 10
-0.3508829752604166
 20
0.3131591796875
 30
0.0
 11
0.3953247070312499
 21
0.0800984700520833
 31
0.0
  0
ENDBLK
  5
1F4
330
1EA
100
AcDbEntity
  8
0
100
AcDbBlockEnd
  0
BLOCK
  5
1F7
330
1F5
100
AcDbEntity
  8
0
 62
     7
100
AcDbBlockBegin
  2
AI9-BLK52
 70
     0
 10
0.0
 20
0.0
 30
0.0
  3
AI9-BLK52
  1

  4

  0
LWPOLYLINE
  5
1F9
330
1F5
100
AcDbEntity
  8
TIE_PLATE
 62
     7
100
AcDbPolyline
 90
        4
 70
     1
 43
0.0
 10
0.6294189453125
 20
-0.0052537706163194
 10
-1.127579752604167
 20
0.5438944498697916
 10
-1.128268771701389
 20
0.1540818956163194
 10
0.9474012586805555
 20
-0.4882561577690972
  0
LINE
  5
1F8
330
1F5
100
AcDbEntity
  8
TIE_PLATE
 62
     7
100
AcDbLine
 10
1.196481662326389
 20
-0.1825039333767361
 30
0.0
 11
0.4847249348958333
 21
0.0400492350260417
 31
0.0
  0
ENDBLK
  5
1FF
330
1F5
100
AcDbEntity
  8
0
100
AcDbBlockEnd
  0
BLOCK
  5
202
330
200
100
AcDbEntity
  8
0
 62
     7
100
AcDbBlockBegin
  2
AI9-BLK53
 70
     0
 10
0.0
 20
0.0
 30
0.0
  3
AI9-BLK53
  1

  4

  0
LWPOLYLINE
  5
204
330
200
100
AcDbEntity
  8
TIE_PLATE
 62
     7
100
AcDbPolyline
 90
        4
 70
     1
 43
0.0
 10
0.5975518120659722
 20
0.0002583821614583
 10
-1.075042046440972
 20
0.5228793674045138
 10
-1.075731065538194
 20
0.1427130805121528
 10
0.9000311957465277
 20
-0.4687913682725694
  0
LINE
  5
203
330
200
100
AcDbEntity
  8
TIE_PLATE
 62
     7
100
AcDbLine
 10
0.4597479926215277
 20
0.0433220757378472
 30
0.0
 11
1.137742784288194
 21
-0.1683790418836806
 31
0.0
  0
ENDBLK
  5
20A
330
200
100
AcDbEntity
  8
0
100
AcDbBlockEnd
  0
BLOCK
  5
20D
330
20B
100
AcDbEntity
  8
0
 62
     7
100
AcDbBlockBegin
  2
AI9-BLK54
 70
     0
 10
0.0
 20
0.0
 30
0.0
  3
AI9-BLK54
  1

  4

  0
LWPOLYLINE
  5
20F
330
20B
100
AcDbEntity
  8
TIE_PLATE
 62
     7
100
AcDbPolyline
 90
        4
 70
     1
 43
0.0
 10
0.5679239908854166
 20
0.0051676432291667
 10
-1.028533257378472
 20
0.50384521484375
 10
-1.028533257378472
 20
0.1324639214409722
 10
0.8569675021701388
 20
-0.45113525390625
  0
LINE
  5
20E
330
20B
100
AcDbEntity
  8
TIE_PLATE
 62
     7
100
AcDbLine
 10
1.083310275607639
 20
-0.1560628255208333
 30
0.0
 11
0.4359768337673611
 21
0.0461642795138889
 31
0.0
  0
ENDBLK
  5
215
330
20B
100
AcDbEntity
  8
0
100
AcDbBlockEnd
  0
BLOCK
  5
218
330
216
100
AcDbEntity
  8
0
 62
     7
100
AcDbBlockBegin
  2
AI9-BLK55
 70
     0
 10
0.0
 20
0.0
 30
0.0
  3
AI9-BLK55
  1

  4

  0
LWPOLYLINE
  5
21A
330
216
100
AcDbEntity
  8
TIE_PLATE
 62
     7
100
AcDbPolyline
 90
        4
 70
     1
 43
0.0
 10
0.5739529079861111
 20
0.0058566623263889
 10
-1.083827039930555
 20
0.5453586154513889
 10
-1.084516059027778
 20
0.1510674370659722
 10
0.8991699218749999
 20
-0.4862752278645833
  0
LINE
  5
219
330
216
100
AcDbEntity
  8
TIE_PLATE
 62
     7
100
AcDbLine
 10
0.4254692925347222
 20
0.0533989800347222
 30
0.0
 11
1.154796006944444
 21
-0.1794894748263889
 31
0.0
  0
ENDBLK
  5
220
330
216
100
AcDbEntity
  8
0
100
AcDbBlockEnd
  0
BLOCK
  5
223
330
221
100
AcDbEntity
  8
0
 62
     7
100
AcDbBlockBegin
  2
AI9-BLK56
 70
     0
 10
0.0
 20
0.0
 30
0.0
  3
AI9-BLK56
  1

  4

  0
LWPOLYLINE
  5
225
330
221
100
AcDbEntity
  8
TIE_PLATE
 62
     7
100
AcDbPolyline
 90
        4
 70
     1
 43
0.0
 10
0.6119350857204861
 20
-0.0063734266493056
 10
-1.099932861328125
 20
0.5405354817708333
 10
-1.100621880425347
 20
0.1557183159722222
 10
0.921649169921875
 20
-0.4842081705729166
  0
LINE
  5
224
330
221
100
AcDbEntity
  8
TIE_PLATE
 62
     7
100
AcDbLine
 10
1.164872911241319
 20
-0.1831068250868055
 30
0.0
 11
0.4710306803385416
 21
0.03875732421875
 31
0.0
  0
ENDBLK
  5
22B
330
221
100
AcDbEntity
  8
0
100
AcDbBlockEnd
  0
BLOCK
  5
22E
330
22C
100
AcDbEntity
  8
0
 62
     7
100
AcDbBlockBegin
  2
AI9-BLK57
 70
     0
 10
0.0
 20
0.0
 30
0.0
  3
AI9-BLK57
  1

  4

  0
LWPOLYLINE
  5
230
330
22C
100
AcDbEntity
  8
TIE_PLATE
 62
     7
100
AcDbPolyline
 90
        4
 70
     1
 43
0.0
 10
0.5816182454427082
 20
-0.0012057834201389
 10
-1.051357014973958
 20
0.5205539279513889
 10
-1.051701524522569
 20
0.1448662651909722
 10
0.8772074381510416
 20
-0.4656046549479166
  0
LINE
  5
22F
330
22C
100
AcDbEntity
  8
TIE_PLATE
 62
     7
100
AcDbLine
 10
0.447259521484375
 20
0.04185791015625
 30
0.0
 11
1.109062364366319
 21
-0.1696709526909722
 31
0.0
  0
ENDBLK
  5
236
330
22C
100
AcDbEntity
  8
0
100
AcDbBlockEnd
  0
BLOCK
  5
239
330
237
100
AcDbEntity
  8
0
 62
     7
100
AcDbBlockBegin
  2
AI9-BLK58
 70
     0
 10
0.0
 20
0.0
 30
0.0
  3
AI9-BLK58
  1

  4

  0
LWPOLYLINE
  5
23B
330
237
100
AcDbEntity
  8
TIE_PLATE
 62
     7
100
AcDbPolyline
 90
        4
 70
     1
 43
0.0
 10
0.5533684624565972
 20
0.0032728407118056
 10
-1.006226264105903
 20
0.5016059027777777
 10
-1.006226264105903
 20
0.1343587239583333
 10
0.8358662923177083
 20
-0.4483791775173611
  0
LINE
  5
23A
330
237
100
AcDbEntity
  8
TIE_PLATE
 62
     7
100
AcDbLine
 10
1.057385932074653
 20
-0.1574408637152778
 30
0.0
 11
0.4248664008246527
 21
0.0446139865451389
 31
0.0
  0
ENDBLK
  5
241
330
237
100
AcDbEntity
  8
0
100
AcDbBlockEnd
  0
BLOCK
  5
244
330
242
100
AcDbEntity
  8
0
 62
     7
100
AcDbBlockBegin
  2
AI9-BLK59
 70
     0
 10
0.0
 20
0.0
 30
0.0
  3
AI9-BLK59
  1

  4

  0
LWPOLYLINE
  5
246
330
242
100
AcDbEntity
  8
TIE_PLATE
 62
     7
100
AcDbPolyline
 90
        4
 70
     1
 43
0.0
 10
-0.1856906467013889
 20
0.2636359320746528
 10
-0.3231499565972222
 20
0.296881103515625
 10
-0.3238389756944444
 20
-0.1022332085503472
 10
0.1471055772569444
 20
-0.237969970703125
  0
LINE
  5
245
330
242
100
AcDbEntity
  8
TIE_PLATE
 62
     7
100
AcDbLine
 10
-0.3372748480902778
 20
0.3130730523003472
 30
0.0
 11
0.4089328342013889
 21
0.0696770562065972
 31
0.0
  0
ENDBLK
  5
24C
330
242
100
AcDbEntity
  8
0
100
AcDbBlockEnd
  0
BLOCK
  5
24F
330
24D
100
AcDbEntity
  8
0
 62
     7
100
AcDbBlockBegin
  2
AI9-BLK60
 70
     0
 10
0.0
 20
0.0
 30
0.0
  3
AI9-BLK60
  1

  4

  0
LWPOLYLINE
  5
251
330
24D
100
AcDbEntity
  8
TIE_PLATE
 62
     7
100
AcDbPolyline
 90
        4
 70
     1
 43
0.0
 10
0.6281270345052082
 20
-0.0136942545572917
 10
-1.128182644314236
 20
0.5597418891059027
 10
-1.128871663411458
 20
0.1701015896267361
 10
0.9461093478732638
 20
-0.5010030110677083
  0
LINE
  5
250
330
24D
100
AcDbEntity
  8
TIE_PLATE
 62
     7
100
AcDbLine
 10
1.195189751519097
 20
-0.1988681369357639
 30
0.0
 11
0.4834330240885416
 21
0.0335035536024306
 31
0.0
  0
ENDBLK
  5
257
330
24D
100
AcDbEntity
  8
0
100
AcDbBlockEnd
  0
BLOCK
  5
25A
330
258
100
AcDbEntity
  8
0
 62
     7
100
AcDbBlockBegin
  2
AI9-BLK61
 70
     0
 10
0.0
 20
0.0
 30
0.0
  3
AI9-BLK61
  1

  4

  0
LWPOLYLINE
  5
25C
330
258
100
AcDbEntity
  8
TIE_PLATE
 62
     7
100
AcDbPolyline
 90
        4
 70
     1
 43
0.0
 10
0.5962599012586805
 20
-0.0078375922309028
 10
-1.075989447699653
 20
0.5380377875434027
 10
-1.076333957248264
 20
0.1578715006510417
 10
0.8987392849392361
 20
-0.4810214572482638
  0
LINE
  5
25B
330
258
100
AcDbEntity
  8
TIE_PLATE
 62
     7
100
AcDbLine
 10
1.136106363932292
 20
-0.1842264811197917
 30
0.0
 11
0.4584560818142361
 21
0.0371209038628472
 31
0.0
  0
ENDBLK
  5
262
330
258
100
AcDbEntity
  8
0
100
AcDbBlockEnd
  0
BLOCK
  5
265
330
263
100
AcDbEntity
  8
0
 62
     7
100
AcDbBlockBegin
  2
AI9-BLK62
 70
     0
 10
0.0
 20
0.0
 30
0.0
  3
AI9-BLK62
  1

  4

  0
LWPOLYLINE
  5
267
330
263
100
AcDbEntity
  8
TIE_PLATE
 62
     7
100
AcDbPolyline
 90
        4
 70
     1
 43
0.0
 10
0.5668904622395833
 20
-0.0025838216145833
 10
-1.029222276475694
 20
0.5183146158854166
 10
-1.029222276475694
 20
0.1469333224826389
 10
0.8559339735243055
 20
-0.4628485785590277
  0
LINE
  5
266
330
263
100
AcDbEntity
  8
TIE_PLATE
 62
     7
100
AcDbLine
 10
0.4349433051215277
 20
0.0403076171875
 30
0.0
 11
1.082276746961806
 21
-0.1708767361111111
 31
0.0
  0
ENDBLK
  5
26D
330
263
100
AcDbEntity
  8
0
100
AcDbBlockEnd
  0
BLOCK
  5
270
330
26E
100
AcDbEntity
  8
0
 62
     7
100
AcDbBlockBegin
  2
AI9-BLK63
 70
     0
 10
0.0
 20
0.0
 30
0.0
  3
AI9-BLK63
  1

  4

  0
LWPOLYLINE
  5
272
330
26E
100
AcDbEntity
  8
TIE_PLATE
 62
     7
100
AcDbPolyline
 90
        4
 70
     1
 43
0.0
 10
0.57515869140625
 20
0.0128329806857639
 10
-1.081932237413194
 20
0.541827392578125
 10
-1.082621256510417
 20
0.1475362141927083
 10
0.9003757052951388
 20
-0.4837775336371528
  0
LINE
  5
271
330
26E
100
AcDbEntity
  8
TIE_PLATE
 62
     7
100
AcDbLine
 10
0.4270195855034722
 20
0.0622701009114583
 30
0.0
 11
1.156001790364583
 21
-0.180609130859375
 31
0.0
  0
ENDBLK
  5
278
330
26E
100
AcDbEntity
  8
0
100
AcDbBlockEnd
  0
BLOCK
  5
27B
330
279
100
AcDbEntity
  8
0
 62
     7
100
AcDbBlockBegin
  2
AI9-BLK64
 70
     0
 10
0.0
 20
0.0
 30
0.0
  3
AI9-BLK64
  1

  4

  0
LWPOLYLINE
  5
27D
330
279
100
AcDbEntity
  8
TIE_PLATE
 62
     7
100
AcDbPolyline
 90
        4
 70
     1
 43
0.0
 10
0.6109876844618055
 20
-0.0149000379774306
 10
-1.100880262586806
 20
0.5559522840711805
 10
-1.101224772135417
 20
0.171307373046875
 10
0.9203572591145832
 20
-0.4966966417100694
  0
LINE
  5
27C
330
279
100
AcDbEntity
  8
TIE_PLATE
 62
     7
100
AcDbLine
 10
0.4697387695312499
 20
0.0322977701822917
 30
0.0
 11
1.163581000434028
 21
-0.1990403917100694
 31
0.0
  0
ENDBLK
  5
283
330
279
100
AcDbEntity
  8
0
100
AcDbBlockEnd
  0
BLOCK
  5
286
330
284
100
AcDbEntity
  8
0
 62
     7
100
AcDbBlockBegin
  2
AI9-BLK65
 70
     0
 10
0.0
 20
0.0
 30
0.0
  3
AI9-BLK65
  1

  4

  0
LWPOLYLINE
  5
288
330
284
100
AcDbEntity
  8
TIE_PLATE
 62
     7
100
AcDbPolyline
 90
        4
 70
     1
 43
0.0
 10
0.580584716796875
 20
-0.0090433756510417
 10
-1.05204603407118
 20
0.5354539659288194
 10
-1.052390543619792
 20
0.1597663031684028
 10
0.8761739095052082
 20
-0.4775763617621527
  0
LINE
  5
287
330
284
100
AcDbEntity
  8
TIE_PLATE
 62
     7
100
AcDbLine
 10
1.108028835720486
 20
-0.1847432454427083
 30
0.0
 11
0.4462259928385416
 21
0.0359151204427083
 31
0.0
  0
ENDBLK
  5
28E
330
284
100
AcDbEntity
  8
0
100
AcDbBlockEnd
  0
BLOCK
  5
291
330
28F
100
AcDbEntity
  8
0
 62
     7
100
AcDbBlockBegin
  2
AI9-BLK66
 70
     0
 10
0.0
 20
0.0
 30
0.0
  3
AI9-BLK66
  1

  4

  0
LWPOLYLINE
  5
293
330
28F
100
AcDbEntity
  8
TIE_PLATE
 62
     7
100
AcDbPolyline
 90
        4
 70
     1
 43
0.0
 10
0.834832763671875
 20
-0.4597479926215277
 10
-1.006915283203125
 20
0.1486558702256944
 10
-1.006915283203125
 20
0.5159030490451388
 10
0.5523349338107638
 20
-0.0039618598090278
  0
LINE
  5
292
330
28F
100
AcDbEntity
  8
TIE_PLATE
 62
     7
100
AcDbLine
 10
1.056007893880208
 20
-0.1719102647569444
 30
0.0
 11
0.4238328721788194
 21
0.03875732421875
 31
0.0
  0
ENDBLK
  5
299
330
28F
100
AcDbEntity
  8
0
100
AcDbBlockEnd
  0
BLOCK
  5
29C
330
29A
100
AcDbEntity
  8
0
 62
     7
100
AcDbBlockBegin
  2
AI9-BLK67
 70
     0
 10
0.0
 20
0.0
 30
0.0
  3
AI9-BLK67
  1

  4

  0
LWPOLYLINE
  5
29E
330
29A
100
AcDbEntity
  8
TIE_PLATE
 62
     7
100
AcDbPolyline
 90
        4
 70
     1
 43
0.0
 10
-0.1725992838541667
 20
0.2528700086805555
 10
-0.3451985677083333
 20
0.3117811414930555
 10
-0.3458875868055555
 20
-0.0869886610243056
 10
0.1598524305555555
 20
-0.2528700086805555
  0
LINE
  5
29D
330
29A
100
AcDbEntity
  8
TIE_PLATE
 62
     7
100
AcDbLine
 10
-0.3245279947916667
 20
0.3045464409722222
 30
0.0
 11
0.4213351779513889
 21
0.0508151584201389
 31
0.0
  0
ENDBLK
  5
2A4
330
29A
100
AcDbEntity
  8
0
100
AcDbBlockEnd
  0
BLOCK
  5
2A7
330
2A5
100
AcDbEntity
  8
0
 62
     7
100
AcDbBlockBegin
  2
AI9-BLK68
 70
     0
 10
0.0
 20
0.0
 30
0.0
  3
AI9-BLK68
  1

  4

  0
LWPOLYLINE
  5
2A9
330
2A5
100
AcDbEntity
  8
TIE_PLATE
 62
     7
100
AcDbPolyline
 90
        4
 70
     1
 43
0.0
 10
0.6272657606336805
 20
-0.022479248046875
 10
-1.128699408637153
 20
0.5755893283420138
 10
-1.129388427734375
 20
0.1861212836371528
 10
0.944903564453125
 20
-0.5137498643663194
  0
LINE
  5
2A8
330
2A5
100
AcDbEntity
  8
TIE_PLATE
 62
     7
100
AcDbLine
 10
1.193983968098958
 20
-0.2154045952690972
 30
0.0
 11
0.4825717502170138
 21
0.0267856174045139
 31
0.0
  0
ENDBLK
  5
2AF
330
2A5
100
AcDbEntity
  8
0
100
AcDbBlockEnd
  0
BLOCK
  5
2B2
330
2B0
100
AcDbEntity
  8
0
 62
     7
100
AcDbBlockBegin
  2
AI9-BLK69
 70
     0
 10
0.0
 20
0.0
 30
0.0
  3
AI9-BLK69
  1

  4

  0
LWPOLYLINE
  5
2B4
330
2B0
100
AcDbEntity
  8
TIE_PLATE
 62
     7
100
AcDbPolyline
 90
        4
 70
     1
 43
0.0
 10
0.5952263726128472
 20
-0.0159335666232639
 10
-1.076678466796875
 20
0.5531962076822916
 10
-1.077022976345486
 20
0.1732021755642361
 10
0.8977057562934027
 20
-0.4930792914496527
  0
LINE
  5
2B3
330
2B0
100
AcDbEntity
  8
TIE_PLATE
 62
     7
100
AcDbLine
 10
0.4574225531684028
 20
0.0309197319878472
 30
0.0
 11
1.135072835286458
 21
-0.1999016655815972
 31
0.0
  0
ENDBLK
  5
2BA
330
2B0
100
AcDbEntity
  8
0
100
AcDbBlockEnd
  0
BLOCK
  5
2BD
330
2BB
100
AcDbEntity
  8
0
 62
     7
100
AcDbBlockBegin
  2
AI9-BLK70
 70
     0
 10
0.0
 20
0.0
 30
0.0
  3
AI9-BLK70
  1

  4

  0
LWPOLYLINE
  5
2BF
330
2BB
100
AcDbEntity
  8
TIE_PLATE
 62
     7
100
AcDbPolyline
 90
        4
 70
     1
 43
0.0
 10
0.5661153157552082
 20
-0.0102491590711806
 10
-1.029308403862847
 20
0.5328701443142361
 10
-1.029652913411458
 20
0.1618333604600694
 10
0.8548143174913194
 20
-0.4741312662760416
  0
LINE
  5
2BE
330
2BB
100
AcDbEntity
  8
TIE_PLATE
 62
     7
100
AcDbLine
 10
1.081501600477431
 20
-0.1857767740885417
 30
0.0
 11
0.4341681586371528
 21
0.0345370822482639
 31
0.0
  0
ENDBLK
  5
2C5
330
2BB
100
AcDbEntity
  8
0
100
AcDbBlockEnd
  0
BLOCK
  5
2C8
330
2C6
100
AcDbEntity
  8
0
 62
     7
100
AcDbBlockBegin
  2
AI9-BLK71
 70
     0
 10
0.0
 20
0.0
 30
0.0
  3
AI9-BLK71
  1

  4

  0
LWPOLYLINE
  5
2CA
330
2C6
100
AcDbEntity
  8
TIE_PLATE
 62
     7
100
AcDbPolyline
 90
        4
 70
     1
 43
0.0
 10
-0.2387451171875
 20
-0.0080959743923611
 10
-1.20302734375
 20
0.3967027452256944
 10
-1.204060872395833
 20
-0.0068901909722222
 10
-0.8426703559027777
 20
-0.0792371961805556
  0
LINE
  5
2C9
330
2C6
100
AcDbEntity
  8
TIE_PLATE
 62
     7
100
AcDbLine
 10
1.293288845486111
 20
-0.4706000434027777
 30
0.0
 11
0.5291666666666666
 21
-0.2049831814236111
 31
0.0
  0
ENDBLK
  5
2D0
330
2C6
100
AcDbEntity
  8
0
100
AcDbBlockEnd
  0
BLOCK
  5
2D3
330
2D1
100
AcDbEntity
  8
0
 62
     7
100
AcDbBlockBegin
  2
AI9-BLK72
 70
     0
 10
0.0
 20
0.0
 30
0.0
  3
AI9-BLK72
  1

  4

  0
LWPOLYLINE
  5
2D5
330
2D1
100
AcDbEntity
  8
TIE_PLATE
 62
     7
100
AcDbPolyline
 90
        4
 70
     1
 43
0.0
 10
0.6433715820312499
 20
-0.0298862033420139
 10
-1.155657280815972
 20
0.5950541178385416
 10
-1.156346299913194
 20
0.2011074490017361
 10
0.9685885959201388
 20
-0.5308030870225694
  0
LINE
  5
2D4
330
2D1
100
AcDbEntity
  8
TIE_PLATE
 62
     7
100
AcDbLine
 10
0.4952324761284722
 20
0.0216179741753472
 30
0.0
 11
1.223870171440972
 21
-0.2314242892795139
 31
0.0
  0
ENDBLK
  5
2DB
330
2D1
100
AcDbEntity
  8
0
100
AcDbBlockEnd
  0
BLOCK
  5
2DE
330
2DC
100
AcDbEntity
  8
0
 62
     7
100
AcDbBlockBegin
  2
AI9-BLK73
 70
     0
 10
0.0
 20
0.0
 30
0.0
  3
AI9-BLK73
  1

  4

  0
LWPOLYLINE
  5
2E0
330
2DC
100
AcDbEntity
  8
TIE_PLATE
 62
     7
100
AcDbPolyline
 90
        4
 70
     1
 43
0.0
 10
0.6096957736545139
 20
-0.0231682671440972
 10
-1.101483154296875
 20
0.5714552137586805
 10
-1.101827663845486
 20
0.1871548122829861
 10
0.9190653483072916
 20
-0.5090989854600694
  0
LINE
  5
2DF
330
2DC
100
AcDbEntity
  8
TIE_PLATE
 62
     7
100
AcDbLine
 10
0.4687913682725694
 20
0.0259243435329861
 30
0.0
 11
1.162289089626736
 21
-0.2150600857204861
 31
0.0
  0
ENDBLK
  5
2E6
330
2DC
100
AcDbEntity
  8
0
100
AcDbBlockEnd
  0
BLOCK
  5
2E9
330
2E7
100
AcDbEntity
  8
0
 62
     7
100
AcDbBlockBegin
  2
AI9-BLK74
 70
     0
 10
0.0
 20
0.0
 30
0.0
  3
AI9-BLK74
  1

  4

  0
LWPOLYLINE
  5
2EB
330
2E7
100
AcDbEntity
  8
TIE_PLATE
 62
     7
100
AcDbPolyline
 90
        4
 70
     1
 43
0.0
 10
0.5792928059895833
 20
-0.0169670952690972
 10
-1.05264892578125
 20
0.5502678765190971
 10
-1.052993435329861
 20
0.1749247233072916
 10
0.8748819986979166
 20
-0.4892896864149305
  0
LINE
  5
2EA
330
2E7
100
AcDbEntity
  8
TIE_PLATE
 62
     7
100
AcDbLine
 10
0.44493408203125
 20
0.0298862033420139
 30
0.0
 11
1.106392415364583
 21
-0.2000739203559028
 31
0.0
  0
ENDBLK
  5
2F1
330
2E7
100
AcDbEntity
  8
0
100
AcDbBlockEnd
  0
BLOCK
  5
2F4
330
2F2
100
AcDbEntity
  8
0
 62
     7
100
AcDbBlockBegin
  2
AI9-BLK75
 70
     0
 10
0.0
 20
0.0
 30
0.0
  3
AI9-BLK75
  1

  4

  0
LWPOLYLINE
  5
2F6
330
2F2
100
AcDbEntity
  8
TIE_PLATE
 62
     7
100
AcDbPolyline
 90
        4
 70
     1
 43
0.0
 10
0.5512152777777777
 20
-0.0113688151041667
 10
-1.0076904296875
 20
0.5302001953125
 10
-1.0076904296875
 20
0.1634697808159722
 10
0.8337131076388888
 20
-0.4707722981770833
  0
LINE
  5
2F5
330
2F2
100
AcDbEntity
  8
TIE_PLATE
 62
     7
100
AcDbLine
 10
1.054888237847222
 20
-0.1862074110243056
 30
0.0
 11
0.4227132161458333
 21
0.0332451714409722
 31
0.0
  0
ENDBLK
  5
2FC
330
2F2
100
AcDbEntity
  8
0
100
AcDbBlockEnd
  0
BLOCK
  5
2FF
330
2FD
100
AcDbEntity
  8
0
 62
     7
100
AcDbBlockBegin
  2
AI9-BLK76
 70
     0
 10
0.0
 20
0.0
 30
0.0
  3
AI9-BLK76
  1

  4

  0
LWPOLYLINE
  5
301
330
2FD
100
AcDbEntity
  8
TIE_PLATE
 62
     7
100
AcDbPolyline
 90
        4
 70
     1
 43
0.0
 10
0.6595635308159722
 20
-0.0378099229600694
 10
-1.181840006510417
 20
0.6148634168836805
 10
-1.18287353515625
 20
0.216265869140625
 10
0.9920152452256944
 20
-0.548028564453125
  0
LINE
  5
300
330
2FD
100
AcDbEntity
  8
TIE_PLATE
 62
     7
100
AcDbLine
 10
1.253497992621528
 20
-0.2481330023871528
 30
0.0
 11
0.5076348198784721
 21
0.0159335666232639
 31
0.0
  0
ENDBLK
  5
307
330
2FD
100
AcDbEntity
  8
0
100
AcDbBlockEnd
  0
BLOCK
  5
30A
330
308
100
AcDbEntity
  8
0
 62
     7
100
AcDbBlockBegin
  2
AI9-BLK77
 70
     0
 10
0.0
 20
0.0
 30
0.0
  3
AI9-BLK77
  1

  4

  0
LWPOLYLINE
  5
30C
330
308
100
AcDbEntity
  8
TIE_PLATE
 62
     7
100
AcDbPolyline
 90
        4
 70
     1
 43
0.0
 10
0.6260599772135416
 20
-0.0306613498263889
 10
-1.129216172960069
 20
0.5915228949652778
 10
-1.129905192057292
 20
0.2023993598090278
 10
0.9436977810329861
 20
-0.5264105902777777
  0
LINE
  5
30B
330
308
100
AcDbEntity
  8
TIE_PLATE
 62
     7
100
AcDbLine
 10
0.4813659667968749
 20
0.0204983181423611
 30
0.0
 11
1.192778184678819
 21
-0.2316826714409722
 31
0.0
  0
ENDBLK
  5
312
330
308
100
AcDbEntity
  8
0
100
AcDbBlockEnd
  0
BLOCK
  5
315
330
313
100
AcDbEntity
  8
0
 62
     7
100
AcDbBlockBegin
  2
AI9-BLK78
 70
     0
 10
0.0
 20
0.0
 30
0.0
  3
AI9-BLK78
  1

  4

  0
LWPOLYLINE
  5
317
330
313
100
AcDbEntity
  8
TIE_PLATE
 62
     7
100
AcDbPolyline
 90
        4
 70
     1
 43
0.0
 10
0.5937622070312499
 20
-0.024029541015625
 10
-1.07745361328125
 20
0.5683546278211805
 10
-1.077798122829861
 20
0.1887051052517361
 10
0.8962415907118054
 20
-0.5051371256510416
  0
LINE
  5
316
330
313
100
AcDbEntity
  8
TIE_PLATE
 62
     7
100
AcDbLine
 10
0.4559583875868055
 20
0.0247185601128472
 30
0.0
 11
1.133608669704861
 21
-0.2154045952690972
 31
0.0
  0
ENDBLK
  5
31D
330
313
100
AcDbEntity
  8
0
100
AcDbBlockEnd
  0
BLOCK
  5
320
330
31E
100
AcDbEntity
  8
0
 62
     7
100
AcDbBlockBegin
  2
AI9-BLK79
 70
     0
 10
0.0
 20
0.0
 30
0.0
  3
AI9-BLK79
  1

  4

  0
LWPOLYLINE
  5
322
330
31E
100
AcDbEntity
  8
TIE_PLATE
 62
     7
100
AcDbPolyline
 90
        4
 70
     1
 43
0.0
 10
0.565081787109375
 20
-0.0180006239149306
 10
-1.029997422960069
 20
0.5473395453559027
 10
-1.03034193250868
 20
0.1764750162760417
 10
0.853780788845486
 20
-0.4856723361545138
  0
LINE
  5
321
330
31E
100
AcDbEntity
  8
TIE_PLATE
 62
     7
100
AcDbLine
 10
1.080123562282986
 20
-0.2005906846788194
 30
0.0
 11
0.4331346299913194
 21
0.028680419921875
 31
0.0
  0
ENDBLK
  5
328
330
31E
100
AcDbEntity
  8
0
100
AcDbBlockEnd
  0
BLOCK
  5
32B
330
329
100
AcDbEntity
  8
0
 62
     7
100
AcDbBlockBegin
  2
AI9-BLK80
 70
     0
 10
0.0
 20
0.0
 30
0.0
  3
AI9-BLK80
  1

  4

  0
LWPOLYLINE
  5
32D
330
329
100
AcDbEntity
  8
TIE_PLATE
 62
     7
100
AcDbPolyline
 90
        4
 70
     1
 43
0.0
 10
0.6764444986979166
 20
-0.0460781521267361
 10
-1.210434299045139
 20
0.6358784993489582
 10
-1.211467827690972
 20
0.2322855631510417
 10
1.017164442274305
 20
-0.5664598253038194
  0
LINE
  5
32C
330
329
100
AcDbEntity
  8
TIE_PLATE
 62
     7
100
AcDbLine
 10
1.28519287109375
 20
-0.2660474989149305
 30
0.0
 11
0.5210706922743055
 21
0.010076904296875
 31
0.0
  0
ENDBLK
  5
333
330
329
100
AcDbEntity
  8
0
100
AcDbBlockEnd
  0
BLOCK
  5
336
330
334
100
AcDbEntity
  8
0
 62
     7
100
AcDbBlockBegin
  2
AI9-BLK81
 70
     0
 10
0.0
 20
0.0
 30
0.0
  3
AI9-BLK81
  1

  4

  0
LWPOLYLINE
  5
338
330
334
100
AcDbEntity
  8
TIE_PLATE
 62
     7
100
AcDbPolyline
 90
        4
 70
     1
 43
0.0
 10
0.6424241807725694
 20
-0.0386711968315972
 10
-1.155915662977431
 20
0.6114183213975694
 10
-1.156604682074653
 20
0.2172993977864583
 10
0.9672966851128472
 20
-0.5440667046440971
  0
LINE
  5
337
330
334
100
AcDbEntity
  8
TIE_PLATE
 62
     7
100
AcDbLine
 10
1.222922770182292
 20
-0.2483052571614583
 30
0.0
 11
0.4942850748697916
 21
0.0150722927517361
 31
0.0
  0
ENDBLK
  5
33E
330
334
100
AcDbEntity
  8
0
100
AcDbBlockEnd
  0
BLOCK
  5
341
330
33F
100
AcDbEntity
  8
0
 62
     7
100
AcDbBlockBegin
  2
AI9-BLK82
 70
     0
 10
0.0
 20
0.0
 30
0.0
  3
AI9-BLK82
  1

  4

  0
LWPOLYLINE
  5
343
330
33F
100
AcDbEntity
  8
TIE_PLATE
 62
     7
100
AcDbPolyline
 90
        4
 70
     1
 43
0.0
 10
0.6088344997829861
 20
-0.031005859375
 10
-1.101655409071181
 20
0.5872165256076388
 10
-1.102344428168403
 20
0.2029161241319444
 10
0.9182040744357638
 20
-0.5214152018229167
  0
LINE
  5
342
330
33F
100
AcDbEntity
  8
TIE_PLATE
 62
     7
100
AcDbLine
 10
0.4679300944010416
 20
0.0198092990451389
 30
0.0
 11
1.161427815755208
 21
-0.2308213975694444
 31
0.0
  0
ENDBLK
  5
349
330
33F
100
AcDbEntity
  8
0
100
AcDbBlockEnd
  0
BLOCK
  5
34C
330
34A
100
AcDbEntity
  8
0
 62
     7
100
AcDbBlockBegin
  2
AI9-BLK83
 70
     0
 10
0.0
 20
0.0
 30
0.0
  3
AI9-BLK83
  1

  4

  0
LWPOLYLINE
  5
34E
330
34A
100
AcDbEntity
  8
TIE_PLATE
 62
     7
100
AcDbPolyline
 90
        4
 70
     1
 43
0.0
 10
0.5781731499565972
 20
-0.0247185601128472
 10
-1.053424072265625
 20
0.5652540418836806
 10
-1.053768581814236
 20
0.189910888671875
 10
0.8737623426649305
 20
-0.5011752658420139
  0
LINE
  5
34D
330
34A
100
AcDbEntity
  8
TIE_PLATE
 62
     7
100
AcDbLine
 10
1.105272759331597
 20
-0.2150600857204861
 30
0.0
 11
0.4438144259982639
 21
0.0242017957899306
 31
0.0
  0
ENDBLK
  5
354
330
34A
100
AcDbEntity
  8
0
100
AcDbBlockEnd
  0
BLOCK
  5
357
330
355
100
AcDbEntity
  8
0
 62
     7
100
AcDbBlockBegin
  2
AI9-BLK84
 70
     0
 10
0.0
 20
0.0
 30
0.0
  3
AI9-BLK84
  1

  4

  0
LWPOLYLINE
  5
359
330
355
100
AcDbEntity
  8
TIE_PLATE
 62
     7
100
AcDbPolyline
 90
        4
 70
     1
 43
0.0
 10
0.5505262586805555
 20
-0.0187757703993056
 10
-1.008034939236111
 20
0.5444973415798611
 10
-1.008034939236111
 20
0.1777669270833333
 10
0.8326795789930555
 20
-0.48214111328125
  0
LINE
  5
358
330
355
100
AcDbEntity
  8
TIE_PLATE
 62
     7
100
AcDbLine
 10
1.053854709201389
 20
-0.2005045572916666
 30
0.0
 11
0.4220241970486111
 21
0.0279052734375
 31
0.0
  0
ENDBLK
  5
35F
330
355
100
AcDbEntity
  8
0
100
AcDbBlockEnd
  0
BLOCK
  5
362
330
360
100
AcDbEntity
  8
0
 62
     7
100
AcDbBlockBegin
  2
AI9-BLK85
 70
     0
 10
0.0
 20
0.0
 30
0.0
  3
AI9-BLK85
  1

  4

  0
LWPOLYLINE
  5
364
330
360
100
AcDbEntity
  8
TIE_PLATE
 62
     7
100
AcDbPolyline
 90
        4
 70
     1
 43
0.0
 10
0.6586161295572917
 20
-0.0466810438368056
 10
-1.182442898220486
 20
0.6313137478298611
 10
-1.183131917317708
 20
0.2330607096354166
 10
0.9907233344184027
 20
-0.5613783094618056
  0
LINE
  5
363
330
360
100
AcDbEntity
  8
TIE_PLATE
 62
     7
100
AcDbLine
 10
1.252206081814236
 20
-0.2654446072048611
 30
0.0
 11
0.5066874186197916
 21
0.0091295030381944
 31
0.0
  0
ENDBLK
  5
36A
330
360
100
AcDbEntity
  8
0
100
AcDbBlockEnd
  0
BLOCK
  5
36D
330
36B
100
AcDbEntity
  8
0
 62
     7
100
AcDbBlockBegin
  2
AI9-BLK86
 70
     0
 10
0.0
 20
0.0
 30
0.0
  3
AI9-BLK86
  1

  4

  0
LWPOLYLINE
  5
36F
330
36B
100
AcDbEntity
  8
TIE_PLATE
 62
     7
100
AcDbPolyline
 90
        4
 70
     1
 43
0.0
 10
0.6248541937934027
 20
-0.0391879611545139
 10
-1.130077446831597
 20
0.6074564615885416
 10
-1.130766465928819
 20
0.2186774359809028
 10
0.9424919976128472
 20
-0.5390713161892361
  0
LINE
  5
36E
330
36B
100
AcDbEntity
  8
TIE_PLATE
 62
     7
100
AcDbLine
 10
0.4801601833767361
 20
0.0140387641059028
 30
0.0
 11
1.191227891710069
 21
-0.2479607476128472
 31
0.0
  0
ENDBLK
  5
375
330
36B
100
AcDbEntity
  8
0
100
AcDbBlockEnd
  0
BLOCK
  5
378
330
376
100
AcDbEntity
  8
0
 62
     7
100
AcDbBlockBegin
  2
AI9-BLK87
 70
     0
 10
0.0
 20
0.0
 30
0.0
  3
AI9-BLK87
  1

  4

  0
LWPOLYLINE
  5
37A
330
376
100
AcDbEntity
  8
TIE_PLATE
 62
     7
100
AcDbPolyline
 90
        4
 70
     1
 43
0.0
 10
0.5926425509982638
 20
-0.0320393880208333
 10
-1.078228759765625
 20
0.5835991753472222
 10
-1.078573269314236
 20
0.2041219075520833
 10
0.8951219346788194
 20
-0.5171088324652777
  0
LINE
  5
379
330
376
100
AcDbEntity
  8
TIE_PLATE
 62
     7
100
AcDbLine
 10
0.4551832411024305
 20
0.0187757703993056
 30
0.0
 11
1.132144504123264
 21
-0.2308213975694444
 31
0.0
  0
ENDBLK
  5
380
330
376
100
AcDbEntity
  8
0
100
AcDbBlockEnd
  0
BLOCK
  5
383
330
381
100
AcDbEntity
  8
0
 62
     7
100
AcDbBlockBegin
  2
AI9-BLK88
 70
     0
 10
0.0
 20
0.0
 30
0.0
  3
AI9-BLK88
  1

  4

  0
LWPOLYLINE
  5
385
330
381
100
AcDbEntity
  8
TIE_PLATE
 62
     7
100
AcDbPolyline
 90
        4
 70
     1
 43
0.0
 10
0.5638760036892361
 20
-0.0254937065972222
 10
-1.030858696831597
 20
0.5618950737847221
 10
-1.031203206380208
 20
0.1912027994791667
 10
0.8525750054253471
 20
-0.4971272786458333
  0
LINE
  5
384
330
381
100
AcDbEntity
  8
TIE_PLATE
 62
     7
100
AcDbLine
 10
1.078917778862847
 20
-0.2153184678819444
 30
0.0
 11
0.4319288465711805
 21
0.0229098849826389
 31
0.0
  0
ENDBLK
  5
38B
330
381
100
AcDbEntity
  8
0
100
AcDbBlockEnd
  0
BLOCK
  5
38E
330
38C
100
AcDbEntity
  8
0
 62
     7
100
AcDbBlockBegin
  2
AI9-BLK89
 70
     0
 10
0.0
 20
0.0
 30
0.0
  3
AI9-BLK89
  1

  4

  0
LWPOLYLINE
  5
390
330
38C
100
AcDbEntity
  8
TIE_PLATE
 62
     7
100
AcDbPolyline
 90
        4
 70
     1
 43
0.0
 10
0.675497097439236
 20
-0.0551215277777778
 10
-1.211037190755208
 20
0.6528455946180555
 10
-1.212070719401042
 20
0.2497694227430555
 10
1.015872531467014
 20
-0.5799818250868055
  0
LINE
  5
38F
330
38C
100
AcDbEntity
  8
TIE_PLATE
 62
     7
100
AcDbLine
 10
1.283900960286458
 20
-0.28370361328125
 30
0.0
 11
0.5201232910156249
 21
0.0031005859375
 31
0.0
  0
ENDBLK
  5
396
330
38C
100
AcDbEntity
  8
0
100
AcDbBlockEnd
  0
BLOCK
  5
399
330
397
100
AcDbEntity
  8
0
 62
     7
100
AcDbBlockBegin
  2
AI9-BLK90
 70
     0
 10
0.0
 20
0.0
 30
0.0
  3
AI9-BLK90
  1

  4

  0
LWPOLYLINE
  5
39B
330
397
100
AcDbEntity
  8
TIE_PLATE
 62
     7
100
AcDbPolyline
 90
        4
 70
     1
 43
0.0
 10
0.6412183973524305
 20
-0.0471978081597222
 10
-1.156776936848958
 20
0.6276963975694444
 10
-1.15746595594618
 20
0.23409423828125
 10
0.9660909016927083
 20
-0.5567274305555555
  0
LINE
  5
39A
330
397
100
AcDbEntity
  8
TIE_PLATE
 62
     7
100
AcDbLine
 10
0.4930792914496527
 20
0.0082682291666667
 30
0.0
 11
1.221372477213542
 21
-0.2649278428819444
 31
0.0
  0
ENDBLK
  5
3A1
330
397
100
AcDbEntity
  8
0
100
AcDbBlockEnd
  0
BLOCK
  5
3A4
330
3A2
100
AcDbEntity
  8
0
 62
     7
100
AcDbBlockBegin
  2
AI9-BLK91
 70
     0
 10
0.0
 20
0.0
 30
0.0
  3
AI9-BLK91
  1

  4

  0
LWPOLYLINE
  5
3A6
330
3A2
100
AcDbEntity
  8
TIE_PLATE
 62
     7
100
AcDbPolyline
 90
        4
 70
     1
 43
0.0
 10
0.6078009711371527
 20
-0.0396185980902778
 10
-1.102688937717014
 20
0.6025472005208333
 10
-1.103033447265625
 20
0.21859130859375
 10
0.9168260362413193
 20
-0.5336452907986111
  0
LINE
  5
3A5
330
3A2
100
AcDbEntity
  8
TIE_PLATE
 62
     7
100
AcDbLine
 10
1.159705268012153
 20
-0.2468410915798611
 30
0.0
 11
0.4665520562065972
 21
0.0134358723958333
 31
0.0
  0
ENDBLK
  5
3AC
330
3A2
100
AcDbEntity
  8
0
100
AcDbBlockEnd
  0
BLOCK
  5
3AF
330
3AD
100
AcDbEntity
  8
0
 62
     7
100
AcDbBlockBegin
  2
AI9-BLK92
 70
     0
 10
0.0
 20
0.0
 30
0.0
  3
AI9-BLK92
  1

  4

  0
LWPOLYLINE
  5
3B1
330
3AD
100
AcDbEntity
  8
TIE_PLATE
 62
     7
100
AcDbPolyline
 90
        4
 70
     1
 43
0.0
 10
0.5773118760850694
 20
-0.0323838975694444
 10
-1.053940836588542
 20
0.5799818250868055
 10
-1.054285346137153
 20
0.2051554361979167
 10
0.8725565592447916
 20
-0.5126302083333333
  0
LINE
  5
3B0
330
3AD
100
AcDbEntity
  8
TIE_PLATE
 62
     7
100
AcDbLine
 10
0.4429531521267361
 20
0.0180867513020833
 30
0.0
 11
1.104411485460069
 21
-0.2301323784722222
 31
0.0
  0
ENDBLK
  5
3B7
330
3AD
100
AcDbEntity
  8
0
100
AcDbBlockEnd
  0
BLOCK
  5
3BA
330
3B8
100
AcDbEntity
  8
0
 62
     7
100
AcDbBlockBegin
  2
AI9-BLK93
 70
     0
 10
0.0
 20
0.0
 30
0.0
  3
AI9-BLK93
  1

  4

  0
LWPOLYLINE
  5
3BC
330
3B8
100
AcDbEntity
  8
TIE_PLATE
 62
     7
100
AcDbPolyline
 90
        4
 70
     1
 43
0.0
 10
0.5494066026475694
 20
-0.0262688530815972
 10
-1.008810085720486
 20
0.5585361056857638
 10
-1.008810085720486
 20
0.1921502007378472
 10
0.8315599229600694
 20
-0.4930792914496527
  0
LINE
  5
3BB
330
3B8
100
AcDbEntity
  8
TIE_PLATE
 62
     7
100
AcDbLine
 10
1.052735053168403
 20
-0.2150600857204861
 30
0.0
 11
0.420904541015625
 21
0.0219624837239583
 31
0.0
  0
ENDBLK
  5
3C2
330
3B8
100
AcDbEntity
  8
0
100
AcDbBlockEnd
  0
BLOCK
  5
3C5
330
3C3
100
AcDbEntity
  8
0
 62
     7
100
AcDbBlockBegin
  2
AI9-BLK94
 70
     0
 10
0.0
 20
0.0
 30
0.0
  3
AI9-BLK94
  1

  4

  0
LWPOLYLINE
  5
3C7
330
3C3
100
AcDbEntity
  8
TIE_PLATE
 62
     7
100
AcDbPolyline
 90
        4
 70
     1
 43
0.0
 10
0.6574103461371528
 20
-0.0555521647135417
 10
-1.182959662543403
 20
0.6481085883246527
 10
-1.183993191189236
 20
0.2498555501302083
 10
0.9895175509982638
 20
-0.574728054470486
  0
LINE
  5
3C6
330
3C3
100
AcDbEntity
  8
TIE_PLATE
 62
     7
100
AcDbLine
 10
1.251000298394097
 20
-0.2825839572482639
 30
0.0
 11
0.5058261447482638
 21
0.002325439453125
 31
0.0
  0
ENDBLK
  5
3CD
330
3C3
100
AcDbEntity
  8
0
100
AcDbBlockEnd
  0
BLOCK
  5
3D0
330
3CE
100
AcDbEntity
  8
0
 62
     7
100
AcDbBlockBegin
  2
AI9-BLK95
 70
     0
 10
0.0
 20
0.0
 30
0.0
  3
AI9-BLK95
  1

  4

  0
LWPOLYLINE
  5
3D2
330
3CE
100
AcDbEntity
  8
TIE_PLATE
 62
     7
100
AcDbPolyline
 90
        4
 70
     1
 43
0.0
 10
0.6235622829861111
 20
-0.0474561903211806
 10
-1.130680338541667
 20
0.6234761555989583
 10
-1.131369357638889
 20
0.2346971299913194
 10
0.9412000868055555
 20
-0.5516459147135416
  0
LINE
  5
3D1
330
3CE
100
AcDbEntity
  8
TIE_PLATE
 62
     7
100
AcDbLine
 10
0.4792127821180555
 20
0.0078375922309028
 30
0.0
 11
1.189935980902778
 21
-0.2641526963975694
 31
0.0
  0
ENDBLK
  5
3D8
330
3CE
100
AcDbEntity
  8
0
100
AcDbBlockEnd
  0
BLOCK
  5
3DB
330
3D9
100
AcDbEntity
  8
0
 62
     7
100
AcDbBlockBegin
  2
AI9-BLK96
 70
     0
 10
0.0
 20
0.0
 30
0.0
  3
AI9-BLK96
  1

  4

  0
LWPOLYLINE
  5
3DD
330
3D9
100
AcDbEntity
  8
TIE_PLATE
 62
     7
100
AcDbPolyline
 90
        4
 70
     1
 43
0.0
 10
0.5916090223524305
 20
-0.0397908528645833
 10
-1.078917778862847
 20
0.5989298502604166
 10
-1.079262288411458
 20
0.2196248372395833
 10
0.894088406032986
 20
-0.5289944118923611
  0
LINE
  5
3DC
330
3D9
100
AcDbEntity
  8
TIE_PLATE
 62
     7
100
AcDbLine
 10
1.13111097547743
 20
-0.2459798177083333
 30
0.0
 11
0.4541497124565972
 21
0.0127468532986111
 31
0.0
  0
ENDBLK
  5
3E3
330
3D9
100
AcDbEntity
  8
0
100
AcDbBlockEnd
  0
BLOCK
  5
3E6
330
3E4
100
AcDbEntity
  8
0
 62
     7
100
AcDbBlockBegin
  2
AI9-BLK97
 70
     0
 10
0.0
 20
0.0
 30
0.0
  3
AI9-BLK97
  1

  4

  0
LWPOLYLINE
  5
3E8
330
3E4
100
AcDbEntity
  8
TIE_PLATE
 62
     7
100
AcDbPolyline
 90
        4
 70
     1
 43
0.0
 10
0.5628424750434027
 20
-0.0330729166666667
 10
-1.031547715928819
 20
0.5765367296006944
 10
-1.031892225477431
 20
0.2058444552951389
 10
0.8515414767795139
 20
-0.5084960937499999
  0
LINE
  5
3E7
330
3E4
100
AcDbEntity
  8
TIE_PLATE
 62
     7
100
AcDbLine
 10
0.4308953179253472
 20
0.01705322265625
 30
0.0
 11
1.077884250217014
 21
-0.2301323784722222
 31
0.0
  0
ENDBLK
  5
3EE
330
3E4
100
AcDbEntity
  8
0
100
AcDbBlockEnd
  0
BLOCK
  5
3F1
330
3EF
100
AcDbEntity
  8
0
 62
     7
100
AcDbBlockBegin
  2
AI9-BLK98
 70
     0
 10
0.0
 20
0.0
 30
0.0
  3
AI9-BLK98
  1

  4

  0
LWPOLYLINE
  5
3F3
330
3EF
100
AcDbEntity
  8
TIE_PLATE
 62
     7
100
AcDbPolyline
 90
        4
 70
     1
 43
0.0
 10
0.6742051866319444
 20
-0.0642510308159722
 10
-1.211640082465278
 20
0.6698988172743055
 10
-1.212673611111111
 20
0.2668226453993056
 10
1.014580620659722
 20
-0.5935899522569444
  0
LINE
  5
3F2
330
3EF
100
AcDbEntity
  8
TIE_PLATE
 62
     7
100
AcDbLine
 10
0.5188313802083333
 20
-0.0037896050347222
 30
0.0
 11
1.282609049479167
 21
-0.3011013454861111
 31
0.0
  0
ENDBLK
  5
3F9
330
3EF
100
AcDbEntity
  8
0
100
AcDbBlockEnd
  0
BLOCK
  5
3FC
330
3FA
100
AcDbEntity
  8
0
 62
     7
100
AcDbBlockBegin
  2
AI9-BLK99
 70
     0
 10
0.0
 20
0.0
 30
0.0
  3
AI9-BLK99
  1

  4

  0
LWPOLYLINE
  5
3FE
330
3FA
100
AcDbEntity
  8
TIE_PLATE
 62
     7
100
AcDbPolyline
 90
        4
 70
     1
 43
0.0
 10
0.6404432508680555
 20
-0.055810546875
 10
-1.157207573784722
 20
0.6440606011284722
 10
-1.157896592881944
 20
0.2504584418402778
 10
0.9649712456597221
 20
-0.5698187934027778
  0
LINE
  5
3FD
330
3FA
100
AcDbEntity
  8
TIE_PLATE
 62
     7
100
AcDbLine
 10
0.4923041449652778
 20
0.0020670572916667
 30
0.0
 11
1.220252821180555
 21
-0.2814643012152778
 31
0.0
  0
ENDBLK
  5
404
330
3FA
100
AcDbEntity
  8
0
100
AcDbBlockEnd
  0
BLOCK
  5
407
330
405
100
AcDbEntity
  8
0
 62
     7
100
AcDbBlockBegin
  2
AI9-BLK100
 70
     0
 10
0.0
 20
0.0
 30
0.0
  3
AI9-BLK100
  1

  4

  0
LWPOLYLINE
  5
409
330
405
100
AcDbEntity
  8
TIE_PLATE
 62
     7
100
AcDbPolyline
 90
        4
 70
     1
 43
0.0
 10
0.6068535698784722
 20
-0.0474561903211806
 10
-1.102947319878472
 20
0.6183085123697916
 10
-1.103636338975694
 20
0.2343526204427083
 10
0.9158786349826388
 20
-0.5459615071614583
  0
LINE
  5
408
330
405
100
AcDbEntity
  8
TIE_PLATE
 62
     7
100
AcDbLine
 10
0.4659491644965277
 20
0.0074930826822917
 30
0.0
 11
1.158757866753472
 21
-0.2624301486545139
 31
0.0
  0
ENDBLK
  5
40F
330
405
100
AcDbEntity
  8
0
100
AcDbBlockEnd
  0
BLOCK
  5
412
330
410
100
AcDbEntity
  8
0
 62
     7
100
AcDbBlockBegin
  2
AI9-BLK101
 70
     0
 10
0.0
 20
0.0
 30
0.0
  3
AI9-BLK101
  1

  4

  0
LWPOLYLINE
  5
414
330
410
100
AcDbEntity
  8
TIE_PLATE
 62
     7
100
AcDbPolyline
 90
        4
 70
     1
 43
0.0
 10
0.576278347439236
 20
-0.0401353624131944
 10
-1.054629855685764
 20
0.5949679904513888
 10
-1.054974365234375
 20
0.2201416015625
 10
0.8715230305989583
 20
-0.5245157877604166
  0
LINE
  5
413
330
410
100
AcDbEntity
  8
TIE_PLATE
 62
     7
100
AcDbLine
 10
0.4419196234809028
 20
0.01240234375
 30
0.0
 11
1.103033447265625
 21
-0.2451185438368055
 31
0.0
  0
ENDBLK
  5
41A
330
410
100
AcDbEntity
  8
0
100
AcDbBlockEnd
  0
BLOCK
  5
41D
330
41B
100
AcDbEntity
  8
0
 62
     7
100
AcDbBlockBegin
  2
AI9-BLK102
 70
     0
 10
0.0
 20
0.0
 30
0.0
  3
AI9-BLK102
  1

  4

  0
LWPOLYLINE
  5
41F
330
41B
100
AcDbEntity
  8
TIE_PLATE
 62
     7
100
AcDbPolyline
 90
        4
 70
     1
 43
0.0
 10
0.5483730740017361
 20
-0.0335035536024306
 10
-1.009154595269097
 20
0.5730055067274306
 10
-1.009499104817708
 20
0.2066196017795139
 10
0.830526394314236
 20
-0.5042758517795138
  0
LINE
  5
41E
330
41B
100
AcDbEntity
  8
TIE_PLATE
 62
     7
100
AcDbLine
 10
1.051701524522569
 20
-0.2293572319878472
 30
0.0
 11
0.4198710123697916
 21
0.0166225857204861
 31
0.0
  0
ENDBLK
  5
425
330
41B
100
AcDbEntity
  8
0
100
AcDbBlockEnd
  0
BLOCK
  5
428
330
426
100
AcDbEntity
  8
0
 62
     7
100
AcDbBlockBegin
  2
AI9-BLK103
 70
     0
 10
0.0
 20
0.0
 30
0.0
  3
AI9-BLK103
  1

  4

  0
LWPOLYLINE
  5
42A
330
426
100
AcDbEntity
  8
TIE_PLATE
 62
     7
100
AcDbPolyline
 90
        4
 70
     1
 43
0.0
 10
0.6560323079427083
 20
-0.0644232855902778
 10
-1.183993191189236
 20
0.6647311740451388
 10
-1.184682210286458
 20
0.2668226453993056
 10
0.9881395128038194
 20
-0.587905544704861
  0
LINE
  5
429
330
426
100
AcDbEntity
  8
TIE_PLATE
 62
     7
100
AcDbLine
 10
0.5044481065538194
 20
-0.0044786241319444
 30
0.0
 11
1.249277750651042
 21
-0.2995510525173611
 31
0.0
  0
ENDBLK
  5
430
330
426
100
AcDbEntity
  8
0
100
AcDbBlockEnd
  0
BLOCK
  5
433
330
431
100
AcDbEntity
  8
0
 62
     7
100
AcDbBlockBegin
  2
AI9-BLK104
 70
     0
 10
0.0
 20
0.0
 30
0.0
  3
AI9-BLK104
  1

  4

  0
LWPOLYLINE
  5
435
330
431
100
AcDbEntity
  8
TIE_PLATE
 62
     7
100
AcDbPolyline
 90
        4
 70
     1
 43
0.0
 10
0.6226148817274305
 20
-0.0558966742621528
 10
-1.131627739800347
 20
0.6393235948350694
 10
-1.131972249348958
 20
0.2508890787760417
 10
0.9399081759982638
 20
-0.5642205132378472
  0
LINE
  5
434
330
431
100
AcDbEntity
  8
TIE_PLATE
 62
     7
100
AcDbLine
 10
1.188644070095486
 20
-0.2803446451822916
 30
0.0
 11
0.4779208713107638
 21
0.0012919108072917
 31
0.0
  0
ENDBLK
  5
43B
330
431
100
AcDbEntity
  8
0
100
AcDbBlockEnd
  0
BLOCK
  5
43E
330
43C
100
AcDbEntity
  8
0
 62
     7
100
AcDbBlockBegin
  2
AI9-BLK105
 70
     0
 10
0.0
 20
0.0
 30
0.0
  3
AI9-BLK105
  1

  4

  0
LWPOLYLINE
  5
440
330
43C
100
AcDbEntity
  8
TIE_PLATE
 62
     7
100
AcDbPolyline
 90
        4
 70
     1
 43
0.0
 10
0.5907477484809027
 20
-0.0478868272569444
 10
-1.079434543185764
 20
0.6140882703993055
 10
-1.079779052734375
 20
0.2349555121527778
 10
0.8928826226128471
 20
-0.5410522460937499
  0
LINE
  5
43F
330
43C
100
AcDbEntity
  8
TIE_PLATE
 62
     7
100
AcDbLine
 10
1.129905192057292
 20
-0.2614827473958333
 30
0.0
 11
0.4529439290364583
 21
0.0067179361979167
 31
0.0
  0
ENDBLK
  5
446
330
43C
100
AcDbEntity
  8
0
100
AcDbBlockEnd
  0
BLOCK
  5
449
330
447
100
AcDbEntity
  8
0
 62
     7
100
AcDbBlockBegin
  2
AI9-BLK106
 70
     0
 10
0.0
 20
0.0
 30
0.0
  3
AI9-BLK106
  1

  4

  0
LWPOLYLINE
  5
44B
330
447
100
AcDbEntity
  8
TIE_PLATE
 62
     7
100
AcDbPolyline
 90
        4
 70
     1
 43
0.0
 10
0.561981201171875
 20
-0.0407382541232639
 10
-1.032064480251736
 20
0.5910922580295138
 10
-1.032408989800347
 20
0.2205722384982639
 10
0.850335693359375
 20
-0.5199510362413194
  0
LINE
  5
44A
330
447
100
AcDbEntity
  8
TIE_PLATE
 62
     7
100
AcDbLine
 10
1.076678466796875
 20
-0.2448601616753472
 30
0.0
 11
0.4300340440538194
 21
0.0112826877170139
 31
0.0
  0
ENDBLK
  5
451
330
447
100
AcDbEntity
  8
0
100
AcDbBlockEnd
  0
BLOCK
  5
454
330
452
100
AcDbEntity
  8
0
 62
     7
100
AcDbBlockBegin
  2
AI9-BLK107
 70
     0
 10
0.0
 20
0.0
 30
0.0
  3
AI9-BLK107
  1

  4

  0
LWPOLYLINE
  5
456
330
452
100
AcDbEntity
  8
TIE_PLATE
 62
     7
100
AcDbPolyline
 90
        4
 70
     1
 43
0.0
 10
0.6728271484374999
 20
-0.0733805338541667
 10
-1.2123291015625
 20
0.6869520399305555
 10
-1.213362630208333
 20
0.2842203776041666
 10
1.013202582465278
 20
-0.6071980794270833
  0
LINE
  5
455
330
452
100
AcDbEntity
  8
TIE_PLATE
 62
     7
100
AcDbLine
 10
0.5177978515624999
 20
-0.01085205078125
 30
0.0
 11
1.281231011284722
 21
-0.3186713324652777
 31
0.0
  0
ENDBLK
  5
45C
330
452
100
AcDbEntity
  8
0
100
AcDbBlockEnd
  0
BLOCK
  5
45F
330
45D
100
AcDbEntity
  8
0
 62
     7
100
AcDbBlockBegin
  2
AI9-BLK108
 70
     0
 10
0.0
 20
0.0
 30
0.0
  3
AI9-BLK108
  1

  4

  0
LWPOLYLINE
  5
461
330
45D
100
AcDbEntity
  8
TIE_PLATE
 62
     7
100
AcDbPolyline
 90
        4
 70
     1
 43
0.0
 10
0.638720703125
 20
-0.064337158203125
 10
-1.158241102430555
 20
0.6603386773003471
 10
-1.158930121527778
 20
0.2672532823350694
 10
0.9635932074652777
 20
-0.582479519314236
  0
LINE
  5
460
330
45D
100
AcDbEntity
  8
TIE_PLATE
 62
     7
100
AcDbLine
 10
1.2185302734375
 20
-0.2980868869357639
 30
0.0
 11
0.4909261067708333
 21
-0.0045647515190972
 31
0.0
  0
ENDBLK
  5
467
330
45D
100
AcDbEntity
  8
0
100
AcDbBlockEnd
  0
BLOCK
  5
46A
330
468
100
AcDbEntity
  8
0
 62
     7
100
AcDbBlockBegin
  2
AI9-BLK109
 70
     0
 10
0.0
 20
0.0
 30
0.0
  3
AI9-BLK109
  1

  4

  0
LWPOLYLINE
  5
46C
330
468
100
AcDbEntity
  8
TIE_PLATE
 62
     7
100
AcDbPolyline
 90
        4
 70
     1
 43
0.0
 10
0.6053032769097222
 20
-0.0556382921006944
 10
-1.104153103298611
 20
0.6337253146701388
 10
-1.104497612847222
 20
0.2502861870659722
 10
0.9143283420138888
 20
-0.5579332139756944
  0
LINE
  5
46B
330
468
100
AcDbEntity
  8
TIE_PLATE
 62
     7
100
AcDbLine
 10
1.157207573784722
 20
-0.2781914605034722
 30
0.0
 11
0.4643988715277778
 21
0.0012057834201389
 31
0.0
  0
ENDBLK
  5
472
330
468
100
AcDbEntity
  8
0
100
AcDbBlockEnd
  0
BLOCK
  5
475
330
473
100
AcDbEntity
  8
0
 62
     7
100
AcDbBlockBegin
  2
AI9-BLK110
 70
     0
 10
0.0
 20
0.0
 30
0.0
  3
AI9-BLK110
  1

  4

  0
LWPOLYLINE
  5
477
330
473
100
AcDbEntity
  8
TIE_PLATE
 62
     7
100
AcDbPolyline
 90
        4
 70
     1
 43
0.0
 10
0.5748141818576389
 20
-0.0481452094184028
 10
-1.05574951171875
 20
0.6096957736545139
 10
-1.05574951171875
 20
0.2350416395399305
 10
0.8700588650173611
 20
-0.535970730251736
  0
LINE
  5
476
330
473
100
AcDbEntity
  8
TIE_PLATE
 62
     7
100
AcDbLine
 10
0.4404554578993055
 20
0.0062872992621528
 30
0.0
 11
1.101569281684028
 21
-0.2603630913628472
 31
0.0
  0
ENDBLK
  5
47D
330
473
100
AcDbEntity
  8
0
100
AcDbBlockEnd
  0
BLOCK
  5
480
330
47E
100
AcDbEntity
  8
0
 62
     7
100
AcDbBlockBegin
  2
AI9-BLK111
 70
     0
 10
0.0
 20
0.0
 30
0.0
  3
AI9-BLK111
  1

  4

  0
LWPOLYLINE
  5
482
330
47E
100
AcDbEntity
  8
TIE_PLATE
 62
     7
100
AcDbPolyline
 90
        4
 70
     1
 43
0.0
 10
0.5471672905815972
 20
-0.041082763671875
 10
-1.010015869140625
 20
0.5871303982204861
 10
-1.010360378689236
 20
0.2210890028211806
 10
0.8293206108940971
 20
-0.5153001573350694
  0
LINE
  5
481
330
47E
100
AcDbEntity
  8
TIE_PLATE
 62
     7
100
AcDbLine
 10
1.050151231553819
 20
-0.2438266330295139
 30
0.0
 11
0.4186652289496528
 21
0.0109381781684028
 31
0.0
  0
ENDBLK
  5
488
330
47E
100
AcDbEntity
  8
0
100
AcDbBlockEnd
  0
BLOCK
  5
49B
330
499
100
AcDbEntity
  8
0
 62
     7
100
AcDbBlockBegin
  2
AI9-BLK113
 70
     0
 10
0.0
 20
0.0
 30
0.0
  3
AI9-BLK113
  1

  4

  0
LWPOLYLINE
  5
49D
330
499
100
AcDbEntity
  8
TIE_PLATE
 62
     7
100
AcDbPolyline
 90
        4
 70
     1
 43
0.0
 10
0.5389851888020832
 20
0.0043924967447917
 10
-1.119139268663194
 20
0.4834330240885416
 10
-1.119828287760417
 20
0.0887973361545139
 10
0.8642022026909721
 20
-0.4834330240885416
  0
LINE
  5
49C
330
499
100
AcDbEntity
  8
TIE_PLATE
 62
     7
100
AcDbLine
 10
0.3908460828993055
 20
0.0498677571614583
 30
0.0
 11
1.119828287760417
 21
-0.172857666015625
 31
0.0
  0
ENDBLK
  5
4A3
330
499
100
AcDbEntity
  8
0
100
AcDbBlockEnd
  0
BLOCK
  5
4A6
330
4A4
100
AcDbEntity
  8
0
 62
     7
100
AcDbBlockBegin
  2
AI9-BLK114
 70
     0
 10
0.0
 20
0.0
 30
0.0
  3
AI9-BLK114
  1

  4

  0
LWPOLYLINE
  5
4A8
330
4A4
100
AcDbEntity
  8
TIE_PLATE
 62
     7
100
AcDbPolyline
 90
        4
 70
     1
 43
0.0
 10
0.5799818250868055
 20
-0.0246324327256944
 10
-1.132575141059028
 20
0.4983330620659722
 10
-1.132919650607639
 20
0.1135158962673611
 10
0.8896959092881943
 20
-0.4983330620659722
  0
LINE
  5
4A7
330
4A4
100
AcDbEntity
  8
TIE_PLATE
 62
     7
100
AcDbLine
 10
1.132919650607639
 20
-0.1936143663194444
 30
0.0
 11
0.4390774197048611
 21
0.0184312608506944
 31
0.0
  0
ENDBLK
  5
4AE
330
4A4
100
AcDbEntity
  8
0
100
AcDbBlockEnd
  0
BLOCK
  5
4B1
330
4AF
100
AcDbEntity
  8
0
 62
     7
100
AcDbBlockBegin
  2
AI9-BLK115
 70
     0
 10
0.0
 20
0.0
 30
0.0
  3
AI9-BLK115
  1

  4

  0
LWPOLYLINE
  5
4B3
330
4AF
100
AcDbEntity
  8
TIE_PLATE
 62
     7
100
AcDbPolyline
 90
        4
 70
     1
 43
0.0
 10
0.5529378255208333
 20
-0.0194647894965278
 10
-1.080381944444444
 20
0.4797295464409722
 10
-1.080726453993055
 20
0.10386962890625
 10
0.8485270182291665
 20
-0.4797295464409722
  0
LINE
  5
4B2
330
4AF
100
AcDbEntity
  8
TIE_PLATE
 62
     7
100
AcDbLine
 10
1.080726453993055
 20
-0.1803507486979167
 30
0.0
 11
0.4182345920138889
 21
0.0218763563368056
 31
0.0
  0
ENDBLK
  5
4B9
330
4AF
100
AcDbEntity
  8
0
100
AcDbBlockEnd
  0
BLOCK
  5
4BC
330
4BA
100
AcDbEntity
  8
0
 62
     7
100
AcDbBlockBegin
  2
AI9-BLK116
 70
     0
 10
0.0
 20
0.0
 30
0.0
  3
AI9-BLK116
  1

  4

  0
LWPOLYLINE
  5
4BE
330
4BA
100
AcDbEntity
  8
TIE_PLATE
 62
     7
100
AcDbPolyline
 90
        4
 70
     1
 43
0.0
 10
0.5279608832465277
 20
-0.0142110188802083
 10
-1.031978352864583
 20
0.4622456868489583
 10
-1.031978352864583
 20
0.0948262532552083
 10
0.8104587131076388
 20
-0.4622456868489583
  0
LINE
  5
4BD
330
4BA
100
AcDbEntity
  8
TIE_PLATE
 62
     7
100
AcDbLine
 10
0.3994588216145833
 20
0.0252353244357639
 30
0.0
 11
1.031978352864583
 21
-0.1680345323350694
 31
0.0
  0
ENDBLK
  5
4C4
330
4BA
100
AcDbEntity
  8
0
100
AcDbBlockEnd
  0
BLOCK
  5
4C7
330
4C5
100
AcDbEntity
  8
0
 62
     7
100
AcDbBlockBegin
  2
AI9-BLK117
 70
     0
 10
0.0
 20
0.0
 30
0.0
  3
AI9-BLK117
  1

  4

  0
LWPOLYLINE
  5
4C9
330
4C5
100
AcDbEntity
  8
TIE_PLATE
 62
     7
100
AcDbPolyline
 90
        4
 70
     1
 43
0.0
 10
-0.2215196397569444
 20
0.2246202256944444
 10
-0.3238389756944444
 20
0.2321994357638889
 10
-0.3245279947916667
 20
-0.1669148763020833
 10
0.11162109375
 20
-0.2721625434027777
  0
LINE
  5
4C8
330
4C5
100
AcDbEntity
  8
TIE_PLATE
 62
     7
100
AcDbLine
 10
-0.3731038411458333
 20
0.2721625434027777
 30
0.0
 11
0.3731038411458333
 21
0.0391018337673611
 31
0.0
  0
ENDBLK
  5
4CF
330
4C5
100
AcDbEntity
  8
0
100
AcDbBlockEnd
  0
BLOCK
  5
4D2
330
4D0
100
AcDbEntity
  8
0
 62
     7
100
AcDbBlockBegin
  2
AI9-BLK118
 70
     0
 10
0.0
 20
0.0
 30
0.0
  3
AI9-BLK118
  1

  4

  0
LWPOLYLINE
  5
4D4
330
4D0
100
AcDbEntity
  8
TIE_PLATE
 62
     7
100
AcDbPolyline
 90
        4
 70
     1
 43
0.0
 10
0.5953124999999999
 20
-0.0330729166666667
 10
-1.161686197916667
 20
0.5160753038194444
 10
-1.162375217013889
 20
0.1262627495659722
 10
0.9132948133680555
 20
-0.5160753038194444
  0
LINE
  5
4D3
330
4D0
100
AcDbEntity
  8
TIE_PLATE
 62
     7
100
AcDbLine
 10
1.162375217013889
 20
-0.2103230794270833
 30
0.0
 11
0.4506184895833333
 21
0.0122300889756944
 31
0.0
  0
ENDBLK
  5
4DA
330
4D0
100
AcDbEntity
  8
0
100
AcDbBlockEnd
  0
BLOCK
  5
4DD
330
4DB
100
AcDbEntity
  8
0
 62
     7
100
AcDbBlockBegin
  2
AI9-BLK119
 70
     0
 10
0.0
 20
0.0
 30
0.0
  3
AI9-BLK119
  1

  4

  0
LWPOLYLINE
  5
4DF
330
4DB
100
AcDbEntity
  8
TIE_PLATE
 62
     7
100
AcDbPolyline
 90
        4
 70
     1
 43
0.0
 10
0.5665459526909722
 20
-0.0267856174045139
 10
-1.106047905815972
 20
0.4958353678385416
 10
-1.106736924913194
 20
0.1156690809461805
 10
0.8690253363715277
 20
-0.4958353678385416
  0
LINE
  5
4DE
330
4DB
100
AcDbEntity
  8
TIE_PLATE
 62
     7
100
AcDbLine
 10
0.4287421332465277
 20
0.016278076171875
 30
0.0
 11
1.106736924913194
 21
-0.1954230414496528
 31
0.0
  0
ENDBLK
  5
4E5
330
4DB
100
AcDbEntity
  8
0
100
AcDbBlockEnd
  0
BLOCK
  5
4E8
330
4E6
100
AcDbEntity
  8
0
 62
     7
100
AcDbBlockBegin
  2
AI9-BLK120
 70
     0
 10
0.0
 20
0.0
 30
0.0
  3
AI9-BLK120
  1

  4

  0
LWPOLYLINE
  5
4EA
330
4E6
100
AcDbEntity
  8
TIE_PLATE
 62
     7
100
AcDbPolyline
 90
        4
 70
     1
 43
0.0
 10
0.5405354817708333
 20
-0.0211873372395833
 10
-1.055921766493055
 20
0.4774902343749999
 10
-1.055921766493055
 20
0.1061089409722222
 10
0.8295789930555555
 20
-0.4774902343749999
  0
LINE
  5
4E9
330
4E6
100
AcDbEntity
  8
TIE_PLATE
 62
     7
100
AcDbLine
 10
1.055921766493055
 20
-0.1824178059895833
 30
0.0
 11
0.4085883246527777
 21
0.0198092990451389
 31
0.0
  0
ENDBLK
  5
4F0
330
4E6
100
AcDbEntity
  8
0
100
AcDbBlockEnd
  0
BLOCK
  5
4F3
330
4F1
100
AcDbEntity
  8
0
 62
     7
100
AcDbBlockBegin
  2
AI9-BLK121
 70
     0
 10
0.0
 20
0.0
 30
0.0
  3
AI9-BLK121
  1

  4

  0
LWPOLYLINE
  5
4F5
330
4F1
100
AcDbEntity
  8
TIE_PLATE
 62
     7
100
AcDbPolyline
 90
        4
 70
     1
 43
0.0
 10
0.5388129340277778
 20
-0.0236850314670139
 10
-1.118967013888889
 20
0.5158169216579861
 10
-1.119656032986111
 20
0.1215257432725694
 10
0.8640299479166665
 20
-0.5158169216579861
  0
LINE
  5
4F4
330
4F1
100
AcDbEntity
  8
TIE_PLATE
 62
     7
100
AcDbLine
 10
0.3903293185763889
 20
0.0238572862413194
 30
0.0
 11
1.119656032986111
 21
-0.2090311686197917
 31
0.0
  0
ENDBLK
  5
4FB
330
4F1
100
AcDbEntity
  8
0
100
AcDbBlockEnd
  0
BLOCK
  5
4FE
330
4FC
100
AcDbEntity
  8
0
 62
     7
100
AcDbBlockBegin
  2
AI9-BLK122
 70
     0
 10
0.0
 20
0.0
 30
0.0
  3
AI9-BLK122
  1

  4

  0
LWPOLYLINE
  5
500
330
4FC
100
AcDbEntity
  8
TIE_PLATE
 62
     7
100
AcDbPolyline
 90
        4
 70
     1
 43
0.0
 10
0.5798095703124999
 20
-0.0345370822482639
 10
-1.132058376736111
 20
0.5123718261718749
 10
-1.132747395833333
 20
0.1275546603732639
 10
0.8895236545138888
 20
-0.5123718261718749
  0
LINE
  5
4FF
330
4FC
100
AcDbEntity
  8
TIE_PLATE
 62
     7
100
AcDbLine
 10
1.132747395833333
 20
-0.2112704806857639
 30
0.0
 11
0.4389051649305555
 21
0.0105936686197917
 31
0.0
  0
ENDBLK
  5
506
330
4FC
100
AcDbEntity
  8
0
100
AcDbBlockEnd
  0
BLOCK
  5
509
330
507
100
AcDbEntity
  8
0
 62
     7
100
AcDbBlockBegin
  2
AI9-BLK123
 70
     0
 10
0.0
 20
0.0
 30
0.0
  3
AI9-BLK123
  1

  4

  0
LWPOLYLINE
  5
50B
330
507
100
AcDbEntity
  8
TIE_PLATE
 62
     7
100
AcDbPolyline
 90
        4
 70
     1
 43
0.0
 10
0.5529378255208333
 20
-0.028680419921875
 10
-1.080037434895833
 20
0.4930792914496527
 10
-1.080381944444444
 20
0.1173916286892361
 10
0.8485270182291665
 20
-0.4930792914496527
  0
LINE
  5
50A
330
507
100
AcDbEntity
  8
TIE_PLATE
 62
     7
100
AcDbLine
 10
0.4185791015624999
 20
0.0143832736545139
 30
0.0
 11
1.080381944444444
 21
-0.1971455891927083
 31
0.0
  0
ENDBLK
  5
511
330
507
100
AcDbEntity
  8
0
100
AcDbBlockEnd
  0
BLOCK
  5
514
330
512
100
AcDbEntity
  8
0
 62
     7
100
AcDbBlockBegin
  2
AI9-BLK124
 70
     0
 10
0.0
 20
0.0
 30
0.0
  3
AI9-BLK124
  1

  4

  0
LWPOLYLINE
  5
516
330
512
100
AcDbEntity
  8
TIE_PLATE
 62
     7
100
AcDbPolyline
 90
        4
 70
     1
 43
0.0
 10
0.5277886284722222
 20
-0.0233405219184028
 10
-1.031806098090278
 20
0.4749925401475694
 10
-1.031806098090278
 20
0.107745361328125
 10
0.8102864583333332
 20
-0.4749925401475694
  0
LINE
  5
515
330
512
100
AcDbEntity
  8
TIE_PLATE
 62
     7
100
AcDbLine
 10
1.031806098090278
 20
-0.1840542263454861
 30
0.0
 11
0.3992865668402778
 21
0.0180006239149306
 31
0.0
  0
ENDBLK
  5
51C
330
512
100
AcDbEntity
  8
0
100
AcDbBlockEnd
  0
BLOCK
  5
51F
330
51D
100
AcDbEntity
  8
0
 62
     7
100
AcDbBlockBegin
  2
AI9-BLK125
 70
     0
 10
0.0
 20
0.0
 30
0.0
  3
AI9-BLK125
  1

  4

  0
LWPOLYLINE
  5
521
330
51D
100
AcDbEntity
  8
TIE_PLATE
 62
     7
100
AcDbPolyline
 90
        4
 70
     1
 43
0.0
 10
-0.2215196397569444
 20
0.2260843912760417
 10
-0.3589789496527778
 20
0.2593295627170139
 10
-0.35966796875
 20
-0.1397847493489583
 10
0.1112765842013889
 20
-0.2755215115017361
  0
LINE
  5
520
330
51D
100
AcDbEntity
  8
TIE_PLATE
 62
     7
100
AcDbLine
 10
-0.3731038411458333
 20
0.2755215115017361
 30
0.0
 11
0.3731038411458333
 21
0.0321255154079861
 31
0.0
  0
ENDBLK
  5
527
330
51D
100
AcDbEntity
  8
0
100
AcDbBlockEnd
  0
BLOCK
  5
52A
330
528
100
AcDbEntity
  8
0
 62
     7
100
AcDbBlockBegin
  2
AI9-BLK126
 70
     0
 10
0.0
 20
0.0
 30
0.0
  3
AI9-BLK126
  1

  4

  0
LWPOLYLINE
  5
52C
330
528
100
AcDbEntity
  8
TIE_PLATE
 62
     7
100
AcDbPolyline
 90
        4
 70
     1
 43
0.0
 10
0.5949679904513888
 20
-0.0430636935763889
 10
-1.161341688368055
 20
0.5303724500868056
 10
-1.162030707465278
 20
0.1407321506076389
 10
0.9129503038194443
 20
-0.5303724500868056
  0
LINE
  5
52B
330
528
100
AcDbEntity
  8
TIE_PLATE
 62
     7
100
AcDbLine
 10
1.162030707465278
 20
-0.2282375759548611
 30
0.0
 11
0.4502739800347222
 21
0.0041341145833333
 31
0.0
  0
ENDBLK
  5
532
330
528
100
AcDbEntity
  8
0
100
AcDbBlockEnd
  0
BLOCK
  5
535
330
533
100
AcDbEntity
  8
0
 62
     7
100
AcDbBlockBegin
  2
AI9-BLK127
 70
     0
 10
0.0
 20
0.0
 30
0.0
  3
AI9-BLK127
  1

  4

  0
LWPOLYLINE
  5
537
330
533
100
AcDbEntity
  8
TIE_PLATE
 62
     7
100
AcDbPolyline
 90
        4
 70
     1
 43
0.0
 10
0.5663736979166666
 20
-0.0363457573784722
 10
-1.105875651041667
 20
0.5095296223958333
 10
-1.106220160590278
 20
0.1293633355034722
 10
0.8688530815972222
 20
-0.5095296223958333
  0
LINE
  5
536
330
533
100
AcDbEntity
  8
TIE_PLATE
 62
     7
100
AcDbLine
 10
1.106220160590278
 20
-0.2127346462673611
 30
0.0
 11
0.4285698784722222
 21
0.0086127387152778
 31
0.0
  0
ENDBLK
  5
53D
330
533
100
AcDbEntity
  8
0
100
AcDbBlockEnd
  0
BLOCK
  5
540
330
53E
100
AcDbEntity
  8
0
 62
     7
100
AcDbBlockBegin
  2
AI9-BLK128
 70
     0
 10
0.0
 20
0.0
 30
0.0
  3
AI9-BLK128
  1

  4

  0
LWPOLYLINE
  5
542
330
53E
100
AcDbEntity
  8
TIE_PLATE
 62
     7
100
AcDbPolyline
 90
        4
 70
     1
 43
0.0
 10
0.5403632269965277
 20
-0.0303168402777778
 10
-1.05574951171875
 20
0.4905815972222222
 10
-1.05574951171875
 20
0.1192003038194444
 10
0.8294067382812499
 20
-0.4905815972222222
  0
LINE
  5
541
330
53E
100
AcDbEntity
  8
TIE_PLATE
 62
     7
100
AcDbLine
 10
0.4084160698784722
 20
0.0125745985243056
 30
0.0
 11
1.05574951171875
 21
-0.1986097547743055
 31
0.0
  0
ENDBLK
  5
548
330
53E
100
AcDbEntity
  8
0
100
AcDbBlockEnd
  0
BLOCK
  5
54B
330
549
100
AcDbEntity
  8
0
 62
     7
100
AcDbBlockBegin
  2
AI9-BLK129
 70
     0
 10
0.0
 20
0.0
 30
0.0
  3
AI9-BLK129
  1

  4

  0
LWPOLYLINE
  5
54D
330
549
100
AcDbEntity
  8
TIE_PLATE
 62
     7
100
AcDbPolyline
 90
        4
 70
     1
 43
0.0
 10
0.5384684244791667
 20
-0.0161919487847222
 10
-1.118622504340278
 20
0.5128024631076389
 10
-1.1193115234375
 20
0.1185112847222222
 10
0.8636854383680555
 20
-0.5128024631076389
  0
LINE
  5
54C
330
549
100
AcDbEntity
  8
TIE_PLATE
 62
     7
100
AcDbLine
 10
0.3903293185763889
 20
0.0332451714409722
 30
0.0
 11
1.1193115234375
 21
-0.2096340603298611
 31
0.0
  0
ENDBLK
  5
553
330
549
100
AcDbEntity
  8
0
100
AcDbBlockEnd
  0
BLOCK
  5
556
330
554
100
AcDbEntity
  8
0
 62
     7
100
AcDbBlockBegin
  2
AI9-BLK130
 70
     0
 10
0.0
 20
0.0
 30
0.0
  3
AI9-BLK130
  1

  4

  0
LWPOLYLINE
  5
558
330
554
100
AcDbEntity
  8
TIE_PLATE
 62
     7
100
AcDbPolyline
 90
        4
 70
     1
 43
0.0
 10
0.5798095703124999
 20
-0.0445278591579861
 10
-1.132058376736111
 20
0.526324462890625
 10
-1.132402886284722
 20
0.1416795518663194
 10
0.8891791449652777
 20
-0.526324462890625
  0
LINE
  5
557
330
554
100
AcDbEntity
  8
TIE_PLATE
 62
     7
100
AcDbLine
 10
0.4385606553819444
 20
0.0026699490017361
 30
0.0
 11
1.132402886284722
 21
-0.228668212890625
 31
0.0
  0
ENDBLK
  5
55E
330
554
100
AcDbEntity
  8
0
100
AcDbBlockEnd
  0
BLOCK
  5
561
330
55F
100
AcDbEntity
  8
0
 62
     7
100
AcDbBlockBegin
  2
AI9-BLK131
 70
     0
 10
0.0
 20
0.0
 30
0.0
  3
AI9-BLK131
  1

  4

  0
LWPOLYLINE
  5
563
330
55F
100
AcDbEntity
  8
TIE_PLATE
 62
     7
100
AcDbPolyline
 90
        4
 70
     1
 43
0.0
 10
0.5527655707465278
 20
-0.037982177734375
 10
-1.079865180121528
 20
0.5065151638454861
 10
-1.080209689670139
 20
0.1308275010850694
 10
0.8483547634548611
 20
-0.5065151638454861
  0
LINE
  5
562
330
55F
100
AcDbEntity
  8
TIE_PLATE
 62
     7
100
AcDbLine
 10
1.080209689670139
 20
-0.2136820475260416
 30
0.0
 11
0.4184068467881944
 21
0.006976318359375
 31
0.0
  0
ENDBLK
  5
569
330
55F
100
AcDbEntity
  8
0
100
AcDbBlockEnd
  0
BLOCK
  5
56C
330
56A
100
AcDbEntity
  8
0
 62
     7
100
AcDbBlockBegin
  2
AI9-BLK132
 70
     0
 10
0.0
 20
0.0
 30
0.0
  3
AI9-BLK132
  1

  4

  0
LWPOLYLINE
  5
56E
330
56A
100
AcDbEntity
  8
TIE_PLATE
 62
     7
100
AcDbPolyline
 90
        4
 70
     1
 43
0.0
 10
0.8102864583333332
 20
-0.4878255208333333
 10
-1.031461588541667
 20
0.1205783420138889
 10
-1.031461588541667
 20
0.4878255208333333
 10
0.5277886284722222
 20
-0.0320393880208333
  0
LINE
  5
56D
330
56A
100
AcDbEntity
  8
TIE_PLATE
 62
     7
100
AcDbLine
 10
1.031461588541667
 20
-0.19998779296875
 30
0.0
 11
0.3992865668402778
 21
0.0106797960069444
 31
0.0
  0
ENDBLK
  5
574
330
56A
100
AcDbEntity
  8
0
100
AcDbBlockEnd
  0
BLOCK
  5
577
330
575
100
AcDbEntity
  8
0
 62
     7
100
AcDbBlockBegin
  2
AI9-BLK133
 70
     0
 10
0.0
 20
0.0
 30
0.0
  3
AI9-BLK133
  1

  4

  0
LWPOLYLINE
  5
579
330
575
100
AcDbEntity
  8
TIE_PLATE
 62
     7
100
AcDbPolyline
 90
        4
 70
     1
 43
0.0
 10
-0.2103230794270833
 20
0.2234144422743055
 10
-0.38292236328125
 20
0.2823255750868055
 10
-0.3836113823784722
 20
-0.1164442274305556
 10
0.1221286349826389
 20
-0.2823255750868055
  0
LINE
  5
578
330
575
100
AcDbEntity
  8
TIE_PLATE
 62
     7
100
AcDbLine
 10
-0.3622517903645833
 20
0.2750908745659722
 30
0.0
 11
0.3836113823784722
 21
0.0213595920138889
 31
0.0
  0
ENDBLK
  5
57F
330
575
100
AcDbEntity
  8
0
100
AcDbBlockEnd
  0
BLOCK
  5
582
330
580
100
AcDbEntity
  8
0
 62
     7
100
AcDbBlockBegin
  2
AI9-BLK134
 70
     0
 10
0.0
 20
0.0
 30
0.0
  3
AI9-BLK134
  1

  4

  0
LWPOLYLINE
  5
584
330
580
100
AcDbEntity
  8
TIE_PLATE
 62
     7
100
AcDbPolyline
 90
        4
 70
     1
 43
0.0
 10
0.5949679904513888
 20
-0.0533989800347222
 10
-1.160997178819444
 20
0.5446695963541666
 10
-1.161686197916667
 20
0.1552015516493056
 10
0.9126057942708332
 20
-0.5446695963541666
  0
LINE
  5
583
330
580
100
AcDbEntity
  8
TIE_PLATE
 62
     7
100
AcDbLine
 10
1.161686197916667
 20
-0.2463243272569444
 30
0.0
 11
0.4502739800347222
 21
-0.0041341145833333
 31
0.0
  0
ENDBLK
  5
58A
330
580
100
AcDbEntity
  8
0
100
AcDbBlockEnd
  0
BLOCK
  5
58D
330
58B
100
AcDbEntity
  8
0
 62
     7
100
AcDbBlockBegin
  2
AI9-BLK135
 70
     0
 10
0.0
 20
0.0
 30
0.0
  3
AI9-BLK135
  1

  4

  0
LWPOLYLINE
  5
58F
330
58B
100
AcDbEntity
  8
TIE_PLATE
 62
     7
100
AcDbPolyline
 90
        4
 70
     1
 43
0.0
 10
0.5662014431423611
 20
-0.0459920247395833
 10
-1.105703396267361
 20
0.5231377495659721
 10
-1.106047905815972
 20
0.1431437174479167
 10
0.8686808268229166
 20
-0.5231377495659721
  0
LINE
  5
58E
330
58B
100
AcDbEntity
  8
TIE_PLATE
 62
     7
100
AcDbLine
 10
0.4283976236979166
 20
0.0008612738715278
 30
0.0
 11
1.106047905815972
 21
-0.2299601236979167
 31
0.0
  0
ENDBLK
  5
595
330
58B
100
AcDbEntity
  8
0
100
AcDbBlockEnd
  0
BLOCK
  5
598
330
596
100
AcDbEntity
  8
0
 62
     7
100
AcDbBlockBegin
  2
AI9-BLK136
 70
     0
 10
0.0
 20
0.0
 30
0.0
  3
AI9-BLK136
  1

  4

  0
LWPOLYLINE
  5
59A
330
596
100
AcDbEntity
  8
TIE_PLATE
 62
     7
100
AcDbPolyline
 90
        4
 70
     1
 43
0.0
 10
0.5401909722222221
 20
-0.0396185980902778
 10
-1.055232747395833
 20
0.5035007052951388
 10
-1.055577256944444
 20
0.1324639214409722
 10
0.8288899739583333
 20
-0.5035007052951388
  0
LINE
  5
599
330
596
100
AcDbEntity
  8
TIE_PLATE
 62
     7
100
AcDbLine
 10
1.055577256944444
 20
-0.2151462131076389
 30
0.0
 11
0.4082438151041666
 21
0.0051676432291667
 31
0.0
  0
ENDBLK
  5
5A0
330
596
100
AcDbEntity
  8
0
100
AcDbBlockEnd
  0
BLOCK
  5
5A3
330
5A1
100
AcDbEntity
  8
0
 62
     7
100
AcDbBlockBegin
  2
AI9-BLK137
 70
     0
 10
0.0
 20
0.0
 30
0.0
  3
AI9-BLK137
  1

  4

  0
LWPOLYLINE
  5
5A5
330
5A1
100
AcDbEntity
  8
TIE_PLATE
 62
     7
100
AcDbPolyline
 90
        4
 70
     1
 43
0.0
 10
-0.2833591037326388
 20
0.0288526746961806
 10
-1.247641330295139
 20
0.4336513943142361
 10
-1.248674858940972
 20
0.0300584581163194
 10
-0.8872843424479165
 20
-0.0422885470920139
  0
LINE
  5
5A4
330
5A1
100
AcDbEntity
  8
TIE_PLATE
 62
     7
100
AcDbLine
 10
1.248674858940972
 20
-0.4336513943142361
 30
0.0
 11
0.4845526801215278
 21
-0.1680345323350694
 31
0.0
  0
ENDBLK
  5
5AB
330
5A1
100
AcDbEntity
  8
0
100
AcDbBlockEnd
  0
BLOCK
  5
5AE
330
5AC
100
AcDbEntity
  8
0
 62
     7
100
AcDbBlockBegin
  2
AI9-BLK138
 70
     0
 10
0.0
 20
0.0
 30
0.0
  3
AI9-BLK138
  1

  4

  0
LWPOLYLINE
  5
5B0
330
5AC
100
AcDbEntity
  8
TIE_PLATE
 62
     7
100
AcDbPolyline
 90
        4
 70
     1
 43
0.0
 10
0.609609646267361
 20
-0.06201171875
 10
-1.189419216579861
 20
0.5629286024305555
 10
-1.190108235677083
 20
0.16898193359375
 10
0.9348266601562499
 20
-0.5629286024305555
  0
LINE
  5
5AF
330
5AC
100
AcDbEntity
  8
TIE_PLATE
 62
     7
100
AcDbLine
 10
0.4614705403645833
 20
-0.0105075412326389
 30
0.0
 11
1.190108235677083
 21
-0.2635498046875
 31
0.0
  0
ENDBLK
  5
5B6
330
5AC
100
AcDbEntity
  8
0
100
AcDbBlockEnd
  0
BLOCK
  5
5B9
330
5B7
100
AcDbEntity
  8
0
 62
     7
100
AcDbBlockBegin
  2
AI9-BLK139
 70
     0
 10
0.0
 20
0.0
 30
0.0
  3
AI9-BLK139
  1

  4

  0
LWPOLYLINE
  5
5BB
330
5B7
100
AcDbEntity
  8
TIE_PLATE
 62
     7
100
AcDbPolyline
 90
        4
 70
     1
 43
0.0
 10
0.5794650607638888
 20
-0.0543463812934028
 10
-1.1317138671875
 20
0.540277099609375
 10
-1.132058376736111
 20
0.1559766981336805
 10
0.8888346354166666
 20
-0.540277099609375
  0
LINE
  5
5BA
330
5B7
100
AcDbEntity
  8
TIE_PLATE
 62
     7
100
AcDbLine
 10
0.4385606553819444
 20
-0.0052537706163194
 30
0.0
 11
1.132058376736111
 21
-0.2462381998697917
 31
0.0
  0
ENDBLK
  5
5C1
330
5B7
100
AcDbEntity
  8
0
100
AcDbBlockEnd
  0
BLOCK
  5
5C4
330
5C2
100
AcDbEntity
  8
0
 62
     7
100
AcDbBlockBegin
  2
AI9-BLK140
 70
     0
 10
0.0
 20
0.0
 30
0.0
  3
AI9-BLK140
  1

  4

  0
LWPOLYLINE
  5
5C6
330
5C2
100
AcDbEntity
  8
TIE_PLATE
 62
     7
100
AcDbPolyline
 90
        4
 70
     1
 43
0.0
 10
0.5525933159722222
 20
-0.0474561903211806
 10
-1.079348415798611
 20
0.5197787814670138
 10
-1.079692925347222
 20
0.1444356282552083
 10
0.8481825086805555
 20
-0.5197787814670138
  0
LINE
  5
5C5
330
5C2
100
AcDbEntity
  8
TIE_PLATE
 62
     7
100
AcDbLine
 10
0.4182345920138889
 20
-0.0006028917100694
 30
0.0
 11
1.079692925347222
 21
-0.2305630154079861
 31
0.0
  0
ENDBLK
  5
5CC
330
5C2
100
AcDbEntity
  8
0
100
AcDbBlockEnd
  0
BLOCK
  5
5CF
330
5CD
100
AcDbEntity
  8
0
 62
     7
100
AcDbBlockBegin
  2
AI9-BLK141
 70
     0
 10
0.0
 20
0.0
 30
0.0
  3
AI9-BLK141
  1

  4

  0
LWPOLYLINE
  5
5D1
330
5CD
100
AcDbEntity
  8
TIE_PLATE
 62
     7
100
AcDbPolyline
 90
        4
 70
     1
 43
0.0
 10
0.5276163736979166
 20
-0.041082763671875
 10
-1.031289333767361
 20
0.5004862467447916
 10
-1.031289333767361
 20
0.1337558322482639
 10
0.8101142035590278
 20
-0.5004862467447916
  0
LINE
  5
5D0
330
5CD
100
AcDbEntity
  8
TIE_PLATE
 62
     7
100
AcDbLine
 10
1.031289333767361
 20
-0.2159213595920139
 30
0.0
 11
0.3991143120659722
 21
0.0035312228732639
 31
0.0
  0
ENDBLK
  5
5D7
330
5CD
100
AcDbEntity
  8
0
100
AcDbBlockEnd
  0
BLOCK
  5
5DA
330
5D8
100
AcDbEntity
  8
0
 62
     7
100
AcDbBlockBegin
  2
AI9-BLK142
 70
     0
 10
0.0
 20
0.0
 30
0.0
  3
AI9-BLK142
  1

  4

  0
LWPOLYLINE
  5
5DC
330
5D8
100
AcDbEntity
  8
TIE_PLATE
 62
     7
100
AcDbPolyline
 90
        4
 70
     1
 43
0.0
 10
0.6242513020833332
 20
-0.0712273491753472
 10
-1.217152235243056
 20
0.5814459906684028
 10
-1.218185763888889
 20
0.1828484429253472
 10
0.9567030164930555
 20
-0.5814459906684028
  0
LINE
  5
5DB
330
5D8
100
AcDbEntity
  8
TIE_PLATE
 62
     7
100
AcDbLine
 10
1.218185763888889
 20
-0.2815504286024305
 30
0.0
 11
0.4723225911458333
 21
-0.0174838595920139
 31
0.0
  0
ENDBLK
  5
5E2
330
5D8
100
AcDbEntity
  8
0
100
AcDbBlockEnd
  0
BLOCK
  5
5E5
330
5E3
100
AcDbEntity
  8
0
 62
     7
100
AcDbBlockBegin
  2
AI9-BLK143
 70
     0
 10
0.0
 20
0.0
 30
0.0
  3
AI9-BLK143
  1

  4

  0
LWPOLYLINE
  5
5E7
330
5E3
100
AcDbEntity
  8
TIE_PLATE
 62
     7
100
AcDbPolyline
 90
        4
 70
     1
 43
0.0
 10
0.5946234809027777
 20
-0.0632175021701389
 10
-1.160652669270833
 20
0.5589667426215277
 10
-1.161341688368055
 20
0.1698432074652778
 10
0.9122612847222221
 20
-0.5589667426215277
  0
LINE
  5
5E6
330
5E3
100
AcDbEntity
  8
TIE_PLATE
 62
     7
100
AcDbLine
 10
0.4499294704861111
 20
-0.0120578342013889
 30
0.0
 11
1.161341688368055
 21
-0.2642388237847222
 31
0.0
  0
ENDBLK
  5
5ED
330
5E3
100
AcDbEntity
  8
0
100
AcDbBlockEnd
  0
BLOCK
  5
5F0
330
5EE
100
AcDbEntity
  8
0
 62
     7
100
AcDbBlockBegin
  2
AI9-BLK144
 70
     0
 10
0.0
 20
0.0
 30
0.0
  3
AI9-BLK144
  1

  4

  0
LWPOLYLINE
  5
5F2
330
5EE
100
AcDbEntity
  8
TIE_PLATE
 62
     7
100
AcDbPolyline
 90
        4
 70
     1
 43
0.0
 10
0.56585693359375
 20
-0.0556382921006944
 10
-1.10535888671875
 20
0.5367458767361111
 10
-1.105703396267361
 20
0.1570963541666667
 10
0.8683363172743055
 20
-0.5367458767361111
  0
LINE
  5
5F1
330
5EE
100
AcDbEntity
  8
TIE_PLATE
 62
     7
100
AcDbLine
 10
0.4280531141493055
 20
-0.0068901909722222
 30
0.0
 11
1.105703396267361
 21
-0.2470133463541666
 31
0.0
  0
ENDBLK
  5
5F8
330
5EE
100
AcDbEntity
  8
0
100
AcDbBlockEnd
  0
BLOCK
  5
5FB
330
5F9
100
AcDbEntity
  8
0
 62
     7
100
AcDbBlockBegin
  2
AI9-BLK145
 70
     0
 10
0.0
 20
0.0
 30
0.0
  3
AI9-BLK145
  1

  4

  0
LWPOLYLINE
  5
5FD
330
5F9
100
AcDbEntity
  8
TIE_PLATE
 62
     7
100
AcDbPolyline
 90
        4
 70
     1
 43
0.0
 10
0.5401909722222221
 20
-0.048834228515625
 10
-1.054888237847222
 20
0.5165059407552083
 10
-1.055232747395833
 20
0.1456414116753472
 10
0.8288899739583333
 20
-0.5165059407552083
  0
LINE
  5
5FC
330
5F9
100
AcDbEntity
  8
TIE_PLATE
 62
     7
100
AcDbLine
 10
1.055232747395833
 20
-0.2314242892795139
 30
0.0
 11
0.4082438151041666
 21
-0.0021531846788194
 31
0.0
  0
ENDBLK
  5
603
330
5F9
100
AcDbEntity
  8
0
100
AcDbBlockEnd
  0
BLOCK
  5
606
330
604
100
AcDbEntity
  8
0
 62
     7
100
AcDbBlockBegin
  2
AI9-BLK146
 70
     0
 10
0.0
 20
0.0
 30
0.0
  3
AI9-BLK146
  1

  4

  0
LWPOLYLINE
  5
608
330
604
100
AcDbEntity
  8
TIE_PLATE
 62
     7
100
AcDbPolyline
 90
        4
 70
     1
 43
0.0
 10
0.6395819769965278
 20
-0.0807874891493055
 10
-1.247296820746528
 20
0.6011691623263888
 10
-1.248330349392361
 20
0.1975762261284722
 10
0.9803019205729165
 20
-0.6011691623263888
  0
LINE
  5
607
330
604
100
AcDbEntity
  8
TIE_PLATE
 62
     7
100
AcDbLine
 10
1.248330349392361
 20
-0.3007568359375
 30
0.0
 11
0.4842081705729166
 21
-0.0246324327256944
 31
0.0
  0
ENDBLK
  5
60E
330
604
100
AcDbEntity
  8
0
100
AcDbBlockEnd
  0
BLOCK
  5
611
330
60F
100
AcDbEntity
  8
0
 62
     7
100
AcDbBlockBegin
  2
AI9-BLK147
 70
     0
 10
0.0
 20
0.0
 30
0.0
  3
AI9-BLK147
  1

  4

  0
LWPOLYLINE
  5
613
330
60F
100
AcDbEntity
  8
TIE_PLATE
 62
     7
100
AcDbPolyline
 90
        4
 70
     1
 43
0.0
 10
0.6092651367187499
 20
-0.0723470052083333
 10
-1.18907470703125
 20
0.5777425130208332
 10
-1.189763726128472
 20
0.1836235894097222
 10
0.9341376410590278
 20
-0.5777425130208332
  0
LINE
  5
612
330
60F
100
AcDbEntity
  8
TIE_PLATE
 62
     7
100
AcDbLine
 10
1.189763726128472
 20
-0.2819810655381944
 30
0.0
 11
0.4611260308159722
 21
-0.018603515625
 31
0.0
  0
ENDBLK
  5
619
330
60F
100
AcDbEntity
  8
0
100
AcDbBlockEnd
  0
BLOCK
  5
61C
330
61A
100
AcDbEntity
  8
0
 62
     7
100
AcDbBlockBegin
  2
AI9-BLK148
 70
     0
 10
0.0
 20
0.0
 30
0.0
  3
AI9-BLK148
  1

  4

  0
LWPOLYLINE
  5
61E
330
61A
100
AcDbEntity
  8
TIE_PLATE
 62
     7
100
AcDbPolyline
 90
        4
 70
     1
 43
0.0
 10
0.5792928059895833
 20
-0.0639065212673611
 10
-1.131197102864583
 20
0.5543158637152778
 10
-1.131886121961806
 20
0.1700154622395833
 10
0.888662380642361
 20
-0.5543158637152778
  0
LINE
  5
61D
330
61A
100
AcDbEntity
  8
TIE_PLATE
 62
     7
100
AcDbLine
 10
0.4383884006076388
 20
-0.0130913628472222
 30
0.0
 11
1.131886121961806
 21
-0.2637220594618056
 31
0.0
  0
ENDBLK
  5
624
330
61A
100
AcDbEntity
  8
0
100
AcDbBlockEnd
  0
BLOCK
  5
627
330
625
100
AcDbEntity
  8
0
 62
     7
100
AcDbBlockBegin
  2
AI9-BLK149
 70
     0
 10
0.0
 20
0.0
 30
0.0
  3
AI9-BLK149
  1

  4

  0
LWPOLYLINE
  5
629
330
625
100
AcDbEntity
  8
TIE_PLATE
 62
     7
100
AcDbPolyline
 90
        4
 70
     1
 43
0.0
 10
0.5524210611979166
 20
-0.0567579481336805
 10
-1.079176161024305
 20
0.5332146538628472
 10
-1.079520670572917
 20
0.1578715006510417
 10
0.84801025390625
 20
-0.5332146538628472
  0
LINE
  5
628
330
625
100
AcDbEntity
  8
TIE_PLATE
 62
     7
100
AcDbLine
 10
1.079520670572917
 20
-0.2470994737413194
 30
0.0
 11
0.4180623372395833
 21
-0.0078375922309028
 31
0.0
  0
ENDBLK
  5
62F
330
625
100
AcDbEntity
  8
0
100
AcDbBlockEnd
  0
BLOCK
  5
632
330
630
100
AcDbEntity
  8
0
 62
     7
100
AcDbBlockBegin
  2
AI9-BLK150
 70
     0
 10
0.0
 20
0.0
 30
0.0
  3
AI9-BLK150
  1

  4

  0
LWPOLYLINE
  5
634
330
630
100
AcDbEntity
  8
TIE_PLATE
 62
     7
100
AcDbPolyline
 90
        4
 70
     1
 43
0.0
 10
0.5276163736979166
 20
-0.0499538845486111
 10
-1.03094482421875
 20
0.5133192274305555
 10
-1.03094482421875
 20
0.1465888129340278
 10
0.8097696940104165
 20
-0.5133192274305555
  0
LINE
  5
633
330
630
100
AcDbEntity
  8
TIE_PLATE
 62
     7
100
AcDbLine
 10
1.03094482421875
 20
-0.2316826714409722
 30
0.0
 11
0.3991143120659722
 21
-0.0032728407118056
 31
0.0
  0
ENDBLK
  5
63A
330
630
100
AcDbEntity
  8
0
100
AcDbBlockEnd
  0
BLOCK
  5
63D
330
63B
100
AcDbEntity
  8
0
 62
     7
100
AcDbBlockBegin
  2
AI9-BLK151
 70
     0
 10
0.0
 20
0.0
 30
0.0
  3
AI9-BLK151
  1

  4

  0
LWPOLYLINE
  5
63F
330
63B
100
AcDbEntity
  8
TIE_PLATE
 62
     7
100
AcDbPolyline
 90
        4
 70
     1
 43
0.0
 10
0.6240790473090278
 20
-0.0816487630208333
 10
-1.21697998046875
 20
0.5963460286458333
 10
-1.217668999565972
 20
0.1980929904513889
 10
0.9561862521701388
 20
-0.5963460286458333
  0
LINE
  5
63E
330
63B
100
AcDbEntity
  8
TIE_PLATE
 62
     7
100
AcDbLine
 10
1.217668999565972
 20
-0.3004123263888889
 30
0.0
 11
0.4721503363715278
 21
-0.0258382161458333
 31
0.0
  0
ENDBLK
  5
645
330
63B
100
AcDbEntity
  8
0
100
AcDbBlockEnd
  0
BLOCK
  5
648
330
646
100
AcDbEntity
  8
0
 62
     7
100
AcDbBlockBegin
  2
AI9-BLK152
 70
     0
 10
0.0
 20
0.0
 30
0.0
  3
AI9-BLK152
  1

  4

  0
LWPOLYLINE
  5
64A
330
646
100
AcDbEntity
  8
TIE_PLATE
 62
     7
100
AcDbPolyline
 90
        4
 70
     1
 43
0.0
 10
0.5946234809027777
 20
-0.0733805338541667
 10
-1.160308159722222
 20
0.5732638888888888
 10
-1.160997178819444
 20
0.18448486328125
 10
0.9122612847222221
 20
-0.5732638888888888
  0
LINE
  5
649
330
646
100
AcDbEntity
  8
TIE_PLATE
 62
     7
100
AcDbLine
 10
0.4499294704861111
 20
-0.02015380859375
 30
0.0
 11
1.160997178819444
 21
-0.2821533203125
 31
0.0
  0
ENDBLK
  5
650
330
646
100
AcDbEntity
  8
0
100
AcDbBlockEnd
  0
BLOCK
  5
653
330
651
100
AcDbEntity
  8
0
 62
     7
100
AcDbBlockBegin
  2
AI9-BLK153
 70
     0
 10
0.0
 20
0.0
 30
0.0
  3
AI9-BLK153
  1

  4

  0
LWPOLYLINE
  5
655
330
651
100
AcDbEntity
  8
TIE_PLATE
 62
     7
100
AcDbPolyline
 90
        4
 70
     1
 43
0.0
 10
0.56585693359375
 20
-0.0652845594618055
 10
-1.105014377170139
 20
0.55035400390625
 10
-1.10535888671875
 20
0.1708767361111111
 10
0.8683363172743055
 20
-0.55035400390625
  0
LINE
  5
654
330
651
100
AcDbEntity
  8
TIE_PLATE
 62
     7
100
AcDbLine
 10
0.4283976236979166
 20
-0.0144694010416667
 30
0.0
 11
1.10535888671875
 21
-0.2640665690104166
 31
0.0
  0
ENDBLK
  5
65B
330
651
100
AcDbEntity
  8
0
100
AcDbBlockEnd
  0
BLOCK
  5
65E
330
65C
100
AcDbEntity
  8
0
 62
     7
100
AcDbBlockBegin
  2
AI9-BLK154
 70
     0
 10
0.0
 20
0.0
 30
0.0
  3
AI9-BLK154
  1

  4

  0
LWPOLYLINE
  5
660
330
65C
100
AcDbEntity
  8
TIE_PLATE
 62
     7
100
AcDbPolyline
 90
        4
 70
     1
 43
0.0
 10
0.5400187174479166
 20
-0.0578776041666667
 10
-1.054715983072917
 20
0.5295111762152778
 10
-1.055060492621528
 20
0.1588189019097222
 10
0.8287177191840277
 20
-0.5295111762152778
  0
LINE
  5
65F
330
65C
100
AcDbEntity
  8
TIE_PLATE
 62
     7
100
AcDbLine
 10
1.055060492621528
 20
-0.2477023654513889
 30
0.0
 11
0.4080715603298611
 21
-0.0094740125868056
 31
0.0
  0
ENDBLK
  5
666
330
65C
100
AcDbEntity
  8
0
100
AcDbBlockEnd
  0
BLOCK
  5
669
330
667
100
AcDbEntity
  8
0
 62
     7
100
AcDbBlockBegin
  2
AI9-BLK155
 70
     0
 10
0.0
 20
0.0
 30
0.0
  3
AI9-BLK155
  1

  4

  0
LWPOLYLINE
  5
66B
330
667
100
AcDbEntity
  8
TIE_PLATE
 62
     7
100
AcDbPolyline
 90
        4
 70
     1
 43
0.0
 10
0.6395819769965278
 20
-0.0915534125434028
 10
-1.246952311197917
 20
0.6164137098524305
 10
-1.24798583984375
 20
0.2133375379774306
 10
0.9799574110243055
 20
-0.6164137098524305
  0
LINE
  5
66A
330
667
100
AcDbEntity
  8
TIE_PLATE
 62
     7
100
AcDbLine
 10
1.24798583984375
 20
-0.320135498046875
 30
0.0
 11
0.4842081705729166
 21
-0.033331298828125
 31
0.0
  0
ENDBLK
  5
671
330
667
100
AcDbEntity
  8
0
100
AcDbBlockEnd
  0
BLOCK
  5
674
330
672
100
AcDbEntity
  8
0
 62
     7
100
AcDbBlockBegin
  2
AI9-BLK156
 70
     0
 10
0.0
 20
0.0
 30
0.0
  3
AI9-BLK156
  1

  4

  0
LWPOLYLINE
  5
676
330
672
100
AcDbEntity
  8
TIE_PLATE
 62
     7
100
AcDbPolyline
 90
        4
 70
     1
 43
0.0
 10
0.6092651367187499
 20
-0.0826822916666667
 10
-1.188730197482639
 20
0.5922119140625
 10
-1.189419216579861
 20
0.1986097547743055
 10
0.9341376410590278
 20
-0.5922119140625
  0
LINE
  5
675
330
672
100
AcDbEntity
  8
TIE_PLATE
 62
     7
100
AcDbLine
 10
0.4611260308159722
 20
-0.0272162543402778
 30
0.0
 11
1.189419216579861
 21
-0.3004123263888889
 31
0.0
  0
ENDBLK
  5
67C
330
672
100
AcDbEntity
  8
0
100
AcDbBlockEnd
  0
BLOCK
  5
67F
330
67D
100
AcDbEntity
  8
0
 62
     7
100
AcDbBlockBegin
  2
AI9-BLK157
 70
     0
 10
0.0
 20
0.0
 30
0.0
  3
AI9-BLK157
  1

  4

  0
LWPOLYLINE
  5
681
330
67D
100
AcDbEntity
  8
TIE_PLATE
 62
     7
100
AcDbPolyline
 90
        4
 70
     1
 43
0.0
 10
0.5794650607638888
 20
-0.0740695529513889
 10
-1.131024848090278
 20
0.5680962456597222
 10
-1.131369357638889
 20
0.1841403537326389
 10
0.8884901258680554
 20
-0.5680962456597222
  0
LINE
  5
680
330
67D
100
AcDbEntity
  8
TIE_PLATE
 62
     7
100
AcDbLine
 10
1.131369357638889
 20
-0.2812920464409722
 30
0.0
 11
0.4382161458333333
 21
-0.0210150824652778
 31
0.0
  0
ENDBLK
  5
687
330
67D
100
AcDbEntity
  8
0
100
AcDbBlockEnd
  0
BLOCK
  5
68A
330
688
100
AcDbEntity
  8
0
 62
     7
100
AcDbBlockBegin
  2
AI9-BLK158
 70
     0
 10
0.0
 20
0.0
 30
0.0
  3
AI9-BLK158
  1

  4

  0
LWPOLYLINE
  5
68C
330
688
100
AcDbEntity
  8
TIE_PLATE
 62
     7
100
AcDbPolyline
 90
        4
 70
     1
 43
0.0
 10
0.5522488064236111
 20
-0.0660597059461805
 10
-1.07900390625
 20
0.5463060167100694
 10
-1.079348415798611
 20
0.1714796278211805
 10
0.8474934895833333
 20
-0.5463060167100694
  0
LINE
  5
68B
330
688
100
AcDbEntity
  8
TIE_PLATE
 62
     7
100
AcDbLine
 10
0.4178900824652778
 20
-0.0155890570746528
 30
0.0
 11
1.079348415798611
 21
-0.2638081868489583
 31
0.0
  0
ENDBLK
  5
692
330
688
100
AcDbEntity
  8
0
100
AcDbBlockEnd
  0
BLOCK
  5
695
330
693
100
AcDbEntity
  8
0
 62
     7
100
AcDbBlockBegin
  2
AI9-BLK159
 70
     0
 10
0.0
 20
0.0
 30
0.0
  3
AI9-BLK159
  1

  4

  0
LWPOLYLINE
  5
697
330
693
100
AcDbEntity
  8
TIE_PLATE
 62
     7
100
AcDbPolyline
 90
        4
 70
     1
 43
0.0
 10
0.5274441189236111
 20
-0.0589972601996528
 10
-1.030772569444444
 20
0.5258076985677083
 10
-1.030772569444444
 20
0.1594217936197916
 10
0.8095974392361111
 20
-0.5258076985677083
  0
LINE
  5
696
330
693
100
AcDbEntity
  8
TIE_PLATE
 62
     7
100
AcDbLine
 10
1.030772569444444
 20
-0.2477884928385417
 30
0.0
 11
0.3989420572916667
 21
-0.0107659233940972
 31
0.0
  0
ENDBLK
  5
69D
330
693
100
AcDbEntity
  8
0
100
AcDbBlockEnd
  0
BLOCK
  5
6A0
330
69E
100
AcDbEntity
  8
0
 62
     7
100
AcDbBlockBegin
  2
AI9-BLK160
 70
     0
 10
0.0
 20
0.0
 30
0.0
  3
AI9-BLK160
  1

  4

  0
LWPOLYLINE
  5
6A2
330
69E
100
AcDbEntity
  8
TIE_PLATE
 62
     7
100
AcDbPolyline
 90
        4
 70
     1
 43
0.0
 10
0.6239067925347221
 20
-0.092242431640625
 10
-1.216463216145833
 20
0.6114183213975694
 10
-1.217496744791667
 20
0.213165283203125
 10
0.9560139973958333
 20
-0.6114183213975694
  0
LINE
  5
6A1
330
69E
100
AcDbEntity
  8
TIE_PLATE
 62
     7
100
AcDbLine
 10
1.217496744791667
 20
-0.3192742241753472
 30
0.0
 11
0.4723225911458333
 21
-0.0343648274739583
 31
0.0
  0
ENDBLK
  5
6A8
330
69E
100
AcDbEntity
  8
0
100
AcDbBlockEnd
  0
BLOCK
  5
6AB
330
6A9
100
AcDbEntity
  8
0
 62
     7
100
AcDbBlockBegin
  2
AI9-BLK161
 70
     0
 10
0.0
 20
0.0
 30
0.0
  3
AI9-BLK161
  1

  4

  0
LWPOLYLINE
  5
6AD
330
6A9
100
AcDbEntity
  8
TIE_PLATE
 62
     7
100
AcDbPolyline
 90
        4
 70
     1
 43
0.0
 10
0.5942789713541666
 20
-0.0833713107638889
 10
-1.159963650173611
 20
0.5875610351562499
 10
-1.160652669270833
 20
0.1987820095486111
 10
0.911916775173611
 20
-0.5875610351562499
  0
LINE
  5
6AC
330
6A9
100
AcDbEntity
  8
TIE_PLATE
 62
     7
100
AcDbLine
 10
0.4499294704861111
 20
-0.0280775282118056
 30
0.0
 11
1.160652669270833
 21
-0.3000678168402777
 31
0.0
  0
ENDBLK
  5
6B3
330
6A9
100
AcDbEntity
  8
0
100
AcDbBlockEnd
  0
BLOCK
  5
6B6
330
6B4
100
AcDbEntity
  8
0
 62
     7
100
AcDbBlockBegin
  2
AI9-BLK162
 70
     0
 10
0.0
 20
0.0
 30
0.0
  3
AI9-BLK162
  1

  4

  0
LWPOLYLINE
  5
6B8
330
6B4
100
AcDbEntity
  8
TIE_PLATE
 62
     7
100
AcDbPolyline
 90
        4
 70
     1
 43
0.0
 10
0.5656846788194444
 20
-0.0747585720486111
 10
-1.104842122395833
 20
0.5639621310763888
 10
-1.105186631944444
 20
0.1846571180555555
 10
0.8681640624999999
 20
-0.5639621310763888
  0
LINE
  5
6B7
330
6B4
100
AcDbEntity
  8
TIE_PLATE
 62
     7
100
AcDbLine
 10
1.105186631944444
 20
-0.2809475368923611
 30
0.0
 11
0.4282253689236111
 21
-0.0222208658854167
 31
0.0
  0
ENDBLK
  5
6BE
330
6B4
100
AcDbEntity
  8
0
100
AcDbBlockEnd
  0
BLOCK
  5
6C1
330
6BF
100
AcDbEntity
  8
0
 62
     7
100
AcDbBlockBegin
  2
AI9-BLK163
 70
     0
 10
0.0
 20
0.0
 30
0.0
  3
AI9-BLK163
  1

  4

  0
LWPOLYLINE
  5
6C3
330
6BF
100
AcDbEntity
  8
TIE_PLATE
 62
     7
100
AcDbPolyline
 90
        4
 70
     1
 43
0.0
 10
0.539846462673611
 20
-0.0670932345920139
 10
-1.054543728298611
 20
0.5425164116753471
 10
-1.054888237847222
 20
0.1718241373697917
 10
0.8285454644097221
 20
-0.5425164116753471
  0
LINE
  5
6C2
330
6BF
100
AcDbEntity
  8
TIE_PLATE
 62
     7
100
AcDbLine
 10
0.4078993055555555
 20
-0.0169670952690972
 30
0.0
 11
1.054888237847222
 21
-0.2641526963975694
 31
0.0
  0
ENDBLK
  5
6C9
330
6BF
100
AcDbEntity
  8
0
100
AcDbBlockEnd
  0
BLOCK
  5
6CC
330
6CA
100
AcDbEntity
  8
0
 62
     7
100
AcDbBlockBegin
  2
AI9-BLK164
 70
     0
 10
0.0
 20
0.0
 30
0.0
  3
AI9-BLK164
  1

  4

  0
LWPOLYLINE
  5
6CE
330
6CA
100
AcDbEntity
  8
TIE_PLATE
 62
     7
100
AcDbPolyline
 90
        4
 70
     1
 43
0.0
 10
0.6392374674479167
 20
-0.1024054633246528
 10
-1.246607801649305
 20
0.6317443847656249
 10
-1.247641330295139
 20
0.228668212890625
 10
0.9796129014756944
 20
-0.6317443847656249
  0
LINE
  5
6CD
330
6CA
100
AcDbEntity
  8
TIE_PLATE
 62
     7
100
AcDbLine
 10
0.4838636610243055
 20
-0.0419440375434028
 30
0.0
 11
1.247641330295139
 21
-0.3392557779947916
 31
0.0
  0
ENDBLK
  5
6D4
330
6CA
100
AcDbEntity
  8
0
100
AcDbBlockEnd
  0
BLOCK
  5
6D7
330
6D5
100
AcDbEntity
  8
0
 62
     7
100
AcDbBlockBegin
  2
AI9-BLK165
 70
     0
 10
0.0
 20
0.0
 30
0.0
  3
AI9-BLK165
  1

  4

  0
LWPOLYLINE
  5
6D9
330
6D5
100
AcDbEntity
  8
TIE_PLATE
 62
     7
100
AcDbPolyline
 90
        4
 70
     1
 43
0.0
 10
0.6092651367187499
 20
-0.0929314507378472
 10
-1.188385687934028
 20
0.6069396972656249
 10
-1.18907470703125
 20
0.2133375379774306
 10
0.9337931315104165
 20
-0.6069396972656249
  0
LINE
  5
6D8
330
6D5
100
AcDbEntity
  8
TIE_PLATE
 62
     7
100
AcDbLine
 10
0.4611260308159722
 20
-0.0350538465711806
 30
0.0
 11
1.18907470703125
 21
-0.318585205078125
 31
0.0
  0
ENDBLK
  5
6DF
330
6D5
100
AcDbEntity
  8
0
100
AcDbBlockEnd
  0
BLOCK
  5
6E2
330
6E0
100
AcDbEntity
  8
0
 62
     7
100
AcDbBlockBegin
  2
AI9-BLK166
 70
     0
 10
0.0
 20
0.0
 30
0.0
  3
AI9-BLK166
  1

  4

  0
LWPOLYLINE
  5
6E4
330
6E0
100
AcDbEntity
  8
TIE_PLATE
 62
     7
100
AcDbPolyline
 90
        4
 70
     1
 43
0.0
 10
0.5792928059895833
 20
-0.0836296929253472
 10
-1.130508083767361
 20
0.5821350097656249
 10
-1.131197102864583
 20
0.1981791178385416
 10
0.8883178710937499
 20
-0.5821350097656249
  0
LINE
  5
6E3
330
6E0
100
AcDbEntity
  8
TIE_PLATE
 62
     7
100
AcDbLine
 10
0.4383884006076388
 20
-0.028680419921875
 30
0.0
 11
1.131197102864583
 21
-0.2986036512586806
 31
0.0
  0
ENDBLK
  5
6EA
330
6E0
100
AcDbEntity
  8
0
100
AcDbBlockEnd
  0
BLOCK
  5
6ED
330
6EB
100
AcDbEntity
  8
0
 62
     7
100
AcDbBlockBegin
  2
AI9-BLK167
 70
     0
 10
0.0
 20
0.0
 30
0.0
  3
AI9-BLK167
  1

  4

  0
LWPOLYLINE
  5
6EF
330
6EB
100
AcDbEntity
  8
TIE_PLATE
 62
     7
100
AcDbPolyline
 90
        4
 70
     1
 43
0.0
 10
0.5522488064236111
 20
-0.0753614637586806
 10
-1.078659396701389
 20
0.5597418891059027
 10
-1.07900390625
 20
0.1849155002170139
 10
0.8474934895833333
 20
-0.5597418891059027
  0
LINE
  5
6EE
330
6EB
100
AcDbEntity
  8
TIE_PLATE
 62
     7
100
AcDbLine
 10
0.4178900824652778
 20
-0.0228237575954861
 30
0.0
 11
1.07900390625
 21
-0.2803446451822916
 31
0.0
  0
ENDBLK
  5
6F5
330
6EB
100
AcDbEntity
  8
0
100
AcDbBlockEnd
  0
BLOCK
  5
6F8
330
6F6
100
AcDbEntity
  8
0
 62
     7
100
AcDbBlockBegin
  2
AI9-BLK168
 70
     0
 10
0.0
 20
0.0
 30
0.0
  3
AI9-BLK168
  1

  4

  0
LWPOLYLINE
  5
6FA
330
6F6
100
AcDbEntity
  8
TIE_PLATE
 62
     7
100
AcDbPolyline
 90
        4
 70
     1
 43
0.0
 10
0.5272718641493055
 20
-0.0678683810763889
 10
-1.030255805121528
 20
0.5386406792534721
 10
-1.030600314670139
 20
0.1722547743055556
 10
0.8094251844618055
 20
-0.5386406792534721
  0
LINE
  5
6F9
330
6F6
100
AcDbEntity
  8
TIE_PLATE
 62
     7
100
AcDbLine
 10
1.030600314670139
 20
-0.2637220594618056
 30
0.0
 11
0.3987698025173611
 21
-0.0177422417534722
 31
0.0
  0
ENDBLK
  5
700
330
6F6
100
AcDbEntity
  8
0
100
AcDbBlockEnd
  0
BLOCK
  5
703
330
701
100
AcDbEntity
  8
0
 62
     7
100
AcDbBlockBegin
  2
AI9-BLK169
 70
     0
 10
0.0
 20
0.0
 30
0.0
  3
AI9-BLK169
  1

  4

  0
LWPOLYLINE
  5
705
330
701
100
AcDbEntity
  8
TIE_PLATE
 62
     7
100
AcDbPolyline
 90
        4
 70
     1
 43
0.0
 10
0.6237345377604167
 20
-0.1028361002604167
 10
-1.216290961371528
 20
0.6263183593749999
 10
-1.21697998046875
 20
0.2284098307291667
 10
0.9558417426215277
 20
-0.6263183593749999
  0
LINE
  5
704
330
701
100
AcDbEntity
  8
TIE_PLATE
 62
     7
100
AcDbLine
 10
0.4721503363715278
 20
-0.0428914388020833
 30
0.0
 11
1.21697998046875
 21
-0.3379638671875
 31
0.0
  0
ENDBLK
  5
70B
330
701
100
AcDbEntity
  8
0
100
AcDbBlockEnd
  0
BLOCK
  5
70E
330
70C
100
AcDbEntity
  8
0
 62
     7
100
AcDbBlockBegin
  2
AI9-BLK170
 70
     0
 10
0.0
 20
0.0
 30
0.0
  3
AI9-BLK170
  1

  4

  0
LWPOLYLINE
  5
710
330
70C
100
AcDbEntity
  8
TIE_PLATE
 62
     7
100
AcDbPolyline
 90
        4
 70
     1
 43
0.0
 10
0.5942789713541666
 20
-0.0934482150607639
 10
-1.159963650173611
 20
0.6017720540364583
 10
-1.160308159722222
 20
0.2133375379774306
 10
0.9115722656249999
 20
-0.6017720540364583
  0
LINE
  5
70F
330
70C
100
AcDbEntity
  8
TIE_PLATE
 62
     7
100
AcDbLine
 10
1.160308159722222
 20
-0.3178961859809028
 30
0.0
 11
0.4495849609374999
 21
-0.0362596299913194
 31
0.0
  0
ENDBLK
  5
716
330
70C
100
AcDbEntity
  8
0
100
AcDbBlockEnd
  0
BLOCK
  5
719
330
717
100
AcDbEntity
  8
0
 62
     7
100
AcDbBlockBegin
  2
AI9-BLK171
 70
     0
 10
0.0
 20
0.0
 30
0.0
  3
AI9-BLK171
  1

  4

  0
LWPOLYLINE
  5
71B
330
717
100
AcDbEntity
  8
TIE_PLATE
 62
     7
100
AcDbPolyline
 90
        4
 70
     1
 43
0.0
 10
0.5656846788194444
 20
-0.0844048394097222
 10
-1.104497612847222
 20
0.5775702582465278
 10
-1.104842122395833
 20
0.1984375
 10
0.8678195529513888
 20
-0.5775702582465278
  0
LINE
  5
71A
330
717
100
AcDbEntity
  8
TIE_PLATE
 62
     7
100
AcDbLine
 10
1.104842122395833
 20
-0.2980007595486111
 30
0.0
 11
0.427880859375
 21
-0.0298000759548611
 31
0.0
  0
ENDBLK
  5
721
330
717
100
AcDbEntity
  8
0
100
AcDbBlockEnd
  0
BLOCK
  5
724
330
722
100
AcDbEntity
  8
0
 62
     7
100
AcDbBlockBegin
  2
AI9-BLK172
 70
     0
 10
0.0
 20
0.0
 30
0.0
  3
AI9-BLK172
  1

  4

  0
LWPOLYLINE
  5
726
330
722
100
AcDbEntity
  8
TIE_PLATE
 62
     7
100
AcDbPolyline
 90
        4
 70
     1
 43
0.0
 10
0.539846462673611
 20
-0.0763088650173611
 10
-1.05419921875
 20
0.5555216471354166
 10
-1.054543728298611
 20
0.1850016276041667
 10
0.828200954861111
 20
-0.5555216471354166
  0
LINE
  5
725
330
722
100
AcDbEntity
  8
TIE_PLATE
 62
     7
100
AcDbLine
 10
1.054543728298611
 20
-0.2804307725694444
 30
0.0
 11
0.4078993055555555
 21
-0.0242879231770833
 31
0.0
  0
ENDBLK
  5
72C
330
722
100
AcDbEntity
  8
0
100
AcDbBlockEnd
  0
BLOCK
  5
72F
330
72D
100
AcDbEntity
  8
0
 62
     7
100
AcDbBlockBegin
  2
AI9-BLK173
 70
     0
 10
0.0
 20
0.0
 30
0.0
  3
AI9-BLK173
  1

  4

  0
LWPOLYLINE
  5
731
330
72D
100
AcDbEntity
  8
TIE_PLATE
 62
     7
100
AcDbPolyline
 90
        4
 70
     1
 43
0.0
 10
0.6388929578993055
 20
-0.1132575141059028
 10
-1.246263292100694
 20
0.6470750596788194
 10
-1.247296820746528
 20
0.2443433973524306
 10
0.9792683919270833
 20
-0.6470750596788194
  0
LINE
  5
730
330
72D
100
AcDbEntity
  8
TIE_PLATE
 62
     7
100
AcDbLine
 10
0.4838636610243055
 20
-0.0507290310329861
 30
0.0
 11
1.247296820746528
 21
-0.3585483127170139
 31
0.0
  0
ENDBLK
  5
737
330
72D
100
AcDbEntity
  8
0
100
AcDbBlockEnd
  0
BLOCK
  5
73A
330
738
100
AcDbEntity
  8
0
 62
     7
100
AcDbBlockBegin
  2
AI9-BLK174
 70
     0
 10
0.0
 20
0.0
 30
0.0
  3
AI9-BLK174
  1

  4

  0
LWPOLYLINE
  5
73C
330
738
100
AcDbEntity
  8
TIE_PLATE
 62
     7
100
AcDbPolyline
 90
        4
 70
     1
 43
0.0
 10
0.6089206271701388
 20
-0.1032667371961805
 10
-1.188041178385417
 20
0.6214090983072916
 10
-1.188730197482639
 20
0.2283237033420139
 10
0.9337931315104165
 20
-0.6214090983072916
  0
LINE
  5
73B
330
738
100
AcDbEntity
  8
TIE_PLATE
 62
     7
100
AcDbLine
 10
1.188730197482639
 20
-0.3370164659288194
 30
0.0
 11
0.4611260308159722
 21
-0.0434943305121528
 31
0.0
  0
ENDBLK
  5
742
330
738
100
AcDbEntity
  8
0
100
AcDbBlockEnd
  0
BLOCK
  5
745
330
743
100
AcDbEntity
  8
0
 62
     7
100
AcDbBlockBegin
  2
AI9-BLK175
 70
     0
 10
0.0
 20
0.0
 30
0.0
  3
AI9-BLK175
  1

  4

  0
LWPOLYLINE
  5
747
330
743
100
AcDbEntity
  8
TIE_PLATE
 62
     7
100
AcDbPolyline
 90
        4
 70
     1
 43
0.0
 10
0.5789482964409721
 20
-0.0935343424479167
 10
-1.130508083767361
 20
0.5958292643229166
 10
-1.130852593315972
 20
0.21239013671875
 10
0.8879733615451388
 20
-0.5958292643229166
  0
LINE
  5
746
330
743
100
AcDbEntity
  8
TIE_PLATE
 62
     7
100
AcDbLine
 10
1.130852593315972
 20
-0.3160875108506944
 30
0.0
 11
0.4380438910590278
 21
-0.0366902669270833
 31
0.0
  0
ENDBLK
  5
74D
330
743
100
AcDbEntity
  8
0
100
AcDbBlockEnd
  0
BLOCK
  5
750
330
74E
100
AcDbEntity
  8
0
 62
     7
100
AcDbBlockBegin
  2
AI9-BLK176
 70
     0
 10
0.0
 20
0.0
 30
0.0
  3
AI9-BLK176
  1

  4

  0
LWPOLYLINE
  5
752
330
74E
100
AcDbEntity
  8
TIE_PLATE
 62
     7
100
AcDbPolyline
 90
        4
 70
     1
 43
0.0
 10
0.551904296875
 20
-0.0850077311197917
 10
-1.078659396701389
 20
0.572833251953125
 10
-1.078659396701389
 20
0.1981791178385416
 10
0.8471489800347222
 20
-0.572833251953125
  0
LINE
  5
751
330
74E
100
AcDbEntity
  8
TIE_PLATE
 62
     7
100
AcDbLine
 10
0.4175455729166666
 20
-0.0305752224392361
 30
0.0
 11
1.078659396701389
 21
-0.2972256130642361
 31
0.0
  0
ENDBLK
  5
758
330
74E
100
AcDbEntity
  8
0
100
AcDbBlockEnd
  0
BLOCK
  5
75B
330
759
100
AcDbEntity
  8
0
 62
     7
100
AcDbBlockBegin
  2
AI9-BLK177
 70
     0
 10
0.0
 20
0.0
 30
0.0
  3
AI9-BLK177
  1

  4

  0
LWPOLYLINE
  5
75D
330
759
100
AcDbEntity
  8
TIE_PLATE
 62
     7
100
AcDbPolyline
 90
        4
 70
     1
 43
0.0
 10
0.5272718641493055
 20
-0.0769978841145833
 10
-1.029911295572917
 20
0.5512152777777777
 10
-1.030255805121528
 20
0.1851738823784722
 10
0.8094251844618055
 20
-0.5512152777777777
  0
LINE
  5
75C
330
759
100
AcDbEntity
  8
TIE_PLATE
 62
     7
100
AcDbLine
 10
1.030255805121528
 20
-0.2797417534722222
 30
0.0
 11
0.3987698025173611
 21
-0.0249769422743056
 31
0.0
  0
ENDBLK
  5
763
330
759
100
AcDbEntity
  8
0
100
AcDbBlockEnd
  0
ENDSEC
  0
SECTION
  2
ENTITIES
  0
LWPOLYLINE
  5
97F
330
A
100
AcDbEntity
  8
WOOD
 62
     7
100
AcDbPolyline
 90
        3
 70
     0
 43
0.0
 10
117.3630343967014
 20
94.31879069010415
 10
112.4479166666667
 20
94.54444444444444
 10
112.1833333333333
 20
95.60277777777777
  0
LWPOLYLINE
  5
97A
330
A
100
AcDbEntity
  8
WOOD
 62
     7
100
AcDbPolyline
 90
        3
 70
     0
 43
0.0
 10
111.8543267144097
 20
89.78263346354166
 10
107.4208333333333
 20
89.78194444444443
 10
106.8916666666667
 20
90.84027777777777
  0
LWPOLYLINE
  5
975
330
A
100
AcDbEntity
  8
WOOD
 62
     7
100
AcDbPolyline
 90
        3
 70
     0
 43
0.0
 10
100.80625
 20
85.28402777777777
 10
104.5104166666667
 20
85.5486111111111
 10
105.2159722222222
 20
87.48888888888888
  0
LWPOLYLINE
  5
96F
330
A
100
AcDbEntity
  8
WOOD
 62
     7
100
AcDbPolyline
 90
        4
 70
     0
 43
0.0
 10
110.7722222222222
 20
92.51597222222222
 10
110.2499457465278
 20
91.21131456163194
 10
105.7451388888889
 20
90.66388888888888
 10
100.6298611111111
 20
90.84027777777777
  0
LINE
  5
96E
330
A
100
AcDbEntity
  8
WOOD
 62
     7
100
AcDbLine
 10
111.7423611111111
 20
89.95833333333333
 30
0.0
 11
110.7722222222222
 21
92.51597222222222
 31
0.0
  0
LWPOLYLINE
  5
969
330
A
100
AcDbEntity
  8
WOOD
 62
     7
100
AcDbPolyline
 90
        3
 70
     0
 43
0.0
 10
115.8234212239583
 20
91.88862033420138
 10
112.4451605902778
 20
91.47796495225694
 10
111.7423611111111
 20
89.95833333333333
  0
LWPOLYLINE
  5
963
330
A
100
AcDbEntity
  8
WOOD
 62
     7
100
AcDbPolyline
 90
        4
 70
     0
 43
0.0
 10
116.3284722222222
 20
97.4548611111111
 10
115.5247314453125
 20
95.95211046006943
 10
111.125
 20
95.51458333333332
 10
105.7451388888889
 20
95.60277777777777
  0
LINE
  5
962
330
A
100
AcDbEntity
  8
WOOD
 62
     7
100
AcDbLine
 10
117.2986111111111
 20
94.45625
 30
0.0
 11
116.3284722222222
 21
97.4548611111111
 31
0.0
  0
LWPOLYLINE
  5
95D
330
A
100
AcDbEntity
  8
WOOD
 62
     7
100
AcDbPolyline
 90
        3
 70
     0
 43
0.0
 10
121.0892496744792
 20
96.5060818142361
 10
117.9965874565972
 20
96.19809027777777
 10
117.2986111111111
 20
94.45625
  0
LINE
  5
95C
330
A
100
AcDbEntity
  8
WOOD
 62
     7
100
AcDbLine
 10
146.5254231770833
 20
136.7013888888889
 30
0.0
 11
146.5254231770833
 21
141.382756890191
 31
0.0
  0
LINE
  5
95B
330
A
100
AcDbEntity
  8
WOOD
 62
     7
100
AcDbLine
 10
149.43583984375
 20
136.6131944444445
 30
0.0
 11
149.43583984375
 21
140.7583333333333
 31
0.0
  0
LINE
  5
95A
330
A
100
AcDbEntity
  8
WOOD
 62
     7
100
AcDbLine
 10
142.6138617621528
 20
136.4057996961805
 30
0.0
 11
119.968123119047
 21
135.172801468814
 31
0.0
  0
LWPOLYLINE
  5
955
330
A
100
AcDbEntity
  8
WOOD
 62
     7
100
AcDbPolyline
 90
        3
 70
     0
 43
0.0
 10
152.9246880425347
 20
135.7929172092014
 10
149.4895833333333
 20
136.7895833333333
 10
142.4374728732639
 20
136.4057996961805
  0
LINE
  5
954
330
A
100
AcDbEntity
  8
WOOD
 62
     7
100
AcDbLine
 10
142.5559841579861
 20
142.5167100694444
 30
0.0
 11
119.6798611111111
 21
140.7583333333333
 31
0.0
  0
LINE
  5
953
330
A
100
AcDbEntity
  8
WOOD
 62
     7
100
AcDbLine
 10
62.0273939344618
 20
131.6770616319444
 30
0.0
 11
57.25645345052083
 21
131.4104112413194
 31
0.0
  0
LINE
  5
952
330
A
100
AcDbEntity
  8
WOOD
 62
     7
100
AcDbLine
 10
85.86141353183925
 20
133.2613541011311
 30
0.0
 11
61.968310546875
 21
131.6181504991319
 31
0.0
  0
LINE
  5
951
330
A
100
AcDbEntity
  8
WOOD
 62
     7
100
AcDbLine
 10
113.0769911024305
 20
159.3012152777778
 30
0.0
 11
115.593015323962
 21
158.4013837402388
 31
0.0
  0
LWPOLYLINE
  5
94C
330
A
100
AcDbEntity
  8
WOOD
 62
     7
100
AcDbPolyline
 90
        3
 70
     0
 43
0.0
 10
86.25761176215276
 20
167.9528835720486
 10
88.20064561631943
 20
168.1976576063368
 10
113.0769911024305
 20
159.3012152777778
  0
LINE
  5
94B
330
A
100
AcDbEntity
  8
WOOD
 62
     7
100
AcDbLine
 10
80.42506510416666
 20
194.5228379991319
 30
0.0
 11
74.4297376844618
 21
193.3096476236979
 31
0.0
  0
LINE
  5
94A
330
A
100
AcDbEntity
  8
WOOD
 62
     7
100
AcDbLine
 10
81.47823079427083
 20
198.0060017903646
 30
0.0
 11
76.04979383680555
 21
196.7118516710069
 31
0.0
  0
LWPOLYLINE
  5
941
330
A
100
AcDbEntity
  8
WOOD
 62
     7
100
AcDbPolyline
 90
        7
 70
     0
 43
0.0
 10
88.76770833333333
 20
202.9491970486111
 10
83.34874538845486
 20
197.4330824110243
 10
81.55919053819444
 20
198.0060017903646
 10
82.36930474175347
 20
194.2797865125868
 10
80.49792887369792
 20
194.5309339735243
 10
75.07896592881944
 20
189.0144748263889
 10
69.00233425564235
 20
187.8822441948785
  0
SPLINE
  5
940
330
A
100
AcDbEntity
  8
WOOD
 62
     7
100
AcDbSpline
210
0.0
220
0.0
230
1.0
 70
     8
 71
     3
 72
    20
 73
    16
 74
     0
 42
0.0000000001
 43
0.0000000001
 40
0.0
 40
0.0
 40
0.0
 40
0.0
 40
1.0
 40
1.0
 40
1.0
 40
2.0
 40
2.0
 40
2.0
 40
3.0
 40
3.0
 40
3.0
 40
4.0
 40
4.0
 40
4.0
 40
5.0
 40
5.0
 40
5.0
 40
5.0
 10
78.56212972005207
 20
185.1261678059896
 30
0.0
 10
78.56212972005207
 20
185.1261678059896
 30
0.0
 10
83.72581108940972
 20
190.5730360243055
 30
0.0
 10
83.72581108940972
 20
190.5730360243055
 30
0.0
 10
83.72581108940972
 20
190.5730360243055
 30
0.0
 10
86.17665201822916
 20
191.039501953125
 30
0.0
 10
86.17665201822916
 20
191.039501953125
 30
0.0
 10
86.17665201822916
 20
191.039501953125
 30
0.0
 10
85.60958930121527
 20
193.955775282118
 30
0.0
 10
85.60958930121527
 20
193.955775282118
 30
0.0
 10
85.60958930121527
 20
193.955775282118
 30
0.0
 10
87.39242621527777
 20
194.4410169813368
 30
0.0
 10
87.39225396050347
 20
194.4410169813368
 30
0.0
 10
87.39225396050347
 20
194.4410169813368
 30
0.0
 10
91.84693467881944
 20
199.1401272243923
 30
0.0
 10
91.84693467881944
 20
199.1401272243923
 30
0.0
  0
SPLINE
  5
93F
330
A
100
AcDbEntity
  8
WOOD
 62
     7
100
AcDbSpline
210
0.0
220
0.0
230
1.0
 70
     8
 71
     3
 72
     8
 73
     4
 74
     0
 42
0.0000000001
 43
0.0000000001
 40
0.0
 40
0.0
 40
0.0
 40
0.0
 40
1.0
 40
1.0
 40
1.0
 40
1.0
 10
90.63184950086804
 20
195.0897284613715
 30
0.0
 10
90.63202175564236
 20
195.0897284613715
 30
0.0
 10
85.60958930121527
 20
193.955775282118
 30
0.0
 10
85.60958930121527
 20
193.955775282118
 30
0.0
  0
LINE
  5
93E
330
A
100
AcDbEntity
  8
WOOD
 62
     7
100
AcDbLine
 10
89.33580457899305
 20
191.6065646701389
 30
0.0
 11
83.72581108940972
 21
190.5730360243055
 31
0.0
  0
LINE
  5
93D
330
A
100
AcDbEntity
  8
WOOD
 62
     7
100
AcDbLine
 10
75.07896592881944
 20
189.0144748263889
 30
0.0
 11
95.4923624674479
 21
165.6036729600694
 31
0.0
  0
LWPOLYLINE
  5
934
330
A
100
AcDbEntity
  8
WOOD
 62
     7
100
AcDbPolyline
 90
        7
 70
     0
 43
0.0
 10
97.19234483506943
 20
200.2761474609375
 10
92.14338514539929
 20
194.7143853081597
 10
90.71298149956597
 20
195.0897284613715
 10
91.44196370442708
 20
191.2015936957465
 10
89.32788085937499
 20
191.6131103515625
 10
84.39450412326389
 20
186.1791612413194
 10
78.48116997612847
 20
185.045208062066
  0
LWPOLYLINE
  5
92C
330
A
100
AcDbEntity
  8
WOOD
 62
     7
100
AcDbPolyline
 90
        6
 70
     0
 43
0.0
 10
100.1084459092882
 20
196.2257486979167
 10
96.2054972330729
 20
191.7014770507812
 10
93.79117431640624
 20
191.1204616970486
 10
94.35806477864583
 20
187.8803493923611
 10
92.64102918836805
 20
187.5696017795139
 10
87.87766791449651
 20
182.0479749891493
  0
LINE
  5
92B
330
A
100
AcDbEntity
  8
WOOD
 62
     7
100
AcDbLine
 10
98.16541205512152
 20
188.447412109375
 30
0.0
 11
92.64102918836805
 21
187.5696017795139
 31
0.0
  0
LINE
  5
92A
330
A
100
AcDbEntity
  8
WOOD
 62
     7
100
AcDbLine
 10
99.3804972330729
 20
192.1736273871528
 30
0.0
 11
93.79117431640624
 21
191.1204616970486
 31
0.0
  0
LINE
  5
929
330
A
100
AcDbEntity
  8
WOOD
 62
     7
100
AcDbLine
 10
84.39450412326389
 20
186.1791612413194
 30
0.0
 11
104.1602227105035
 21
162.5254801432292
 31
0.0
  0
LWPOLYLINE
  5
920
330
A
100
AcDbEntity
  8
WOOD
 62
     7
100
AcDbPolyline
 90
        7
 70
     0
 43
0.0
 10
105.9408203125
 20
197.440833875868
 10
101.0625651041667
 20
191.785881890191
 10
99.3804972330729
 20
192.1736273871528
 10
100.1904391818576
 20
188.1234008789062
 10
98.14043511284721
 20
188.3988362630208
 10
93.71004231770833
 20
183.2630601671007
 10
87.87766791449651
 20
182.0479749891493
  0
LINE
  5
91F
330
A
100
AcDbEntity
  8
WOOD
 62
     7
100
AcDbLine
 10
99.3804972330729
 20
192.1736273871528
 30
0.0
 11
101.0625651041667
 21
191.785881890191
 31
0.0
  0
LINE
  5
91E
330
A
100
AcDbEntity
  8
WOOD
 62
     7
100
AcDbLine
 10
89.32788085937499
 20
191.6131103515625
 30
0.0
 11
91.44196370442708
 21
191.2015936957465
 31
0.0
  0
LINE
  5
91D
330
A
100
AcDbEntity
  8
WOOD
 62
     7
100
AcDbLine
 10
90.71298149956597
 20
195.0897284613715
 30
0.0
 11
92.14338514539929
 21
194.7143853081597
 31
0.0
  0
LINE
  5
91C
330
A
100
AcDbEntity
  8
WOOD
 62
     7
100
AcDbLine
 10
81.55919053819444
 20
198.0060017903646
 30
0.0
 11
83.34874538845486
 21
197.4330824110243
 31
0.0
  0
LINE
  5
91B
330
A
100
AcDbEntity
  8
WOOD
 62
     7
100
AcDbLine
 10
80.49792887369792
 20
194.5309339735243
 30
0.0
 11
82.36930474175347
 21
194.2797865125868
 31
0.0
  0
LINE
  5
91A
330
A
100
AcDbEntity
  8
WOOD
 62
     7
100
AcDbLine
 10
83.66534966362846
 20
201.7322170681424
 30
0.0
 11
79.53399115668402
 21
198.2490532769097
 31
0.0
  0
LINE
  5
919
330
A
100
AcDbEntity
  8
WOOD
 62
     7
100
AcDbLine
 10
84.71834309895833
 20
201.9752685546875
 30
0.0
 11
79.45303141276041
 21
197.6010308159722
 31
0.0
  0
LINE
  5
918
330
A
100
AcDbEntity
  8
WOOD
 62
     7
100
AcDbLine
 10
86.01456027560764
 20
202.2183200412326
 30
0.0
 11
80.34410536024305
 21
197.8440823025173
 31
0.0
  0
LWPOLYLINE
  5
913
330
A
100
AcDbEntity
  8
WOOD
 62
     7
100
AcDbPolyline
 90
        3
 70
     0
 43
0.0
 10
87.1485134548611
 20
202.5423312717014
 10
81.23517930772569
 20
197.925042046441
 10
81.80224202473957
 20
194.3607462565104
  0
LINE
  5
912
330
A
100
AcDbEntity
  8
WOOD
 62
     7
100
AcDbLine
 10
88.3635986328125
 20
202.623291015625
 30
0.0
 11
82.20721299913194
 21
197.8440823025173
 31
0.0
  0
LINE
  5
911
330
A
100
AcDbEntity
  8
WOOD
 62
     7
100
AcDbLine
 10
84.79947509765624
 20
199.0591674804687
 30
0.0
 11
82.85523546006944
 21
197.6010308159722
 31
0.0
  0
LINE
  5
910
330
A
100
AcDbEntity
  8
WOOD
 62
     7
100
AcDbLine
 10
76.53693033854167
 20
196.8720486111111
 30
0.0
 11
77.10399305555555
 21
193.8748155381944
 31
0.0
  0
LINE
  5
90F
330
A
100
AcDbEntity
  8
WOOD
 62
     7
100
AcDbLine
 10
77.5089640299479
 20
197.0339680989583
 30
0.0
 11
77.99489474826389
 21
194.0367350260416
 31
0.0
  0
LWPOLYLINE
  5
90A
330
A
100
AcDbEntity
  8
WOOD
 62
     7
100
AcDbPolyline
 90
        3
 70
     0
 43
0.0
 10
78.23794623480902
 20
197.1960598415799
 10
78.64308946397568
 20
194.1988267686632
 10
70.78551567925346
 20
188.2043606228299
  0
LWPOLYLINE
  5
905
330
A
100
AcDbEntity
  8
WOOD
 62
     7
100
AcDbPolyline
 90
        3
 70
     0
 43
0.0
 10
78.80500895182291
 20
197.3579793294271
 10
79.45303141276041
 20
194.3607462565104
 10
72.16252034505207
 20
188.5283718532986
  0
LWPOLYLINE
  5
900
330
A
100
AcDbEntity
  8
WOOD
 62
     7
100
AcDbPolyline
 90
        3
 70
     0
 43
0.0
 10
79.69608289930555
 20
197.6010308159722
 10
80.34410536024305
 20
194.5228379991319
 10
73.37760552300347
 20
188.6904635959201
  0
LINE
  5
8FF
330
A
100
AcDbEntity
  8
WOOD
 62
     7
100
AcDbLine
 10
80.58715684678819
 20
197.7629503038194
 30
0.0
 11
81.07308756510416
 21
194.5228379991319
 31
0.0
  0
LINE
  5
8FE
330
A
100
AcDbEntity
  8
WOOD
 62
     7
100
AcDbLine
 10
75.64585639105903
 20
193.3887125651042
 30
0.0
 11
72.00060085720486
 21
190.8775824652778
 31
0.0
  0
LINE
  5
8FD
330
A
100
AcDbEntity
  8
WOOD
 62
     7
100
AcDbLine
 10
76.61789008246527
 20
193.7127237955729
 30
0.0
 11
70.38054470486111
 21
189.1763943142361
 31
0.0
  0
LINE
  5
8FC
330
A
100
AcDbEntity
  8
WOOD
 62
     7
100
AcDbLine
 10
77.75201551649305
 20
193.8748155381944
 30
0.0
 11
69.48947075737847
 21
188.0424411349826
 31
0.0
  0
LINE
  5
8FB
330
A
100
AcDbEntity
  8
WOOD
 62
     7
100
AcDbLine
 10
76.77980957031249
 20
190.6345309787326
 30
0.0
 11
74.43077121310763
 21
188.8523830837673
 31
0.0
  0
LWPOLYLINE
  5
8F6
330
A
100
AcDbEntity
  8
WOOD
 62
     7
100
AcDbPolyline
 90
        3
 70
     0
 43
0.0
 10
92.73783637152776
 20
199.2210869683159
 10
90.3887980143229
 20
195.0899007161458
 10
90.9558607313368
 20
191.2825534396701
  0
LINE
  5
8F5
330
A
100
AcDbEntity
  8
WOOD
 62
     7
100
AcDbLine
 10
93.71004231770833
 20
199.4641384548611
 30
0.0
 11
91.11778021918401
 21
195.0899007161458
 31
0.0
  0
LINE
  5
8F4
330
A
100
AcDbEntity
  8
WOOD
 62
     7
100
AcDbLine
 10
94.51998426649304
 20
199.6262301974826
 30
0.0
 11
91.76580268012152
 21
194.9278089735243
 31
0.0
  0
LINE
  5
8F3
330
A
100
AcDbEntity
  8
WOOD
 62
     7
100
AcDbLine
 10
95.41105821397569
 20
199.8691094292535
 30
0.0
 11
92.89992811414929
 21
195.5758314344618
 31
0.0
  0
LINE
  5
8F2
330
A
100
AcDbEntity
  8
WOOD
 62
     7
100
AcDbLine
 10
96.22117241753472
 20
200.1121609157986
 30
0.0
 11
94.92512749565971
 21
197.7629503038194
 31
0.0
  0
LWPOLYLINE
  5
8ED
330
A
100
AcDbEntity
  8
WOOD
 62
     7
100
AcDbPolyline
 90
        3
 70
     0
 43
0.0
 10
91.52292344835068
 20
198.73515625
 10
89.49772406684026
 20
194.7658894856771
 10
90.14574652777777
 20
191.6065646701389
  0
LINE
  5
8EC
330
A
100
AcDbEntity
  8
WOOD
 62
     7
100
AcDbLine
 10
89.57868381076388
 20
196.7909166124132
 30
0.0
 11
88.28263888888888
 21
194.6037977430555
 31
0.0
  0
LINE
  5
8EB
330
A
100
AcDbEntity
  8
WOOD
 62
     7
100
AcDbLine
 10
83.98936089409722
 20
190.553571234809
 30
0.0
 11
79.53399115668402
 21
185.2882595486111
 31
0.0
  0
LINE
  5
8EA
330
A
100
AcDbEntity
  8
WOOD
 62
     7
100
AcDbLine
 10
84.71834309895833
 20
190.6345309787326
 30
0.0
 11
80.99212782118055
 21
185.5313110351562
 31
0.0
  0
LINE
  5
8E9
330
A
100
AcDbEntity
  8
WOOD
 62
     7
100
AcDbLine
 10
85.85246853298611
 20
190.9585422092014
 30
0.0
 11
82.04529351128471
 21
185.855322265625
 31
0.0
  0
LWPOLYLINE
  5
8E4
330
A
100
AcDbEntity
  8
WOOD
 62
     7
100
AcDbPolyline
 90
        3
 70
     0
 43
0.0
 10
86.17647976345485
 20
194.0367350260416
 10
86.82450222439235
 20
191.1206339518229
 10
83.09828694661458
 20
185.9362820095486
  0
LWPOLYLINE
  5
8DF
330
A
100
AcDbEntity
  8
WOOD
 62
     7
100
AcDbPolyline
 90
        3
 70
     0
 43
0.0
 10
87.06755371093749
 20
194.2797865125868
 10
87.55365668402777
 20
191.2825534396701
 10
84.15128038194443
 20
186.1793334960937
  0
LWPOLYLINE
  5
8DA
330
A
100
AcDbEntity
  8
WOOD
 62
     7
100
AcDbPolyline
 90
        3
 70
     0
 43
0.0
 10
87.95862765842013
 20
194.4418782552083
 10
88.52569037543402
 20
191.4446451822917
 10
86.74354248046875
 20
188.6904635959201
  0
LINE
  5
8D9
330
A
100
AcDbEntity
  8
WOOD
 62
     7
100
AcDbLine
 10
88.68760986328124
 20
194.6847574869792
 30
0.0
 11
89.09275309244791
 21
191.6065646701389
 31
0.0
  0
LWPOLYLINE
  5
8D4
330
A
100
AcDbEntity
  8
WOOD
 62
     7
100
AcDbPolyline
 90
        3
 70
     0
 43
0.0
 10
100.9195936414931
 20
196.3859456380208
 10
100.1906114366319
 20
195.332952202691
 10
98.48942328559026
 20
194.2797865125868
  0
LWPOLYLINE
  5
8CF
330
A
100
AcDbEntity
  8
WOOD
 62
     7
100
AcDbPolyline
 90
        3
 70
     0
 43
0.0
 10
101.6485758463542
 20
196.5480373806423
 10
100.9195936414931
 20
195.2518202039931
 10
97.27433810763888
 20
192.9027818467882
  0
LWPOLYLINE
  5
8C8
330
A
100
AcDbEntity
  8
WOOD
 62
     7
100
AcDbPolyline
 90
        5
 70
     0
 43
0.0
 10
102.2965983072917
 20
196.4669053819444
 10
101.5676161024306
 20
195.0089409722222
 10
96.70727539062499
 20
191.7686564127604
 10
97.3552978515625
 20
188.3664523654514
 10
89.25484483506943
 20
182.371986219618
  0
LWPOLYLINE
  5
8C2
330
A
100
AcDbEntity
  8
WOOD
 62
     7
100
AcDbPolyline
 90
        4
 70
     0
 43
0.0
 10
103.1876722547743
 20
196.7909166124132
 10
102.3777303059896
 20
195.0899007161458
 10
98.48942328559026
 20
192.0117078993056
 10
99.05648600260416
 20
188.2854926215278
  0
LWPOLYLINE
  5
8BD
330
A
100
AcDbEntity
  8
WOOD
 62
     7
100
AcDbPolyline
 90
        3
 70
     0
 43
0.0
 10
104.0787462022569
 20
196.8720486111111
 10
103.2688042534722
 20
195.2518202039931
 10
100.0285196940104
 20
192.0117078993056
  0
LINE
  5
8BC
330
A
100
AcDbEntity
  8
WOOD
 62
     7
100
AcDbLine
 10
105.0507798936632
 20
197.1149278428819
 30
0.0
 11
104.0787462022569
 21
195.332952202691
 31
0.0
  0
LWPOLYLINE
  5
8B7
330
A
100
AcDbEntity
  8
WOOD
 62
     7
100
AcDbPolyline
 90
        3
 70
     0
 43
0.0
 10
94.1961452907986
 20
191.2825534396701
 10
95.00625949435764
 20
187.961481391059
 10
89.6598158094618
 20
183.9922146267361
  0
LINE
  5
8B6
330
A
100
AcDbEntity
  8
WOOD
 62
     7
100
AcDbLine
 10
95.16817898220485
 20
191.363685438368
 30
0.0
 11
95.57332221137152
 21
188.2043606228299
 31
0.0
  0
LINE
  5
8B5
330
A
100
AcDbEntity
  8
WOOD
 62
     7
100
AcDbLine
 10
95.89733344184027
 20
191.5256049262153
 30
0.0
 11
96.54535590277777
 21
188.2043606228299
 31
0.0
  0
LINE
  5
8B4
330
A
100
AcDbEntity
  8
WOOD
 62
     7
100
AcDbLine
 10
98.14043511284721
 20
188.3988362630208
 30
0.0
 11
100.1904391818576
 21
188.1234008789062
 31
0.0
  0
LINE
  5
8B3
330
A
100
AcDbEntity
  8
WOOD
 62
     7
100
AcDbLine
 10
97.59834933810762
 20
191.7686564127604
 30
0.0
 11
98.40846354166666
 21
188.447412109375
 31
0.0
  0
LINE
  5
8B2
330
A
100
AcDbEntity
  8
WOOD
 62
     7
100
AcDbLine
 10
99.05648600260416
 20
192.0117078993056
 30
0.0
 11
99.70450846354166
 21
188.2043606228299
 31
0.0
  0
LINE
  5
8B1
330
A
100
AcDbEntity
  8
WOOD
 62
     7
100
AcDbLine
 10
93.5481228298611
 20
187.7184299045139
 30
0.0
 11
91.11795247395833
 21
185.7741902669271
 31
0.0
  0
LINE
  5
8B0
330
A
100
AcDbEntity
  8
WOOD
 62
     7
100
AcDbLine
 10
95.97829318576387
 20
188.0424411349826
 30
0.0
 11
88.52586263020832
 21
182.6959974500868
 31
0.0
  0
LINE
  5
8AF
330
A
100
AcDbEntity
  8
WOOD
 62
     7
100
AcDbLine
 10
97.76044108072915
 20
187.8803493923611
 30
0.0
 11
90.79394124348957
 21
182.6959974500868
 31
0.0
  0
LINE
  5
8AE
330
A
100
AcDbEntity
  8
WOOD
 62
     7
100
AcDbLine
 10
96.05925292968749
 20
186.0172417534722
 30
0.0
 11
92.00902642144096
 21
182.9390489366319
 31
0.0
  0
LINE
  5
8AD
330
A
100
AcDbEntity
  8
WOOD
 62
     7
100
AcDbLine
 10
94.43919677734374
 20
184.2350938585069
 30
0.0
 11
93.06201985677083
 21
183.1011406792535
 31
0.0
  0
LINE
  5
8AC
330
A
100
AcDbEntity
  8
WOOD
 62
     7
100
AcDbLine
 10
93.71004231770833
 20
183.2630601671007
 30
0.0
 11
112.9898301866319
 21
159.3663275824653
 31
0.0
  0
LWPOLYLINE
  5
8A3
330
A
100
AcDbEntity
  8
WOOD
 62
     7
100
AcDbPolyline
 90
        7
 70
     0
 43
0.0
 10
63.00804036458333
 20
170.6280002170139
 10
63.00804036458333
 20
160.8668389214409
 10
61.61846110026041
 20
159.925983344184
 10
64.79346110026042
 20
157.4565388997396
 10
63.00804036458333
 20
156.1627332899305
 10
63.00804036458333
 20
146.7293728298611
 10
56.77035047743055
 20
146.0019409179687
  0
LWPOLYLINE
  5
89A
330
A
100
AcDbEntity
  8
WOOD
 62
     7
100
AcDbPolyline
 90
        7
 70
     0
 43
0.0
 10
75.23967963324652
 20
169.5748345269097
 10
75.23967963324652
 20
159.5730333116319
 10
73.96568332248263
 20
158.6323499891493
 10
76.90555555555555
 20
156.5156833224826
 10
75.23967963324652
 20
155.2223944769965
 10
75.23967963324652
 20
146.000390625
 10
69.37957221137152
 20
145.4620944552951
  0
LWPOLYLINE
  5
891
330
A
100
AcDbEntity
  8
WOOD
 62
     7
100
AcDbPolyline
 90
        7
 70
     0
 43
0.0
 10
88.20064561631943
 20
168.1976576063368
 10
88.20064561631943
 20
158.8674777560764
 10
87.13611111111111
 20
158.0444444444444
 10
89.95833333333333
 20
155.9277777777778
 10
88.20064561631943
 20
154.8694444444444
 10
88.20064561631943
 20
145.1093166775173
 10
82.07957221137153
 20
144.5212388780382
  0
LWPOLYLINE
  5
889
330
A
100
AcDbEntity
  8
WOOD
 62
     7
100
AcDbPolyline
 90
        6
 70
     0
 43
0.0
 10
69.40730523003472
 20
168.6028008355034
 10
69.40730523003472
 20
158.8674777560764
 10
67.96846110026041
 20
157.8093166775174
 10
70.79068332248264
 20
155.8101277669271
 10
69.40730523003472
 20
154.7516221788194
 10
69.40730523003472
 20
145.4620944552951
  0
LWPOLYLINE
  5
881
330
A
100
AcDbEntity
  8
WOOD
 62
     7
100
AcDbPolyline
 90
        6
 70
     0
 43
0.0
 10
82.12521972656249
 20
167.3067559136285
 10
82.12521972656249
 20
158.0444444444444
 10
80.66846110026042
 20
157.1037611219618
 10
83.25555555555555
 20
155.1045722113715
 10
82.12521972656249
 20
154.1638888888889
 10
82.12521972656249
 20
144.6388888888889
  0
LINE
  5
880
330
A
100
AcDbEntity
  8
WOOD
 62
     7
100
AcDbLine
 10
63.00804036458333
 20
146.7293728298611
 30
0.0
 11
99.53369136065192
 21
139.3424101346823
 31
0.0
  0
LINE
  5
87F
330
A
100
AcDbEntity
  8
WOOD
 62
     7
100
AcDbLine
 10
75.23967963324652
 20
146.000390625
 30
0.0
 11
105.2886751324063
 21
139.7493889623982
 31
0.0
  0
LINE
  5
87E
330
A
100
AcDbEntity
  8
WOOD
 62
     7
100
AcDbLine
 10
88.20064561631943
 20
145.1093166775173
 30
0.0
 11
110.6528086088699
 21
140.1287277825488
 31
0.0
  0
LINE
  5
87D
330
A
100
AcDbEntity
  8
WOOD
 62
     7
100
AcDbLine
 10
56.77035047743055
 20
160.0434611002604
 30
0.0
 11
63.00804036458333
 21
160.8668389214409
 31
0.0
  0
LINE
  5
87C
330
A
100
AcDbEntity
  8
WOOD
 62
     7
100
AcDbLine
 10
55.15098334418402
 20
159.1027777777778
 30
0.0
 11
61.61846110026041
 21
159.925983344184
 31
0.0
  0
LINE
  5
87B
330
A
100
AcDbEntity
  8
WOOD
 62
     7
100
AcDbLine
 10
58.09068332248263
 20
156.750983344184
 30
0.0
 11
64.79346110026042
 21
157.4565388997396
 31
0.0
  0
LINE
  5
87A
330
A
100
AcDbEntity
  8
WOOD
 62
     7
100
AcDbLine
 10
56.77035047743055
 20
155.4573499891493
 30
0.0
 11
63.00804036458333
 21
156.1627332899305
 31
0.0
  0
LINE
  5
879
330
A
100
AcDbEntity
  8
WOOD
 62
     7
100
AcDbLine
 10
69.40730523003472
 20
158.8674777560764
 30
0.0
 11
75.23967963324652
 21
159.5730333116319
 31
0.0
  0
LINE
  5
878
330
A
100
AcDbEntity
  8
WOOD
 62
     7
100
AcDbLine
 10
67.96846110026041
 20
157.8093166775174
 30
0.0
 11
73.96568332248263
 21
158.6323499891493
 31
0.0
  0
LINE
  5
877
330
A
100
AcDbEntity
  8
WOOD
 62
     7
100
AcDbLine
 10
70.79068332248264
 20
155.8101277669271
 30
0.0
 11
76.90555555555555
 21
156.5156833224826
 31
0.0
  0
LINE
  5
876
330
A
100
AcDbEntity
  8
WOOD
 62
     7
100
AcDbLine
 10
69.40730523003472
 20
154.7516221788194
 30
0.0
 11
75.23967963324652
 21
155.2223944769965
 31
0.0
  0
LINE
  5
875
330
A
100
AcDbEntity
  8
WOOD
 62
     7
100
AcDbLine
 10
82.12521972656249
 20
158.0444444444444
 30
0.0
 11
88.20064561631943
 21
158.8674777560764
 31
0.0
  0
LINE
  5
874
330
A
100
AcDbEntity
  8
WOOD
 62
     7
100
AcDbLine
 10
80.66846110026042
 20
157.1037611219618
 30
0.0
 11
87.13611111111111
 21
158.0444444444444
 31
0.0
  0
LINE
  5
873
330
A
100
AcDbEntity
  8
WOOD
 62
     7
100
AcDbLine
 10
83.25555555555555
 20
155.1045722113715
 30
0.0
 11
89.95833333333333
 21
155.9277777777778
 31
0.0
  0
LINE
  5
872
330
A
100
AcDbEntity
  8
WOOD
 62
     7
100
AcDbLine
 10
82.12521972656249
 20
154.1638888888889
 30
0.0
 11
88.27264811197917
 21
154.8258639865451
 31
0.0
  0
LWPOLYLINE
  5
86D
330
A
100
AcDbEntity
  8
WOOD
 62
     7
100
AcDbPolyline
 90
        3
 70
     0
 43
0.0
 10
56.70696072048611
 20
169.1900173611111
 10
57.23888346354166
 20
166.8847317165798
 10
56.76604410807291
 20
164.1064344618056
  0
LWPOLYLINE
  5
868
330
A
100
AcDbEntity
  8
WOOD
 62
     7
100
AcDbPolyline
 90
        3
 70
     0
 43
0.0
 10
57.41630588107638
 20
169.7219401041667
 10
58.00731201171875
 20
166.7663926866319
 10
56.76604410807291
 20
160.9143812391493
  0
LWPOLYLINE
  5
85F
330
A
100
AcDbEntity
  8
WOOD
 62
     7
100
AcDbPolyline
 90
        7
 70
     0
 43
0.0
 10
58.12565104166666
 20
169.7219401041667
 10
58.89407958984374
 20
166.4708034939236
 10
57.65263943142361
 20
160.205036078559
 10
56.17486572265624
 20
159.2593573676215
 10
58.89407958984374
 20
156.8948160807292
 10
57.5935560438368
 20
155.5352091471354
 10
56.76604410807291
 20
152.6387451171875
  0
LWPOLYLINE
  5
856
330
A
100
AcDbEntity
  8
WOOD
 62
     7
100
AcDbPolyline
 90
        7
 70
     0
 43
0.0
 10
58.77591281467014
 20
169.8402791341146
 10
59.89901394314236
 20
165.8797973632812
 10
58.59849039713541
 20
160.3232028537326
 10
57.12071668836805
 20
159.3775241427951
 10
59.89901394314236
 20
157.0129828559028
 10
58.59849039713541
 20
155.5942925347222
 10
56.76604410807291
 20
148.6191799587674
  0
LWPOLYLINE
  5
84D
330
A
100
AcDbEntity
  8
WOOD
 62
     7
100
AcDbPolyline
 90
        7
 70
     0
 43
0.0
 10
59.54434136284722
 20
169.9584459092882
 10
61.08119845920138
 20
165.4660413953993
 10
59.78067491319444
 20
160.4415418836805
 10
58.42124023437499
 20
159.4956909179687
 10
61.08119845920138
 20
157.1313218858507
 10
59.60342475043402
 20
155.7717149522569
 10
57.35722249348958
 20
146.1364718967014
  0
LWPOLYLINE
  5
844
330
A
100
AcDbEntity
  8
WOOD
 62
     7
100
AcDbPolyline
 90
        7
 70
     0
 43
0.0
 10
60.3127699110243
 20
170.1358683268229
 10
62.26338297526041
 20
164.9930297851562
 10
61.02211507161458
 20
160.6778754340278
 10
59.60342475043402
 20
159.7912801106771
 10
62.2042995876736
 20
157.2494886610243
 10
60.66744249131944
 20
155.8898817274306
 10
58.65757378472222
 20
146.2548109266493
  0
LINE
  5
843
330
A
100
AcDbEntity
  8
WOOD
 62
     7
100
AcDbLine
 10
61.14028184678819
 20
170.1949517144097
 30
0.0
 11
63.0318115234375
 21
165.2886189778646
 31
0.0
  0
LINE
  5
842
330
A
100
AcDbEntity
  8
WOOD
 62
     7
100
AcDbLine
 10
61.84962700737847
 20
170.4312852647569
 30
0.0
 11
62.97272813585069
 21
167.5940768771701
 31
0.0
  0
LINE
  5
841
330
A
100
AcDbEntity
  8
WOOD
 62
     7
100
AcDbLine
 10
62.55897216796875
 20
170.5496242947048
 30
0.0
 11
62.97272813585069
 21
169.3672675238715
 31
0.0
  0
LWPOLYLINE
  5
839
330
A
100
AcDbEntity
  8
WOOD
 62
     7
100
AcDbPolyline
 90
        6
 70
     0
 43
0.0
 10
62.97272813585069
 20
163.9882676866319
 10
62.02704942491319
 20
160.7962144639757
 10
60.60835910373263
 20
159.7912801106771
 10
63.32740071614582
 20
157.3676554361979
 10
62.02704942491319
 20
156.0673041449653
 10
60.13534749348958
 20
146.4320610894097
  0
LINE
  5
838
330
A
100
AcDbEntity
  8
WOOD
 62
     7
100
AcDbLine
 10
62.91364474826388
 20
155.4170423719618
 30
0.0
 11
61.2584486219618
 21
146.6094835069444
 31
0.0
  0
LINE
  5
837
330
A
100
AcDbEntity
  8
WOOD
 62
     7
100
AcDbLine
 10
62.91364474826388
 20
150.6290486653646
 30
0.0
 11
61.90871039496527
 21
146.6094835069444
 31
0.0
  0
LWPOLYLINE
  5
82F
330
A
100
AcDbEntity
  8
WOOD
 62
     7
100
AcDbPolyline
 90
        6
 70
     0
 43
0.0
 10
69.4750013563368
 20
160.3232028537326
 10
69.77059054904514
 20
158.9046847873264
 10
68.47006700303818
 20
157.7814114040799
 10
71.07111409505208
 20
155.8307983398437
 10
69.88875732421874
 20
154.7667805989583
 10
70.59810248480902
 20
145.6636325412326
  0
LINE
  5
82E
330
A
100
AcDbEntity
  8
WOOD
 62
     7
100
AcDbLine
 10
69.41591796874999
 20
151.2200547960069
 30
0.0
 11
69.94801296657985
 21
145.545465766059
 31
0.0
  0
LWPOLYLINE
  5
826
330
A
100
AcDbEntity
  8
WOOD
 62
     7
100
AcDbPolyline
 90
        6
 70
     0
 43
0.0
 10
69.35683458116318
 20
165.8797973632812
 10
70.302685546875
 20
159.0228515625
 10
69.17941216362847
 20
157.8997504340278
 10
71.78045925564236
 20
156.0082207573785
 10
70.59810248480902
 20
154.8849473741319
 10
71.30744764539929
 20
145.6636325412326
  0
LWPOLYLINE
  5
81E
330
A
100
AcDbEntity
  8
WOOD
 62
     7
100
AcDbPolyline
 90
        6
 70
     0
 43
0.0
 10
69.65242377387152
 20
168.6580946180555
 10
70.95277506510416
 20
159.0819349500868
 10
70.00709635416666
 20
158.0770005967882
 10
72.54888780381944
 20
156.0082207573785
 10
71.18928087022569
 20
154.8849473741319
 10
72.07587619357638
 20
145.7817993164063
  0
LWPOLYLINE
  5
816
330
A
100
AcDbEntity
  8
WOOD
 62
     7
100
AcDbPolyline
 90
        6
 70
     0
 43
0.0
 10
70.83460828993054
 20
168.7762613932292
 10
72.07587619357638
 20
159.2001017252604
 10
70.95277506510416
 20
158.2544230143229
 10
73.55382215711805
 20
156.1263875325521
 10
72.48980441623263
 20
155.0032864040799
 10
73.25823296440971
 20
145.9001383463541
  0
LWPOLYLINE
  5
80E
330
A
100
AcDbEntity
  8
WOOD
 62
     7
100
AcDbPolyline
 90
        6
 70
     0
 43
0.0
 10
71.42578667534721
 20
168.9535115559896
 10
72.78522135416667
 20
159.2593573676215
 10
71.72120361328125
 20
158.3135064019097
 10
74.1448282877604
 20
156.1854709201389
 10
73.1398939344618
 20
155.0032864040799
 10
74.0266615125868
 20
145.9001383463541
  0
LWPOLYLINE
  5
806
330
A
100
AcDbEntity
  8
WOOD
 62
     7
100
AcDbPolyline
 90
        6
 70
     0
 43
0.0
 10
72.1942152235243
 20
169.0718505859375
 10
73.90849473741319
 20
159.4366075303819
 10
72.72613796657986
 20
158.4316731770833
 10
74.79509006076388
 20
156.3036376953125
 10
74.0266615125868
 20
155.1214531792535
 10
74.79509006076388
 20
146.0183051215278
  0
LWPOLYLINE
  5
7FE
330
A
100
AcDbEntity
  8
WOOD
 62
     7
100
AcDbPolyline
 90
        6
 70
     0
 43
0.0
 10
73.02172715928819
 20
169.1900173611111
 10
74.61766764322915
 20
159.4956909179687
 10
73.55382215711805
 20
158.5500122070312
 10
75.68168538411457
 20
156.4219767252604
 10
74.61766764322915
 20
155.1805365668403
 10
75.14976264105903
 20
149.624114312066
  0
LINE
  5
7FD
330
A
100
AcDbEntity
  8
WOOD
 62
     7
100
AcDbLine
 10
73.84923909505207
 20
169.3081841362847
 30
0.0
 11
75.14976264105903
 21
160.0277859157986
 31
0.0
  0
LINE
  5
7FC
330
A
100
AcDbEntity
  8
WOOD
 62
     7
100
AcDbLine
 10
74.44041748046874
 20
169.4265231662326
 30
0.0
 11
75.20884602864582
 21
164.2246012369791
 31
0.0
  0
LINE
  5
7FB
330
A
100
AcDbEntity
  8
WOOD
 62
     7
100
AcDbLine
 10
82.65714246961805
 20
167.239404296875
 30
0.0
 11
82.12504747178819
 21
161.8011488172743
 31
0.0
  0
LINE
  5
7FA
330
A
100
AcDbEntity
  8
WOOD
 62
     7
100
AcDbLine
 10
83.42557101779514
 20
167.4166544596354
 30
0.0
 11
82.12504747178819
 21
158.7272623697917
 31
0.0
  0
LWPOLYLINE
  5
7F2
330
A
100
AcDbEntity
  8
WOOD
 62
     7
100
AcDbPolyline
 90
        6
 70
     0
 43
0.0
 10
84.01657714843749
 20
167.5940768771701
 10
82.95273166232639
 20
158.1953396267361
 10
81.47478569878471
 20
157.3085720486111
 10
83.95749376085068
 20
155.2988755967882
 10
82.65714246961805
 20
154.2348578559028
 10
82.18413085937499
 20
151.4565606011284
  0
LWPOLYLINE
  5
7E9
330
A
100
AcDbEntity
  8
WOOD
 62
     7
100
AcDbPolyline
 90
        7
 70
     0
 43
0.0
 10
84.72592230902777
 20
167.6531602647569
 10
83.42557101779514
 20
158.2544230143229
 10
82.18413085937499
 20
157.3085720486111
 10
84.78517795138887
 20
155.357958984375
 10
83.24814860026041
 20
154.1756022135417
 10
82.71622585720485
 20
150.1560370551215
 10
84.13491617838541
 20
144.7768649631076
  0
LINE
  5
7E8
330
A
100
AcDbEntity
  8
WOOD
 62
     7
100
AcDbLine
 10
82.12504747178819
 20
149.0920193142361
 30
0.0
 11
83.42557101779514
 21
144.7177815755208
 31
0.0
  0
LINE
  5
7E7
330
A
100
AcDbEntity
  8
WOOD
 62
     7
100
AcDbLine
 10
82.18413085937499
 20
146.0773885091146
 30
0.0
 11
82.65714246961805
 21
144.5996148003472
 31
0.0
  0
LWPOLYLINE
  5
7DE
330
A
100
AcDbEntity
  8
WOOD
 62
     7
100
AcDbPolyline
 90
        7
 70
     0
 43
0.0
 10
85.55360649956596
 20
167.6531602647569
 10
84.19399956597222
 20
158.3725897894965
 10
83.01181504991318
 20
157.4859944661458
 10
85.49452311197916
 20
155.4761257595486
 10
84.19399956597222
 20
154.3530246310764
 10
83.54373779296874
 20
150.3925428602431
 10
85.0215115017361
 20
144.8952039930555
  0
LWPOLYLINE
  5
7D5
330
A
100
AcDbEntity
  8
WOOD
 62
     7
100
AcDbPolyline
 90
        7
 70
     0
 43
0.0
 10
86.44020182291666
 20
167.9487494574653
 10
85.08059488932291
 20
158.5500122070312
 10
83.78024359809027
 20
157.5450778537326
 10
86.38111843532985
 20
155.5352091471354
 10
85.0215115017361
 20
154.47119140625
 10
84.54867214626735
 20
150.9837212456597
 10
85.84919569227429
 20
144.8952039930555
  0
LWPOLYLINE
  5
7CC
330
A
100
AcDbEntity
  8
WOOD
 62
     7
100
AcDbPolyline
 90
        7
 70
     0
 43
0.0
 10
87.14954698350694
 20
168.0078328450521
 10
85.78994004991318
 20
158.5500122070312
 10
84.48958875868055
 20
157.6632446289062
 10
87.20863037109375
 20
155.6535481770833
 10
85.61268988715277
 20
154.4121080186632
 10
85.49452311197916
 20
151.6338107638889
 10
86.61762424045138
 20
145.0133707682292
  0
LWPOLYLINE
  5
7C3
330
A
100
AcDbEntity
  8
WOOD
 62
     7
100
AcDbPolyline
 90
        7
 70
     0
 43
0.0
 10
88.03631456163194
 20
168.1259996202257
 10
86.735791015625
 20
158.7272623697917
 10
85.25801730685762
 20
157.7814114040799
 10
88.15448133680555
 20
155.7717149522569
 10
86.55854085286458
 20
154.5895304361979
 10
86.32203504774304
 20
152.3431559244792
 10
87.79980875651042
 20
145.1315375434028
  0
LWPOLYLINE
  5
7BA
330
A
100
AcDbEntity
  8
WOOD
 62
     7
100
AcDbPolyline
 90
        7
 70
     0
 43
0.0
 10
88.09539794921874
 20
164.756696234809
 10
87.38605278862846
 20
158.7863457573785
 10
86.32203504774304
 20
157.9588338216146
 10
88.98199327256944
 20
155.8307983398437
 10
87.38605278862846
 20
154.7076972113715
 10
87.20863037109375
 20
153.2299235026042
 10
88.21356472439236
 20
146.7276502821181
  0
LWPOLYLINE
  5
7B5
330
A
100
AcDbEntity
  8
WOOD
 62
     7
100
AcDbPolyline
 90
        3
 70
     0
 43
0.0
 10
88.21356472439236
 20
154.2348578559028
 10
87.85889214409721
 20
152.875250922309
 10
88.21356472439236
 20
150.3334594726562
  0
LINE
  5
7B4
330
A
100
AcDbEntity
  8
WOOD
 62
     7
100
AcDbLine
 10
57.25645345052083
 20
126.398486328125
 30
0.0
 11
90.33159015269669
 21
128.0807236002163
 31
0.0
  0
LWPOLYLINE
  5
7AF
330
A
100
AcDbEntity
  8
WOOD
 62
     7
100
AcDbPolyline
 90
        3
 70
     0
 43
0.0
 10
158.5953152126736
 20
128.9885091145833
 10
149.4895833333333
 20
130.96875
 10
115.8952251677579
 20
129.5267018808516
  0
LINE
  5
7AE
330
A
100
AcDbEntity
  8
WOOD
 62
     7
100
AcDbLine
 10
121.0892496744792
 20
127.6115044487847
 30
0.0
 11
115.2618704867891
 21
128.4196409243302
 31
0.0
  0
LINE
  5
7AD
330
A
100
AcDbEntity
  8
WOOD
 62
     7
100
AcDbLine
 10
142.3458333333333
 20
142.5222222222222
 30
0.0
 11
142.3458333333333
 21
136.3486111111111
 31
0.0
  0
LINE
  5
7AC
330
A
100
AcDbEntity
  8
WOOD
 62
     7
100
AcDbLine
 10
149.4013888888889
 20
136.6131944444445
 30
0.0
 11
149.4013888888889
 21
130.96875
 31
0.0
  0
LINE
  5
7AB
330
A
100
AcDbEntity
  8
WOOD
 62
     7
100
AcDbLine
 10
152.9291666666667
 20
130.175
 30
0.0
 11
152.9291666666667
 21
135.7346950954861
 31
0.0
  0
LINE
  5
7AA
330
A
100
AcDbEntity
  8
WOOD
 62
     7
100
AcDbLine
 10
155.9277777777778
 20
129.5576388888889
 30
0.0
 11
155.9277777777778
 21
135.6465006510417
 31
0.0
  0
LINE
  5
7A9
330
A
100
AcDbEntity
  8
WOOD
 62
     7
100
AcDbLine
 10
142.4340277777778
 20
141.9048611111111
 30
0.0
 11
146.4027777777778
 21
140.3173611111111
 31
0.0
  0
LINE
  5
7A8
330
A
100
AcDbEntity
  8
WOOD
 62
     7
100
AcDbLine
 10
142.4340277777778
 20
140.1409722222222
 30
0.0
 11
146.4027777777778
 21
138.5534722222222
 31
0.0
  0
LINE
  5
7A7
330
A
100
AcDbEntity
  8
WOOD
 62
     7
100
AcDbLine
 10
142.5222222222222
 20
140.9347222222222
 30
0.0
 11
146.4909722222222
 21
139.3472222222222
 31
0.0
  0
LINE
  5
7A6
330
A
100
AcDbEntity
  8
WOOD
 62
     7
100
AcDbLine
 10
142.1694444444444
 20
139.4354166666666
 30
0.0
 11
146.4909722222222
 21
137.7597222222222
 31
0.0
  0
LINE
  5
7A5
330
A
100
AcDbEntity
  8
WOOD
 62
     7
100
AcDbLine
 10
142.4340277777778
 20
138.6416666666667
 30
0.0
 11
146.4027777777778
 21
137.0541666666667
 31
0.0
  0
LINE
  5
7A4
330
A
100
AcDbEntity
  8
WOOD
 62
     7
100
AcDbLine
 10
142.4340277777778
 20
137.8479166666667
 30
0.0
 11
145.5208333333333
 21
136.525
 31
0.0
  0
LINE
  5
7A3
330
A
100
AcDbEntity
  8
WOOD
 62
     7
100
AcDbLine
 10
142.4340277777778
 20
137.1423611111111
 30
0.0
 11
144.1097222222222
 21
136.525
 31
0.0
  0
LINE
  5
7A2
330
A
100
AcDbEntity
  8
WOOD
 62
     7
100
AcDbLine
 10
149.4895833333333
 20
139.2590277777778
 30
0.0
 11
152.3118055555555
 21
138.0243055555555
 31
0.0
  0
LINE
  5
7A1
330
A
100
AcDbEntity
  8
WOOD
 62
     7
100
AcDbLine
 10
149.4895833333333
 20
139.9645833333333
 30
0.0
 11
152.3118055555555
 21
138.7298611111111
 31
0.0
  0
LINE
  5
7A0
330
A
100
AcDbEntity
  8
WOOD
 62
     7
100
AcDbLine
 10
149.4895833333333
 20
138.4652777777778
 30
0.0
 11
152.3118055555555
 21
137.2305555555556
 31
0.0
  0
LINE
  5
79F
330
A
100
AcDbEntity
  8
WOOD
 62
     7
100
AcDbLine
 10
149.4895833333333
 20
137.7597222222222
 30
0.0
 11
152.3118055555555
 21
136.525
 31
0.0
  0
LINE
  5
79E
330
A
100
AcDbEntity
  8
WOOD
 62
     7
100
AcDbLine
 10
149.4895833333333
 20
137.1423611111111
 30
0.0
 11
151.2534722222222
 21
136.3486111111111
 31
0.0
  0
LINE
  5
79D
330
A
100
AcDbEntity
  8
WOOD
 62
     7
100
AcDbLine
 10
146.5791666666667
 20
139.9645833333333
 30
0.0
 11
149.4013888888889
 21
140.2291666666667
 31
0.0
  0
LINE
  5
79C
330
A
100
AcDbEntity
  8
WOOD
 62
     7
100
AcDbLine
 10
146.5791666666667
 20
139.4354166666666
 30
0.0
 11
149.4013888888889
 21
139.7
 31
0.0
  0
LINE
  5
79B
330
A
100
AcDbEntity
  8
WOOD
 62
     7
100
AcDbLine
 10
146.5791666666667
 20
138.6416666666667
 30
0.0
 11
149.4013888888889
 21
138.90625
 31
0.0
  0
LINE
  5
79A
330
A
100
AcDbEntity
  8
WOOD
 62
     7
100
AcDbLine
 10
146.5791666666667
 20
137.9361111111111
 30
0.0
 11
149.4013888888889
 21
138.2006944444444
 31
0.0
  0
LINE
  5
799
330
A
100
AcDbEntity
  8
WOOD
 62
     7
100
AcDbLine
 10
146.5791666666667
 20
137.2305555555556
 30
0.0
 11
149.4013888888889
 21
137.4951388888889
 31
0.0
  0
LINE
  5
798
330
A
100
AcDbEntity
  8
WOOD
 62
     7
100
AcDbLine
 10
149.4013888888889
 20
134.6729166666667
 30
0.0
 11
152.9291666666667
 21
134.2319444444444
 31
0.0
  0
LINE
  5
797
330
A
100
AcDbEntity
  8
WOOD
 62
     7
100
AcDbLine
 10
149.4013888888889
 20
136.0840277777778
 30
0.0
 11
152.9291666666667
 21
135.6430555555556
 31
0.0
  0
LINE
  5
796
330
A
100
AcDbEntity
  8
WOOD
 62
     7
100
AcDbLine
 10
149.4013888888889
 20
135.4666666666666
 30
0.0
 11
152.9291666666667
 21
135.0256944444444
 31
0.0
  0
LINE
  5
795
330
A
100
AcDbEntity
  8
WOOD
 62
     7
100
AcDbLine
 10
149.4013888888889
 20
134.0555555555555
 30
0.0
 11
152.9291666666667
 21
133.6145833333333
 31
0.0
  0
LINE
  5
794
330
A
100
AcDbEntity
  8
WOOD
 62
     7
100
AcDbLine
 10
149.4013888888889
 20
133.35
 30
0.0
 11
152.9291666666667
 21
132.9090277777778
 31
0.0
  0
LINE
  5
793
330
A
100
AcDbEntity
  8
WOOD
 62
     7
100
AcDbLine
 10
149.4013888888889
 20
132.7326388888889
 30
0.0
 11
152.9291666666667
 21
132.2916666666667
 31
0.0
  0
LINE
  5
792
330
A
100
AcDbEntity
  8
WOOD
 62
     7
100
AcDbLine
 10
149.4013888888889
 20
131.9388888888889
 30
0.0
 11
152.9291666666667
 21
131.4979166666667
 31
0.0
  0
LINE
  5
791
330
A
100
AcDbEntity
  8
WOOD
 62
     7
100
AcDbLine
 10
149.4013888888889
 20
131.1451388888889
 30
0.0
 11
152.9291666666667
 21
130.7041666666667
 31
0.0
  0
LINE
  5
790
330
A
100
AcDbEntity
  8
WOOD
 62
     7
100
AcDbLine
 10
156.1041666666667
 20
133.0854166666667
 30
0.0
 11
158.4854166666667
 21
132.7326388888889
 31
0.0
  0
LINE
  5
78F
330
A
100
AcDbEntity
  8
WOOD
 62
     7
100
AcDbLine
 10
156.1041666666667
 20
134.4965277777778
 30
0.0
 11
158.4854166666667
 21
134.14375
 31
0.0
  0
LINE
  5
78E
330
A
100
AcDbEntity
  8
WOOD
 62
     7
100
AcDbLine
 10
156.1041666666667
 20
133.8791666666667
 30
0.0
 11
158.4854166666667
 21
133.5263888888889
 31
0.0
  0
LINE
  5
78D
330
A
100
AcDbEntity
  8
WOOD
 62
     7
100
AcDbLine
 10
156.1041666666667
 20
132.4680555555555
 30
0.0
 11
158.4854166666667
 21
132.1152777777778
 31
0.0
  0
LINE
  5
78C
330
A
100
AcDbEntity
  8
WOOD
 62
     7
100
AcDbLine
 10
156.1041666666667
 20
131.7625
 30
0.0
 11
158.4854166666667
 21
131.4097222222222
 31
0.0
  0
LINE
  5
78B
330
A
100
AcDbEntity
  8
WOOD
 62
     7
100
AcDbLine
 10
156.1041666666667
 20
131.1451388888889
 30
0.0
 11
158.4854166666667
 21
130.7923611111111
 31
0.0
  0
LINE
  5
78A
330
A
100
AcDbEntity
  8
WOOD
 62
     7
100
AcDbLine
 10
156.1041666666667
 20
130.3513888888889
 30
0.0
 11
158.4854166666667
 21
129.9986111111111
 31
0.0
  0
LINE
  5
789
330
A
100
AcDbEntity
  8
WOOD
 62
     7
100
AcDbLine
 10
152.9291666666667
 20
134.6729166666667
 30
0.0
 11
155.8395833333333
 21
135.3784722222222
 31
0.0
  0
LINE
  5
788
330
A
100
AcDbEntity
  8
WOOD
 62
     7
100
AcDbLine
 10
152.9291666666667
 20
133.9673611111111
 30
0.0
 11
155.8395833333333
 21
134.6729166666667
 31
0.0
  0
LINE
  5
787
330
A
100
AcDbEntity
  8
WOOD
 62
     7
100
AcDbLine
 10
152.9291666666667
 20
133.1736111111111
 30
0.0
 11
155.8395833333333
 21
133.8791666666667
 31
0.0
  0
LINE
  5
786
330
A
100
AcDbEntity
  8
WOOD
 62
     7
100
AcDbLine
 10
152.9291666666667
 20
132.55625
 30
0.0
 11
155.8395833333333
 21
133.2618055555556
 31
0.0
  0
LINE
  5
785
330
A
100
AcDbEntity
  8
WOOD
 62
     7
100
AcDbLine
 10
152.9291666666667
 20
131.7625
 30
0.0
 11
155.8395833333333
 21
132.4680555555555
 31
0.0
  0
LINE
  5
784
330
A
100
AcDbEntity
  8
WOOD
 62
     7
100
AcDbLine
 10
152.9291666666667
 20
130.8805555555555
 30
0.0
 11
155.8395833333333
 21
131.5861111111111
 31
0.0
  0
LINE
  5
783
330
A
100
AcDbEntity
  8
WOOD
 62
     7
100
AcDbLine
 10
153.0173611111111
 20
130.2631944444444
 30
0.0
 11
155.9277777777778
 21
130.96875
 31
0.0
  0
LINE
  5
782
330
A
100
AcDbEntity
  8
WOOD
 62
     7
100
AcDbLine
 10
154.0756944444444
 20
129.9986111111111
 30
0.0
 11
155.8395833333333
 21
130.3513888888889
 31
0.0
  0
LINE
  5
781
330
A
100
AcDbEntity
  8
WOOD
 62
     7
100
AcDbLine
 10
111.125
 20
95.51458333333332
 30
0.0
 11
111.125
 21
102.3055555555555
 31
0.0
  0
LINE
  5
780
330
A
100
AcDbEntity
  8
WOOD
 62
     7
100
AcDbLine
 10
105.7451388888889
 20
90.66388888888888
 30
0.0
 11
105.7451388888889
 21
100.4926372465197
 31
0.0
  0
LINE
  5
77F
330
A
100
AcDbEntity
  8
WOOD
 62
     7
100
AcDbLine
 10
100.6755086263021
 20
85.24647623697916
 30
0.0
 11
100.6755086263021
 21
100.5763516321057
 31
0.0
  0
LINE
  5
77E
330
A
100
AcDbEntity
  8
WOOD
 62
     7
100
AcDbLine
 10
105.2159722222222
 20
87.40069444444444
 30
0.0
 11
106.1838717990451
 21
83.95008680555554
 31
0.0
  0
LINE
  5
77D
330
A
100
AcDbEntity
  8
WOOD
 62
     7
100
AcDbLine
 10
115.9756944444444
 20
96.48472222222222
 30
0.0
 11
116.5048611111111
 21
94.45625
 31
0.0
  0
LINE
  5
77C
330
A
100
AcDbEntity
  8
WOOD
 62
     7
100
AcDbLine
 10
115.1819444444444
 20
95.86736111111111
 30
0.0
 11
115.7993055555556
 21
94.45625
 31
0.0
  0
LINE
  5
77B
330
A
100
AcDbEntity
  8
WOOD
 62
     7
100
AcDbLine
 10
114.5645833333333
 20
95.77916666666665
 30
0.0
 11
115.0055555555556
 21
94.45625
 31
0.0
  0
LINE
  5
77A
330
A
100
AcDbEntity
  8
WOOD
 62
     7
100
AcDbLine
 10
113.6826388888889
 20
95.77916666666665
 30
0.0
 11
113.8590277777778
 21
94.63263888888888
 31
0.0
  0
LINE
  5
779
330
A
100
AcDbEntity
  8
WOOD
 62
     7
100
AcDbLine
 10
112.8006944444444
 20
95.69097222222221
 30
0.0
 11
113.1534722222222
 21
94.63263888888888
 31
0.0
  0
LINE
  5
778
330
A
100
AcDbEntity
  8
WOOD
 62
     7
100
AcDbLine
 10
110.2499457465278
 20
91.21131456163194
 30
0.0
 11
110.6840277777778
 21
89.87013888888887
 31
0.0
  0
LINE
  5
777
330
A
100
AcDbEntity
  8
WOOD
 62
     7
100
AcDbLine
 10
109.2729166666667
 20
91.01666666666665
 30
0.0
 11
109.6256944444444
 21
89.87013888888887
 31
0.0
  0
LINE
  5
776
330
A
100
AcDbEntity
  8
WOOD
 62
     7
100
AcDbLine
 10
108.4791666666667
 20
90.92847222222221
 30
0.0
 11
108.8319444444444
 21
89.78194444444443
 31
0.0
  0
LINE
  5
775
330
A
100
AcDbEntity
  8
WOOD
 62
     7
100
AcDbLine
 10
107.5972222222222
 20
90.84027777777777
 30
0.0
 11
107.8618055555556
 21
89.87013888888887
 31
0.0
  0
LINE
  5
774
330
A
100
AcDbEntity
  8
WOOD
 62
     7
100
AcDbLine
 10
104.775
 20
86.3423611111111
 30
0.0
 11
105.6569444444444
 21
84.04930555555555
 31
0.0
  0
LINE
  5
773
330
A
100
AcDbEntity
  8
WOOD
 62
     7
100
AcDbLine
 10
104.5104166666667
 20
85.5486111111111
 30
0.0
 11
104.8631944444444
 21
84.13749999999999
 31
0.0
  0
LINE
  5
772
330
A
100
AcDbEntity
  8
WOOD
 62
     7
100
AcDbLine
 10
103.6284722222222
 20
85.46041666666666
 30
0.0
 11
103.98125
 21
84.31388888888888
 31
0.0
  0
LINE
  5
771
330
A
100
AcDbEntity
  8
WOOD
 62
     7
100
AcDbLine
 10
102.7465277777778
 20
85.37222222222222
 30
0.0
 11
102.9229166666667
 21
84.22569444444444
 31
0.0
  0
LINE
  5
770
330
A
100
AcDbEntity
  8
WOOD
 62
     7
100
AcDbLine
 10
101.6881944444444
 20
85.28402777777777
 30
0.0
 11
102.0409722222222
 21
84.31388888888888
 31
0.0
  0
LINE
  5
495
330
A
100
AcDbEntity
  8
TIE_PLATE
 62
     7
100
AcDbLine
 10
120.1980034722222
 20
148.5337415907118
 30
0.0
 11
131.9185628255208
 21
145.0733154296875
 31
0.0
  0
LINE
  5
494
330
A
100
AcDbEntity
  8
TIE_PLATE
 62
     7
100
AcDbLine
 10
115.7903483072917
 20
165.3351277669271
 30
0.0
 11
115.7682996961806
 21
156.0018473307292
 31
0.0
  0
SPLINE
  5
1B9
330
A
100
AcDbEntity
  8
LGT
 62
     7
100
AcDbSpline
210
0.0
220
0.0
230
1.0
 70
    11
 71
     3
 72
    92
 73
    88
 74
     0
 42
0.0000000001
 43
0.0000000001
 40
0.0
 40
0.0
 40
0.0
 40
0.0
 40
1.0
 40
1.0
 40
1.0
 40
2.0
 40
2.0
 40
2.0
 40
3.0
 40
3.0
 40
3.0
 40
4.0
 40
4.0
 40
4.0
 40
5.0
 40
5.0
 40
5.0
 40
6.0
 40
6.0
 40
6.0
 40
7.0
 40
7.0
 40
7.0
 40
8.0
 40
8.0
 40
8.0
 40
9.0
 40
9.0
 40
9.0
 40
10.0
 40
10.0
 40
10.0
 40
11.0
 40
11.0
 40
11.0
 40
12.0
 40
12.0
 40
12.0
 40
13.0
 40
13.0
 40
13.0
 40
14.0
 40
14.0
 40
14.0
 40
15.0
 40
15.0
 40
15.0
 40
16.0
 40
16.0
 40
16.0
 40
17.0
 40
17.0
 40
17.0
 40
18.0
 40
18.0
 40
18.0
 40
19.0
 40
19.0
 40
19.0
 40
20.0
 40
20.0
 40
20.0
 40
21.0
 40
21.0
 40
21.0
 40
22.0
 40
22.0
 40
22.0
 40
23.0
 40
23.0
 40
23.0
 40
24.0
 40
24.0
 40
24.0
 40
25.0
 40
25.0
 40
25.0
 40
26.0
 40
26.0
 40
26.0
 40
27.0
 40
27.0
 40
27.0
 40
28.0
 40
28.0
 40
28.0
 40
29.0
 40
29.0
 40
29.0
 40
29.0
 10
120.1797444661458
 20
154.6343166775174
 30
0.0
 10
120.1797444661458
 20
154.6343166775174
 30
0.0
 10
120.1797444661458
 20
136.642822265625
 30
0.0
 10
120.1797444661458
 20
136.642822265625
 30
0.0
 10
120.1797444661458
 20
135.17314453125
 30
0.0
 10
119.5327555338542
 20
134.1144666883681
 30
0.0
 10
119.5327555338542
 20
134.1144666883681
 30
0.0
 10
119.5327555338542
 20
134.1144666883681
 30
0.0
 10
111.8894666883681
 20
123.942822265625
 30
0.0
 10
111.8894666883681
 20
123.942822265625
 30
0.0
 10
111.1253445095486
 20
122.9434000651042
 30
0.0
 10
111.0660888671875
 20
121.7672444661458
 30
0.0
 10
111.0660888671875
 20
121.7672444661458
 30
0.0
 10
111.0660888671875
 20
121.7672444661458
 30
0.0
 10
111.0660888671875
 20
101.7763888888889
 30
0.0
 10
111.0660888671875
 20
101.7763888888889
 30
0.0
 10
111.0660888671875
 20
101.7763888888889
 30
0.0
 10
109.8902777777778
 20
100.4241889105903
 30
0.0
 10
109.8902777777778
 20
100.4241889105903
 30
0.0
 10
109.8902777777778
 20
100.4241889105903
 30
0.0
 10
95.66168891059027
 20
100.659144422743
 30
0.0
 10
95.66168891059027
 20
100.659144422743
 30
0.0
 10
95.66168891059027
 20
100.659144422743
 30
0.0
 10
94.60335557725693
 20
101.7174777560764
 30
0.0
 10
94.60335557725693
 20
101.7174777560764
 30
0.0
 10
94.60335557725693
 20
101.7174777560764
 30
0.0
 10
94.60335557725693
 20
121.4730333116319
 30
0.0
 10
94.60335557725693
 20
121.4730333116319
 30
0.0
 10
94.60335557725693
 20
123.7660888671875
 30
0.0
 10
93.72141113281249
 20
124.4130777994792
 30
0.0
 10
93.72141113281249
 20
124.4130777994792
 30
0.0
 10
93.72141113281249
 20
124.4130777994792
 30
0.0
 10
86.54820556640624
 20
132.1741889105903
 30
0.0
 10
86.54820556640624
 20
132.1741889105903
 30
0.0
 10
85.43113335503472
 20
133.467822265625
 30
0.0
 10
85.48987223307292
 20
134.9375
 30
0.0
 10
85.48987223307292
 20
134.9375
 30
0.0
 10
85.48987223307292
 20
134.9375
 30
0.0
 10
85.48987223307292
 20
140.5232055664062
 30
0.0
 10
85.48987223307292
 20
140.5232055664062
 30
0.0
 10
85.48987223307292
 20
140.5232055664062
 30
0.0
 10
93.78015001085069
 20
138.9355333116319
 30
0.0
 10
93.78015001085069
 20
138.9355333116319
 30
0.0
 10
93.78015001085069
 20
138.9355333116319
 30
0.0
 10
111.2424777560764
 20
140.1704277886285
 30
0.0
 10
111.2424777560764
 20
140.1704277886285
 30
0.0
 10
112.4186333550347
 20
140.2879055447048
 30
0.0
 10
112.3597222222222
 20
141.7579277886285
 30
0.0
 10
112.3597222222222
 20
141.7579277886285
 30
0.0
 10
112.3011555989583
 20
143.2279500325521
 30
0.0
 10
111.3603000217014
 20
143.2277777777778
 30
0.0
 10
111.3603000217014
 20
143.2277777777778
 30
0.0
 10
110.3605333116319
 20
143.3454277886285
 30
0.0
 10
110.301966688368
 20
142.9926500108507
 30
0.0
 10
110.301966688368
 20
142.9926500108507
 30
0.0
 10
110.301966688368
 20
142.9926500108507
 30
0.0
 10
109.8902777777778
 20
142.875
 30
0.0
 10
109.8902777777778
 20
142.875
 30
0.0
 10
109.8902777777778
 20
142.875
 30
0.0
 10
104.3045722113715
 20
144.3448499891493
 30
0.0
 10
104.3045722113715
 20
144.3448499891493
 30
0.0
 10
104.3045722113715
 20
144.3448499891493
 30
0.0
 10
103.2462388780382
 20
145.7559611002604
 30
0.0
 10
103.2462388780382
 20
145.7559611002604
 30
0.0
 10
103.2462388780382
 20
145.7559611002604
 30
0.0
 10
103.2462388780382
 20
156.6333333333333
 30
0.0
 10
103.2462388780382
 20
156.6333333333333
 30
0.0
 10
103.2462388780382
 20
156.6333333333333
 30
0.0
 10
104.0694444444444
 20
157.3976277669271
 30
0.0
 10
104.0694444444444
 20
157.3976277669271
 30
0.0
 10
104.0694444444444
 20
157.3976277669271
 30
0.0
 10
104.5398722330729
 20
157.5152777777778
 30
0.0
 10
104.5398722330729
 20
157.5152777777778
 30
0.0
 10
104.5398722330729
 20
157.5152777777778
 30
0.0
 10
110.6547444661458
 20
155.5162611219618
 30
0.0
 10
110.6547444661458
 20
155.5162611219618
 30
0.0
 10
111.0664333767361
 20
155.3987833658854
 30
0.0
 10
111.5366889105903
 20
155.4573499891493
 30
0.0
 10
111.5366889105903
 20
155.4573499891493
 30
0.0
 10
111.5366889105903
 20
155.4573499891493
 30
0.0
 10
118.1216444227431
 20
156.2805555555555
 30
0.0
 10
118.1216444227431
 20
156.2805555555555
 30
0.0
 10
118.1216444227431
 20
156.2805555555555
 30
0.0
 10
118.9450222439236
 20
155.9277777777778
 30
0.0
 10
118.9450222439236
 20
155.9277777777778
 30
0.0
 10
118.9450222439236
 20
155.9277777777778
 30
0.0
 10
120.1797444661458
 20
154.6343166775174
 30
0.0
 10
120.1797444661458
 20
154.6343166775174
 30
0.0
  0
SPLINE
  5
1B8
330
A
100
AcDbEntity
  8
LGT
 62
     7
100
AcDbSpline
210
0.0
220
0.0
230
1.0
 70
     8
 71
     3
 72
    26
 73
    22
 74
     0
 42
0.0000000001
 43
0.0000000001
 40
0.0
 40
0.0
 40
0.0
 40
0.0
 40
1.0
 40
1.0
 40
1.0
 40
2.0
 40
2.0
 40
2.0
 40
3.0
 40
3.0
 40
3.0
 40
4.0
 40
4.0
 40
4.0
 40
5.0
 40
5.0
 40
5.0
 40
6.0
 40
6.0
 40
6.0
 40
7.0
 40
7.0
 40
7.0
 40
7.0
 10
109.3021999782986
 20
100.4827555338542
 30
0.0
 10
109.3021999782986
 20
100.4827555338542
 30
0.0
 10
110.5369222005208
 20
101.7763888888889
 30
0.0
 10
110.5369222005208
 20
101.7763888888889
 30
0.0
 10
110.5369222005208
 20
101.7763888888889
 30
0.0
 10
110.5369222005208
 20
121.5319444444444
 30
0.0
 10
110.5369222005208
 20
121.5319444444444
 30
0.0
 10
110.5369222005208
 20
121.5319444444444
 30
0.0
 10
110.4194444444444
 20
122.7666666666667
 30
0.0
 10
111.2424777560764
 20
123.8839111328125
 30
0.0
 10
111.2424777560764
 20
123.8839111328125
 30
0.0
 10
118.9450222439236
 20
134.1144666883681
 30
0.0
 10
118.9450222439236
 20
134.1144666883681
 30
0.0
 10
118.9450222439236
 20
134.1144666883681
 30
0.0
 10
119.7091444227431
 20
134.8789333767361
 30
0.0
 10
119.7094889322917
 20
136.8192111545139
 30
0.0
 10
119.7094889322917
 20
136.8192111545139
 30
0.0
 10
119.7094889322917
 20
154.8107055664062
 30
0.0
 10
119.7094889322917
 20
154.8107055664062
 30
0.0
 10
119.7094889322917
 20
154.8107055664062
 30
0.0
 10
118.1216444227431
 20
156.2805555555555
 30
0.0
 10
118.1216444227431
 20
156.2805555555555
 30
0.0
  0
LWPOLYLINE
  5
1B1
330
A
100
AcDbEntity
  8
LGT
 62
     7
100
AcDbPolyline
 90
        5
 70
     0
 43
0.0
 10
104.5398722330729
 20
157.5152777777778
 10
103.8341444227431
 20
156.7511555989583
 10
103.8341444227431
 20
146.0501722547743
 10
105.0101277669271
 20
144.4626722547743
 10
110.2430555555555
 20
142.9926500108507
  0
LINE
  5
1B0
330
A
100
AcDbEntity
  8
LGT
 62
     7
100
AcDbLine
 10
103.2462388780382
 20
156.6333333333333
 30
0.0
 11
103.8341444227431
 21
156.7511555989583
 31
0.0
  0
LINE
  5
1AF
330
A
100
AcDbEntity
  8
LGT
 62
     7
100
AcDbLine
 10
103.1875
 20
145.8146999782986
 30
0.0
 11
103.8343166775174
 21
145.9325222439236
 31
0.0
  0
LINE
  5
1AE
330
A
100
AcDbEntity
  8
LGT
 62
     7
100
AcDbLine
 10
110.5369222005208
 20
101.7763888888889
 30
0.0
 11
111.0660888671875
 21
101.7763888888889
 31
0.0
  0
INSERT
  5
1A7
330
A
100
AcDbEntity
  8
LGT
 62
     7
100
AcDbBlockReference
  2
AI9-BLK45
 10
114.7997111002604
 20
148.5122097439236
 30
0.0
  0
INSERT
  5
19F
330
A
100
AcDbEntity
  8
LGT
 62
     7
100
AcDbBlockReference
  2
AI9-BLK44
 10
114.2734727647569
 20
140.2703355577257
 30
0.0
  0
INSERT
  5
199
330
A
100
AcDbEntity
  8
LGT
 62
     7
100
AcDbBlockReference
  2
AI9-BLK43
 10
93.86240166558159
 20
137.2722412109375
 30
0.0
  0
INSERT
  5
185
330
A
100
AcDbEntity
  8
LGT
 62
     7
100
AcDbBlockReference
  2
AI9-BLK42
 10
96.78901028103297
 20
105.3318996853299
 30
0.0
  0
INSERT
  5
171
330
A
100
AcDbEntity
  8
LGT
 62
     7
100
AcDbBlockReference
  2
AI9-BLK41
 10
108.4306769476996
 20
105.3318996853299
 30
0.0
  0
INSERT
  5
15D
330
A
100
AcDbEntity
  8
LGT
 62
     7
100
AcDbBlockReference
  2
AI9-BLK40
 10
96.78901028103297
 20
117.3263441297743
 30
0.0
  0
INSERT
  5
149
330
A
100
AcDbEntity
  8
LGT
 62
     7
100
AcDbBlockReference
  2
AI9-BLK39
 10
108.4306769476996
 20
117.3263441297743
 30
0.0
  0
INSERT
  5
143
330
A
100
AcDbEntity
  8
LGT
 62
     7
100
AcDbBlockReference
  2
AI9-BLK38
 10
87.77224799262152
 20
136.8227423773871
 30
0.0
  0
INSERT
  5
13D
330
A
100
AcDbEntity
  8
LGT
 62
     7
100
AcDbBlockReference
  2
AI9-BLK37
 10
102.6760755750868
 20
136.90947265625
 30
0.0
  0
INSERT
  5
137
330
A
100
AcDbEntity
  8
LGT
 62
     7
100
AcDbBlockReference
  2
AI9-BLK36
 10
92.96392076280381
 20
132.7426296657986
 30
0.0
  0
INSERT
  5
131
330
A
100
AcDbEntity
  8
LGT
 62
     7
100
AcDbBlockReference
  2
AI9-BLK35
 10
112.6311096191406
 20
133.8001878526476
 30
0.0
  0
INSERT
  5
12B
330
A
100
AcDbEntity
  8
LGT
 62
     7
100
AcDbBlockReference
  2
AI9-BLK34
 10
97.70445827907986
 20
102.5410278320313
 30
0.0
  0
INSERT
  5
125
330
A
100
AcDbEntity
  8
LGT
 62
     7
100
AcDbBlockReference
  2
AI9-BLK33
 10
97.70445827907986
 20
111.0076944986979
 30
0.0
  0
INSERT
  5
11F
330
A
100
AcDbEntity
  8
LGT
 62
     7
100
AcDbBlockReference
  2
AI9-BLK32
 10
97.70376925998264
 20
120.2681111653646
 30
0.0
  0
INSERT
  5
119
330
A
100
AcDbEntity
  8
LGT
 62
     7
100
AcDbBlockReference
  2
AI9-BLK31
 10
103.3489027235243
 20
102.3646389431424
 30
0.0
  0
INSERT
  5
113
330
A
100
AcDbEntity
  8
LGT
 62
     7
100
AcDbBlockReference
  2
AI9-BLK30
 10
101.8497694227431
 20
105.2747972276476
 30
0.0
  0
INSERT
  5
10D
330
A
100
AcDbEntity
  8
LGT
 62
     7
100
AcDbBlockReference
  2
AI9-BLK29
 10
101.8497694227431
 20
111.0956305609809
 30
0.0
  0
INSERT
  5
107
330
A
100
AcDbEntity
  8
LGT
 62
     7
100
AcDbBlockReference
  2
AI9-BLK28
 10
101.8497694227431
 20
117.269241672092
 30
0.0
  0
INSERT
  5
101
330
A
100
AcDbEntity
  8
LGT
 62
     7
100
AcDbBlockReference
  2
AI9-BLK27
 10
101.8504584418403
 20
123.1782694498698
 30
0.0
  0
INSERT
  5
FB
330
A
100
AcDbEntity
  8
LGT
 62
     7
100
AcDbBlockReference
  2
AI9-BLK26
 10
108.1115749782986
 20
102.2760999891493
 30
0.0
  0
INSERT
  5
F5
330
A
100
AcDbEntity
  8
LGT
 62
     7
100
AcDbBlockReference
  2
AI9-BLK25
 10
108.1122639973958
 20
111.1837388780382
 30
0.0
  0
INSERT
  5
EF
330
A
100
AcDbEntity
  8
LGT
 62
     7
100
AcDbBlockReference
  2
AI9-BLK24
 10
108.1115749782986
 20
120.6205444335937
 30
0.0
  0
INSERT
  5
E9
330
A
100
AcDbEntity
  8
LGT
 62
     7
100
AcDbBlockReference
  2
AI9-BLK23
 10
96.64629720052082
 20
108.0972778320312
 30
0.0
  0
INSERT
  5
E3
330
A
100
AcDbEntity
  8
LGT
 62
     7
100
AcDbBlockReference
  2
AI9-BLK22
 10
103.6135721842448
 20
108.1852138943142
 30
0.0
  0
INSERT
  5
DD
330
A
100
AcDbEntity
  8
LGT
 62
     7
100
AcDbBlockReference
  2
AI9-BLK21
 10
108.9933471679687
 20
108.1854722764757
 30
0.0
  0
INSERT
  5
D7
330
A
100
AcDbEntity
  8
LGT
 62
     7
100
AcDbBlockReference
  2
AI9-BLK20
 10
96.64612494574652
 20
114.006305609809
 30
0.0
  0
INSERT
  5
D1
330
A
100
AcDbEntity
  8
LGT
 62
     7
100
AcDbBlockReference
  2
AI9-BLK19
 10
96.6454359266493
 20
124.1486667209201
 30
0.0
  0
INSERT
  5
CB
330
A
100
AcDbEntity
  8
LGT
 62
     7
100
AcDbBlockReference
  2
AI9-BLK18
 10
103.6136583116319
 20
114.094241672092
 30
0.0
  0
INSERT
  5
C5
330
A
100
AcDbEntity
  8
LGT
 62
     7
100
AcDbBlockReference
  2
AI9-BLK17
 10
103.6136583116319
 20
120.444241672092
 30
0.0
  0
INSERT
  5
BF
330
A
100
AcDbEntity
  8
LGT
 62
     7
100
AcDbBlockReference
  2
AI9-BLK16
 10
103.6136583116319
 20
126.0886861165365
 30
0.0
  0
INSERT
  5
B9
330
A
100
AcDbEntity
  8
LGT
 62
     7
100
AcDbBlockReference
  2
AI9-BLK15
 10
108.9935194227431
 20
114.0945000542535
 30
0.0
  0
INSERT
  5
B3
330
A
100
AcDbEntity
  8
LGT
 62
     7
100
AcDbBlockReference
  2
AI9-BLK14
 10
108.9933471679687
 20
124.4132500542535
 30
0.0
  0
INSERT
  5
AD
330
A
100
AcDbEntity
  8
LGT
 62
     7
100
AcDbBlockReference
  2
AI9-BLK13
 10
117.3868055555555
 20
138.9511223687066
 30
0.0
  0
SPLINE
  5
AB
330
A
100
AcDbEntity
  8
LGT
 62
     7
100
AcDbSpline
210
0.0
220
0.0
230
1.0
 70
     8
 71
     3
 72
    17
 73
    13
 74
     0
 42
0.0000000001
 43
0.0000000001
 40
0.0
 40
0.0
 40
0.0
 40
0.0
 40
1.0
 40
1.0
 40
1.0
 40
2.0
 40
2.0
 40
2.0
 40
3.0
 40
3.0
 40
3.0
 40
4.0
 40
4.0
 40
4.0
 40
4.0
 10
108.33447265625
 20
152.7215996636285
 30
0.0
 10
108.1617011176215
 20
152.840283203125
 30
0.0
 10
107.9622300889757
 20
152.8945434570312
 30
0.0
 10
107.7612087673611
 20
152.8609537760416
 30
0.0
 10
107.2711439344618
 20
152.7793050130208
 30
0.0
 10
106.9586737738715
 20
152.2070746527778
 30
0.0
 10
107.0627156575521
 20
151.583167860243
 30
0.0
 10
107.1669297960069
 20
150.9592610677083
 30
0.0
 10
107.6480373806424
 20
150.5201836480035
 30
0.0
 10
108.1381022135417
 20
150.60166015625
 30
0.0
 10
108.3623779296875
 20
150.6390394422743
 30
0.0
 10
108.5494466145833
 20
150.7790825737847
 30
0.0
 10
108.6762261284722
 20
150.9797593858507
 30
0.0
  0
ELLIPSE
  5
AA
330
A
100
AcDbEntity
  8
LGT
 62
     7
100
AcDbEllipse
 10
108.6100802951389
 20
151.8336263020833
 30
0.0
 11
0.1419379340277778
 21
-0.8471489800347222
 31
0.0
210
0.0
220
0.0
230
1.0
 40
0.7848144980528925
 41
0.0
 42
6.283185307179586
  0
SPLINE
  5
A9
330
A
100
AcDbEntity
  8
LGT
 62
     7
100
AcDbSpline
210
0.0
220
0.0
230
1.0
 70
    11
 71
     3
 72
    23
 73
    19
 74
     0
 42
0.0000000001
 43
0.0000000001
 40
0.0
 40
0.0
 40
0.0
 40
0.0
 40
1.0
 40
1.0
 40
1.0
 40
2.0
 40
2.0
 40
2.0
 40
3.0
 40
3.0
 40
3.0
 40
4.0
 40
4.0
 40
4.0
 40
5.0
 40
5.0
 40
5.0
 40
6.0
 40
6.0
 40
6.0
 40
6.0
 10
109.2749837239583
 20
151.9447306315104
 30
0.0
 10
109.1974690755208
 20
152.4125745985243
 30
0.0
 10
108.836767578125
 20
152.7420979817708
 30
0.0
 10
108.4688313802083
 20
152.6809475368924
 30
0.0
 10
108.3678900824653
 20
152.6640665690104
 30
0.0
 10
107.9866902669271
 20
152.6208306206597
 30
0.0
 10
107.8742078993056
 20
152.6020548502604
 30
0.0
 10
107.5066162109375
 20
152.5407321506076
 30
0.0
 10
107.2723497178819
 20
152.1116455078125
 30
0.0
 10
107.3503811306424
 20
151.6436292860243
 30
0.0
 10
107.4284125434028
 20
151.1757853190104
 30
0.0
 10
107.7892862955729
 20
150.8464341905382
 30
0.0
 10
108.156877983941
 20
150.9074123806423
 30
0.0
 10
108.2579915364583
 20
150.9242933485243
 30
0.0
 10
108.6393636067708
 20
150.9677015516493
 30
0.0
 10
108.7520182291667
 20
150.9864773220486
 30
0.0
 10
109.1189208984375
 20
151.0478000217014
 30
0.0
 10
109.3538764105903
 20
151.4768866644965
 30
0.0
 10
109.2749837239583
 20
151.9447306315104
 30
0.0
  0
SPLINE
  5
A8
330
A
100
AcDbEntity
  8
LGT
 62
     7
100
AcDbSpline
210
0.0
220
0.0
230
1.0
 70
    11
 71
     3
 72
    35
 73
    31
 74
     0
 42
0.0000000001
 43
0.0000000001
 40
0.0
 40
0.0
 40
0.0
 40
0.0
 40
1.0
 40
1.0
 40
1.0
 40
2.0
 40
2.0
 40
2.0
 40
3.0
 40
3.0
 40
3.0
 40
4.0
 40
4.0
 40
4.0
 40
5.0
 40
5.0
 40
5.0
 40
6.0
 40
6.0
 40
6.0
 40
7.0
 40
7.0
 40
7.0
 40
8.0
 40
8.0
 40
8.0
 40
9.0
 40
9.0
 40
9.0
 40
10.0
 40
10.0
 40
10.0
 40
10.0
 10
109.2749837239583
 20
151.9447306315104
 30
0.0
 10
109.1974690755208
 20
152.4125745985243
 30
0.0
 10
108.836767578125
 20
152.7420979817708
 30
0.0
 10
108.4688313802083
 20
152.6809475368924
 30
0.0
 10
108.452294921875
 20
152.6781914605035
 30
0.0
 10
108.4254231770833
 20
152.674574110243
 30
0.0
 10
108.3961398654514
 20
152.6704399956597
 30
0.0
 10
108.2097601996528
 20
152.8215074327257
 30
0.0
 10
107.98720703125
 20
152.8986775716146
 30
0.0
 10
107.7612087673611
 20
152.8609537760416
 30
0.0
 10
107.7357150607639
 20
152.856647406684
 30
0.0
 10
107.6196153428819
 20
152.8409722222222
 30
0.0
 10
107.5848198784722
 20
152.8351155598958
 30
0.0
 10
107.0949273003472
 20
152.753466796875
 30
0.0
 10
106.7824571397569
 20
152.1814086914062
 30
0.0
 10
106.8864990234375
 20
151.5575018988715
 30
0.0
 10
106.9907131618923
 20
150.9335951063368
 30
0.0
 10
107.4718207465278
 20
150.4943454318576
 30
0.0
 10
107.9618855794271
 20
150.5758219401042
 30
0.0
 10
107.98720703125
 20
150.5801283094618
 30
0.0
 10
108.1034790039062
 20
150.5958034939236
 30
0.0
 10
108.1381022135417
 20
150.60166015625
 30
0.0
 10
108.3589328342014
 20
150.6385226779514
 30
0.0
 10
108.5404893663194
 20
150.7782212999132
 30
0.0
 10
108.6672688802083
 20
150.9740749782986
 30
0.0
 10
108.7013753255208
 20
150.9787258572048
 30
0.0
 10
108.7320366753472
 20
150.9830322265625
 30
0.0
 10
108.7520182291667
 20
150.9864773220486
 30
0.0
 10
109.1189208984375
 20
151.0478000217014
 30
0.0
 10
109.3538764105903
 20
151.4768866644965
 30
0.0
 10
109.2749837239583
 20
151.9447306315104
 30
0.0
  0
LINE
  5
A7
330
A
100
AcDbEntity
  8
LGT
 62
     7
100
AcDbLine
 10
107.3508978949653
 20
152.0997599283854
 30
0.0
 11
107.989446343316
 21
152.2015625
 31
0.0
  0
LINE
  5
A6
330
A
100
AcDbEntity
  8
LGT
 62
     7
100
AcDbLine
 10
107.501276312934
 20
151.2632907443576
 30
0.0
 11
108.0733344184028
 21
151.3638875325521
 31
0.0
  0
SPLINE
  5
A5
330
A
100
AcDbEntity
  8
LGT
 62
     7
100
AcDbSpline
210
0.0
220
0.0
230
1.0
 70
     8
 71
     3
 72
    17
 73
    13
 74
     0
 42
0.0000000001
 43
0.0000000001
 40
0.0
 40
0.0
 40
0.0
 40
0.0
 40
1.0
 40
1.0
 40
1.0
 40
2.0
 40
2.0
 40
2.0
 40
3.0
 40
3.0
 40
3.0
 40
4.0
 40
4.0
 40
4.0
 40
4.0
 10
108.33447265625
 20
146.7243774414062
 30
0.0
 10
108.1617011176215
 20
146.8430609809028
 30
0.0
 10
107.9622300889757
 20
146.897321234809
 30
0.0
 10
107.7612087673611
 20
146.8637315538194
 30
0.0
 10
107.2711439344618
 20
146.7820827907986
 30
0.0
 10
106.9586737738715
 20
146.2098524305555
 30
0.0
 10
107.0627156575521
 20
145.5859456380208
 30
0.0
 10
107.1669297960069
 20
144.9620388454861
 30
0.0
 10
107.6480373806424
 20
144.5229614257812
 30
0.0
 10
108.1381022135417
 20
144.6044379340278
 30
0.0
 10
108.3623779296875
 20
144.6418172200521
 30
0.0
 10
108.5494466145833
 20
144.7818603515625
 30
0.0
 10
108.6762261284722
 20
144.9825371636285
 30
0.0
  0
ELLIPSE
  5
A4
330
A
100
AcDbEntity
  8
LGT
 62
     7
100
AcDbEllipse
 10
108.6100802951389
 20
145.8364040798611
 30
0.0
 11
0.1419379340277778
 21
-0.8471489800347222
 31
0.0
210
0.0
220
0.0
230
1.0
 40
0.7848144980528925
 41
0.0
 42
6.283185307179586
  0
SPLINE
  5
A3
330
A
100
AcDbEntity
  8
LGT
 62
     7
100
AcDbSpline
210
0.0
220
0.0
230
1.0
 70
    11
 71
     3
 72
    23
 73
    19
 74
     0
 42
0.0000000001
 43
0.0000000001
 40
0.0
 40
0.0
 40
0.0
 40
0.0
 40
1.0
 40
1.0
 40
1.0
 40
2.0
 40
2.0
 40
2.0
 40
3.0
 40
3.0
 40
3.0
 40
4.0
 40
4.0
 40
4.0
 40
5.0
 40
5.0
 40
5.0
 40
6.0
 40
6.0
 40
6.0
 40
6.0
 10
109.2749837239583
 20
145.9475084092882
 30
0.0
 10
109.1974690755208
 20
146.4153523763021
 30
0.0
 10
108.836767578125
 20
146.7448757595486
 30
0.0
 10
108.4688313802083
 20
146.6837253146701
 30
0.0
 10
108.3678900824653
 20
146.6668443467882
 30
0.0
 10
107.9866902669271
 20
146.6236083984375
 30
0.0
 10
107.8742078993056
 20
146.6048326280382
 30
0.0
 10
107.5066162109375
 20
146.5435099283854
 30
0.0
 10
107.2723497178819
 20
146.1144232855903
 30
0.0
 10
107.3503811306424
 20
145.6464070638021
 30
0.0
 10
107.4284125434028
 20
145.1785630967882
 30
0.0
 10
107.7892862955729
 20
144.849211968316
 30
0.0
 10
108.156877983941
 20
144.9101901584201
 30
0.0
 10
108.2579915364583
 20
144.9270711263021
 30
0.0
 10
108.6393636067708
 20
144.9704793294271
 30
0.0
 10
108.7520182291667
 20
144.9892550998264
 30
0.0
 10
109.1189208984375
 20
145.0505777994792
 30
0.0
 10
109.3538764105903
 20
145.4796644422743
 30
0.0
 10
109.2749837239583
 20
145.9475084092882
 30
0.0
  0
SPLINE
  5
A2
330
A
100
AcDbEntity
  8
LGT
 62
     7
100
AcDbSpline
210
0.0
220
0.0
230
1.0
 70
    11
 71
     3
 72
    35
 73
    31
 74
     0
 42
0.0000000001
 43
0.0000000001
 40
0.0
 40
0.0
 40
0.0
 40
0.0
 40
1.0
 40
1.0
 40
1.0
 40
2.0
 40
2.0
 40
2.0
 40
3.0
 40
3.0
 40
3.0
 40
4.0
 40
4.0
 40
4.0
 40
5.0
 40
5.0
 40
5.0
 40
6.0
 40
6.0
 40
6.0
 40
7.0
 40
7.0
 40
7.0
 40
8.0
 40
8.0
 40
8.0
 40
9.0
 40
9.0
 40
9.0
 40
10.0
 40
10.0
 40
10.0
 40
10.0
 10
109.2749837239583
 20
145.9475084092882
 30
0.0
 10
109.1974690755208
 20
146.4153523763021
 30
0.0
 10
108.836767578125
 20
146.7448757595486
 30
0.0
 10
108.4688313802083
 20
146.6837253146701
 30
0.0
 10
108.452294921875
 20
146.6809692382813
 30
0.0
 10
108.4254231770833
 20
146.6773518880208
 30
0.0
 10
108.3961398654514
 20
146.6732177734375
 30
0.0
 10
108.2097601996528
 20
146.8242852105035
 30
0.0
 10
107.98720703125
 20
146.9014553493923
 30
0.0
 10
107.7612087673611
 20
146.8637315538194
 30
0.0
 10
107.7357150607639
 20
146.8594251844618
 30
0.0
 10
107.6196153428819
 20
146.84375
 30
0.0
 10
107.5848198784722
 20
146.8378933376736
 30
0.0
 10
107.0949273003472
 20
146.7562445746528
 30
0.0
 10
106.7824571397569
 20
146.184186469184
 30
0.0
 10
106.8864990234375
 20
145.5602796766493
 30
0.0
 10
106.9907131618923
 20
144.9363728841146
 30
0.0
 10
107.4718207465278
 20
144.4971232096354
 30
0.0
 10
107.9618855794271
 20
144.5785997178819
 30
0.0
 10
107.98720703125
 20
144.5829060872396
 30
0.0
 10
108.1034790039062
 20
144.5985812717014
 30
0.0
 10
108.1381022135417
 20
144.6044379340278
 30
0.0
 10
108.3589328342014
 20
144.6413004557292
 30
0.0
 10
108.5404893663194
 20
144.780999077691
 30
0.0
 10
108.6672688802083
 20
144.9768527560764
 30
0.0
 10
108.7013753255208
 20
144.9815036349826
 30
0.0
 10
108.7320366753472
 20
144.9858100043403
 30
0.0
 10
108.7520182291667
 20
144.9892550998264
 30
0.0
 10
109.1189208984375
 20
145.0505777994792
 30
0.0
 10
109.3538764105903
 20
145.4796644422743
 30
0.0
 10
109.2749837239583
 20
145.9475084092882
 30
0.0
  0
LINE
  5
A1
330
A
100
AcDbEntity
  8
LGT
 62
     7
100
AcDbLine
 10
107.3508978949653
 20
146.1025377061632
 30
0.0
 11
107.989446343316
 21
146.2043402777778
 31
0.0
  0
LINE
  5
A0
330
A
100
AcDbEntity
  8
LGT
 62
     7
100
AcDbLine
 10
107.501276312934
 20
145.2660685221354
 30
0.0
 11
108.0733344184028
 21
145.3666653103298
 31
0.0
  0
SPLINE
  5
9F
330
A
100
AcDbEntity
  8
LGT
 62
     7
100
AcDbSpline
210
0.0
220
0.0
230
1.0
 70
     8
 71
     3
 72
    17
 73
    13
 74
     0
 42
0.0000000001
 43
0.0000000001
 40
0.0
 40
0.0
 40
0.0
 40
0.0
 40
1.0
 40
1.0
 40
1.0
 40
2.0
 40
2.0
 40
2.0
 40
3.0
 40
3.0
 40
3.0
 40
4.0
 40
4.0
 40
4.0
 40
4.0
 10
106.1141086154514
 20
156.1832316080729
 30
0.0
 10
105.9428873697917
 20
156.3043267144097
 30
0.0
 10
105.744105360243
 20
156.3611707899306
 30
0.0
 10
105.5427395290799
 20
156.3303371853299
 30
0.0
 10
105.0516411675347
 20
156.2554063585069
 30
0.0
 10
104.7314195421007
 20
155.6874823676215
 30
0.0
 10
104.8270209418403
 20
155.0621975368923
 30
0.0
 10
104.9227945963542
 20
154.4369127061632
 30
0.0
 10
105.3978732638889
 20
153.9912896050347
 30
0.0
 10
105.888971625434
 20
154.0662204318576
 30
0.0
 10
106.1137641059028
 20
154.1004991319444
 30
0.0
 10
106.302727593316
 20
154.2379584418403
 30
0.0
 10
106.4320909288194
 20
154.4369127061632
 30
0.0
  0
ELLIPSE
  5
9E
330
A
100
AcDbEntity
  8
LGT
 62
     7
100
AcDbEllipse
 10
106.3759358723958
 20
155.3026652018229
 30
0.0
 11
0.1419379340277778
 21
-0.8471489800347222
 31
0.0
210
0.0
220
0.0
230
1.0
 40
0.7848144980528925
 41
0.0
 42
6.283185307179586
  0
SPLINE
  5
9D
330
A
100
AcDbEntity
  8
LGT
 62
     7
100
AcDbSpline
210
0.0
220
0.0
230
1.0
 70
    11
 71
     3
 72
    23
 73
    19
 74
     0
 42
0.0000000001
 43
0.0000000001
 40
0.0
 40
0.0
 40
0.0
 40
0.0
 40
1.0
 40
1.0
 40
1.0
 40
2.0
 40
2.0
 40
2.0
 40
3.0
 40
3.0
 40
3.0
 40
4.0
 40
4.0
 40
4.0
 40
5.0
 40
5.0
 40
5.0
 40
6.0
 40
6.0
 40
6.0
 40
6.0
 10
107.0408393012153
 20
155.41376953125
 30
0.0
 10
106.9633246527778
 20
155.8816134982639
 30
0.0
 10
106.6026231553819
 20
156.2111368815104
 30
0.0
 10
106.2346869574653
 20
156.1499864366319
 30
0.0
 10
106.1337456597222
 20
156.13310546875
 30
0.0
 10
105.752545844184
 20
156.0898695203993
 30
0.0
 10
105.6400634765625
 20
156.07109375
 30
0.0
 10
105.2724717881944
 20
156.0097710503472
 30
0.0
 10
105.0382052951389
 20
155.5806844075521
 30
0.0
 10
105.1162367078993
 20
155.1126681857639
 30
0.0
 10
105.1942681206597
 20
154.64482421875
 30
0.0
 10
105.5551418728299
 20
154.3154730902778
 30
0.0
 10
105.9227335611979
 20
154.3764512803819
 30
0.0
 10
106.0238471137153
 20
154.3933322482639
 30
0.0
 10
106.4052191840278
 20
154.4367404513889
 30
0.0
 10
106.5178738064236
 20
154.4555162217882
 30
0.0
 10
106.8847764756944
 20
154.516838921441
 30
0.0
 10
107.1197319878472
 20
154.9459255642361
 30
0.0
 10
107.0408393012153
 20
155.41376953125
 30
0.0
  0
SPLINE
  5
9C
330
A
100
AcDbEntity
  8
LGT
 62
     7
100
AcDbSpline
210
0.0
220
0.0
230
1.0
 70
    11
 71
     3
 72
    35
 73
    31
 74
     0
 42
0.0000000001
 43
0.0000000001
 40
0.0
 40
0.0
 40
0.0
 40
0.0
 40
1.0
 40
1.0
 40
1.0
 40
2.0
 40
2.0
 40
2.0
 40
3.0
 40
3.0
 40
3.0
 40
4.0
 40
4.0
 40
4.0
 40
5.0
 40
5.0
 40
5.0
 40
6.0
 40
6.0
 40
6.0
 40
7.0
 40
7.0
 40
7.0
 40
8.0
 40
8.0
 40
8.0
 40
9.0
 40
9.0
 40
9.0
 40
10.0
 40
10.0
 40
10.0
 40
10.0
 10
107.0408393012153
 20
155.41376953125
 30
0.0
 10
106.9633246527778
 20
155.8816134982639
 30
0.0
 10
106.6026231553819
 20
156.2111368815104
 30
0.0
 10
106.2346869574653
 20
156.1499864366319
 30
0.0
 10
106.2181504991319
 20
156.147230360243
 30
0.0
 10
106.1912787543403
 20
156.1436130099826
 30
0.0
 10
106.1619954427083
 20
156.1394788953993
 30
0.0
 10
105.9756157769097
 20
156.2905463324653
 30
0.0
 10
105.7530626085069
 20
156.3677164713542
 30
0.0
 10
105.527064344618
 20
156.3299926757812
 30
0.0
 10
105.5015706380208
 20
156.3256863064236
 30
0.0
 10
105.3854709201389
 20
156.3100111219618
 30
0.0
 10
105.3506754557292
 20
156.3041544596354
 30
0.0
 10
104.8607828776042
 20
156.2225056966146
 30
0.0
 10
104.5483127170139
 20
155.6504475911458
 30
0.0
 10
104.6523546006944
 20
155.0265407986111
 30
0.0
 10
104.7565687391493
 20
154.4026340060764
 30
0.0
 10
105.2376763237847
 20
153.9633843315972
 30
0.0
 10
105.727741156684
 20
154.0448608398438
 30
0.0
 10
105.7530626085069
 20
154.0491672092014
 30
0.0
 10
105.8693345811632
 20
154.0648423936632
 30
0.0
 10
105.9039577907986
 20
154.0706990559896
 30
0.0
 10
106.1247884114583
 20
154.1075615776909
 30
0.0
 10
106.3063449435764
 20
154.2472601996528
 30
0.0
 10
106.4331244574653
 20
154.4431138780382
 30
0.0
 10
106.4672309027778
 20
154.4477647569444
 30
0.0
 10
106.4978922526042
 20
154.4520711263021
 30
0.0
 10
106.5178738064236
 20
154.4555162217882
 30
0.0
 10
106.8847764756944
 20
154.516838921441
 30
0.0
 10
107.1197319878472
 20
154.9459255642361
 30
0.0
 10
107.0408393012153
 20
155.41376953125
 30
0.0
  0
LINE
  5
9B
330
A
100
AcDbEntity
  8
LGT
 62
     7
100
AcDbLine
 10
105.1167534722222
 20
155.568798828125
 30
0.0
 11
105.7553019205729
 21
155.6706013997396
 31
0.0
  0
LINE
  5
9A
330
A
100
AcDbEntity
  8
LGT
 62
     7
100
AcDbLine
 10
105.267131890191
 20
154.7323296440972
 30
0.0
 11
105.8391899956597
 21
154.8329264322917
 31
0.0
  0
SPLINE
  5
99
330
A
100
AcDbEntity
  8
LGT
 62
     7
100
AcDbSpline
210
0.0
220
0.0
230
1.0
 70
     8
 71
     3
 72
    17
 73
    13
 74
     0
 42
0.0000000001
 43
0.0000000001
 40
0.0
 40
0.0
 40
0.0
 40
0.0
 40
1.0
 40
1.0
 40
1.0
 40
2.0
 40
2.0
 40
2.0
 40
3.0
 40
3.0
 40
3.0
 40
4.0
 40
4.0
 40
4.0
 40
4.0
 10
106.1003282335069
 20
150.3110663519965
 30
0.0
 10
105.9275566948785
 20
150.429749891493
 30
0.0
 10
105.7280856662326
 20
150.4840101453993
 30
0.0
 10
105.527064344618
 20
150.4504204644097
 30
0.0
 10
105.0369995117188
 20
150.3687717013889
 30
0.0
 10
104.7245293511285
 20
149.7965413411458
 30
0.0
 10
104.828571234809
 20
149.1726345486111
 30
0.0
 10
104.9327853732639
 20
148.5487277560764
 30
0.0
 10
105.4138929578993
 20
148.1096503363715
 30
0.0
 10
105.9039577907986
 20
148.1911268446181
 30
0.0
 10
106.1282335069444
 20
148.2285061306424
 30
0.0
 10
106.3153021918403
 20
148.3685492621528
 30
0.0
 10
106.4420817057292
 20
148.5692260742187
 30
0.0
  0
ELLIPSE
  5
98
330
A
100
AcDbEntity
  8
LGT
 62
     7
100
AcDbEllipse
 10
106.3759358723958
 20
149.4230929904514
 30
0.0
 11
0.1419379340277778
 21
-0.8471489800347222
 31
0.0
210
0.0
220
0.0
230
1.0
 40
0.7848144980528925
 41
0.0
 42
6.283185307179586
  0
SPLINE
  5
97
330
A
100
AcDbEntity
  8
LGT
 62
     7
100
AcDbSpline
210
0.0
220
0.0
230
1.0
 70
    11
 71
     3
 72
    23
 73
    19
 74
     0
 42
0.0000000001
 43
0.0000000001
 40
0.0
 40
0.0
 40
0.0
 40
0.0
 40
1.0
 40
1.0
 40
1.0
 40
2.0
 40
2.0
 40
2.0
 40
3.0
 40
3.0
 40
3.0
 40
4.0
 40
4.0
 40
4.0
 40
5.0
 40
5.0
 40
5.0
 40
6.0
 40
6.0
 40
6.0
 40
6.0
 10
107.0408393012153
 20
149.5341973198784
 30
0.0
 10
106.9633246527778
 20
150.0020412868923
 30
0.0
 10
106.6026231553819
 20
150.3315646701389
 30
0.0
 10
106.2346869574653
 20
150.2704142252604
 30
0.0
 10
106.1337456597222
 20
150.2535332573785
 30
0.0
 10
105.752545844184
 20
150.2102973090278
 30
0.0
 10
105.6400634765625
 20
150.1915215386285
 30
0.0
 10
105.2724717881944
 20
150.1301988389757
 30
0.0
 10
105.0382052951389
 20
149.7011121961805
 30
0.0
 10
105.1162367078993
 20
149.2330959743923
 30
0.0
 10
105.1942681206597
 20
148.7652520073785
 30
0.0
 10
105.5551418728299
 20
148.4359008789062
 30
0.0
 10
105.9227335611979
 20
148.4968790690104
 30
0.0
 10
106.0238471137153
 20
148.5137600368923
 30
0.0
 10
106.4052191840278
 20
148.5571682400174
 30
0.0
 10
106.5178738064236
 20
148.5759440104167
 30
0.0
 10
106.8847764756944
 20
148.6372667100694
 30
0.0
 10
107.1197319878472
 20
149.0663533528646
 30
0.0
 10
107.0408393012153
 20
149.5341973198784
 30
0.0
  0
SPLINE
  5
96
330
A
100
AcDbEntity
  8
LGT
 62
     7
100
AcDbSpline
210
0.0
220
0.0
230
1.0
 70
    11
 71
     3
 72
    35
 73
    31
 74
     0
 42
0.0000000001
 43
0.0000000001
 40
0.0
 40
0.0
 40
0.0
 40
0.0
 40
1.0
 40
1.0
 40
1.0
 40
2.0
 40
2.0
 40
2.0
 40
3.0
 40
3.0
 40
3.0
 40
4.0
 40
4.0
 40
4.0
 40
5.0
 40
5.0
 40
5.0
 40
6.0
 40
6.0
 40
6.0
 40
7.0
 40
7.0
 40
7.0
 40
8.0
 40
8.0
 40
8.0
 40
9.0
 40
9.0
 40
9.0
 40
10.0
 40
10.0
 40
10.0
 40
10.0
 10
107.0408393012153
 20
149.5341973198784
 30
0.0
 10
106.9633246527778
 20
150.0020412868923
 30
0.0
 10
106.6026231553819
 20
150.3315646701389
 30
0.0
 10
106.2346869574653
 20
150.2704142252604
 30
0.0
 10
106.2181504991319
 20
150.2676581488715
 30
0.0
 10
106.1912787543403
 20
150.2640407986111
 30
0.0
 10
106.1619954427083
 20
150.2599066840278
 30
0.0
 10
105.9756157769097
 20
150.4109741210937
 30
0.0
 10
105.7530626085069
 20
150.4881442599826
 30
0.0
 10
105.527064344618
 20
150.4504204644097
 30
0.0
 10
105.5015706380208
 20
150.4461140950521
 30
0.0
 10
105.3854709201389
 20
150.4304389105903
 30
0.0
 10
105.3506754557292
 20
150.4245822482639
 30
0.0
 10
104.8607828776042
 20
150.342933485243
 30
0.0
 10
104.5483127170139
 20
149.7708753797743
 30
0.0
 10
104.6523546006944
 20
149.1469685872396
 30
0.0
 10
104.7565687391493
 20
148.5230617947049
 30
0.0
 10
105.2376763237847
 20
148.0838121202257
 30
0.0
 10
105.727741156684
 20
148.1652886284722
 30
0.0
 10
105.7530626085069
 20
148.1695949978299
 30
0.0
 10
105.8693345811632
 20
148.1852701822917
 30
0.0
 10
105.9039577907986
 20
148.1911268446181
 30
0.0
 10
106.1247884114583
 20
148.2279893663194
 30
0.0
 10
106.3063449435764
 20
148.3676879882812
 30
0.0
 10
106.4331244574653
 20
148.5635416666667
 30
0.0
 10
106.4672309027778
 20
148.5681925455729
 30
0.0
 10
106.4978922526042
 20
148.5724989149306
 30
0.0
 10
106.5178738064236
 20
148.5759440104167
 30
0.0
 10
106.8847764756944
 20
148.6372667100694
 30
0.0
 10
107.1197319878472
 20
149.0663533528646
 30
0.0
 10
107.0408393012153
 20
149.5341973198784
 30
0.0
  0
LINE
  5
95
330
A
100
AcDbEntity
  8
LGT
 62
     7
100
AcDbLine
 10
105.1167534722222
 20
149.6892266167534
 30
0.0
 11
105.7553019205729
 21
149.791029188368
 31
0.0
  0
LINE
  5
94
330
A
100
AcDbEntity
  8
LGT
 62
     7
100
AcDbLine
 10
105.267131890191
 20
148.8527574327257
 30
0.0
 11
105.8391899956597
 21
148.9533542209201
 31
0.0
  0
INSERT
  5
8E
330
A
100
AcDbEntity
  8
LGT
 62
     7
100
AcDbBlockReference
  2
AI9-BLK12
 10
110.9486111111111
 20
148.5194444444444
 30
0.0
  0
INSERT
  5
87
330
A
100
AcDbEntity
  8
LGT
 62
     7
100
AcDbBlockReference
  2
AI9-BLK11
 10
111.4188666449653
 20
149.3131944444444
 30
0.0
  0
SPLINE
  5
85
330
A
100
AcDbEntity
  8
LGT
 62
     7
100
AcDbSpline
210
0.0
220
0.0
230
1.0
 70
     8
 71
     3
 72
    17
 73
    13
 74
     0
 42
0.0000000001
 43
0.0000000001
 40
0.0
 40
0.0
 40
0.0
 40
0.0
 40
1.0
 40
1.0
 40
1.0
 40
2.0
 40
2.0
 40
2.0
 40
3.0
 40
3.0
 40
3.0
 40
4.0
 40
4.0
 40
4.0
 40
4.0
 10
110.2161838107639
 20
154.9559163411458
 30
0.0
 10
110.0432400173611
 20
155.0745998806424
 30
0.0
 10
109.8437689887153
 20
155.1288601345486
 30
0.0
 10
109.642919921875
 20
155.095270453559
 30
0.0
 10
109.1526828342014
 20
155.0136216905382
 30
0.0
 10
108.8402126736111
 20
154.4413913302951
 30
0.0
 10
108.9442545572917
 20
153.8174845377604
 30
0.0
 10
109.0482964409722
 20
153.1935777452257
 30
0.0
 10
109.5295762803819
 20
152.7545003255208
 30
0.0
 10
110.0198133680556
 20
152.8359768337674
 30
0.0
 10
110.2437445746528
 20
152.8733561197917
 30
0.0
 10
110.4311577690972
 20
153.0133992513021
 30
0.0
 10
110.5579372829861
 20
153.2140760633681
 30
0.0
  0
ELLIPSE
  5
84
330
A
100
AcDbEntity
  8
LGT
 62
     7
100
AcDbEllipse
 10
110.4917914496528
 20
154.0679429796007
 30
0.0
 11
0.1419379340277778
 21
-0.8471489800347222
 31
0.0
210
0.0
220
0.0
230
1.0
 40
0.7848144980528925
 41
0.0
 42
6.283185307179586
  0
SPLINE
  5
83
330
A
100
AcDbEntity
  8
LGT
 62
     7
100
AcDbSpline
210
0.0
220
0.0
230
1.0
 70
    11
 71
     3
 72
    23
 73
    19
 74
     0
 42
0.0000000001
 43
0.0000000001
 40
0.0
 40
0.0
 40
0.0
 40
0.0
 40
1.0
 40
1.0
 40
1.0
 40
2.0
 40
2.0
 40
2.0
 40
3.0
 40
3.0
 40
3.0
 40
4.0
 40
4.0
 40
4.0
 40
5.0
 40
5.0
 40
5.0
 40
6.0
 40
6.0
 40
6.0
 40
6.0
 10
111.1566948784722
 20
154.1790473090278
 30
0.0
 10
111.0788357204861
 20
154.6468912760417
 30
0.0
 10
110.7184787326389
 20
154.9764146592882
 30
0.0
 10
110.3505425347222
 20
154.9152642144097
 30
0.0
 10
110.2492567274306
 20
154.8983832465278
 30
0.0
 10
109.8682291666667
 20
154.8551472981771
 30
0.0
 10
109.7559190538194
 20
154.8363715277778
 30
0.0
 10
109.3879828559028
 20
154.775048828125
 30
0.0
 10
109.1537163628472
 20
154.3459621853299
 30
0.0
 10
109.2319200303819
 20
153.8779459635417
 30
0.0
 10
109.3101236979167
 20
153.4101019965278
 30
0.0
 10
109.6708251953125
 20
153.0807508680555
 30
0.0
 10
110.0384168836805
 20
153.1417290581597
 30
0.0
 10
110.1397026909722
 20
153.1586100260417
 30
0.0
 10
110.5207302517361
 20
153.2020182291666
 30
0.0
 10
110.6337293836806
 20
153.220793999566
 30
0.0
 10
111.0002875434028
 20
153.2821166992187
 30
0.0
 10
111.2352430555555
 20
153.7112033420139
 30
0.0
 10
111.1566948784722
 20
154.1790473090278
 30
0.0
  0
SPLINE
  5
82
330
A
100
AcDbEntity
  8
LGT
 62
     7
100
AcDbSpline
210
0.0
220
0.0
230
1.0
 70
    11
 71
     3
 72
    35
 73
    31
 74
     0
 42
0.0000000001
 43
0.0000000001
 40
0.0
 40
0.0
 40
0.0
 40
0.0
 40
1.0
 40
1.0
 40
1.0
 40
2.0
 40
2.0
 40
2.0
 40
3.0
 40
3.0
 40
3.0
 40
4.0
 40
4.0
 40
4.0
 40
5.0
 40
5.0
 40
5.0
 40
6.0
 40
6.0
 40
6.0
 40
7.0
 40
7.0
 40
7.0
 40
8.0
 40
8.0
 40
8.0
 40
9.0
 40
9.0
 40
9.0
 40
10.0
 40
10.0
 40
10.0
 40
10.0
 10
111.1566948784722
 20
154.1790473090278
 30
0.0
 10
111.0788357204861
 20
154.6468912760417
 30
0.0
 10
110.7184787326389
 20
154.9764146592882
 30
0.0
 10
110.3505425347222
 20
154.9152642144097
 30
0.0
 10
110.3340060763889
 20
154.9125081380208
 30
0.0
 10
110.3071343315972
 20
154.9088907877604
 30
0.0
 10
110.2775065104167
 20
154.9047566731771
 30
0.0
 10
110.0914713541667
 20
155.055824110243
 30
0.0
 10
109.8689181857639
 20
155.1329942491319
 30
0.0
 10
109.642919921875
 20
155.095270453559
 30
0.0
 10
109.6174262152778
 20
155.0909640842014
 30
0.0
 10
109.5009819878472
 20
155.0752888997396
 30
0.0
 10
109.4665310329861
 20
155.0694322374132
 30
0.0
 10
108.9766384548611
 20
154.9877834743924
 30
0.0
 10
108.6638237847222
 20
154.4157253689236
 30
0.0
 10
108.7678656684028
 20
153.7918185763889
 30
0.0
 10
108.8722520616319
 20
153.1679117838542
 30
0.0
 10
109.3535319010417
 20
152.728662109375
 30
0.0
 10
109.8434244791667
 20
152.8101386176215
 30
0.0
 10
109.8689181857639
 20
152.8144449869791
 30
0.0
 10
109.9850179036458
 20
152.830120171441
 30
0.0
 10
110.0198133680556
 20
152.8359768337674
 30
0.0
 10
110.2402994791667
 20
152.8728393554687
 30
0.0
 10
110.4222005208333
 20
153.0125379774306
 30
0.0
 10
110.5489800347222
 20
153.2083916558159
 30
0.0
 10
110.5827419704861
 20
153.2130425347222
 30
0.0
 10
110.6137478298611
 20
153.2173489040798
 30
0.0
 10
110.6337293836806
 20
153.220793999566
 30
0.0
 10
111.0002875434028
 20
153.2821166992187
 30
0.0
 10
111.2352430555555
 20
153.7112033420139
 30
0.0
 10
111.1566948784722
 20
154.1790473090278
 30
0.0
  0
LINE
  5
81
330
A
100
AcDbEntity
  8
LGT
 62
     7
100
AcDbLine
 10
109.2322645399305
 20
154.3340766059028
 30
0.0
 11
109.8709852430555
 21
154.4358791775173
 31
0.0
  0
LINE
  5
80
330
A
100
AcDbEntity
  8
LGT
 62
     7
100
AcDbLine
 10
109.3828152126736
 20
153.497607421875
 30
0.0
 11
109.9550455729167
 21
153.5982042100694
 31
0.0
  0
SPLINE
  5
7F
330
A
100
AcDbEntity
  8
LGT
 62
     7
100
AcDbSpline
210
0.0
220
0.0
230
1.0
 70
     8
 71
     3
 72
    17
 73
    13
 74
     0
 42
0.0000000001
 43
0.0000000001
 40
0.0
 40
0.0
 40
0.0
 40
0.0
 40
1.0
 40
1.0
 40
1.0
 40
2.0
 40
2.0
 40
2.0
 40
3.0
 40
3.0
 40
3.0
 40
4.0
 40
4.0
 40
4.0
 40
4.0
 10
110.2161838107639
 20
149.1350830078125
 30
0.0
 10
110.0432400173611
 20
149.253766547309
 30
0.0
 10
109.8437689887153
 20
149.3080268012153
 30
0.0
 10
109.642919921875
 20
149.2744371202257
 30
0.0
 10
109.1526828342014
 20
149.1927883572049
 30
0.0
 10
108.8402126736111
 20
148.6205579969618
 30
0.0
 10
108.9442545572917
 20
147.9966512044271
 30
0.0
 10
109.0482964409722
 20
147.3727444118923
 30
0.0
 10
109.5295762803819
 20
146.9336669921875
 30
0.0
 10
110.0198133680556
 20
147.015143500434
 30
0.0
 10
110.2437445746528
 20
147.0525227864583
 30
0.0
 10
110.4311577690972
 20
147.1925659179688
 30
0.0
 10
110.5579372829861
 20
147.3932427300347
 30
0.0
  0
ELLIPSE
  5
7E
330
A
100
AcDbEntity
  8
LGT
 62
     7
100
AcDbEllipse
 10
110.4917914496528
 20
148.2471096462674
 30
0.0
 11
0.1419379340277778
 21
-0.8471489800347222
 31
0.0
210
0.0
220
0.0
230
1.0
 40
0.7848144980528925
 41
0.0
 42
6.283185307179586
  0
SPLINE
  5
7D
330
A
100
AcDbEntity
  8
LGT
 62
     7
100
AcDbSpline
210
0.0
220
0.0
230
1.0
 70
    11
 71
     3
 72
    23
 73
    19
 74
     0
 42
0.0000000001
 43
0.0000000001
 40
0.0
 40
0.0
 40
0.0
 40
0.0
 40
1.0
 40
1.0
 40
1.0
 40
2.0
 40
2.0
 40
2.0
 40
3.0
 40
3.0
 40
3.0
 40
4.0
 40
4.0
 40
4.0
 40
5.0
 40
5.0
 40
5.0
 40
6.0
 40
6.0
 40
6.0
 40
6.0
 10
111.1566948784722
 20
148.3582139756944
 30
0.0
 10
111.0788357204861
 20
148.8260579427083
 30
0.0
 10
110.7184787326389
 20
149.1555813259548
 30
0.0
 10
110.3505425347222
 20
149.0944308810764
 30
0.0
 10
110.2492567274306
 20
149.0775499131944
 30
0.0
 10
109.8682291666667
 20
149.0343139648437
 30
0.0
 10
109.7559190538194
 20
149.0155381944444
 30
0.0
 10
109.3879828559028
 20
148.9542154947916
 30
0.0
 10
109.1537163628472
 20
148.5251288519965
 30
0.0
 10
109.2319200303819
 20
148.0571126302083
 30
0.0
 10
109.3101236979167
 20
147.5892686631944
 30
0.0
 10
109.6708251953125
 20
147.2599175347222
 30
0.0
 10
110.0384168836805
 20
147.3208957248264
 30
0.0
 10
110.1397026909722
 20
147.3377766927083
 30
0.0
 10
110.5207302517361
 20
147.3811848958333
 30
0.0
 10
110.6337293836806
 20
147.3999606662326
 30
0.0
 10
111.0002875434028
 20
147.4612833658854
 30
0.0
 10
111.2352430555555
 20
147.8903700086806
 30
0.0
 10
111.1566948784722
 20
148.3582139756944
 30
0.0
  0
SPLINE
  5
7C
330
A
100
AcDbEntity
  8
LGT
 62
     7
100
AcDbSpline
210
0.0
220
0.0
230
1.0
 70
    11
 71
     3
 72
    35
 73
    31
 74
     0
 42
0.0000000001
 43
0.0000000001
 40
0.0
 40
0.0
 40
0.0
 40
0.0
 40
1.0
 40
1.0
 40
1.0
 40
2.0
 40
2.0
 40
2.0
 40
3.0
 40
3.0
 40
3.0
 40
4.0
 40
4.0
 40
4.0
 40
5.0
 40
5.0
 40
5.0
 40
6.0
 40
6.0
 40
6.0
 40
7.0
 40
7.0
 40
7.0
 40
8.0
 40
8.0
 40
8.0
 40
9.0
 40
9.0
 40
9.0
 40
10.0
 40
10.0
 40
10.0
 40
10.0
 10
111.1566948784722
 20
148.3582139756944
 30
0.0
 10
111.0788357204861
 20
148.8260579427083
 30
0.0
 10
110.7184787326389
 20
149.1555813259548
 30
0.0
 10
110.3505425347222
 20
149.0944308810764
 30
0.0
 10
110.3340060763889
 20
149.0916748046875
 30
0.0
 10
110.3071343315972
 20
149.0880574544271
 30
0.0
 10
110.2775065104167
 20
149.0839233398438
 30
0.0
 10
110.0914713541667
 20
149.2349907769097
 30
0.0
 10
109.8689181857639
 20
149.3121609157986
 30
0.0
 10
109.642919921875
 20
149.2744371202257
 30
0.0
 10
109.6174262152778
 20
149.2701307508681
 30
0.0
 10
109.5009819878472
 20
149.2544555664063
 30
0.0
 10
109.4665310329861
 20
149.2485989040798
 30
0.0
 10
108.9766384548611
 20
149.166950141059
 30
0.0
 10
108.6638237847222
 20
148.5948920355903
 30
0.0
 10
108.7678656684028
 20
147.9709852430555
 30
0.0
 10
108.8722520616319
 20
147.3470784505208
 30
0.0
 10
109.3535319010417
 20
146.9078287760416
 30
0.0
 10
109.8434244791667
 20
146.9893052842882
 30
0.0
 10
109.8689181857639
 20
146.9936116536458
 30
0.0
 10
109.9850179036458
 20
147.0092868381076
 30
0.0
 10
110.0198133680556
 20
147.015143500434
 30
0.0
 10
110.2402994791667
 20
147.0520060221354
 30
0.0
 10
110.4222005208333
 20
147.1917046440972
 30
0.0
 10
110.5489800347222
 20
147.3875583224826
 30
0.0
 10
110.5827419704861
 20
147.3922092013889
 30
0.0
 10
110.6137478298611
 20
147.3965155707465
 30
0.0
 10
110.6337293836806
 20
147.3999606662326
 30
0.0
 10
111.0002875434028
 20
147.4612833658854
 30
0.0
 10
111.2352430555555
 20
147.8903700086806
 30
0.0
 10
111.1566948784722
 20
148.3582139756944
 30
0.0
  0
LINE
  5
7B
330
A
100
AcDbEntity
  8
LGT
 62
     7
100
AcDbLine
 10
109.2322645399305
 20
148.5132432725694
 30
0.0
 11
109.8709852430555
 21
148.615045844184
 31
0.0
  0
LINE
  5
7A
330
A
100
AcDbEntity
  8
LGT
 62
     7
100
AcDbLine
 10
109.3828152126736
 20
147.6767740885417
 30
0.0
 11
109.9550455729167
 21
147.7773708767361
 31
0.0
  0
INSERT
  5
4F
330
A
100
AcDbEntity
  8
LGT
 62
     7
100
AcDbBlockReference
  2
AI9-BLK6
 10
76.58223334418402
 20
115.6385918511285
 30
0.0
  0
INSERT
  5
23
330
A
100
AcDbEntity
  8
LGT
 62
     7
100
AcDbBlockReference
  2
AI9-BLK1
 10
63.11793891059027
 20
179.4986904568142
 30
0.0
  0
LWPOLYLINE
  5
A14
330
A
100
AcDbEntity
  8
TIE_PLATE
 62
     7
100
AcDbPolyline
 90
        8
 70
     1
 43
0.0
 10
115.5939778645833
 20
155.9574055989583
 10
115.5901882595486
 20
165.5795572916667
 10
132.0436197916667
 20
158.8359551323784
 10
132.043275282118
 20
144.857135687934
 10
120.1628634982639
 20
148.3470174153646
 10
120.1315131293403
 20
154.6167466905382
 10
118.9236626519097
 20
155.9307061089409
 10
118.0713460286458
 20
156.285895453559
  0
INSERT
  5
A15
330
A
100
AcDbEntity
  8
TIE_PLATE
 62
     7
100
AcDbBlockReference
  2
AI9-BLK177
 10
130.2857598198785
 20
158.622014702691
 30
0.0
  0
INSERT
  5
A16
330
A
100
AcDbEntity
  8
TIE_PLATE
 62
     7
100
AcDbBlockReference
  2
AI9-BLK176
 10
127.4409722222222
 20
159.7674228244358
 30
0.0
  0
INSERT
  5
A17
330
A
100
AcDbEntity
  8
TIE_PLATE
 62
     7
100
AcDbBlockReference
  2
AI9-BLK175
 10
124.4601033528646
 20
160.9674357096354
 30
0.0
  0
INSERT
  5
A18
330
A
100
AcDbEntity
  8
TIE_PLATE
 62
     7
100
AcDbBlockReference
  2
AI9-BLK174
 10
121.2396280924479
 20
162.2639112684462
 30
0.0
  0
INSERT
  5
A19
330
A
100
AcDbEntity
  8
TIE_PLATE
 62
     7
100
AcDbBlockReference
  2
AI9-BLK173
 10
118.0505032009549
 20
163.5480706108941
 30
0.0
  0
INSERT
  5
A1A
330
A
100
AcDbEntity
  8
TIE_PLATE
 62
     7
100
AcDbBlockReference
  2
AI9-BLK172
 10
128.8686197916667
 20
158.3291815863715
 30
0.0
  0
INSERT
  5
A1B
330
A
100
AcDbEntity
  8
TIE_PLATE
 62
     7
100
AcDbBlockReference
  2
AI9-BLK171
 10
125.9561360677083
 20
159.4813937717014
 30
0.0
  0
INSERT
  5
A1C
330
A
100
AcDbEntity
  8
TIE_PLATE
 62
     7
100
AcDbBlockReference
  2
AI9-BLK170
 10
122.8111083984375
 20
160.7255038791232
 30
0.0
  0
INSERT
  5
A1D
330
A
100
AcDbEntity
  8
TIE_PLATE
 62
     7
100
AcDbBlockReference
  2
AI9-BLK169
 10
119.6982923719618
 20
161.9570393880208
 30
0.0
  0
INSERT
  5
A1E
330
A
100
AcDbEntity
  8
TIE_PLATE
 62
     7
100
AcDbBlockReference
  2
AI9-BLK168
 10
130.2854153103299
 20
156.9147976345486
 30
0.0
  0
INSERT
  5
A1F
330
A
100
AcDbEntity
  8
TIE_PLATE
 62
     7
100
AcDbBlockReference
  2
AI9-BLK167
 10
127.4395941840278
 20
158.0205871582031
 30
0.0
  0
INSERT
  5
A20
330
A
100
AcDbEntity
  8
TIE_PLATE
 62
     7
100
AcDbBlockReference
  2
AI9-BLK166
 10
124.4580362955729
 20
159.1793450249566
 30
0.0
  0
INSERT
  5
A21
330
A
100
AcDbEntity
  8
TIE_PLATE
 62
     7
100
AcDbBlockReference
  2
AI9-BLK165
 10
121.236872016059
 20
160.431120469835
 30
0.0
  0
INSERT
  5
A22
330
A
100
AcDbEntity
  8
TIE_PLATE
 62
     7
100
AcDbBlockReference
  2
AI9-BLK164
 10
118.0467135959201
 20
161.6710103352864
 30
0.0
  0
INSERT
  5
A23
330
A
100
AcDbEntity
  8
TIE_PLATE
 62
     7
100
AcDbBlockReference
  2
AI9-BLK163
 10
128.8679307725694
 20
156.6020690917969
 30
0.0
  0
INSERT
  5
A24
330
A
100
AcDbEntity
  8
TIE_PLATE
 62
     7
100
AcDbBlockReference
  2
AI9-BLK162
 10
125.9544135199653
 20
157.7137152777778
 30
0.0
  0
INSERT
  5
A25
330
A
100
AcDbEntity
  8
TIE_PLATE
 62
     7
100
AcDbBlockReference
  2
AI9-BLK161
 10
122.8086968315972
 20
158.9141587999132
 30
0.0
  0
INSERT
  5
A26
330
A
100
AcDbEntity
  8
TIE_PLATE
 62
     7
100
AcDbBlockReference
  2
AI9-BLK160
 10
119.69501953125
 20
160.1024583604601
 30
0.0
  0
INSERT
  5
A27
330
A
100
AcDbEntity
  8
TIE_PLATE
 62
     7
100
AcDbBlockReference
  2
AI9-BLK159
 10
130.2848985460069
 20
155.2068054199219
 30
0.0
  0
INSERT
  5
A28
330
A
100
AcDbEntity
  8
TIE_PLATE
 62
     7
100
AcDbBlockReference
  2
AI9-BLK158
 10
127.4385606553819
 20
156.2730624728733
 30
0.0
  0
INSERT
  5
A29
330
A
100
AcDbEntity
  8
TIE_PLATE
 62
     7
100
AcDbBlockReference
  2
AI9-BLK157
 10
124.4561414930555
 20
157.3903930664062
 30
0.0
  0
INSERT
  5
A2A
330
A
100
AcDbEntity
  8
TIE_PLATE
 62
     7
100
AcDbBlockReference
  2
AI9-BLK156
 10
121.2341159396701
 20
158.5973822699653
 30
0.0
  0
INSERT
  5
A2B
330
A
100
AcDbEntity
  8
TIE_PLATE
 62
     7
100
AcDbBlockReference
  2
AI9-BLK155
 10
118.0429239908854
 20
159.792916531033
 30
0.0
  0
INSERT
  5
A2C
330
A
100
AcDbEntity
  8
TIE_PLATE
 62
     7
100
AcDbBlockReference
  2
AI9-BLK154
 10
128.8670694986979
 20
154.8737508138021
 30
0.0
  0
INSERT
  5
A2D
330
A
100
AcDbEntity
  8
TIE_PLATE
 62
     7
100
AcDbBlockReference
  2
AI9-BLK153
 10
125.9528632269965
 20
155.9450032552083
 30
0.0
  0
INSERT
  5
A2E
330
A
100
AcDbEntity
  8
TIE_PLATE
 62
     7
100
AcDbBlockReference
  2
AI9-BLK152
 10
122.8062852647569
 20
157.1016940646701
 30
0.0
  0
INSERT
  5
A2F
330
A
100
AcDbEntity
  8
TIE_PLATE
 62
     7
100
AcDbBlockReference
  2
AI9-BLK151
 10
119.6917466905382
 20
158.2466715494792
 30
0.0
  0
INSERT
  5
A30
330
A
100
AcDbEntity
  8
TIE_PLATE
 62
     7
100
AcDbBlockReference
  2
AI9-BLK150
 10
130.284381781684
 20
153.4981241861979
 30
0.0
  0
INSERT
  5
A31
330
A
100
AcDbEntity
  8
TIE_PLATE
 62
     7
100
AcDbBlockReference
  2
AI9-BLK149
 10
127.4373548719618
 20
154.5248487684462
 30
0.0
  0
INSERT
  5
A32
330
A
100
AcDbEntity
  8
TIE_PLATE
 62
     7
100
AcDbBlockReference
  2
AI9-BLK148
 10
124.4542466905382
 20
155.6006659613715
 30
0.0
  0
INSERT
  5
A33
330
A
100
AcDbEntity
  8
TIE_PLATE
 62
     7
100
AcDbBlockReference
  2
AI9-BLK147
 10
121.2313598632812
 20
156.7628689236111
 30
0.0
  0
INSERT
  5
A34
330
A
100
AcDbEntity
  8
TIE_PLATE
 62
     7
100
AcDbBlockReference
  2
AI9-BLK146
 10
118.0391343858507
 20
157.9140475802951
 30
0.0
  0
INSERT
  5
A35
330
A
100
AcDbEntity
  8
TIE_PLATE
 62
     7
100
AcDbBlockReference
  2
AI9-BLK145
 10
128.8662082248264
 20
153.1449157714844
 30
0.0
  0
INSERT
  5
A36
330
A
100
AcDbEntity
  8
TIE_PLATE
 62
     7
100
AcDbBlockReference
  2
AI9-BLK144
 10
125.9514851888021
 20
154.1756022135417
 30
0.0
  0
INSERT
  5
A37
330
A
100
AcDbEntity
  8
TIE_PLATE
 62
     7
100
AcDbBlockReference
  2
AI9-BLK143
 10
122.8038736979167
 20
155.2885403103298
 30
0.0
  0
INSERT
  5
A38
330
A
100
AcDbEntity
  8
TIE_PLATE
 62
     7
100
AcDbBlockReference
  2
AI9-BLK142
 10
119.6884738498264
 20
156.390195719401
 30
0.0
  0
INSERT
  5
A39
330
A
100
AcDbEntity
  8
TIE_PLATE
 62
     7
100
AcDbBlockReference
  2
AI9-BLK141
 10
130.2840372721354
 20
151.7885816786024
 30
0.0
  0
INSERT
  5
A3A
330
A
100
AcDbEntity
  8
TIE_PLATE
 62
     7
100
AcDbBlockReference
  2
AI9-BLK140
 10
127.4361490885417
 20
152.7756015353733
 30
0.0
  0
INSERT
  5
A3B
330
A
100
AcDbEntity
  8
TIE_PLATE
 62
     7
100
AcDbBlockReference
  2
AI9-BLK139
 10
124.4523518880208
 20
153.8098192003038
 30
0.0
  0
INSERT
  5
A3C
330
A
100
AcDbEntity
  8
TIE_PLATE
 62
     7
100
AcDbBlockReference
  2
AI9-BLK138
 10
121.2282592773437
 20
154.9271497938368
 30
0.0
  0
INSERT
  5
A3D
330
A
100
AcDbEntity
  8
TIE_PLATE
 62
     7
100
AcDbBlockReference
  2
AI9-BLK137
 10
118.035344780816
 20
156.1860738118489
 30
0.0
  0
INSERT
  5
A3E
330
A
100
AcDbEntity
  8
TIE_PLATE
 62
     7
100
AcDbBlockReference
  2
AI9-BLK136
 10
128.8655192057292
 20
151.4152194552951
 30
0.0
  0
INSERT
  5
A3F
330
A
100
AcDbEntity
  8
TIE_PLATE
 62
     7
100
AcDbBlockReference
  2
AI9-BLK135
 10
125.949762641059
 20
152.4053398980035
 30
0.0
  0
INSERT
  5
A40
330
A
100
AcDbEntity
  8
TIE_PLATE
 62
     7
100
AcDbBlockReference
  2
AI9-BLK134
 10
122.8014621310764
 20
153.474525282118
 30
0.0
  0
INSERT
  5
A41
330
A
100
AcDbEntity
  8
TIE_PLATE
 62
     7
100
AcDbBlockReference
  2
AI9-BLK133
 10
120.5199476453993
 20
154.2486382378472
 30
0.0
  0
INSERT
  5
A42
330
A
100
AcDbEntity
  8
TIE_PLATE
 62
     7
100
AcDbBlockReference
  2
AI9-BLK132
 10
130.2835205078125
 20
150.0781778971354
 30
0.0
  0
INSERT
  5
A43
330
A
100
AcDbEntity
  8
TIE_PLATE
 62
     7
100
AcDbBlockReference
  2
AI9-BLK131
 10
127.4349433051215
 20
151.0254930284288
 30
0.0
  0
INSERT
  5
A44
330
A
100
AcDbEntity
  8
TIE_PLATE
 62
     7
100
AcDbBlockReference
  2
AI9-BLK130
 10
124.4502848307292
 20
152.0181972927517
 30
0.0
  0
INSERT
  5
A45
330
A
100
AcDbEntity
  8
TIE_PLATE
 62
     7
100
AcDbBlockReference
  2
AI9-BLK129
 10
121.296644422743
 20
153.055084906684
 30
0.0
  0
INSERT
  5
A46
330
A
100
AcDbEntity
  8
TIE_PLATE
 62
     7
100
AcDbBlockReference
  2
AI9-BLK128
 10
128.8646579318576
 20
149.6845757378472
 30
0.0
  0
INSERT
  5
A47
330
A
100
AcDbEntity
  8
TIE_PLATE
 62
     7
100
AcDbBlockReference
  2
AI9-BLK127
 10
125.9482123480903
 20
150.6340440538194
 30
0.0
  0
INSERT
  5
A48
330
A
100
AcDbEntity
  8
TIE_PLATE
 62
     7
100
AcDbBlockReference
  2
AI9-BLK126
 10
122.7990505642361
 20
151.6593044704861
 30
0.0
  0
INSERT
  5
A49
330
A
100
AcDbEntity
  8
TIE_PLATE
 62
     7
100
AcDbBlockReference
  2
AI9-BLK125
 10
120.5276991102431
 20
152.3981913248698
 30
0.0
  0
INSERT
  5
A4A
330
A
100
AcDbEntity
  8
TIE_PLATE
 62
     7
100
AcDbBlockReference
  2
AI9-BLK124
 10
130.2831759982639
 20
148.3669128417969
 30
0.0
  0
INSERT
  5
A4B
330
A
100
AcDbEntity
  8
TIE_PLATE
 62
     7
100
AcDbBlockReference
  2
AI9-BLK123
 10
127.4337375217014
 20
149.2745232476128
 30
0.0
  0
INSERT
  5
A4C
330
A
100
AcDbEntity
  8
TIE_PLATE
 62
     7
100
AcDbBlockReference
  2
AI9-BLK122
 10
124.4482177734375
 20
150.2255418565538
 30
0.0
  0
INSERT
  5
A4D
330
A
100
AcDbEntity
  8
TIE_PLATE
 62
     7
100
AcDbBlockReference
  2
AI9-BLK121
 10
121.2938883463542
 20
151.235299343533
 30
0.0
  0
INSERT
  5
A4E
330
A
100
AcDbEntity
  8
TIE_PLATE
 62
     7
100
AcDbBlockReference
  2
AI9-BLK120
 10
128.8637966579861
 20
147.9530707465277
 30
0.0
  0
INSERT
  5
A4F
330
A
100
AcDbEntity
  8
TIE_PLATE
 62
     7
100
AcDbBlockReference
  2
AI9-BLK119
 10
125.9466620551215
 20
148.8618008083767
 30
0.0
  0
INSERT
  5
A50
330
A
100
AcDbEntity
  8
TIE_PLATE
 62
     7
100
AcDbBlockReference
  2
AI9-BLK118
 10
122.7966389973958
 20
149.8432223849826
 30
0.0
  0
INSERT
  5
A51
330
A
100
AcDbEntity
  8
TIE_PLATE
 62
     7
100
AcDbBlockReference
  2
AI9-BLK117
 10
120.5245985243056
 20
150.5505004882812
 30
0.0
  0
INSERT
  5
A52
330
A
100
AcDbEntity
  8
TIE_PLATE
 62
     7
100
AcDbBlockReference
  2
AI9-BLK116
 10
130.282659233941
 20
146.654872639974
 30
0.0
  0
INSERT
  5
A53
330
A
100
AcDbEntity
  8
TIE_PLATE
 62
     7
100
AcDbBlockReference
  2
AI9-BLK115
 10
127.4327039930555
 20
147.5227783203125
 30
0.0
  0
INSERT
  5
A54
330
A
100
AcDbEntity
  8
TIE_PLATE
 62
     7
100
AcDbBlockReference
  2
AI9-BLK114
 10
124.4463229709201
 20
148.4321112738715
 30
0.0
  0
INSERT
  5
A55
330
A
100
AcDbEntity
  8
TIE_PLATE
 62
     7
100
AcDbBlockReference
  2
AI9-BLK113
 10
121.290960015191
 20
149.3790818956163
 30
0.0
  0
LINE
  5
A56
330
A
100
AcDbEntity
  8
WOOD
 62
     7
100
AcDbLine
 10
132.0434640859776
 20
152.5180410935131
 30
0.0
 11
139.3968315972222
 21
149.8881808810764
 31
0.0
  0
LINE
  5
A5C
330
A
100
AcDbEntity
  8
WOOD
 62
     7
100
AcDbLine
 10
85.48987223307296
 20
138.2997755035887
 30
0.0
 11
61.95487467447916
 21
136.4433512369791
 31
0.0
  0
LINE
  5
A5D
330
A
100
AcDbEntity
  8
WOOD
 62
     7
100
AcDbLine
 10
61.95487467447916
 20
136.4433512369791
 30
0.0
 11
61.95487467447916
 21
131.7345947265625
 31
0.0
  0
LINE
  5
A5E
330
A
100
AcDbEntity
  8
WOOD
 62
     7
100
AcDbLine
 10
61.95487467447916
 20
131.7345947265625
 30
0.0
 11
57.25645345052083
 21
131.4104112413194
 31
0.0
  0
LINE
  5
A5F
330
A
100
AcDbEntity
  8
WOOD
 62
     7
100
AcDbLine
 10
57.25645345052083
 20
131.4104112413194
 30
0.0
 11
57.25645345052083
 21
126.398486328125
 31
0.0
  0
LINE
  5
A60
330
A
100
AcDbEntity
  8
WOOD
 62
     7
100
AcDbLine
 10
57.25645345052083
 20
126.398486328125
 30
0.0
 11
61.67323811848958
 21
125.928919813368
 31
0.0
  0
LINE
  5
A61
330
A
100
AcDbEntity
  8
WOOD
 62
     7
100
AcDbLine
 10
61.67323811848958
 20
125.928919813368
 30
0.0
 11
61.73094346788194
 21
125.3880398220486
 31
0.0
  0
LINE
  5
A62
330
A
100
AcDbEntity
  8
WOOD
 62
     7
100
AcDbLine
 10
61.73094346788194
 20
125.3880398220486
 30
0.0
 11
66.10535346137152
 21
125.8610514322917
 31
0.0
  0
LINE
  5
A63
330
A
100
AcDbEntity
  8
WOOD
 62
     7
100
AcDbLine
 10
66.10535346137152
 20
125.8610514322917
 30
0.0
 11
66.10121934678818
 21
125.4583197699653
 31
0.0
  0
LINE
  5
A64
330
A
100
AcDbEntity
  8
WOOD
 62
     7
100
AcDbLine
 10
66.10121934678818
 20
125.4583197699653
 30
0.0
 11
69.32083333333333
 21
125.0597222222222
 31
0.0
  0
LINE
  5
A65
330
A
100
AcDbEntity
  8
WOOD
 62
     7
100
AcDbLine
 10
69.32083333333333
 20
125.0597222222222
 30
0.0
 11
92.22231099749702
 21
126.0586286235346
 31
0.0
  0
LINE
  5
A66
330
A
100
AcDbEntity
  8
WOOD
 62
     7
100
AcDbLine
 10
95.08635796440971
 20
101.2344753689236
 30
0.0
 11
95.08635796440971
 21
85.65230848524305
 31
0.0
  0
LINE
  5
A67
330
A
100
AcDbEntity
  8
WOOD
 62
     7
100
AcDbLine
 10
95.08635796440971
 20
85.65230848524305
 30
0.0
 11
100.6755086263021
 21
85.24647623697916
 31
0.0
  0
LINE
  5
A68
330
A
100
AcDbEntity
  8
WOOD
 62
     7
100
AcDbLine
 10
100.6755086263021
 20
85.24647623697916
 30
0.0
 11
100.9995198567708
 21
85.24647623697916
 31
0.0
  0
LINE
  5
A69
330
A
100
AcDbEntity
  8
WOOD
 62
     7
100
AcDbLine
 10
100.9995198567708
 20
85.24647623697916
 30
0.0
 11
101.242571343316
 21
84.35523003472221
 31
0.0
  0
LINE
  5
A6A
330
A
100
AcDbEntity
  8
WOOD
 62
     7
100
AcDbLine
 10
101.242571343316
 20
84.35523003472221
 30
0.0
 11
106.1838717990451
 21
83.95008680555554
 31
0.0
  0
LINE
  5
A6B
330
A
100
AcDbEntity
  8
WOOD
 62
     7
100
AcDbLine
 10
106.1838717990451
 20
83.95008680555554
 30
0.0
 11
106.8318942599826
 21
86.05641818576387
 31
0.0
  0
LINE
  5
A6C
330
A
100
AcDbEntity
  8
WOOD
 62
     7
100
AcDbLine
 10
106.8318942599826
 20
86.05641818576387
 30
0.0
 11
110.3150580512153
 21
86.62348090277777
 31
0.0
  0
LINE
  5
A6D
330
A
100
AcDbEntity
  8
WOOD
 62
     7
100
AcDbLine
 10
110.3150580512153
 20
86.62348090277777
 30
0.0
 11
110.3150580512153
 21
89.78263346354166
 31
0.0
  0
LINE
  5
A6E
330
A
100
AcDbEntity
  8
WOOD
 62
     7
100
AcDbLine
 10
110.3150580512153
 20
89.78263346354166
 30
0.0
 11
111.8543267144097
 21
89.78263346354166
 31
0.0
  0
LINE
  5
A6F
330
A
100
AcDbEntity
  8
WOOD
 62
     7
100
AcDbLine
 10
111.8543267144097
 20
89.78263346354166
 30
0.0
 11
112.5023491753472
 21
91.40286187065972
 31
0.0
  0
LINE
  5
A70
330
A
100
AcDbEntity
  8
WOOD
 62
     7
100
AcDbLine
 10
112.5023491753472
 20
91.40286187065972
 30
0.0
 11
115.8234212239583
 21
91.88862033420138
 31
0.0
  0
LINE
  5
A71
330
A
100
AcDbEntity
  8
WOOD
 62
     7
100
AcDbLine
 10
115.8234212239583
 20
91.88862033420138
 30
0.0
 11
115.8234212239583
 21
94.40009494357638
 31
0.0
  0
LINE
  5
A72
330
A
100
AcDbEntity
  8
WOOD
 62
     7
100
AcDbLine
 10
115.8234212239583
 20
94.40009494357638
 30
0.0
 11
117.3630343967014
 21
94.31879069010415
 31
0.0
  0
LINE
  5
A73
330
A
100
AcDbEntity
  8
WOOD
 62
     7
100
AcDbLine
 10
117.3630343967014
 20
94.31879069010415
 30
0.0
 11
118.0110568576389
 21
96.18189832899304
 31
0.0
  0
LINE
  5
A74
330
A
100
AcDbEntity
  8
WOOD
 62
     7
100
AcDbLine
 10
118.0110568576389
 20
96.18189832899304
 30
0.0
 11
121.0892496744792
 21
96.5060818142361
 31
0.0
  0
LINE
  5
A75
330
A
100
AcDbEntity
  8
WOOD
 62
     7
100
AcDbLine
 10
121.0892496744792
 20
96.5060818142361
 30
0.0
 11
121.0892496744792
 21
127.6115044487847
 31
0.0
  0
LINE
  5
A76
330
A
100
AcDbEntity
  8
WOOD
 62
     7
100
AcDbLine
 10
121.0892496744792
 20
127.6115044487847
 30
0.0
 11
158.5953152126736
 21
128.9885091145833
 31
0.0
  0
LINE
  5
A77
330
A
100
AcDbEntity
  8
WOOD
 62
     7
100
AcDbLine
 10
158.5953152126736
 20
128.9885091145833
 30
0.0
 11
158.5953152126736
 21
134.14375
 31
0.0
  0
LINE
  5
A78
330
A
100
AcDbEntity
  8
WOOD
 62
     7
100
AcDbLine
 10
158.5953152126736
 20
134.14375
 30
0.0
 11
156.002880859375
 21
134.9829752604167
 31
0.0
  0
LINE
  5
A79
330
A
100
AcDbEntity
  8
WOOD
 62
     7
100
AcDbLine
 10
156.002880859375
 20
134.9829752604167
 30
0.0
 11
156.002880859375
 21
135.4666666666666
 31
0.0
  0
LINE
  5
A7A
330
A
100
AcDbEntity
  8
WOOD
 62
     7
100
AcDbLine
 10
156.002880859375
 20
135.4666666666666
 30
0.0
 11
152.9246880425347
 21
135.3071587456597
 31
0.0
  0
LINE
  5
A7B
330
A
100
AcDbEntity
  8
WOOD
 62
     7
100
AcDbLine
 10
152.9246880425347
 20
135.3071587456597
 30
0.0
 11
152.9246880425347
 21
135.7929172092014
 31
0.0
  0
LINE
  5
A7C
330
A
100
AcDbEntity
  8
WOOD
 62
     7
100
AcDbLine
 10
152.9246880425347
 20
135.7929172092014
 30
0.0
 11
152.3576253255208
 21
136.0840277777778
 31
0.0
  0
LINE
  5
A7D
330
A
100
AcDbEntity
  8
WOOD
 62
     7
100
AcDbLine
 10
152.3576253255208
 20
136.0840277777778
 30
0.0
 11
152.3576253255208
 21
139.5194769965278
 31
0.0
  0
LINE
  5
A7E
330
A
100
AcDbEntity
  8
WOOD
 62
     7
100
AcDbLine
 10
152.3576253255208
 20
139.5194769965278
 30
0.0
 11
149.4416965060764
 21
140.4916829427083
 31
0.0
  0
LINE
  5
A7F
330
A
100
AcDbEntity
  8
WOOD
 62
     7
100
AcDbLine
 10
149.4416965060764
 20
140.4916829427083
 30
0.0
 11
149.4416965060764
 21
141.0229166666667
 31
0.0
  0
LINE
  5
A80
330
A
100
AcDbEntity
  8
WOOD
 62
     7
100
AcDbLine
 10
149.4416965060764
 20
141.0229166666667
 30
0.0
 11
146.5254231770833
 21
140.8156941731771
 31
0.0
  0
LINE
  5
A81
330
A
100
AcDbEntity
  8
WOOD
 62
     7
100
AcDbLine
 10
146.5254231770833
 20
140.8156941731771
 30
0.0
 11
146.5254231770833
 21
141.382756890191
 31
0.0
  0
LINE
  5
A82
330
A
100
AcDbEntity
  8
WOOD
 62
     7
100
AcDbLine
 10
146.5254231770833
 20
141.382756890191
 30
0.0
 11
142.5559841579861
 21
142.5167100694444
 31
0.0
  0
LINE
  5
A83
330
A
100
AcDbEntity
  8
WOOD
 62
     7
100
AcDbLine
 10
142.5559841579861
 20
142.5167100694444
 30
0.0
 11
139.3968315972222
 21
142.2736585828993
 31
0.0
  0
LINE
  5
A84
330
A
100
AcDbEntity
  8
WOOD
 62
     7
100
AcDbLine
 10
139.3968315972222
 20
142.2736585828993
 30
0.0
 11
139.3968315972222
 21
149.8881808810764
 31
0.0
  0
LINE
  5
A85
330
A
100
AcDbEntity
  8
WOOD
 62
     7
100
AcDbLine
 10
139.3968315972222
 20
149.8881808810764
 30
0.0
 11
105.9408203125
 21
197.440833875868
 31
0.0
  0
LINE
  5
A86
330
A
100
AcDbEntity
  8
WOOD
 62
     7
100
AcDbLine
 10
105.9408203125
 20
197.440833875868
 30
0.0
 11
100.1084459092882
 21
196.2257486979167
 31
0.0
  0
LINE
  5
A87
330
A
100
AcDbEntity
  8
WOOD
 62
     7
100
AcDbLine
 10
100.1084459092882
 20
196.2257486979167
 30
0.0
 11
97.19234483506943
 21
200.2761474609375
 31
0.0
  0
LINE
  5
A88
330
A
100
AcDbEntity
  8
WOOD
 62
     7
100
AcDbLine
 10
97.19234483506943
 20
200.2761474609375
 30
0.0
 11
91.84693467881944
 21
199.1401272243923
 31
0.0
  0
LINE
  5
A89
330
A
100
AcDbEntity
  8
WOOD
 62
     7
100
AcDbLine
 10
91.84693467881944
 20
199.1401272243923
 30
0.0
 11
88.76770833333333
 21
202.9491970486111
 31
0.0
  0
LINE
  5
A8A
330
A
100
AcDbEntity
  8
WOOD
 62
     7
100
AcDbLine
 10
88.76770833333333
 20
202.9491970486111
 30
0.0
 11
82.7734144422743
 21
201.5721923828125
 31
0.0
  0
LINE
  5
A8B
330
A
100
AcDbEntity
  8
WOOD
 62
     7
100
AcDbLine
 10
82.7734144422743
 20
201.5721923828125
 30
0.0
 11
78.72301567925346
 21
197.440833875868
 31
0.0
  0
LINE
  5
A8C
330
A
100
AcDbEntity
  8
WOOD
 62
     7
100
AcDbLine
 10
78.72301567925346
 20
197.440833875868
 30
0.0
 11
76.04979383680555
 21
196.7118516710069
 31
0.0
  0
LINE
  5
A8D
330
A
100
AcDbEntity
  8
WOOD
 62
     7
100
AcDbLine
 10
76.04979383680555
 20
196.7118516710069
 30
0.0
 11
76.4547648111979
 21
193.7146185980903
 31
0.0
  0
LINE
  5
A8E
330
A
100
AcDbEntity
  8
WOOD
 62
     7
100
AcDbLine
 10
76.4547648111979
 20
193.7146185980903
 30
0.0
 11
74.4297376844618
 21
193.3096476236979
 31
0.0
  0
LINE
  5
A8F
330
A
100
AcDbEntity
  8
WOOD
 62
     7
100
AcDbLine
 10
74.4297376844618
 20
193.3096476236979
 30
0.0
 11
69.00233425564235
 21
187.8822441948785
 31
0.0
  0
LINE
  5
A90
330
A
100
AcDbEntity
  8
WOOD
 62
     7
100
AcDbLine
 10
69.00233425564235
 20
187.8822441948785
 30
0.0
 11
86.90460069444444
 21
168.0357381184896
 31
0.0
  0
LINE
  5
A91
330
A
100
AcDbEntity
  8
WOOD
 62
     7
100
AcDbLine
 10
86.90460069444444
 20
168.0357381184896
 30
0.0
 11
82.12521972656249
 21
167.3067559136285
 31
0.0
  0
LINE
  5
A92
330
A
100
AcDbEntity
  8
WOOD
 62
     7
100
AcDbLine
 10
82.12521972656249
 20
167.3067559136285
 30
0.0
 11
75.23967963324652
 21
169.5748345269097
 31
0.0
  0
LINE
  5
A93
330
A
100
AcDbEntity
  8
WOOD
 62
     7
100
AcDbLine
 10
75.23967963324652
 20
169.5748345269097
 30
0.0
 11
69.40730523003472
 21
168.6028008355034
 31
0.0
  0
LINE
  5
A94
330
A
100
AcDbEntity
  8
WOOD
 62
     7
100
AcDbLine
 10
69.40730523003472
 20
168.6028008355034
 30
0.0
 11
63.00804036458333
 21
170.6280002170139
 31
0.0
  0
LINE
  5
A95
330
A
100
AcDbEntity
  8
WOOD
 62
     7
100
AcDbLine
 10
63.00804036458333
 20
170.6280002170139
 30
0.0
 11
56.77035047743055
 21
169.5748345269097
 31
0.0
  0
LINE
  5
A96
330
A
100
AcDbEntity
  8
WOOD
 62
     7
100
AcDbLine
 10
56.77035047743055
 20
169.5748345269097
 30
0.0
 11
56.77035047743055
 21
160.0434611002604
 31
0.0
  0
LINE
  5
A97
330
A
100
AcDbEntity
  8
WOOD
 62
     7
100
AcDbLine
 10
56.77035047743055
 20
160.0434611002604
 30
0.0
 11
55.15098334418402
 21
159.1027777777778
 31
0.0
  0
LINE
  5
A98
330
A
100
AcDbEntity
  8
WOOD
 62
     7
100
AcDbLine
 10
55.15098334418402
 20
159.1027777777778
 30
0.0
 11
58.09068332248263
 21
156.750983344184
 31
0.0
  0
LINE
  5
A99
330
A
100
AcDbEntity
  8
WOOD
 62
     7
100
AcDbLine
 10
58.09068332248263
 20
156.750983344184
 30
0.0
 11
56.77035047743055
 21
155.4573499891493
 31
0.0
  0
LINE
  5
A9A
330
A
100
AcDbEntity
  8
WOOD
 62
     7
100
AcDbLine
 10
56.77035047743055
 20
155.4573499891493
 30
0.0
 11
56.77035047743055
 21
146.0019409179687
 31
0.0
  0
LINE
  5
A9B
330
A
100
AcDbEntity
  8
WOOD
 62
     7
100
AcDbLine
 10
56.77035047743055
 20
146.0019409179687
 30
0.0
 11
93.78996853298611
 21
138.9544813368055
 31
0.0
  0
LINE
  5
A9C
330
A
100
AcDbEntity
  8
WOOD
 62
     7
100
AcDbLine
 10
93.78996853298611
 20
138.9544813368055
 30
0.0
 11
93.71293752426833
 21
138.948405184322
 31
0.0
  0
ENDSEC
  0
SECTION
  2
OBJECTS
  0
DICTIONARY
  5
19
330
0
100
AcDbDictionary
281
     1
  3
ACAD_COLOR
350
AA0
  3
ACAD_GROUP
350
1A
  3
ACAD_LAYOUT
350
A0D
  3
ACAD_MATERIAL
350
AA2
  3
ACAD_MLINESTYLE
350
1B
  3
ACAD_PLOTSETTINGS
350
A0E
  3
ACAD_PLOTSTYLENAME
350
A0B
  3
ACDBHEADERROUNDTRIPXREC
350
A9F
  3
ASE_INDEX_DICTIONARY
350
A58
  0
DICTIONARY
  5
AA0
102
{ACAD_REACTORS
330
19
102
}
330
19
100
AcDbDictionary
281
     1
  0
DICTIONARY
  5
1A
102
{ACAD_REACTORS
330
19
102
}
330
19
100
AcDbDictionary
281
     1
  0
DICTIONARY
  5
A0D
102
{ACAD_REACTORS
330
19
102
}
330
19
100
AcDbDictionary
281
     1
  3
Layout1
350
A10
  3
Model
350
A0F
  0
DICTIONARY
  5
AA2
102
{ACAD_REACTORS
330
19
102
}
330
19
100
AcDbDictionary
281
     1
  0
DICTIONARY
  5
1B
102
{ACAD_REACTORS
330
19
102
}
330
19
100
AcDbDictionary
281
     1
  3
STANDARD
350
1C
  0
DICTIONARY
  5
A0E
102
{ACAD_REACTORS
330
19
102
}
330
19
100
AcDbDictionary
281
     1
  0
ACDBDICTIONARYWDFLT
  5
A0B
102
{ACAD_REACTORS
330
19
102
}
330
19
100
AcDbDictionary
281
     1
  3
Normal
350
A0C
100
AcDbDictionaryWithDefault
340
A0C
  0
DICTIONARY
  5
A9F
102
{ACAD_REACTORS
330
19
102
}
330
19
100
AcDbDictionary
281
     1
  3
COLORDICT
350
AA1
  3
MATERIALDICT
350
AA3
  0
DICTIONARY
  5
A58
102
{ACAD_REACTORS
330
19
102
}
330
19
100
AcDbDictionary
281
     1
  3
ASEBlockHierarchyIndexRecord
350
A5A
1001
DCO15
1040
1548151465.244
  0
LAYOUT
  5
A10
102
{ACAD_REACTORS
330
A0D
102
}
102
{ACAD_XDICTIONARY
360
AA4
102
}
330
A0D
100
AcDbPlotSettings
  1

  2
HP LaserJet 2100 Series PS
  4

  6

 40
0.0
 41
0.0
 42
0.0
 43
0.0
 44
0.0
 45
0.0
 46
0.0
 47
0.0
 48
0.0
 49
0.0
140
0.0
141
0.0
142
1.0
143
1.0
 70
   688
 72
     0
 73
     0
 74
     5
  7
monochrome.ctb
 75
    16
147
1.0
148
0.0
149
0.0
100
AcDbLayout
  1
Layout1
 70
     0
 71
     1
 10
0.0
 20
0.0
 11
12.0
 21
9.0
 12
0.0
 22
0.0
 32
0.0
 14
1.000000000000000E+20
 24
1.000000000000000E+20
 34
1.000000000000000E+20
 15
-1.000000000000000E+20
 25
-1.000000000000000E+20
 35
-1.000000000000000E+20
146
0.0
 13
0.0
 23
0.0
 33
0.0
 16
1.0
 26
0.0
 36
0.0
 17
0.0
 27
1.0
 37
0.0
 76
     0
330
B
  0
LAYOUT
  5
A0F
102
{ACAD_REACTORS
330
A0D
102
}
102
{ACAD_XDICTIONARY
360
AA6
102
}
330
A0D
100
AcDbPlotSettings
  1

  2
HP LaserJet 2100 Series PS
  4

  6

 40
0.0
 41
0.0
 42
0.0
 43
0.0
 44
0.0
 45
0.0
 46
0.0
 47
0.0
 48
0.0
 49
0.0
140
0.0
141
0.0
142
1.0
143
1.0
 70
  1712
 72
     0
 73
     0
 74
     0
  7
monochrome.ctb
 75
     0
147
1.0
148
0.0
149
0.0
100
AcDbLayout
  1
Model
 70
     1
 71
     0
 10
0.0
 20
0.0
 11
12.0
 21
9.0
 12
0.0
 22
0.0
 32
0.0
 14
0.0
 24
0.0
 34
0.0
 15
0.0
 25
0.0
 35
0.0
146
0.0
 13
0.0
 23
0.0
 33
0.0
 16
1.0
 26
0.0
 36
0.0
 17
0.0
 27
1.0
 37
0.0
 76
     0
330
A
  0
MLINESTYLE
  5
1C
102
{ACAD_REACTORS
330
1B
102
}
330
1B
100
AcDbMlineStyle
  2
STANDARD
 70
     0
  3

 62
     0
 51
90.0000000000002
 52
90.0000000000002
 71
     2
 49
0.5
 62
   256
  6
BYLAYER
 49
-0.5
 62
   256
  6
BYLAYER
  0
ACDBPLACEHOLDER
  5
A0C
102
{ACAD_REACTORS
330
A0B
102
}
330
A0B
  0
XRECORD
  5
AA1
102
{ACAD_REACTORS
330
A9F
102
}
330
A9F
100
AcDbXrecord
340
AA0
  0
XRECORD
  5
AA3
102
{ACAD_REACTORS
330
A9F
102
}
330
A9F
100
AcDbXrecord
340
AA2
  0
XRECORD
  5
A5A
102
{ACAD_REACTORS
330
A58
102
}
330
A58
100
AcDbXrecord
280
     1
330
23
330
4F
330
87
330
8E
330
AD
330
B3
330
B9
330
BF
330
C5
330
CB
330
D1
330
D7
330
DD
330
E3
330
E9
330
EF
330
F5
330
FB
330
101
330
107
330
10D
330
113
330
119
330
11F
330
125
330
12B
330
131
330
137
330
13D
330
143
330
149
330
15D
330
171
330
185
330
199
330
19F
330
1A7
330
A15
330
A16
330
A17
330
A18
330
A19
330
A1A
330
A1B
330
A1C
330
A1D
330
A1E
330
A1F
330
A20
330
A21
330
A22
330
A23
330
A24
330
A25
330
A26
330
A27
330
A28
330
A29
330
A2A
330
A2B
330
A2C
330
A2D
330
A2E
330
A2F
330
A30
330
A31
330
A32
330
A33
330
A34
330
A35
330
A36
330
A37
330
A38
330
A39
330
A3A
330
A3B
330
A3C
330
A3D
330
A3E
330
A3F
330
A40
330
A41
330
A42
330
A43
330
A44
330
A45
330
A46
330
A47
330
A48
330
A49
330
A4A
330
A4B
330
A4C
330
A4D
330
A4E
330
A4F
330
A50
330
A51
330
A52
330
A53
330
A54
330
A55
330
26
330
3F
330
29
330
2E
330
52
330
6B
330
55
330
5A
  0
DICTIONARY
  5
AA4
330
A10
100
AcDbDictionary
280
     1
281
     1
  3
ACAD_XREC_ROUNDTRIP
360
AA5
  0
DICTIONARY
  5
AA6
330
A0F
100
AcDbDictionary
280
     1
281
     1
  3
ACAD_XREC_ROUNDTRIP
360
AA7
  0
XRECORD
  5
AA5
102
{ACAD_REACTORS
330
AA4
102
}
330
AA4
100
AcDbXrecord
102
SHADEPLOT
 70
     0
102
SHADEPLOTRESLEVEL
 70
     0
102
SHADEPLOTCUSTOMDPI
 70
     0
  0
XRECORD
  5
AA7
102
{ACAD_REACTORS
330
AA6
102
}
330
AA6
100
AcDbXrecord
102
SHADEPLOT
 70
     0
102
SHADEPLOTRESLEVEL
 70
     0
102
SHADEPLOTCUSTOMDPI
 70
     0
  0
ENDSEC
  0
EOF
