  0
SECTION
  2
HEADER
  9
$ACADVER
  1
AC1015
  9
$ACADMAINTVER
 70
     6
  9
$DWGCODEPAGE
  3
ASCII
  9
$INSBASE
 10
0.0
 20
0.0
 30
0.0
  9
$EXTMIN
 10
1.198677
 20
0.8620479999999986
 30
0.0
  9
$EXTMAX
 10
9.072165714285713
 20
9.893314999999999
 30
0.0
  9
$LIMMIN
 10
0.0
 20
0.0
  9
$LIMMAX
 10
8.5
 20
11.0
  9
$ORTHOMODE
 70
     1
  9
$REGENMODE
 70
     1
  9
$FILLMODE
 70
     1
  9
$QTEXTMODE
 70
     0
  9
$MIRRTEXT
 70
     1
  9
$LTSCALE
 40
0.5
  9
$ATTMODE
 70
     1
  9
$TEXTSIZE
 40
0.22
  9
$TRACEWID
 40
0.05
  9
$TEXTSTYLE
  7
STANDARD
  9
$CLAYER
  8
0
  9
$CELTYPE
  6
ByLayer
  9
$CECOLOR
 62
   256
  9
$CELTSCALE
 40
1.0
  9
$DISPSILH
 70
     0
  9
$DIMSCALE
 40
1.0
  9
$DIMASZ
 40
0.1
  9
$DIMEXO
 40
0.0625
  9
$DIMDLI
 40
0.38
  9
$DIMRND
 40
0.0
  9
$DIMDLE
 40
0.0
  9
$DIMEXE
 40
0.075
  9
$DIMTP
 40
0.0
  9
$DIMTM
 40
0.0
  9
$DIMTXT
 40
0.1
  9
$DIMCEN
 40
0.09
  9
$DIMTSZ
 40
0.0
  9
$DIMTOL
 70
     0
  9
$DIMLIM
 70
     0
  9
$DIMTIH
 70
     0
  9
$DIMTOH
 70
     0
  9
$DIMSE1
 70
     0
  9
$DIMSE2
 70
     0
  9
$DIMTAD
 70
     1
  9
$DIMZIN
 70
     0
  9
$DIMBLK
  1

  9
$DIMASO
 70
     0
  9
$DIMSHO
 70
     1
  9
$DIMPOST
  1

  9
$DIMAPOST
  1

  9
$DIMALT
 70
     0
  9
$DIMALTD
 70
     2
  9
$DIMALTF
 40
25.4
  9
$DIMLFAC
 40
1.0
  9
$DIMTOFL
 70
     0
  9
$DIMTVP
 40
0.0
  9
$DIMTIX
 70
     0
  9
$DIMSOXD
 70
     0
  9
$DIMSAH
 70
     0
  9
$DIMBLK1
  1

  9
$DIMBLK2
  1

  9
$DIMSTYLE
  2
Standard
  9
$DIMCLRD
 70
     0
  9
$DIMCLRE
 70
     0
  9
$DIMCLRT
 70
     0
  9
$DIMTFAC
 40
1.0
  9
$DIMGAP
 40
0.09
  9
$DIMJUST
 70
     0
  9
$DIMSD1
 70
     0
  9
$DIMSD2
 70
     0
  9
$DIMTOLJ
 70
     1
  9
$DIMTZIN
 70
     0
  9
$DIMALTZ
 70
     0
  9
$DIMALTTZ
 70
     0
  9
$DIMUPT
 70
     0
  9
$DIMDEC
 70
     4
  9
$DIMTDEC
 70
     4
  9
$DIMALTU
 70
     2
  9
$DIMALTTD
 70
     2
  9
$DIMTXSTY
  7
STANDARD
  9
$DIMAUNIT
 70
     0
  9
$DIMADEC
 70
     0
  9
$DIMALTRND
 40
0.0
  9
$DIMAZIN
 70
     0
  9
$DIMDSEP
 70
    46
  9
$DIMATFIT
 70
     3
  9
$DIMFRAC
 70
     0
  9
$DIMLDRBLK
  1

  9
$DIMLUNIT
 70
     2
  9
$DIMLWD
 70
    -2
  9
$DIMLWE
 70
    -2
  9
$DIMTMOVE
 70
     0
  9
$LUNITS
 70
     2
  9
$LUPREC
 70
     4
  9
$SKETCHINC
 40
0.1
  9
$FILLETRAD
 40
0.035
  9
$AUNITS
 70
     0
  9
$AUPREC
 70
     0
  9
$MENU
  1
acad
  9
$ELEVATION
 40
0.0
  9
$PELEVATION
 40
0.0
  9
$THICKNESS
 40
0.0
  9
$LIMCHECK
 70
     0
  9
$CHAMFERA
 40
0.0
  9
$CHAMFERB
 40
0.0
  9
$CHAMFERC
 40
1.0
  9
$CHAMFERD
 40
0.0
  9
$SKPOLY
 70
     0
  9
$TDCREATE
 40
2453955.56145287
  9
$TDUCREATE
 40
2453955.894786204
  9
$TDUPDATE
 40
2453955.603119548
  9
$TDUUPDATE
 40
2453955.894786215
  9
$TDINDWG
 40
0.0000000116
  9
$TDUSRTIMER
 40
0.0000000116
  9
$USRTIMER
 70
     1
  9
$ANGBASE
 50
0.0
  9
$ANGDIR
 70
     0
  9
$PDMODE
 70
     0
  9
$PDSIZE
 40
0.0
  9
$PLINEWID
 40
0.0
  9
$SPLFRAME
 70
     0
  9
$SPLINETYPE
 70
     6
  9
$SPLINESEGS
 70
     8
  9
$HANDSEED
  5
933
  9
$SURFTAB1
 70
     6
  9
$SURFTAB2
 70
     6
  9
$SURFTYPE
 70
     6
  9
$SURFU
 70
     6
  9
$SURFV
 70
     6
  9
$UCSBASE
  2

  9
$UCSNAME
  2

  9
$UCSORG
 10
0.0
 20
0.0
 30
0.0
  9
$UCSXDIR
 10
1.0
 20
0.0
 30
0.0
  9
$UCSYDIR
 10
0.0
 20
1.0
 30
0.0
  9
$UCSORTHOREF
  2

  9
$UCSORTHOVIEW
 70
     0
  9
$UCSORGTOP
 10
0.0
 20
0.0
 30
0.0
  9
$UCSORGBOTTOM
 10
0.0
 20
0.0
 30
0.0
  9
$UCSORGLEFT
 10
0.0
 20
0.0
 30
0.0
  9
$UCSORGRIGHT
 10
0.0
 20
0.0
 30
0.0
  9
$UCSORGFRONT
 10
0.0
 20
0.0
 30
0.0
  9
$UCSORGBACK
 10
0.0
 20
0.0
 30
0.0
  9
$PUCSBASE
  2

  9
$PUCSNAME
  2

  9
$PUCSORG
 10
0.0
 20
0.0
 30
0.0
  9
$PUCSXDIR
 10
1.0
 20
0.0
 30
0.0
  9
$PUCSYDIR
 10
0.0
 20
1.0
 30
0.0
  9
$PUCSORTHOREF
  2

  9
$PUCSORTHOVIEW
 70
     0
  9
$PUCSORGTOP
 10
0.0
 20
0.0
 30
0.0
  9
$PUCSORGBOTTOM
 10
0.0
 20
0.0
 30
0.0
  9
$PUCSORGLEFT
 10
0.0
 20
0.0
 30
0.0
  9
$PUCSORGRIGHT
 10
0.0
 20
0.0
 30
0.0
  9
$PUCSORGFRONT
 10
0.0
 20
0.0
 30
0.0
  9
$PUCSORGBACK
 10
0.0
 20
0.0
 30
0.0
  9
$USERI1
 70
     0
  9
$USERI2
 70
     0
  9
$USERI3
 70
     0
  9
$USERI4
 70
     0
  9
$USERI5
 70
     0
  9
$USERR1
 40
0.0
  9
$USERR2
 40
0.0
  9
$USERR3
 40
0.0
  9
$USERR4
 40
0.0
  9
$USERR5
 40
0.0
  9
$WORLDVIEW
 70
     1
  9
$SHADEDGE
 70
     3
  9
$SHADEDIF
 70
    70
  9
$TILEMODE
 70
     1
  9
$MAXACTVP
 70
    16
  9
$PINSBASE
 10
0.0
 20
0.0
 30
0.0
  9
$PLIMCHECK
 70
     0
  9
$PEXTMIN
 10
1.000000000000000E+20
 20
1.000000000000000E+20
 30
1.000000000000000E+20
  9
$PEXTMAX
 10
-1.000000000000000E+20
 20
-1.000000000000000E+20
 30
-1.000000000000000E+20
  9
$PLIMMIN
 10
0.0
 20
0.0
  9
$PLIMMAX
 10
12.0
 20
9.0
  9
$UNITMODE
 70
     0
  9
$VISRETAIN
 70
     0
  9
$PLINEGEN
 70
     0
  9
$PSLTSCALE
 70
     1
  9
$TREEDEPTH
 70
  3020
  9
$CMLSTYLE
  2
Standard
  9
$CMLJUST
 70
     0
  9
$CMLSCALE
 40
1.0
  9
$PROXYGRAPHICS
 70
     1
  9
$MEASUREMENT
 70
     0
  9
$CELWEIGHT
370
    -1
  9
$ENDCAPS
280
     0
  9
$JOINSTYLE
280
     0
  9
$LWDISPLAY
290
     0
  9
$INSUNITS
 70
     1
  9
$HYPERLINKBASE
  1

  9
$STYLESHEET
  1

  9
$XEDIT
290
     1
  9
$CEPSNTYPE
380
     0
  9
$PSTYLEMODE
290
     0
  9
$FINGERPRINTGUID
  2
{FAEB1C30-E019-11D5-929B-00C0DF256EC4}
  9
$VERSIONGUID
  2
{FAEB1C32-E019-11D5-929B-00C0DF256EC4}
  9
$EXTNAMES
290
     1
  9
$PSVPSCALE
 40
0.0
  9
$OLESTARTUP
290
     0
  0
ENDSEC
  0
SECTION
  2
CLASSES
  0
CLASS
  1
ACDBDICTIONARYWDFLT
  2
AcDbDictionaryWithDefault
  3
AutoCAD 2000
 90
        0
280
     0
281
     0
  0
CLASS
  1
ACDBPLACEHOLDER
  2
AcDbPlaceHolder
  3
ObjectDBX Classes
 90
        0
280
     0
281
     0
  0
CLASS
  1
LAYOUT
  2
AcDbLayout
  3
ObjectDBX Classes
 90
        0
280
     0
281
     0
  0
ENDSEC
  0
SECTION
  2
TABLES
  0
TABLE
  2
VPORT
  5
8
330
0
100
AcDbSymbolTable
 70
     2
  0
VPORT
  5
1F
330
8
100
AcDbSymbolTableRecord
100
AcDbViewportTableRecord
  2
*ACTIVE
 70
     0
 10
0.0
 20
0.0
 11
1.0
 21
1.0
 12
5.712191804621352
 22
5.387616099071206
 13
0.0
 23
0.0
 14
1.0
 24
1.0
 15
0.0
 25
0.0
 16
0.0
 26
0.0
 36
1.0
 17
0.0
 27
0.0
 37
0.0
 40
10.04847499334158
 41
0.6891025641025641
 42
50.0
 43
0.0
 44
0.0
 50
0.0
 51
0.0
 71
     0
 72
  2000
 73
     1
 74
     0
 75
     0
 76
     0
 77
     0
 78
     0
281
     0
 65
     1
110
0.0
120
0.0
130
0.0
111
1.0
121
0.0
131
0.0
112
0.0
122
1.0
132
0.0
 79
     0
146
0.0
  0
ENDTAB
  0
TABLE
  2
LTYPE
  5
5
330
0
100
AcDbSymbolTable
 70
     2
  0
LTYPE
  5
10
330
5
100
AcDbSymbolTableRecord
100
AcDbLinetypeTableRecord
  2
ByBlock
 70
     0
  3

 72
    65
 73
     0
 40
0.0
  0
LTYPE
  5
11
330
5
100
AcDbSymbolTableRecord
100
AcDbLinetypeTableRecord
  2
ByLayer
 70
     0
  3

 72
    65
 73
     0
 40
0.0
  0
LTYPE
  5
1B
330
5
100
AcDbSymbolTableRecord
100
AcDbLinetypeTableRecord
  2
CONTINUOUS
 70
     0
  3
Solid line
 72
    65
 73
     0
 40
0.0
  0
LTYPE
  5
1C
330
5
100
AcDbSymbolTableRecord
100
AcDbLinetypeTableRecord
  2
HIDDEN
 70
     0
  3
__ __ __ __ __ __ __ __ __ __ __ __ __ __ __ __
 72
    65
 73
     2
 40
0.375
 49
0.25
 74
     0
 49
-0.125
 74
     0
  0
ENDTAB
  0
TABLE
  2
LAYER
  5
2
330
0
100
AcDbSymbolTable
 70
     1
  0
LAYER
  5
1D
330
2
100
AcDbSymbolTableRecord
100
AcDbLayerTableRecord
  2
0
 70
     0
 62
     7
  6
CONTINUOUS
370
    -3
390
F
  0
ENDTAB
  0
TABLE
  2
STYLE
  5
3
330
0
100
AcDbSymbolTable
 70
     1
  0
STYLE
  5
22
330
3
100
AcDbSymbolTableRecord
100
AcDbTextStyleTableRecord
  2
STANDARD
 70
     0
 40
0.0
 41
1.0
 50
0.0
 71
     0
 42
0.22
  3
ROMANS.shx
  4

  0
ENDTAB
  0
TABLE
  2
VIEW
  5
6
330
0
100
AcDbSymbolTable
 70
     1
  0
VIEW
  5
21
330
6
100
AcDbSymbolTableRecord
100
AcDbViewTableRecord
  2
1
 70
     0
 40
11.0
 10
7.225941000000001
 20
5.5
 41
14.451883
 11
0.0
 21
0.0
 31
1.0
 12
0.0
 22
0.0
 32
0.0
 42
50.0
 43
0.0
 44
0.0
 50
0.0
 71
     0
281
     0
 72
     0
  0
ENDTAB
  0
TABLE
  2
UCS
  5
7
330
0
100
AcDbSymbolTable
 70
     0
  0
ENDTAB
  0
TABLE
  2
APPID
  5
9
330
0
100
AcDbSymbolTable
 70
     1
  0
APPID
  5
20
330
9
100
AcDbSymbolTableRecord
100
AcDbRegAppTableRecord
  2
ACAD
 70
     0
  0
ENDTAB
  0
TABLE
  2
DIMSTYLE
  5
A
330
0
100
AcDbSymbolTable
 70
     1
100
AcDbDimStyleTable
  0
DIMSTYLE
105
23
330
A
100
AcDbSymbolTableRecord
100
AcDbDimStyleTableRecord
  2
Standard
 70
     0
  3

  4

340
22
  0
ENDTAB
  0
TABLE
  2
BLOCK_RECORD
  5
1
330
0
100
AcDbSymbolTable
 70
     0
  0
BLOCK_RECORD
  5
18
330
1
100
AcDbSymbolTableRecord
100
AcDbBlockTableRecord
  2
*Model_Space
340
19
  0
BLOCK_RECORD
  5
16
330
1
100
AcDbSymbolTableRecord
100
AcDbBlockTableRecord
  2
*Paper_Space
340
17
  0
ENDTAB
  0
ENDSEC
  0
SECTION
  2
BLOCKS
  0
BLOCK
  5
928
330
18
100
AcDbEntity
  8
0
100
AcDbBlockBegin
  2
*Model_Space
 70
     0
 10
0.0
 20
0.0
 30
0.0
  3
*Model_Space
  1

  4

  0
ENDBLK
  5
929
330
18
100
AcDbEntity
  8
0
100
AcDbBlockEnd
  0
BLOCK
  5
926
330
16
100
AcDbEntity
 67
     1
  8
0
100
AcDbBlockBegin
  2
*Paper_Space
 70
     0
 10
0.0
 20
0.0
 30
0.0
  3
*Paper_Space
  1

  4

  0
ENDBLK
  5
927
330
16
100
AcDbEntity
 67
     1
  8
0
100
AcDbBlockEnd
  0
ENDSEC
  0
SECTION
  2
ENTITIES
  0
LINE
  5
24
330
18
100
AcDbEntity
  8
0
100
AcDbLine
 10
7.166691
 20
4.427921
 30
0.0
 11
2.964775
 21
2.728343
 31
0.0
  0
LINE
  5
25
330
18
100
AcDbEntity
  8
0
100
AcDbLine
 10
2.964775
 20
2.728343
 30
0.0
 11
2.964775
 21
1.717539
 31
0.0
  0
LINE
  5
26
330
18
100
AcDbEntity
  8
0
100
AcDbLine
 10
2.964775
 20
1.717539
 30
0.0
 11
7.167478
 21
3.627455
 31
0.0
  0
LINE
  5
27
330
18
100
AcDbEntity
  8
0
100
AcDbLine
 10
7.167478
 20
3.627455
 30
0.0
 11
7.149485
 21
3.709184
 31
0.0
  0
LINE
  5
28
330
18
100
AcDbEntity
  8
0
100
AcDbLine
 10
7.149485
 20
3.709184
 30
0.0
 11
7.132486
 21
3.764995
 31
0.0
  0
LINE
  5
29
330
18
100
AcDbEntity
  8
0
100
AcDbLine
 10
7.132486
 20
3.764995
 30
0.0
 11
7.130489
 21
3.784931
 31
0.0
  0
LINE
  5
2A
330
18
100
AcDbEntity
  8
0
100
AcDbLine
 10
7.130489
 20
3.784931
 30
0.0
 11
7.127503
 21
3.843743
 31
0.0
  0
LINE
  5
2B
330
18
100
AcDbEntity
  8
0
100
AcDbLine
 10
7.127503
 20
3.843743
 30
0.0
 11
7.167549
 21
3.895607
 31
0.0
  0
LINE
  5
2C
330
18
100
AcDbEntity
  8
0
100
AcDbLine
 10
7.167549
 20
3.895607
 30
0.0
 11
7.152544
 21
3.922511
 31
0.0
  0
LINE
  5
2D
330
18
100
AcDbEntity
  8
0
100
AcDbLine
 10
7.152544
 20
3.922511
 30
0.0
 11
7.133539
 21
3.960378
 31
0.0
  0
LINE
  5
2E
330
18
100
AcDbEntity
  8
0
100
AcDbLine
 10
7.133539
 20
3.960378
 30
0.0
 11
7.177588
 21
4.008257
 31
0.0
  0
LINE
  5
2F
330
18
100
AcDbEntity
  8
0
100
AcDbLine
 10
7.177588
 20
4.008257
 30
0.0
 11
7.189614999999999
 21
4.072064
 31
0.0
  0
LINE
  5
30
330
18
100
AcDbEntity
  8
0
100
AcDbLine
 10
7.189614999999999
 20
4.072064
 30
0.0
 11
7.19964
 21
4.134872000000001
 31
0.0
  0
LINE
  5
31
330
18
100
AcDbEntity
  8
0
100
AcDbLine
 10
7.19964
 20
4.134872000000001
 30
0.0
 11
7.188641000000001
 21
4.175735
 31
0.0
  0
LINE
  5
32
330
18
100
AcDbEntity
  8
0
100
AcDbLine
 10
7.188641000000001
 20
4.175735
 30
0.0
 11
7.169637
 21
4.217589
 31
0.0
  0
LINE
  5
33
330
18
100
AcDbEntity
  8
0
100
AcDbLine
 10
7.169637
 20
4.217589
 30
0.0
 11
7.156632000000001
 21
4.23951
 31
0.0
  0
LINE
  5
34
330
18
100
AcDbEntity
  8
0
100
AcDbLine
 10
7.156632000000001
 20
4.23951
 30
0.0
 11
7.147631
 21
4.263428
 31
0.0
  0
LINE
  5
35
330
18
100
AcDbEntity
  8
0
100
AcDbLine
 10
7.147631
 20
4.263428
 30
0.0
 11
7.148636
 21
4.279379000000001
 31
0.0
  0
LINE
  5
36
330
18
100
AcDbEntity
  8
0
100
AcDbLine
 10
7.148636
 20
4.279379000000001
 30
0.0
 11
7.161650999999999
 21
4.293344
 31
0.0
  0
LINE
  5
37
330
18
100
AcDbEntity
  8
0
100
AcDbLine
 10
7.161650999999999
 20
4.293344
 30
0.0
 11
7.174667
 21
4.31329
 31
0.0
  0
LINE
  5
38
330
18
100
AcDbEntity
  8
0
100
AcDbLine
 10
7.174667
 20
4.31329
 30
0.0
 11
7.172677999999999
 21
4.361137
 31
0.0
  0
LINE
  5
39
330
18
100
AcDbEntity
  8
0
100
AcDbLine
 10
7.172677999999999
 20
4.361137
 30
0.0
 11
7.166691
 21
4.427921
 31
0.0
  0
LINE
  5
3A
330
18
100
AcDbEntity
  8
0
100
AcDbLine
 10
2.964775
 20
2.728343
 30
0.0
 11
1.198677
 21
4.071848
 31
0.0
  0
LINE
  5
3B
330
18
100
AcDbEntity
  8
0
100
AcDbLine
 10
1.198677
 20
4.071848
 30
0.0
 11
1.198677
 21
3.224523
 31
0.0
  0
LINE
  5
3C
330
18
100
AcDbEntity
  8
0
100
AcDbLine
 10
1.198677
 20
3.224523
 30
0.0
 11
2.964775
 21
1.717539
 31
0.0
  0
LINE
  5
3D
330
18
100
AcDbEntity
  8
0
100
AcDbLine
 10
2.330327
 20
3.210979
 30
0.0
 11
6.444177
 21
4.733446
 31
0.0
  0
LINE
  5
3E
330
18
100
AcDbEntity
  8
0
100
AcDbLine
 10
6.444177
 20
4.733446
 30
0.0
 11
7.166691
 21
4.427921
 31
0.0
  0
LINE
  5
3F
330
18
100
AcDbEntity
  8
0
100
AcDbLine
 10
2.343227
 20
6.345458
 30
0.0
 11
2.343227
 21
5.448294000000001
 31
0.0
  0
LINE
  5
40
330
18
100
AcDbEntity
  8
0
100
AcDbLine
 10
2.343227
 20
3.317042
 30
0.0
 11
3.052989
 21
3.577562
 31
0.0
  0
LINE
  5
41
330
18
100
AcDbEntity
  8
0
100
AcDbLine
 10
1.650745
 20
6.677917999999999
 30
0.0
 11
1.650745
 21
5.816647
 31
0.0
  0
LINE
  5
42
330
18
100
AcDbEntity
  8
0
100
AcDbLine
 10
1.650745
 20
3.815975
 30
0.0
 11
2.343227
 21
3.317042
 31
0.0
  0
LINE
  5
43
330
18
100
AcDbEntity
  8
0
100
AcDbLine
 10
1.198677
 20
4.071848
 30
0.0
 11
1.650745
 21
4.220683
 31
0.0
  0
ARC
  5
44
330
18
100
AcDbEntity
  8
0
100
AcDbCircle
 10
1.620955
 20
3.785172
 30
0.0
 40
0.045745
100
AcDbArc
 50
285.778273
 51
32.20333400000001
  0
ARC
  5
45
330
18
100
AcDbEntity
  8
0
100
AcDbCircle
 10
2.388899
 20
3.27274
 30
0.0
 40
0.073143
100
AcDbArc
 50
136.965142
 51
208.10874
  0
LINE
  5
46
330
18
100
AcDbEntity
  8
0
100
AcDbLine
 10
2.343227
 20
4.278989
 30
0.0
 11
3.05215
 21
4.506103
 31
0.0
  0
LINE
  5
47
330
18
100
AcDbEntity
  8
0
100
AcDbLine
 10
2.343227
 20
4.278989
 30
0.0
 11
1.650745
 21
4.710145
 31
0.0
  0
LINE
  5
48
330
18
100
AcDbEntity
  8
0
100
AcDbLine
 10
1.650745
 20
4.814817
 30
0.0
 11
2.343227
 21
4.393628
 31
0.0
  0
LINE
  5
49
330
18
100
AcDbEntity
  8
0
100
AcDbLine
 10
2.343227
 20
4.393628
 30
0.0
 11
3.844559
 21
4.859248
 31
0.0
  0
LINE
  5
4A
330
18
100
AcDbEntity
  8
0
100
AcDbLine
 10
1.650745
 20
5.711980000000001
 30
0.0
 11
2.343227
 21
5.340631
 31
0.0
  0
LINE
  5
4B
330
18
100
AcDbEntity
  8
0
100
AcDbLine
 10
2.343227
 20
5.340631
 30
0.0
 11
3.844559
 21
5.744196
 31
0.0
  0
LINE
  5
4C
330
18
100
AcDbEntity
  8
0
100
AcDbLine
 10
1.650745
 20
5.816647
 30
0.0
 11
2.343227
 21
5.448294000000001
 31
0.0
  0
LINE
  5
4D
330
18
100
AcDbEntity
  8
0
100
AcDbLine
 10
2.343227
 20
5.448294000000001
 30
0.0
 11
3.051132
 21
5.63314
 31
0.0
  0
LINE
  5
4E
330
18
100
AcDbEntity
  8
0
100
AcDbLine
 10
1.650745
 20
6.677917999999999
 30
0.0
 11
1.744809
 21
6.632758
 31
0.0
  0
LINE
  5
4F
330
18
100
AcDbEntity
  8
0
100
AcDbLine
 10
2.343227
 20
6.345458
 30
0.0
 11
5.85233
 21
7.138418
 31
0.0
  0
LINE
  5
50
330
18
100
AcDbEntity
  8
0
100
AcDbLine
 10
4.928644
 20
7.419877000000001
 30
0.0
 11
7.455528999999999
 21
6.679997
 31
0.0
  0
LINE
  5
51
330
18
100
AcDbEntity
  8
0
100
AcDbLine
 10
7.455528999999999
 20
6.679997
 30
0.0
 11
7.455528999999999
 21
7.10665
 31
0.0
  0
LINE
  5
52
330
18
100
AcDbEntity
  8
0
100
AcDbLine
 10
7.455528999999999
 20
7.643949
 30
0.0
 11
6.973744
 21
7.751567999999999
 31
0.0
  0
LINE
  5
53
330
18
100
AcDbEntity
  8
0
100
AcDbLine
 10
7.455528999999999
 20
6.679997
 30
0.0
 11
7.650712
 21
6.760878999999999
 31
0.0
  0
LINE
  5
54
330
18
100
AcDbEntity
  8
0
100
AcDbLine
 10
7.650712
 20
6.760878999999999
 30
0.0
 11
7.652646000000001
 21
7.147441000000001
 31
0.0
  0
LINE
  5
55
330
18
100
AcDbEntity
  8
0
100
AcDbLine
 10
7.652958
 20
7.677978
 30
0.0
 11
7.455528999999999
 21
7.643949
 31
0.0
  0
LINE
  5
56
330
18
100
AcDbEntity
  8
0
100
AcDbLine
 10
7.652958
 20
7.677978
 30
0.0
 11
7.041133
 21
7.795903
 31
0.0
  0
ARC
  5
57
330
18
100
AcDbEntity
  8
0
100
AcDbCircle
 10
1.586883
 20
4.769396
 30
0.0
 40
0.087115
100
AcDbArc
 50
317.145188
 51
24.422431
  0
LINE
  5
58
330
18
100
AcDbEntity
  8
0
100
AcDbLine
 10
1.650745
 20
4.710145
 30
0.0
 11
1.650745
 21
3.815975
 31
0.0
  0
ARC
  5
59
330
18
100
AcDbEntity
  8
0
100
AcDbCircle
 10
1.586883
 20
5.771226
 30
0.0
 40
0.087115
100
AcDbArc
 50
317.145188
 51
24.422431
  0
LINE
  5
5A
330
18
100
AcDbEntity
  8
0
100
AcDbLine
 10
1.650745
 20
5.711980000000001
 30
0.0
 11
1.650745
 21
4.814817
 31
0.0
  0
LINE
  5
5B
330
18
100
AcDbEntity
  8
0
100
AcDbLine
 10
2.194222
 20
6.786956
 30
0.0
 11
1.650745
 21
6.677917999999999
 31
0.0
  0
LINE
  5
5C
330
18
100
AcDbEntity
  8
0
100
AcDbLine
 10
3.050344
 20
6.505247
 30
0.0
 11
3.051132
 21
5.63314
 31
0.0
  0
LINE
  5
5D
330
18
100
AcDbEntity
  8
0
100
AcDbLine
 10
4.724072000000001
 20
6.883463000000001
 30
0.0
 11
4.722138
 21
6.06947
 31
0.0
  0
LINE
  5
5E
330
18
100
AcDbEntity
  8
0
100
AcDbLine
 10
3.844559
 20
5.744196
 30
0.0
 11
3.844559
 21
4.859248
 31
0.0
  0
LINE
  5
5F
330
18
100
AcDbEntity
  8
0
100
AcDbLine
 10
3.938518
 20
5.769453
 30
0.0
 11
3.938518
 21
4.888388
 31
0.0
  0
LINE
  5
60
330
18
100
AcDbEntity
  8
0
100
AcDbLine
 10
3.146683
 20
6.527017
 30
0.0
 11
3.146683
 21
5.658090000000001
 31
0.0
  0
LINE
  5
61
330
18
100
AcDbEntity
  8
0
100
AcDbLine
 10
4.636162000000001
 20
6.863598
 30
0.0
 11
4.636162000000001
 21
6.04702
 31
0.0
  0
LINE
  5
62
330
18
100
AcDbEntity
  8
0
100
AcDbLine
 10
5.360894
 20
6.151794000000001
 30
0.0
 11
5.360894
 21
5.329521
 31
0.0
  0
LINE
  5
63
330
18
100
AcDbEntity
  8
0
100
AcDbLine
 10
5.467624
 20
6.180484
 30
0.0
 11
5.467624
 21
5.362622
 31
0.0
  0
LINE
  5
64
330
18
100
AcDbEntity
  8
0
100
AcDbLine
 10
6.087416
 20
7.080585000000001
 30
0.0
 11
6.087416
 21
6.425968
 31
0.0
  0
LINE
  5
65
330
18
100
AcDbEntity
  8
0
100
AcDbLine
 10
6.183447
 20
7.052467
 30
0.0
 11
6.183447
 21
6.451044
 31
0.0
  0
LINE
  5
66
330
18
100
AcDbEntity
  8
0
100
AcDbLine
 10
5.467624
 20
5.362622
 30
0.0
 11
6.370724
 21
5.642708
 31
0.0
  0
LINE
  5
67
330
18
100
AcDbEntity
  8
0
100
AcDbLine
 10
3.146683
 20
3.611953
 30
0.0
 11
4.636162000000001
 21
4.15867
 31
0.0
  0
LINE
  5
68
330
18
100
AcDbEntity
  8
0
100
AcDbLine
 10
4.717669
 20
4.188587
 30
0.0
 11
6.087416
 21
4.691356
 31
0.0
  0
LINE
  5
69
330
18
100
AcDbEntity
  8
0
100
AcDbLine
 10
3.146683
 20
4.536388
 30
0.0
 11
3.146683
 21
3.611953
 31
0.0
  0
LINE
  5
6A
330
18
100
AcDbEntity
  8
0
100
AcDbLine
 10
3.05215
 20
4.506103
 30
0.0
 11
3.052989
 21
3.577562
 31
0.0
  0
LINE
  5
6B
330
18
100
AcDbEntity
  8
0
100
AcDbLine
 10
3.146683
 20
5.658090000000001
 30
0.0
 11
4.636162000000001
 21
6.04702
 31
0.0
  0
LINE
  5
6C
330
18
100
AcDbEntity
  8
0
100
AcDbLine
 10
3.938518
 20
5.769453
 30
0.0
 11
6.35093
 21
6.417921
 31
0.0
  0
LINE
  5
6D
330
18
100
AcDbEntity
  8
0
100
AcDbLine
 10
3.938518
 20
4.888388
 30
0.0
 11
5.360894
 21
5.329521
 31
0.0
  0
LINE
  5
6E
330
18
100
AcDbEntity
  8
0
100
AcDbLine
 10
3.146683
 20
4.536388
 30
0.0
 11
4.636162000000001
 21
5.013563
 31
0.0
  0
LINE
  5
6F
330
18
100
AcDbEntity
  8
0
100
AcDbLine
 10
4.636162000000001
 20
5.013563
 30
0.0
 11
4.636162000000001
 21
4.15867
 31
0.0
  0
LINE
  5
70
330
18
100
AcDbEntity
  8
0
100
AcDbLine
 10
4.719693
 20
5.040324
 30
0.0
 11
4.717669
 21
4.188587
 31
0.0
  0
LINE
  5
71
330
18
100
AcDbEntity
  8
0
100
AcDbLine
 10
4.719693
 20
5.040324
 30
0.0
 11
6.087416
 21
5.478493
 31
0.0
  0
LINE
  5
72
330
18
100
AcDbEntity
  8
0
100
AcDbLine
 10
4.722138
 20
6.06947
 30
0.0
 11
6.087416
 21
6.425968
 31
0.0
  0
LINE
  5
73
330
18
100
AcDbEntity
  8
0
100
AcDbLine
 10
6.183447
 20
6.451044
 30
0.0
 11
6.358199
 21
6.496675
 31
0.0
  0
LINE
  5
74
330
18
100
AcDbEntity
  8
0
100
AcDbLine
 10
6.183447
 20
5.509258
 30
0.0
 11
6.183447
 21
4.726604
 31
0.0
  0
LINE
  5
75
330
18
100
AcDbEntity
  8
0
100
AcDbLine
 10
6.087416
 20
5.478493
 30
0.0
 11
6.087416
 21
4.691356
 31
0.0
  0
LINE
  5
76
330
18
100
AcDbEntity
  8
0
100
AcDbLine
 10
6.183447
 20
5.509258
 30
0.0
 11
6.349314
 21
5.562396
 31
0.0
  0
LINE
  5
77
330
18
100
AcDbEntity
  8
0
100
AcDbLine
 10
6.183447
 20
4.726604
 30
0.0
 11
6.434132
 21
4.818619
 31
0.0
  0
LWPOLYLINE
  5
78
330
18
100
AcDbEntity
  8
0
100
AcDbPolyline
 90
       40
 70
     0
 43
0.0
 10
6.353244
 20
7.00275
 10
6.381712
 20
6.934436
 10
6.340657
 20
6.855657000000001
 10
6.344646
 20
6.800833
 10
6.333622
 20
6.745999
 10
6.362623999999999
 20
6.664278
 10
6.388633000000001
 20
6.615450999999999
 10
6.380612
 20
6.563609
 10
6.357575
 20
6.494811
 10
6.344548000000001
 20
6.434991
 10
6.36355
 20
6.384165
 10
6.38756
 20
6.347298
 10
6.380545
 20
6.311407
 10
6.393551
 20
6.29447
 10
6.403546
 20
6.243638
 10
6.39251
 20
6.144942
 10
6.382486
 20
6.084128
 10
6.385473999999999
 20
6.0303
 10
6.371454
 20
5.996398
 10
6.381449
 20
5.948556
 10
6.391432
 20
5.853863
 10
6.389407
 20
5.765142
 10
6.374367
 20
5.66445
 10
6.370358
 20
5.640523
 10
6.338323
 20
5.609598
 10
6.351319
 20
5.553783999999999
 10
6.378328
 20
5.505955
 10
6.41535
 20
5.472087999999999
 10
6.39532
 20
5.420237999999999
 10
6.396309
 20
5.377374
 10
6.409311
 20
5.344487
 10
6.395281
 20
5.276692
 10
6.412271
 20
5.184994000000001
 10
6.436261
 20
5.073365
 10
6.457262999999999
 20
5.015562
 10
6.481267
 20
4.955768
 10
6.451222000000001
 20
4.880984
 10
6.430184
 20
4.804212000000001
 10
6.436178
 20
4.763346
 10
6.444177
 20
4.733446
  0
LINE
  5
A3
330
18
100
AcDbEntity
  8
0
100
AcDbLine
 10
2.194222
 20
6.786956
 30
0.0
 11
2.194222
 21
7.000282
 31
0.0
  0
LINE
  5
A4
330
18
100
AcDbEntity
  8
0
100
AcDbLine
 10
2.194222
 20
7.000282
 30
0.0
 11
2.373436
 21
7.035296000000001
 31
0.0
  0
LINE
  5
A5
330
18
100
AcDbEntity
  8
0
100
AcDbLine
 10
2.373436
 20
7.035296000000001
 30
0.0
 11
2.373436
 21
7.42307
 31
0.0
  0
LINE
  5
A6
330
18
100
AcDbEntity
  8
0
100
AcDbLine
 10
2.373436
 20
7.964361
 30
0.0
 11
2.664817
 21
8.004291
 31
0.0
  0
LINE
  5
A7
330
18
100
AcDbEntity
  8
0
100
AcDbLine
 10
3.170369
 20
8.073571000000001
 30
0.0
 11
3.170369
 21
8.16428
 31
0.0
  0
LINE
  5
A8
330
18
100
AcDbEntity
  8
0
100
AcDbLine
 10
3.170369
 20
8.16428
 30
0.0
 11
3.291499
 21
8.183309
 31
0.0
  0
LINE
  5
A9
330
18
100
AcDbEntity
  8
0
100
AcDbLine
 10
3.291499
 20
8.183309
 30
0.0
 11
3.291499
 21
8.356758000000001
 31
0.0
  0
LINE
  5
AA
330
18
100
AcDbEntity
  8
0
100
AcDbLine
 10
3.291499
 20
8.356758000000001
 30
0.0
 11
4.088583
 21
8.453921000000001
 31
0.0
  0
LINE
  5
AB
330
18
100
AcDbEntity
  8
0
100
AcDbLine
 10
5.405355999999999
 20
8.614432000000001
 30
0.0
 11
5.492119000000001
 21
8.601483
 31
0.0
  0
LINE
  5
AC
330
18
100
AcDbEntity
  8
0
100
AcDbLine
 10
5.870721
 20
8.544979
 30
0.0
 11
5.870721
 21
8.389472
 31
0.0
  0
LINE
  5
AD
330
18
100
AcDbEntity
  8
0
100
AcDbLine
 10
5.870721
 20
8.389472
 30
0.0
 11
7.385853
 21
8.109424000000001
 31
0.0
  0
LINE
  5
AE
330
18
100
AcDbEntity
  8
0
100
AcDbLine
 10
7.385853
 20
8.109424000000001
 30
0.0
 11
7.385853
 21
8.022699000000001
 31
0.0
  0
LINE
  5
AF
330
18
100
AcDbEntity
  8
0
100
AcDbLine
 10
7.385853
 20
8.022699000000001
 30
0.0
 11
6.953535000000001
 21
7.738272
 31
0.0
  0
LINE
  5
B0
330
18
100
AcDbEntity
  8
0
100
AcDbLine
 10
6.953535000000001
 20
7.738272
 30
0.0
 11
5.571266000000001
 21
7.764239999999999
 31
0.0
  0
LINE
  5
B1
330
18
100
AcDbEntity
  8
0
100
AcDbLine
 10
4.392233999999999
 20
7.741474
 30
0.0
 11
3.170369
 21
8.073571000000001
 31
0.0
  0
LINE
  5
B2
330
18
100
AcDbEntity
  8
0
100
AcDbLine
 10
4.392233999999999
 20
7.829178
 30
0.0
 11
3.170369
 21
8.16428
 31
0.0
  0
LINE
  5
B3
330
18
100
AcDbEntity
  8
0
100
AcDbLine
 10
5.57125
 20
7.851734
 30
0.0
 11
4.392233999999999
 21
7.829178
 31
0.0
  0
LINE
  5
B4
330
18
100
AcDbEntity
  8
0
100
AcDbLine
 10
6.953535000000001
 20
7.825766000000001
 30
0.0
 11
5.57125
 21
7.851734
 31
0.0
  0
LINE
  5
B5
330
18
100
AcDbEntity
  8
0
100
AcDbLine
 10
7.385853
 20
8.109424000000001
 30
0.0
 11
6.953535000000001
 21
7.825766000000001
 31
0.0
  0
LINE
  5
B6
330
18
100
AcDbEntity
  8
0
100
AcDbLine
 10
4.392233999999999
 20
7.829178
 30
0.0
 11
4.392233999999999
 21
7.741474
 31
0.0
  0
LINE
  5
B7
330
18
100
AcDbEntity
  8
0
100
AcDbLine
 10
5.57125
 20
7.764239999999999
 30
0.0
 11
5.57125
 21
7.851734
 31
0.0
  0
LINE
  5
B8
330
18
100
AcDbEntity
  8
0
100
AcDbLine
 10
3.291499
 20
8.183309
 30
0.0
 11
3.436333
 21
8.148247
 31
0.0
  0
LINE
  5
B9
330
18
100
AcDbEntity
  8
0
100
AcDbLine
 10
3.730832
 20
8.076955
 30
0.0
 11
5.870721
 21
8.389472
 31
0.0
  0
LINE
  5
BA
330
18
100
AcDbEntity
  8
0
100
AcDbLine
 10
3.291499
 20
8.356758000000001
 30
0.0
 11
3.436856
 21
8.323853999999999
 31
0.0
  0
LINE
  5
BB
330
18
100
AcDbEntity
  8
0
100
AcDbLine
 10
3.734883
 20
8.25639
 30
0.0
 11
5.870721
 21
8.544979
 31
0.0
  0
LINE
  5
BC
330
18
100
AcDbEntity
  8
0
100
AcDbLine
 10
3.734883
 20
8.25639
 30
0.0
 11
3.730832
 21
8.076955
 31
0.0
  0
LINE
  5
BD
330
18
100
AcDbEntity
  8
0
100
AcDbLine
 10
2.373436
 20
7.964361
 30
0.0
 11
2.568825
 21
7.890726
 31
0.0
  0
LINE
  5
BE
330
18
100
AcDbEntity
  8
0
100
AcDbLine
 10
2.568825
 20
7.890726
 30
0.0
 11
2.876422
 21
7.939350999999999
 31
0.0
  0
LINE
  5
BF
330
18
100
AcDbEntity
  8
0
100
AcDbLine
 10
2.568825
 20
7.890726
 30
0.0
 11
2.568825
 21
7.564756
 31
0.0
  0
LINE
  5
C0
330
18
100
AcDbEntity
  8
0
100
AcDbLine
 10
2.568825
 20
6.953692
 30
0.0
 11
2.373436
 21
7.035296000000001
 31
0.0
  0
LINE
  5
C1
330
18
100
AcDbEntity
  8
0
100
AcDbLine
 10
2.568825
 20
6.953692
 30
0.0
 11
2.877126
 21
7.014597999999999
 31
0.0
  0
LINE
  5
C2
330
18
100
AcDbEntity
  8
0
100
AcDbLine
 10
4.928644
 20
7.419877000000001
 30
0.0
 11
4.928644
 21
7.751946
 31
0.0
  0
LINE
  5
C3
330
18
100
AcDbEntity
  8
0
100
AcDbLine
 10
2.194222
 20
7.000282
 30
0.0
 11
2.402727
 21
6.920069
 31
0.0
  0
LINE
  5
C4
330
18
100
AcDbEntity
  8
0
100
AcDbLine
 10
2.791705
 20
6.770428
 30
0.0
 11
3.261184
 21
6.866239
 31
0.0
  0
LINE
  5
C5
330
18
100
AcDbEntity
  8
0
100
AcDbLine
 10
2.791705
 20
6.770428
 30
0.0
 11
2.791705
 21
6.553106
 31
0.0
  0
LINE
  5
C6
330
18
100
AcDbEntity
  8
0
100
AcDbLine
 10
2.791705
 20
6.553106
 30
0.0
 11
3.261184
 21
6.658293
 31
0.0
  0
LINE
  5
C7
330
18
100
AcDbEntity
  8
0
100
AcDbLine
 10
2.253124
 20
6.388716000000001
 30
0.0
 11
5.727857
 21
7.185865
 31
0.0
  0
LINE
  5
C8
330
18
100
AcDbEntity
  8
0
100
AcDbLine
 10
2.194222
 20
6.786956
 30
0.0
 11
2.409066
 21
6.702868
 31
0.0
  0
LINE
  5
C9
330
18
100
AcDbEntity
  8
0
100
AcDbLine
 10
4.684067
 20
9.751322999999999
 30
0.0
 11
4.684067
 21
8.384641
 31
0.0
  0
LINE
  5
CA
330
18
100
AcDbEntity
  8
0
100
AcDbLine
 10
4.4959
 20
9.723283
 30
0.0
 11
4.4959
 21
8.359216999999999
 31
0.0
  0
LINE
  5
CB
330
18
100
AcDbEntity
  8
0
100
AcDbLine
 10
4.088583
 20
9.785798
 30
0.0
 11
4.088583
 21
9.468814
 31
0.0
  0
LINE
  5
CC
330
18
100
AcDbEntity
  8
0
100
AcDbLine
 10
4.088583
 20
8.453921000000001
 30
0.0
 11
4.4959
 21
8.359216999999999
 31
0.0
  0
LINE
  5
CD
330
18
100
AcDbEntity
  8
0
100
AcDbLine
 10
4.684067
 20
8.526508999999999
 30
0.0
 11
5.405355999999999
 21
8.614432000000001
 31
0.0
  0
LINE
  5
CE
330
18
100
AcDbEntity
  8
0
100
AcDbLine
 10
4.088583
 20
9.785798
 30
0.0
 11
4.226637
 21
9.764610000000001
 31
0.0
  0
LINE
  5
CF
330
18
100
AcDbEntity
  8
0
100
AcDbLine
 10
4.495902
 20
9.723283
 30
0.0
 11
4.684067
 21
9.751322999999999
 31
0.0
  0
LINE
  5
D0
330
18
100
AcDbEntity
  8
0
100
AcDbLine
 10
4.684067
 20
9.751322999999999
 30
0.0
 11
4.567573
 21
9.764222999999999
 31
0.0
  0
LINE
  5
D1
330
18
100
AcDbEntity
  8
0
100
AcDbLine
 10
4.242924
 20
9.799614
 30
0.0
 11
4.088583
 21
9.785798
 31
0.0
  0
LINE
  5
D2
330
18
100
AcDbEntity
  8
0
100
AcDbLine
 10
1.785837
 20
6.607237
 30
0.0
 11
2.340654
 21
6.729644
 31
0.0
  0
LINE
  5
D3
330
18
100
AcDbEntity
  8
0
100
AcDbLine
 10
1.839826
 20
6.587141
 30
0.0
 11
2.205014
 21
6.411814
 31
0.0
  0
LINE
  5
D4
330
18
100
AcDbEntity
  8
0
100
AcDbLine
 10
2.303921
 20
6.364329
 30
0.0
 11
2.343227
 21
6.345458
 31
0.0
  0
LINE
  5
D5
330
18
100
AcDbEntity
  8
0
100
AcDbLine
 10
2.402727
 20
6.920069
 30
0.0
 11
2.545548
 21
6.922772999999999
 31
0.0
  0
LINE
  5
D6
330
18
100
AcDbEntity
  8
0
100
AcDbLine
 10
2.545548
 20
6.922772999999999
 30
0.0
 11
2.438433
 21
6.825007
 31
0.0
  0
LINE
  5
D7
330
18
100
AcDbEntity
  8
0
100
AcDbLine
 10
2.438433
 20
6.825007
 30
0.0
 11
2.598794
 21
6.844641999999999
 31
0.0
  0
LINE
  5
D8
330
18
100
AcDbEntity
  8
0
100
AcDbLine
 10
2.438433
 20
6.607686
 30
0.0
 11
2.601305
 21
6.627627
 31
0.0
  0
LINE
  5
D9
330
18
100
AcDbEntity
  8
0
100
AcDbLine
 10
2.409066
 20
6.702868
 30
0.0
 11
2.438433
 21
6.703424000000001
 31
0.0
  0
LINE
  5
DA
330
18
100
AcDbEntity
  8
0
100
AcDbLine
 10
2.598794
 20
6.844641999999999
 30
0.0
 11
2.601305
 21
6.627627
 31
0.0
  0
LINE
  5
DB
330
18
100
AcDbEntity
  8
0
100
AcDbLine
 10
2.402727
 20
6.920069
 30
0.0
 11
2.409066
 21
6.702868
 31
0.0
  0
LINE
  5
DC
330
18
100
AcDbEntity
  8
0
100
AcDbLine
 10
2.438433
 20
6.825007
 30
0.0
 11
2.438433
 21
6.607686
 31
0.0
  0
LINE
  5
DD
330
18
100
AcDbEntity
  8
0
100
AcDbLine
 10
2.598794
 20
6.844641999999999
 30
0.0
 11
2.791705
 21
6.770428
 31
0.0
  0
LINE
  5
DE
330
18
100
AcDbEntity
  8
0
100
AcDbLine
 10
2.601305
 20
6.627627
 30
0.0
 11
2.791705
 21
6.553106
 31
0.0
  0
LINE
  5
DF
330
18
100
AcDbEntity
  8
0
100
AcDbLine
 10
2.568825
 20
7.564756
 30
0.0
 11
2.44962
 21
7.491905
 31
0.0
  0
LINE
  5
E0
330
18
100
AcDbEntity
  8
0
100
AcDbLine
 10
2.44962
 20
7.491905
 30
0.0
 11
2.632753
 21
7.422254
 31
0.0
  0
LINE
  5
E1
330
18
100
AcDbEntity
  8
0
100
AcDbLine
 10
2.632753
 20
7.422254
 30
0.0
 11
2.568825
 21
7.349435000000001
 31
0.0
  0
LINE
  5
E2
330
18
100
AcDbEntity
  8
0
100
AcDbLine
 10
2.373436
 20
7.638389999999999
 30
0.0
 11
2.254231
 21
7.565539
 31
0.0
  0
LINE
  5
E3
330
18
100
AcDbEntity
  8
0
100
AcDbLine
 10
2.437783
 20
7.496366
 30
0.0
 11
2.373436
 21
7.42307
 31
0.0
  0
LINE
  5
E4
330
18
100
AcDbEntity
  8
0
100
AcDbLine
 10
2.373436
 20
7.638389999999999
 30
0.0
 11
2.568825
 21
7.564756
 31
0.0
  0
LINE
  5
E5
330
18
100
AcDbEntity
  8
0
100
AcDbLine
 10
2.373436
 20
7.42307
 30
0.0
 11
2.568825
 21
7.349435000000001
 31
0.0
  0
LINE
  5
E6
330
18
100
AcDbEntity
  8
0
100
AcDbLine
 10
2.254231
 20
7.565539
 30
0.0
 11
2.44962
 21
7.491905
 31
0.0
  0
LINE
  5
E7
330
18
100
AcDbEntity
  8
0
100
AcDbLine
 10
2.373436
 20
7.638389999999999
 30
0.0
 11
2.373436
 21
7.964361
 31
0.0
  0
LINE
  5
E8
330
18
100
AcDbEntity
  8
0
100
AcDbLine
 10
2.568825
 20
7.349435000000001
 30
0.0
 11
2.568825
 21
6.953692
 31
0.0
  0
LINE
  5
E9
330
18
100
AcDbEntity
  8
0
100
AcDbLine
 10
3.436856
 20
8.323853999999999
 30
0.0
 11
3.557757
 21
8.330032000000001
 31
0.0
  0
LINE
  5
EA
330
18
100
AcDbEntity
  8
0
100
AcDbLine
 10
3.557757
 20
8.330032000000001
 30
0.0
 11
3.47367
 21
8.264180999999999
 31
0.0
  0
LINE
  5
EB
330
18
100
AcDbEntity
  8
0
100
AcDbLine
 10
3.47367
 20
8.264180999999999
 30
0.0
 11
3.599183
 21
8.287108
 31
0.0
  0
LINE
  5
EC
330
18
100
AcDbEntity
  8
0
100
AcDbLine
 10
3.473148
 20
8.088575000000001
 30
0.0
 11
3.592656
 21
8.110403999999999
 31
0.0
  0
LINE
  5
ED
330
18
100
AcDbEntity
  8
0
100
AcDbLine
 10
3.436333
 20
8.148247
 30
0.0
 11
3.473331
 21
8.150138
 31
0.0
  0
LINE
  5
EE
330
18
100
AcDbEntity
  8
0
100
AcDbLine
 10
3.436856
 20
8.323853999999999
 30
0.0
 11
3.436333
 21
8.148247
 31
0.0
  0
LINE
  5
EF
330
18
100
AcDbEntity
  8
0
100
AcDbLine
 10
3.599183
 20
8.287108
 30
0.0
 11
3.592656
 21
8.110403999999999
 31
0.0
  0
LINE
  5
F0
330
18
100
AcDbEntity
  8
0
100
AcDbLine
 10
3.47367
 20
8.264180999999999
 30
0.0
 11
3.473148
 21
8.088575000000001
 31
0.0
  0
LINE
  5
F1
330
18
100
AcDbEntity
  8
0
100
AcDbLine
 10
3.599183
 20
8.287108
 30
0.0
 11
3.734883
 21
8.25639
 31
0.0
  0
LINE
  5
F2
330
18
100
AcDbEntity
  8
0
100
AcDbLine
 10
3.592656
 20
8.110403999999999
 30
0.0
 11
3.730832
 21
8.076955
 31
0.0
  0
LINE
  5
F3
330
18
100
AcDbEntity
  8
0
100
AcDbLine
 10
4.226637
 20
9.764610000000001
 30
0.0
 11
4.278764
 21
9.876645
 31
0.0
  0
LINE
  5
F4
330
18
100
AcDbEntity
  8
0
100
AcDbLine
 10
4.278764
 20
9.876645
 30
0.0
 11
4.335756
 21
9.673328
 31
0.0
  0
LINE
  5
F5
330
18
100
AcDbEntity
  8
0
100
AcDbLine
 10
4.335756
 20
9.673328
 30
0.0
 11
4.37702
 21
9.741529
 31
0.0
  0
LINE
  5
F6
330
18
100
AcDbEntity
  8
0
100
AcDbLine
 10
4.465672000000001
 20
9.893314999999999
 30
0.0
 11
4.503981
 21
9.756649000000001
 31
0.0
  0
LINE
  5
F7
330
18
100
AcDbEntity
  8
0
100
AcDbLine
 10
4.37702
 20
9.741529
 30
0.0
 11
4.567573
 21
9.764222999999999
 31
0.0
  0
LINE
  5
F8
330
18
100
AcDbEntity
  8
0
100
AcDbLine
 10
4.278764
 20
9.876645
 30
0.0
 11
4.465672000000001
 21
9.893314999999999
 31
0.0
  0
LINE
  5
F9
330
18
100
AcDbEntity
  8
0
100
AcDbLine
 10
4.37702
 20
9.741529
 30
0.0
 11
4.495902
 21
9.723283
 31
0.0
  0
LINE
  5
FA
330
18
100
AcDbEntity
  8
0
100
AcDbLine
 10
5.492119000000001
 20
8.601483
 30
0.0
 11
5.658566
 21
8.612616000000001
 31
0.0
  0
LINE
  5
FB
330
18
100
AcDbEntity
  8
0
100
AcDbLine
 10
5.658566
 20
8.612616000000001
 30
0.0
 11
5.532449
 21
8.572654
 31
0.0
  0
LINE
  5
FC
330
18
100
AcDbEntity
  8
0
100
AcDbLine
 10
5.532449
 20
8.572654
 30
0.0
 11
5.669164
 21
8.575060000000001
 31
0.0
  0
LINE
  5
FD
330
18
100
AcDbEntity
  8
0
100
AcDbLine
 10
5.669164
 20
8.575060000000001
 30
0.0
 11
5.870721
 21
8.544979
 31
0.0
  0
LINE
  5
FE
330
18
100
AcDbEntity
  8
0
100
AcDbLine
 10
5.658566
 20
8.612616000000001
 30
0.0
 11
5.658566
 21
8.574874000000001
 31
0.0
  0
LINE
  5
FF
330
18
100
AcDbEntity
  8
0
100
AcDbLine
 10
2.848575
 20
7.008957000000001
 30
0.0
 11
3.261184
 21
6.866239
 31
0.0
  0
LINE
  5
100
330
18
100
AcDbEntity
  8
0
100
AcDbLine
 10
3.261184
 20
6.866239
 30
0.0
 11
3.261184
 21
6.658293
 31
0.0
  0
LINE
  5
101
330
18
100
AcDbEntity
  8
0
100
AcDbLine
 10
3.148334
 20
7.045613
 30
0.0
 11
3.51636
 21
6.918316
 31
0.0
  0
LINE
  5
102
330
18
100
AcDbEntity
  8
0
100
AcDbLine
 10
3.51636
 20
6.918316
 30
0.0
 11
3.51636
 21
6.715464999999999
 31
0.0
  0
LINE
  5
103
330
18
100
AcDbEntity
  8
0
100
AcDbLine
 10
3.148334
 20
7.970838000000001
 30
0.0
 11
3.148334
 21
6.905272999999999
 31
0.0
  0
LINE
  5
104
330
18
100
AcDbEntity
  8
0
100
AcDbLine
 10
2.664817
 20
8.004291
 30
0.0
 11
2.664817
 21
8.025202999999999
 31
0.0
  0
LINE
  5
105
330
18
100
AcDbEntity
  8
0
100
AcDbLine
 10
2.877126
 20
7.937612
 30
0.0
 11
2.877126
 21
6.999082000000001
 31
0.0
  0
LINE
  5
106
330
18
100
AcDbEntity
  8
0
100
AcDbLine
 10
2.664817
 20
8.004291
 30
0.0
 11
2.875356
 21
7.940003
 31
0.0
  0
LINE
  5
107
330
18
100
AcDbEntity
  8
0
100
AcDbLine
 10
2.664817
 20
8.025202999999999
 30
0.0
 11
2.880339
 21
7.959393
 31
0.0
  0
LINE
  5
108
330
18
100
AcDbEntity
  8
0
100
AcDbLine
 10
2.929392
 20
8.056198
 30
0.0
 11
3.130635
 21
7.994748
 31
0.0
  0
LINE
  5
109
330
18
100
AcDbEntity
  8
0
100
AcDbLine
 10
2.664817
 20
8.025202999999999
 30
0.0
 11
2.929392
 21
8.056198
 31
0.0
  0
LINE
  5
10A
330
18
100
AcDbEntity
  8
0
100
AcDbLine
 10
3.145741
 20
7.981925
 30
0.0
 11
3.373345
 21
8.017904
 31
0.0
  0
LINE
  5
10B
330
18
100
AcDbEntity
  8
0
100
AcDbLine
 10
2.929152
 20
7.954695
 30
0.0
 11
3.116538
 21
7.984317
 31
0.0
  0
LINE
  5
10C
330
18
100
AcDbEntity
  8
0
100
AcDbLine
 10
2.964767
 20
8.045396
 30
0.0
 11
3.170369
 21
8.073571000000001
 31
0.0
  0
LINE
  5
10D
330
18
100
AcDbEntity
  8
0
100
AcDbLine
 10
3.148334
 20
7.068175
 30
0.0
 11
3.934829
 21
7.223547999999999
 31
0.0
  0
LINE
  5
10E
330
18
100
AcDbEntity
  8
0
100
AcDbLine
 10
3.261184
 20
6.803729
 30
0.0
 11
3.51636
 21
6.715464999999999
 31
0.0
  0
LINE
  5
10F
330
18
100
AcDbEntity
  8
0
100
AcDbLine
 10
3.51636
 20
6.918316
 30
0.0
 11
5.358003
 21
7.294160000000001
 31
0.0
  0
LINE
  5
110
330
18
100
AcDbEntity
  8
0
100
AcDbLine
 10
3.51636
 20
6.715464999999999
 30
0.0
 11
5.679323
 21
7.200075999999999
 31
0.0
  0
LINE
  5
111
330
18
100
AcDbEntity
  8
0
100
AcDbLine
 10
7.455528999999999
 20
7.351866
 30
0.0
 11
7.519742
 21
7.279146000000001
 31
0.0
  0
LINE
  5
112
330
18
100
AcDbEntity
  8
0
100
AcDbLine
 10
7.519742
 20
7.279146000000001
 30
0.0
 11
7.336564
 21
7.177339
 31
0.0
  0
LINE
  5
113
330
18
100
AcDbEntity
  8
0
100
AcDbLine
 10
7.336564
 20
7.177339
 30
0.0
 11
7.455528999999999
 21
7.10665
 31
0.0
  0
LINE
  5
114
330
18
100
AcDbEntity
  8
0
100
AcDbLine
 10
7.455528999999999
 20
7.351866
 30
0.0
 11
7.455528999999999
 21
7.643949
 31
0.0
  0
LINE
  5
115
330
18
100
AcDbEntity
  8
0
100
AcDbLine
 10
7.653247
 20
7.392685
 30
0.0
 11
7.718172999999999
 21
7.319157000000001
 31
0.0
  0
LINE
  5
116
330
18
100
AcDbEntity
  8
0
100
AcDbLine
 10
7.718172999999999
 20
7.319157000000001
 30
0.0
 11
7.534994999999999
 21
7.21735
 31
0.0
  0
LINE
  5
117
330
18
100
AcDbEntity
  8
0
100
AcDbLine
 10
7.534994999999999
 20
7.21735
 30
0.0
 11
7.652646000000001
 21
7.147441000000001
 31
0.0
  0
LINE
  5
118
330
18
100
AcDbEntity
  8
0
100
AcDbLine
 10
7.653247
 20
7.392685
 30
0.0
 11
7.652958
 21
7.677978
 31
0.0
  0
LINE
  5
119
330
18
100
AcDbEntity
  8
0
100
AcDbLine
 10
7.455528999999999
 20
7.351866
 30
0.0
 11
7.653247
 21
7.392685
 31
0.0
  0
LINE
  5
11A
330
18
100
AcDbEntity
  8
0
100
AcDbLine
 10
7.455528999999999
 20
7.10665
 30
0.0
 11
7.652646000000001
 21
7.147441000000001
 31
0.0
  0
LINE
  5
11B
330
18
100
AcDbEntity
  8
0
100
AcDbLine
 10
7.519742
 20
7.279146000000001
 30
0.0
 11
7.718172999999999
 21
7.319157000000001
 31
0.0
  0
LINE
  5
11C
330
18
100
AcDbEntity
  8
0
100
AcDbLine
 10
7.336564
 20
7.177339
 30
0.0
 11
7.534994999999999
 21
7.21735
 31
0.0
  0
LINE
  5
11D
330
18
100
AcDbEntity
  8
0
100
AcDbLine
 10
4.078478
 20
9.457746
 30
0.0
 11
4.078478
 21
8.738994999999999
 31
0.0
  0
LINE
  5
11E
330
18
100
AcDbEntity
  8
0
100
AcDbLine
 10
4.071275
 20
8.717725999999999
 30
0.0
 11
3.851218
 21
8.430117999999998
 31
0.0
  0
LINE
  5
11F
330
18
100
AcDbEntity
  8
0
100
AcDbLine
 10
4.078478
 20
9.457746
 30
0.0
 11
4.119533000000001
 21
9.502716
 31
0.0
  0
LINE
  5
120
330
18
100
AcDbEntity
  8
0
100
AcDbLine
 10
4.078286
 20
8.688264
 30
0.0
 11
4.078286
 21
8.493872999999999
 31
0.0
  0
LINE
  5
121
330
18
100
AcDbEntity
  8
0
100
AcDbLine
 10
4.336072
 20
9.881755999999999
 30
0.0
 11
4.342798
 21
9.807907
 31
0.0
  0
LINE
  5
122
330
18
100
AcDbEntity
  8
0
100
AcDbLine
 10
4.342798
 20
9.807907
 30
0.0
 11
4.345785
 21
9.751089
 31
0.0
  0
LINE
  5
123
330
18
100
AcDbEntity
  8
0
100
AcDbLine
 10
4.345785
 20
9.751089
 30
0.0
 11
4.365794999999999
 21
9.722975999999999
 31
0.0
  0
LINE
  5
124
330
18
100
AcDbEntity
  8
0
100
AcDbLine
 10
4.371731
 20
9.884936
 30
0.0
 11
4.38583
 21
9.792985
 31
0.0
  0
LINE
  5
125
330
18
100
AcDbEntity
  8
0
100
AcDbLine
 10
4.38583
 20
9.792985
 30
0.0
 11
4.402729
 21
9.744591
 31
0.0
  0
LINE
  5
126
330
18
100
AcDbEntity
  8
0
100
AcDbLine
 10
4.409641000000001
 20
9.888317000000001
 30
0.0
 11
4.42787
 21
9.813948
 31
0.0
  0
LINE
  5
127
330
18
100
AcDbEntity
  8
0
100
AcDbLine
 10
4.42787
 20
9.813948
 30
0.0
 11
4.438493
 21
9.748849999999999
 31
0.0
  0
LINE
  5
128
330
18
100
AcDbEntity
  8
0
100
AcDbLine
 10
4.440866000000001
 20
9.891102
 30
0.0
 11
4.460895
 21
9.805
 31
0.0
  0
LINE
  5
129
330
18
100
AcDbEntity
  8
0
100
AcDbLine
 10
4.460895
 20
9.805
 30
0.0
 11
4.477969
 21
9.753551
 31
0.0
  0
LINE
  5
12A
330
18
100
AcDbEntity
  8
0
100
AcDbLine
 10
4.521745
 20
9.758764999999999
 30
0.0
 11
4.626107
 21
9.742686000000001
 31
0.0
  0
LINE
  5
12B
330
18
100
AcDbEntity
  8
0
100
AcDbLine
 10
4.456305
 20
9.750971
 30
0.0
 11
4.565358
 21
9.733632999999999
 31
0.0
  0
LINE
  5
12C
330
18
100
AcDbEntity
  8
0
100
AcDbLine
 10
4.41932
 20
9.746567000000001
 30
0.0
 11
4.520964
 21
9.727017
 31
0.0
  0
LINE
  5
12D
330
18
100
AcDbEntity
  8
0
100
AcDbLine
 10
3.291499
 20
8.327850999999999
 30
0.0
 11
3.375603
 21
8.315947999999999
 31
0.0
  0
LINE
  5
12E
330
18
100
AcDbEntity
  8
0
100
AcDbLine
 10
3.375603
 20
8.315947999999999
 30
0.0
 11
3.436776
 21
8.297058
 31
0.0
  0
LINE
  5
12F
330
18
100
AcDbEntity
  8
0
100
AcDbLine
 10
3.291499
 20
8.214211000000001
 30
0.0
 11
3.43645
 21
8.187405999999999
 31
0.0
  0
LINE
  5
130
330
18
100
AcDbEntity
  8
0
100
AcDbLine
 10
3.291499
 20
8.249102000000001
 30
0.0
 11
3.436539
 21
8.217303999999999
 31
0.0
  0
LINE
  5
131
330
18
100
AcDbEntity
  8
0
100
AcDbLine
 10
3.291499
 20
8.286980999999999
 30
0.0
 11
3.355579
 21
8.287025999999999
 31
0.0
  0
LINE
  5
132
330
18
100
AcDbEntity
  8
0
100
AcDbLine
 10
3.355579
 20
8.287025999999999
 30
0.0
 11
3.396607
 21
8.264127
 31
0.0
  0
LINE
  5
133
330
18
100
AcDbEntity
  8
0
100
AcDbLine
 10
3.396607
 20
8.264127
 30
0.0
 11
3.436669
 21
8.261172
 31
0.0
  0
LINE
  5
134
330
18
100
AcDbEntity
  8
0
100
AcDbLine
 10
3.436749
 20
8.288083
 30
0.0
 11
3.484688
 21
8.297085000000001
 31
0.0
  0
LINE
  5
135
330
18
100
AcDbEntity
  8
0
100
AcDbLine
 10
3.484688
 20
8.297085000000001
 30
0.0
 11
3.514956
 21
8.296513000000001
 31
0.0
  0
LINE
  5
136
330
18
100
AcDbEntity
  8
0
100
AcDbLine
 10
3.436634
 20
8.249205999999999
 30
0.0
 11
3.473611
 21
8.244244
 31
0.0
  0
LINE
  5
137
330
18
100
AcDbEntity
  8
0
100
AcDbLine
 10
3.436488
 20
8.20035
 30
0.0
 11
3.473501
 21
8.207353999999999
 31
0.0
  0
LINE
  5
138
330
18
100
AcDbEntity
  8
0
100
AcDbLine
 10
3.436376
 20
8.162485
 30
0.0
 11
3.46564
 21
8.17745
 31
0.0
  0
LINE
  5
139
330
18
100
AcDbEntity
  8
0
100
AcDbLine
 10
3.46564
 20
8.17745
 30
0.0
 11
3.473409
 21
8.176459
 31
0.0
  0
LINE
  5
13A
330
18
100
AcDbEntity
  8
0
100
AcDbLine
 10
3.473555
 20
8.225311999999999
 30
0.0
 11
3.522703
 21
8.237300999999999
 31
0.0
  0
LINE
  5
13B
330
18
100
AcDbEntity
  8
0
100
AcDbLine
 10
3.522703
 20
8.237300999999999
 30
0.0
 11
3.557734
 21
8.244303
 31
0.0
  0
LINE
  5
13C
330
18
100
AcDbEntity
  8
0
100
AcDbLine
 10
3.557734
 20
8.244303
 30
0.0
 11
3.597525
 21
8.242233000000001
 31
0.0
  0
LINE
  5
13D
330
18
100
AcDbEntity
  8
0
100
AcDbLine
 10
3.597525
 20
8.242233000000001
 30
0.0
 11
3.629794
 21
8.245350999999999
 31
0.0
  0
LINE
  5
13E
330
18
100
AcDbEntity
  8
0
100
AcDbLine
 10
3.629794
 20
8.245350999999999
 30
0.0
 11
3.682834
 21
8.231432
 31
0.0
  0
LINE
  5
13F
330
18
100
AcDbEntity
  8
0
100
AcDbLine
 10
3.682834
 20
8.231432
 30
0.0
 11
3.734096
 21
8.221494
 31
0.0
  0
LINE
  5
140
330
18
100
AcDbEntity
  8
0
100
AcDbLine
 10
3.733332
 20
8.187664999999999
 30
0.0
 11
3.686828
 21
8.198539
 31
0.0
  0
LINE
  5
141
330
18
100
AcDbEntity
  8
0
100
AcDbLine
 10
3.686828
 20
8.198539
 30
0.0
 11
3.631783
 21
8.197502999999999
 31
0.0
  0
LINE
  5
142
330
18
100
AcDbEntity
  8
0
100
AcDbLine
 10
3.631783
 20
8.197502999999999
 30
0.0
 11
3.59624
 21
8.207428999999999
 31
0.0
  0
LINE
  5
143
330
18
100
AcDbEntity
  8
0
100
AcDbLine
 10
3.59624
 20
8.207428999999999
 30
0.0
 11
3.570732
 21
8.197461000000001
 31
0.0
  0
LINE
  5
144
330
18
100
AcDbEntity
  8
0
100
AcDbLine
 10
3.570732
 20
8.197461000000001
 30
0.0
 11
3.512683
 21
8.192436000000001
 31
0.0
  0
LINE
  5
145
330
18
100
AcDbEntity
  8
0
100
AcDbLine
 10
3.512683
 20
8.192436000000001
 30
0.0
 11
3.473427
 21
8.182447999999999
 31
0.0
  0
LINE
  5
146
330
18
100
AcDbEntity
  8
0
100
AcDbLine
 10
3.473306
 20
8.141577
 30
0.0
 11
3.524683
 21
8.153567000000001
 31
0.0
  0
LINE
  5
147
330
18
100
AcDbEntity
  8
0
100
AcDbLine
 10
3.524683
 20
8.153567000000001
 30
0.0
 11
3.577726
 21
8.153604
 31
0.0
  0
LINE
  5
148
330
18
100
AcDbEntity
  8
0
100
AcDbLine
 10
3.577726
 20
8.153604
 30
0.0
 11
3.594513
 21
8.160678000000001
 31
0.0
  0
LINE
  5
149
330
18
100
AcDbEntity
  8
0
100
AcDbLine
 10
3.594513
 20
8.160678000000001
 30
0.0
 11
3.640779
 21
8.155642
 31
0.0
  0
LINE
  5
14A
330
18
100
AcDbEntity
  8
0
100
AcDbLine
 10
3.640779
 20
8.155642
 30
0.0
 11
3.690816
 21
8.140725
 31
0.0
  0
LINE
  5
14B
330
18
100
AcDbEntity
  8
0
100
AcDbLine
 10
3.690816
 20
8.140725
 30
0.0
 11
3.73216
 21
8.135785
 31
0.0
  0
LINE
  5
14C
330
18
100
AcDbEntity
  8
0
100
AcDbLine
 10
3.73146
 20
8.104782
 30
0.0
 11
3.685805
 21
8.112809
 31
0.0
  0
LINE
  5
14D
330
18
100
AcDbEntity
  8
0
100
AcDbLine
 10
3.685805
 20
8.112809
 30
0.0
 11
3.632763
 21
8.121744
 31
0.0
  0
LINE
  5
14E
330
18
100
AcDbEntity
  8
0
100
AcDbLine
 10
3.632763
 20
8.121744
 30
0.0
 11
3.593587
 21
8.135602
 31
0.0
  0
LINE
  5
14F
330
18
100
AcDbEntity
  8
0
100
AcDbLine
 10
3.593587
 20
8.135602
 30
0.0
 11
3.540686
 21
8.115698
 31
0.0
  0
LINE
  5
150
330
18
100
AcDbEntity
  8
0
100
AcDbLine
 10
3.540686
 20
8.115698
 30
0.0
 11
3.473214
 21
8.110672000000001
 31
0.0
  0
LINE
  5
151
330
18
100
AcDbEntity
  8
0
100
AcDbLine
 10
2.373436
 20
7.931463000000001
 30
0.0
 11
2.388668
 21
7.859698
 31
0.0
  0
LINE
  5
152
330
18
100
AcDbEntity
  8
0
100
AcDbLine
 10
2.388668
 20
7.859698
 30
0.0
 11
2.382643
 21
7.78493
 31
0.0
  0
LINE
  5
153
330
18
100
AcDbEntity
  8
0
100
AcDbLine
 10
2.382643
 20
7.78493
 30
0.0
 11
2.373436
 21
7.737069
 31
0.0
  0
LINE
  5
154
330
18
100
AcDbEntity
  8
0
100
AcDbLine
 10
2.41867
 20
7.947314
 30
0.0
 11
2.433705
 21
7.858732000000001
 31
0.0
  0
LINE
  5
155
330
18
100
AcDbEntity
  8
0
100
AcDbLine
 10
2.433705
 20
7.858732000000001
 30
0.0
 11
2.423672
 21
7.766019
 31
0.0
  0
LINE
  5
156
330
18
100
AcDbEntity
  8
0
100
AcDbLine
 10
2.423672
 20
7.766019
 30
0.0
 11
2.407642
 21
7.704203
 31
0.0
  0
LINE
  5
157
330
18
100
AcDbEntity
  8
0
100
AcDbLine
 10
2.407642
 20
7.704203
 30
0.0
 11
2.404626
 21
7.651368
 31
0.0
  0
LINE
  5
158
330
18
100
AcDbEntity
  8
0
100
AcDbLine
 10
2.404626
 20
7.651368
 30
0.0
 11
2.415196
 21
7.622652
 31
0.0
  0
LINE
  5
159
330
18
100
AcDbEntity
  8
0
100
AcDbLine
 10
2.415196
 20
7.622652
 30
0.0
 11
2.382592
 21
7.593536
 31
0.0
  0
LINE
  5
15A
330
18
100
AcDbEntity
  8
0
100
AcDbLine
 10
2.382592
 20
7.593536
 30
0.0
 11
2.337551
 21
7.577555
 31
0.0
  0
LINE
  5
15B
330
18
100
AcDbEntity
  8
0
100
AcDbLine
 10
2.337551
 20
7.577555
 30
0.0
 11
2.304282
 21
7.546677000000001
 31
0.0
  0
LINE
  5
15C
330
18
100
AcDbEntity
  8
0
100
AcDbLine
 10
2.478031
 20
7.924942999999999
 30
0.0
 11
2.485745
 21
7.846807000000001
 31
0.0
  0
LINE
  5
15D
330
18
100
AcDbEntity
  8
0
100
AcDbLine
 10
2.485745
 20
7.846807000000001
 30
0.0
 11
2.467706
 21
7.758075
 31
0.0
  0
LINE
  5
15E
330
18
100
AcDbEntity
  8
0
100
AcDbLine
 10
2.467706
 20
7.758075
 30
0.0
 11
2.452673
 21
7.678317
 31
0.0
  0
LINE
  5
15F
330
18
100
AcDbEntity
  8
0
100
AcDbLine
 10
2.452673
 20
7.678317
 30
0.0
 11
2.46267
 21
7.636456
 31
0.0
  0
LINE
  5
160
330
18
100
AcDbEntity
  8
0
100
AcDbLine
 10
2.46267
 20
7.636456
 30
0.0
 11
2.460429
 21
7.605606
 31
0.0
  0
LINE
  5
161
330
18
100
AcDbEntity
  8
0
100
AcDbLine
 10
2.460429
 20
7.605606
 30
0.0
 11
2.439635
 21
7.578622999999999
 31
0.0
  0
LINE
  5
162
330
18
100
AcDbEntity
  8
0
100
AcDbLine
 10
2.439635
 20
7.578622999999999
 30
0.0
 11
2.4006
 21
7.566634
 31
0.0
  0
LINE
  5
163
330
18
100
AcDbEntity
  8
0
100
AcDbLine
 10
2.4006
 20
7.566634
 30
0.0
 11
2.354334
 21
7.527814
 31
0.0
  0
LINE
  5
164
330
18
100
AcDbEntity
  8
0
100
AcDbLine
 10
2.536188
 20
7.903026
 30
0.0
 11
2.532775
 21
7.814941
 31
0.0
  0
LINE
  5
165
330
18
100
AcDbEntity
  8
0
100
AcDbLine
 10
2.532775
 20
7.814941
 30
0.0
 11
2.538751
 21
7.705292
 31
0.0
  0
LINE
  5
166
330
18
100
AcDbEntity
  8
0
100
AcDbLine
 10
2.538751
 20
7.705292
 30
0.0
 11
2.568825
 21
7.643506
 31
0.0
  0
LINE
  5
167
330
18
100
AcDbEntity
  8
0
100
AcDbLine
 10
2.5222
 20
7.582327
 30
0.0
 11
2.412929
 21
7.505732000000001
 31
0.0
  0
LINE
  5
168
330
18
100
AcDbEntity
  8
0
100
AcDbLine
 10
2.5222
 20
7.582327
 30
0.0
 11
2.5037
 21
7.623525999999999
 31
0.0
  0
LINE
  5
169
330
18
100
AcDbEntity
  8
0
100
AcDbLine
 10
2.5037
 20
7.623525999999999
 30
0.0
 11
2.502719
 21
7.699286
 31
0.0
  0
LINE
  5
16A
330
18
100
AcDbEntity
  8
0
100
AcDbLine
 10
2.502719
 20
7.699286
 30
0.0
 11
2.506741
 21
7.768071000000001
 31
0.0
  0
LINE
  5
16B
330
18
100
AcDbEntity
  8
0
100
AcDbLine
 10
2.506741
 20
7.768071000000001
 30
0.0
 11
2.507765
 21
7.854797000000001
 31
0.0
  0
LINE
  5
16C
330
18
100
AcDbEntity
  8
0
100
AcDbLine
 10
2.507765
 20
7.854797000000001
 30
0.0
 11
2.510669
 21
7.912642999999999
 31
0.0
  0
LINE
  5
16D
330
18
100
AcDbEntity
  8
0
100
AcDbLine
 10
2.392255
 20
7.415977000000001
 30
0.0
 11
2.462333
 21
7.487069
 31
0.0
  0
LINE
  5
16E
330
18
100
AcDbEntity
  8
0
100
AcDbLine
 10
2.438144
 20
7.398683
 30
0.0
 11
2.501932
 21
7.472009
 31
0.0
  0
LINE
  5
16F
330
18
100
AcDbEntity
  8
0
100
AcDbLine
 10
2.490387
 20
7.378995
 30
0.0
 11
2.544721
 21
7.455735000000001
 31
0.0
  0
LINE
  5
170
330
18
100
AcDbEntity
  8
0
100
AcDbLine
 10
2.510322
 20
7.371482
 30
0.0
 11
2.584625
 21
7.440558
 31
0.0
  0
LINE
  5
171
330
18
100
AcDbEntity
  8
0
100
AcDbLine
 10
2.392255
 20
7.415977000000001
 30
0.0
 11
2.407548
 21
7.352317
 31
0.0
  0
LINE
  5
172
330
18
100
AcDbEntity
  8
0
100
AcDbLine
 10
2.407548
 20
7.352317
 30
0.0
 11
2.416526
 21
7.238683
 31
0.0
  0
LINE
  5
173
330
18
100
AcDbEntity
  8
0
100
AcDbLine
 10
2.416526
 20
7.238683
 30
0.0
 11
2.40549
 21
7.137994
 31
0.0
  0
LINE
  5
174
330
18
100
AcDbEntity
  8
0
100
AcDbLine
 10
2.40549
 20
7.137994
 30
0.0
 11
2.397464
 21
7.068209
 31
0.0
  0
LINE
  5
175
330
18
100
AcDbEntity
  8
0
100
AcDbLine
 10
2.397464
 20
7.068209
 30
0.0
 11
2.394802
 21
7.026373
 31
0.0
  0
LINE
  5
176
330
18
100
AcDbEntity
  8
0
100
AcDbLine
 10
2.438144
 20
7.398683
 30
0.0
 11
2.456572
 21
7.287556
 31
0.0
  0
LINE
  5
177
330
18
100
AcDbEntity
  8
0
100
AcDbLine
 10
2.456572
 20
7.287556
 30
0.0
 11
2.447534
 21
7.173909
 31
0.0
  0
LINE
  5
178
330
18
100
AcDbEntity
  8
0
100
AcDbLine
 10
2.447534
 20
7.173909
 30
0.0
 11
2.443507
 21
7.085187
 31
0.0
  0
LINE
  5
179
330
18
100
AcDbEntity
  8
0
100
AcDbLine
 10
2.443507
 20
7.085187
 30
0.0
 11
2.436749
 21
7.008854
 31
0.0
  0
LINE
  5
17A
330
18
100
AcDbEntity
  8
0
100
AcDbLine
 10
2.510322
 20
7.371482
 30
0.0
 11
2.514606
 21
7.235761
 31
0.0
  0
LINE
  5
17B
330
18
100
AcDbEntity
  8
0
100
AcDbLine
 10
2.514606
 20
7.235761
 30
0.0
 11
2.508575
 21
7.139063
 31
0.0
  0
LINE
  5
17C
330
18
100
AcDbEntity
  8
0
100
AcDbLine
 10
2.508575
 20
7.139063
 30
0.0
 11
2.500543
 21
7.044357000000001
 31
0.0
  0
LINE
  5
17D
330
18
100
AcDbEntity
  8
0
100
AcDbLine
 10
2.500543
 20
7.044357000000001
 30
0.0
 11
2.496502
 21
6.983898
 31
0.0
  0
LINE
  5
17E
330
18
100
AcDbEntity
  8
0
100
AcDbLine
 10
2.194222
 20
6.925517
 30
0.0
 11
2.320351
 21
6.879751
 31
0.0
  0
LINE
  5
17F
330
18
100
AcDbEntity
  8
0
100
AcDbLine
 10
2.320351
 20
6.879751
 30
0.0
 11
2.40411
 21
6.87268
 31
0.0
  0
LINE
  5
180
330
18
100
AcDbEntity
  8
0
100
AcDbLine
 10
2.40411
 20
6.87268
 30
0.0
 11
2.489681
 21
6.871783
 31
0.0
  0
LINE
  5
181
330
18
100
AcDbEntity
  8
0
100
AcDbLine
 10
2.194222
 20
6.858728999999999
 30
0.0
 11
2.325338
 21
6.81795
 31
0.0
  0
LINE
  5
182
330
18
100
AcDbEntity
  8
0
100
AcDbLine
 10
2.325338
 20
6.81795
 30
0.0
 11
2.405996
 21
6.808055
 31
0.0
  0
LINE
  5
183
330
18
100
AcDbEntity
  8
0
100
AcDbLine
 10
2.405996
 20
6.808055
 30
0.0
 11
2.438433
 21
6.811050999999999
 31
0.0
  0
LINE
  5
184
330
18
100
AcDbEntity
  8
0
100
AcDbLine
 10
2.194222
 20
6.812875
 30
0.0
 11
2.408038
 21
6.738078999999999
 31
0.0
  0
LINE
  5
185
330
18
100
AcDbEntity
  8
0
100
AcDbLine
 10
2.408038
 20
6.738078999999999
 30
0.0
 11
2.438433
 21
6.743262
 31
0.0
  0
LINE
  5
186
330
18
100
AcDbEntity
  8
0
100
AcDbLine
 10
2.438433
 20
6.624639
 30
0.0
 11
2.533463
 21
6.643648
 31
0.0
  0
LINE
  5
187
330
18
100
AcDbEntity
  8
0
100
AcDbLine
 10
2.533463
 20
6.643648
 30
0.0
 11
2.600969
 21
6.656638
 31
0.0
  0
LINE
  5
188
330
18
100
AcDbEntity
  8
0
100
AcDbLine
 10
2.600969
 20
6.656638
 30
0.0
 11
2.697597
 21
6.639776
 31
0.0
  0
LINE
  5
189
330
18
100
AcDbEntity
  8
0
100
AcDbLine
 10
2.697597
 20
6.639776
 30
0.0
 11
2.791705
 21
6.590004
 31
0.0
  0
LINE
  5
18A
330
18
100
AcDbEntity
  8
0
100
AcDbLine
 10
2.438433
 20
6.776163
 30
0.0
 11
2.527499
 21
6.796161
 31
0.0
  0
LINE
  5
18B
330
18
100
AcDbEntity
  8
0
100
AcDbLine
 10
2.527499
 20
6.796161
 30
0.0
 11
2.599321
 21
6.799134
 31
0.0
  0
LINE
  5
18C
330
18
100
AcDbEntity
  8
0
100
AcDbLine
 10
2.599321
 20
6.799134
 30
0.0
 11
2.693629
 21
6.77036
 31
0.0
  0
LINE
  5
18D
330
18
100
AcDbEntity
  8
0
100
AcDbLine
 10
2.693629
 20
6.77036
 30
0.0
 11
2.791705
 21
6.725569999999999
 31
0.0
  0
LINE
  5
18E
330
18
100
AcDbEntity
  8
0
100
AcDbLine
 10
2.438433
 20
6.726319999999999
 30
0.0
 11
2.532488
 21
6.740341
 31
0.0
  0
LINE
  5
18F
330
18
100
AcDbEntity
  8
0
100
AcDbLine
 10
2.532488
 20
6.740341
 30
0.0
 11
2.599896
 21
6.749353
 31
0.0
  0
LINE
  5
190
330
18
100
AcDbEntity
  8
0
100
AcDbLine
 10
2.599896
 20
6.749353
 30
0.0
 11
2.688613
 21
6.726495
 31
0.0
  0
LINE
  5
191
330
18
100
AcDbEntity
  8
0
100
AcDbLine
 10
2.688613
 20
6.726495
 30
0.0
 11
2.791705
 21
6.695666
 31
0.0
  0
LINE
  5
192
330
18
100
AcDbEntity
  8
0
100
AcDbLine
 10
2.438433
 20
6.667505
 30
0.0
 11
2.60053
 21
6.694578
 31
0.0
  0
LINE
  5
193
330
18
100
AcDbEntity
  8
0
100
AcDbLine
 10
2.60053
 20
6.694578
 30
0.0
 11
2.791705
 21
6.639842
 31
0.0
  0
LINE
  5
194
330
18
100
AcDbEntity
  8
0
100
AcDbLine
 10
3.148334
 20
7.015903
 30
0.0
 11
3.229131
 21
6.998016000000001
 31
0.0
  0
LINE
  5
195
330
18
100
AcDbEntity
  8
0
100
AcDbLine
 10
3.229131
 20
6.998016000000001
 30
0.0
 11
3.34922
 21
6.962214
 31
0.0
  0
LINE
  5
196
330
18
100
AcDbEntity
  8
0
100
AcDbLine
 10
3.34922
 20
6.962214
 30
0.0
 11
3.451295
 21
6.926399000000001
 31
0.0
  0
LINE
  5
197
330
18
100
AcDbEntity
  8
0
100
AcDbLine
 10
3.451295
 20
6.926399000000001
 30
0.0
 11
3.51636
 21
6.876603
 31
0.0
  0
LINE
  5
198
330
18
100
AcDbEntity
  8
0
100
AcDbLine
 10
3.148334
 20
6.972041
 30
0.0
 11
3.250136
 21
6.951179
 31
0.0
  0
LINE
  5
199
330
18
100
AcDbEntity
  8
0
100
AcDbLine
 10
3.250136
 20
6.951179
 30
0.0
 11
3.365223
 21
6.921355
 31
0.0
  0
LINE
  5
19A
330
18
100
AcDbEntity
  8
0
100
AcDbLine
 10
3.365223
 20
6.921355
 30
0.0
 11
3.451282
 21
6.876557000000001
 31
0.0
  0
LINE
  5
19B
330
18
100
AcDbEntity
  8
0
100
AcDbLine
 10
3.451282
 20
6.876557000000001
 30
0.0
 11
3.51636
 21
6.849688
 31
0.0
  0
LINE
  5
19C
330
18
100
AcDbEntity
  8
0
100
AcDbLine
 10
3.261184
 20
6.843528
 30
0.0
 11
3.34218
 21
6.830626
 31
0.0
  0
LINE
  5
19D
330
18
100
AcDbEntity
  8
0
100
AcDbLine
 10
3.34218
 20
6.830626
 30
0.0
 11
3.424233
 21
6.776853
 31
0.0
  0
LINE
  5
19E
330
18
100
AcDbEntity
  8
0
100
AcDbLine
 10
3.424233
 20
6.776853
 30
0.0
 11
3.51636
 21
6.744021000000001
 31
0.0
  0
LINE
  5
19F
330
18
100
AcDbEntity
  8
0
100
AcDbLine
 10
3.148334
 20
6.913227
 30
0.0
 11
3.228104
 21
6.900325
 31
0.0
  0
LINE
  5
1A0
330
18
100
AcDbEntity
  8
0
100
AcDbLine
 10
3.228104
 20
6.900325
 30
0.0
 11
3.301162
 21
6.891404
 31
0.0
  0
LINE
  5
1A1
330
18
100
AcDbEntity
  8
0
100
AcDbLine
 10
3.301162
 20
6.891404
 30
0.0
 11
3.356202
 21
6.871506
 31
0.0
  0
LINE
  5
1A2
330
18
100
AcDbEntity
  8
0
100
AcDbLine
 10
3.356202
 20
6.871506
 30
0.0
 11
3.417246
 21
6.848621000000001
 31
0.0
  0
LINE
  5
1A3
330
18
100
AcDbEntity
  8
0
100
AcDbLine
 10
3.417246
 20
6.848621000000001
 30
0.0
 11
3.48329
 21
6.809791000000001
 31
0.0
  0
LINE
  5
1A4
330
18
100
AcDbEntity
  8
0
100
AcDbLine
 10
3.48329
 20
6.809791000000001
 30
0.0
 11
3.51636
 21
6.794861999999999
 31
0.0
  0
LINE
  5
1A5
330
18
100
AcDbEntity
  8
0
100
AcDbLine
 10
7.487523
 20
7.649463000000001
 30
0.0
 11
7.490788
 21
7.540299
 31
0.0
  0
LINE
  5
1A6
330
18
100
AcDbEntity
  8
0
100
AcDbLine
 10
7.490788
 20
7.540299
 30
0.0
 11
7.489764
 21
7.45457
 31
0.0
  0
LINE
  5
1A7
330
18
100
AcDbEntity
  8
0
100
AcDbLine
 10
7.489764
 20
7.45457
 30
0.0
 11
7.502406
 21
7.361544
 31
0.0
  0
LINE
  5
1A8
330
18
100
AcDbEntity
  8
0
100
AcDbLine
 10
7.502406
 20
7.361544
 30
0.0
 11
7.575158
 21
7.29032
 31
0.0
  0
LINE
  5
1A9
330
18
100
AcDbEntity
  8
0
100
AcDbLine
 10
7.575158
 20
7.29032
 30
0.0
 11
7.391787
 21
7.188474
 31
0.0
  0
LINE
  5
1AA
330
18
100
AcDbEntity
  8
0
100
AcDbLine
 10
7.391787
 20
7.188474
 30
0.0
 11
7.500416
 21
7.115939
 31
0.0
  0
LINE
  5
1AB
330
18
100
AcDbEntity
  8
0
100
AcDbLine
 10
7.500416
 20
7.115939
 30
0.0
 11
7.508653
 21
6.981082000000001
 31
0.0
  0
LINE
  5
1AC
330
18
100
AcDbEntity
  8
0
100
AcDbLine
 10
7.508653
 20
6.981082000000001
 30
0.0
 11
7.531633
 21
6.833564999999999
 31
0.0
  0
LINE
  5
1AD
330
18
100
AcDbEntity
  8
0
100
AcDbLine
 10
7.531633
 20
6.833564999999999
 30
0.0
 11
7.534222
 21
6.712606
 31
0.0
  0
LINE
  5
1AE
330
18
100
AcDbEntity
  8
0
100
AcDbLine
 10
7.455528999999999
 20
6.981045
 30
0.0
 11
7.480595
 21
6.850475
 31
0.0
  0
LINE
  5
1AF
330
18
100
AcDbEntity
  8
0
100
AcDbLine
 10
7.480595
 20
6.850475
 30
0.0
 11
7.489578
 21
6.757775
 31
0.0
  0
LINE
  5
1B0
330
18
100
AcDbEntity
  8
0
100
AcDbLine
 10
7.489578
 20
6.757775
 30
0.0
 11
7.493696000000001
 21
6.695813
 31
0.0
  0
LINE
  5
1B1
330
18
100
AcDbEntity
  8
0
100
AcDbLine
 10
7.542825
 20
7.658995
 30
0.0
 11
7.562848
 21
7.542344
 31
0.0
  0
LINE
  5
1B2
330
18
100
AcDbEntity
  8
0
100
AcDbLine
 10
7.562848
 20
7.542344
 30
0.0
 11
7.560822
 21
7.451629
 31
0.0
  0
LINE
  5
1B3
330
18
100
AcDbEntity
  8
0
100
AcDbLine
 10
7.560822
 20
7.451629
 30
0.0
 11
7.561985000000001
 21
7.373844
 31
0.0
  0
LINE
  5
1B4
330
18
100
AcDbEntity
  8
0
100
AcDbLine
 10
7.561985000000001
 20
7.373844
 30
0.0
 11
7.624605
 21
7.30029
 31
0.0
  0
LINE
  5
1B5
330
18
100
AcDbEntity
  8
0
100
AcDbLine
 10
7.624605
 20
7.30029
 30
0.0
 11
7.454313000000001
 21
7.201082
 31
0.0
  0
LINE
  5
1B6
330
18
100
AcDbEntity
  8
0
100
AcDbLine
 10
7.454313000000001
 20
7.201082
 30
0.0
 11
7.563265
 21
7.128945
 31
0.0
  0
LINE
  5
1B7
330
18
100
AcDbEntity
  8
0
100
AcDbLine
 10
7.563265
 20
7.128945
 30
0.0
 11
7.568712
 21
7.017010000000001
 31
0.0
  0
LINE
  5
1B8
330
18
100
AcDbEntity
  8
0
100
AcDbLine
 10
7.568712
 20
7.017010000000001
 30
0.0
 11
7.586692
 21
6.883446000000001
 31
0.0
  0
LINE
  5
1B9
330
18
100
AcDbEntity
  8
0
100
AcDbLine
 10
7.586692
 20
6.883446000000001
 30
0.0
 11
7.595681
 21
6.815666
 31
0.0
  0
LINE
  5
1BA
330
18
100
AcDbEntity
  8
0
100
AcDbLine
 10
7.595681
 20
6.815666
 30
0.0
 11
7.587155999999999
 21
6.734542
 31
0.0
  0
LINE
  5
1BB
330
18
100
AcDbEntity
  8
0
100
AcDbLine
 10
7.65128
 20
6.874476
 30
0.0
 11
7.619764
 21
7.051936
 31
0.0
  0
LINE
  5
1BC
330
18
100
AcDbEntity
  8
0
100
AcDbLine
 10
7.619764
 20
7.051936
 30
0.0
 11
7.613498
 21
7.13934
 31
0.0
  0
LINE
  5
1BD
330
18
100
AcDbEntity
  8
0
100
AcDbLine
 10
7.613498
 20
7.13934
 30
0.0
 11
7.512228
 21
7.21276
 31
0.0
  0
LINE
  5
1BE
330
18
100
AcDbEntity
  8
0
100
AcDbLine
 10
7.512228
 20
7.21276
 30
0.0
 11
7.671742
 21
7.309794999999999
 31
0.0
  0
LINE
  5
1BF
330
18
100
AcDbEntity
  8
0
100
AcDbLine
 10
7.671742
 20
7.309794999999999
 30
0.0
 11
7.620830000000001
 21
7.385992
 31
0.0
  0
LINE
  5
1C0
330
18
100
AcDbEntity
  8
0
100
AcDbLine
 10
7.620830000000001
 20
7.385992
 30
0.0
 11
7.612871000000001
 21
7.473596000000001
 31
0.0
  0
LINE
  5
1C1
330
18
100
AcDbEntity
  8
0
100
AcDbLine
 10
7.612871000000001
 20
7.473596000000001
 30
0.0
 11
7.619901
 21
7.565311
 31
0.0
  0
LINE
  5
1C2
330
18
100
AcDbEntity
  8
0
100
AcDbLine
 10
7.619901
 20
7.565311
 30
0.0
 11
7.606435
 21
7.669959
 31
0.0
  0
LWPOLYLINE
  5
1C3
330
18
100
AcDbEntity
  8
0
100
AcDbPolyline
 90
       16
 70
     1
 43
0.0
 10
3.040318
 20
7.183614
 42
0.147545
 10
3.030317
 20
7.18186
 42
0.107132
 10
3.019554
 20
7.173156
 42
0.076392
 10
3.012196
 20
7.160446
 42
0.063327
 10
3.007892
 20
7.143294
 42
0.063327
 10
3.008017
 20
7.125611
 42
0.076392
 10
3.012162
 20
7.111522
 42
0.107132
 10
3.020561
 20
7.100519
 42
0.147545
 10
3.029864
 20
7.09645
 42
0.147545
 10
3.039864
 20
7.098203999999999
 42
0.107132
 10
3.050627
 20
7.106908
 42
0.076392
 10
3.057986
 20
7.119617999999999
 42
0.063327
 10
3.06229
 20
7.136769999999999
 42
0.063327
 10
3.062164
 20
7.154453
 42
0.076392
 10
3.058019
 20
7.168542
 42
0.107132
 10
3.04962
 20
7.179545
 42
0.147545
  0
LWPOLYLINE
  5
1D6
330
18
100
AcDbEntity
  8
0
100
AcDbPolyline
 90
        7
 70
     0
 43
0.0
 10
3.019458
 20
7.101503
 42
0.059322
 10
3.024977
 20
7.106908
 42
0.076392
 10
3.032336
 20
7.119617999999999
 42
0.063327
 10
3.03664
 20
7.136769999999999
 42
0.063327
 10
3.036514
 20
7.154453
 42
0.076392
 10
3.032369
 20
7.168542
 42
0.095702
 10
3.025073
 20
7.178561
 42
0.147545
  0
LWPOLYLINE
  5
1E0
330
18
100
AcDbEntity
  8
0
100
AcDbPolyline
 90
       16
 70
     1
 43
0.0
 10
2.8681
 20
8.010567
 42
0.246478
 10
2.869714
 20
8.006317999999999
 42
0.081598
 10
2.880743
 20
7.999378
 42
0.040172
 10
2.894359
 20
7.99489
 42
0.029478
 10
2.913568
 20
7.991409
 42
0.029478
 10
2.933054
 20
7.990212
 42
0.040172
 10
2.947347
 20
7.991328
 42
0.081598
 10
2.959711
 20
7.995439
 42
0.246478
 10
2.962292
 20
7.999182000000001
 42
0.246478
 10
2.960677
 20
8.003430999999999
 42
0.081598
 10
2.949648
 20
8.01037
 42
0.040172
 10
2.936033
 20
8.014859
 42
0.029478
 10
2.916823
 20
8.01834
 42
0.029478
 10
2.897338
 20
8.019537
 42
0.040172
 10
2.883045
 20
8.018421
 42
0.081598
 10
2.87068
 20
8.01431
 42
0.246478
  0
LWPOLYLINE
  5
1F3
330
18
100
AcDbEntity
  8
0
100
AcDbPolyline
 90
        5
 70
     0
 43
0.0
 10
2.946598
 20
7.991211
 42
0.030968
 10
2.936033
 20
7.99448
 42
0.029478
 10
2.916823
 20
7.997961
 42
0.029478
 10
2.897338
 20
7.999158
 42
0.038049
 10
2.883794
 20
7.998158999999999
 42
0.081598
  0
LWPOLYLINE
  5
1FB
330
18
100
AcDbEntity
  8
0
100
AcDbPolyline
 90
       16
 70
     1
 43
0.0
 10
2.95592
 20
7.052650999999999
 42
0.212861
 10
2.957504
 20
7.053357000000001
 42
0.094192
 10
2.959461
 20
7.056592999999999
 42
0.050867
 10
2.960507
 20
7.060610000000001
 42
0.038249
 10
2.960928
 20
7.066109
 42
0.038249
 10
2.960507
 20
7.071608
 42
0.050867
 10
2.959461
 20
7.075625
 42
0.094192
 10
2.957504
 20
7.078861
 42
0.212861
 10
2.95592
 20
7.079567
 42
0.212861
 10
2.954337
 20
7.078861
 42
0.094192
 10
2.95238
 20
7.075625
 42
0.050867
 10
2.951334
 20
7.071608
 42
0.038249
 10
2.950913
 20
7.066109
 42
0.038249
 10
2.951334
 20
7.060610000000001
 42
0.050867
 10
2.95238
 20
7.056592999999999
 42
0.094192
 10
2.954337
 20
7.053357000000001
 42
0.212861
  0
LWPOLYLINE
  5
20E
330
18
100
AcDbEntity
  8
0
100
AcDbPolyline
 90
       16
 70
     1
 43
0.0
 10
2.95592
 20
7.331591449195369
 42
0.212861
 10
2.957504
 20
7.332297449195369
 42
0.094192
 10
2.959461
 20
7.335532449195369
 42
0.050867
 10
2.960507
 20
7.339550449195369
 42
0.038249
 10
2.960928
 20
7.34504944919537
 42
0.038249
 10
2.960507
 20
7.350548449195369
 42
0.050867
 10
2.959461
 20
7.354565449195369
 42
0.094192
 10
2.957504
 20
7.357801449195369
 42
0.212861
 10
2.95592
 20
7.358507449195368
 42
0.212861
 10
2.954337
 20
7.357801449195369
 42
0.094192
 10
2.95238
 20
7.354565449195369
 42
0.050867
 10
2.951334
 20
7.350548449195369
 42
0.038249
 10
2.950913
 20
7.34504944919537
 42
0.038249
 10
2.951334
 20
7.339550449195369
 42
0.050867
 10
2.95238
 20
7.335532449195369
 42
0.094192
 10
2.954337
 20
7.332297449195369
 42
0.212861
  0
LWPOLYLINE
  5
221
330
18
100
AcDbEntity
  8
0
100
AcDbPolyline
 90
       16
 70
     1
 43
0.0
 10
2.95592
 20
7.582977000000001
 42
0.212861
 10
2.957504
 20
7.583683000000001
 42
0.094192
 10
2.959461
 20
7.586919
 42
0.050867
 10
2.960507
 20
7.590936
 42
0.038249
 10
2.960928
 20
7.596435000000001
 42
0.038249
 10
2.960507
 20
7.601934
 42
0.050867
 10
2.959461
 20
7.605950999999999
 42
0.094192
 10
2.957504
 20
7.609187
 42
0.212861
 10
2.95592
 20
7.609893
 42
0.212861
 10
2.954337
 20
7.609187
 42
0.094192
 10
2.95238
 20
7.605950999999999
 42
0.050867
 10
2.951334
 20
7.601934
 42
0.038249
 10
2.950913
 20
7.596435000000001
 42
0.038249
 10
2.951334
 20
7.590936
 42
0.050867
 10
2.95238
 20
7.586919
 42
0.094192
 10
2.954337
 20
7.583683000000001
 42
0.212861
  0
LWPOLYLINE
  5
234
330
18
100
AcDbEntity
  8
0
100
AcDbPolyline
 90
       16
 70
     1
 43
0.0
 10
2.95592
 20
7.81026
 42
0.212861
 10
2.957504
 20
7.810966000000001
 42
0.094192
 10
2.959461
 20
7.814202000000001
 42
0.050867
 10
2.960507
 20
7.818219
 42
0.038249
 10
2.960928
 20
7.823718
 42
0.038249
 10
2.960507
 20
7.829217
 42
0.050867
 10
2.959461
 20
7.833234
 42
0.094192
 10
2.957504
 20
7.836469999999999
 42
0.212861
 10
2.95592
 20
7.837176
 42
0.212861
 10
2.954337
 20
7.836469999999999
 42
0.094192
 10
2.95238
 20
7.833234
 42
0.050867
 10
2.951334
 20
7.829217
 42
0.038249
 10
2.950913
 20
7.823718
 42
0.038249
 10
2.951334
 20
7.818219
 42
0.050867
 10
2.95238
 20
7.814202000000001
 42
0.094192
 10
2.954337
 20
7.810966000000001
 42
0.212861
  0
LWPOLYLINE
  5
247
330
18
100
AcDbEntity
  8
0
100
AcDbPolyline
 90
       16
 70
     1
 43
0.0
 10
3.099015
 20
6.966025999999999
 42
0.212861
 10
3.100599
 20
6.966732
 42
0.094192
 10
3.102556
 20
6.969968
 42
0.050867
 10
3.103602
 20
6.973985000000001
 42
0.038249
 10
3.104023
 20
6.979483999999999
 42
0.038249
 10
3.103602
 20
6.984983000000001
 42
0.050867
 10
3.102556
 20
6.989
 42
0.094192
 10
3.100599
 20
6.992236
 42
0.212861
 10
3.099015
 20
6.992942
 42
0.212861
 10
3.097432
 20
6.992236
 42
0.094192
 10
3.095474
 20
6.989
 42
0.050867
 10
3.094429
 20
6.984983000000001
 42
0.038249
 10
3.094008
 20
6.979483999999999
 42
0.038249
 10
3.094429
 20
6.973985000000001
 42
0.050867
 10
3.095474
 20
6.969968
 42
0.094192
 10
3.097432
 20
6.966732
 42
0.212861
  0
LWPOLYLINE
  5
25A
330
18
100
AcDbEntity
  8
0
100
AcDbPolyline
 90
       16
 70
     1
 43
0.0
 10
3.099015
 20
7.248956449195369
 42
0.212861
 10
3.100599
 20
7.24966344919537
 42
0.094192
 10
3.102556
 20
7.252898449195369
 42
0.050867
 10
3.103602
 20
7.256916449195369
 42
0.038249
 10
3.104023
 20
7.262415449195369
 42
0.038249
 10
3.103602
 20
7.26791344919537
 42
0.050867
 10
3.102556
 20
7.271931449195369
 42
0.094192
 10
3.100599
 20
7.27516744919537
 42
0.212861
 10
3.099015
 20
7.275873449195369
 42
0.212861
 10
3.097432
 20
7.27516744919537
 42
0.094192
 10
3.095474
 20
7.271931449195369
 42
0.050867
 10
3.094429
 20
7.26791344919537
 42
0.038249
 10
3.094008
 20
7.262415449195369
 42
0.038249
 10
3.094429
 20
7.256916449195369
 42
0.050867
 10
3.095474
 20
7.252898449195369
 42
0.094192
 10
3.097432
 20
7.24966344919537
 42
0.212861
  0
LWPOLYLINE
  5
26D
330
18
100
AcDbEntity
  8
0
100
AcDbPolyline
 90
       16
 70
     1
 43
0.0
 10
3.099015
 20
7.488372
 42
0.212861
 10
3.100599
 20
7.489078
 42
0.094192
 10
3.102556
 20
7.492314
 42
0.050867
 10
3.103602
 20
7.496332000000001
 42
0.038249
 10
3.104023
 20
7.50183
 42
0.038249
 10
3.103602
 20
7.507329
 42
0.050867
 10
3.102556
 20
7.511347
 42
0.094192
 10
3.100599
 20
7.514582000000001
 42
0.212861
 10
3.099015
 20
7.515288000000001
 42
0.212861
 10
3.097432
 20
7.514582000000001
 42
0.094192
 10
3.095474
 20
7.511347
 42
0.050867
 10
3.094429
 20
7.507329
 42
0.038249
 10
3.094008
 20
7.50183
 42
0.038249
 10
3.094429
 20
7.496332000000001
 42
0.050867
 10
3.095474
 20
7.492314
 42
0.094192
 10
3.097432
 20
7.489078
 42
0.212861
  0
LWPOLYLINE
  5
280
330
18
100
AcDbEntity
  8
0
100
AcDbPolyline
 90
       16
 70
     1
 43
0.0
 10
3.099015
 20
7.705685000000001
 42
0.212861
 10
3.100599
 20
7.706391
 42
0.094192
 10
3.102556
 20
7.709627
 42
0.050867
 10
3.103602
 20
7.713645
 42
0.038249
 10
3.104023
 20
7.719142999999999
 42
0.038249
 10
3.103602
 20
7.724642
 42
0.050867
 10
3.102556
 20
7.728660000000001
 42
0.094192
 10
3.100599
 20
7.731895
 42
0.212861
 10
3.099015
 20
7.732601
 42
0.212861
 10
3.097432
 20
7.731895
 42
0.094192
 10
3.095474
 20
7.728660000000001
 42
0.050867
 10
3.094429
 20
7.724642
 42
0.038249
 10
3.094008
 20
7.719142999999999
 42
0.038249
 10
3.094429
 20
7.713645
 42
0.050867
 10
3.095474
 20
7.709627
 42
0.094192
 10
3.097432
 20
7.706391
 42
0.212861
  0
LWPOLYLINE
  5
293
330
18
100
AcDbEntity
  8
0
100
AcDbPolyline
 90
       16
 70
     1
 43
0.0
 10
3.044797
 20
7.99551
 42
0.212861
 10
3.044469
 20
7.997213
 42
0.094192
 10
3.041764
 20
7.999855
 42
0.050867
 10
3.03809
 20
8.001787
 42
0.038249
 10
3.032831
 20
8.003449
 42
0.038249
 10
3.027381
 20
8.004289999999999
 42
0.050867
 10
3.023231
 20
8.004186000000001
 42
0.094192
 10
3.019635
 20
8.003016000000001
 42
0.212861
 10
3.018587
 20
8.001635
 42
0.212861
 10
3.018914
 20
7.999932
 42
0.094192
 10
3.021619
 20
7.99729
 42
0.050867
 10
3.025294
 20
7.995358
 42
0.038249
 10
3.030552
 20
7.993696000000001
 42
0.038249
 10
3.036003
 20
7.992855000000001
 42
0.050867
 10
3.040153
 20
7.992959
 42
0.094192
 10
3.043749
 20
7.994128999999999
 42
0.212861
  0
LWPOLYLINE
  5
2A6
330
18
100
AcDbEntity
  8
0
100
AcDbPolyline
 90
       16
 70
     1
 43
0.0
 10
2.796596
 20
8.010289
 42
0.212861
 10
2.796269
 20
8.011991
 42
0.094192
 10
2.793563
 20
8.014633999999999
 42
0.050867
 10
2.789889
 20
8.016566000000001
 42
0.038249
 10
2.784631
 20
8.018227
 42
0.038249
 10
2.77918
 20
8.019067999999999
 42
0.050867
 10
2.77503
 20
8.018964
 42
0.094192
 10
2.771434
 20
8.017795
 42
0.212861
 10
2.770386
 20
8.016413
 42
0.212861
 10
2.770713
 20
8.014711
 42
0.094192
 10
2.773419
 20
8.012067999999999
 42
0.050867
 10
2.777093
 20
8.010135999999999
 42
0.038249
 10
2.782352
 20
8.008475000000001
 42
0.038249
 10
2.787802
 20
8.007634
 42
0.050867
 10
2.791952
 20
8.007738
 42
0.094192
 10
2.795548
 20
8.008907000000001
 42
0.212861
  0
LINE
  5
2B9
330
18
100
AcDbEntity
  8
0
100
AcDbLine
 10
4.119533000000001
 20
9.502716
 30
0.0
 11
4.136771
 21
9.50662
 31
0.0
  0
LWPOLYLINE
  5
2BA
330
18
100
AcDbEntity
  8
0
100
AcDbPolyline
 90
       16
 70
     1
 43
0.0
 10
4.167545
 20
9.399077999999999
 42
0.18508
 10
4.161890000000001
 20
9.39691
 42
0.10206
 10
4.155522
 20
9.388275
 42
0.060892
 10
4.151959
 20
9.377160999999999
 42
0.047201
 10
4.150543
 20
9.362194000000001
 42
0.047201
 10
4.151959
 20
9.347227
 42
0.060892
 10
4.155522
 20
9.336113000000001
 42
0.10206
 10
4.161890000000001
 20
9.327477
 42
0.18508
 10
4.167545
 20
9.32531
 42
0.18508
 10
4.1732
 20
9.327477
 42
0.10206
 10
4.179567
 20
9.336113000000001
 42
0.060892
 10
4.183131
 20
9.347227
 42
0.047201
 10
4.184547
 20
9.362194000000001
 42
0.047201
 10
4.183131
 20
9.377160999999999
 42
0.060892
 10
4.179567
 20
9.388275
 42
0.10206
 10
4.1732
 20
9.39691
 42
0.18508
  0
LWPOLYLINE
  5
2CD
330
18
100
AcDbEntity
  8
0
100
AcDbPolyline
 90
        7
 70
     0
 43
0.0
 10
4.175045
 20
9.395080999999999
 42
0.077395
 10
4.170522
 20
9.388275
 42
0.060892
 10
4.166958999999999
 20
9.377160999999999
 42
0.047201
 10
4.165543
 20
9.362194000000001
 42
0.047201
 10
4.166958999999999
 20
9.347227
 42
0.060892
 10
4.170522
 20
9.336113000000001
 42
0.077395
 10
4.175045
 20
9.329305999999999
 42
0.18508
  0
LWPOLYLINE
  5
2D7
330
18
100
AcDbEntity
  8
0
100
AcDbPolyline
 90
       16
 70
     1
 43
0.0
 10
4.227601
 20
9.425038000000001
 42
0.194572
 10
4.226624
 20
9.424643
 42
0.099692
 10
4.225488
 20
9.422994000000001
 42
0.057333
 10
4.224862
 20
9.420899
 42
0.043923
 10
4.224612000000001
 20
9.418060000000001
 42
0.043923
 10
4.224862
 20
9.41522
 42
0.057333
 10
4.225488
 20
9.413125000000001
 42
0.099692
 10
4.226624
 20
9.411477
 42
0.194572
 10
4.227601
 20
9.411080999999999
 42
0.194572
 10
4.228578
 20
9.411477
 42
0.099692
 10
4.229714
 20
9.413125000000001
 42
0.057333
 10
4.23034
 20
9.41522
 42
0.043923
 10
4.23059
 20
9.418060000000001
 42
0.043923
 10
4.23034
 20
9.420899
 42
0.057333
 10
4.229714
 20
9.422994000000001
 42
0.099692
 10
4.228578
 20
9.424643
 42
0.194572
  0
LWPOLYLINE
  5
2EA
330
18
100
AcDbEntity
  8
0
100
AcDbPolyline
 90
       16
 70
     1
 43
0.0
 10
4.227601
 20
9.248588
 42
0.194572
 10
4.226624
 20
9.248192999999999
 42
0.099692
 10
4.225488
 20
9.246544999999999
 42
0.057333
 10
4.224862
 20
9.244449000000001
 42
0.043923
 10
4.224612000000001
 20
9.241610000000001
 42
0.043923
 10
4.224862
 20
9.238771
 42
0.057333
 10
4.225488
 20
9.236675999999999
 42
0.099692
 10
4.226624
 20
9.235027000000001
 42
0.194572
 10
4.227601
 20
9.234632000000001
 42
0.194572
 10
4.228578
 20
9.235027000000001
 42
0.099692
 10
4.229714
 20
9.236675999999999
 42
0.057333
 10
4.23034
 20
9.238771
 42
0.043923
 10
4.23059
 20
9.241610000000001
 42
0.043923
 10
4.23034
 20
9.244449000000001
 42
0.057333
 10
4.229714
 20
9.246544999999999
 42
0.099692
 10
4.228578
 20
9.248192999999999
 42
0.194572
  0
LWPOLYLINE
  5
2FD
330
18
100
AcDbEntity
  8
0
100
AcDbPolyline
 90
       16
 70
     1
 43
0.0
 10
4.227601
 20
9.091082999999999
 42
0.194572
 10
4.226624
 20
9.090688
 42
0.099692
 10
4.225488
 20
9.089039999999999
 42
0.057333
 10
4.224862
 20
9.086944000000001
 42
0.043923
 10
4.224612000000001
 20
9.084105000000001
 42
0.043923
 10
4.224862
 20
9.081266000000001
 42
0.057333
 10
4.225488
 20
9.079171000000001
 42
0.099692
 10
4.226624
 20
9.077522
 42
0.194572
 10
4.227601
 20
9.077127000000001
 42
0.194572
 10
4.228578
 20
9.077522
 42
0.099692
 10
4.229714
 20
9.079171000000001
 42
0.057333
 10
4.23034
 20
9.081266000000001
 42
0.043923
 10
4.23059
 20
9.084105000000001
 42
0.043923
 10
4.23034
 20
9.086944000000001
 42
0.057333
 10
4.229714
 20
9.089039999999999
 42
0.099692
 10
4.228578
 20
9.090688
 42
0.194572
  0
LWPOLYLINE
  5
310
330
18
100
AcDbEntity
  8
0
100
AcDbPolyline
 90
       16
 70
     1
 43
0.0
 10
4.227601
 20
8.909649
 42
0.194572
 10
4.226624
 20
8.909253999999999
 42
0.099692
 10
4.225488
 20
8.907605
 42
0.057333
 10
4.224862
 20
8.905510000000001
 42
0.043923
 10
4.224612000000001
 20
8.902671
 42
0.043923
 10
4.224862
 20
8.899832
 42
0.057333
 10
4.225488
 20
8.897736
 42
0.099692
 10
4.226624
 20
8.896088000000001
 42
0.194572
 10
4.227601
 20
8.895693
 42
0.194572
 10
4.228578
 20
8.896088000000001
 42
0.099692
 10
4.229714
 20
8.897736
 42
0.057333
 10
4.23034
 20
8.899832
 42
0.043923
 10
4.23059
 20
8.902671
 42
0.043923
 10
4.23034
 20
8.905510000000001
 42
0.057333
 10
4.229714
 20
8.907605
 42
0.099692
 10
4.228578
 20
8.909253999999999
 42
0.194572
  0
LWPOLYLINE
  5
323
330
18
100
AcDbEntity
  8
0
100
AcDbPolyline
 90
       16
 70
     1
 43
0.0
 10
4.120523
 20
9.28739
 42
0.194572
 10
4.119546
 20
9.286994999999999
 42
0.099692
 10
4.11841
 20
9.285346000000001
 42
0.057333
 10
4.117783999999999
 20
9.283251
 42
0.043923
 10
4.117534
 20
9.280412
 42
0.043923
 10
4.117783999999999
 20
9.277573
 42
0.057333
 10
4.11841
 20
9.275478
 42
0.099692
 10
4.119546
 20
9.273828999999999
 42
0.194572
 10
4.120523
 20
9.273434
 42
0.194572
 10
4.1215
 20
9.273828999999999
 42
0.099692
 10
4.122637
 20
9.275478
 42
0.057333
 10
4.123262
 20
9.277573
 42
0.043923
 10
4.123512
 20
9.280412
 42
0.043923
 10
4.123262
 20
9.283251
 42
0.057333
 10
4.122637
 20
9.285346000000001
 42
0.099692
 10
4.1215
 20
9.286994999999999
 42
0.194572
  0
LWPOLYLINE
  5
336
330
18
100
AcDbEntity
  8
0
100
AcDbPolyline
 90
       16
 70
     1
 43
0.0
 10
4.120523
 20
9.159791
 42
0.194572
 10
4.119546
 20
9.159396000000001
 42
0.099692
 10
4.11841
 20
9.157747000000001
 42
0.057333
 10
4.117783999999999
 20
9.155652
 42
0.043923
 10
4.117534
 20
9.152813
 42
0.043923
 10
4.117783999999999
 20
9.149974
 42
0.057333
 10
4.11841
 20
9.147879
 42
0.099692
 10
4.119546
 20
9.146230000000001
 42
0.194572
 10
4.120523
 20
9.145835
 42
0.194572
 10
4.1215
 20
9.146230000000001
 42
0.099692
 10
4.122637
 20
9.147879
 42
0.057333
 10
4.123262
 20
9.149974
 42
0.043923
 10
4.123512
 20
9.152813
 42
0.043923
 10
4.123262
 20
9.155652
 42
0.057333
 10
4.122637
 20
9.157747000000001
 42
0.099692
 10
4.1215
 20
9.159396000000001
 42
0.194572
  0
LWPOLYLINE
  5
349
330
18
100
AcDbEntity
  8
0
100
AcDbPolyline
 90
       16
 70
     1
 43
0.0
 10
4.120523
 20
8.989329
 42
0.194572
 10
4.119546
 20
8.988934
 42
0.099692
 10
4.11841
 20
8.987285
 42
0.057333
 10
4.117783999999999
 20
8.985189999999999
 42
0.043923
 10
4.117534
 20
8.982351
 42
0.043923
 10
4.117783999999999
 20
8.979512
 42
0.057333
 10
4.11841
 20
8.977416999999999
 42
0.099692
 10
4.119546
 20
8.975767999999999
 42
0.194572
 10
4.120523
 20
8.975372999999999
 42
0.194572
 10
4.1215
 20
8.975767999999999
 42
0.099692
 10
4.122637
 20
8.977416999999999
 42
0.057333
 10
4.123262
 20
8.979512
 42
0.043923
 10
4.123512
 20
8.982351
 42
0.043923
 10
4.123262
 20
8.985189999999999
 42
0.057333
 10
4.122637
 20
8.987285
 42
0.099692
 10
4.1215
 20
8.988934
 42
0.194572
  0
LWPOLYLINE
  5
35C
330
18
100
AcDbEntity
  8
0
100
AcDbPolyline
 90
       16
 70
     1
 43
0.0
 10
3.921149
 20
8.203675000000001
 42
0.194572
 10
3.920172
 20
8.20328
 42
0.099692
 10
3.919036
 20
8.201632
 42
0.057333
 10
3.918411
 20
8.199536
 42
0.043923
 10
3.918161
 20
8.196697
 42
0.043923
 10
3.918411
 20
8.193858000000001
 42
0.057333
 10
3.919036
 20
8.191763
 42
0.099692
 10
3.920172
 20
8.190114
 42
0.194572
 10
3.921149
 20
8.189719
 42
0.194572
 10
3.922127
 20
8.190114
 42
0.099692
 10
3.923263
 20
8.191763
 42
0.057333
 10
3.923888
 20
8.193858000000001
 42
0.043923
 10
3.924138
 20
8.196697
 42
0.043923
 10
3.923888
 20
8.199536
 42
0.057333
 10
3.923263
 20
8.201632
 42
0.099692
 10
3.922127
 20
8.20328
 42
0.194572
  0
LWPOLYLINE
  5
36F
330
18
100
AcDbEntity
  8
0
100
AcDbPolyline
 90
       16
 70
     1
 43
0.0
 10
4.027232
 20
8.183813000000001
 42
0.194572
 10
4.026254
 20
8.183418
 42
0.099692
 10
4.025118
 20
8.181769000000001
 42
0.057333
 10
4.024493
 20
8.179674
 42
0.043923
 10
4.024243
 20
8.176835000000001
 42
0.043923
 10
4.024493
 20
8.173995
 42
0.057333
 10
4.025118
 20
8.171900000000001
 42
0.099692
 10
4.026254
 20
8.170252
 42
0.194572
 10
4.027232
 20
8.169855999999999
 42
0.194572
 10
4.028209
 20
8.170252
 42
0.099692
 10
4.029344999999999
 20
8.171900000000001
 42
0.057333
 10
4.02997
 20
8.173995
 42
0.043923
 10
4.03022
 20
8.176835000000001
 42
0.043923
 10
4.02997
 20
8.179674
 42
0.057333
 10
4.029344999999999
 20
8.181769000000001
 42
0.099692
 10
4.028209
 20
8.183418
 42
0.194572
  0
LWPOLYLINE
  5
382
330
18
100
AcDbEntity
  8
0
100
AcDbPolyline
 90
       16
 70
     1
 43
0.0
 10
4.039202
 20
8.035291000000001
 42
0.194572
 10
4.038224
 20
8.034896
 42
0.099692
 10
4.037088
 20
8.033248
 42
0.057333
 10
4.036463
 20
8.031152000000001
 42
0.043923
 10
4.036213
 20
8.028313000000001
 42
0.043923
 10
4.036463
 20
8.025474000000001
 42
0.057333
 10
4.037088
 20
8.023378999999999
 42
0.099692
 10
4.038224
 20
8.02173
 42
0.194572
 10
4.039202
 20
8.021335000000001
 42
0.194572
 10
4.040179
 20
8.02173
 42
0.099692
 10
4.041315
 20
8.023378999999999
 42
0.057333
 10
4.041941000000001
 20
8.025474000000001
 42
0.043923
 10
4.042191000000001
 20
8.028313000000001
 42
0.043923
 10
4.041941000000001
 20
8.031152000000001
 42
0.057333
 10
4.041315
 20
8.033248
 42
0.099692
 10
4.040179
 20
8.034896
 42
0.194572
  0
LWPOLYLINE
  5
395
330
18
100
AcDbEntity
  8
0
100
AcDbPolyline
 90
       16
 70
     1
 43
0.0
 10
3.927116
 20
8.059137
 42
0.194572
 10
3.926138
 20
8.058742000000001
 42
0.099692
 10
3.925002
 20
8.057093
 42
0.057333
 10
3.924377
 20
8.054997999999999
 42
0.043923
 10
3.924127
 20
8.052159
 42
0.043923
 10
3.924377
 20
8.04932
 42
0.057333
 10
3.925002
 20
8.047224
 42
0.099692
 10
3.926138
 20
8.045575999999999
 42
0.194572
 10
3.927116
 20
8.045181
 42
0.194572
 10
3.928093
 20
8.045575999999999
 42
0.099692
 10
3.929229
 20
8.047224
 42
0.057333
 10
3.929855
 20
8.04932
 42
0.043923
 10
3.930105
 20
8.052159
 42
0.043923
 10
3.929855
 20
8.054997999999999
 42
0.057333
 10
3.929229
 20
8.057093
 42
0.099692
 10
3.928093
 20
8.058742000000001
 42
0.194572
  0
LWPOLYLINE
  5
3A8
330
18
100
AcDbEntity
  8
0
100
AcDbPolyline
 90
       16
 70
     1
 43
0.0
 10
3.928083
 20
7.932538
 42
0.194572
 10
3.927106
 20
7.932142999999999
 42
0.099692
 10
3.925969
 20
7.930495
 42
0.057333
 10
3.925344
 20
7.928399000000001
 42
0.043923
 10
3.925094
 20
7.925560000000001
 42
0.043923
 10
3.925344
 20
7.922721000000001
 42
0.057333
 10
3.925969
 20
7.920626
 42
0.099692
 10
3.927106
 20
7.918977000000001
 42
0.194572
 10
3.928083
 20
7.918582000000001
 42
0.194572
 10
3.92906
 20
7.918977000000001
 42
0.099692
 10
3.930196
 20
7.920626
 42
0.057333
 10
3.930822
 20
7.922721000000001
 42
0.043923
 10
3.931072
 20
7.925560000000001
 42
0.043923
 10
3.930822
 20
7.928399000000001
 42
0.057333
 10
3.930196
 20
7.930495
 42
0.099692
 10
3.92906
 20
7.932142999999999
 42
0.194572
  0
LWPOLYLINE
  5
3BB
330
18
100
AcDbEntity
  8
0
100
AcDbPolyline
 90
       16
 70
     1
 43
0.0
 10
3.938035
 20
7.723208000000001
 42
0.194572
 10
3.937058
 20
7.722813
 42
0.099692
 10
3.935922
 20
7.721164
 42
0.057333
 10
3.935296
 20
7.719069
 42
0.043923
 10
3.935046
 20
7.71623
 42
0.043923
 10
3.935296
 20
7.71339
 42
0.057333
 10
3.935922
 20
7.711295
 42
0.099692
 10
3.937058
 20
7.709647
 42
0.194572
 10
3.938035
 20
7.709250999999999
 42
0.194572
 10
3.939012
 20
7.709647
 42
0.099692
 10
3.940149
 20
7.711295
 42
0.057333
 10
3.940774
 20
7.71339
 42
0.043923
 10
3.941024
 20
7.71623
 42
0.043923
 10
3.940774
 20
7.719069
 42
0.057333
 10
3.940149
 20
7.721164
 42
0.099692
 10
3.939012
 20
7.722813
 42
0.194572
  0
LWPOLYLINE
  5
3CE
330
18
100
AcDbEntity
  8
0
100
AcDbPolyline
 90
        6
 70
     0
 43
0.0
 10
3.962451
 20
7.784117
 42
0.036064
 10
3.961943
 20
7.777079
 42
0.059824
 10
3.963335
 20
7.765483000000001
 42
0.073315
 10
3.966924
 20
7.756637
 42
0.106793
 10
3.972985
 20
7.750058999999999
 42
0.154587
 10
3.978949
 20
7.74817
 42
0.154587
  0
LWPOLYLINE
  5
3D7
330
18
100
AcDbEntity
  8
0
100
AcDbPolyline
 90
        4
 70
     0
 43
0.0
 10
3.978949
 20
7.74817
 42
0.154587
 10
3.984913
 20
7.750058999999999
 42
0.106793
 10
3.990974
 20
7.756637
 42
0.021037
 10
3.992269
 20
7.759066000000001
 42
0.059824
  0
LWPOLYLINE
  5
3DE
330
18
100
AcDbEntity
  8
0
100
AcDbPolyline
 90
        7
 70
     0
 43
0.0
 10
3.995793
 20
7.781063000000001
 42
0.039413
 10
3.994563
 20
7.788674
 42
0.073315
 10
3.990974
 20
7.79752
 42
0.106793
 10
3.984913
 20
7.804099000000001
 42
0.154587
 10
3.978949
 20
7.805988
 42
0.154587
 10
3.972985
 20
7.804099000000001
 42
0.049261
 10
3.969833
 20
7.801378999999999
 42
0.073315
  0
LINE
  5
3E8
330
18
100
AcDbEntity
  8
0
100
AcDbLine
 10
4.491915000000001
 20
7.333601
 30
0.0
 11
4.491915000000001
 21
7.536101
 31
0.0
  0
LINE
  5
3E9
330
18
100
AcDbEntity
  8
0
100
AcDbLine
 10
4.477263
 20
7.538401
 30
0.0
 11
4.376436
 21
7.519205
 31
0.0
  0
LINE
  5
3EA
330
18
100
AcDbEntity
  8
0
100
AcDbLine
 10
3.934829
 20
7.435128999999999
 30
0.0
 11
3.934829
 21
7.223547999999999
 31
0.0
  0
LINE
  5
3EB
330
18
100
AcDbEntity
  8
0
100
AcDbLine
 10
3.934829
 20
7.223547999999999
 30
0.0
 11
4.095893
 21
7.177060000000001
 31
0.0
  0
LINE
  5
3EC
330
18
100
AcDbEntity
  8
0
100
AcDbLine
 10
4.095893
 20
7.177060000000001
 30
0.0
 11
4.191798
 21
7.196934
 31
0.0
  0
LINE
  5
3ED
330
18
100
AcDbEntity
  8
0
100
AcDbLine
 10
4.032634
 20
7.242869000000001
 30
0.0
 11
4.439148
 21
7.323177
 31
0.0
  0
LINE
  5
3EE
330
18
100
AcDbEntity
  8
0
100
AcDbLine
 10
4.491915000000001
 20
7.333601
 30
0.0
 11
4.928644
 21
7.419877000000001
 31
0.0
  0
LINE
  5
3EF
330
18
100
AcDbEntity
  8
0
100
AcDbLine
 10
3.939829
 20
7.430992
 30
0.0
 11
3.939829
 21
7.227309
 31
0.0
  0
LINE
  5
3F0
330
18
100
AcDbEntity
  8
0
100
AcDbLine
 10
3.939829
 20
7.227309
 30
0.0
 11
4.096076
 21
7.182211
 31
0.0
  0
LINE
  5
3F1
330
18
100
AcDbEntity
  8
0
100
AcDbLine
 10
4.491915000000001
 20
7.536101
 30
0.0
 11
4.380515
 21
7.514892
 31
0.0
  0
LINE
  5
3F2
330
18
100
AcDbEntity
  8
0
100
AcDbLine
 10
4.096076
 20
7.182211
 30
0.0
 11
4.19162
 21
7.202008999999999
 31
0.0
  0
LINE
  5
3F3
330
18
100
AcDbEntity
  8
0
100
AcDbLine
 10
4.491915000000001
 20
7.536101
 30
0.0
 11
4.477263
 21
7.538401
 31
0.0
  0
LINE
  5
3F4
330
18
100
AcDbEntity
  8
0
100
AcDbLine
 10
3.939829
 20
7.227309
 30
0.0
 11
3.934829
 21
7.223547999999999
 31
0.0
  0
LINE
  5
3F5
330
18
100
AcDbEntity
  8
0
100
AcDbLine
 10
4.096076
 20
7.182211
 30
0.0
 11
4.095893
 21
7.177060000000001
 31
0.0
  0
LINE
  5
3F6
330
18
100
AcDbEntity
  8
0
100
AcDbLine
 10
4.650382
 20
7.29707
 30
0.0
 11
4.491915000000001
 21
7.333601
 31
0.0
  0
LINE
  5
3F7
330
18
100
AcDbEntity
  8
0
100
AcDbLine
 10
4.650382
 20
7.29707
 30
0.0
 11
4.650382
 21
7.291967
 31
0.0
  0
LINE
  5
3F8
330
18
100
AcDbEntity
  8
0
100
AcDbLine
 10
4.023795
 20
7.452067
 30
0.0
 11
4.064928
 21
7.402325
 31
0.0
  0
LINE
  5
3F9
330
18
100
AcDbEntity
  8
0
100
AcDbLine
 10
4.064928
 20
7.402325
 30
0.0
 11
4.129983999999999
 21
7.413336
 31
0.0
  0
LINE
  5
3FA
330
18
100
AcDbEntity
  8
0
100
AcDbLine
 10
4.129983999999999
 20
7.413336
 30
0.0
 11
4.129983999999999
 21
7.467194
 31
0.0
  0
LINE
  5
3FB
330
18
100
AcDbEntity
  8
0
100
AcDbLine
 10
4.271068
 20
7.499144
 30
0.0
 11
4.303137
 21
7.450341000000001
 31
0.0
  0
LINE
  5
3FC
330
18
100
AcDbEntity
  8
0
100
AcDbLine
 10
4.303137
 20
7.450341000000001
 30
0.0
 11
4.367192
 21
7.461351
 31
0.0
  0
LINE
  5
3FD
330
18
100
AcDbEntity
  8
0
100
AcDbLine
 10
4.367192
 20
7.461351
 30
0.0
 11
4.380515
 21
7.514892
 31
0.0
  0
LINE
  5
3FE
330
18
100
AcDbEntity
  8
0
100
AcDbLine
 10
4.274041
 20
7.494621
 30
0.0
 11
4.129983999999999
 21
7.467194
 31
0.0
  0
LINE
  5
3FF
330
18
100
AcDbEntity
  8
0
100
AcDbLine
 10
4.027431
 20
7.44767
 30
0.0
 11
3.939829
 21
7.430992
 31
0.0
  0
LINE
  5
400
330
18
100
AcDbEntity
  8
0
100
AcDbLine
 10
4.363129
 20
7.465725999999999
 30
0.0
 11
4.376436
 21
7.519205
 31
0.0
  0
LINE
  5
401
330
18
100
AcDbEntity
  8
0
100
AcDbLine
 10
4.300141
 20
7.454899
 30
0.0
 11
4.363129
 21
7.465725999999999
 31
0.0
  0
LINE
  5
402
330
18
100
AcDbEntity
  8
0
100
AcDbLine
 10
4.064093
 20
7.407255
 30
0.0
 11
4.124984
 21
7.417561
 31
0.0
  0
LINE
  5
403
330
18
100
AcDbEntity
  8
0
100
AcDbLine
 10
4.124984
 20
7.417561
 30
0.0
 11
4.124984
 21
7.471332
 31
0.0
  0
LINE
  5
404
330
18
100
AcDbEntity
  8
0
100
AcDbLine
 10
4.023795
 20
7.452067
 30
0.0
 11
3.934829
 21
7.435128999999999
 31
0.0
  0
LINE
  5
405
330
18
100
AcDbEntity
  8
0
100
AcDbLine
 10
4.271068
 20
7.499144
 30
0.0
 11
4.124984
 21
7.471332
 31
0.0
  0
LINE
  5
406
330
18
100
AcDbEntity
  8
0
100
AcDbLine
 10
4.124984
 20
7.417561
 30
0.0
 11
4.129983999999999
 21
7.413336
 31
0.0
  0
LINE
  5
407
330
18
100
AcDbEntity
  8
0
100
AcDbLine
 10
4.363129
 20
7.465725999999999
 30
0.0
 11
4.367192
 21
7.461351
 31
0.0
  0
LINE
  5
408
330
18
100
AcDbEntity
  8
0
100
AcDbLine
 10
4.191798
 20
7.196934
 30
0.0
 11
4.254026000000001
 21
7.188136
 31
0.0
  0
LINE
  5
409
330
18
100
AcDbEntity
  8
0
100
AcDbLine
 10
4.254026000000001
 20
7.188136
 30
0.0
 11
4.344105
 21
7.204149
 31
0.0
  0
LINE
  5
40A
330
18
100
AcDbEntity
  8
0
100
AcDbLine
 10
4.398796
 20
7.239831
 30
0.0
 11
4.478223000000001
 21
7.234147999999999
 31
0.0
  0
LINE
  5
40B
330
18
100
AcDbEntity
  8
0
100
AcDbLine
 10
4.478223000000001
 20
7.234147999999999
 30
0.0
 11
4.541279
 21
7.247151
 31
0.0
  0
LINE
  5
40C
330
18
100
AcDbEntity
  8
0
100
AcDbLine
 10
4.541279
 20
7.247151
 30
0.0
 11
4.536944999999999
 21
7.273565
 31
0.0
  0
LINE
  5
40D
330
18
100
AcDbEntity
  8
0
100
AcDbLine
 10
4.19162
 20
7.202008999999999
 30
0.0
 11
4.253937000000001
 21
7.193198
 31
0.0
  0
LINE
  5
40E
330
18
100
AcDbEntity
  8
0
100
AcDbLine
 10
4.253937000000001
 20
7.193198
 30
0.0
 11
4.344090000000001
 21
7.209224000000001
 31
0.0
  0
LINE
  5
40F
330
18
100
AcDbEntity
  8
0
100
AcDbLine
 10
4.344090000000001
 20
7.209224000000001
 30
0.0
 11
4.279729
 21
7.220266000000001
 31
0.0
  0
LINE
  5
410
330
18
100
AcDbEntity
  8
0
100
AcDbLine
 10
4.398456
 20
7.244867999999999
 30
0.0
 11
4.477891000000001
 21
7.239185000000001
 31
0.0
  0
LINE
  5
411
330
18
100
AcDbEntity
  8
0
100
AcDbLine
 10
4.477891000000001
 20
7.239185000000001
 30
0.0
 11
4.540269
 21
7.252047999999999
 31
0.0
  0
LINE
  5
412
330
18
100
AcDbEntity
  8
0
100
AcDbLine
 10
4.536944999999999
 20
7.273565
 30
0.0
 11
4.650382
 21
7.29707
 31
0.0
  0
LINE
  5
413
330
18
100
AcDbEntity
  8
0
100
AcDbLine
 10
4.537755000000001
 20
7.268627
 30
0.0
 11
4.650382
 21
7.291967
 31
0.0
  0
LINE
  5
414
330
18
100
AcDbEntity
  8
0
100
AcDbLine
 10
4.279729
 20
7.220266000000001
 30
0.0
 11
4.398456
 21
7.244867999999999
 31
0.0
  0
LINE
  5
415
330
18
100
AcDbEntity
  8
0
100
AcDbLine
 10
4.293219000000001
 20
7.217952
 30
0.0
 11
4.398796
 21
7.239831
 31
0.0
  0
LINE
  5
416
330
18
100
AcDbEntity
  8
0
100
AcDbLine
 10
4.344090000000001
 20
7.209224000000001
 30
0.0
 11
4.344105
 21
7.204149
 31
0.0
  0
LINE
  5
417
330
18
100
AcDbEntity
  8
0
100
AcDbLine
 10
4.19162
 20
7.202008999999999
 30
0.0
 11
4.191798
 21
7.196934
 31
0.0
  0
LINE
  5
418
330
18
100
AcDbEntity
  8
0
100
AcDbLine
 10
4.253937000000001
 20
7.193198
 30
0.0
 11
4.254026000000001
 21
7.188136
 31
0.0
  0
LINE
  5
419
330
18
100
AcDbEntity
  8
0
100
AcDbLine
 10
4.398456
 20
7.244867999999999
 30
0.0
 11
4.398796
 21
7.239831
 31
0.0
  0
LINE
  5
41A
330
18
100
AcDbEntity
  8
0
100
AcDbLine
 10
4.477891000000001
 20
7.239185000000001
 30
0.0
 11
4.478223000000001
 21
7.234147999999999
 31
0.0
  0
LWPOLYLINE
  5
41B
330
18
100
AcDbEntity
  8
0
100
AcDbPolyline
 90
       16
 70
     1
 43
0.0
 10
3.997873
 20
7.405268
 42
0.208096
 10
3.996278
 20
7.404574
 42
0.095732
 10
3.994336
 20
7.401472999999999
 42
0.052504
 10
3.993292
 20
7.397599000000001
 42
0.039655
 10
3.992871
 20
7.39231
 42
0.039655
 10
3.993292
 20
7.38702
 42
0.052504
 10
3.994336
 20
7.383147
 42
0.095732
 10
3.996278
 20
7.380045
 42
0.208096
 10
3.997873
 20
7.379351
 42
0.208096
 10
3.999469
 20
7.380045
 42
0.095732
 10
4.00141
 20
7.383147
 42
0.052504
 10
4.002455
 20
7.38702
 42
0.039655
 10
4.002875
 20
7.39231
 42
0.039655
 10
4.002455
 20
7.397599000000001
 42
0.052504
 10
4.00141
 20
7.401472999999999
 42
0.095732
 10
3.999469
 20
7.404574
 42
0.208096
  0
LWPOLYLINE
  5
42E
330
18
100
AcDbEntity
  8
0
100
AcDbPolyline
 90
       16
 70
     1
 43
0.0
 10
4.226073
 20
7.448293
 42
0.208096
 10
4.224476999999999
 20
7.447599
 42
0.095732
 10
4.222536
 20
7.444497
 42
0.052504
 10
4.221491
 20
7.440624000000001
 42
0.039655
 10
4.221071
 20
7.435333999999999
 42
0.039655
 10
4.221491
 20
7.430045
 42
0.052504
 10
4.222536
 20
7.426171000000001
 42
0.095732
 10
4.224476999999999
 20
7.42307
 42
0.208096
 10
4.226073
 20
7.422376
 42
0.208096
 10
4.227668
 20
7.42307
 42
0.095732
 10
4.229609
 20
7.426171000000001
 42
0.052504
 10
4.230654
 20
7.430045
 42
0.039655
 10
4.231074
 20
7.435333999999999
 42
0.039655
 10
4.230654
 20
7.440624000000001
 42
0.052504
 10
4.229609
 20
7.444497
 42
0.095732
 10
4.227668
 20
7.447599
 42
0.208096
  0
LWPOLYLINE
  5
441
330
18
100
AcDbEntity
  8
0
100
AcDbPolyline
 90
       16
 70
     1
 43
0.0
 10
4.436257
 20
7.490308
 42
0.208096
 10
4.434661
 20
7.489614
 42
0.095732
 10
4.43272
 20
7.486511999999999
 42
0.052504
 10
4.431676
 20
7.482638000000001
 42
0.039655
 10
4.431255
 20
7.477349
 42
0.039655
 10
4.431676
 20
7.472060000000001
 42
0.052504
 10
4.43272
 20
7.468186
 42
0.095732
 10
4.434661
 20
7.465085
 42
0.208096
 10
4.436257
 20
7.46439
 42
0.208096
 10
4.437853
 20
7.465085
 42
0.095732
 10
4.439794
 20
7.468186
 42
0.052504
 10
4.440839
 20
7.472060000000001
 42
0.039655
 10
4.441259
 20
7.477349
 42
0.039655
 10
4.440839
 20
7.482638000000001
 42
0.052504
 10
4.439794
 20
7.486511999999999
 42
0.095732
 10
4.437853
 20
7.489614
 42
0.208096
  0
LWPOLYLINE
  5
454
330
18
100
AcDbEntity
  8
0
100
AcDbPolyline
 90
       16
 70
     1
 43
0.0
 10
4.048888
 20
7.303626
 42
0.208096
 10
4.047292
 20
7.302932000000001
 42
0.095732
 10
4.045351
 20
7.29983
 42
0.052504
 10
4.044307
 20
7.295957000000001
 42
0.039655
 10
4.043886
 20
7.290667
 42
0.039655
 10
4.044307
 20
7.285378
 42
0.052504
 10
4.045351
 20
7.281503999999999
 42
0.095732
 10
4.047292
 20
7.278403
 42
0.208096
 10
4.048888
 20
7.277709
 42
0.208096
 10
4.050484
 20
7.278403
 42
0.095732
 10
4.052425
 20
7.281503999999999
 42
0.052504
 10
4.05347
 20
7.285378
 42
0.039655
 10
4.05389
 20
7.290667
 42
0.039655
 10
4.05347
 20
7.295957000000001
 42
0.052504
 10
4.052425
 20
7.29983
 42
0.095732
 10
4.050484
 20
7.302932000000001
 42
0.208096
  0
LWPOLYLINE
  5
467
330
18
100
AcDbEntity
  8
0
100
AcDbPolyline
 90
       16
 70
     1
 43
0.0
 10
4.10195
 20
7.371449
 42
0.208096
 10
4.100354
 20
7.370753999999999
 42
0.095732
 10
4.098413
 20
7.367653
 42
0.052504
 10
4.097368
 20
7.363778999999999
 42
0.039655
 10
4.096948
 20
7.35849
 42
0.039655
 10
4.097368
 20
7.353200999999999
 42
0.052504
 10
4.098413
 20
7.349327000000001
 42
0.095732
 10
4.100354
 20
7.346226
 42
0.208096
 10
4.10195
 20
7.345530999999999
 42
0.208096
 10
4.103546
 20
7.346226
 42
0.095732
 10
4.105487
 20
7.349327000000001
 42
0.052504
 10
4.106531
 20
7.353200999999999
 42
0.039655
 10
4.106952
 20
7.35849
 42
0.039655
 10
4.106531
 20
7.363778999999999
 42
0.052504
 10
4.105487
 20
7.367653
 42
0.095732
 10
4.103546
 20
7.370753999999999
 42
0.208096
  0
LWPOLYLINE
  5
47A
330
18
100
AcDbEntity
  8
0
100
AcDbPolyline
 90
       16
 70
     1
 43
0.0
 10
4.344165
 20
7.428439
 42
0.208096
 10
4.342569
 20
7.427745
 42
0.095732
 10
4.340628
 20
7.424643
 42
0.052504
 10
4.339583
 20
7.420769
 42
0.039655
 10
4.339163
 20
7.415480000000001
 42
0.039655
 10
4.339583
 20
7.410191
 42
0.052504
 10
4.340628
 20
7.406317
 42
0.095732
 10
4.342569
 20
7.403216000000001
 42
0.208096
 10
4.344165
 20
7.402521000000001
 42
0.208096
 10
4.34576
 20
7.403216000000001
 42
0.095732
 10
4.347701
 20
7.406317
 42
0.052504
 10
4.348746
 20
7.410191
 42
0.039655
 10
4.349166
 20
7.415480000000001
 42
0.039655
 10
4.348746
 20
7.420769
 42
0.052504
 10
4.347701
 20
7.424643
 42
0.095732
 10
4.34576
 20
7.427745
 42
0.208096
  0
LINE
  5
48D
330
18
100
AcDbEntity
  8
0
100
AcDbLine
 10
4.32112
 20
7.331728999999999
 30
0.0
 11
4.387176999999999
 21
7.341742999999999
 31
0.0
  0
LINE
  5
48E
330
18
100
AcDbEntity
  8
0
100
AcDbLine
 10
4.481242
 20
7.295953999999999
 30
0.0
 11
4.522279
 21
7.305952
 31
0.0
  0
LINE
  5
48F
330
18
100
AcDbEntity
  8
0
100
AcDbLine
 10
4.449207
 20
7.262039
 30
0.0
 11
4.490243
 21
7.272036999999999
 31
0.0
  0
LINE
  5
490
330
18
100
AcDbEntity
  8
0
100
AcDbLine
 10
4.29608
 20
7.260935000000001
 30
0.0
 11
4.337117
 21
7.270932000000001
 31
0.0
  0
LINE
  5
491
330
18
100
AcDbEntity
  8
0
100
AcDbLine
 10
4.064878
 20
7.214917999999999
 30
0.0
 11
4.105914
 21
7.224914999999999
 31
0.0
  0
LINE
  5
492
330
18
100
AcDbEntity
  8
0
100
AcDbLine
 10
4.139939
 20
7.211980000000001
 30
0.0
 11
4.180975
 21
7.221977000000001
 31
0.0
  0
LINE
  5
493
330
18
100
AcDbEntity
  8
0
100
AcDbLine
 10
4.130967
 20
7.344554
 30
0.0
 11
4.130967
 21
7.315643
 31
0.0
  0
LINE
  5
494
330
18
100
AcDbEntity
  8
0
100
AcDbLine
 10
4.130967
 20
7.315643
 30
0.0
 11
4.151975
 21
7.310675999999999
 31
0.0
  0
LINE
  5
495
330
18
100
AcDbEntity
  8
0
100
AcDbLine
 10
4.151975
 20
7.341578
 30
0.0
 11
4.130967
 21
7.344554
 31
0.0
  0
LINE
  5
496
330
18
100
AcDbEntity
  8
0
100
AcDbLine
 10
4.189989
 20
7.244911
 30
0.0
 11
4.223014
 21
7.236959
 31
0.0
  0
LINE
  5
497
330
18
100
AcDbEntity
  8
0
100
AcDbLine
 10
4.223014
 20
7.236959
 30
0.0
 11
4.248036
 21
7.240964
 31
0.0
  0
LINE
  5
498
330
18
100
AcDbEntity
  8
0
100
AcDbLine
 10
4.211007
 20
7.247916
 30
0.0
 11
4.189989
 21
7.244911
 31
0.0
  0
LINE
  5
499
330
18
100
AcDbEntity
  8
0
100
AcDbLine
 10
1.936465
 20
6.201496
 30
0.0
 11
2.038944
 21
6.224626
 31
0.0
  0
LINE
  5
49A
330
18
100
AcDbEntity
  8
0
100
AcDbLine
 10
1.737678
 20
6.058936
 30
0.0
 11
1.826446
 21
6.078972
 31
0.0
  0
LWPOLYLINE
  5
49B
330
18
100
AcDbEntity
  8
0
100
AcDbPolyline
 90
        2
 70
     0
 43
0.0
 10
2.038944
 20
6.224626
 42
0.11145
 10
2.031779
 20
6.223008999999999
 42
0.106543
  0
LWPOLYLINE
  5
4A0
330
18
100
AcDbEntity
  8
0
100
AcDbPolyline
 90
        9
 70
     0
 43
0.0
 10
2.038944
 20
6.126933
 42
0.157701
 10
2.048713
 20
6.130093000000001
 42
0.106543
 10
2.058747
 20
6.14124
 42
0.071978
 10
2.064651
 20
6.156159
 42
0.058356
 10
2.066949
 20
6.175780000000001
 42
0.058356
 10
2.064651
 20
6.195401
 42
0.071978
 10
2.058747
 20
6.210319
 42
0.106543
 10
2.048713
 20
6.221466
 42
0.157701
 10
2.038944
 20
6.224626
 42
0.157701
  0
LWPOLYLINE
  5
4AC
330
18
100
AcDbEntity
  8
0
100
AcDbPolyline
 90
        2
 70
     0
 43
0.0
 10
1.785837
 20
6.607237
 10
1.859522
 20
6.171492
 42
0.229932
  0
LWPOLYLINE
  5
4B1
330
18
100
AcDbEntity
  8
0
100
AcDbPolyline
 90
        4
 70
     0
 43
0.0
 10
1.882234
 20
6.104072
 10
2.117604
 20
5.975714
 42
0.486122
 10
2.146506
 20
5.988129
 10
2.253124
 20
6.388716000000001
  0
CIRCLE
  5
4B8
330
18
100
AcDbEntity
  8
0
100
AcDbCircle
 10
2.101002
 20
6.251585
 30
0.0
 40
0.011009
  0
CIRCLE
  5
4B9
330
18
100
AcDbEntity
  8
0
100
AcDbCircle
 10
1.895864
 20
6.368072
 30
0.0
 40
0.011009
  0
LWPOLYLINE
  5
4BA
330
18
100
AcDbEntity
  8
0
100
AcDbPolyline
 90
       16
 70
     1
 43
0.0
 10
2.265236
 20
6.619536
 42
0.262047
 10
2.266402
 20
6.618141000000001
 42
0.07496
 10
2.27225
 20
6.616880999999999
 42
0.035661
 10
2.278819
 20
6.616939
 42
0.025955
 10
2.287761
 20
6.618125999999999
 42
0.025955
 10
2.296532
 20
6.620234
 42
0.035661
 10
2.302682
 20
6.622542
 42
0.07496
 10
2.307686
 20
6.625819
 42
0.262047
 10
2.308273
 20
6.627541000000001
 42
0.262047
 10
2.307107
 20
6.628936
 42
0.07496
 10
2.301259
 20
6.630195
 42
0.035661
 10
2.29469
 20
6.630137
 42
0.025955
 10
2.285748
 20
6.62895
 42
0.025955
 10
2.276977
 20
6.626842999999999
 42
0.035661
 10
2.270827
 20
6.624535000000001
 42
0.07496
 10
2.265823
 20
6.621257000000001
 42
0.262047
  0
LWPOLYLINE
  5
4CD
330
18
100
AcDbEntity
  8
0
100
AcDbPolyline
 90
       16
 70
     1
 43
0.0
 10
2.050052
 20
6.595460000000001
 42
0.262047
 10
2.051219
 20
6.594065
 42
0.07496
 10
2.057066
 20
6.592806
 42
0.035661
 10
2.063635
 20
6.592864
 42
0.025955
 10
2.072577
 20
6.594050999999999
 42
0.025955
 10
2.081348
 20
6.596158
 42
0.035661
 10
2.087499
 20
6.598466
 42
0.07496
 10
2.092503
 20
6.601744
 42
0.262047
 10
2.09309
 20
6.603464999999999
 42
0.262047
 10
2.091923
 20
6.60486
 42
0.07496
 10
2.086075
 20
6.60612
 42
0.035661
 10
2.079506
 20
6.606062
 42
0.025955
 10
2.070564
 20
6.604875
 42
0.025955
 10
2.061793
 20
6.602767
 42
0.035661
 10
2.055643
 20
6.600459
 42
0.07496
 10
2.050639
 20
6.597181
 42
0.262047
  0
LWPOLYLINE
  5
4E0
330
18
100
AcDbEntity
  8
0
100
AcDbPolyline
 90
       16
 70
     1
 43
0.0
 10
2.18066
 20
6.5963
 42
0.262047
 10
2.181535
 20
6.595253
 42
0.07496
 10
2.185921
 20
6.594309
 42
0.035661
 10
2.190847
 20
6.594352000000001
 42
0.025955
 10
2.197554
 20
6.595242999999999
 42
0.025955
 10
2.204132
 20
6.596823
 42
0.035661
 10
2.208745
 20
6.598553999999999
 42
0.07496
 10
2.212498
 20
6.601013000000001
 42
0.262047
 10
2.212938
 20
6.602303
 42
0.262047
 10
2.212063
 20
6.60335
 42
0.07496
 10
2.207677
 20
6.604294
 42
0.035661
 10
2.202751
 20
6.604251
 42
0.025955
 10
2.196044
 20
6.60336
 42
0.025955
 10
2.189466
 20
6.601780000000001
 42
0.035661
 10
2.184853
 20
6.600049
 42
0.07496
 10
2.1811
 20
6.597589999999999
 42
0.262047
  0
LWPOLYLINE
  5
4F3
330
18
100
AcDbEntity
  8
0
100
AcDbPolyline
 90
       16
 70
     1
 43
0.0
 10
2.315257
 20
6.543312
 42
0.262047
 10
2.31584
 20
6.542615000000001
 42
0.07496
 10
2.318764
 20
6.541985
 42
0.035661
 10
2.322048
 20
6.542014
 42
0.025955
 10
2.326519
 20
6.542607
 42
0.025955
 10
2.330905
 20
6.543661
 42
0.035661
 10
2.33398
 20
6.544815
 42
0.07496
 10
2.336482
 20
6.546454
 42
0.262047
 10
2.336775
 20
6.547315
 42
0.262047
 10
2.336192
 20
6.548012
 42
0.07496
 10
2.333268
 20
6.548642
 42
0.035661
 10
2.329984
 20
6.548613
 42
0.025955
 10
2.325513
 20
6.548019
 42
0.025955
 10
2.321127
 20
6.546966
 42
0.035661
 10
2.318052
 20
6.545812000000001
 42
0.07496
 10
2.31555
 20
6.544173000000001
 42
0.262047
  0
LWPOLYLINE
  5
506
330
18
100
AcDbEntity
  8
0
100
AcDbPolyline
 90
       16
 70
     1
 43
0.0
 10
2.512932
 20
6.588483
 42
0.262047
 10
2.513311
 20
6.588030000000001
 42
0.07496
 10
2.515211
 20
6.587621
 42
0.035661
 10
2.517346
 20
6.587639
 42
0.025955
 10
2.520252
 20
6.588025
 42
0.025955
 10
2.523103
 20
6.588710000000001
 42
0.035661
 10
2.525102
 20
6.589460000000001
 42
0.07496
 10
2.526728
 20
6.590525
 42
0.262047
 10
2.526919
 20
6.591085000000001
 42
0.262047
 10
2.52654
 20
6.591538000000001
 42
0.07496
 10
2.524639
 20
6.591948
 42
0.035661
 10
2.522504
 20
6.591929
 42
0.025955
 10
2.519598
 20
6.591543
 42
0.025955
 10
2.516748
 20
6.590858
 42
0.035661
 10
2.514749
 20
6.590108
 42
0.07496
 10
2.513122
 20
6.589042999999999
 42
0.262047
  0
LWPOLYLINE
  5
519
330
18
100
AcDbEntity
  8
0
100
AcDbPolyline
 90
       16
 70
     1
 43
0.0
 10
2.199639
 20
6.457676999999999
 42
0.262047
 10
2.200018
 20
6.457223
 42
0.07496
 10
2.201918
 20
6.456814
 42
0.035661
 10
2.204053
 20
6.456833000000001
 42
0.025955
 10
2.206959
 20
6.457219
 42
0.025955
 10
2.20981
 20
6.457904
 42
0.035661
 10
2.211809
 20
6.458654
 42
0.07496
 10
2.213435
 20
6.459719000000001
 42
0.262047
 10
2.213626
 20
6.460278
 42
0.262047
 10
2.213247
 20
6.460732
 42
0.07496
 10
2.211346
 20
6.461141000000001
 42
0.035661
 10
2.209211
 20
6.461122000000001
 42
0.025955
 10
2.206305
 20
6.460736
 42
0.025955
 10
2.203454
 20
6.460051
 42
0.035661
 10
2.201456
 20
6.459301
 42
0.07496
 10
2.199829
 20
6.458236
 42
0.262047
  0
LWPOLYLINE
  5
52C
330
18
100
AcDbEntity
  8
0
100
AcDbPolyline
 90
       16
 70
     1
 43
0.0
 10
2.126583
 20
6.474572
 42
0.262047
 10
2.126962
 20
6.474118
 42
0.07496
 10
2.128863
 20
6.473709
 42
0.035661
 10
2.130997
 20
6.473728
 42
0.025955
 10
2.133904
 20
6.474114
 42
0.025955
 10
2.136754
 20
6.474799
 42
0.035661
 10
2.138753
 20
6.475549
 42
0.07496
 10
2.140379
 20
6.476614
 42
0.262047
 10
2.14057
 20
6.477173000000001
 42
0.262047
 10
2.140191
 20
6.477627
 42
0.07496
 10
2.13829
 20
6.478036
 42
0.035661
 10
2.136155
 20
6.478017
 42
0.025955
 10
2.133249
 20
6.477631
 42
0.025955
 10
2.130399
 20
6.476947
 42
0.035661
 10
2.1284
 20
6.476196
 42
0.07496
 10
2.126774
 20
6.475131
 42
0.262047
  0
LWPOLYLINE
  5
53F
330
18
100
AcDbEntity
  8
0
100
AcDbPolyline
 90
       16
 70
     1
 43
0.0
 10
2.066535
 20
6.480511
 42
0.262047
 10
2.066914
 20
6.480057
 42
0.07496
 10
2.068815
 20
6.479648
 42
0.035661
 10
2.07095
 20
6.479667
 42
0.025955
 10
2.073856
 20
6.480053
 42
0.025955
 10
2.076706
 20
6.480738
 42
0.035661
 10
2.078705
 20
6.481488
 42
0.07496
 10
2.080331
 20
6.482553
 42
0.262047
 10
2.080522
 20
6.483112
 42
0.262047
 10
2.080143
 20
6.483566000000001
 42
0.07496
 10
2.078242
 20
6.483975
 42
0.035661
 10
2.076108
 20
6.483956
 42
0.025955
 10
2.073201
 20
6.483569999999999
 42
0.025955
 10
2.070351
 20
6.482886
 42
0.035661
 10
2.068352
 20
6.482135
 42
0.07496
 10
2.066726
 20
6.48107
 42
0.262047
  0
LWPOLYLINE
  5
552
330
18
100
AcDbEntity
  8
0
100
AcDbPolyline
 90
       16
 70
     1
 43
0.0
 10
1.921438
 20
6.566138000000001
 42
0.262047
 10
1.921817
 20
6.565684
 42
0.07496
 10
1.923718
 20
6.565275
 42
0.035661
 10
1.925853
 20
6.565294000000001
 42
0.025955
 10
1.928759
 20
6.56568
 42
0.025955
 10
1.931609
 20
6.566364999999999
 42
0.035661
 10
1.933608
 20
6.567114999999999
 42
0.07496
 10
1.935235
 20
6.56818
 42
0.262047
 10
1.935425
 20
6.568739
 42
0.262047
 10
1.935046
 20
6.569192999999999
 42
0.07496
 10
1.933146
 20
6.569602000000001
 42
0.035661
 10
1.931011
 20
6.569583000000001
 42
0.025955
 10
1.928105
 20
6.569197
 42
0.025955
 10
1.925254
 20
6.568511999999999
 42
0.035661
 10
1.923255
 20
6.567761999999999
 42
0.07496
 10
1.921629
 20
6.566697000000001
 42
0.262047
  0
LWPOLYLINE
  5
565
330
18
100
AcDbEntity
  8
0
100
AcDbPolyline
 90
       16
 70
     1
 43
0.0
 10
2.009515
 20
6.580155
 42
0.262047
 10
2.009894
 20
6.579702
 42
0.07496
 10
2.011794
 20
6.579292999999999
 42
0.035661
 10
2.013929
 20
6.579311
 42
0.025955
 10
2.016835
 20
6.579697
 42
0.025955
 10
2.019686
 20
6.580382000000001
 42
0.035661
 10
2.021685
 20
6.581132000000001
 42
0.07496
 10
2.023311
 20
6.582198
 42
0.262047
 10
2.023502
 20
6.582757000000001
 42
0.262047
 10
2.023123
 20
6.58321
 42
0.07496
 10
2.021222
 20
6.58362
 42
0.035661
 10
2.019087
 20
6.583601
 42
0.025955
 10
2.016181
 20
6.583214999999999
 42
0.025955
 10
2.01333
 20
6.58253
 42
0.035661
 10
2.011332
 20
6.58178
 42
0.07496
 10
2.009705
 20
6.580715
 42
0.262047
  0
LWPOLYLINE
  5
578
330
18
100
AcDbEntity
  8
0
100
AcDbPolyline
 90
       16
 70
     1
 43
0.0
 10
2.019535
 20
6.62502
 42
0.262047
 10
2.019914
 20
6.624567
 42
0.07496
 10
2.021814
 20
6.624158
 42
0.035661
 10
2.023949
 20
6.624175999999999
 42
0.025955
 10
2.026855
 20
6.624561999999999
 42
0.025955
 10
2.029706
 20
6.625247
 42
0.035661
 10
2.031705
 20
6.625997
 42
0.07496
 10
2.033331
 20
6.627063000000001
 42
0.262047
 10
2.033522
 20
6.627622
 42
0.262047
 10
2.033143
 20
6.628075
 42
0.07496
 10
2.031242
 20
6.628485
 42
0.035661
 10
2.029107
 20
6.628466
 42
0.025955
 10
2.026201
 20
6.628080000000001
 42
0.025955
 10
2.023351
 20
6.627395
 42
0.035661
 10
2.021352
 20
6.626645
 42
0.07496
 10
2.019726
 20
6.62558
 42
0.262047
  0
LWPOLYLINE
  5
58B
330
18
100
AcDbEntity
  8
0
100
AcDbPolyline
 90
       16
 70
     1
 43
0.0
 10
2.134629
 20
6.621114
 42
0.262047
 10
2.135008
 20
6.620660000000001
 42
0.07496
 10
2.136908
 20
6.620251
 42
0.035661
 10
2.139043
 20
6.62027
 42
0.025955
 10
2.141949
 20
6.620655999999999
 42
0.025955
 10
2.1448
 20
6.621341
 42
0.035661
 10
2.146799
 20
6.622091
 42
0.07496
 10
2.148425
 20
6.623156
 42
0.262047
 10
2.148616
 20
6.623715
 42
0.262047
 10
2.148237
 20
6.624169
 42
0.07496
 10
2.146336
 20
6.624578
 42
0.035661
 10
2.144201
 20
6.624559
 42
0.025955
 10
2.141295
 20
6.624173
 42
0.025955
 10
2.138445
 20
6.623488
 42
0.035661
 10
2.136446
 20
6.622738000000001
 42
0.07496
 10
2.134819
 20
6.621673
 42
0.262047
  0
LWPOLYLINE
  5
59E
330
18
100
AcDbEntity
  8
0
100
AcDbPolyline
 90
       16
 70
     1
 43
0.0
 10
2.295251
 20
6.583172
 42
0.262047
 10
2.295834
 20
6.582474
 42
0.07496
 10
2.298758
 20
6.581845
 42
0.035661
 10
2.302043
 20
6.581874000000001
 42
0.025955
 10
2.306513
 20
6.582466999999999
 42
0.025955
 10
2.310899
 20
6.583521000000001
 42
0.035661
 10
2.313974
 20
6.584675
 42
0.07496
 10
2.316476
 20
6.586314
 42
0.262047
 10
2.31677
 20
6.587174
 42
0.262047
 10
2.316186
 20
6.587872
 42
0.07496
 10
2.313262
 20
6.588500999999999
 42
0.035661
 10
2.309978
 20
6.588473
 42
0.025955
 10
2.305507
 20
6.587878999999999
 42
0.025955
 10
2.301121
 20
6.586825
 42
0.035661
 10
2.298046
 20
6.585671000000001
 42
0.07496
 10
2.295544
 20
6.584032000000001
 42
0.262047
  0
LWPOLYLINE
  5
5B1
330
18
100
AcDbEntity
  8
0
100
AcDbPolyline
 90
       16
 70
     1
 43
0.0
 10
2.141138
 20
6.111066
 42
0.262047
 10
2.141651
 20
6.11136
 42
0.07496
 10
2.142384
 20
6.113161
 42
0.035661
 10
2.142736
 20
6.115267
 42
0.025955
 10
2.142861
 20
6.118196
 42
0.025955
 10
2.142681
 20
6.121122
 42
0.035661
 10
2.142289
 20
6.123221
 42
0.07496
 10
2.141523
 20
6.125007
 42
0.262047
 10
2.141005
 20
6.125292
 42
0.262047
 10
2.140493
 20
6.124998000000001
 42
0.07496
 10
2.13976
 20
6.123197
 42
0.035661
 10
2.139407
 20
6.121091000000001
 42
0.025955
 10
2.139283
 20
6.118162
 42
0.025955
 10
2.139462
 20
6.115236
 42
0.035661
 10
2.139854
 20
6.113137
 42
0.07496
 10
2.140621
 20
6.111351
 42
0.262047
  0
LWPOLYLINE
  5
5C4
330
18
100
AcDbEntity
  8
0
100
AcDbPolyline
 90
       16
 70
     1
 43
0.0
 10
2.131111
 20
6.040283000000001
 42
0.262047
 10
2.131623
 20
6.040577
 42
0.07496
 10
2.132357
 20
6.042378
 42
0.035661
 10
2.132709
 20
6.044484
 42
0.025955
 10
2.132833
 20
6.047413
 42
0.025955
 10
2.132654
 20
6.050339
 42
0.035661
 10
2.132262
 20
6.052438
 42
0.07496
 10
2.131496
 20
6.054224
 42
0.262047
 10
2.130978
 20
6.054509
 42
0.262047
 10
2.130466
 20
6.054215
 42
0.07496
 10
2.129732
 20
6.052414
 42
0.035661
 10
2.12938
 20
6.050308
 42
0.025955
 10
2.129256
 20
6.047379
 42
0.025955
 10
2.129435
 20
6.044453
 42
0.035661
 10
2.129827
 20
6.042354
 42
0.07496
 10
2.130593
 20
6.040568
 42
0.262047
  0
LWPOLYLINE
  5
5D7
330
18
100
AcDbEntity
  8
0
100
AcDbPolyline
 90
       16
 70
     1
 43
0.0
 10
2.113092
 20
6.025317
 42
0.262047
 10
2.113605
 20
6.025612000000001
 42
0.07496
 10
2.114338
 20
6.027413
 42
0.035661
 10
2.11469
 20
6.029518
 42
0.025955
 10
2.114815
 20
6.032447
 42
0.025955
 10
2.114635
 20
6.035374
 42
0.035661
 10
2.114244
 20
6.037472
 42
0.07496
 10
2.113477
 20
6.039259
 42
0.262047
 10
2.112959
 20
6.039544
 42
0.262047
 10
2.112447
 20
6.039249
 42
0.07496
 10
2.111714
 20
6.037449
 42
0.035661
 10
2.111361
 20
6.035343
 42
0.025955
 10
2.111237
 20
6.032414
 42
0.025955
 10
2.111416
 20
6.029488
 42
0.035661
 10
2.111808
 20
6.027389
 42
0.07496
 10
2.112575
 20
6.025601999999999
 42
0.262047
  0
LWPOLYLINE
  5
5EA
330
18
100
AcDbEntity
  8
0
100
AcDbPolyline
 90
       16
 70
     1
 43
0.0
 10
2.078064
 20
6.02629
 42
0.262047
 10
2.078576
 20
6.026584
 42
0.07496
 10
2.079309
 20
6.028385
 42
0.035661
 10
2.079661
 20
6.030491000000001
 42
0.025955
 10
2.079786
 20
6.03342
 42
0.025955
 10
2.079606
 20
6.036346
 42
0.035661
 10
2.079215
 20
6.038444999999999
 42
0.07496
 10
2.078448
 20
6.040231
 42
0.262047
 10
2.07793
 20
6.040516
 42
0.262047
 10
2.077418
 20
6.040222
 42
0.07496
 10
2.076685
 20
6.038421
 42
0.035661
 10
2.076333
 20
6.036315
 42
0.025955
 10
2.076208
 20
6.033386
 42
0.025955
 10
2.076388
 20
6.03046
 42
0.035661
 10
2.076779
 20
6.028361
 42
0.07496
 10
2.077546
 20
6.026575
 42
0.262047
  0
LWPOLYLINE
  5
5FD
330
18
100
AcDbEntity
  8
0
100
AcDbPolyline
 90
       16
 70
     1
 43
0.0
 10
2.061064
 20
6.081104
 42
0.262047
 10
2.061577
 20
6.081399
 42
0.07496
 10
2.06231
 20
6.0832
 42
0.035661
 10
2.062662
 20
6.085305
 42
0.025955
 10
2.062787
 20
6.088234
 42
0.025955
 10
2.062607
 20
6.09116
 42
0.035661
 10
2.062216
 20
6.093259
 42
0.07496
 10
2.061449
 20
6.095046
 42
0.262047
 10
2.060931
 20
6.095331
 42
0.262047
 10
2.060419
 20
6.095036
 42
0.07496
 10
2.059686
 20
6.093236
 42
0.035661
 10
2.059333
 20
6.091130000000001
 42
0.025955
 10
2.059209
 20
6.088201000000001
 42
0.025955
 10
2.059388
 20
6.085275
 42
0.035661
 10
2.05978
 20
6.083176
 42
0.07496
 10
2.060547
 20
6.081389
 42
0.262047
  0
LWPOLYLINE
  5
610
330
18
100
AcDbEntity
  8
0
100
AcDbPolyline
 90
       16
 70
     1
 43
0.0
 10
2.035037
 20
6.059155000000001
 42
0.262047
 10
2.035549
 20
6.05945
 42
0.07496
 10
2.036282
 20
6.061251
 42
0.035661
 10
2.036635
 20
6.063356
 42
0.025955
 10
2.036759
 20
6.066285
 42
0.025955
 10
2.03658
 20
6.069212
 42
0.035661
 10
2.036188
 20
6.07131
 42
0.07496
 10
2.035421
 20
6.073097
 42
0.262047
 10
2.034904
 20
6.073382
 42
0.262047
 10
2.034391
 20
6.073087
 42
0.07496
 10
2.033658
 20
6.071287
 42
0.035661
 10
2.033306
 20
6.069181
 42
0.025955
 10
2.033181
 20
6.066252
 42
0.025955
 10
2.033361
 20
6.063326
 42
0.035661
 10
2.033753
 20
6.061227
 42
0.07496
 10
2.034519
 20
6.05944
 42
0.262047
  0
LWPOLYLINE
  5
623
330
18
100
AcDbEntity
  8
0
100
AcDbPolyline
 90
       16
 70
     1
 43
0.0
 10
2.032046
 20
6.102018
 42
0.262047
 10
2.032558
 20
6.102312
 42
0.07496
 10
2.033291
 20
6.104113
 42
0.035661
 10
2.033644
 20
6.106219
 42
0.025955
 10
2.033768
 20
6.109148
 42
0.025955
 10
2.033589
 20
6.112074
 42
0.035661
 10
2.033197
 20
6.114173
 42
0.07496
 10
2.03243
 20
6.115958999999999
 42
0.262047
 10
2.031913
 20
6.116244
 42
0.262047
 10
2.0314
 20
6.11595
 42
0.07496
 10
2.030667
 20
6.114148999999999
 42
0.035661
 10
2.030315
 20
6.112043
 42
0.025955
 10
2.03019
 20
6.109114
 42
0.025955
 10
2.03037
 20
6.106188
 42
0.035661
 10
2.030761
 20
6.104089
 42
0.07496
 10
2.031528
 20
6.102303
 42
0.262047
  0
LWPOLYLINE
  5
636
330
18
100
AcDbEntity
  8
0
100
AcDbPolyline
 90
       16
 70
     1
 43
0.0
 10
2.008021
 20
6.083061
 42
0.262047
 10
2.008533
 20
6.083355
 42
0.07496
 10
2.009267
 20
6.085156
 42
0.035661
 10
2.009619
 20
6.087262
 42
0.025955
 10
2.009743
 20
6.090191
 42
0.025955
 10
2.009564
 20
6.093117
 42
0.035661
 10
2.009172
 20
6.095216000000001
 42
0.07496
 10
2.008406
 20
6.097002
 42
0.262047
 10
2.007888
 20
6.097287000000001
 42
0.262047
 10
2.007376
 20
6.096993
 42
0.07496
 10
2.006642
 20
6.095192
 42
0.035661
 10
2.00629
 20
6.093086
 42
0.025955
 10
2.006166
 20
6.090157
 42
0.025955
 10
2.006345
 20
6.087231
 42
0.035661
 10
2.006737
 20
6.085132
 42
0.07496
 10
2.007503
 20
6.083346
 42
0.262047
  0
LWPOLYLINE
  5
649
330
18
100
AcDbEntity
  8
0
100
AcDbPolyline
 90
       16
 70
     1
 43
0.0
 10
2.004009
 20
6.051158999999999
 42
0.262047
 10
2.004522
 20
6.051454
 42
0.07496
 10
2.005255
 20
6.053254
 42
0.035661
 10
2.005607
 20
6.05536
 42
0.025955
 10
2.005732
 20
6.058289
 42
0.025955
 10
2.005552
 20
6.061215
 42
0.035661
 10
2.005161
 20
6.063314
 42
0.07496
 10
2.004394
 20
6.0651
 42
0.262047
 10
2.003876
 20
6.065385
 42
0.262047
 10
2.003364
 20
6.065091000000001
 42
0.07496
 10
2.002631
 20
6.06329
 42
0.035661
 10
2.002278
 20
6.061184
 42
0.025955
 10
2.002154
 20
6.058255
 42
0.025955
 10
2.002333
 20
6.055329
 42
0.035661
 10
2.002725
 20
6.053230999999999
 42
0.07496
 10
2.003492
 20
6.051444
 42
0.262047
  0
LWPOLYLINE
  5
65C
330
18
100
AcDbEntity
  8
0
100
AcDbPolyline
 90
       16
 70
     1
 43
0.0
 10
1.884025
 20
6.482709
 42
0.262047
 10
1.884538
 20
6.483003
 42
0.07496
 10
1.885271
 20
6.484804000000001
 42
0.035661
 10
1.885623
 20
6.48691
 42
0.025955
 10
1.885748
 20
6.489839
 42
0.025955
 10
1.885568
 20
6.492765
 42
0.035661
 10
1.885177
 20
6.494864
 42
0.07496
 10
1.88441
 20
6.49665
 42
0.262047
 10
1.883892
 20
6.496935
 42
0.262047
 10
1.88338
 20
6.496641
 42
0.07496
 10
1.882647
 20
6.49484
 42
0.035661
 10
1.882295
 20
6.492734
 42
0.025955
 10
1.88217
 20
6.489805000000001
 42
0.025955
 10
1.882349
 20
6.486879
 42
0.035661
 10
1.882741
 20
6.484780000000001
 42
0.07496
 10
1.883508
 20
6.482994000000001
 42
0.262047
  0
LWPOLYLINE
  5
66F
330
18
100
AcDbEntity
  8
0
100
AcDbPolyline
 90
       16
 70
     1
 43
0.0
 10
1.973084
 20
6.426948
 42
0.262047
 10
1.973596
 20
6.427243
 42
0.07496
 10
1.974329
 20
6.429043
 42
0.035661
 10
1.974682
 20
6.431149
 42
0.025955
 10
1.974806
 20
6.434078
 42
0.025955
 10
1.974627
 20
6.437004
 42
0.035661
 10
1.974235
 20
6.439103
 42
0.07496
 10
1.973469
 20
6.440889
 42
0.262047
 10
1.972951
 20
6.441174
 42
0.262047
 10
1.972438
 20
6.44088
 42
0.07496
 10
1.971705
 20
6.439079
 42
0.035661
 10
1.971353
 20
6.436973
 42
0.025955
 10
1.971228
 20
6.434044
 42
0.025955
 10
1.971408
 20
6.431118
 42
0.035661
 10
1.9718
 20
6.429019
 42
0.07496
 10
1.972566
 20
6.427233
 42
0.262047
  0
LWPOLYLINE
  5
682
330
18
100
AcDbEntity
  8
0
100
AcDbPolyline
 90
       16
 70
     1
 43
0.0
 10
1.90098
 20
6.260424
 42
0.262047
 10
1.901492
 20
6.260719
 42
0.07496
 10
1.902226
 20
6.262519
 42
0.035661
 10
1.902578
 20
6.264625
 42
0.025955
 10
1.902702
 20
6.267554000000001
 42
0.025955
 10
1.902523
 20
6.27048
 42
0.035661
 10
1.902131
 20
6.272579
 42
0.07496
 10
1.901365
 20
6.274366000000001
 42
0.262047
 10
1.900847
 20
6.274651
 42
0.262047
 10
1.900335
 20
6.274356
 42
0.07496
 10
1.899602
 20
6.272555000000001
 42
0.035661
 10
1.899249
 20
6.27045
 42
0.025955
 10
1.899125
 20
6.267521
 42
0.025955
 10
1.899304
 20
6.264594000000001
 42
0.035661
 10
1.899696
 20
6.262496
 42
0.07496
 10
1.900462
 20
6.260708999999999
 42
0.262047
  0
LWPOLYLINE
  5
695
330
18
100
AcDbEntity
  8
0
100
AcDbPolyline
 90
       16
 70
     1
 43
0.0
 10
1.922987
 20
6.218572
 42
0.262047
 10
1.923499
 20
6.218867
 42
0.07496
 10
1.924233
 20
6.220667
 42
0.035661
 10
1.924585
 20
6.222773
 42
0.025955
 10
1.924709
 20
6.225702
 42
0.025955
 10
1.92453
 20
6.228628
 42
0.035661
 10
1.924138
 20
6.230727
 42
0.07496
 10
1.923372
 20
6.232514
 42
0.262047
 10
1.922854
 20
6.232799
 42
0.262047
 10
1.922342
 20
6.232504000000001
 42
0.07496
 10
1.921608
 20
6.230703
 42
0.035661
 10
1.921256
 20
6.228598000000001
 42
0.025955
 10
1.921132
 20
6.225669
 42
0.025955
 10
1.921311
 20
6.222742
 42
0.035661
 10
1.921703
 20
6.220644
 42
0.07496
 10
1.922469
 20
6.218857
 42
0.262047
  0
LWPOLYLINE
  5
6A8
330
18
100
AcDbEntity
  8
0
100
AcDbPolyline
 90
       16
 70
     1
 43
0.0
 10
1.98705
 20
6.254503
 42
0.262047
 10
1.987562
 20
6.254798
 42
0.07496
 10
1.988295
 20
6.256599
 42
0.035661
 10
1.988647
 20
6.258704
 42
0.025955
 10
1.988772
 20
6.261633
 42
0.025955
 10
1.988592
 20
6.26456
 42
0.035661
 10
1.988201
 20
6.266658000000001
 42
0.07496
 10
1.987434
 20
6.268445
 42
0.262047
 10
1.986916
 20
6.268730000000001
 42
0.262047
 10
1.986404
 20
6.268435
 42
0.07496
 10
1.985671
 20
6.266635
 42
0.035661
 10
1.985319
 20
6.264529000000001
 42
0.025955
 10
1.985194
 20
6.2616
 42
0.025955
 10
1.985374
 20
6.258674
 42
0.035661
 10
1.985765
 20
6.256575
 42
0.07496
 10
1.986532
 20
6.254788
 42
0.262047
  0
LWPOLYLINE
  5
6BB
330
18
100
AcDbEntity
  8
0
100
AcDbPolyline
 90
       16
 70
     1
 43
0.0
 10
1.998069
 20
6.293387999999999
 42
0.262047
 10
1.998581
 20
6.293683000000001
 42
0.07496
 10
1.999314
 20
6.295483
 42
0.035661
 10
1.999667
 20
6.297589
 42
0.025955
 10
1.999791
 20
6.300518
 42
0.025955
 10
1.999612
 20
6.303444
 42
0.035661
 10
1.99922
 20
6.305543
 42
0.07496
 10
1.998453
 20
6.30733
 42
0.262047
 10
1.997936
 20
6.307615
 42
0.262047
 10
1.997423
 20
6.30732
 42
0.07496
 10
1.99669
 20
6.305519
 42
0.035661
 10
1.996338
 20
6.303414
 42
0.025955
 10
1.996213
 20
6.300485
 42
0.025955
 10
1.996393
 20
6.297558
 42
0.035661
 10
1.996785
 20
6.29546
 42
0.07496
 10
1.997551
 20
6.293673
 42
0.262047
  0
LWPOLYLINE
  5
6CE
330
18
100
AcDbEntity
  8
0
100
AcDbPolyline
 90
       16
 70
     1
 43
0.0
 10
2.022097
 20
6.324307
 42
0.262047
 10
2.022609
 20
6.324602
 42
0.07496
 10
2.023342
 20
6.326402
 42
0.035661
 10
2.023695
 20
6.328508
 42
0.025955
 10
2.023819
 20
6.331437
 42
0.025955
 10
2.02364
 20
6.334363
 42
0.035661
 10
2.023248
 20
6.336462
 42
0.07496
 10
2.022482
 20
6.338248999999999
 42
0.262047
 10
2.021964
 20
6.338533999999999
 42
0.262047
 10
2.021451
 20
6.338239
 42
0.07496
 10
2.020718
 20
6.336437999999999
 42
0.035661
 10
2.020366
 20
6.334333
 42
0.025955
 10
2.020242
 20
6.331404
 42
0.025955
 10
2.020421
 20
6.328478
 42
0.035661
 10
2.020813
 20
6.326379
 42
0.07496
 10
2.021579
 20
6.324592
 42
0.262047
  0
LWPOLYLINE
  5
6E1
330
18
100
AcDbEntity
  8
0
100
AcDbPolyline
 90
       16
 70
     1
 43
0.0
 10
2.040116
 20
6.338276000000001
 42
0.262047
 10
2.040628
 20
6.33857
 42
0.07496
 10
2.041361
 20
6.340371
 42
0.035661
 10
2.041713
 20
6.342477
 42
0.025955
 10
2.041838
 20
6.345406
 42
0.025955
 10
2.041658
 20
6.348332
 42
0.035661
 10
2.041267
 20
6.350431
 42
0.07496
 10
2.0405
 20
6.352217
 42
0.262047
 10
2.039982
 20
6.352501999999999
 42
0.262047
 10
2.03947
 20
6.352208
 42
0.07496
 10
2.038737
 20
6.350407
 42
0.035661
 10
2.038385
 20
6.348301
 42
0.025955
 10
2.03826
 20
6.345372
 42
0.025955
 10
2.03844
 20
6.342446
 42
0.035661
 10
2.038831
 20
6.340347
 42
0.07496
 10
2.039598
 20
6.338561
 42
0.262047
  0
LWPOLYLINE
  5
6F4
330
18
100
AcDbEntity
  8
0
100
AcDbPolyline
 90
       16
 70
     1
 43
0.0
 10
2.075151
 20
6.364218
 42
0.262047
 10
2.075664
 20
6.364513
 42
0.07496
 10
2.076397
 20
6.366313
 42
0.035661
 10
2.076749
 20
6.368419
 42
0.025955
 10
2.076874
 20
6.371348
 42
0.025955
 10
2.076694
 20
6.374274
 42
0.035661
 10
2.076303
 20
6.376373
 42
0.07496
 10
2.075536
 20
6.37816
 42
0.262047
 10
2.075018
 20
6.378445
 42
0.262047
 10
2.074506
 20
6.37815
 42
0.07496
 10
2.073773
 20
6.376348999999999
 42
0.035661
 10
2.073421
 20
6.374244
 42
0.025955
 10
2.073296
 20
6.371315
 42
0.025955
 10
2.073475
 20
6.368389
 42
0.035661
 10
2.073867
 20
6.36629
 42
0.07496
 10
2.074634
 20
6.364503
 42
0.262047
  0
LWPOLYLINE
  5
707
330
18
100
AcDbEntity
  8
0
100
AcDbPolyline
 90
       16
 70
     1
 43
0.0
 10
2.020111
 20
6.384117
 42
0.262047
 10
2.020624
 20
6.384411
 42
0.07496
 10
2.021357
 20
6.386212
 42
0.035661
 10
2.021709
 20
6.388318
 42
0.025955
 10
2.021834
 20
6.391247
 42
0.025955
 10
2.021654
 20
6.394173
 42
0.035661
 10
2.021263
 20
6.396271
 42
0.07496
 10
2.020496
 20
6.398058
 42
0.262047
 10
2.019978
 20
6.398343
 42
0.262047
 10
2.019466
 20
6.398048
 42
0.07496
 10
2.018733
 20
6.396248
 42
0.035661
 10
2.01838
 20
6.394142
 42
0.025955
 10
2.018256
 20
6.391213
 42
0.025955
 10
2.018435
 20
6.388287
 42
0.035661
 10
2.018827
 20
6.386188
 42
0.07496
 10
2.019594
 20
6.384402
 42
0.262047
  0
LWPOLYLINE
  5
71A
330
18
100
AcDbEntity
  8
0
100
AcDbPolyline
 90
       16
 70
     1
 43
0.0
 10
2.062156
 20
6.421029
 42
0.262047
 10
2.062668
 20
6.421323999999999
 42
0.07496
 10
2.063401
 20
6.423125
 42
0.035661
 10
2.063753
 20
6.42523
 42
0.025955
 10
2.063878
 20
6.428159
 42
0.025955
 10
2.063699
 20
6.431085
 42
0.035661
 10
2.063307
 20
6.433184
 42
0.07496
 10
2.06254
 20
6.434971
 42
0.262047
 10
2.062023
 20
6.435256
 42
0.262047
 10
2.06151
 20
6.434961
 42
0.07496
 10
2.060777
 20
6.433161
 42
0.035661
 10
2.060425
 20
6.431055000000001
 42
0.025955
 10
2.0603
 20
6.428126
 42
0.025955
 10
2.06048
 20
6.4252
 42
0.035661
 10
2.060871
 20
6.423101
 42
0.07496
 10
2.061638
 20
6.421314
 42
0.262047
  0
LWPOLYLINE
  5
72D
330
18
100
AcDbEntity
  8
0
100
AcDbPolyline
 90
       16
 70
     1
 43
0.0
 10
2.139198
 20
6.342333
 42
0.262047
 10
2.139711
 20
6.342626999999999
 42
0.07496
 10
2.140444
 20
6.344428
 42
0.035661
 10
2.140796
 20
6.346533999999999
 42
0.025955
 10
2.140921
 20
6.349463
 42
0.025955
 10
2.140741
 20
6.352389
 42
0.035661
 10
2.14035
 20
6.354487000000001
 42
0.07496
 10
2.139583
 20
6.356274
 42
0.262047
 10
2.139065
 20
6.356559
 42
0.262047
 10
2.138553
 20
6.356264
 42
0.07496
 10
2.13782
 20
6.354464
 42
0.035661
 10
2.137467
 20
6.352358000000001
 42
0.025955
 10
2.137343
 20
6.349429
 42
0.025955
 10
2.137522
 20
6.346503
 42
0.035661
 10
2.137914
 20
6.344404
 42
0.07496
 10
2.138681
 20
6.342618
 42
0.262047
  0
LWPOLYLINE
  5
740
330
18
100
AcDbEntity
  8
0
100
AcDbPolyline
 90
       16
 70
     1
 43
0.0
 10
2.177209
 20
6.265601999999999
 42
0.262047
 10
2.177722
 20
6.265897
 42
0.07496
 10
2.178455
 20
6.267697
 42
0.035661
 10
2.178807
 20
6.269803
 42
0.025955
 10
2.178931
 20
6.272732
 42
0.025955
 10
2.178752
 20
6.275658
 42
0.035661
 10
2.17836
 20
6.277757
 42
0.07496
 10
2.177594
 20
6.279544000000001
 42
0.262047
 10
2.177076
 20
6.279829
 42
0.262047
 10
2.176564
 20
6.279534
 42
0.07496
 10
2.175831
 20
6.277733000000001
 42
0.035661
 10
2.175478
 20
6.275628
 42
0.025955
 10
2.175354
 20
6.272698999999999
 42
0.025955
 10
2.175533
 20
6.269772
 42
0.035661
 10
2.175925
 20
6.267674
 42
0.07496
 10
2.176691
 20
6.265887
 42
0.262047
  0
LWPOLYLINE
  5
753
330
18
100
AcDbEntity
  8
0
100
AcDbPolyline
 90
       16
 70
     1
 43
0.0
 10
2.133175
 20
6.273546
 42
0.262047
 10
2.133687
 20
6.273841
 42
0.07496
 10
2.13442
 20
6.275641
 42
0.035661
 10
2.134773
 20
6.277747
 42
0.025955
 10
2.134897
 20
6.280676000000001
 42
0.025955
 10
2.134718
 20
6.283601999999999
 42
0.035661
 10
2.134326
 20
6.285701
 42
0.07496
 10
2.13356
 20
6.287488
 42
0.262047
 10
2.133042
 20
6.287773000000001
 42
0.262047
 10
2.132529
 20
6.287478
 42
0.07496
 10
2.131796
 20
6.285677
 42
0.035661
 10
2.131444
 20
6.283572
 42
0.025955
 10
2.13132
 20
6.280643
 42
0.025955
 10
2.131499
 20
6.277716000000001
 42
0.035661
 10
2.131891
 20
6.275618
 42
0.07496
 10
2.132657
 20
6.273831
 42
0.262047
  0
CIRCLE
  5
766
330
18
100
AcDbEntity
  8
0
100
AcDbCircle
 10
1.791538
 20
5.467847
 30
0.0
 40
0.001413
  0
CIRCLE
  5
767
330
18
100
AcDbEntity
  8
0
100
AcDbCircle
 10
1.837529
 20
5.292435
 30
0.0
 40
0.001413
  0
CIRCLE
  5
768
330
18
100
AcDbEntity
  8
0
100
AcDbCircle
 10
1.813453
 20
5.079093
 30
0.0
 40
0.001413
  0
CIRCLE
  5
769
330
18
100
AcDbEntity
  8
0
100
AcDbCircle
 10
1.992592
 20
5.048316000000001
 30
0.0
 40
0.001413
  0
CIRCLE
  5
76A
330
18
100
AcDbEntity
  8
0
100
AcDbCircle
 10
1.82542
 20
4.919606
 30
0.0
 40
0.001413
  0
CIRCLE
  5
76B
330
18
100
AcDbEntity
  8
0
100
AcDbCircle
 10
1.962507
 20
4.823008
 30
0.0
 40
0.001413
  0
CIRCLE
  5
76C
330
18
100
AcDbEntity
  8
0
100
AcDbCircle
 10
2.027555
 20
4.801123000000001
 30
0.0
 40
0.001413
  0
CIRCLE
  5
76D
330
18
100
AcDbEntity
  8
0
100
AcDbCircle
 10
2.102648
 20
4.91681
 30
0.0
 40
0.001413
  0
CIRCLE
  5
76E
330
18
100
AcDbEntity
  8
0
100
AcDbCircle
 10
2.111637
 20
4.848033999999999
 30
0.0
 40
0.001413
  0
CIRCLE
  5
76F
330
18
100
AcDbEntity
  8
0
100
AcDbCircle
 10
2.081598
 20
4.794183
 30
0.0
 40
0.001413
  0
CIRCLE
  5
770
330
18
100
AcDbEntity
  8
0
100
AcDbCircle
 10
2.053564
 20
4.755287
 30
0.0
 40
0.001413
  0
CIRCLE
  5
771
330
18
100
AcDbEntity
  8
0
100
AcDbCircle
 10
2.033535
 20
4.709418
 30
0.0
 40
0.001413
  0
CIRCLE
  5
772
330
18
100
AcDbEntity
  8
0
100
AcDbCircle
 10
2.132603
 20
4.657651
 30
0.0
 40
0.001413
  0
CIRCLE
  5
773
330
18
100
AcDbEntity
  8
0
100
AcDbCircle
 10
2.140592
 20
4.588875
 30
0.0
 40
0.001413
  0
CIRCLE
  5
774
330
18
100
AcDbEntity
  8
0
100
AcDbCircle
 10
2.087542
 20
4.5689
 30
0.0
 40
0.001413
  0
CIRCLE
  5
775
330
18
100
AcDbEntity
  8
0
100
AcDbCircle
 10
2.220653
 20
4.572981
 30
0.0
 40
0.001413
  0
CIRCLE
  5
776
330
18
100
AcDbEntity
  8
0
100
AcDbCircle
 10
2.185609
 20
4.51514
 30
0.0
 40
0.001413
  0
CIRCLE
  5
777
330
18
100
AcDbEntity
  8
0
100
AcDbCircle
 10
2.269687
 20
4.547098
 30
0.0
 40
0.001413
  0
CIRCLE
  5
778
330
18
100
AcDbEntity
  8
0
100
AcDbCircle
 10
2.298702
 20
4.513225
 30
0.0
 40
0.001413
  0
CIRCLE
  5
779
330
18
100
AcDbEntity
  8
0
100
AcDbCircle
 10
2.261664
 20
4.485288
 30
0.0
 40
0.001413
  0
CIRCLE
  5
77A
330
18
100
AcDbEntity
  8
0
100
AcDbCircle
 10
2.285672
 20
4.443437
 30
0.0
 40
0.001413
  0
CIRCLE
  5
77B
330
18
100
AcDbEntity
  8
0
100
AcDbCircle
 10
2.217696
 20
4.742443
 30
0.0
 40
0.001413
  0
CIRCLE
  5
77C
330
18
100
AcDbEntity
  8
0
100
AcDbCircle
 10
2.266764
 20
4.845152
 30
0.0
 40
0.001413
  0
CIRCLE
  5
77D
330
18
100
AcDbEntity
  8
0
100
AcDbCircle
 10
2.258776
 20
4.914926
 30
0.0
 40
0.001413
  0
CIRCLE
  5
77E
330
18
100
AcDbEntity
  8
0
100
AcDbCircle
 10
2.629993
 20
4.581243
 30
0.0
 40
0.001413
  0
CIRCLE
  5
77F
330
18
100
AcDbEntity
  8
0
100
AcDbCircle
 10
2.658052
 20
4.714840000000001
 30
0.0
 40
0.001413
  0
CIRCLE
  5
780
330
18
100
AcDbEntity
  8
0
100
AcDbCircle
 10
2.763146
 20
4.744819000000001
 30
0.0
 40
0.001413
  0
CIRCLE
  5
781
330
18
100
AcDbEntity
  8
0
100
AcDbCircle
 10
2.939284
 20
4.718027999999999
 30
0.0
 40
0.001413
  0
CIRCLE
  5
782
330
18
100
AcDbEntity
  8
0
100
AcDbCircle
 10
3.318707
 20
5.130987999999999
 30
0.0
 40
0.001413
  0
CIRCLE
  5
783
330
18
100
AcDbEntity
  8
0
100
AcDbCircle
 10
3.334879
 20
5.725119
 30
0.0
 40
0.001413
  0
CIRCLE
  5
784
330
18
100
AcDbEntity
  8
0
100
AcDbCircle
 10
3.420973000000001
 20
5.813899
 30
0.0
 40
0.001413
  0
CIRCLE
  5
785
330
18
100
AcDbEntity
  8
0
100
AcDbCircle
 10
3.834388
 20
6.092308999999999
 30
0.0
 40
0.001413
  0
CIRCLE
  5
786
330
18
100
AcDbEntity
  8
0
100
AcDbCircle
 10
2.734436
 20
5.922073
 30
0.0
 40
0.001413
  0
CIRCLE
  5
787
330
18
100
AcDbEntity
  8
0
100
AcDbCircle
 10
2.649334
 20
5.801394999999999
 30
0.0
 40
0.001413
  0
CIRCLE
  5
788
330
18
100
AcDbEntity
  8
0
100
AcDbCircle
 10
5.192622
 20
6.519911000000001
 30
0.0
 40
0.001413
  0
CIRCLE
  5
789
330
18
100
AcDbEntity
  8
0
100
AcDbCircle
 10
5.039451000000001
 20
6.352334
 30
0.0
 40
0.001413
  0
CIRCLE
  5
78A
330
18
100
AcDbEntity
  8
0
100
AcDbCircle
 10
5.003257
 20
5.738251999999999
 30
0.0
 40
0.001413
  0
CIRCLE
  5
78B
330
18
100
AcDbEntity
  8
0
100
AcDbCircle
 10
4.673981
 20
5.721074
 30
0.0
 40
0.001413
  0
CIRCLE
  5
78C
330
18
100
AcDbEntity
  8
0
100
AcDbCircle
 10
4.492728
 20
5.333174
 30
0.0
 40
0.001413
  0
CIRCLE
  5
78D
330
18
100
AcDbEntity
  8
0
100
AcDbCircle
 10
4.331608
 20
5.38091
 30
0.0
 40
0.001413
  0
CIRCLE
  5
78E
330
18
100
AcDbEntity
  8
0
100
AcDbCircle
 10
4.160454
 20
5.329951
 30
0.0
 40
0.001413
  0
CIRCLE
  5
78F
330
18
100
AcDbEntity
  8
0
100
AcDbCircle
 10
4.139399
 20
5.191375
 30
0.0
 40
0.001413
  0
CIRCLE
  5
790
330
18
100
AcDbEntity
  8
0
100
AcDbCircle
 10
4.111215000000001
 20
4.587267
 30
0.0
 40
0.001413
  0
CIRCLE
  5
791
330
18
100
AcDbEntity
  8
0
100
AcDbCircle
 10
3.868002
 20
4.538251
 30
0.0
 40
0.001413
  0
CIRCLE
  5
792
330
18
100
AcDbEntity
  8
0
100
AcDbCircle
 10
3.80789
 20
4.30694
 30
0.0
 40
0.001413
  0
CIRCLE
  5
793
330
18
100
AcDbEntity
  8
0
100
AcDbCircle
 10
3.648753
 20
4.283901
 30
0.0
 40
0.001413
  0
CIRCLE
  5
794
330
18
100
AcDbEntity
  8
0
100
AcDbCircle
 10
3.681718
 20
4.048669
 30
0.0
 40
0.001413
  0
CIRCLE
  5
795
330
18
100
AcDbEntity
  8
0
100
AcDbCircle
 10
3.503582
 20
4.091408
 30
0.0
 40
0.001413
  0
CIRCLE
  5
796
330
18
100
AcDbEntity
  8
0
100
AcDbCircle
 10
3.38343
 20
3.890958
 30
0.0
 40
0.001413
  0
CIRCLE
  5
797
330
18
100
AcDbEntity
  8
0
100
AcDbCircle
 10
3.32842
 20
4.0235
 30
0.0
 40
0.001413
  0
CIRCLE
  5
798
330
18
100
AcDbEntity
  8
0
100
AcDbCircle
 10
2.96913
 20
4.048169000000001
 30
0.0
 40
0.001413
  0
CIRCLE
  5
799
330
18
100
AcDbEntity
  8
0
100
AcDbCircle
 10
2.891117
 20
4.238512
 30
0.0
 40
0.001413
  0
CIRCLE
  5
79A
330
18
100
AcDbEntity
  8
0
100
AcDbCircle
 10
2.764953
 20
4.016127
 30
0.0
 40
0.001413
  0
CIRCLE
  5
79B
330
18
100
AcDbEntity
  8
0
100
AcDbCircle
 10
2.610772
 20
3.813659
 30
0.0
 40
0.001413
  0
CIRCLE
  5
79C
330
18
100
AcDbEntity
  8
0
100
AcDbCircle
 10
2.752856
 20
3.688156
 30
0.0
 40
0.001413
  0
CIRCLE
  5
79D
330
18
100
AcDbEntity
  8
0
100
AcDbCircle
 10
2.608702
 20
3.556471
 30
0.0
 40
0.001413
  0
CIRCLE
  5
79E
330
18
100
AcDbEntity
  8
0
100
AcDbCircle
 10
2.444603
 20
3.693921
 30
0.0
 40
0.001413
  0
CIRCLE
  5
79F
330
18
100
AcDbEntity
  8
0
100
AcDbCircle
 10
2.399494
 20
3.421751
 30
0.0
 40
0.001413
  0
CIRCLE
  5
7A0
330
18
100
AcDbEntity
  8
0
100
AcDbCircle
 10
5.005971
 20
4.656676999999999
 30
0.0
 40
0.001413
  0
CIRCLE
  5
7A1
330
18
100
AcDbEntity
  8
0
100
AcDbCircle
 10
5.132089
 20
4.710595
 30
0.0
 40
0.001413
  0
CIRCLE
  5
7A2
330
18
100
AcDbEntity
  8
0
100
AcDbCircle
 10
5.284233
 20
4.77749
 30
0.0
 40
0.001413
  0
CIRCLE
  5
7A3
330
18
100
AcDbEntity
  8
0
100
AcDbCircle
 10
5.131709
 20
3.284109
 30
0.0
 40
0.001413
  0
CIRCLE
  5
7A4
330
18
100
AcDbEntity
  8
0
100
AcDbCircle
 10
4.691294
 20
3.089415
 30
0.0
 40
0.001413
  0
CIRCLE
  5
7A5
330
18
100
AcDbEntity
  8
0
100
AcDbCircle
 10
4.451981
 20
2.656617
 30
0.0
 40
0.001413
  0
CIRCLE
  5
7A6
330
18
100
AcDbEntity
  8
0
100
AcDbCircle
 10
4.318938
 20
2.904738
 30
0.0
 40
0.001413
  0
CIRCLE
  5
7A7
330
18
100
AcDbEntity
  8
0
100
AcDbCircle
 10
4.181815
 20
2.868755
 30
0.0
 40
0.001413
  0
CIRCLE
  5
7A8
330
18
100
AcDbEntity
  8
0
100
AcDbCircle
 10
4.015621
 20
2.654317
 30
0.0
 40
0.001413
  0
CIRCLE
  5
7A9
330
18
100
AcDbEntity
  8
0
100
AcDbCircle
 10
3.647367
 20
2.839472
 30
0.0
 40
0.001413
  0
CIRCLE
  5
7AA
330
18
100
AcDbEntity
  8
0
100
AcDbCircle
 10
3.388095
 20
2.620981
 30
0.0
 40
0.001413
  0
CIRCLE
  5
7AB
330
18
100
AcDbEntity
  8
0
100
AcDbCircle
 10
3.646228
 20
2.323105
 30
0.0
 40
0.001413
  0
CIRCLE
  5
7AC
330
18
100
AcDbEntity
  8
0
100
AcDbCircle
 10
3.444056
 20
2.301033
 30
0.0
 40
0.001413
  0
CIRCLE
  5
7AD
330
18
100
AcDbEntity
  8
0
100
AcDbCircle
 10
3.315946
 20
2.284993
 30
0.0
 40
0.001413
  0
CIRCLE
  5
7AE
330
18
100
AcDbEntity
  8
0
100
AcDbCircle
 10
3.258902
 20
2.297912
 30
0.0
 40
0.001413
  0
CIRCLE
  5
7AF
330
18
100
AcDbEntity
  8
0
100
AcDbCircle
 10
3.039686
 20
2.163184
 30
0.0
 40
0.001413
  0
CIRCLE
  5
7B0
330
18
100
AcDbEntity
  8
0
100
AcDbCircle
 10
3.169717
 20
1.878178
 30
0.0
 40
0.001413
  0
CIRCLE
  5
7B1
330
18
100
AcDbEntity
  8
0
100
AcDbCircle
 10
1.353699
 20
3.674215
 30
0.0
 40
0.001413
  0
CIRCLE
  5
7B2
330
18
100
AcDbEntity
  8
0
100
AcDbCircle
 10
1.42268
 20
3.390163
 30
0.0
 40
0.001413
  0
CIRCLE
  5
7B3
330
18
100
AcDbEntity
  8
0
100
AcDbCircle
 10
1.354568
 20
3.179781
 30
0.0
 40
0.001413
  0
CIRCLE
  5
7B4
330
18
100
AcDbEntity
  8
0
100
AcDbCircle
 10
1.611831
 20
3.369362
 30
0.0
 40
0.001413
  0
CIRCLE
  5
7B5
330
18
100
AcDbEntity
  8
0
100
AcDbCircle
 10
1.571851
 20
3.567706
 30
0.0
 40
0.001413
  0
CIRCLE
  5
7B6
330
18
100
AcDbEntity
  8
0
100
AcDbCircle
 10
1.846992
 20
3.246915
 30
0.0
 40
0.001413
  0
CIRCLE
  5
7B7
330
18
100
AcDbEntity
  8
0
100
AcDbCircle
 10
1.989101
 20
3.218106
 30
0.0
 40
0.001413
  0
CIRCLE
  5
7B8
330
18
100
AcDbEntity
  8
0
100
AcDbCircle
 10
1.980042
 20
3.022718
 30
0.0
 40
0.001413
  0
CIRCLE
  5
7B9
330
18
100
AcDbEntity
  8
0
100
AcDbCircle
 10
2.02201
 20
2.774533
 30
0.0
 40
0.001413
  0
CIRCLE
  5
7BA
330
18
100
AcDbEntity
  8
0
100
AcDbCircle
 10
2.142212
 20
3.16239
 30
0.0
 40
0.001413
  0
CIRCLE
  5
7BB
330
18
100
AcDbEntity
  8
0
100
AcDbCircle
 10
2.142182
 20
3.047753
 30
0.0
 40
0.001413
  0
CIRCLE
  5
7BC
330
18
100
AcDbEntity
  8
0
100
AcDbCircle
 10
2.336348
 20
3.06982
 30
0.0
 40
0.001413
  0
CIRCLE
  5
7BD
330
18
100
AcDbEntity
  8
0
100
AcDbCircle
 10
2.326308
 20
2.950191
 30
0.0
 40
0.001413
  0
CIRCLE
  5
7BE
330
18
100
AcDbEntity
  8
0
100
AcDbCircle
 10
2.403372
 20
2.954233
 30
0.0
 40
0.001413
  0
CIRCLE
  5
7BF
330
18
100
AcDbEntity
  8
0
100
AcDbCircle
 10
2.431373
 20
2.870518
 30
0.0
 40
0.001413
  0
CIRCLE
  5
7C0
330
18
100
AcDbEntity
  8
0
100
AcDbCircle
 10
2.314288
 20
2.912303
 30
0.0
 40
0.001413
  0
CIRCLE
  5
7C1
330
18
100
AcDbEntity
  8
0
100
AcDbCircle
 10
2.324271
 20
2.81761
 30
0.0
 40
0.001413
  0
CIRCLE
  5
7C2
330
18
100
AcDbEntity
  8
0
100
AcDbCircle
 10
2.299232
 20
2.750803
 30
0.0
 40
0.001413
  0
CIRCLE
  5
7C3
330
18
100
AcDbEntity
  8
0
100
AcDbCircle
 10
2.268217
 20
2.788662
 30
0.0
 40
0.001413
  0
CIRCLE
  5
7C4
330
18
100
AcDbEntity
  8
0
100
AcDbCircle
 10
2.206166
 20
2.789615
 30
0.0
 40
0.001413
  0
CIRCLE
  5
7C5
330
18
100
AcDbEntity
  8
0
100
AcDbCircle
 10
2.172133
 20
2.771648
 30
0.0
 40
0.001413
  0
CIRCLE
  5
7C6
330
18
100
AcDbEntity
  8
0
100
AcDbCircle
 10
2.131109
 20
2.810496
 30
0.0
 40
0.001413
  0
CIRCLE
  5
7C7
330
18
100
AcDbEntity
  8
0
100
AcDbCircle
 10
2.18116
 20
2.845421
 30
0.0
 40
0.001413
  0
CIRCLE
  5
7C8
330
18
100
AcDbEntity
  8
0
100
AcDbCircle
 10
2.176194
 20
2.987966
 30
0.0
 40
0.001413
  0
CIRCLE
  5
7C9
330
18
100
AcDbEntity
  8
0
100
AcDbCircle
 10
2.91271
 20
2.646565
 30
0.0
 40
0.001413
  0
CIRCLE
  5
7CA
330
18
100
AcDbEntity
  8
0
100
AcDbCircle
 10
2.862689
 20
2.721293
 30
0.0
 40
0.001413
  0
CIRCLE
  5
7CB
330
18
100
AcDbEntity
  8
0
100
AcDbCircle
 10
2.767637
 20
2.819914
 30
0.0
 40
0.001413
  0
CIRCLE
  5
7CC
330
18
100
AcDbEntity
  8
0
100
AcDbCircle
 10
2.709586
 20
2.807911
 30
0.0
 40
0.001413
  0
CIRCLE
  5
7CD
330
18
100
AcDbEntity
  8
0
100
AcDbCircle
 10
2.702542
 20
2.667351
 30
0.0
 40
0.001413
  0
CIRCLE
  5
7CE
330
18
100
AcDbEntity
  8
0
100
AcDbCircle
 10
2.757575
 20
2.619541
 30
0.0
 40
0.001413
  0
CIRCLE
  5
7CF
330
18
100
AcDbEntity
  8
0
100
AcDbCircle
 10
2.791589
 20
2.565736
 30
0.0
 40
0.001413
  0
CIRCLE
  5
7D0
330
18
100
AcDbEntity
  8
0
100
AcDbCircle
 10
2.896631
 20
2.400333
 30
0.0
 40
0.001413
  0
CIRCLE
  5
7D1
330
18
100
AcDbEntity
  8
0
100
AcDbCircle
 10
2.828562
 20
2.35144
 30
0.0
 40
0.001413
  0
CIRCLE
  5
7D2
330
18
100
AcDbEntity
  8
0
100
AcDbCircle
 10
2.766515
 20
2.368343
 30
0.0
 40
0.001413
  0
CIRCLE
  5
7D3
330
18
100
AcDbEntity
  8
0
100
AcDbCircle
 10
2.659461
 20
2.494867
 30
0.0
 40
0.001413
  0
CIRCLE
  5
7D4
330
18
100
AcDbEntity
  8
0
100
AcDbCircle
 10
2.568384
 20
2.486828
 30
0.0
 40
0.001413
  0
CIRCLE
  5
7D5
330
18
100
AcDbEntity
  8
0
100
AcDbCircle
 10
2.567337
 20
2.317364
 30
0.0
 40
0.001413
  0
CIRCLE
  5
7D6
330
18
100
AcDbEntity
  8
0
100
AcDbCircle
 10
2.508278
 20
2.276452
 30
0.0
 40
0.001413
  0
CIRCLE
  5
7D7
330
18
100
AcDbEntity
  8
0
100
AcDbCircle
 10
2.512296
 20
2.331281
 30
0.0
 40
0.001413
  0
CIRCLE
  5
7D8
330
18
100
AcDbEntity
  8
0
100
AcDbCircle
 10
2.475269
 20
2.346208
 30
0.0
 40
0.001413
  0
CIRCLE
  5
7D9
330
18
100
AcDbEntity
  8
0
100
AcDbCircle
 10
2.452227
 20
2.260463
 30
0.0
 40
0.001413
  0
CIRCLE
  5
7DA
330
18
100
AcDbEntity
  8
0
100
AcDbCircle
 10
2.399228
 20
2.424905
 30
0.0
 40
0.001413
  0
CIRCLE
  5
7DB
330
18
100
AcDbEntity
  8
0
100
AcDbCircle
 10
2.312179
 20
2.512566
 30
0.0
 40
0.001413
  0
CIRCLE
  5
7DC
330
18
100
AcDbEntity
  8
0
100
AcDbCircle
 10
2.277177
 20
2.61123
 30
0.0
 40
0.001413
  0
CIRCLE
  5
7DD
330
18
100
AcDbEntity
  8
0
100
AcDbCircle
 10
2.517269
 20
2.213657
 30
0.0
 40
0.001413
  0
CIRCLE
  5
7DE
330
18
100
AcDbEntity
  8
0
100
AcDbCircle
 10
2.53928
 20
2.189748
 30
0.0
 40
0.001413
  0
CIRCLE
  5
7DF
330
18
100
AcDbEntity
  8
0
100
AcDbCircle
 10
2.560293
 20
2.172816
 30
0.0
 40
0.001413
  0
CIRCLE
  5
7E0
330
18
100
AcDbEntity
  8
0
100
AcDbCircle
 10
2.599322
 20
2.161878
 30
0.0
 40
0.001413
  0
CIRCLE
  5
7E1
330
18
100
AcDbEntity
  8
0
100
AcDbCircle
 10
2.553271
 20
2.113001
 30
0.0
 40
0.001413
  0
CIRCLE
  5
7E2
330
18
100
AcDbEntity
  8
0
100
AcDbCircle
 10
2.65138
 20
2.217738
 30
0.0
 40
0.001413
  0
CIRCLE
  5
7E3
330
18
100
AcDbEntity
  8
0
100
AcDbCircle
 10
2.734453
 20
2.232749
 30
0.0
 40
0.001413
  0
CIRCLE
  5
7E4
330
18
100
AcDbEntity
  8
0
100
AcDbCircle
 10
2.781481
 20
2.193905
 30
0.0
 40
0.001413
  0
CIRCLE
  5
7E5
330
18
100
AcDbEntity
  8
0
100
AcDbCircle
 10
2.682362
 20
2.055274
 30
0.0
 40
0.001413
  0
CIRCLE
  5
7E6
330
18
100
AcDbEntity
  8
0
100
AcDbCircle
 10
2.714392
 20
2.066262
 30
0.0
 40
0.001413
  0
CIRCLE
  5
7E7
330
18
100
AcDbEntity
  8
0
100
AcDbCircle
 10
2.746434
 20
2.126095
 30
0.0
 40
0.001413
  0
CIRCLE
  5
7E8
330
18
100
AcDbEntity
  8
0
100
AcDbCircle
 10
2.778431
 20
2.014471
 30
0.0
 40
0.001413
  0
CIRCLE
  5
7E9
330
18
100
AcDbEntity
  8
0
100
AcDbCircle
 10
2.738395
 20
2.004474
 30
0.0
 40
0.001413
  0
CIRCLE
  5
7EA
330
18
100
AcDbEntity
  8
0
100
AcDbCircle
 10
2.71436
 20
1.945644
 30
0.0
 40
0.001413
  0
CIRCLE
  5
7EB
330
18
100
AcDbEntity
  8
0
100
AcDbCircle
 10
2.777411
 20
1.943694
 30
0.0
 40
0.001413
  0
CIRCLE
  5
7EC
330
18
100
AcDbEntity
  8
0
100
AcDbCircle
 10
2.835462
 20
1.9547
 30
0.0
 40
0.001413
  0
CIRCLE
  5
7ED
330
18
100
AcDbEntity
  8
0
100
AcDbCircle
 10
2.885469
 20
1.826142
 30
0.0
 40
0.001413
  0
CIRCLE
  5
7EE
330
18
100
AcDbEntity
  8
0
100
AcDbCircle
 10
2.845485
 20
2.012524
 30
0.0
 40
0.001413
  0
CIRCLE
  5
7EF
330
18
100
AcDbEntity
  8
0
100
AcDbCircle
 10
2.932513
 20
1.848106
 30
0.0
 40
0.001413
  0
CIRCLE
  5
7F0
330
18
100
AcDbEntity
  8
0
100
AcDbCircle
 10
3.168723
 20
1.906089
 30
0.0
 40
0.001413
  0
CIRCLE
  5
7F1
330
18
100
AcDbEntity
  8
0
100
AcDbCircle
 10
3.084717
 20
2.141285
 30
0.0
 40
0.001413
  0
CIRCLE
  5
7F2
330
18
100
AcDbEntity
  8
0
100
AcDbCircle
 10
3.296932
 20
2.292955
 30
0.0
 40
0.001413
  0
CIRCLE
  5
7F3
330
18
100
AcDbEntity
  8
0
100
AcDbCircle
 10
3.348965
 20
2.256108
 30
0.0
 40
0.001413
  0
CIRCLE
  5
7F4
330
18
100
AcDbEntity
  8
0
100
AcDbCircle
 10
3.450061
 20
2.301037
 30
0.0
 40
0.001413
  0
CIRCLE
  5
7F5
330
18
100
AcDbEntity
  8
0
100
AcDbCircle
 10
3.616204
 20
2.324081
 30
0.0
 40
0.001413
  0
CIRCLE
  5
7F6
330
18
100
AcDbEntity
  8
0
100
AcDbCircle
 10
3.380086
 20
2.611007
 30
0.0
 40
0.001413
  0
CIRCLE
  5
7F7
330
18
100
AcDbEntity
  8
0
100
AcDbCircle
 10
3.631352
 20
2.835473
 30
0.0
 40
0.001413
  0
LWPOLYLINE
  5
7F8
330
18
100
AcDbEntity
  8
0
100
AcDbPolyline
 90
       16
 70
     1
 43
0.0
 10
2.840511
 20
2.124168
 42
0.128901
 10
2.845036
 20
2.125496
 42
0.106329
 10
2.849182
 20
2.129389
 42
0.084826
 10
2.851681
 20
2.134757
 42
0.074085
 10
2.852483
 20
2.141478
 42
0.074085
 10
2.85129
 20
2.148141
 42
0.084826
 10
2.84848
 20
2.153354
 42
0.106329
 10
2.844114
 20
2.156998
 42
0.128901
 10
2.839519
 20
2.15806
 42
0.128901
 10
2.834995
 20
2.156731
 42
0.106329
 10
2.830849
 20
2.152838
 42
0.084826
 10
2.828349
 20
2.14747
 42
0.074085
 10
2.827548
 20
2.140749
 42
0.074085
 10
2.828741
 20
2.134086
 42
0.084826
 10
2.83155
 20
2.128873
 42
0.106329
 10
2.835917
 20
2.125229
 42
0.128901
  0
LWPOLYLINE
  5
80B
330
18
100
AcDbEntity
  8
0
100
AcDbPolyline
 90
       16
 70
     1
 43
0.0
 10
2.868575
 20
2.276705
 42
0.207401
 10
2.867242
 20
2.276054
 42
0.095951
 10
2.865712
 20
2.273356
 42
0.052746
 10
2.864972
 20
2.270038
 42
0.039864
 10
2.864817
 20
2.265547
 42
0.039864
 10
2.865378
 20
2.261088
 42
0.052746
 10
2.866415
 20
2.25785
 42
0.095951
 10
2.868184
 20
2.255302
 42
0.207401
 10
2.86957
 20
2.254775
 42
0.207401
 10
2.870902
 20
2.255425
 42
0.095951
 10
2.872433
 20
2.258123
 42
0.052746
 10
2.873173
 20
2.261441
 42
0.039864
 10
2.873327
 20
2.265933
 42
0.039864
 10
2.872767
 20
2.270391
 42
0.052746
 10
2.871729
 20
2.273629
 42
0.095951
 10
2.869961
 20
2.276177
 42
0.207401
  0
LWPOLYLINE
  5
81E
330
18
100
AcDbEntity
  8
0
100
AcDbPolyline
 90
       16
 70
     1
 43
0.0
 10
2.205225
 20
3.015898
 42
0.207401
 10
2.203893
 20
3.015247
 42
0.095951
 10
2.202362
 20
3.01255
 42
0.052746
 10
2.201622
 20
3.009231
 42
0.039864
 10
2.201468
 20
3.00474
 42
0.039864
 10
2.202028
 20
3.000282
 42
0.052746
 10
2.203066
 20
2.997043
 42
0.095951
 10
2.204834
 20
2.994496
 42
0.207401
 10
2.20622
 20
2.993968
 42
0.207401
 10
2.207553
 20
2.994619
 42
0.095951
 10
2.209083
 20
2.997316
 42
0.052746
 10
2.209823
 20
3.000635
 42
0.039864
 10
2.209978
 20
3.005126
 42
0.039864
 10
2.209417
 20
3.009585
 42
0.052746
 10
2.20838
 20
3.012823
 42
0.095951
 10
2.206611
 20
3.015371
 42
0.207401
  0
LWPOLYLINE
  5
831
330
18
100
AcDbEntity
  8
0
100
AcDbPolyline
 90
       16
 70
     1
 43
0.0
 10
2.345267
 20
2.738874
 42
0.207401
 10
2.343934
 20
2.738223
 42
0.095951
 10
2.342404
 20
2.735525
 42
0.052746
 10
2.341664
 20
2.732207
 42
0.039864
 10
2.341509
 20
2.727716
 42
0.039864
 10
2.34207
 20
2.723257
 42
0.052746
 10
2.343107
 20
2.720019
 42
0.095951
 10
2.344876
 20
2.717471
 42
0.207401
 10
2.346262
 20
2.716944
 42
0.207401
 10
2.347594
 20
2.717594
 42
0.095951
 10
2.349125
 20
2.720292
 42
0.052746
 10
2.349865
 20
2.72361
 42
0.039864
 10
2.350019
 20
2.728102
 42
0.039864
 10
2.349459
 20
2.73256
 42
0.052746
 10
2.348421
 20
2.735798
 42
0.095951
 10
2.346653
 20
2.738346
 42
0.207401
  0
CIRCLE
  5
844
330
18
100
AcDbEntity
  8
0
100
AcDbCircle
 10
1.887311
 20
4.319548999999999
 30
0.0
 40
0.001413
  0
CIRCLE
  5
845
330
18
100
AcDbEntity
  8
0
100
AcDbCircle
 10
1.852258
 20
4.229808
 30
0.0
 40
0.001413
  0
CIRCLE
  5
846
330
18
100
AcDbEntity
  8
0
100
AcDbCircle
 10
2.006378
 20
4.203998
 30
0.0
 40
0.001413
  0
CIRCLE
  5
847
330
18
100
AcDbEntity
  8
0
100
AcDbCircle
 10
2.1305
 20
4.275858
 30
0.0
 40
0.001413
  0
CIRCLE
  5
848
330
18
100
AcDbEntity
  8
0
100
AcDbCircle
 10
2.240543
 20
4.0975
 30
0.0
 40
0.001413
  0
CIRCLE
  5
849
330
18
100
AcDbEntity
  8
0
100
AcDbCircle
 10
2.217519
 20
4.080538
 30
0.0
 40
0.001413
  0
CIRCLE
  5
84A
330
18
100
AcDbEntity
  8
0
100
AcDbCircle
 10
2.146453
 20
4.049585
 30
0.0
 40
0.001413
  0
CIRCLE
  5
84B
330
18
100
AcDbEntity
  8
0
100
AcDbCircle
 10
2.093382
 20
3.950861
 30
0.0
 40
0.001413
  0
CIRCLE
  5
84C
330
18
100
AcDbEntity
  8
0
100
AcDbCircle
 10
2.012311
 20
3.931864
 30
0.0
 40
0.001413
  0
CIRCLE
  5
84D
330
18
100
AcDbEntity
  8
0
100
AcDbCircle
 10
1.917269
 20
4.071355000000001
 30
0.0
 40
0.001413
  0
CIRCLE
  5
84E
330
18
100
AcDbEntity
  8
0
100
AcDbCircle
 10
1.874183
 20
3.880928
 30
0.0
 40
0.001413
  0
CIRCLE
  5
84F
330
18
100
AcDbEntity
  8
0
100
AcDbCircle
 10
1.805118
 20
3.847983
 30
0.0
 40
0.001413
  0
CIRCLE
  5
850
330
18
100
AcDbEntity
  8
0
100
AcDbCircle
 10
1.950177
 20
3.623795
 30
0.0
 40
0.001413
  0
CIRCLE
  5
851
330
18
100
AcDbEntity
  8
0
100
AcDbCircle
 10
2.012237
 20
3.657731
 30
0.0
 40
0.001413
  0
CIRCLE
  5
852
330
18
100
AcDbEntity
  8
0
100
AcDbCircle
 10
2.090308
 20
3.680713
 30
0.0
 40
0.001413
  0
CIRCLE
  5
853
330
18
100
AcDbEntity
  8
0
100
AcDbCircle
 10
2.237489
 20
3.905107
 30
0.0
 40
0.001413
  0
CIRCLE
  5
854
330
18
100
AcDbEntity
  8
0
100
AcDbCircle
 10
2.215462
 20
3.871199
 30
0.0
 40
0.001413
  0
CIRCLE
  5
855
330
18
100
AcDbEntity
  8
0
100
AcDbCircle
 10
2.229461
 20
3.824357
 30
0.0
 40
0.001413
  0
CIRCLE
  5
856
330
18
100
AcDbEntity
  8
0
100
AcDbCircle
 10
2.294496
 20
3.753626
 30
0.0
 40
0.001413
  0
CIRCLE
  5
857
330
18
100
AcDbEntity
  8
0
100
AcDbCircle
 10
2.192399
 20
3.706703
 30
0.0
 40
0.001413
  0
CIRCLE
  5
858
330
18
100
AcDbEntity
  8
0
100
AcDbCircle
 10
2.267447
 20
3.653923
 30
0.0
 40
0.001413
  0
CIRCLE
  5
859
330
18
100
AcDbEntity
  8
0
100
AcDbCircle
 10
2.192382
 20
3.641908
 30
0.0
 40
0.001413
  0
CIRCLE
  5
85A
330
18
100
AcDbEntity
  8
0
100
AcDbCircle
 10
2.304458
 20
3.583173
 30
0.0
 40
0.001413
  0
CIRCLE
  5
85B
330
18
100
AcDbEntity
  8
0
100
AcDbCircle
 10
2.292429
 20
3.509398000000001
 30
0.0
 40
0.001413
  0
CIRCLE
  5
85C
330
18
100
AcDbEntity
  8
0
100
AcDbCircle
 10
2.288425
 20
3.506404
 30
0.0
 40
0.001413
  0
CIRCLE
  5
85D
330
18
100
AcDbEntity
  8
0
100
AcDbCircle
 10
2.242387
 20
3.507369
 30
0.0
 40
0.001413
  0
CIRCLE
  5
85E
330
18
100
AcDbEntity
  8
0
100
AcDbCircle
 10
2.168323
 20
3.494358
 30
0.0
 40
0.001413
  0
CIRCLE
  5
85F
330
18
100
AcDbEntity
  8
0
100
AcDbCircle
 10
2.203346
 20
3.473449
 30
0.0
 40
0.001413
  0
CIRCLE
  5
860
330
18
100
AcDbEntity
  8
0
100
AcDbCircle
 10
2.289412
 20
3.45756
 30
0.0
 40
0.001413
  0
CIRCLE
  5
861
330
18
100
AcDbEntity
  8
0
100
AcDbCircle
 10
2.264376
 20
3.398728
 30
0.0
 40
0.001413
  0
CIRCLE
  5
862
330
18
100
AcDbEntity
  8
0
100
AcDbCircle
 10
2.28439
 20
3.388774
 30
0.0
 40
0.001413
  0
CIRCLE
  5
863
330
18
100
AcDbEntity
  8
0
100
AcDbCircle
 10
2.314408
 20
3.364871
 30
0.0
 40
0.001413
  0
LWPOLYLINE
  5
864
330
18
100
AcDbEntity
  8
0
  6
HIDDEN
100
AcDbPolyline
 90
       16
 70
   128
 43
0.0
 10
2.877126
 20
6.945939
 10
2.877126
 20
3.351288
 10
2.892777
 20
3.271576
 10
2.892777
 20
2.9875
 42
0.244008
 10
2.913992
 20
2.946617
 10
3.016406
 20
2.874507
 42
0.266582
 10
3.065973
 20
2.869913
 10
3.159107
 20
2.912471
 42
0.595608
 10
3.165065
 20
3.000197
 10
3.104288
 20
3.038661
 42
-0.257089
 10
3.081026
 20
3.080911
 10
3.081026
 20
3.293548
 42
-0.109123
 10
3.085678
 20
3.314608
 10
3.116658
 20
3.381316
 42
0.109123
 10
3.12131
 20
3.402376
 10
3.12131
 20
6.812531
  0
LWPOLYLINE
  5
877
330
18
100
AcDbEntity
  8
0
  6
HIDDEN
100
AcDbPolyline
 90
       12
 70
   129
 43
0.0
 10
3.060853
 20
2.922546
 42
-0.266582
 10
3.031113
 20
2.925303
 10
2.955506
 20
2.978537
 42
-0.244008
 10
2.942777
 20
3.003067
 10
2.942777
 20
3.274012
 42
-0.364444
 10
2.967617
 20
3.303565
 10
2.995866
 20
3.308497
 42
-0.465799
 10
3.031026
 20
3.278944
 10
3.031026
 20
3.042371
 42
0.257089
 10
3.044983
 20
3.017021
 10
3.091527
 20
2.987565
 42
-0.595608
 10
3.087952
 20
2.934929
  0
LINE
  5
886
330
18
100
AcDbEntity
  8
0
100
AcDbLine
 10
4.392233999999999
 20
7.741474
 30
0.0
 11
5.571266000000001
 21
7.764239999999999
 31
0.0
  0
LINE
  5
887
330
18
100
AcDbEntity
  8
0
100
AcDbLine
 10
6.953535000000001
 20
7.738272
 30
0.0
 11
6.953535000000001
 21
7.825766000000001
 31
0.0
  0
LINE
  5
888
330
18
100
AcDbEntity
  8
0
100
AcDbLine
 10
4.248036
 20
7.240964
 30
0.0
 11
4.211007
 21
7.247916
 31
0.0
  0
LINE
  5
889
330
18
100
AcDbEntity
  8
0
100
AcDbLine
 10
4.151975
 20
7.310675999999999
 30
0.0
 11
4.151975
 21
7.341578
 31
0.0
  0
LINE
  5
88A
330
18
100
AcDbEntity
  8
0
100
AcDbLine
 10
1.826446
 20
6.078972
 30
0.0
 11
1.832931
 21
6.092512
 31
0.0
  0
LINE
  5
88B
330
18
100
AcDbEntity
  8
0
100
AcDbLine
 10
1.832931
 20
6.092512
 30
0.0
 11
1.946688
 21
6.118958
 31
0.0
  0
LINE
  5
88C
330
18
100
AcDbEntity
  8
0
100
AcDbLine
 10
1.946688
 20
6.118958
 30
0.0
 11
1.957973
 21
6.108658
 31
0.0
  0
LINE
  5
88D
330
18
100
AcDbEntity
  8
0
100
AcDbLine
 10
1.957973
 20
6.108658
 30
0.0
 11
2.038944
 21
6.126933
 31
0.0
  0
LINE
  5
88E
330
18
100
AcDbEntity
  8
0
100
AcDbLine
 10
1.930744
 20
6.187329
 30
0.0
 11
1.936465
 21
6.201496
 31
0.0
  0
LINE
  5
88F
330
18
100
AcDbEntity
  8
0
100
AcDbLine
 10
1.816738
 20
6.161979
 30
0.0
 11
1.930744
 21
6.187329
 31
0.0
  0
LINE
  5
890
330
18
100
AcDbEntity
  8
0
100
AcDbLine
 10
1.805035
 20
6.171383000000001
 30
0.0
 11
1.816738
 21
6.161979
 31
0.0
  0
LINE
  5
891
330
18
100
AcDbEntity
  8
0
100
AcDbLine
 10
1.805035
 20
6.171383000000001
 30
0.0
 11
1.733509
 21
6.155133999999999
 31
0.0
  0
LINE
  5
892
330
18
100
AcDbEntity
  8
0
100
AcDbLine
 10
2.343227
 20
4.278989
 30
0.0
 11
2.343227
 21
3.317042
 31
0.0
  0
LINE
  5
893
330
18
100
AcDbEntity
  8
0
100
AcDbLine
 10
2.343227
 20
5.340631
 30
0.0
 11
2.343227
 21
4.393628
 31
0.0
  0
ARC
  5
894
330
18
100
AcDbEntity
  8
0
100
AcDbCircle
 10
2.388899
 20
4.349325
 30
0.0
 40
0.073143
100
AcDbArc
 50
136.965142
 51
208.10874
  0
ARC
  5
895
330
18
100
AcDbEntity
  8
0
100
AcDbCircle
 10
2.388899
 20
5.403991
 30
0.0
 40
0.073143
100
AcDbArc
 50
136.965142
 51
208.10874
  0
ARC
  5
896
330
18
100
AcDbEntity
  8
0
100
AcDbCircle
 10
2.874626
 20
7.937612
 30
0.0
 40
0.0025
100
AcDbArc
 50
0.0
 51
73.01988299999999
  0
LINE
  5
897
330
18
100
AcDbEntity
  8
0
100
AcDbLine
 10
2.898038
 20
7.935483000000001
 30
0.0
 11
2.898038
 21
6.999082000000001
 31
0.0
  0
ARC
  5
898
330
18
100
AcDbEntity
  8
0
100
AcDbCircle
 10
2.873038
 20
7.935483000000001
 30
0.0
 40
0.025
100
AcDbArc
 50
0.0
 51
73.01988299999999
  0
ARC
  5
899
330
18
100
AcDbEntity
  8
0
100
AcDbCircle
 10
3.123334
 20
7.970838000000001
 30
0.0
 40
0.025
100
AcDbArc
 50
0.0
 51
73.01988299999999
  0
LWPOLYLINE
  5
89A
330
18
100
AcDbEntity
  8
0
100
AcDbPolyline
 90
        6
 70
     0
 43
0.0
 10
4.119533000000001
 20
9.502716
 10
4.220613
 20
9.490824999999999
 10
4.262635
 20
9.444002000000001
 10
4.262635
 20
8.696724
 42
-0.171044
 10
4.254902
 20
8.674780999999999
 10
4.075929
 20
8.452378
  0
LWPOLYLINE
  5
8A3
330
18
100
AcDbEntity
  8
0
100
AcDbPolyline
 90
        6
 70
     0
 43
0.0
 10
4.136771
 20
9.50662
 10
4.237851
 20
9.494729
 10
4.279873
 20
9.447906
 10
4.279873
 20
8.700628
 42
-0.171044
 10
4.27214
 20
8.678685
 10
4.093166
 20
8.456282
  0
LWPOLYLINE
  5
8AC
330
18
100
AcDbEntity
  8
0
  6
HIDDEN
100
AcDbPolyline
 90
        6
 70
     0
 43
0.0
 10
3.851218
 20
8.400227000000001
 10
3.851218
 20
7.690277
 10
3.899858
 20
7.650423
 10
4.045982
 20
7.665479
 10
4.091616999999999
 20
7.714125
 10
4.091616999999999
 20
8.441175999999999
  0
LINE
  5
8B5
330
18
100
AcDbEntity
  8
0
100
AcDbLine
 10
4.262635
 20
9.444002000000001
 30
0.0
 11
4.279873
 21
9.447906
 31
0.0
  0
LINE
  5
8B6
330
18
100
AcDbEntity
  8
0
100
AcDbLine
 10
4.237851
 20
9.494729
 30
0.0
 11
4.220613
 21
9.490824999999999
 31
0.0
  0
ARC
  5
8B7
330
18
100
AcDbEntity
  8
0
100
AcDbCircle
 10
4.043478
 20
8.738994999999999
 30
0.0
 40
0.035
100
AcDbArc
 50
322.579443
 51
0.0
  0
TEXT
  5
8B8
330
18
100
AcDbEntity
  8
0
100
AcDbText
 10
2.215688952380952
 20
8.403737
 30
0.0
 40
0.22
  1
PA51
 72
     1
 11
2.603308
 21
8.403737
 31
0.0
100
AcDbText
  0
TEXT
  5
8B9
330
18
100
AcDbEntity
  8
0
100
AcDbText
 10
3.948629666666667
 20
1.648578
 30
0.0
 40
0.22
  1
A35
 72
     1
 11
4.241963
 21
1.648578
 31
0.0
100
AcDbText
  0
TEXT
  5
8BA
330
18
100
AcDbEntity
  8
0
100
AcDbText
 10
2.767133380952381
 20
9.195924
 30
0.0
 40
0.22
  1
MTS16
 72
     1
 11
3.296181
 21
9.195924
 31
0.0
100
AcDbText
  0
TEXT
  5
8BB
330
18
100
AcDbEntity
  8
0
100
AcDbText
 10
4.79788
 20
1.218238
 30
0.0
 40
0.22
  1
Simpson Strong-Tie
100
AcDbText
  0
TEXT
  5
8BC
330
18
100
AcDbEntity
  8
0
100
AcDbText
 10
4.79788
 20
0.8620479999999999
 30
0.0
 40
0.22
  1
Lateral Load Connections
100
AcDbText
  0
ARC
  5
8BD
330
18
100
AcDbEntity
  8
0
100
AcDbCircle
 10
1.737677
 20
6.15007
 30
0.0
 40
0.006559
100
AcDbArc
 50
89.99495999999999
 51
129.460625
  0
ARC
  5
8BE
330
18
100
AcDbEntity
  8
0
100
AcDbCircle
 10
1.744658
 20
6.141593
 30
0.0
 40
0.01754
100
AcDbArc
 50
129.465903
 51
153.29356
  0
ARC
  5
8BF
330
18
100
AcDbEntity
  8
0
100
AcDbCircle
 10
1.755907
 20
6.135933000000001
 30
0.0
 40
0.030133
100
AcDbArc
 50
153.292355
 51
168.227667
  0
ARC
  5
8C0
330
18
100
AcDbEntity
  8
0
100
AcDbCircle
 10
1.773796
 20
6.132206
 30
0.0
 40
0.048406
100
AcDbArc
 50
168.228622
 51
179.999876
  0
ARC
  5
8C1
330
18
100
AcDbEntity
  8
0
100
AcDbCircle
 10
1.773796
 20
6.132206
 30
0.0
 40
0.048406
100
AcDbArc
 50
180.000124
 51
191.771378
  0
ARC
  5
8C2
330
18
100
AcDbEntity
  8
0
100
AcDbCircle
 10
1.755907
 20
6.128479000000001
 30
0.0
 40
0.030133
100
AcDbArc
 50
191.772333
 51
206.707645
  0
ARC
  5
8C3
330
18
100
AcDbEntity
  8
0
100
AcDbCircle
 10
1.744658
 20
6.122819
 30
0.0
 40
0.01754
100
AcDbArc
 50
206.70644
 51
230.5340970000001
  0
ARC
  5
8C4
330
18
100
AcDbEntity
  8
0
100
AcDbCircle
 10
1.737677
 20
6.114342
 30
0.0
 40
0.006559
100
AcDbArc
 50
230.539375
 51
270.00504
  0
ARC
  5
8C5
330
18
100
AcDbEntity
  8
0
100
AcDbCircle
 10
1.737678
 20
6.065493
 30
0.0
 40
0.006557
100
AcDbArc
 50
269.999327
 51
309.464993
  0
ARC
  5
8C6
330
18
100
AcDbEntity
  8
0
100
AcDbCircle
 10
1.730695
 20
6.073972
 30
0.0
 40
0.017542
100
AcDbArc
 50
309.470841
 51
333.298498
  0
ARC
  5
8C7
330
18
100
AcDbEntity
  8
0
100
AcDbCircle
 10
1.719448
 20
6.079633
 30
0.0
 40
0.030133
100
AcDbArc
 50
333.292355
 51
348.227667
  0
ARC
  5
8C8
330
18
100
AcDbEntity
  8
0
100
AcDbCircle
 10
1.701559
 20
6.08336
 30
0.0
 40
0.048406
100
AcDbArc
 50
348.228622
 51
359.999876
  0
ARC
  5
8C9
330
18
100
AcDbEntity
  8
0
100
AcDbCircle
 10
1.701564
 20
6.083359
 30
0.0
 40
0.048401
100
AcDbArc
 50
0.000716
 51
11.77197
  0
ARC
  5
8CA
330
18
100
AcDbEntity
  8
0
100
AcDbCircle
 10
1.719448
 20
6.087086
 30
0.0
 40
0.030133
100
AcDbArc
 50
11.772333
 51
26.707645
  0
ARC
  5
8CB
330
18
100
AcDbEntity
  8
0
100
AcDbCircle
 10
1.730695
 20
6.092747
 30
0.0
 40
0.017542
100
AcDbArc
 50
26.70150200000001
 51
50.52915899999999
  0
ARC
  5
8CC
330
18
100
AcDbEntity
  8
0
100
AcDbCircle
 10
1.737678
 20
6.101226000000001
 30
0.0
 40
0.006557
100
AcDbArc
 50
50.535007
 51
90.00067299999999
  0
ARC
  5
8CD
330
18
100
AcDbEntity
  8
0
100
AcDbCircle
 10
1.737677
 20
6.101224
 30
0.0
 40
0.006559
100
AcDbArc
 50
89.99495999999999
 51
129.460625
  0
ARC
  5
8CE
330
18
100
AcDbEntity
  8
0
100
AcDbCircle
 10
1.74466
 20
6.092747
 30
0.0
 40
0.017542
100
AcDbArc
 50
129.470841
 51
153.298498
  0
ARC
  5
8CF
330
18
100
AcDbEntity
  8
0
100
AcDbCircle
 10
1.755907
 20
6.087086
 30
0.0
 40
0.030133
100
AcDbArc
 50
153.292355
 51
168.227667
  0
ARC
  5
8D0
330
18
100
AcDbEntity
  8
0
100
AcDbCircle
 10
1.773791
 20
6.083359
 30
0.0
 40
0.048401
100
AcDbArc
 50
168.22803
 51
179.999284
  0
ARC
  5
8D1
330
18
100
AcDbEntity
  8
0
100
AcDbCircle
 10
1.773796
 20
6.08336
 30
0.0
 40
0.048406
100
AcDbArc
 50
180.000124
 51
191.771378
  0
ARC
  5
8D2
330
18
100
AcDbEntity
  8
0
100
AcDbCircle
 10
1.755907
 20
6.079633
 30
0.0
 40
0.030133
100
AcDbArc
 50
191.772333
 51
206.707645
  0
ARC
  5
8D3
330
18
100
AcDbEntity
  8
0
100
AcDbCircle
 10
1.74466
 20
6.073972
 30
0.0
 40
0.017542
100
AcDbArc
 50
206.701502
 51
230.529159
  0
ARC
  5
8D4
330
18
100
AcDbEntity
  8
0
100
AcDbCircle
 10
1.737677
 20
6.065494999999999
 30
0.0
 40
0.006559
100
AcDbArc
 50
230.539375
 51
270.00504
  0
ARC
  5
8D5
330
18
100
AcDbEntity
  8
0
100
AcDbCircle
 10
2.356408
 20
6.635335
 30
0.0
 40
0.000603
100
AcDbArc
 50
190.48715
 51
249.223227
  0
ARC
  5
8D6
330
18
100
AcDbEntity
  8
0
100
AcDbCircle
 10
2.3585
 20
6.640867999999999
 30
0.0
 40
0.006518
100
AcDbArc
 50
249.27796
 51
266.425458
  0
ARC
  5
8D7
330
18
100
AcDbEntity
  8
0
100
AcDbCircle
 10
2.359028
 20
6.64932
 30
0.0
 40
0.014987
100
AcDbArc
 50
266.42516
 51
274.594597
  0
ARC
  5
8D8
330
18
100
AcDbEntity
  8
0
100
AcDbCircle
 10
2.357967
 20
6.662546000000001
 30
0.0
 40
0.028256
100
AcDbArc
 50
274.592673
 51
280.539786
  0
ARC
  5
8D9
330
18
100
AcDbEntity
  8
0
100
AcDbCircle
 10
2.357967
 20
6.662552000000001
 30
0.0
 40
0.028262
100
AcDbArc
 50
280.536618
 51
286.48373
  0
ARC
  5
8DA
330
18
100
AcDbEntity
  8
0
100
AcDbCircle
 10
2.361734
 20
6.649823
 30
0.0
 40
0.014987
100
AcDbArc
 50
286.480749
 51
294.650186
  0
ARC
  5
8DB
330
18
100
AcDbEntity
  8
0
100
AcDbCircle
 10
2.365266
 20
6.642127
 30
0.0
 40
0.006519
100
AcDbArc
 50
294.65031
 51
311.797808
  0
ARC
  5
8DC
330
18
100
AcDbEntity
  8
0
100
AcDbCircle
 10
2.36921
 20
6.637716
 30
0.0
 40
0.000602
100
AcDbArc
 50
311.767609
 51
10.503686
  0
ARC
  5
8DD
330
18
100
AcDbEntity
  8
0
100
AcDbCircle
 10
2.369209
 20
6.637716
 30
0.0
 40
0.000603
100
AcDbArc
 50
10.48715
 51
69.22322700000001
  0
ARC
  5
8DE
330
18
100
AcDbEntity
  8
0
100
AcDbCircle
 10
2.367116
 20
6.63218
 30
0.0
 40
0.006522
100
AcDbArc
 50
69.284161
 51
86.431658
  0
ARC
  5
8DF
330
18
100
AcDbEntity
  8
0
100
AcDbCircle
 10
2.366588
 20
6.623730999999999
 30
0.0
 40
0.014987
100
AcDbArc
 50
86.42515999999999
 51
94.59459699999999
  0
ARC
  5
8E0
330
18
100
AcDbEntity
  8
0
100
AcDbCircle
 10
2.367649
 20
6.610505
 30
0.0
 40
0.028256
100
AcDbArc
 50
94.59267299999999
 51
100.539786
  0
ARC
  5
8E1
330
18
100
AcDbEntity
  8
0
100
AcDbCircle
 10
2.36765
 20
6.610509
 30
0.0
 40
0.028252
100
AcDbArc
 50
100.541184
 51
106.488297
  0
ARC
  5
8E2
330
18
100
AcDbEntity
  8
0
100
AcDbCircle
 10
2.363883
 20
6.623228
 30
0.0
 40
0.014987
100
AcDbArc
 50
106.480749
 51
114.650186
  0
ARC
  5
8E3
330
18
100
AcDbEntity
  8
0
100
AcDbCircle
 10
2.36035
 20
6.630921000000001
 30
0.0
 40
0.006522
100
AcDbArc
 50
114.634166
 51
131.781664
  0
ARC
  5
8E4
330
18
100
AcDbEntity
  8
0
100
AcDbCircle
 10
2.356407
 20
6.635336
 30
0.0
 40
0.000602
100
AcDbArc
 50
131.859441
 51
190.595518
  0
ARC
  5
8E5
330
18
100
AcDbEntity
  8
0
100
AcDbCircle
 10
2.325338
 20
6.472827
 30
0.0
 40
0.000602
100
AcDbArc
 50
190.549317
 51
249.285394
  0
ARC
  5
8E6
330
18
100
AcDbEntity
  8
0
100
AcDbCircle
 10
2.327435
 20
6.47836
 30
0.0
 40
0.006519
100
AcDbArc
 50
249.249143
 51
266.39664
  0
ARC
  5
8E7
330
18
100
AcDbEntity
  8
0
100
AcDbCircle
 10
2.327959
 20
6.486812000000001
 30
0.0
 40
0.014987
100
AcDbArc
 50
266.42516
 51
274.594597
  0
ARC
  5
8E8
330
18
100
AcDbEntity
  8
0
100
AcDbCircle
 10
2.326898
 20
6.500038
 30
0.0
 40
0.028256
100
AcDbArc
 50
274.592673
 51
280.539786
  0
ARC
  5
8E9
330
18
100
AcDbEntity
  8
0
100
AcDbCircle
 10
2.326898
 20
6.500044
 30
0.0
 40
0.028262
100
AcDbArc
 50
280.536618
 51
286.48373
  0
ARC
  5
8EA
330
18
100
AcDbEntity
  8
0
100
AcDbCircle
 10
2.330665
 20
6.487315
 30
0.0
 40
0.014987
100
AcDbArc
 50
286.480749
 51
294.650186
  0
ARC
  5
8EB
330
18
100
AcDbEntity
  8
0
100
AcDbCircle
 10
2.334197
 20
6.479619000000001
 30
0.0
 40
0.006519
100
AcDbArc
 50
294.65031
 51
311.797808
  0
ARC
  5
8EC
330
18
100
AcDbEntity
  8
0
100
AcDbCircle
 10
2.33814
 20
6.475209
 30
0.0
 40
0.000603
100
AcDbArc
 50
311.798919
 51
10.534996
  0
ARC
  5
8ED
330
18
100
AcDbEntity
  8
0
100
AcDbCircle
 10
2.338141
 20
6.475209
 30
0.0
 40
0.000602
100
AcDbArc
 50
10.549317
 51
69.285394
  0
ARC
  5
8EE
330
18
100
AcDbEntity
  8
0
100
AcDbCircle
 10
2.336047
 20
6.469672
 30
0.0
 40
0.006522
100
AcDbArc
 50
69.284161
 51
86.431658
  0
ARC
  5
8EF
330
18
100
AcDbEntity
  8
0
100
AcDbCircle
 10
2.335512
 20
6.461224
 30
0.0
 40
0.014987
100
AcDbArc
 50
86.398326
 51
94.567763
  0
ARC
  5
8F0
330
18
100
AcDbEntity
  8
0
100
AcDbCircle
 10
2.33658
 20
6.447998
 30
0.0
 40
0.028256
100
AcDbArc
 50
94.59267299999999
 51
100.539786
  0
ARC
  5
8F1
330
18
100
AcDbEntity
  8
0
100
AcDbCircle
 10
2.336581
 20
6.448002
 30
0.0
 40
0.028252
100
AcDbArc
 50
100.541184
 51
106.488297
  0
ARC
  5
8F2
330
18
100
AcDbEntity
  8
0
100
AcDbCircle
 10
2.332814
 20
6.460721
 30
0.0
 40
0.014987
100
AcDbArc
 50
106.480749
 51
114.650186
  0
ARC
  5
8F3
330
18
100
AcDbEntity
  8
0
100
AcDbCircle
 10
2.329281
 20
6.468414
 30
0.0
 40
0.006522
100
AcDbArc
 50
114.634166
 51
131.781664
  0
ARC
  5
8F4
330
18
100
AcDbEntity
  8
0
100
AcDbCircle
 10
2.325339
 20
6.472828
 30
0.0
 40
0.000603
100
AcDbArc
 50
131.890621
 51
190.626698
  0
ARC
  5
8F5
330
18
100
AcDbEntity
  8
0
100
AcDbCircle
 10
2.393398
 20
6.489821
 30
0.0
 40
0.000602
100
AcDbArc
 50
190.549317
 51
249.285394
  0
ARC
  5
8F6
330
18
100
AcDbEntity
  8
0
100
AcDbCircle
 10
2.395492
 20
6.495358
 30
0.0
 40
0.006522
100
AcDbArc
 50
249.284161
 51
266.431658
  0
ARC
  5
8F7
330
18
100
AcDbEntity
  8
0
100
AcDbCircle
 10
2.396027
 20
6.503806
 30
0.0
 40
0.014987
100
AcDbArc
 50
266.398326
 51
274.567763
  0
ARC
  5
8F8
330
18
100
AcDbEntity
  8
0
100
AcDbCircle
 10
2.394959
 20
6.517032
 30
0.0
 40
0.028256
100
AcDbArc
 50
274.592673
 51
280.539786
  0
ARC
  5
8F9
330
18
100
AcDbEntity
  8
0
100
AcDbCircle
 10
2.394959
 20
6.517037999999999
 30
0.0
 40
0.028262
100
AcDbArc
 50
280.536618
 51
286.48373
  0
ARC
  5
8FA
330
18
100
AcDbEntity
  8
0
100
AcDbCircle
 10
2.398726
 20
6.504302
 30
0.0
 40
0.01498
100
AcDbArc
 50
286.49018
 51
294.659617
  0
ARC
  5
8FB
330
18
100
AcDbEntity
  8
0
100
AcDbCircle
 10
2.402254
 20
6.496617
 30
0.0
 40
0.006524
100
AcDbArc
 50
294.658812
 51
311.806309
  0
ARC
  5
8FC
330
18
100
AcDbEntity
  8
0
100
AcDbCircle
 10
2.406202
 20
6.492203
 30
0.0
 40
0.000602
100
AcDbArc
 50
311.767609
 51
10.503686
  0
ARC
  5
8FD
330
18
100
AcDbEntity
  8
0
100
AcDbCircle
 10
2.406202
 20
6.492202
 30
0.0
 40
0.000603
100
AcDbArc
 50
10.623638
 51
69.35971500000001
  0
ARC
  5
8FE
330
18
100
AcDbEntity
  8
0
100
AcDbCircle
 10
2.404104
 20
6.486669999999999
 30
0.0
 40
0.006519
100
AcDbArc
 50
69.249143
 51
86.39664000000001
  0
ARC
  5
8FF
330
18
100
AcDbEntity
  8
0
100
AcDbCircle
 10
2.40358
 20
6.478218
 30
0.0
 40
0.014987
100
AcDbArc
 50
86.42515999999999
 51
94.59459699999999
  0
ARC
  5
900
330
18
100
AcDbEntity
  8
0
100
AcDbCircle
 10
2.404641
 20
6.464992
 30
0.0
 40
0.028256
100
AcDbArc
 50
94.59267299999999
 51
100.539786
  0
ARC
  5
901
330
18
100
AcDbEntity
  8
0
100
AcDbCircle
 10
2.404641
 20
6.464986
 30
0.0
 40
0.028262
100
AcDbArc
 50
100.536618
 51
106.48373
  0
ARC
  5
902
330
18
100
AcDbEntity
  8
0
100
AcDbCircle
 10
2.400874
 20
6.477715
 30
0.0
 40
0.014987
100
AcDbArc
 50
106.480749
 51
114.650186
  0
ARC
  5
903
330
18
100
AcDbEntity
  8
0
100
AcDbCircle
 10
2.397342
 20
6.485411
 30
0.0
 40
0.006519
100
AcDbArc
 50
114.65031
 51
131.797808
  0
ARC
  5
904
330
18
100
AcDbEntity
  8
0
100
AcDbCircle
 10
2.393399
 20
6.489821
 30
0.0
 40
0.000603
100
AcDbArc
 50
131.798919
 51
190.534996
  0
ARC
  5
905
330
18
100
AcDbEntity
  8
0
100
AcDbCircle
 10
2.66564
 20
6.551817
 30
0.0
 40
0.000603
100
AcDbArc
 50
190.48715
 51
249.223227
  0
ARC
  5
906
330
18
100
AcDbEntity
  8
0
100
AcDbCircle
 10
2.667733
 20
6.557353
 30
0.0
 40
0.006522
100
AcDbArc
 50
249.284161
 51
266.431658
  0
ARC
  5
907
330
18
100
AcDbEntity
  8
0
100
AcDbCircle
 10
2.668261
 20
6.565802000000001
 30
0.0
 40
0.014987
100
AcDbArc
 50
266.42516
 51
274.594597
  0
ARC
  5
908
330
18
100
AcDbEntity
  8
0
100
AcDbCircle
 10
2.6672
 20
6.579028
 30
0.0
 40
0.028256
100
AcDbArc
 50
274.592673
 51
280.539786
  0
ARC
  5
909
330
18
100
AcDbEntity
  8
0
100
AcDbCircle
 10
2.667199
 20
6.579024
 30
0.0
 40
0.028252
100
AcDbArc
 50
280.541184
 51
286.4882970000001
  0
ARC
  5
90A
330
18
100
AcDbEntity
  8
0
100
AcDbCircle
 10
2.670966
 20
6.566305000000001
 30
0.0
 40
0.014987
100
AcDbArc
 50
286.480749
 51
294.650186
  0
ARC
  5
90B
330
18
100
AcDbEntity
  8
0
100
AcDbCircle
 10
2.674499
 20
6.558611999999999
 30
0.0
 40
0.006522
100
AcDbArc
 50
294.634166
 51
311.781664
  0
ARC
  5
90C
330
18
100
AcDbEntity
  8
0
100
AcDbCircle
 10
2.678442
 20
6.554197
 30
0.0
 40
0.000602
100
AcDbArc
 50
311.859441
 51
10.595518
  0
ARC
  5
90D
330
18
100
AcDbEntity
  8
0
100
AcDbCircle
 10
2.678441
 20
6.554198
 30
0.0
 40
0.000603
100
AcDbArc
 50
10.48715
 51
69.22322700000001
  0
ARC
  5
90E
330
18
100
AcDbEntity
  8
0
100
AcDbCircle
 10
2.676349
 20
6.548665
 30
0.0
 40
0.006518
100
AcDbArc
 50
69.27795999999999
 51
86.42545799999999
  0
ARC
  5
90F
330
18
100
AcDbEntity
  8
0
100
AcDbCircle
 10
2.675821
 20
6.540213
 30
0.0
 40
0.014987
100
AcDbArc
 50
86.42515999999999
 51
94.59459699999999
  0
ARC
  5
910
330
18
100
AcDbEntity
  8
0
100
AcDbCircle
 10
2.676882
 20
6.526987
 30
0.0
 40
0.028256
100
AcDbArc
 50
94.59267299999999
 51
100.539786
  0
ARC
  5
911
330
18
100
AcDbEntity
  8
0
100
AcDbCircle
 10
2.676882
 20
6.526981
 30
0.0
 40
0.028262
100
AcDbArc
 50
100.536618
 51
106.48373
  0
ARC
  5
912
330
18
100
AcDbEntity
  8
0
100
AcDbCircle
 10
2.673115
 20
6.53971
 30
0.0
 40
0.014987
100
AcDbArc
 50
106.480749
 51
114.650186
  0
ARC
  5
913
330
18
100
AcDbEntity
  8
0
100
AcDbCircle
 10
2.669583
 20
6.547406
 30
0.0
 40
0.006519
100
AcDbArc
 50
114.65031
 51
131.797808
  0
ARC
  5
914
330
18
100
AcDbEntity
  8
0
100
AcDbCircle
 10
2.665639
 20
6.551817
 30
0.0
 40
0.000602
100
AcDbArc
 50
131.767609
 51
190.503686
  0
ARC
  5
915
330
18
100
AcDbEntity
  8
0
100
AcDbCircle
 10
2.428446
 20
6.560622
 30
0.0
 40
0.000602
100
AcDbArc
 50
190.549317
 51
249.285394
  0
ARC
  5
916
330
18
100
AcDbEntity
  8
0
100
AcDbCircle
 10
2.430543
 20
6.566158000000001
 30
0.0
 40
0.006522
100
AcDbArc
 50
249.255358
 51
266.402855
  0
ARC
  5
917
330
18
100
AcDbEntity
  8
0
100
AcDbCircle
 10
2.431068
 20
6.574607
 30
0.0
 40
0.014987
100
AcDbArc
 50
266.42516
 51
274.594597
  0
ARC
  5
918
330
18
100
AcDbEntity
  8
0
100
AcDbCircle
 10
2.430007
 20
6.587833
 30
0.0
 40
0.028256
100
AcDbArc
 50
274.592673
 51
280.539786
  0
ARC
  5
919
330
18
100
AcDbEntity
  8
0
100
AcDbCircle
 10
2.430006
 20
6.587828999999999
 30
0.0
 40
0.028252
100
AcDbArc
 50
280.541184
 51
286.4882970000001
  0
ARC
  5
91A
330
18
100
AcDbEntity
  8
0
100
AcDbCircle
 10
2.433773
 20
6.575110000000001
 30
0.0
 40
0.014987
100
AcDbArc
 50
286.480749
 51
294.650186
  0
ARC
  5
91B
330
18
100
AcDbEntity
  8
0
100
AcDbCircle
 10
2.437305
 20
6.567414
 30
0.0
 40
0.006519
100
AcDbArc
 50
294.65031
 51
311.797808
  0
ARC
  5
91C
330
18
100
AcDbEntity
  8
0
100
AcDbCircle
 10
2.441249
 20
6.563003
 30
0.0
 40
0.000602
100
AcDbArc
 50
311.767609
 51
10.503686
  0
ARC
  5
91D
330
18
100
AcDbEntity
  8
0
100
AcDbCircle
 10
2.441248
 20
6.563003
 30
0.0
 40
0.000603
100
AcDbArc
 50
10.48715
 51
69.22322700000001
  0
ARC
  5
91E
330
18
100
AcDbEntity
  8
0
100
AcDbCircle
 10
2.439156
 20
6.55747
 30
0.0
 40
0.006518
100
AcDbArc
 50
69.27795999999999
 51
86.42545799999999
  0
ARC
  5
91F
330
18
100
AcDbEntity
  8
0
100
AcDbCircle
 10
2.438628
 20
6.549018
 30
0.0
 40
0.014987
100
AcDbArc
 50
86.42515999999999
 51
94.59459699999999
  0
ARC
  5
920
330
18
100
AcDbEntity
  8
0
100
AcDbCircle
 10
2.439689
 20
6.535792
 30
0.0
 40
0.028256
100
AcDbArc
 50
94.59267299999999
 51
100.539786
  0
ARC
  5
921
330
18
100
AcDbEntity
  8
0
100
AcDbCircle
 10
2.439679
 20
6.535787
 30
0.0
 40
0.028259
100
AcDbArc
 50
100.517616
 51
106.464729
  0
ARC
  5
922
330
18
100
AcDbEntity
  8
0
100
AcDbCircle
 10
2.435922
 20
6.548516
 30
0.0
 40
0.014987
100
AcDbArc
 50
106.480749
 51
114.650186
  0
ARC
  5
923
330
18
100
AcDbEntity
  8
0
100
AcDbCircle
 10
2.432393
 20
6.556212
 30
0.0
 40
0.006521
100
AcDbArc
 50
114.674962
 51
131.822459
  0
ARC
  5
924
330
18
100
AcDbEntity
  8
0
100
AcDbCircle
 10
2.428446
 20
6.560622
 30
0.0
 40
0.000602
100
AcDbArc
 50
131.767609
 51
190.503686
  0
LINE
  5
925
330
18
100
AcDbEntity
  8
0
100
AcDbLine
 10
4.16566
 20
9.792698
 30
0.0
 11
4.236751
 21
9.786346999999999
 31
0.0
  0
ENDSEC
  0
SECTION
  2
OBJECTS
  0
DICTIONARY
  5
C
330
0
100
AcDbDictionary
281
     1
  3
ACAD_COLOR
350
92B
  3
ACAD_GROUP
350
D
  3
ACAD_LAYOUT
350
15
  3
ACAD_MATERIAL
350
92D
  3
ACAD_MLINESTYLE
350
12
  3
ACAD_PLOTSETTINGS
350
14
  3
ACAD_PLOTSTYLENAME
350
E
  3
ACDBHEADERROUNDTRIPXREC
350
92A
  0
DICTIONARY
  5
92B
102
{ACAD_REACTORS
330
C
102
}
330
C
100
AcDbDictionary
281
     1
  0
DICTIONARY
  5
D
102
{ACAD_REACTORS
330
C
102
}
330
C
100
AcDbDictionary
281
     1
  0
DICTIONARY
  5
15
102
{ACAD_REACTORS
330
C
102
}
330
C
100
AcDbDictionary
281
     1
  3
Layout1
350
17
  3
Model
350
19
  0
DICTIONARY
  5
92D
102
{ACAD_REACTORS
330
C
102
}
330
C
100
AcDbDictionary
281
     1
  0
DICTIONARY
  5
12
102
{ACAD_REACTORS
330
C
102
}
330
C
100
AcDbDictionary
281
     1
  3
Standard
350
13
  0
DICTIONARY
  5
14
102
{ACAD_REACTORS
330
C
102
}
330
C
100
AcDbDictionary
281
     1
  0
ACDBDICTIONARYWDFLT
  5
E
102
{ACAD_REACTORS
330
C
102
}
330
C
100
AcDbDictionary
281
     1
  3
Normal
350
F
100
AcDbDictionaryWithDefault
340
F
  0
DICTIONARY
  5
92A
102
{ACAD_REACTORS
330
C
102
}
330
C
100
AcDbDictionary
281
     1
  3
COLORDICT
350
92C
  3
MATERIALDICT
350
92E
  0
LAYOUT
  5
17
102
{ACAD_REACTORS
330
15
102
}
102
{ACAD_XDICTIONARY
360
92F
102
}
330
15
100
AcDbPlotSettings
  1

  2

  4

  6

 40
0.0
 41
0.0
 42
0.0
 43
0.0
 44
0.0
 45
0.0
 46
0.0
 47
0.0
 48
0.0
 49
0.0
140
0.0
141
0.0
142
1.0
143
1.0
 70
   688
 72
     0
 73
     0
 74
     5
  7

 75
    16
147
1.0
148
0.0
149
0.0
100
AcDbLayout
  1
Layout1
 70
     1
 71
     1
 10
0.0
 20
0.0
 11
12.0
 21
9.0
 12
0.0
 22
0.0
 32
0.0
 14
1.000000000000000E+20
 24
1.000000000000000E+20
 34
1.000000000000000E+20
 15
-1.000000000000000E+20
 25
-1.000000000000000E+20
 35
-1.000000000000000E+20
146
0.0
 13
0.0
 23
0.0
 33
0.0
 16
1.0
 26
0.0
 36
0.0
 17
0.0
 27
1.0
 37
0.0
 76
     0
330
16
  0
LAYOUT
  5
19
102
{ACAD_REACTORS
330
15
102
}
102
{ACAD_XDICTIONARY
360
931
102
}
330
15
100
AcDbPlotSettings
  1

  2

  4

  6

 40
0.0
 41
0.0
 42
0.0
 43
0.0
 44
0.0
 45
0.0
 46
0.0
 47
0.0
 48
0.0
 49
0.0
140
0.0
141
0.0
142
1.0
143
1.0
 70
  1712
 72
     0
 73
     0
 74
     0
  7

 75
     0
147
1.0
148
0.0
149
0.0
100
AcDbLayout
  1
Model
 70
     1
 71
     0
 10
0.0
 20
0.0
 11
0.0
 21
0.0
 12
0.0
 22
0.0
 32
0.0
 14
0.0
 24
0.0
 34
0.0
 15
0.0
 25
0.0
 35
0.0
146
0.0
 13
0.0
 23
0.0
 33
0.0
 16
1.0
 26
0.0
 36
0.0
 17
0.0
 27
1.0
 37
0.0
 76
     0
330
18
  0
MLINESTYLE
  5
13
102
{ACAD_REACTORS
330
12
102
}
330
12
100
AcDbMlineStyle
  2
Standard
 70
     0
  3

 62
   256
 51
90.0
 52
90.0
 71
     2
 49
0.5
 62
   256
  6
BYLAYER
 49
-0.5
 62
   256
  6
BYLAYER
  0
ACDBPLACEHOLDER
  5
F
102
{ACAD_REACTORS
330
E
102
}
330
E
  0
XRECORD
  5
92C
102
{ACAD_REACTORS
330
92A
102
}
330
92A
100
AcDbXrecord
340
92B
  0
XRECORD
  5
92E
102
{ACAD_REACTORS
330
92A
102
}
330
92A
100
AcDbXrecord
340
92D
  0
DICTIONARY
  5
92F
330
17
100
AcDbDictionary
280
     1
281
     1
  3
ACAD_XREC_ROUNDTRIP
360
930
  0
DICTIONARY
  5
931
330
19
100
AcDbDictionary
280
     1
281
     1
  3
ACAD_XREC_ROUNDTRIP
360
932
  0
XRECORD
  5
930
102
{ACAD_REACTORS
330
92F
102
}
330
92F
100
AcDbXrecord
102
SHADEPLOT
 70
-23928
102
SHADEPLOTRESLEVEL
 70
-24448
102
SHADEPLOTCUSTOMDPI
 70
 23008
  0
XRECORD
  5
932
102
{ACAD_REACTORS
330
931
102
}
330
931
100
AcDbXrecord
102
SHADEPLOT
 70
     0
102
SHADEPLOTRESLEVEL
 70
     0
102
SHADEPLOTCUSTOMDPI
 70
     0
  0
ENDSEC
  0
EOF
