  0
SECTION
  2
HEADER
  9
$ACADVER
  1
AC1015
  9
$ACADMAINTVER
 70
    20
  9
$DWGCODEPAGE
  3
ANSI_1252
  9
$INSBASE
 10
0.0
 20
0.0
 30
0.0
  9
$EXTMIN
 10
0.4999999999999984
 20
0.4999999999999984
 30
0.0
  9
$EXTMAX
 10
21.5
 20
16.49999999999999
 30
0.0
  9
$LIMMIN
 10
0.0
 20
0.0
  9
$LIMMAX
 10
22.0
 20
17.0
  9
$ORTHOMODE
 70
     0
  9
$REGENMODE
 70
     1
  9
$FILLMODE
 70
     1
  9
$QTEXTMODE
 70
     0
  9
$MIRRTEXT
 70
     0
  9
$LTSCALE
 40
1.0
  9
$ATTMODE
 70
     1
  9
$TEXTSIZE
 40
0.2
  9
$TRACEWID
 40
0.05
  9
$TEXTSTYLE
  7
Standard
  9
$CLAYER
  8
0
  9
$CELTYPE
  6
ByLayer
  9
$CECOLOR
 62
   256
  9
$CELTSCALE
 40
1.0
  9
$DISPSILH
 70
     0
  9
$DIMSCALE
 40
1.0
  9
$DIMASZ
 40
0.0708661417322835
  9
$DIMEXO
 40
0.0625
  9
$DIMDLI
 40
0.38
  9
$DIMRND
 40
0.0
  9
$DIMDLE
 40
0.0
  9
$DIMEXE
 40
0.18
  9
$DIMTP
 40
0.0
  9
$DIMTM
 40
0.0
  9
$DIMTXT
 40
0.0708661417322835
  9
$DIMCEN
 40
0.09
  9
$DIMTSZ
 40
0.0
  9
$DIMTOL
 70
     0
  9
$DIMLIM
 70
     0
  9
$DIMTIH
 70
     1
  9
$DIMTOH
 70
     1
  9
$DIMSE1
 70
     0
  9
$DIMSE2
 70
     0
  9
$DIMTAD
 70
     0
  9
$DIMZIN
 70
     0
  9
$DIMBLK
  1

  9
$DIMASO
 70
     1
  9
$DIMSHO
 70
     1
  9
$DIMPOST
  1

  9
$DIMAPOST
  1

  9
$DIMALT
 70
     0
  9
$DIMALTD
 70
     2
  9
$DIMALTF
 40
25.4
  9
$DIMLFAC
 40
1.0
  9
$DIMTOFL
 70
     0
  9
$DIMTVP
 40
0.0
  9
$DIMTIX
 70
     0
  9
$DIMSOXD
 70
     0
  9
$DIMSAH
 70
     0
  9
$DIMBLK1
  1

  9
$DIMBLK2
  1

  9
$DIMSTYLE
  2
Standard
  9
$DIMCLRD
 70
     0
  9
$DIMCLRE
 70
     0
  9
$DIMCLRT
 70
     0
  9
$DIMTFAC
 40
1.0
  9
$DIMGAP
 40
0.09
  9
$DIMJUST
 70
     0
  9
$DIMSD1
 70
     0
  9
$DIMSD2
 70
     0
  9
$DIMTOLJ
 70
     1
  9
$DIMTZIN
 70
     0
  9
$DIMALTZ
 70
     0
  9
$DIMALTTZ
 70
     0
  9
$DIMUPT
 70
     0
  9
$DIMDEC
 70
     4
  9
$DIMTDEC
 70
     4
  9
$DIMALTU
 70
     2
  9
$DIMALTTD
 70
     2
  9
$DIMTXSTY
  7
Standard
  9
$DIMAUNIT
 70
     0
  9
$DIMADEC
 70
     0
  9
$DIMALTRND
 40
0.0
  9
$DIMAZIN
 70
     0
  9
$DIMDSEP
 70
    46
  9
$DIMATFIT
 70
     3
  9
$DIMFRAC
 70
     0
  9
$DIMLDRBLK
  1

  9
$DIMLUNIT
 70
     2
  9
$DIMLWD
 70
    -2
  9
$DIMLWE
 70
    -2
  9
$DIMTMOVE
 70
     0
  9
$LUNITS
 70
     2
  9
$LUPREC
 70
     4
  9
$SKETCHINC
 40
0.1
  9
$FILLETRAD
 40
0.0
  9
$AUNITS
 70
     0
  9
$AUPREC
 70
     0
  9
$MENU
  1
.
  9
$ELEVATION
 40
0.0
  9
$PELEVATION
 40
0.0
  9
$THICKNESS
 40
0.0
  9
$LIMCHECK
 70
     0
  9
$CHAMFERA
 40
0.0
  9
$CHAMFERB
 40
0.0
  9
$CHAMFERC
 40
0.0
  9
$CHAMFERD
 40
0.0
  9
$SKPOLY
 70
     0
  9
$TDCREATE
 40
2456038.570588658
  9
$TDUCREATE
 40
2456038.862255324
  9
$TDUPDATE
 40
2456038.589661841
  9
$TDUUPDATE
 40
2456038.881328507
  9
$TDINDWG
 40
0.0002444560
  9
$TDUSRTIMER
 40
0.0002444560
  9
$USRTIMER
 70
     1
  9
$ANGBASE
 50
0.0
  9
$ANGDIR
 70
     0
  9
$PDMODE
 70
     0
  9
$PDSIZE
 40
0.0
  9
$PLINEWID
 40
0.0
  9
$SPLFRAME
 70
     0
  9
$SPLINETYPE
 70
     6
  9
$SPLINESEGS
 70
     8
  9
$HANDSEED
  5
446
  9
$SURFTAB1
 70
     6
  9
$SURFTAB2
 70
     6
  9
$SURFTYPE
 70
     6
  9
$SURFU
 70
     6
  9
$SURFV
 70
     6
  9
$UCSBASE
  2

  9
$UCSNAME
  2

  9
$UCSORG
 10
0.0
 20
0.0
 30
0.0
  9
$UCSXDIR
 10
1.0
 20
0.0
 30
0.0
  9
$UCSYDIR
 10
0.0
 20
1.0
 30
0.0
  9
$UCSORTHOREF
  2

  9
$UCSORTHOVIEW
 70
     0
  9
$UCSORGTOP
 10
0.0
 20
0.0
 30
0.0
  9
$UCSORGBOTTOM
 10
0.0
 20
0.0
 30
0.0
  9
$UCSORGLEFT
 10
0.0
 20
0.0
 30
0.0
  9
$UCSORGRIGHT
 10
0.0
 20
0.0
 30
0.0
  9
$UCSORGFRONT
 10
0.0
 20
0.0
 30
0.0
  9
$UCSORGBACK
 10
0.0
 20
0.0
 30
0.0
  9
$PUCSBASE
  2

  9
$PUCSNAME
  2

  9
$PUCSORG
 10
0.0
 20
0.0
 30
0.0
  9
$PUCSXDIR
 10
1.0
 20
0.0
 30
0.0
  9
$PUCSYDIR
 10
0.0
 20
1.0
 30
0.0
  9
$PUCSORTHOREF
  2

  9
$PUCSORTHOVIEW
 70
     0
  9
$PUCSORGTOP
 10
0.0
 20
0.0
 30
0.0
  9
$PUCSORGBOTTOM
 10
0.0
 20
0.0
 30
0.0
  9
$PUCSORGLEFT
 10
0.0
 20
0.0
 30
0.0
  9
$PUCSORGRIGHT
 10
0.0
 20
0.0
 30
0.0
  9
$PUCSORGFRONT
 10
0.0
 20
0.0
 30
0.0
  9
$PUCSORGBACK
 10
0.0
 20
0.0
 30
0.0
  9
$USERI1
 70
     0
  9
$USERI2
 70
     0
  9
$USERI3
 70
     0
  9
$USERI4
 70
     0
  9
$USERI5
 70
     0
  9
$USERR1
 40
0.0
  9
$USERR2
 40
0.0
  9
$USERR3
 40
0.0
  9
$USERR4
 40
0.0
  9
$USERR5
 40
0.0
  9
$WORLDVIEW
 70
     1
  9
$SHADEDGE
 70
     3
  9
$SHADEDIF
 70
    70
  9
$TILEMODE
 70
     1
  9
$MAXACTVP
 70
    64
  9
$PINSBASE
 10
0.0
 20
0.0
 30
0.0
  9
$PLIMCHECK
 70
     0
  9
$PEXTMIN
 10
0.0
 20
0.0
 30
0.0
  9
$PEXTMAX
 10
22.0
 20
17.0
 30
0.0
  9
$PLIMMIN
 10
0.0
 20
0.0
  9
$PLIMMAX
 10
22.0
 20
17.0
  9
$UNITMODE
 70
     0
  9
$VISRETAIN
 70
     1
  9
$PLINEGEN
 70
     0
  9
$PSLTSCALE
 70
     1
  9
$TREEDEPTH
 70
  3020
  9
$CMLSTYLE
  2
Standard
  9
$CMLJUST
 70
     0
  9
$CMLSCALE
 40
1.0
  9
$PROXYGRAPHICS
 70
     1
  9
$MEASUREMENT
 70
     0
  9
$CELWEIGHT
370
    -1
  9
$ENDCAPS
280
     0
  9
$JOINSTYLE
280
     0
  9
$LWDISPLAY
290
     0
  9
$INSUNITS
 70
     1
  9
$HYPERLINKBASE
  1

  9
$STYLESHEET
  1

  9
$XEDIT
290
     1
  9
$CEPSNTYPE
380
     0
  9
$PSTYLEMODE
290
     1
  9
$FINGERPRINTGUID
  2
{01273FFB-73F7-4F70-BB04-6E0B16740AF8}
  9
$VERSIONGUID
  2
{A7FC2CEF-0E83-4E60-97C2-2A20F269E663}
  9
$EXTNAMES
290
     1
  9
$PSVPSCALE
 40
0.0
  9
$OLESTARTUP
290
     0
  0
ENDSEC
  0
SECTION
  2
CLASSES
  0
CLASS
  1
ACDBDICTIONARYWDFLT
  2
AcDbDictionaryWithDefault
  3
ObjectDBX Classes
 90
        0
280
     0
281
     0
  0
CLASS
  1
MATERIAL
  2
AcDbMaterial
  3
ObjectDBX Classes
 90
     1153
280
     0
281
     0
  0
CLASS
  1
VISUALSTYLE
  2
AcDbVisualStyle
  3
ObjectDBX Classes
 90
     4095
280
     0
281
     0
  0
CLASS
  1
SCALE
  2
AcDbScale
  3
ObjectDBX Classes
 90
     1153
280
     0
281
     0
  0
CLASS
  1
TABLESTYLE
  2
AcDbTableStyle
  3
ObjectDBX Classes
 90
     4095
280
     0
281
     0
  0
CLASS
  1
MLEADERSTYLE
  2
AcDbMLeaderStyle
  3
ACDB_MLEADERSTYLE_CLASS
 90
     4095
280
     0
281
     0
  0
CLASS
  1
DICTIONARYVAR
  2
AcDbDictionaryVar
  3
ObjectDBX Classes
 90
        0
280
     0
281
     0
  0
CLASS
  1
CELLSTYLEMAP
  2
AcDbCellStyleMap
  3
ObjectDBX Classes
 90
     1152
280
     0
281
     0
  0
CLASS
  1
ACDBPLACEHOLDER
  2
AcDbPlaceHolder
  3
ObjectDBX Classes
 90
        0
280
     0
281
     0
  0
CLASS
  1
LAYOUT
  2
AcDbLayout
  3
ObjectDBX Classes
 90
        0
280
     0
281
     0
  0
ENDSEC
  0
SECTION
  2
TABLES
  0
TABLE
  2
VPORT
  5
8
102
{ACAD_XDICTIONARY
360
3B9
102
}
330
0
100
AcDbSymbolTable
 70
     1
  0
VPORT
  5
57
330
8
100
AcDbSymbolTableRecord
100
AcDbViewportTableRecord
  2
*Active
 70
     0
 10
0.0
 20
0.0
 11
1.0
 21
1.0
 12
17.8754889178618
 22
8.5
 13
0.0
 23
0.0
 14
1.0
 24
1.0
 15
0.0
 25
0.0
 16
0.0
 26
0.0
 36
1.0
 17
0.0
 27
0.0
 37
0.0
 40
17.0
 41
2.102998696219035
 42
50.0
 43
0.0
 44
0.0
 50
0.0
 51
0.0
 71
     0
 72
   100
 73
     1
 74
     1
 75
     0
 76
     0
 77
     0
 78
     0
281
     0
 65
     1
110
0.0
120
0.0
130
0.0
111
1.0
121
0.0
131
0.0
112
0.0
122
1.0
132
0.0
 79
     0
146
0.0
1001
ACAD_NAV_VCDISPLAY
1070
     3
  0
ENDTAB
  0
TABLE
  2
LTYPE
  5
5
330
0
100
AcDbSymbolTable
 70
    59
  0
LTYPE
  5
5B
330
5
100
AcDbSymbolTableRecord
100
AcDbLinetypeTableRecord
  2
ByBlock
 70
     0
  3

 72
    65
 73
     0
 40
0.0
  0
LTYPE
  5
5C
330
5
100
AcDbSymbolTableRecord
100
AcDbLinetypeTableRecord
  2
ByLayer
 70
     0
  3

 72
    65
 73
     0
 40
0.0
  0
LTYPE
  5
5D
330
5
100
AcDbSymbolTableRecord
100
AcDbLinetypeTableRecord
  2
Continuous
 70
     0
  3
Solid line
 72
    65
 73
     0
 40
0.0
  0
LTYPE
  5
7C
330
5
100
AcDbSymbolTableRecord
100
AcDbLinetypeTableRecord
  2
BY_STANDARD
 70
     0
  3
By Standard ____________    ____    ____   _
 72
    65
 73
     6
 40
1.240299999999999
 49
0.6614
 74
     0
 49
-0.0827
 74
     0
 49
0.1654
 74
     0
 49
-0.0827
 74
     0
 49
0.1654
 74
     0
 49
-0.0827
 74
     0
  0
LTYPE
  5
7D
330
5
100
AcDbSymbolTableRecord
100
AcDbLinetypeTableRecord
  2
CHAIN
 70
     0
  3
Chain ____ _ ____ _ ____ _ ____ _ ____ _ ____
 72
    65
 73
     4
 40
0.7087
 49
0.4724000000000001
 74
     0
 49
-0.0591
 74
     0
 49
0.1181
 74
     0
 49
-0.0591
 74
     0
  0
LTYPE
  5
7E
330
5
100
AcDbSymbolTableRecord
100
AcDbLinetypeTableRecord
  2
DASH_DOT
 70
     0
  3
Dash dot __ . __ . __ . __ . __ . __ . __ . __
 72
    65
 73
     4
 40
0.37
 49
0.24
 74
     0
 49
-0.06
 74
     0
 49
0.01
 74
     0
 49
-0.06
 74
     0
  0
LTYPE
  5
7F
330
5
100
AcDbSymbolTableRecord
100
AcDbLinetypeTableRecord
  2
DOUBLE_DASH_DOT
 70
     0
  3
Double-Dash Dot __ __ . __ __ . __ __ . __ _
 72
    65
 73
     6
 40
0.4398
 49
0.24
 74
     0
 49
-0.06
 74
     0
 49
0.0098
 74
     0
 49
-0.06
 74
     0
 49
0.01
 74
     0
 49
-0.06
 74
     0
  0
LTYPE
  5
80
330
5
100
AcDbSymbolTableRecord
100
AcDbLinetypeTableRecord
  2
DASH_TRIPLE_DOT
 70
     0
  3
Dash Triple-Dot _ . . . _ . . . _ . . . _
 72
    65
 73
     8
 40
0.51
 49
0.24
 74
     0
 49
-0.06
 74
     0
 49
0.01
 74
     0
 49
-0.06
 74
     0
 49
0.01
 74
     0
 49
-0.06
 74
     0
 49
0.01
 74
     0
 49
-0.06
 74
     0
  0
LTYPE
  5
81
330
5
100
AcDbSymbolTableRecord
100
AcDbLinetypeTableRecord
  2
DASHED
 70
     0
  3
Dashed __ __ __ __ __ __ __ __ __ __ __ __ __ _
 72
    65
 73
     2
 40
0.2067
 49
0.1654
 74
     0
 49
-0.0413
 74
     0
  0
LTYPE
  5
82
330
5
100
AcDbSymbolTableRecord
100
AcDbLinetypeTableRecord
  2
DASH_DOUBLE_DOT
 70
     0
  3
Dash Double-Dot __ . . __ . . __ . . __ . .
 72
    65
 73
     6
 40
0.4398
 49
0.24
 74
     0
 49
-0.06
 74
     0
 49
0.0098
 74
     0
 49
-0.06
 74
     0
 49
0.01
 74
     0
 49
-0.06
 74
     0
  0
LTYPE
  5
83
330
5
100
AcDbSymbolTableRecord
100
AcDbLinetypeTableRecord
  2
DASHED_SPACE
 70
     0
  3
Dashed Space __ __ __ __ __ __ __ __ __ __ __ _
 72
    65
 73
     2
 40
0.2067
 49
0.1654
 74
     0
 49
-0.0413
 74
     0
  0
LTYPE
  5
84
330
5
100
AcDbSymbolTableRecord
100
AcDbLinetypeTableRecord
  2
DOTTED
 70
     0
  3
Dotted . . . . . . . . . . . . . . . . . . . . 
 72
    65
 73
     2
 40
0.0482
 49
0.0069
 74
     0
 49
-0.0413
 74
     0
  0
LTYPE
  5
85
330
5
100
AcDbSymbolTableRecord
100
AcDbLinetypeTableRecord
  2
DOUBLE_DASH_CHAIN
 70
     0
  3
Double-Dash Chain ______  __  __  ______  __  _
 72
    65
 73
     6
 40
1.240299999999999
 49
0.6614
 74
     0
 49
-0.0827
 74
     0
 49
0.1654
 74
     0
 49
-0.0827
 74
     0
 49
0.1654
 74
     0
 49
-0.0827
 74
     0
  0
LTYPE
  5
87
330
5
100
AcDbSymbolTableRecord
100
AcDbLinetypeTableRecord
  2
DOUBLE_DASH_DOUBLE_DOT
 70
     0
  3
Double-Dash Double-dot _ _ . . _ _ . . _
 72
    65
 73
     8
 40
0.7400000000000001
 49
0.24
 74
     0
 49
-0.06
 74
     0
 49
0.24
 74
     0
 49
-0.06
 74
     0
 49
0.01
 74
     0
 49
-0.06
 74
     0
 49
0.01
 74
     0
 49
-0.06
 74
     0
  0
LTYPE
  5
88
330
5
100
AcDbSymbolTableRecord
100
AcDbLinetypeTableRecord
  2
DOUBLE_DASH_TRIPLE_DOT
 70
     0
  3
Double Dash Triple Dot __ __ . . . __ __ . .
 72
    65
 73
    10
 40
0.8100000000000001
 49
0.24
 74
     0
 49
-0.06
 74
     0
 49
0.24
 74
     0
 49
-0.06
 74
     0
 49
0.01
 74
     0
 49
-0.06
 74
     0
 49
0.01
 74
     0
 49
-0.06
 74
     0
 49
0.01
 74
     0
 49
-0.06
 74
     0
  0
LTYPE
  5
89
330
5
100
AcDbSymbolTableRecord
100
AcDbLinetypeTableRecord
  2
LONG_DASH_DOTTED
 70
     0
  3
Long Dash Dotted ____ . ____ . ____ . ____ . _
 72
    65
 73
     4
 40
0.3543
 49
0.2362
 74
     0
 49
-0.0295
 74
     0
 49
0.0591
 74
     0
 49
-0.0295
 74
     0
  0
LTYPE
  5
8A
330
5
100
AcDbSymbolTableRecord
100
AcDbLinetypeTableRecord
  2
LONG_DASH_DOUBLE_DOT
 70
     0
  3
Long Dash Double Dot ________  .  .  ________  
 72
    65
 73
     6
 40
0.6799999999999999
 49
0.48
 74
     0
 49
-0.06
 74
     0
 49
0.01
 74
     0
 49
-0.06
 74
     0
 49
0.01
 74
     0
 49
-0.06
 74
     0
  0
LTYPE
  5
8B
330
5
100
AcDbSymbolTableRecord
100
AcDbLinetypeTableRecord
  2
LONG_DASH_TRIPLE_DOT
 70
     0
  3
Long Dash Triple Dot ____ ... ____ ... ____
 72
    65
 73
     8
 40
0.3689
 49
0.2362
 74
     0
 49
-0.0295
 74
     0
 49
0.0049
 74
     0
 49
-0.0295
 74
     0
 49
0.0049
 74
     0
 49
-0.0295
 74
     0
 49
0.0049
 74
     0
 49
-0.0295
 74
     0
  0
LTYPE
  5
8C
330
5
100
AcDbSymbolTableRecord
100
AcDbLinetypeTableRecord
  2
BORDER
 70
     0
  3
Border __ __ . __ __ . __ __ . __ __ . __ __ .
 72
    65
 73
     6
 40
1.75
 49
0.5
 74
     0
 49
-0.25
 74
     0
 49
0.5
 74
     0
 49
-0.25
 74
     0
 49
0.0
 74
     0
 49
-0.25
 74
     0
  0
LTYPE
  5
8D
330
5
100
AcDbSymbolTableRecord
100
AcDbLinetypeTableRecord
  2
BORDER2
 70
     0
  3
Border (.5x) __.__.__.__.__.__.__.__.__.__.__.
 72
    65
 73
     6
 40
0.875
 49
0.25
 74
     0
 49
-0.125
 74
     0
 49
0.25
 74
     0
 49
-0.125
 74
     0
 49
0.0
 74
     0
 49
-0.125
 74
     0
  0
LTYPE
  5
8E
330
5
100
AcDbSymbolTableRecord
100
AcDbLinetypeTableRecord
  2
BORDERX2
 70
     0
  3
Border (2x) ____  ____  .  ____  ____  .  ___
 72
    65
 73
     6
 40
3.5
 49
1.0
 74
     0
 49
-0.5
 74
     0
 49
1.0
 74
     0
 49
-0.5
 74
     0
 49
0.0
 74
     0
 49
-0.5
 74
     0
  0
LTYPE
  5
8F
330
5
100
AcDbSymbolTableRecord
100
AcDbLinetypeTableRecord
  2
CENTER
 70
     0
  3
Center ____ _ ____ _ ____ _ ____ _ ____ _ ____
 72
    65
 73
     4
 40
2.0
 49
1.25
 74
     0
 49
-0.25
 74
     0
 49
0.25
 74
     0
 49
-0.25
 74
     0
  0
LTYPE
  5
90
330
5
100
AcDbSymbolTableRecord
100
AcDbLinetypeTableRecord
  2
CENTER2
 70
     0
  3
Center (.5x) ___ _ ___ _ ___ _ ___ _ ___ _ ___
 72
    65
 73
     4
 40
1.125
 49
0.75
 74
     0
 49
-0.125
 74
     0
 49
0.125
 74
     0
 49
-0.125
 74
     0
  0
LTYPE
  5
91
330
5
100
AcDbSymbolTableRecord
100
AcDbLinetypeTableRecord
  2
CENTERX2
 70
     0
  3
Center (2x) ________  __  ________  __  _____
 72
    65
 73
     4
 40
4.0
 49
2.5
 74
     0
 49
-0.5
 74
     0
 49
0.5
 74
     0
 49
-0.5
 74
     0
  0
LTYPE
  5
92
330
5
100
AcDbSymbolTableRecord
100
AcDbLinetypeTableRecord
  2
DASHDOT2
 70
     0
  3
Dash dot (.5x) _._._._._._._._._._._._._._._.
 72
    65
 73
     4
 40
0.5
 49
0.25
 74
     0
 49
-0.125
 74
     0
 49
0.0
 74
     0
 49
-0.125
 74
     0
  0
LTYPE
  5
93
330
5
100
AcDbSymbolTableRecord
100
AcDbLinetypeTableRecord
  2
DASHDOTX2
 70
     0
  3
Dash dot (2x) ____  .  ____  .  ____  .  ___
 72
    65
 73
     4
 40
2.0
 49
1.0
 74
     0
 49
-0.5
 74
     0
 49
0.0
 74
     0
 49
-0.5
 74
     0
  0
LTYPE
  5
95
330
5
100
AcDbSymbolTableRecord
100
AcDbLinetypeTableRecord
  2
DASHED2
 70
     0
  3
Dashed (.5x) _ _ _ _ _ _ _ _ _ _ _ _ _ _ _ _ _
 72
    65
 73
     2
 40
0.375
 49
0.25
 74
     0
 49
-0.125
 74
     0
  0
LTYPE
  5
96
330
5
100
AcDbSymbolTableRecord
100
AcDbLinetypeTableRecord
  2
DASHEDX2
 70
     0
  3
Dashed (2x) ____  ____  ____  ____  ____  ___
 72
    65
 73
     2
 40
1.5
 49
1.0
 74
     0
 49
-0.5
 74
     0
  0
LTYPE
  5
97
330
5
100
AcDbSymbolTableRecord
100
AcDbLinetypeTableRecord
  2
DIVIDE
 70
     0
  3
Divide ____ . . ____ . . ____ . . ____ . . ____
 72
    65
 73
     6
 40
1.25
 49
0.5
 74
     0
 49
-0.25
 74
     0
 49
0.0
 74
     0
 49
-0.25
 74
     0
 49
0.0
 74
     0
 49
-0.25
 74
     0
  0
LTYPE
  5
98
330
5
100
AcDbSymbolTableRecord
100
AcDbLinetypeTableRecord
  2
DIVIDE2
 70
     0
  3
Divide (.5x) __..__..__..__..__..__..__..__.._
 72
    65
 73
     6
 40
0.625
 49
0.25
 74
     0
 49
-0.125
 74
     0
 49
0.0
 74
     0
 49
-0.125
 74
     0
 49
0.0
 74
     0
 49
-0.125
 74
     0
  0
LTYPE
  5
99
330
5
100
AcDbSymbolTableRecord
100
AcDbLinetypeTableRecord
  2
DIVIDEX2
 70
     0
  3
Divide (2x) ________  .  .  ________  .  .  _
 72
    65
 73
     6
 40
2.5
 49
1.0
 74
     0
 49
-0.5
 74
     0
 49
0.0
 74
     0
 49
-0.5
 74
     0
 49
0.0
 74
     0
 49
-0.5
 74
     0
  0
LTYPE
  5
9A
330
5
100
AcDbSymbolTableRecord
100
AcDbLinetypeTableRecord
  2
DOT
 70
     0
  3
Dot . . . . . . . . . . . . . . . . . . . . . .
 72
    65
 73
     2
 40
0.25
 49
0.0
 74
     0
 49
-0.25
 74
     0
  0
LTYPE
  5
9B
330
5
100
AcDbSymbolTableRecord
100
AcDbLinetypeTableRecord
  2
DOT2
 70
     0
  3
Dot (.5x) .....................................
 72
    65
 73
     2
 40
0.125
 49
0.0
 74
     0
 49
-0.125
 74
     0
  0
LTYPE
  5
9C
330
5
100
AcDbSymbolTableRecord
100
AcDbLinetypeTableRecord
  2
DOTX2
 70
     0
  3
Dot (2x) .  .  .  .  .  .  .  .  .  .  .  .  . 
 72
    65
 73
     2
 40
0.5
 49
0.0
 74
     0
 49
-0.5
 74
     0
  0
LTYPE
  5
9D
330
5
100
AcDbSymbolTableRecord
100
AcDbLinetypeTableRecord
  2
HIDDEN
 70
     0
  3
Hidden __ __ __ __ __ __ __ __ __ __ __ __ __ _
 72
    65
 73
     2
 40
0.375
 49
0.25
 74
     0
 49
-0.125
 74
     0
  0
LTYPE
  5
9E
330
5
100
AcDbSymbolTableRecord
100
AcDbLinetypeTableRecord
  2
HIDDEN2
 70
     0
  3
Hidden (.5x) _ _ _ _ _ _ _ _ _ _ _ _ _ _ _ _ _
 72
    65
 73
     2
 40
0.1875
 49
0.125
 74
     0
 49
-0.0625
 74
     0
  0
LTYPE
  5
9F
330
5
100
AcDbSymbolTableRecord
100
AcDbLinetypeTableRecord
  2
HIDDENX2
 70
     0
  3
Hidden (2x) ____ ____ ____ ____ ____ ____ ____
 72
    65
 73
     2
 40
0.75
 49
0.5
 74
     0
 49
-0.25
 74
     0
  0
LTYPE
  5
A0
330
5
100
AcDbSymbolTableRecord
100
AcDbLinetypeTableRecord
  2
PHANTOM
 70
     0
  3
Phantom ______  __  __  ______  __  __  ______
 72
    65
 73
     6
 40
2.5
 49
1.25
 74
     0
 49
-0.25
 74
     0
 49
0.25
 74
     0
 49
-0.25
 74
     0
 49
0.25
 74
     0
 49
-0.25
 74
     0
  0
LTYPE
  5
A1
330
5
100
AcDbSymbolTableRecord
100
AcDbLinetypeTableRecord
  2
PHANTOM2
 70
     0
  3
Phantom (.5x) ___ _ _ ___ _ _ ___ _ _ ___ _ _
 72
    65
 73
     6
 40
1.25
 49
0.625
 74
     0
 49
-0.125
 74
     0
 49
0.125
 74
     0
 49
-0.125
 74
     0
 49
0.125
 74
     0
 49
-0.125
 74
     0
  0
LTYPE
  5
A2
330
5
100
AcDbSymbolTableRecord
100
AcDbLinetypeTableRecord
  2
PHANTOMX2
 70
     0
  3
Phantom (2x) ____________    ____    ____   _
 72
    65
 73
     6
 40
5.0
 49
2.5
 74
     0
 49
-0.5
 74
     0
 49
0.5
 74
     0
 49
-0.5
 74
     0
 49
0.5
 74
     0
 49
-0.5
 74
     0
  0
LTYPE
  5
A3
330
5
100
AcDbSymbolTableRecord
100
AcDbLinetypeTableRecord
  2
ACAD_ISO02W100
 70
     0
  3
ISO dash __ __ __ __ __ __ __ __ __ __ __ __ __
 72
    65
 73
     2
 40
0.59
 49
0.47
 74
     0
 49
-0.12
 74
     0
  0
LTYPE
  5
A4
330
5
100
AcDbSymbolTableRecord
100
AcDbLinetypeTableRecord
  2
ACAD_ISO03W100
 70
     0
  3
ISO dash space __    __    __    __    __    __
 72
    65
 73
     2
 40
1.179999999999999
 49
0.47
 74
     0
 49
-0.71
 74
     0
  0
LTYPE
  5
A5
330
5
100
AcDbSymbolTableRecord
100
AcDbLinetypeTableRecord
  2
ACAD_ISO04W100
 70
     0
  3
ISO long-dash dot ____ . ____ . ____ . ____ . _
 72
    65
 73
     4
 40
1.179999999999999
 49
0.9399999999999998
 74
     0
 49
-0.12
 74
     0
 49
0.0
 74
     0
 49
-0.12
 74
     0
  0
LTYPE
  5
A6
330
5
100
AcDbSymbolTableRecord
100
AcDbLinetypeTableRecord
  2
ACAD_ISO05W100
 70
     0
  3
ISO long-dash double-dot ____ .. ____ .. ____ .
 72
    65
 73
     6
 40
1.299999999999999
 49
0.9399999999999998
 74
     0
 49
-0.12
 74
     0
 49
0.0
 74
     0
 49
-0.12
 74
     0
 49
0.0
 74
     0
 49
-0.12
 74
     0
  0
LTYPE
  5
A7
330
5
100
AcDbSymbolTableRecord
100
AcDbLinetypeTableRecord
  2
ACAD_ISO06W100
 70
     0
  3
ISO long-dash triple-dot ____ ... ____ ... ____
 72
    65
 73
     8
 40
1.419999999999999
 49
0.9399999999999998
 74
     0
 49
-0.12
 74
     0
 49
0.0
 74
     0
 49
-0.12
 74
     0
 49
0.0
 74
     0
 49
-0.12
 74
     0
 49
0.0
 74
     0
 49
-0.12
 74
     0
  0
LTYPE
  5
A8
330
5
100
AcDbSymbolTableRecord
100
AcDbLinetypeTableRecord
  2
ACAD_ISO07W100
 70
     0
  3
ISO dot . . . . . . . . . . . . . . . . . . . .
 72
    65
 73
     2
 40
0.12
 49
0.0
 74
     0
 49
-0.12
 74
     0
  0
LTYPE
  5
A9
330
5
100
AcDbSymbolTableRecord
100
AcDbLinetypeTableRecord
  2
ACAD_ISO08W100
 70
     0
  3
ISO long-dash short-dash ____ __ ____ __ ____ _
 72
    65
 73
     4
 40
0.95
 49
0.47
 74
     0
 49
-0.12
 74
     0
 49
0.24
 74
     0
 49
-0.12
 74
     0
  0
LTYPE
  5
AA
330
5
100
AcDbSymbolTableRecord
100
AcDbLinetypeTableRecord
  2
ACAD_ISO09W100
 70
     0
  3
ISO long-dash double-short-dash ____ __ __ ____
 72
    65
 73
     6
 40
1.31
 49
0.47
 74
     0
 49
-0.12
 74
     0
 49
0.24
 74
     0
 49
-0.12
 74
     0
 49
0.24
 74
     0
 49
-0.12
 74
     0
  0
LTYPE
  5
AB
330
5
100
AcDbSymbolTableRecord
100
AcDbLinetypeTableRecord
  2
ACAD_ISO10W100
 70
     0
  3
ISO dash dot __ . __ . __ . __ . __ . __ . __ .
 72
    65
 73
     4
 40
0.71
 49
0.47
 74
     0
 49
-0.12
 74
     0
 49
0.0
 74
     0
 49
-0.12
 74
     0
  0
LTYPE
  5
AC
330
5
100
AcDbSymbolTableRecord
100
AcDbLinetypeTableRecord
  2
ACAD_ISO11W100
 70
     0
  3
ISO double-dash dot __ __ . __ __ . __ __ . __ 
 72
    65
 73
     6
 40
1.299999999999999
 49
0.47
 74
     0
 49
-0.12
 74
     0
 49
0.47
 74
     0
 49
-0.12
 74
     0
 49
0.0
 74
     0
 49
-0.12
 74
     0
  0
LTYPE
  5
AD
330
5
100
AcDbSymbolTableRecord
100
AcDbLinetypeTableRecord
  2
ACAD_ISO12W100
 70
     0
  3
ISO dash double-dot __ . . __ . . __ . . __ . .
 72
    65
 73
     6
 40
0.8299999999999998
 49
0.47
 74
     0
 49
-0.12
 74
     0
 49
0.0
 74
     0
 49
-0.12
 74
     0
 49
0.0
 74
     0
 49
-0.12
 74
     0
  0
LTYPE
  5
AE
330
5
100
AcDbSymbolTableRecord
100
AcDbLinetypeTableRecord
  2
ACAD_ISO13W100
 70
     0
  3
ISO double-dash double-dot __ __ . . __ __ . . 
 72
    65
 73
     8
 40
1.419999999999999
 49
0.47
 74
     0
 49
-0.12
 74
     0
 49
0.47
 74
     0
 49
-0.12
 74
     0
 49
0.0
 74
     0
 49
-0.12
 74
     0
 49
0.0
 74
     0
 49
-0.12
 74
     0
  0
LTYPE
  5
AF
330
5
100
AcDbSymbolTableRecord
100
AcDbLinetypeTableRecord
  2
ACAD_ISO14W100
 70
     0
  3
ISO dash triple-dot __ . . . __ . . . __ . . . 
 72
    65
 73
     8
 40
0.95
 49
0.47
 74
     0
 49
-0.12
 74
     0
 49
0.0
 74
     0
 49
-0.12
 74
     0
 49
0.0
 74
     0
 49
-0.12
 74
     0
 49
0.0
 74
     0
 49
-0.12
 74
     0
  0
LTYPE
  5
B0
330
5
100
AcDbSymbolTableRecord
100
AcDbLinetypeTableRecord
  2
ACAD_ISO15W100
 70
     0
  3
ISO double-dash triple-dot __ __ . . . __ __ . 
 72
    65
 73
    10
 40
1.539999999999999
 49
0.47
 74
     0
 49
-0.12
 74
     0
 49
0.47
 74
     0
 49
-0.12
 74
     0
 49
0.0
 74
     0
 49
-0.12
 74
     0
 49
0.0
 74
     0
 49
-0.12
 74
     0
 49
0.0
 74
     0
 49
-0.12
 74
     0
  0
LTYPE
  5
B3
330
5
100
AcDbSymbolTableRecord
100
AcDbLinetypeTableRecord
  2
FENCELINE1
 70
     0
  3
Fenceline circle ----0-----0----0-----0----0---
 72
    65
 73
     4
 40
1.45
 49
0.25
 74
     0
 49
-0.1
 74
     4
 75
   133
340
B2
 46
0.1
 50
0.0
 44
-0.1
 45
0.0
 49
-0.1
 74
     0
 49
1.0
 74
     0
  0
LTYPE
  5
B4
330
5
100
AcDbSymbolTableRecord
100
AcDbLinetypeTableRecord
  2
FENCELINE2
 70
     0
  3
Fenceline square ----[]-----[]----[]-----[]----
 72
    65
 73
     4
 40
1.45
 49
0.25
 74
     0
 49
-0.1
 74
     4
 75
   132
340
B2
 46
0.1
 50
0.0
 44
-0.1
 45
0.0
 49
-0.1
 74
     0
 49
1.0
 74
     0
  0
LTYPE
  5
B5
330
5
100
AcDbSymbolTableRecord
100
AcDbLinetypeTableRecord
  2
TRACKS
 70
     0
  3
Tracks -|-|-|-|-|-|-|-|-|-|-|-|-|-|-|-|-|-|-|-|
 72
    65
 73
     2
 40
0.3
 49
0.15
 74
     4
 75
   130
340
B2
 46
0.25
 50
0.0
 44
0.0
 45
0.0
 49
0.15
 74
     0
  0
LTYPE
  5
B6
330
5
100
AcDbSymbolTableRecord
100
AcDbLinetypeTableRecord
  2
BATTING
 70
     0
  3
Batting SSSSSSSSSSSSSSSSSSSSSSSSSSSSSSSSSSSSSSS
 72
    65
 73
     4
 40
0.4001000000000001
 49
0.0001
 74
     0
 49
-0.1
 74
     4
 75
   134
340
B2
 46
0.1
 50
0.0
 44
-0.1
 45
0.0
 49
-0.2
 74
     4
 75
   134
340
B2
 46
0.1
 50
180.0
 44
0.1
 45
0.0
 49
-0.1
 74
     0
  0
LTYPE
  5
B7
330
5
100
AcDbSymbolTableRecord
100
AcDbLinetypeTableRecord
  2
HOT_WATER_SUPPLY
 70
     0
  3
Hot water supply ---- HW ---- HW ---- HW ----
 72
    65
 73
     3
 40
0.9
 49
0.5
 74
     0
 49
-0.2
 74
     2
 75
     0
340
55
 46
0.1
 50
0.0
 44
-0.1
 45
-0.05
  9
HW
 49
-0.2
 74
     0
  0
LTYPE
  5
B8
330
5
100
AcDbSymbolTableRecord
100
AcDbLinetypeTableRecord
  2
GAS_LINE
 70
     0
  3
Gas line ----GAS----GAS----GAS----GAS----GAS---
 72
    65
 73
     3
 40
0.95
 49
0.5
 74
     0
 49
-0.2
 74
     2
 75
     0
340
55
 46
0.1
 50
0.0
 44
-0.1
 45
-0.05
  9
GAS
 49
-0.25
 74
     0
  0
LTYPE
  5
B9
330
5
100
AcDbSymbolTableRecord
100
AcDbLinetypeTableRecord
  2
ZIGZAG
 70
     0
  3
Zig zag /\/\/\/\/\/\/\/\/\/\/\/\/\/\/\/\/\/\/\/
 72
    65
 73
     4
 40
0.8001000000000001
 49
0.0001
 74
     0
 49
-0.2
 74
     4
 75
   131
340
B2
 46
0.2
 50
0.0
 44
-0.2
 45
0.0
 49
-0.4
 74
     4
 75
   131
340
B2
 46
0.2
 50
180.0
 44
0.2
 45
0.0
 49
-0.2
 74
     0
  0
ENDTAB
  0
TABLE
  2
LAYER
  5
2
330
0
100
AcDbSymbolTable
 70
     4
  0
LAYER
  5
54
330
2
100
AcDbSymbolTableRecord
100
AcDbLayerTableRecord
  2
0
 70
     0
 62
     7
  6
Continuous
370
    -3
390
F
  0
LAYER
  5
BF
330
2
100
AcDbSymbolTableRecord
100
AcDbLayerTableRecord
  2
Border (ANSI)
 70
     0
 62
     7
  6
Continuous
370
    25
390
F
  0
LAYER
  5
D1
330
2
100
AcDbSymbolTableRecord
100
AcDbLayerTableRecord
  2
Visible (ANSI)
 70
     0
 62
     7
  6
Continuous
370
    18
390
F
  0
LAYER
  5
D2
330
2
100
AcDbSymbolTableRecord
100
AcDbLayerTableRecord
  2
Visible Narrow (ANSI)
 70
     0
 62
     7
  6
Continuous
370
     9
390
F
  0
ENDTAB
  0
TABLE
  2
STYLE
  5
3
330
0
100
AcDbSymbolTable
 70
     5
  0
STYLE
  5
55
330
3
100
AcDbSymbolTableRecord
100
AcDbTextStyleTableRecord
  2
Standard
 70
     0
 40
0.0
 41
0.899999976158142
 50
0.0
 71
     0
 42
0.2
  3
txt
  4

  0
STYLE
  5
5A
330
3
100
AcDbSymbolTableRecord
100
AcDbTextStyleTableRecord
  2
Annotative
 70
     0
 40
0.0
 41
1.0
 50
0.0
 71
     0
 42
0.2
  3
txt
  4

1001
AcadAnnotative
1000
AnnotativeData
1002
{
1070
     1
1070
     1
1002
}
  0
STYLE
  5
B2
330
3
100
AcDbSymbolTableRecord
100
AcDbTextStyleTableRecord
  2

 70
     1
 40
0.0
 41
1.0
 50
0.0
 71
     0
 42
0.2
  3
ltypeshp.shx
  4

  0
STYLE
  5
D6
330
3
100
AcDbSymbolTableRecord
100
AcDbTextStyleTableRecord
  2
Label Text (ANSI)
 70
     0
 40
0.0
 41
0.899999976158142
 50
0.0
 71
     0
 42
0.2
  3
Txt.shx
  4

  0
STYLE
  5
D7
330
3
100
AcDbSymbolTableRecord
100
AcDbTextStyleTableRecord
  2
Note Text (ANSI)
 70
     0
 40
0.0
 41
0.899999976158142
 50
0.0
 71
     0
 42
0.2
  3
Txt.shx
  4

  0
ENDTAB
  0
TABLE
  2
VIEW
  5
6
330
0
100
AcDbSymbolTable
 70
     0
  0
ENDTAB
  0
TABLE
  2
UCS
  5
7
330
0
100
AcDbSymbolTable
 70
     0
  0
ENDTAB
  0
TABLE
  2
APPID
  5
9
330
0
100
AcDbSymbolTable
 70
     4
  0
APPID
  5
56
330
9
100
AcDbSymbolTableRecord
100
AcDbRegAppTableRecord
  2
ACAD
 70
     0
  0
APPID
  5
5E
330
9
100
AcDbSymbolTableRecord
100
AcDbRegAppTableRecord
  2
AcadAnnotative
 70
     0
  0
APPID
  5
3EF
330
9
100
AcDbSymbolTableRecord
100
AcDbRegAppTableRecord
  2
ACAD_MLEADERVER
 70
     0
  0
APPID
  5
406
330
9
100
AcDbSymbolTableRecord
100
AcDbRegAppTableRecord
  2
ACAD_NAV_VCDISPLAY
 70
     0
  0
ENDTAB
  0
TABLE
  2
DIMSTYLE
  5
A
330
0
100
AcDbSymbolTable
 70
    21
100
AcDbDimStyleTable
 71
     0
  0
DIMSTYLE
105
58
330
A
100
AcDbSymbolTableRecord
100
AcDbDimStyleTableRecord
  2
Standard
 70
     0
340
55
  0
DIMSTYLE
105
59
330
A
100
AcDbSymbolTableRecord
100
AcDbDimStyleTableRecord
  2
Annotative
 70
     0
340
55
1001
AcadAnnotative
1000
AnnotativeData
1002
{
1070
     1
1070
     1
1002
}
  0
DIMSTYLE
105
D8
330
A
100
AcDbSymbolTableRecord
100
AcDbDimStyleTableRecord
  2
Architectural (ANSI)
 70
     0
 41
0.0984251946210861
 43
0.2362204724409449
 44
0.125
 45
0.00000001
 46
0.3937007874015748
 78
     3
 79
     3
140
0.0799999982118607
146
1.500000119209289
147
0.031496062992126
171
     1
176
   256
177
   256
178
     5
272
     2
274
     1
276
     2
277
     4
284
    12
285
     4
286
    12
340
D7
371
    -1
372
    -1
  0
DIMSTYLE
105
D9
330
A
100
AcDbSymbolTableRecord
100
AcDbDimStyleTableRecord
  2
Architectural (ANSI)$7
 70
     0
 41
0.0984251946210861
 43
0.2362204724409449
 44
0.125
 45
0.00000001
 46
0.3937007874015748
 78
     3
 79
     3
140
0.0799999982118607
146
1.500000119209289
147
0.031496062992126
171
     1
176
     5
177
   256
178
     5
272
     2
274
     1
276
     2
277
     4
284
    12
285
     4
286
    12
340
D7
371
    -1
372
    -1
  0
DIMSTYLE
105
DA
330
A
100
AcDbSymbolTableRecord
100
AcDbDimStyleTableRecord
  2
Default - Fraction (ANSI)
 70
     0
 41
0.0984251946210861
 43
0.2362204724409449
 44
0.125
 45
0.00000001
 46
0.3937007874015748
 79
     3
140
0.0799999982118607
146
1.500000119209289
147
0.031496062992126
171
     1
176
   256
177
   256
178
     5
272
     2
274
     1
276
     2
277
     5
284
    12
285
     4
286
    12
340
D7
371
    -1
372
    -1
  0
DIMSTYLE
105
DB
330
A
100
AcDbSymbolTableRecord
100
AcDbDimStyleTableRecord
  2
Default - Fraction (ANSI)$7
 70
     0
 41
0.0984251946210861
 43
0.2362204724409449
 44
0.125
 45
0.00000001
 46
0.3937007874015748
 79
     3
140
0.0799999982118607
146
1.500000119209289
147
0.031496062992126
171
     1
176
     5
177
   256
178
     5
272
     2
274
     1
276
     2
277
     5
284
    12
285
     4
286
    12
340
D7
371
    -1
372
    -1
  0
DIMSTYLE
105
DC
330
A
100
AcDbSymbolTableRecord
100
AcDbDimStyleTableRecord
  2
Default - mm (ANSI)
 70
     0
 41
0.0984251946210861
 42
0.063
 43
0.2362204724409449
 44
0.125
 45
0.00000001
 46
0.3937007874015748
 73
     0
 78
     4
 79
     1
140
0.0799999982118607
143
1.0
144
25.4
146
1.500000119209289
147
0.031496062992126
171
     1
176
   256
177
   256
178
     5
179
     1
271
     2
272
     2
274
     1
284
     4
285
     4
340
D7
371
    -1
372
    -1
  0
DIMSTYLE
105
DD
330
A
100
AcDbSymbolTableRecord
100
AcDbDimStyleTableRecord
  2
Default - mm (ANSI)$7
 70
     0
 41
0.0984251946210861
 42
0.063
 43
0.2362204724409449
 44
0.125
 45
0.00000001
 46
0.3937007874015748
 73
     0
 78
     4
 79
     1
140
0.0799999982118607
143
1.0
144
25.4
146
1.500000119209289
147
0.031496062992126
171
     1
176
     5
177
   256
178
     5
179
     1
271
     2
272
     2
274
     1
284
     4
285
     4
340
D7
371
    -1
372
    -1
  0
DIMSTYLE
105
DE
330
A
100
AcDbSymbolTableRecord
100
AcDbDimStyleTableRecord
  2
Default - mm [in] (ANSI)
 70
     0
  4
 in
 41
0.0984251946210861
 42
0.063
 43
0.25
 44
0.125
 45
0.00000001
 46
0.3937007874015748
 73
     0
 78
     4
 79
     1
140
0.0799999982118607
143
0.03937
144
25.4
146
1.500000119209289
147
0.031496062992126
170
     1
171
     3
176
   256
177
   256
178
     5
179
     1
271
     2
272
     2
274
     3
284
     4
285
     4
286
     4
340
D7
371
    -1
372
    -1
  0
DIMSTYLE
105
DF
330
A
100
AcDbSymbolTableRecord
100
AcDbDimStyleTableRecord
  2
Default - mm [in] (ANSI)$7
 70
     0
  4
 in
 41
0.0984251946210861
 42
0.063
 43
0.25
 44
0.125
 45
0.00000001
 46
0.3937007874015748
 73
     0
 78
     4
 79
     1
140
0.0799999982118607
143
0.03937
144
25.4
146
1.500000119209289
147
0.031496062992126
170
     1
171
     3
176
     5
177
   256
178
     5
179
     1
271
     2
272
     2
274
     3
284
     4
285
     4
286
     4
340
D7
371
    -1
372
    -1
  0
DIMSTYLE
105
E0
330
A
100
AcDbSymbolTableRecord
100
AcDbDimStyleTableRecord
  2
Default (ANSI)
 70
     0
 41
0.0984251946210861
 43
0.2362204724409449
 44
0.125
 45
0.00000001
 46
0.3937007874015748
 78
     4
 79
     1
140
0.0799999982118607
146
1.500000119209289
147
0.031496062992126
171
     1
176
   256
177
   256
178
     5
271
     2
272
     2
274
     1
284
     4
285
     4
340
D7
371
    -1
372
    -1
  0
DIMSTYLE
105
E1
330
A
100
AcDbSymbolTableRecord
100
AcDbDimStyleTableRecord
  2
Default (ANSI)$7
 70
     0
 41
0.0984251946210861
 43
0.2362204724409449
 44
0.125
 45
0.00000001
 46
0.3937007874015748
 78
     4
 79
     1
140
0.0799999982118607
146
1.500000119209289
147
0.031496062992126
171
     1
176
     5
177
   256
178
     5
271
     2
272
     2
274
     1
284
     4
285
     4
340
D7
371
    -1
372
    -1
  0
DIMSTYLE
105
E2
330
A
100
AcDbSymbolTableRecord
100
AcDbDimStyleTableRecord
  2
SST-STANDARD DIMEN
 70
     0
 41
0.0984251946210861
 43
0.2362204724409449
 44
0.062
 45
0.00000001
 46
0.3937007874015748
140
0.0799999982118607
147
0.031496062992126
171
     1
176
     5
177
     5
178
     5
271
     3
272
     3
274
     1
286
    12
340
D7
371
     9
372
     9
  0
DIMSTYLE
105
E3
330
A
100
AcDbSymbolTableRecord
100
AcDbDimStyleTableRecord
  2
SST-STANDARD DIMEN$7
 70
     0
 41
0.0984251946210861
 43
0.2362204724409449
 44
0.062
 45
0.00000001
 46
0.3937007874015748
140
0.0799999982118607
147
0.031496062992126
171
     1
176
     5
177
     5
178
     5
271
     3
272
     3
274
     1
286
    12
340
D7
371
    -1
372
     9
  0
DIMSTYLE
105
E4
330
A
100
AcDbSymbolTableRecord
100
AcDbDimStyleTableRecord
  2
SST-STANDARD DIMENSION-METRIC
 70
     0
 41
0.0984251946210861
 43
0.2362204724409449
 44
0.062
 45
0.00000001
 46
0.3937007874015748
140
0.0799999982118607
143
0.03937
144
25.4
147
0.031496062992126
171
     3
176
     5
177
     5
178
     5
271
     1
272
     1
274
     3
286
    12
340
D7
371
    25
372
    25
  0
DIMSTYLE
105
E5
330
A
100
AcDbSymbolTableRecord
100
AcDbDimStyleTableRecord
  2
SST-STANDARD DIMENSION-METRIC$7
 70
     0
 41
0.0984251946210861
 43
0.2362204724409449
 44
0.062
 45
0.00000001
 46
0.3937007874015748
140
0.0799999982118607
143
0.03937
144
25.4
147
0.031496062992126
171
     3
176
     5
177
     5
178
     5
271
     1
272
     1
274
     3
286
    12
340
D7
371
    -1
372
    25
  0
DIMSTYLE
105
E6
330
A
100
AcDbSymbolTableRecord
100
AcDbDimStyleTableRecord
  2
SST-STANDARD DIMENSIONS-FRACTION
 70
     0
 41
0.0984251946210861
 43
0.2362204724409449
 44
0.062
 45
0.00000001
 46
0.3937007874015748
 78
     1
140
0.0799999982118607
147
0.031496062992126
171
     1
176
     5
177
     5
178
     5
271
     5
272
     3
274
     1
276
     2
277
     5
286
    12
340
D7
371
     9
372
     9
  0
DIMSTYLE
105
E7
330
A
100
AcDbSymbolTableRecord
100
AcDbDimStyleTableRecord
  2
SST-STANDARD DIMENSIONS-FRACTION$7
 70
     0
 41
0.0984251946210861
 43
0.2362204724409449
 44
0.062
 45
0.00000001
 46
0.3937007874015748
 78
     1
140
0.0799999982118607
147
0.031496062992126
171
     1
176
     5
177
     5
178
     5
271
     5
272
     3
274
     1
276
     2
277
     5
286
    12
340
D7
371
    -1
372
     9
  0
DIMSTYLE
105
E8
330
A
100
AcDbSymbolTableRecord
100
AcDbDimStyleTableRecord
  2
Alternate (ANSI)
 70
     0
 41
0.0979999974370003
340
55
342
E9
  0
DIMSTYLE
105
FB
330
A
100
AcDbSymbolTableRecord
100
AcDbDimStyleTableRecord
  2
Datum (ANSI)
 70
     0
 41
0.0979999974370003
340
55
342
E9
  0
DIMSTYLE
105
10A
330
A
100
AcDbSymbolTableRecord
100
AcDbDimStyleTableRecord
  2
Large (ANSI)
 70
     0
 41
0.1959999948740005
340
55
342
E9
  0
ENDTAB
  0
TABLE
  2
BLOCK_RECORD
  5
1
330
0
100
AcDbSymbolTable
 70
     5
  0
BLOCK_RECORD
  5
6C
330
1
100
AcDbSymbolTableRecord
100
AcDbBlockTableRecord
  2
*Model_Space
340
6F
  0
BLOCK_RECORD
  5
68
330
1
100
AcDbSymbolTableRecord
100
AcDbBlockTableRecord
  2
*Paper_Space
340
6B
  0
BLOCK_RECORD
  5
70
330
1
100
AcDbSymbolTableRecord
100
AcDbBlockTableRecord
  2
*Paper_Space0
340
73
  0
BLOCK_RECORD
  5
E9
330
1
100
AcDbSymbolTableRecord
100
AcDbBlockTableRecord
  2
_Closed
340
0
  0
BLOCK_RECORD
  5
F0
330
1
100
AcDbSymbolTableRecord
100
AcDbBlockTableRecord
  2
DatumFilled45
340
0
  0
BLOCK_RECORD
  5
FC
330
1
100
AcDbSymbolTableRecord
100
AcDbBlockTableRecord
  2
Filled-1
340
0
  0
BLOCK_RECORD
  5
10B
330
1
100
AcDbSymbolTableRecord
100
AcDbBlockTableRecord
  2
Borders SST-LAND
340
0
102
{BLKREFS
331
112
102
}
  0
ENDTAB
  0
ENDSEC
  0
SECTION
  2
BLOCKS
  0
BLOCK
  5
6D
330
6C
100
AcDbEntity
  8
0
100
AcDbBlockBegin
  2
*Model_Space
 70
     0
 10
0.0
 20
0.0
 30
0.0
  3
*Model_Space
  1

  0
ENDBLK
  5
6E
330
6C
100
AcDbEntity
  8
0
100
AcDbBlockEnd
  0
BLOCK
  5
69
330
68
100
AcDbEntity
 67
     1
  8
0
100
AcDbBlockBegin
  2
*Paper_Space
 70
     0
 10
0.0
 20
0.0
 30
0.0
  3
*Paper_Space
  1

  0
ENDBLK
  5
6A
330
68
100
AcDbEntity
 67
     1
  8
0
100
AcDbBlockEnd
  0
BLOCK
  5
71
330
70
100
AcDbEntity
 67
     1
  8
0
100
AcDbBlockBegin
  2
*Paper_Space0
 70
     0
 10
0.0
 20
0.0
 30
0.0
  3
*Paper_Space0
  1

  0
ENDBLK
  5
72
330
70
100
AcDbEntity
 67
     1
  8
0
100
AcDbBlockEnd
  0
BLOCK
  5
EE
330
E9
100
AcDbEntity
  8
0
100
AcDbBlockBegin
  2
_Closed
 70
     0
 10
0.0
 20
0.0
 30
0.0
  3
_Closed
  1

  0
LINE
  5
EA
330
E9
100
AcDbEntity
  8
0
  6
ByBlock
 62
     0
370
    -2
100
AcDbLine
 10
-1.0
 20
0.1666666666666666
 30
0.0
 11
0.0
 21
0.0
 31
0.0
  0
LINE
  5
EB
330
E9
100
AcDbEntity
  8
0
  6
ByBlock
 62
     0
370
    -2
100
AcDbLine
 10
0.0
 20
0.0
 30
0.0
 11
-1.0
 21
-0.1666666666666666
 31
0.0
  0
LINE
  5
EC
330
E9
100
AcDbEntity
  8
0
  6
ByBlock
 62
     0
370
    -2
100
AcDbLine
 10
-1.0
 20
0.1666666666666666
 30
0.0
 11
-1.0
 21
-0.1666666666666666
 31
0.0
  0
LINE
  5
ED
330
E9
100
AcDbEntity
  8
0
  6
ByBlock
 62
     0
370
    -2
100
AcDbLine
 10
0.0
 20
0.0
 30
0.0
 11
-1.0
 21
0.0
 31
0.0
  0
ENDBLK
  5
EF
330
E9
100
AcDbEntity
  8
0
100
AcDbBlockEnd
  0
BLOCK
  5
F1
330
F0
100
AcDbEntity
  8
0
100
AcDbBlockBegin
  2
DatumFilled45
 70
     0
 10
0.0
 20
0.0
 30
0.0
  3
DatumFilled45
  1

  0
POLYLINE
  5
F3
330
F0
100
AcDbEntity
  8
0
 62
     0
100
AcDb2dPolyline
 66
     1
 10
0.0
 20
0.0
 30
0.0
 70
   128
  0
VERTEX
  5
F4
330
F3
100
AcDbEntity
  8
0
 62
     0
100
AcDbVertex
100
AcDb2dVertex
 10
0.0
 20
0.9999999999999998
 30
0.0
  0
VERTEX
  5
F5
330
F3
100
AcDbEntity
  8
0
 62
     0
100
AcDbVertex
100
AcDb2dVertex
 10
0.0
 20
-0.9999999999999998
 30
0.0
  0
VERTEX
  5
F7
330
F3
100
AcDbEntity
  8
0
 62
     0
100
AcDbVertex
100
AcDb2dVertex
 10
-0.9999999999999998
 20
0.0
 30
0.0
  0
VERTEX
  5
F8
330
F3
100
AcDbEntity
  8
0
 62
     0
100
AcDbVertex
100
AcDb2dVertex
 10
0.0
 20
0.9999999999999998
 30
0.0
  0
SEQEND
  5
F6
330
F3
100
AcDbEntity
  8
0
 62
     0
  0
SOLID
  5
FA
330
F0
100
AcDbEntity
  8
0
 62
     0
100
AcDbTrace
 10
0.0
 20
0.9999999999999998
 30
0.0
 11
0.0
 21
-0.9999999999999998
 31
0.0
 12
-0.9999999999999998
 22
0.0
 32
0.0
 13
0.0
 23
0.9999999999999998
 33
0.0
  0
ENDBLK
  5
F2
330
F0
100
AcDbEntity
  8
0
100
AcDbBlockEnd
  0
BLOCK
  5
FD
330
FC
100
AcDbEntity
  8
0
100
AcDbBlockBegin
  2
Filled-1
 70
     0
 10
0.0
 20
0.0
 30
0.0
  3
Filled-1
  1

  0
LINE
  5
FF
330
FC
100
AcDbEntity
  8
0
 62
     0
100
AcDbLine
 10
-0.9999999999999998
 20
0.0
 30
0.0
 11
0.0
 21
0.0
 31
0.0
  0
POLYLINE
  5
100
330
FC
100
AcDbEntity
  8
0
 62
     0
100
AcDb2dPolyline
 66
     1
 10
0.0
 20
0.0
 30
0.0
 70
   128
  0
VERTEX
  5
101
330
100
100
AcDbEntity
  8
0
 62
     0
100
AcDbVertex
100
AcDb2dVertex
 10
-0.9999999999999998
 20
-0.0994897959183674
 30
0.0
  0
VERTEX
  5
102
330
100
100
AcDbEntity
  8
0
 62
     0
100
AcDbVertex
100
AcDb2dVertex
 10
0.0
 20
0.0
 30
0.0
  0
VERTEX
  5
104
330
100
100
AcDbEntity
  8
0
 62
     0
100
AcDbVertex
100
AcDb2dVertex
 10
-0.9999999999999998
 20
0.0994897959183674
 30
0.0
  0
VERTEX
  5
105
330
100
100
AcDbEntity
  8
0
 62
     0
100
AcDbVertex
100
AcDb2dVertex
 10
-0.9999999999999998
 20
-0.0994897959183674
 30
0.0
  0
SEQEND
  5
103
330
100
100
AcDbEntity
  8
0
 62
     0
  0
SOLID
  5
106
330
FC
100
AcDbEntity
  8
0
 62
     0
100
AcDbTrace
 10
-0.9999999999999998
 20
-0.0994897959183674
 30
0.0
 11
0.0
 21
0.0
 31
0.0
 12
-0.9999999999999998
 22
0.0994897959183674
 32
0.0
 13
-0.9999999999999998
 23
-0.0994897959183674
 33
0.0
  0
LINE
  5
107
330
FC
100
AcDbEntity
  8
0
 62
     0
100
AcDbLine
 10
-0.9999999999999998
 20
-0.0994897959183674
 30
0.0
 11
0.0
 21
0.0
 31
0.0
  0
LINE
  5
108
330
FC
100
AcDbEntity
  8
0
 62
     0
100
AcDbLine
 10
0.0
 20
0.0
 30
0.0
 11
-0.9999999999999998
 21
0.0994897959183674
 31
0.0
  0
LINE
  5
109
330
FC
100
AcDbEntity
  8
0
 62
     0
100
AcDbLine
 10
-0.9999999999999998
 20
0.0994897959183674
 30
0.0
 11
-0.9999999999999998
 21
-0.0994897959183674
 31
0.0
  0
ENDBLK
  5
FE
330
FC
100
AcDbEntity
  8
0
100
AcDbBlockEnd
  0
BLOCK
  5
10C
330
10B
100
AcDbEntity
  8
0
100
AcDbBlockBegin
  2
Borders SST-LAND
 70
     0
 10
0.0
 20
0.0
 30
0.0
  3
Borders SST-LAND
  1

  0
LINE
  5
10E
330
10B
100
AcDbEntity
  8
Border (ANSI)
 62
     7
370
    50
100
AcDbLine
 10
0.4999999999999999
 20
16.49999999999999
 30
0.0
 11
0.500000000000005
 21
0.4999999999999984
 31
0.0
  0
LINE
  5
10F
330
10B
100
AcDbEntity
  8
Border (ANSI)
 62
     7
370
    50
100
AcDbLine
 10
21.5
 20
16.49999999999999
 30
0.0
 11
0.4999999999999984
 21
16.49999999999999
 31
0.0
  0
LINE
  5
110
330
10B
100
AcDbEntity
  8
Border (ANSI)
 62
     7
370
    50
100
AcDbLine
 10
21.5
 20
0.4999999999999999
 30
0.0
 11
21.5
 21
16.49999999999999
 31
0.0
  0
LINE
  5
111
330
10B
100
AcDbEntity
  8
Border (ANSI)
 62
     7
370
    50
100
AcDbLine
 10
0.500000000000005
 20
0.4999999999999999
 30
0.0
 11
21.5
 21
0.4999999999999999
 31
0.0
  0
ENDBLK
  5
10D
330
10B
100
AcDbEntity
  8
0
100
AcDbBlockEnd
  0
ENDSEC
  0
SECTION
  2
ENTITIES
  0
INSERT
  5
112
330
6C
100
AcDbEntity
  8
0
100
AcDbBlockReference
  2
Borders SST-LAND
 10
0.0
 20
0.0
 30
0.0
  0
LINE
  5
113
330
6C
100
AcDbEntity
  8
Visible Narrow (ANSI)
100
AcDbLine
 10
9.327627742734659
 20
12.30885610475588
 30
0.0
 11
9.407052796184903
 21
12.25390193439794
 31
0.0
  0
ELLIPSE
  5
114
330
6C
100
AcDbEntity
  8
Visible Narrow (ANSI)
100
AcDbEllipse
 10
9.407052796184903
 20
12.35497721750698
 30
0.0
 11
0.0620191632288618
 21
0.0896360607813207
 31
0.0
210
0.0
220
0.0
230
0.9999999999999998
 40
0.8155863825683244
 41
3.845125880456414
 42
4.779047529554381
  0
LINE
  5
115
330
6C
100
AcDbEntity
  8
Visible Narrow (ANSI)
100
AcDbLine
 10
9.484127435334237
 20
12.31047815384642
 30
0.0
 11
9.38295178655612
 21
12.38048155450528
 31
0.0
  0
ELLIPSE
  5
116
330
6C
100
AcDbEntity
  8
Visible Narrow (ANSI)
100
AcDbEllipse
 10
9.407052796184832
 20
12.15390130417617
 30
0.0
 11
0.0958480798442615
 21
-0.0519051595717449
 31
0.0
210
0.0
220
0.0
230
1.0
 40
0.038542434221865
 41
4.733258055360848
 42
5.667179704458993
  0
ELLIPSE
  5
117
330
6C
100
AcDbEntity
  8
Visible Narrow (ANSI)
100
AcDbEllipse
 10
9.388421586816058
 20
12.15468439977608
 30
0.0
 11
0.0914891250051484
 21
0.1584638128489373
 31
0.0
210
0.0
220
0.0
230
0.9999999999999998
 40
0.5773502691896257
 41
4.759611177484278
 42
6.235963110079207
  0
ELLIPSE
  5
118
330
6C
100
AcDbEntity
  8
Visible Narrow (ANSI)
100
AcDbEllipse
 10
9.357182135026938
 20
12.17272050567587
 30
0.0
 11
0.0476733995195763
 21
0.0825727501374358
 31
0.0
210
0.0
220
0.0
230
1.0
 40
0.5773502691896257
 41
4.759611177484273
 42
6.235963110079199
  0
ELLIPSE
  5
119
330
6C
100
AcDbEntity
  8
Visible (ANSI)
100
AcDbEllipse
 10
9.204573823707505
 20
11.78000358608968
 30
0.0
 11
0.1344783701975464
 21
0.1499897309283447
 31
0.0
210
0.0
220
0.0
230
1.0
 40
0.5023653122701609
 41
6.277552098182884
 42
6.630841608575876
  0
SPLINE
  5
11A
330
6C
100
AcDbEntity
  8
Visible (ANSI)
100
AcDbSpline
210
0.0
220
0.0
230
1.0
 70
     8
 71
     3
 72
    10
 73
     6
 74
     0
 42
0.0000000001
 43
0.0000000001
 40
0.4516732127357626
 40
0.4516732127357626
 40
0.4516732127357626
 40
0.4516732127357626
 40
0.5581944838629322
 40
0.5581944838629322
 40
0.5895170765443869
 40
0.5895170765443869
 40
0.5895170765443869
 40
0.5895170765443869
 10
9.382951786556125
 20
11.92257126374213
 30
0.0
 10
9.373863906859892
 20
11.92181421904811
 30
0.0
 10
9.362642860127349
 20
11.92302125343956
 30
0.0
 10
9.346858680720258
 20
11.92722853256363
 30
0.0
 10
9.343188736153397
 20
11.9283497196587
 30
0.0
 10
9.33947451822056
 20
11.92961037500937
 30
0.0
  0
LINE
  5
11B
330
6C
100
AcDbEntity
  8
Visible Narrow (ANSI)
100
AcDbLine
 10
9.382951786556125
 20
11.92257126374213
 30
0.0
 11
9.484127435334164
 21
12.10940224051561
 31
0.0
  0
LINE
  5
11C
330
6C
100
AcDbEntity
  8
Visible Narrow (ANSI)
100
AcDbLine
 10
9.407052796184832
 20
12.14912475624213
 30
0.0
 11
9.298429267960994
 21
11.94854052353647
 31
0.0
  0
SPLINE
  5
11D
330
6C
100
AcDbEntity
  8
Visible (ANSI)
100
AcDbSpline
210
0.0
220
0.0
230
1.0
 70
     8
 71
     3
 72
     8
 73
     4
 74
     0
 42
0.0000000001
 43
0.0000000001
 40
0.684973895071007
 40
0.684973895071007
 40
0.684973895071007
 40
0.684973895071007
 40
0.6957107693520332
 40
0.6957107693520332
 40
0.6957107693520332
 40
0.6957107693520332
 10
9.305335596910824
 20
11.94403643978533
 30
0.0
 10
9.30404712436362
 20
11.94466677626015
 30
0.0
 10
9.302752181033662
 20
11.94530789340019
 30
0.0
 10
9.301452962526612
 20
11.94595820048347
 30
0.0
  0
LINE
  5
11E
330
6C
100
AcDbEntity
  8
Visible Narrow (ANSI)
100
AcDbLine
 10
9.484127435334263
 20
8.636243539671697
 30
0.0
 11
9.38295178655618
 21
8.70624694033054
 31
0.0
  0
ELLIPSE
  5
11F
330
6C
100
AcDbEntity
  8
Visible Narrow (ANSI)
100
AcDbEllipse
 10
9.388421586816061
 20
8.480449785601324
 30
0.0
 11
0.0914891250051748
 21
0.1584638128489831
 31
0.0
210
0.0
220
0.0
230
1.0
 40
0.5773502691896258
 41
4.759611177484254
 42
6.235963110079209
  0
LINE
  5
120
330
6C
100
AcDbEntity
  8
Visible Narrow (ANSI)
100
AcDbLine
 10
9.382951786556187
 20
8.248336649567413
 30
0.0
 11
9.484127435334194
 21
8.435167626340829
 31
0.0
  0
LINE
  5
121
330
6C
100
AcDbEntity
  8
Visible Narrow (ANSI)
100
AcDbLine
 10
9.484127435334251
 20
10.26923670152713
 30
0.0
 11
9.382951786556164
 21
10.33924010218597
 31
0.0
  0
ELLIPSE
  5
122
330
6C
100
AcDbEntity
  8
Visible Narrow (ANSI)
100
AcDbEllipse
 10
9.388421586816059
 20
10.11344294745677
 30
0.0
 11
0.0914891250051624
 21
0.1584638128489616
 31
0.0
210
0.0
220
0.0
230
1.0
 40
0.5773502691896258
 41
4.759611177484262
 42
6.235963110079199
  0
LINE
  5
123
330
6C
100
AcDbEntity
  8
Visible Narrow (ANSI)
100
AcDbLine
 10
9.382951786556169
 20
9.881329811422862
 30
0.0
 11
9.484127435334182
 21
10.06816078819629
 31
0.0
  0
LINE
  5
124
330
6C
100
AcDbEntity
  8
Visible Narrow (ANSI)
100
AcDbLine
 10
9.327627742734712
 20
10.26761465243656
 30
0.0
 11
9.407052796184917
 21
10.21266048207865
 31
0.0
  0
ELLIPSE
  5
125
330
6C
100
AcDbEntity
  8
Visible Narrow (ANSI)
100
AcDbEllipse
 10
9.407052796184917
 20
10.31373576518769
 30
0.0
 11
0.0620191632288623
 21
0.0896360607813177
 31
0.0
210
0.0
220
0.0
230
1.0
 40
0.8155863825683088
 41
3.845125880456444
 42
4.779047529554422
  0
ELLIPSE
  5
126
330
6C
100
AcDbEntity
  8
Visible Narrow (ANSI)
100
AcDbEllipse
 10
9.407052796184848
 20
10.11265985185685
 30
0.0
 11
0.0958480798442598
 21
-0.0519051595717447
 31
0.0
210
0.0
220
0.0
230
1.0
 40
0.0385424342218738
 41
4.733258055360852
 42
5.667179704459265
  0
ELLIPSE
  5
127
330
6C
100
AcDbEntity
  8
Visible Narrow (ANSI)
100
AcDbEllipse
 10
9.357182135026942
 20
10.13147905335656
 30
0.0
 11
0.0476733995195906
 21
0.0825727501374606
 31
0.0
210
0.0
220
0.0
230
1.0
 40
0.5773502691896258
 41
4.75961117748427
 42
6.235963110079222
  0
ELLIPSE
  5
128
330
6C
100
AcDbEntity
  8
Visible (ANSI)
100
AcDbEllipse
 10
9.204573823707535
 20
9.738762133770388
 30
0.0
 11
0.1344783701975454
 21
0.1499897309283437
 31
0.0
210
0.0
220
0.0
230
1.0
 40
0.5023653122701606
 41
6.277552098183971
 42
6.630841608574588
  0
SPLINE
  5
129
330
6C
100
AcDbEntity
  8
Visible (ANSI)
100
AcDbSpline
210
0.0
220
0.0
230
1.0
 70
     8
 71
     3
 72
    10
 73
     6
 74
     0
 42
0.0000000001
 43
0.0000000001
 40
0.4516732127357245
 40
0.4516732127357245
 40
0.4516732127357245
 40
0.4516732127357245
 40
0.5581944838628886
 40
0.5581944838628886
 40
0.5895170765446318
 40
0.5895170765446318
 40
0.5895170765446318
 40
0.5895170765446318
 10
9.382951786556169
 20
9.881329811422862
 30
0.0
 10
9.373863906859938
 20
9.880572766728846
 30
0.0
 10
9.362642860127397
 20
9.881779801120297
 30
0.0
 10
9.346858680720274
 20
9.885987080244381
 30
0.0
 10
9.343188736153377
 20
9.887108267339463
 30
0.0
 10
9.339474518220507
 20
9.888368922690148
 30
0.0
  0
LINE
  5
12A
330
6C
100
AcDbEntity
  8
Visible Narrow (ANSI)
100
AcDbLine
 10
9.407052796184848
 20
10.10788330392281
 30
0.0
 11
9.298429267961052
 21
9.907299071217222
 31
0.0
  0
SPLINE
  5
12B
330
6C
100
AcDbEntity
  8
Visible (ANSI)
100
AcDbSpline
210
0.0
220
0.0
230
1.0
 70
     8
 71
     3
 72
     8
 73
     4
 74
     0
 42
0.0000000001
 43
0.0000000001
 40
0.6849738950706112
 40
0.6849738950706112
 40
0.6849738950706112
 40
0.6849738950706112
 40
0.6957107693518531
 40
0.6957107693518531
 40
0.6957107693518531
 40
0.6957107693518531
 10
9.305335596911003
 20
9.902794987466009
 30
0.0
 10
9.304047124363773
 20
9.903425323940854
 30
0.0
 10
9.30275218103379
 20
9.904066441080898
 30
0.0
 10
9.301452962526715
 20
9.904716748164201
 30
0.0
  0
LINE
  5
12C
330
6C
100
AcDbEntity
  8
Visible Narrow (ANSI)
100
AcDbLine
 10
9.327627742734724
 20
8.634621490581134
 30
0.0
 11
9.407052796184929
 21
8.579667320223224
 31
0.0
  0
ELLIPSE
  5
12D
330
6C
100
AcDbEntity
  8
Visible Narrow (ANSI)
100
AcDbEllipse
 10
9.407052796184929
 20
8.680742603332259
 30
0.0
 11
0.0620191632288594
 21
0.0896360607813172
 31
0.0
210
0.0
220
0.0
230
1.0
 40
0.8155863825683141
 41
3.845125880456421
 42
4.779047529554401
  0
ELLIPSE
  5
12E
330
6C
100
AcDbEntity
  8
Visible Narrow (ANSI)
100
AcDbEllipse
 10
9.407052796184858
 20
8.479666690001389
 30
0.0
 11
0.0958480798442607
 21
-0.0519051595717454
 31
0.0
210
0.0
220
0.0
230
1.0
 40
0.0385424342218684
 41
4.733258055360865
 42
5.667179704459153
  0
ELLIPSE
  5
12F
330
6C
100
AcDbEntity
  8
Visible Narrow (ANSI)
100
AcDbEllipse
 10
9.357182135026942
 20
8.498485891501106
 30
0.0
 11
0.0476733995196029
 21
0.082572750137482
 31
0.0
210
0.0
220
0.0
230
1.0
 40
0.5773502691896258
 41
4.759611177484266
 42
6.235963110079226
  0
ELLIPSE
  5
130
330
6C
100
AcDbEntity
  8
Visible (ANSI)
100
AcDbEllipse
 10
9.204573823707558
 20
8.105768971914947
 30
0.0
 11
0.1344783701975456
 21
0.1499897309283438
 31
0.0
210
0.0
220
0.0
230
1.0
 40
0.5023653122701607
 41
6.27755209818352
 42
6.630841608575118
  0
SPLINE
  5
131
330
6C
100
AcDbEntity
  8
Visible (ANSI)
100
AcDbSpline
210
0.0
220
0.0
230
1.0
 70
     8
 71
     3
 72
    10
 73
     6
 74
     0
 42
0.0000000001
 43
0.0000000001
 40
0.4516732127357408
 40
0.4516732127357408
 40
0.4516732127357408
 40
0.4516732127357408
 40
0.5581944838629061
 40
0.5581944838629061
 40
0.5895170765445313
 40
0.5895170765445313
 40
0.5895170765445313
 40
0.5895170765445313
 10
9.382951786556187
 20
8.248336649567413
 30
0.0
 10
9.373863906859954
 20
8.247579604873395
 30
0.0
 10
9.362642860127413
 20
8.248786639264844
 30
0.0
 10
9.3468586807203
 20
8.252993918388922
 30
0.0
 10
9.343188736153422
 20
8.254115105484
 30
0.0
 10
9.339474518220564
 20
8.255375760834679
 30
0.0
  0
LINE
  5
132
330
6C
100
AcDbEntity
  8
Visible Narrow (ANSI)
100
AcDbLine
 10
9.40705279618486
 20
8.47489014206735
 30
0.0
 11
9.298429267961063
 21
8.274305909361759
 31
0.0
  0
SPLINE
  5
133
330
6C
100
AcDbEntity
  8
Visible (ANSI)
100
AcDbSpline
210
0.0
220
0.0
230
1.0
 70
     8
 71
     3
 72
     8
 73
     4
 74
     0
 42
0.0000000001
 43
0.0000000001
 40
0.6849738950707703
 40
0.6849738950707703
 40
0.6849738950707703
 40
0.6849738950707703
 40
0.6957107693519254
 40
0.6957107693519254
 40
0.6957107693519254
 40
0.6957107693519254
 10
9.305335596910966
 20
8.269801825610578
 30
0.0
 10
9.304047124363746
 20
8.270432162085418
 30
0.0
 10
9.302752181033772
 20
8.271073279225458
 30
0.0
 10
9.30145296252671
 20
8.271723586308754
 30
0.0
  0
ELLIPSE
  5
134
330
6C
100
AcDbEntity
  8
Visible (ANSI)
100
AcDbEllipse
 10
9.576852579037524
 20
12.13753797157669
 30
0.0
 11
0.4313351365237935
 21
0.0000000000000004
 31
0.0
210
0.0
220
0.0
230
1.0
 40
0.5773502691896262
 41
4.031504757806203
 42
4.12962568557044
  0
ELLIPSE
  5
135
330
6C
100
AcDbEntity
  8
Visible (ANSI)
100
AcDbEllipse
 10
9.576852579037666
 20
10.09629651925738
 30
0.0
 11
-0.4313351365237937
 21
-0.0000000000000005
 31
0.0
210
0.0
220
0.0
230
1.0
 40
0.5773502691896261
 41
0.8899121042165187
 42
0.9880330319801045
  0
ELLIPSE
  5
136
330
6C
100
AcDbEntity
  8
Visible (ANSI)
100
AcDbEllipse
 10
9.576852579037645
 20
8.463303357401949
 30
0.0
 11
-0.4313351365237937
 21
-0.0000000000000004
 31
0.0
210
0.0
220
0.0
230
1.0
 40
0.577350269189626
 41
0.8899121042164761
 42
0.9880330319803238
  0
LINE
  5
137
330
6C
100
AcDbEntity
  8
Visible Narrow (ANSI)
100
AcDbLine
 10
9.405060899611392
 20
12.15020136797564
 30
0.0
 11
9.407052796184832
 21
12.14912475624213
 31
0.0
  0
LINE
  5
138
330
6C
100
AcDbEntity
  8
Visible Narrow (ANSI)
100
AcDbLine
 10
9.405060899611425
 20
12.25349854046489
 30
0.0
 11
9.407052796184903
 21
12.25390193439794
 31
0.0
  0
ELLIPSE
  5
139
330
6C
100
AcDbEntity
  8
Visible (ANSI)
100
AcDbEllipse
 10
9.355894674881426
 20
12.1734638211374
 30
0.0
 11
-0.0470000000000049
 21
-0.0814063879557345
 31
0.0
210
0.0
220
0.0
230
0.9999999999999998
 40
0.5773502691896255
 41
1.618018523894583
 42
3.094370456489789
  0
LINE
  5
13A
330
6C
100
AcDbEntity
  8
Visible Narrow (ANSI)
100
AcDbLine
 10
9.40506089961142
 20
10.10895991565634
 30
0.0
 11
9.407052796184848
 21
10.10788330392281
 31
0.0
  0
LINE
  5
13B
330
6C
100
AcDbEntity
  8
Visible Narrow (ANSI)
100
AcDbLine
 10
9.405060899611456
 20
10.2122570881456
 30
0.0
 11
9.407052796184917
 21
10.21266048207865
 31
0.0
  0
ELLIPSE
  5
13C
330
6C
100
AcDbEntity
  8
Visible (ANSI)
100
AcDbEllipse
 10
9.355894674881456
 20
10.1322223688181
 30
0.0
 11
-0.0470000000000049
 21
-0.0814063879557345
 31
0.0
210
0.0
220
0.0
230
0.9999999999999998
 40
0.5773502691896255
 41
1.618018523894571
 42
3.094370456489789
  0
LINE
  5
13D
330
6C
100
AcDbEntity
  8
Visible Narrow (ANSI)
100
AcDbLine
 10
9.405060899611445
 20
8.475966753800902
 30
0.0
 11
9.40705279618486
 21
8.47489014206735
 31
0.0
  0
LINE
  5
13E
330
6C
100
AcDbEntity
  8
Visible Narrow (ANSI)
100
AcDbLine
 10
9.405060899611479
 20
8.57926392629016
 30
0.0
 11
9.407052796184929
 21
8.579667320223224
 31
0.0
  0
ELLIPSE
  5
13F
330
6C
100
AcDbEntity
  8
Visible (ANSI)
100
AcDbEllipse
 10
9.355894674881477
 20
8.499229206962661
 30
0.0
 11
-0.0470000000000049
 21
-0.0814063879557345
 31
0.0
210
0.0
220
0.0
230
0.9999999999999998
 40
0.5773502691896255
 41
1.618018523894571
 42
3.094370456489789
  0
LINE
  5
140
330
6C
100
AcDbEntity
  8
Visible Narrow (ANSI)
100
AcDbLine
 10
9.260637328274674
 20
12.15020136797564
 30
0.0
 11
9.405060899611392
 21
12.15020136797564
 31
0.0
  0
LINE
  5
141
330
6C
100
AcDbEntity
  8
Visible Narrow (ANSI)
100
AcDbLine
 10
9.296771935698233
 20
12.25349854046489
 30
0.0
 11
9.405060899611425
 21
12.25349854046489
 31
0.0
  0
ELLIPSE
  5
142
330
6C
100
AcDbEntity
  8
Visible (ANSI)
100
AcDbEllipse
 10
9.467787840521848
 20
12.20050652771781
 30
0.0
 11
-0.1525000000000008
 21
-0.2641377481542553
 31
0.0
210
0.0
220
0.0
230
0.9999999999999998
 40
0.5773502691896261
 41
4.331279526316985
 42
6.664294761247325
  0
ELLIPSE
  5
143
330
6C
100
AcDbEntity
  8
Visible (ANSI)
100
AcDbEllipse
 10
9.467787840521936
 20
8.526271913543087
 30
0.0
 11
-0.1525000000000002
 21
-0.2641377481542542
 31
0.0
210
0.0
220
0.0
230
1.0
 40
0.5773502691896259
 41
4.331279526317095
 42
6.664294761247197
  0
ELLIPSE
  5
144
330
6C
100
AcDbEntity
  8
Visible (ANSI)
100
AcDbEllipse
 10
9.467787840521934
 20
10.15926507539854
 30
0.0
 11
-0.1524999999999998
 21
-0.2641377481542533
 31
0.0
210
0.0
220
0.0
230
1.0
 40
0.5773502691896259
 41
4.331279526317185
 42
6.664294761247125
  0
ELLIPSE
  5
145
330
6C
100
AcDbEntity
  8
Visible (ANSI)
100
AcDbEllipse
 10
9.384702793732557
 20
12.01022199953267
 30
0.0
 11
-0.1869999999999995
 21
-0.3238935010153793
 31
0.0
210
0.0
220
0.0
230
0.9999999999999998
 40
0.5773502691896258
 41
5.497787143782138
 42
6.807058865447199
  0
LINE
  5
146
330
6C
100
AcDbEntity
  8
Visible (ANSI)
100
AcDbLine
 10
9.316326238148009
 20
11.67575856997164
 30
0.0
 11
9.453444999346968
 21
11.71254605815104
 31
0.0
  0
ELLIPSE
  5
147
330
6C
100
AcDbEntity
  8
Visible (ANSI)
100
AcDbEllipse
 10
9.384702793732557
 20
11.37629405410039
 30
0.0
 11
0.1879999999999988
 21
0.3256255518229473
 31
0.0
210
0.0
220
0.0
230
1.0
 40
0.5773502691896257
 41
5.497787143782142
 42
6.807058865447204
  0
LINE
  5
148
330
6C
100
AcDbEntity
  8
Visible (ANSI)
100
AcDbLine
 10
9.650574943458655
 20
11.52979541131478
 30
0.0
 11
9.650574943458657
 21
11.1431026305874
 31
0.0
  0
ELLIPSE
  5
149
330
6C
100
AcDbEntity
  8
Visible (ANSI)
100
AcDbEllipse
 10
9.384702793732557
 20
10.98960127337302
 30
0.0
 11
-0.188000000000019
 21
-0.3256255518229377
 31
0.0
210
0.0
220
0.0
230
1.0
 40
0.5773502691896248
 41
1.046922768527457
 42
2.356194490192589
  0
LINE
  5
14A
330
6C
100
AcDbEntity
  8
Visible (ANSI)
100
AcDbLine
 10
9.453444999346968
 20
10.73272593115469
 30
0.0
 11
9.316326238148009
 21
10.61118231195576
 31
0.0
  0
ELLIPSE
  5
14B
330
6C
100
AcDbEntity
  8
Visible (ANSI)
100
AcDbEllipse
 10
9.384702793732559
 20
10.35567332794073
 30
0.0
 11
-0.1869999999999816
 21
-0.3238935010153937
 31
0.0
210
0.0
220
0.0
230
1.0
 40
0.5773502691896251
 41
4.188515422116974
 42
5.497787143781957
  0
LINE
  5
14C
330
6C
100
AcDbEntity
  8
Visible (ANSI)
100
AcDbLine
 10
9.12024485756879
 20
10.20298846730725
 30
0.0
 11
9.12024485756879
 21
9.91835775919584
 31
0.0
  0
ELLIPSE
  5
14D
330
6C
100
AcDbEntity
  8
Visible (ANSI)
100
AcDbEllipse
 10
9.384702793732557
 20
10.07104261982933
 30
0.0
 11
-0.187
 21
-0.3238935010153804
 31
0.0
210
0.0
220
0.0
230
0.9999999999999998
 40
0.5773502691896258
 41
5.497787143782143
 42
6.80705886544681
  0
LINE
  5
14E
330
6C
100
AcDbEntity
  8
Visible (ANSI)
100
AcDbLine
 10
9.316326238147899
 20
9.736579190268214
 30
0.0
 11
9.453444999346995
 21
9.773366678447718
 31
0.0
  0
ELLIPSE
  5
14F
330
6C
100
AcDbEntity
  8
Visible (ANSI)
100
AcDbEllipse
 10
9.384702793732392
 20
9.437114674396944
 30
0.0
 11
0.1879999999999999
 21
0.3256255518229491
 31
0.0
210
0.0
220
0.0
230
1.0
 40
0.5773502691896259
 41
5.497787143782638
 42
6.807058865446507
  0
LINE
  5
150
330
6C
100
AcDbEntity
  8
Visible (ANSI)
100
AcDbLine
 10
9.650574943458535
 20
9.590616031611512
 30
0.0
 11
9.650574943458659
 21
9.305985323500177
 31
0.0
  0
ELLIPSE
  5
151
330
6C
100
AcDbEntity
  8
Visible (ANSI)
100
AcDbEllipse
 10
9.384702793732518
 20
9.152483966285609
 30
0.0
 11
-0.1880000000000184
 21
-0.3256255518229367
 31
0.0
210
0.0
220
0.0
230
1.0
 40
0.577350269189625
 41
1.046922768527299
 42
2.356194490193091
  0
LINE
  5
152
330
6C
100
AcDbEntity
  8
Visible (ANSI)
100
AcDbLine
 10
9.453444999346888
 20
8.895608624067254
 30
0.0
 11
9.316326238147921
 21
8.77406500486834
 31
0.0
  0
ELLIPSE
  5
153
330
6C
100
AcDbEntity
  8
Visible (ANSI)
100
AcDbEllipse
 10
9.384702793732431
 20
8.518556020853273
 30
0.0
 11
-0.186999999999981
 21
-0.3238935010153924
 31
0.0
210
0.0
220
0.0
230
1.0
 40
0.577350269189625
 41
4.18851542211682
 42
5.497787143781962
  0
LINE
  5
154
330
6C
100
AcDbEntity
  8
Visible (ANSI)
100
AcDbLine
 10
9.12024485756879
 20
8.365871160219862
 30
0.0
 11
9.12024485756879
 21
8.285364597340388
 31
0.0
  0
ELLIPSE
  5
155
330
6C
100
AcDbEntity
  8
Visible (ANSI)
100
AcDbEllipse
 10
9.384702793732431
 20
8.438049457973798
 30
0.0
 11
-0.1869999999999986
 21
-0.323893501015378
 31
0.0
210
0.0
220
0.0
230
1.0
 40
0.5773502691896257
 41
5.497787143782131
 42
6.807058865447658
  0
LINE
  5
156
330
6C
100
AcDbEntity
  8
Visible (ANSI)
100
AcDbLine
 10
9.316326238148011
 20
8.103586028412845
 30
0.0
 11
9.45344499934697
 21
8.14037351659225
 31
0.0
  0
ELLIPSE
  5
157
330
6C
100
AcDbEntity
  8
Visible (ANSI)
100
AcDbEllipse
 10
9.384702793732559
 20
7.804121512541588
 30
0.0
 11
0.1879999999999996
 21
0.3256255518229486
 31
0.0
210
0.0
220
0.0
230
1.0
 40
0.5773502691896257
 41
5.497787143782135
 42
6.807058865447199
  0
LINE
  5
158
330
6C
100
AcDbEntity
  8
Visible (ANSI)
100
AcDbLine
 10
9.6505749434587
 20
7.957622869756
 30
0.0
 11
9.6505749434587
 21
7.877116306876526
 31
0.0
  0
ELLIPSE
  5
159
330
6C
100
AcDbEntity
  8
Visible (ANSI)
100
AcDbEllipse
 10
9.384702793732557
 20
7.723614949662113
 30
0.0
 11
-0.1880000000000194
 21
-0.3256255518229382
 31
0.0
210
0.0
220
0.0
230
1.0
 40
0.5773502691896251
 41
1.044420296035747
 42
2.356194490192585
  0
LINE
  5
15A
330
6C
100
AcDbEntity
  8
Visible (ANSI)
100
AcDbLine
 10
9.452802070577291
 20
7.466170703213275
 30
0.0
 11
9.316875189556371
 21
7.346104212457259
 31
0.0
  0
ELLIPSE
  5
15B
330
6C
100
AcDbEntity
  8
Visible (ANSI)
100
AcDbEllipse
 10
9.384702793732557
 20
7.089687004229827
 30
0.0
 11
-0.1872500000000414
 21
-0.3243265137173894
 31
0.0
210
0.0
220
0.0
230
1.0
 40
0.5773502691896248
 41
4.186012949560501
 42
5.497787143782108
  0
LINE
  5
15C
330
6C
100
AcDbEntity
  8
Visible (ANSI)
100
AcDbLine
 10
9.119891304178109
 20
6.936798019451016
 30
0.0
 11
9.119891304178191
 21
6.640981308180949
 31
0.0
  0
LINE
  5
15D
330
6C
100
AcDbEntity
  8
Visible (ANSI)
100
AcDbLine
 10
9.119891304178191
 20
6.640981308180949
 30
0.0
 11
9.20792609843588
 21
6.590154396018218
 31
0.0
  0
LINE
  5
15E
330
6C
100
AcDbEntity
  8
Visible (ANSI)
100
AcDbLine
 10
9.20792609843588
 20
6.590154396018218
 30
0.0
 11
9.340508619908357
 21
6.666700950480191
 31
0.0
  0
ELLIPSE
  5
15F
330
6C
100
AcDbEntity
  8
Visible (ANSI)
100
AcDbEllipse
 10
9.340508619908357
 20
6.615669914172208
 30
0.0
 11
0.0312500000000006
 21
0.0541265877365285
 31
0.0
210
0.0
220
0.0
230
0.9999999999999998
 40
0.5773502691896258
 41
6.108652381980189
 42
7.068583470577034
  0
LINE
  5
160
330
6C
100
AcDbEntity
  8
Visible (ANSI)
100
AcDbLine
 10
9.376710367742079
 20
6.665841202977978
 30
0.0
 11
9.628824776422698
 21
6.395641870642773
 31
0.0
  0
ELLIPSE
  5
161
330
6C
100
AcDbEntity
  8
Visible (ANSI)
100
AcDbEllipse
 10
9.665026524256433
 20
6.445813159448546
 30
0.0
 11
-0.0312500000000003
 21
-0.0541265877365279
 31
0.0
210
0.0
220
0.0
230
1.0
 40
0.5773502691896255
 41
6.108652381979952
 42
7.068583470577034
  0
LINE
  5
162
330
6C
100
AcDbEntity
  8
Visible (ANSI)
100
AcDbLine
 10
9.665026524256431
 20
6.394782123140554
 30
0.0
 11
9.915032879622426
 21
6.539123359710236
 31
0.0
  0
ELLIPSE
  5
163
330
6C
100
AcDbEntity
  8
Visible (ANSI)
100
AcDbEllipse
 10
9.915032879622426
 20
6.43706128709426
 30
0.0
 11
0.0625000000000066
 21
0.1082531754730663
 31
0.0
210
0.0
220
0.0
230
1.0
 40
0.5773502691896257
 41
0.5453142823859026
 42
0.7853981633974314
  0
ELLIPSE
  5
164
330
6C
100
AcDbEntity
  8
Visible (ANSI)
100
AcDbEllipse
 10
9.731185116513891
 20
14.03660321407911
 30
0.0
 11
-0.1909331526242139
 21
-0.3307059211944418
 31
0.0
210
0.0
220
0.0
230
0.9999999999999998
 40
0.5773502691896258
 41
1.3912179537513
 42
1.646717583062481
  0
ELLIPSE
  5
165
330
6C
100
AcDbEntity
  8
Visible (ANSI)
100
AcDbEllipse
 10
9.972449950254684
 20
13.63055946438368
 30
0.0
 11
-0.1874999999999791
 21
-0.3247595264191731
 31
0.0
210
0.0
220
0.0
230
0.9999999999999998
 40
0.5773502691896257
 41
4.263298674279436
 42
4.695714016380803
  0
LINE
  5
166
330
6C
100
AcDbEntity
  8
Visible (ANSI)
100
AcDbLine
 10
9.788102428113605
 20
13.7442126925242
 30
0.0
 11
9.650574943458657
 21
13.50459050910451
 31
0.0
  0
LINE
  5
167
330
6C
100
AcDbEntity
  8
Visible (ANSI)
100
AcDbLine
 10
9.650574943458657
 20
13.50459050910451
 30
0.0
 11
9.650574943458657
 21
13.08228201029075
 31
0.0
  0
ELLIPSE
  5
168
330
6C
100
AcDbEntity
  8
Visible (ANSI)
100
AcDbEllipse
 10
9.384702793732513
 20
12.92878065307634
 30
0.0
 11
-0.1880000000000199
 21
-0.3256255518229397
 31
0.0
210
0.0
220
0.0
230
0.9999999999999998
 40
0.5773502691896246
 41
1.046922768527469
 42
2.35619449019258
  0
LINE
  5
169
330
6C
100
AcDbEntity
  8
Visible (ANSI)
100
AcDbLine
 10
9.453444999346929
 20
12.67190531085802
 30
0.0
 11
9.316326238147965
 21
12.55036169165908
 31
0.0
  0
ELLIPSE
  5
16A
330
6C
100
AcDbEntity
  8
Visible (ANSI)
100
AcDbEllipse
 10
9.384702793732557
 20
12.29485270764408
 30
0.0
 11
-0.1869999999999793
 21
-0.3238935010153897
 31
0.0
210
0.0
220
0.0
230
1.0
 40
0.5773502691896249
 41
4.188515422117132
 42
5.497787143781971
  0
LINE
  5
16B
330
6C
100
AcDbEntity
  8
Visible (ANSI)
100
AcDbLine
 10
9.120244857568788
 20
12.14216784701059
 30
0.0
 11
9.120244857568788
 21
11.85753713889919
 31
0.0
  0
ELLIPSE
  5
16C
330
6C
100
AcDbEntity
  8
Visible (ANSI)
100
AcDbEllipse
 10
9.632499612321854
 20
6.464592580809887
 30
0.0
 11
-0.031250000000003
 21
-0.0541265877365327
 31
0.0
210
0.0
220
0.0
230
1.0
 40
0.5773502691896257
 41
6.108652381979958
 42
6.283185307179564
  0
LINE
  5
16D
330
6C
100
AcDbEntity
  8
Visible (ANSI)
100
AcDbLine
 10
9.355631470588109
 20
6.672351409079179
 30
0.0
 11
9.596297864488118
 21
6.414421292004111
 31
0.0
  0
LINE
  5
16E
330
6C
100
AcDbEntity
  8
Visible (ANSI)
100
AcDbLine
 10
9.087364392243529
 20
6.955577440812355
 30
0.0
 11
9.087364392243609
 21
6.659760729542286
 31
0.0
  0
ELLIPSE
  5
16F
330
6C
100
AcDbEntity
  8
Visible (ANSI)
100
AcDbEllipse
 10
9.352175881797977
 20
7.108466425591164
 30
0.0
 11
-0.1872500000000414
 21
-0.3243265137173894
 31
0.0
210
0.0
220
0.0
230
1.0
 40
0.5773502691896248
 41
4.186012949560501
 42
5.497787143782108
  0
LINE
  5
170
330
6C
100
AcDbEntity
  8
Visible (ANSI)
100
AcDbLine
 10
9.420275158642709
 20
7.484950124574612
 30
0.0
 11
9.28434827762179
 21
7.364883633818596
 31
0.0
  0
ELLIPSE
  5
171
330
6C
100
AcDbEntity
  8
Visible (ANSI)
100
AcDbEllipse
 10
9.352175881797977
 20
7.742394371023451
 30
0.0
 11
-0.1880000000000192
 21
-0.3256255518229383
 31
0.0
210
0.0
220
0.0
230
1.0
 40
0.5773502691896248
 41
1.044420296035747
 42
2.356194490192585
  0
LINE
  5
172
330
6C
100
AcDbEntity
  8
Visible (ANSI)
100
AcDbLine
 10
9.618048031524118
 20
7.976402291117337
 30
0.0
 11
9.618048031524118
 21
7.895895728237864
 31
0.0
  0
ELLIPSE
  5
173
330
6C
100
AcDbEntity
  8
Visible (ANSI)
100
AcDbEllipse
 10
9.352175881797977
 20
7.822900933902925
 30
0.0
 11
0.1879999999999984
 21
0.3256255518229494
 31
0.0
210
0.0
220
0.0
230
0.9999999999999998
 40
0.5773502691896237
 41
5.497787143782131
 42
6.196569299606668
  0
ELLIPSE
  5
174
330
6C
100
AcDbEntity
  8
Visible (ANSI)
100
AcDbEllipse
 10
9.352175881797849
 20
8.456828879335137
 30
0.0
 11
-0.1869999999999977
 21
-0.3238935010153789
 31
0.0
210
0.0
220
0.0
230
1.0
 40
0.5773502691896243
 41
5.497787143782131
 42
6.283185307179585
  0
LINE
  5
175
330
6C
100
AcDbEntity
  8
Visible (ANSI)
100
AcDbLine
 10
9.087717945634208
 20
8.384650581581199
 30
0.0
 11
9.087717945634208
 21
8.304144018701727
 31
0.0
  0
ELLIPSE
  5
176
330
6C
100
AcDbEntity
  8
Visible (ANSI)
100
AcDbEllipse
 10
9.352175881797849
 20
8.53733544221461
 30
0.0
 11
-0.186999999999981
 21
-0.3238935010153924
 31
0.0
210
0.0
220
0.0
230
1.0
 40
0.577350269189625
 41
4.18851542211682
 42
5.497787143781962
  0
LINE
  5
177
330
6C
100
AcDbEntity
  8
Visible (ANSI)
100
AcDbLine
 10
9.420918087412308
 20
8.914388045428593
 30
0.0
 11
9.283799326213339
 21
8.792844426229679
 31
0.0
  0
ELLIPSE
  5
178
330
6C
100
AcDbEntity
  8
Visible (ANSI)
100
AcDbEllipse
 10
9.352175881797936
 20
9.171263387646947
 30
0.0
 11
-0.1880000000000184
 21
-0.3256255518229367
 31
0.0
210
0.0
220
0.0
230
1.0
 40
0.577350269189625
 41
1.046922768527299
 42
2.356194490193091
  0
LINE
  5
179
330
6C
100
AcDbEntity
  8
Visible (ANSI)
100
AcDbLine
 10
9.618048031523954
 20
9.609395452972849
 30
0.0
 11
9.618048031524077
 21
9.324764744861516
 31
0.0
  0
ELLIPSE
  5
17A
330
6C
100
AcDbEntity
  8
Visible (ANSI)
100
AcDbEllipse
 10
9.352175881797808
 20
9.455894095758278
 30
0.0
 11
0.1880000000000014
 21
0.3256255518229544
 31
0.0
210
0.0
220
0.0
230
1.0
 40
0.5773502691896239
 41
5.497787143782643
 42
6.196569299606663
  0
ELLIPSE
  5
17B
330
6C
100
AcDbEntity
  8
Visible (ANSI)
100
AcDbEllipse
 10
9.352175881797977
 20
10.08982204119066
 30
0.0
 11
-0.1869999999999993
 21
-0.3238935010153815
 31
0.0
210
0.0
220
0.0
230
1.0
 40
0.5773502691896241
 41
5.497787143782137
 42
6.283185307179586
  0
LINE
  5
17C
330
6C
100
AcDbEntity
  8
Visible (ANSI)
100
AcDbLine
 10
9.087717945634208
 20
10.22176788866858
 30
0.0
 11
9.087717945634208
 21
9.937137180557179
 31
0.0
  0
ELLIPSE
  5
17D
330
6C
100
AcDbEntity
  8
Visible (ANSI)
100
AcDbEllipse
 10
9.352175881797977
 20
10.37445274930207
 30
0.0
 11
-0.1869999999999816
 21
-0.3238935010153937
 31
0.0
210
0.0
220
0.0
230
1.0
 40
0.5773502691896251
 41
4.188515422116976
 42
5.497787143781957
  0
LINE
  5
17E
330
6C
100
AcDbEntity
  8
Visible (ANSI)
100
AcDbLine
 10
9.420918087412388
 20
10.75150535251603
 30
0.0
 11
9.283799326213427
 21
10.6299617333171
 31
0.0
  0
ELLIPSE
  5
17F
330
6C
100
AcDbEntity
  8
Visible (ANSI)
100
AcDbEllipse
 10
9.352175881797977
 20
11.00838069473435
 30
0.0
 11
-0.1880000000000191
 21
-0.3256255518229377
 31
0.0
210
0.0
220
0.0
230
1.0
 40
0.5773502691896249
 41
1.046922768527457
 42
2.356194490192589
  0
LINE
  5
180
330
6C
100
AcDbEntity
  8
Visible (ANSI)
100
AcDbLine
 10
9.618048031524075
 20
11.54857483267611
 30
0.0
 11
9.618048031524075
 21
11.16188205194874
 31
0.0
  0
ELLIPSE
  5
181
330
6C
100
AcDbEntity
  8
Visible (ANSI)
100
AcDbEllipse
 10
9.352175881797975
 20
11.39507347546172
 30
0.0
 11
0.1880000000000002
 21
0.3256255518229526
 31
0.0
210
0.0
220
0.0
230
0.9999999999999998
 40
0.5773502691896237
 41
5.497787143782148
 42
6.196569299606673
  0
ELLIPSE
  5
182
330
6C
100
AcDbEntity
  8
Visible (ANSI)
100
AcDbEllipse
 10
9.352175881797977
 20
12.02900142089401
 30
0.0
 11
-0.187000000000001
 21
-0.3238935010153845
 31
0.0
210
0.0
220
0.0
230
1.0
 40
0.5773502691896243
 41
5.497787143782133
 42
6.283185307179572
  0
LINE
  5
183
330
6C
100
AcDbEntity
  8
Visible (ANSI)
100
AcDbLine
 10
9.087717945634208
 20
12.16094726837193
 30
0.0
 11
9.087717945634208
 21
11.87631656026052
 31
0.0
  0
ELLIPSE
  5
184
330
6C
100
AcDbEntity
  8
Visible (ANSI)
100
AcDbEllipse
 10
9.352175881797975
 20
12.31363212900542
 30
0.0
 11
-0.1869999999999793
 21
-0.3238935010153897
 31
0.0
210
0.0
220
0.0
230
1.0
 40
0.5773502691896249
 41
4.188515422117132
 42
5.497787143781971
  0
LINE
  5
185
330
6C
100
AcDbEntity
  8
Visible (ANSI)
100
AcDbLine
 10
9.420918087412347
 20
12.69068473221936
 30
0.0
 11
9.283799326213385
 21
12.56914111302042
 31
0.0
  0
ELLIPSE
  5
186
330
6C
100
AcDbEntity
  8
Visible (ANSI)
100
AcDbEllipse
 10
9.352175881797931
 20
12.94756007443768
 30
0.0
 11
-0.1880000000000201
 21
-0.3256255518229397
 31
0.0
210
0.0
220
0.0
230
1.0
 40
0.577350269189625
 41
1.046922768527469
 42
2.356194490192581
  0
LINE
  5
187
330
6C
100
AcDbEntity
  8
Visible (ANSI)
100
AcDbLine
 10
9.618048031524075
 20
13.52336993046585
 30
0.0
 11
9.618048031524075
 21
13.10106143165209
 31
0.0
  0
LINE
  5
188
330
6C
100
AcDbEntity
  8
Visible (ANSI)
100
AcDbLine
 10
9.755575516179023
 20
13.76299211388553
 30
0.0
 11
9.618048031524075
 21
13.52336993046585
 31
0.0
  0
ELLIPSE
  5
189
330
6C
100
AcDbEntity
  8
Visible (ANSI)
100
AcDbEllipse
 10
9.939923038320104
 20
13.64933888574501
 30
0.0
 11
-0.1874999999999791
 21
-0.3247595264191731
 31
0.0
210
0.0
220
0.0
230
0.9999999999999998
 40
0.5773502691896257
 41
4.263298674279436
 42
4.695714016380803
  0
ELLIPSE
  5
18A
330
6C
100
AcDbEntity
  8
Visible (ANSI)
100
AcDbEllipse
 10
9.698658204579309
 20
14.05538263544045
 30
0.0
 11
-0.1909331526242139
 21
-0.3307059211944418
 31
0.0
210
0.0
220
0.0
230
0.9999999999999998
 40
0.5773502691896258
 41
1.3912179537513
 42
1.646717583062481
  0
ELLIPSE
  5
18B
330
6C
100
AcDbEntity
  8
Visible (ANSI)
100
AcDbEllipse
 10
10.58187273994509
 20
10.53666858497607
 30
0.0
 11
-0.1525000000023669
 21
-0.2641377481583536
 31
0.0
210
0.0
220
0.0
230
1.0
 40
0.5773502691896258
 41
0.1068488064223354
 42
0.2938323808885723
  0
ELLIPSE
  5
18C
330
6C
100
AcDbEntity
  8
Visible (ANSI)
100
AcDbEllipse
 10
10.58187273994516
 20
8.597489205272882
 30
0.0
 11
-0.1525000000024565
 21
-0.2641377481585089
 31
0.0
210
0.0
220
0.0
230
1.0
 40
0.5773502691896258
 41
0.1068488064223878
 42
0.2938323808884133
  0
ELLIPSE
  5
18D
330
6C
100
AcDbEntity
  8
Visible (ANSI)
100
AcDbEllipse
 10
10.4987876931557
 20
12.28556343649427
 30
0.0
 11
-0.1870000000000012
 21
-0.3238935010153818
 31
0.0
210
0.0
220
0.0
230
1.0
 40
0.5773502691896255
 41
5.497787143782149
 42
6.283185307179596
  0
LINE
  5
18E
330
6C
100
AcDbEntity
  8
Visible (ANSI)
100
AcDbLine
 10
10.23432975699193
 20
12.13287857586079
 30
0.0
 11
10.23432975699193
 21
12.55518707467454
 31
0.0
  0
LINE
  5
18F
330
6C
100
AcDbEntity
  8
Visible (ANSI)
100
AcDbLine
 10
10.23432975699193
 20
12.55518707467454
 30
0.0
 11
10.31050482242555
 21
12.68786531280544
 31
0.0
  0
ELLIPSE
  5
190
330
6C
100
AcDbEntity
  8
Visible (ANSI)
100
AcDbEllipse
 10
10.49878769315569
 20
12.58097189947393
 30
0.0
 11
0.1874999999999918
 21
0.3247595264191505
 31
0.0
210
0.0
220
0.0
230
1.0
 40
0.5773502691896258
 41
0.7853981633974536
 42
1.574980402796978
  0
LINE
  5
191
330
6C
100
AcDbEntity
  8
Visible (ANSI)
100
AcDbLine
 10
10.49878769315569
 20
12.88715811732181
 30
0.0
 11
10.84525878894445
 21
13.08719329774188
 31
0.0
  0
ELLIPSE
  5
192
330
6C
100
AcDbEntity
  8
Visible (ANSI)
100
AcDbEllipse
 10
10.84525878894445
 20
13.39337951558978
 30
0.0
 11
0.187499999999982
 21
0.3247595264191784
 31
0.0
210
0.0
220
0.0
230
1.0
 40
0.5773502691896259
 41
3.926990816986984
 42
4.809975347469049
  0
ELLIPSE
  5
193
330
6C
100
AcDbEntity
  8
Visible (ANSI)
100
AcDbEllipse
 10
10.93835163935118
 20
5.894533324250265
 30
0.0
 11
-0.0312499999999991
 21
-0.0541265877365265
 31
0.0
210
0.0
220
0.0
230
1.0
 40
0.5773502691896257
 41
5.585053606381777
 42
6.283185307179515
  0
LINE
  5
194
330
6C
100
AcDbEntity
  8
Visible (ANSI)
100
AcDbLine
 10
10.89432563770101
 20
5.864667252473592
 30
0.0
 11
10.86548605169994
 21
6.228649858531097
 31
0.0
  0
ELLIPSE
  5
195
330
6C
100
AcDbEntity
  8
Visible (ANSI)
100
AcDbEllipse
 10
10.82146005004976
 20
6.198783786754438
 30
0.0
 11
0.0312499999999994
 21
0.0541265877365263
 31
0.0
210
0.0
220
0.0
230
1.0
 40
0.5773502691896257
 41
5.585053606381549
 42
6.283185307179135
  0
LINE
  5
196
330
6C
100
AcDbEntity
  8
Visible (ANSI)
100
AcDbLine
 10
10.76430628949121
 20
6.303950309446815
 30
0.0
 11
10.76465958932908
 21
6.599547009251285
 31
0.0
  0
ELLIPSE
  5
197
330
6C
100
AcDbEntity
  8
Visible (ANSI)
100
AcDbEllipse
 10
10.49878769315565
 20
6.446469787647706
 30
0.0
 11
0.1879999999999998
 21
0.3256255518229488
 31
0.0
210
0.0
220
0.0
230
1.0
 40
0.5773502691896258
 41
5.496406083169443
 42
6.19656929960667
  0
ELLIPSE
  5
198
330
6C
100
AcDbEntity
  8
Visible (ANSI)
100
AcDbEllipse
 10
10.49878769315565
 20
7.080397733079993
 30
0.0
 11
-0.1870000000000001
 21
-0.3238935010153803
 31
0.0
210
0.0
220
0.0
230
1.0
 40
0.5773502691896257
 41
5.49778714378214
 42
6.283185307179589
  0
LINE
  5
199
330
6C
100
AcDbEntity
  8
Visible (ANSI)
100
AcDbLine
 10
10.23432975699188
 20
6.927712872446508
 30
0.0
 11
10.23432975699188
 21
7.008219435325981
 31
0.0
  0
ELLIPSE
  5
19A
330
6C
100
AcDbEntity
  8
Visible (ANSI)
100
AcDbEllipse
 10
10.49878769315565
 20
7.160904295959467
 30
0.0
 11
0.1870000000000185
 21
0.3238935010153675
 31
0.0
210
0.0
220
0.0
230
1.0
 40
0.5773502691896255
 41
1.046922768527453
 42
2.356194490192589
  0
LINE
  5
19B
330
6C
100
AcDbEntity
  8
Visible (ANSI)
100
AcDbLine
 10
10.4304111375711
 20
7.416413279974499
 30
0.0
 11
10.56752989877006
 21
7.537956899173432
 31
0.0
  0
ELLIPSE
  5
19C
330
6C
100
AcDbEntity
  8
Visible (ANSI)
100
AcDbEllipse
 10
10.49878769315578
 20
7.794832241391826
 30
0.0
 11
0.1879999999999807
 21
0.3256255518229606
 31
0.0
210
0.0
220
0.0
230
0.9999999999999998
 40
0.5773502691896257
 41
4.188515422116519
 42
5.497787143781958
  0
LINE
  5
19D
330
6C
100
AcDbEntity
  8
Visible (ANSI)
100
AcDbLine
 10
10.76465984288179
 20
7.948333598606165
 30
0.0
 11
10.76465984288179
 21
8.028840161485639
 31
0.0
  0
ELLIPSE
  5
19E
330
6C
100
AcDbEntity
  8
Visible (ANSI)
100
AcDbEllipse
 10
10.49878769315578
 20
7.875338804271302
 30
0.0
 11
0.1879999999999994
 21
0.3256255518229482
 31
0.0
210
0.0
220
0.0
230
1.0
 40
0.5773502691896257
 41
5.497787143782135
 42
6.196569299606676
  0
ELLIPSE
  5
19F
330
6C
100
AcDbEntity
  8
Visible (ANSI)
100
AcDbEllipse
 10
10.4987876931557
 20
8.509266749703538
 30
0.0
 11
-0.1869999999999999
 21
-0.3238935010153799
 31
0.0
210
0.0
220
0.0
230
1.0
 40
0.5773502691896257
 41
5.497787143778428
 42
6.283185307179589
  0
LINE
  5
1A0
330
6C
100
AcDbEntity
  8
Visible (ANSI)
100
AcDbLine
 10
10.23432975699091
 20
8.356581889070602
 30
0.0
 11
10.23432975699183
 21
8.641212597182535
 31
0.0
  0
ELLIPSE
  5
1A1
330
6C
100
AcDbEntity
  8
Visible (ANSI)
100
AcDbEllipse
 10
10.49878769315582
 20
8.793897457815015
 30
0.0
 11
0.1870000000000188
 21
0.323893501015368
 31
0.0
210
0.0
220
0.0
230
1.0
 40
0.5773502691896257
 41
1.046922768527901
 42
2.35619449018888
  0
LINE
  5
1A2
330
6C
100
AcDbEntity
  8
Visible (ANSI)
100
AcDbLine
 10
10.43041113757115
 20
9.049406441829978
 30
0.0
 11
10.56752989877011
 21
9.170950061028909
 31
0.0
  0
ELLIPSE
  5
1A3
330
6C
100
AcDbEntity
  8
Visible (ANSI)
100
AcDbEllipse
 10
10.49878769315565
 20
9.427825403247206
 30
0.0
 11
0.1879999999999798
 21
0.3256255518229591
 31
0.0
210
0.0
220
0.0
230
0.9999999999999998
 40
0.5773502691896258
 41
4.188515422117129
 42
5.49778714378197
  0
LINE
  5
1A4
330
6C
100
AcDbEntity
  8
Visible (ANSI)
100
AcDbLine
 10
10.76465984288179
 20
9.581326760461619
 30
0.0
 11
10.76465984288179
 21
9.865957468573023
 31
0.0
  0
ELLIPSE
  5
1A5
330
6C
100
AcDbEntity
  8
Visible (ANSI)
100
AcDbEllipse
 10
10.49878769315566
 20
9.712456111358614
 30
0.0
 11
0.1879999999999986
 21
0.3256255518229465
 31
0.0
210
0.0
220
0.0
230
1.0
 40
0.5773502691896257
 41
5.49778714378214
 42
6.196569299606674
  0
ELLIPSE
  5
1A6
330
6C
100
AcDbEntity
  8
Visible (ANSI)
100
AcDbEllipse
 10
10.49878769315566
 20
10.3463840567909
 30
0.0
 11
-0.1870000000000018
 21
-0.3238935010153821
 31
0.0
210
0.0
220
0.0
230
0.9999999999999998
 40
0.5773502691896257
 41
5.49778714378215
 42
6.283185307179596
  0
LINE
  5
1A7
330
6C
100
AcDbEntity
  8
Visible (ANSI)
100
AcDbLine
 10
10.23432975699193
 20
10.19369919615744
 30
0.0
 11
10.23432975699193
 21
10.58039197688481
 31
0.0
  0
ELLIPSE
  5
1A8
330
6C
100
AcDbEntity
  8
Visible (ANSI)
100
AcDbEllipse
 10
10.49878769315565
 20
10.73307683751827
 30
0.0
 11
0.1870000000000194
 21
0.3238935010153691
 31
0.0
210
0.0
220
0.0
230
0.9999999999999998
 40
0.5773502691896258
 41
1.046922768527457
 42
2.356194490192581
  0
LINE
  5
1A9
330
6C
100
AcDbEntity
  8
Visible (ANSI)
100
AcDbLine
 10
10.4304111375711
 20
10.9885858215333
 30
0.0
 11
10.56752989877006
 21
11.11012944073223
 31
0.0
  0
ELLIPSE
  5
1AA
330
6C
100
AcDbEntity
  8
Visible (ANSI)
100
AcDbEllipse
 10
10.49878769315565
 20
11.36700478295055
 30
0.0
 11
0.1879999999999802
 21
0.3256255518229598
 31
0.0
210
0.0
220
0.0
230
1.0
 40
0.5773502691896257
 41
4.188515422116967
 42
5.497787143781962
  0
LINE
  5
1AB
330
6C
100
AcDbEntity
  8
Visible (ANSI)
100
AcDbLine
 10
10.76465984288184
 20
11.52050614016499
 30
0.0
 11
10.76465984288184
 21
11.8051368482764
 31
0.0
  0
ELLIPSE
  5
1AC
330
6C
100
AcDbEntity
  8
Visible (ANSI)
100
AcDbEllipse
 10
10.49878769315565
 20
11.65163549106196
 30
0.0
 11
0.1879999999999999
 21
0.3256255518229489
 31
0.0
210
0.0
220
0.0
230
1.0
 40
0.5773502691896258
 41
5.497787143782137
 42
6.196569299606662
  0
ELLIPSE
  5
1AD
330
6C
100
AcDbEntity
  8
Visible (ANSI)
100
AcDbEllipse
 10
10.58187273994514
 20
12.52687900098752
 30
0.0
 11
-0.1525000000024312
 21
-0.2641377481584651
 31
0.0
210
0.0
220
0.0
230
0.9999999999999998
 40
0.5773502691896259
 41
0.10684880642237
 42
0.2938323808886354
  0
ELLIPSE
  5
1AE
330
6C
100
AcDbEntity
  8
Visible (ANSI)
100
AcDbEllipse
 10
10.6143996518797
 20
12.50809957962612
 30
0.0
 11
-0.1525000000024001
 21
-0.2641377481584111
 31
0.0
210
0.0
220
0.0
230
0.9999999999999998
 40
0.5773502691896257
 41
4.6431964685446
 42
6.397073611980668
  0
ELLIPSE
  5
1AF
330
6C
100
AcDbEntity
  8
Visible (ANSI)
100
AcDbEllipse
 10
10.6143996518797
 20
10.51788916361479
 30
0.0
 11
-0.1525000000024003
 21
-0.2641377481584115
 31
0.0
210
0.0
220
0.0
230
0.9999999999999998
 40
0.5773502691896255
 41
4.643196468544779
 42
6.397073611980572
  0
ELLIPSE
  5
1B0
330
6C
100
AcDbEntity
  8
Visible (ANSI)
100
AcDbEllipse
 10
10.6143996518797
 20
8.578709783911442
 30
0.0
 11
-0.1525000000024
 21
-0.2641377481584108
 31
0.0
210
0.0
220
0.0
230
1.0
 40
0.5773502691896258
 41
4.64319646854495
 42
6.397073611980477
  0
ELLIPSE
  5
1B1
330
6C
100
AcDbEntity
  8
Visible (ANSI)
100
AcDbEllipse
 10
10.87778570087903
 20
13.37460009422845
 30
0.0
 11
0.187499999999982
 21
0.3247595264191784
 31
0.0
210
0.0
220
0.0
230
1.0
 40
0.5773502691896259
 41
3.926990816986984
 42
4.809975347469049
  0
LINE
  5
1B2
330
6C
100
AcDbEntity
  8
Visible (ANSI)
100
AcDbLine
 10
10.53131460509027
 20
12.86837869596048
 30
0.0
 11
10.87778570087903
 21
13.06841387638054
 31
0.0
  0
ELLIPSE
  5
1B3
330
6C
100
AcDbEntity
  8
Visible (ANSI)
100
AcDbEllipse
 10
10.53131460509027
 20
12.56219247811259
 30
0.0
 11
0.1874999999999918
 21
0.3247595264191505
 31
0.0
210
0.0
220
0.0
230
1.0
 40
0.5773502691896258
 41
0.7853981633974536
 42
1.574980402796978
  0
LINE
  5
1B4
330
6C
100
AcDbEntity
  8
Visible (ANSI)
100
AcDbLine
 10
10.26685666892651
 20
12.5364076533132
 30
0.0
 11
10.34303173436013
 21
12.6690858914441
 31
0.0
  0
LINE
  5
1B5
330
6C
100
AcDbEntity
  8
Visible (ANSI)
100
AcDbLine
 10
10.2668566689265
 20
12.11409915449945
 30
0.0
 11
10.26685666892651
 21
12.5364076533132
 31
0.0
  0
ELLIPSE
  5
1B6
330
6C
100
AcDbEntity
  8
Visible (ANSI)
100
AcDbEllipse
 10
10.53131460509028
 20
12.26678401513293
 30
0.0
 11
-0.1869999999999995
 21
-0.3238935010153793
 31
0.0
210
0.0
220
0.0
230
1.0
 40
0.5773502691896255
 41
5.497787143782131
 42
6.807058865447181
  0
LINE
  5
1B7
330
6C
100
AcDbEntity
  8
Visible (ANSI)
100
AcDbLine
 10
10.60005681070469
 20
11.96910807375131
 30
0.0
 11
10.46293804950573
 21
11.9323205855719
 31
0.0
  0
ELLIPSE
  5
1B8
330
6C
100
AcDbEntity
  8
Visible (ANSI)
100
AcDbEllipse
 10
10.53131460509023
 20
11.63285606970062
 30
0.0
 11
0.1880000000000005
 21
0.32562555182295
 31
0.0
210
0.0
220
0.0
230
1.0
 40
0.5773502691896257
 41
5.497787143782145
 42
6.807058865447038
  0
LINE
  5
1B9
330
6C
100
AcDbEntity
  8
Visible (ANSI)
100
AcDbLine
 10
10.79718675481642
 20
11.50172671880365
 30
0.0
 11
10.79718675481642
 21
11.78635742691506
 31
0.0
  0
ELLIPSE
  5
1BA
330
6C
100
AcDbEntity
  8
Visible (ANSI)
100
AcDbEllipse
 10
10.53131460509023
 20
11.34822536158921
 30
0.0
 11
0.1879999999999802
 21
0.3256255518229598
 31
0.0
210
0.0
220
0.0
230
1.0
 40
0.5773502691896257
 41
4.188515422116967
 42
5.497787143781962
  0
LINE
  5
1BB
330
6C
100
AcDbEntity
  8
Visible (ANSI)
100
AcDbLine
 10
10.46293804950569
 20
10.96980640017196
 30
0.0
 11
10.60005681070465
 21
11.09135001937089
 31
0.0
  0
ELLIPSE
  5
1BC
330
6C
100
AcDbEntity
  8
Visible (ANSI)
100
AcDbEllipse
 10
10.53131460509023
 20
10.71429741615693
 30
0.0
 11
0.1870000000000194
 21
0.3238935010153691
 31
0.0
210
0.0
220
0.0
230
0.9999999999999998
 40
0.5773502691896258
 41
1.046922768527457
 42
2.356194490192581
  0
LINE
  5
1BD
330
6C
100
AcDbEntity
  8
Visible (ANSI)
100
AcDbLine
 10
10.26685666892651
 20
10.1749197747961
 30
0.0
 11
10.26685666892651
 21
10.56161255552347
 31
0.0
  0
ELLIPSE
  5
1BE
330
6C
100
AcDbEntity
  8
Visible (ANSI)
100
AcDbEllipse
 10
10.53131460509023
 20
10.32760463542956
 30
0.0
 11
-0.1869999999999991
 21
-0.3238935010153787
 31
0.0
210
0.0
220
0.0
230
1.0
 40
0.5773502691896255
 41
5.497787143782136
 42
6.807058865447193
  0
LINE
  5
1BF
330
6C
100
AcDbEntity
  8
Visible (ANSI)
100
AcDbLine
 10
10.60005681070465
 20
10.02992869404793
 30
0.0
 11
10.46293804950569
 21
9.99314120586853
 31
0.0
  0
ELLIPSE
  5
1C0
330
6C
100
AcDbEntity
  8
Visible (ANSI)
100
AcDbEllipse
 10
10.53131460509023
 20
9.693676689997271
 30
0.0
 11
0.1880000000000013
 21
0.3256255518229513
 31
0.0
210
0.0
220
0.0
230
1.0
 40
0.5773502691896258
 41
5.497787143782141
 42
6.807058865447191
  0
LINE
  5
1C1
330
6C
100
AcDbEntity
  8
Visible (ANSI)
100
AcDbLine
 10
10.79718675481638
 20
9.562547339100282
 30
0.0
 11
10.79718675481638
 21
9.847178047211686
 31
0.0
  0
ELLIPSE
  5
1C2
330
6C
100
AcDbEntity
  8
Visible (ANSI)
100
AcDbEllipse
 10
10.53131460509024
 20
9.409045981885869
 30
0.0
 11
0.1879999999999798
 21
0.3256255518229591
 31
0.0
210
0.0
220
0.0
230
0.9999999999999998
 40
0.5773502691896258
 41
4.188515422117129
 42
5.49778714378197
  0
LINE
  5
1C3
330
6C
100
AcDbEntity
  8
Visible (ANSI)
100
AcDbLine
 10
10.46293804950573
 20
9.03062702046864
 30
0.0
 11
10.60005681070469
 21
9.152170639667572
 31
0.0
  0
ELLIPSE
  5
1C4
330
6C
100
AcDbEntity
  8
Visible (ANSI)
100
AcDbEllipse
 10
10.5313146050904
 20
8.775118036453676
 30
0.0
 11
0.187000000000019
 21
0.3238935010153685
 31
0.0
210
0.0
220
0.0
230
1.0
 40
0.5773502691896258
 41
1.046922768527905
 42
2.356194490188876
  0
LINE
  5
1C5
330
6C
100
AcDbEntity
  8
Visible (ANSI)
100
AcDbLine
 10
10.2668566689255
 20
8.337802467709265
 30
0.0
 11
10.26685666892641
 21
8.622433175821198
 31
0.0
  0
ELLIPSE
  5
1C6
330
6C
100
AcDbEntity
  8
Visible (ANSI)
100
AcDbEllipse
 10
10.53131460509028
 20
8.490487328342203
 30
0.0
 11
-0.1870000000000009
 21
-0.3238935010153819
 31
0.0
210
0.0
220
0.0
230
1.0
 40
0.5773502691896258
 41
5.497787143778435
 42
6.807058865447348
  0
LINE
  5
1C7
330
6C
100
AcDbEntity
  8
Visible (ANSI)
100
AcDbLine
 10
10.60005681070473
 20
8.192811386960613
 30
0.0
 11
10.46293804950576
 21
8.156023898781182
 31
0.0
  0
ELLIPSE
  5
1C8
330
6C
100
AcDbEntity
  8
Visible (ANSI)
100
AcDbEllipse
 10
10.53131460509036
 20
7.856559382909964
 30
0.0
 11
0.1879999999999999
 21
0.3256255518229489
 31
0.0
210
0.0
220
0.0
230
1.0
 40
0.5773502691896258
 41
5.497787143782137
 42
6.807058865447353
  0
LINE
  5
1C9
330
6C
100
AcDbEntity
  8
Visible (ANSI)
100
AcDbLine
 10
10.79718675481638
 20
7.929554177244828
 30
0.0
 11
10.79718675481638
 21
8.010060740124302
 31
0.0
  0
ELLIPSE
  5
1CA
330
6C
100
AcDbEntity
  8
Visible (ANSI)
100
AcDbEllipse
 10
10.53131460509036
 20
7.776052820030488
 30
0.0
 11
0.1879999999999807
 21
0.3256255518229606
 31
0.0
210
0.0
220
0.0
230
0.9999999999999998
 40
0.5773502691896257
 41
4.188515422116519
 42
5.497787143781958
  0
LINE
  5
1CB
330
6C
100
AcDbEntity
  8
Visible (ANSI)
100
AcDbLine
 10
10.46293804950569
 20
7.39763385861316
 30
0.0
 11
10.60005681070465
 21
7.519177477812093
 31
0.0
  0
ELLIPSE
  5
1CC
330
6C
100
AcDbEntity
  8
Visible (ANSI)
100
AcDbEllipse
 10
10.53131460509023
 20
7.142124874598128
 30
0.0
 11
0.1870000000000185
 21
0.3238935010153675
 31
0.0
210
0.0
220
0.0
230
1.0
 40
0.5773502691896255
 41
1.046922768527453
 42
2.356194490192589
  0
LINE
  5
1CD
330
6C
100
AcDbEntity
  8
Visible (ANSI)
100
AcDbLine
 10
10.26685666892646
 20
6.908933451085171
 30
0.0
 11
10.26685666892646
 21
6.989440013964644
 31
0.0
  0
ELLIPSE
  5
1CE
330
6C
100
AcDbEntity
  8
Visible (ANSI)
100
AcDbEllipse
 10
10.53131460509023
 20
7.061618311718654
 30
0.0
 11
-0.1869999999999997
 21
-0.3238935010153799
 31
0.0
210
0.0
220
0.0
230
1.0
 40
0.5773502691896257
 41
5.497787143782137
 42
6.807058865447199
  0
LINE
  5
1CF
330
6C
100
AcDbEntity
  8
Visible (ANSI)
100
AcDbLine
 10
10.60005681070465
 20
6.76394237033703
 30
0.0
 11
10.46293804950569
 21
6.727154882157625
 31
0.0
  0
ELLIPSE
  5
1D0
330
6C
100
AcDbEntity
  8
Visible (ANSI)
100
AcDbEllipse
 10
10.53131460509023
 20
6.427690366286367
 30
0.0
 11
0.1880000000000001
 21
0.3256255518229494
 31
0.0
210
0.0
220
0.0
230
1.0
 40
0.5773502691896258
 41
5.496406083169452
 42
6.807058865447195
  0
LINE
  5
1D1
330
6C
100
AcDbEntity
  8
Visible (ANSI)
100
AcDbLine
 10
10.79683320142579
 20
6.285170888085477
 30
0.0
 11
10.79718650126366
 21
6.580767587889947
 31
0.0
  0
LINE
  5
1D2
330
6C
100
AcDbEntity
  8
Visible (ANSI)
100
AcDbLine
 10
10.88523696198436
 20
6.234130953129619
 30
0.0
 11
10.79683320142579
 21
6.285170888085477
 31
0.0
  0
ELLIPSE
  5
1D3
330
6C
100
AcDbEntity
  8
Visible (ANSI)
100
AcDbEllipse
 10
10.85398696198434
 20
6.1800043653931
 30
0.0
 11
0.0312499999999994
 21
0.0541265877365263
 31
0.0
210
0.0
220
0.0
230
1.0
 40
0.5773502691896257
 41
5.585053606381549
 42
6.283185307179135
  0
LINE
  5
1D4
330
6C
100
AcDbEntity
  8
Visible (ANSI)
100
AcDbLine
 10
10.92685254963559
 20
5.845887831112254
 30
0.0
 11
10.89801296363452
 21
6.209870437169759
 31
0.0
  0
ELLIPSE
  5
1D5
330
6C
100
AcDbEntity
  8
Visible (ANSI)
100
AcDbEllipse
 10
10.97087855128576
 20
5.875753902888928
 30
0.0
 11
-0.0312499999999999
 21
-0.0541265877365273
 31
0.0
210
0.0
220
0.0
230
1.0
 40
0.5773502691896257
 41
5.585053606381821
 42
7.068583470577034
  0
LINE
  5
1D6
330
6C
100
AcDbEntity
  8
Visible (ANSI)
100
AcDbLine
 10
11.06164469098019
 20
5.877126721766827
 30
0.0
 11
10.97087855128576
 21
5.824722866580946
 31
0.0
  0
ELLIPSE
  5
1D7
330
6C
100
AcDbEntity
  8
Visible (ANSI)
100
AcDbEllipse
 10
11.06164469098019
 20
5.775064649150859
 30
0.0
 11
-0.062499999999994
 21
-0.1082531754730595
 31
0.0
210
0.0
220
0.0
230
1.0
 40
0.5773502691896258
 41
3.686906935975324
 42
3.926990816986942
  0
ELLIPSE
  5
1D8
330
6C
100
AcDbEntity
  8
Visible (ANSI)
100
AcDbEllipse
 10
9.498546985503542
 20
9.285183450559161
 30
0.0
 11
-0.0427499999999955
 21
0.0740451720235719
 31
0.0
210
0.0
220
0.0
230
0.9999999999999996
 40
0.5773502691896257
 41
5.497787143782379
 42
8.639379797372173
  0
LINE
  5
1D9
330
6C
100
AcDbEntity
  8
Visible (ANSI)
100
AcDbLine
 10
9.498546985503542
 20
9.354993908228486
 30
0.0
 11
9.554408421217285
 21
9.322742293281837
 31
0.0
  0
ELLIPSE
  5
1DA
330
6C
100
AcDbEntity
  8
Visible (ANSI)
100
AcDbEllipse
 10
9.554408421217287
 20
9.252931835612512
 30
0.0
 11
0.0427499999999954
 21
-0.0740451720235719
 31
0.0
210
0.0
220
0.0
230
1.0
 40
0.5773502691896259
 41
1.173716096387403
 42
2.356194490192587
  0
ELLIPSE
  5
1DB
330
6C
100
AcDbEntity
  8
Visible (ANSI)
100
AcDbEllipse
 10
9.554408421217287
 20
9.252931835612509
 30
0.0
 11
0.0427499999999971
 21
-0.0740451720235645
 31
0.0
210
0.0
220
0.0
230
0.9999999999999998
 40
0.5773502691896255
 41
5.49778714378209
 42
6.163664485404336
  0
LINE
  5
1DC
330
6C
100
AcDbEntity
  8
Visible (ANSI)
100
AcDbLine
 10
9.554408421217285
 20
9.183121377943191
 30
0.0
 11
9.498546985503542
 21
9.21537299288984
 31
0.0
  0
ELLIPSE
  5
1DD
330
6C
100
AcDbEntity
  8
Visible (ANSI)
100
AcDbEllipse
 10
9.498546985503542
 20
14.33725604504946
 30
0.0
 11
-0.0427499999999955
 21
0.0740451720235719
 31
0.0
210
0.0
220
0.0
230
1.0
 40
0.5773502691896258
 41
5.49778714378238
 42
8.639379797372173
  0
LINE
  5
1DE
330
6C
100
AcDbEntity
  8
Visible (ANSI)
100
AcDbLine
 10
9.498546985503542
 20
14.40706650271878
 30
0.0
 11
9.554408421217285
 21
14.37481488777214
 31
0.0
  0
ELLIPSE
  5
1DF
330
6C
100
AcDbEntity
  8
Visible (ANSI)
100
AcDbEllipse
 10
9.554408421217285
 20
14.30500443010282
 30
0.0
 11
0.0427499999999955
 21
-0.0740451720235719
 31
0.0
210
0.0
220
0.0
230
1.0
 40
0.5773502691896258
 41
5.49778714378238
 42
8.639379797372173
  0
LINE
  5
1E0
330
6C
100
AcDbEntity
  8
Visible (ANSI)
100
AcDbLine
 10
9.554408421217285
 20
14.2351939724335
 30
0.0
 11
9.498546985503542
 21
14.26744558738014
 31
0.0
  0
LINE
  5
1E1
330
6C
100
AcDbEntity
  8
Visible (ANSI)
100
AcDbLine
 10
9.791465969610163
 20
14.42329437226466
 30
0.0
 11
9.903523311596256
 21
14.13448335173213
 31
0.0
  0
LINE
  5
1E2
330
6C
100
AcDbEntity
  8
Visible (ANSI)
100
AcDbLine
 10
9.437912579016803
 20
14.62741851749665
 30
0.0
 11
9.791465969610163
 21
14.42329437226466
 31
0.0
  0
LINE
  5
1E3
330
6C
100
AcDbEntity
  8
Visible (ANSI)
100
AcDbLine
 10
9.283232970632246
 20
14.53811420395768
 30
0.0
 11
9.437912579016803
 21
14.62741851749665
 31
0.0
  0
LINE
  5
1E4
330
6C
100
AcDbEntity
  8
Visible (ANSI)
100
AcDbLine
 10
9.283232970632246
 20
13.08372966918017
 30
0.0
 11
9.283232970632246
 21
14.53811420395768
 31
0.0
  0
ELLIPSE
  5
1E5
330
6C
100
AcDbEntity
  8
Visible (ANSI)
100
AcDbEllipse
 10
9.283232970632246
 20
12.93063656025622
 30
0.0
 11
0.0937500000000002
 21
-0.1623797632095826
 31
0.0
210
0.0
220
0.0
230
1.0
 40
0.5773502691896257
 41
5.49853383712951
 42
8.639379797372015
  0
LINE
  5
1E6
330
6C
100
AcDbEntity
  8
Visible (ANSI)
100
AcDbLine
 10
9.283331969109733
 20
7.4192274459777
 30
0.0
 11
9.283331969109744
 21
8.097478175611431
 31
0.0
  0
LINE
  5
1E7
330
6C
100
AcDbEntity
  8
Visible (ANSI)
100
AcDbLine
 10
9.283331969109752
 20
8.792429626355817
 30
0.0
 11
9.283331969109765
 21
9.730471337466946
 31
0.0
  0
LINE
  5
1E8
330
6C
100
AcDbEntity
  8
Visible (ANSI)
100
AcDbLine
 10
9.283331969109777
 20
10.62954693344318
 30
0.0
 11
9.283331969109793
 21
11.66965071717029
 31
0.0
  0
LINE
  5
1E9
330
6C
100
AcDbEntity
  8
Visible (ANSI)
100
AcDbLine
 10
9.283331969109806
 20
12.56872631314656
 30
0.0
 11
9.283331969109809
 21
12.7774863372132
 31
0.0
  0
ELLIPSE
  5
1EA
330
6C
100
AcDbEntity
  8
Visible (ANSI)
100
AcDbEllipse
 10
9.283448115544373
 20
7.349349688313393
 30
0.0
 11
-0.0427502275845876
 21
0.0740455662116383
 31
0.0
210
0.0
220
0.0
230
1.0
 40
0.5773502691896257
 41
4.960154722817581
 42
5.499708255942307
  0
LINE
  5
1EB
330
6C
100
AcDbEntity
  8
Visible (ANSI)
100
AcDbLine
 10
9.283232970632246
 20
6.01165464755803
 30
0.0
 11
9.283232970632246
 21
6.633632838952618
 31
0.0
  0
LINE
  5
1EC
330
6C
100
AcDbEntity
  8
Visible (ANSI)
100
AcDbLine
 10
9.936422859753328
 20
5.766389372978499
 30
0.0
 11
9.936422859753328
 21
5.634535289242031
 31
0.0
  0
ELLIPSE
  5
1ED
330
6C
100
AcDbEntity
  8
Visible (ANSI)
100
AcDbEllipse
 10
9.759646164456752
 20
5.868451445594326
 30
0.0
 11
0.1249999999999567
 21
-0.2165063509460348
 31
0.0
210
0.0
220
0.0
230
1.0
 40
0.5773502691896257
 41
0.785398163397959
 42
0.8726646259977028
  0
LINE
  5
1EE
330
6C
100
AcDbEntity
  8
Visible (ANSI)
100
AcDbLine
 10
9.902624092866421
 20
6.240901196921152
 30
0.0
 11
9.935750171057371
 21
5.784568341468609
 31
0.0
  0
ELLIPSE
  5
1EF
330
6C
100
AcDbEntity
  8
Visible (ANSI)
100
AcDbEllipse
 10
10.07872809946703
 20
6.157018092795333
 30
0.0
 11
0.1249999999999562
 21
-0.2165063509460041
 31
0.0
210
0.0
220
0.0
230
1.0
 40
0.5773502691896258
 41
3.926990816986982
 42
4.014257279586748
  0
LINE
  5
1F0
330
6C
100
AcDbEntity
  8
Visible (ANSI)
100
AcDbLine
 10
9.901951404170475
 20
6.500725985450378
 30
0.0
 11
9.901951404170475
 21
6.259080165411257
 31
0.0
  0
ELLIPSE
  5
1F1
330
6C
100
AcDbEntity
  8
Visible (ANSI)
100
AcDbEllipse
 10
9.990339751818776
 20
6.449694949142407
 30
0.0
 11
0.0624999999999946
 21
-0.1082531754730307
 31
0.0
210
0.0
220
0.0
230
1.0
 40
0.5773502691896257
 41
3.738114845998168
 42
3.92699081698696
  0
LINE
  5
1F2
330
6C
100
AcDbEntity
  8
Visible (ANSI)
100
AcDbLine
 10
9.823992881544743
 20
14.442073793626
 30
0.0
 11
9.936050223530836
 21
14.15326277309347
 31
0.0
  0
LINE
  5
1F3
330
6C
100
AcDbEntity
  8
Visible (ANSI)
100
AcDbLine
 10
9.823992881544743
 20
14.442073793626
 30
0.0
 11
9.791465969610163
 21
14.42329437226466
 31
0.0
  0
LINE
  5
1F4
330
6C
100
AcDbEntity
  8
Visible Narrow (ANSI)
100
AcDbLine
 10
10.84525878894445
 20
13.08719329774188
 30
0.0
 11
10.87778570087903
 21
13.06841387638054
 31
0.0
  0
LINE
  5
1F5
330
6C
100
AcDbEntity
  8
Visible Narrow (ANSI)
100
AcDbLine
 10
10.49878769315569
 20
12.88715811732181
 30
0.0
 11
10.53131460509027
 21
12.86837869596048
 31
0.0
  0
LINE
  5
1F6
330
6C
100
AcDbEntity
  8
Visible Narrow (ANSI)
100
AcDbLine
 10
10.31050482242555
 20
12.68786531280544
 30
0.0
 11
10.34303173436013
 21
12.6690858914441
 31
0.0
  0
LINE
  5
1F7
330
6C
100
AcDbEntity
  8
Visible (ANSI)
100
AcDbLine
 10
10.23432975699193
 20
12.55518707467454
 30
0.0
 11
10.26685666892651
 21
12.5364076533132
 31
0.0
  0
LINE
  5
1F8
330
6C
100
AcDbEntity
  8
Visible Narrow (ANSI)
100
AcDbLine
 10
10.23432975699193
 20
12.13287857586079
 30
0.0
 11
10.2668566689265
 21
12.11409915449945
 31
0.0
  0
LINE
  5
1F9
330
6C
100
AcDbEntity
  8
Visible Narrow (ANSI)
100
AcDbLine
 10
10.76465984288184
 20
11.8051368482764
 30
0.0
 11
10.79718675481642
 21
11.78635742691506
 31
0.0
  0
LINE
  5
1FA
330
6C
100
AcDbEntity
  8
Visible Narrow (ANSI)
100
AcDbLine
 10
10.76465984288184
 20
11.52050614016499
 30
0.0
 11
10.79718675481642
 21
11.50172671880365
 31
0.0
  0
LINE
  5
1FB
330
6C
100
AcDbEntity
  8
Visible Narrow (ANSI)
100
AcDbLine
 10
10.56752989877006
 20
11.11012944073223
 30
0.0
 11
10.60005681070465
 21
11.09135001937089
 31
0.0
  0
LINE
  5
1FC
330
6C
100
AcDbEntity
  8
Visible Narrow (ANSI)
100
AcDbLine
 10
10.4304111375711
 20
10.9885858215333
 30
0.0
 11
10.46293804950569
 21
10.96980640017196
 31
0.0
  0
LINE
  5
1FD
330
6C
100
AcDbEntity
  8
Visible Narrow (ANSI)
100
AcDbLine
 10
10.23432975699193
 20
10.58039197688481
 30
0.0
 11
10.26685666892651
 21
10.56161255552347
 31
0.0
  0
LINE
  5
1FE
330
6C
100
AcDbEntity
  8
Visible Narrow (ANSI)
100
AcDbLine
 10
10.23432975699193
 20
10.19369919615744
 30
0.0
 11
10.26685666892651
 21
10.1749197747961
 31
0.0
  0
LINE
  5
1FF
330
6C
100
AcDbEntity
  8
Visible Narrow (ANSI)
100
AcDbLine
 10
10.76465984288179
 20
9.865957468573023
 30
0.0
 11
10.79718675481638
 21
9.847178047211686
 31
0.0
  0
LINE
  5
200
330
6C
100
AcDbEntity
  8
Visible Narrow (ANSI)
100
AcDbLine
 10
10.76465984288179
 20
9.581326760461619
 30
0.0
 11
10.79718675481638
 21
9.562547339100282
 31
0.0
  0
LINE
  5
201
330
6C
100
AcDbEntity
  8
Visible Narrow (ANSI)
100
AcDbLine
 10
10.56752989877011
 20
9.170950061028909
 30
0.0
 11
10.60005681070469
 21
9.152170639667572
 31
0.0
  0
LINE
  5
202
330
6C
100
AcDbEntity
  8
Visible Narrow (ANSI)
100
AcDbLine
 10
10.43041113757115
 20
9.049406441829978
 30
0.0
 11
10.46293804950573
 21
9.03062702046864
 31
0.0
  0
LINE
  5
203
330
6C
100
AcDbEntity
  8
Visible Narrow (ANSI)
100
AcDbLine
 10
10.23432975699183
 20
8.641212597182535
 30
0.0
 11
10.26685666892641
 21
8.622433175821198
 31
0.0
  0
LINE
  5
204
330
6C
100
AcDbEntity
  8
Visible Narrow (ANSI)
100
AcDbLine
 10
10.23432975699091
 20
8.356581889070602
 30
0.0
 11
10.2668566689255
 21
8.337802467709265
 31
0.0
  0
LINE
  5
205
330
6C
100
AcDbEntity
  8
Visible Narrow (ANSI)
100
AcDbLine
 10
10.76465984288179
 20
8.028840161485639
 30
0.0
 11
10.79718675481638
 21
8.010060740124302
 31
0.0
  0
LINE
  5
206
330
6C
100
AcDbEntity
  8
Visible Narrow (ANSI)
100
AcDbLine
 10
10.76465984288179
 20
7.948333598606165
 30
0.0
 11
10.79718675481638
 21
7.929554177244828
 31
0.0
  0
LINE
  5
207
330
6C
100
AcDbEntity
  8
Visible Narrow (ANSI)
100
AcDbLine
 10
10.56752989877006
 20
7.537956899173432
 30
0.0
 11
10.60005681070465
 21
7.519177477812093
 31
0.0
  0
LINE
  5
208
330
6C
100
AcDbEntity
  8
Visible Narrow (ANSI)
100
AcDbLine
 10
10.4304111375711
 20
7.416413279974499
 30
0.0
 11
10.46293804950569
 21
7.39763385861316
 31
0.0
  0
LINE
  5
209
330
6C
100
AcDbEntity
  8
Visible Narrow (ANSI)
100
AcDbLine
 10
10.23432975699188
 20
7.008219435325981
 30
0.0
 11
10.26685666892646
 21
6.989440013964644
 31
0.0
  0
LINE
  5
20A
330
6C
100
AcDbEntity
  8
Visible Narrow (ANSI)
100
AcDbLine
 10
10.23432975699188
 20
6.927712872446508
 30
0.0
 11
10.26685666892646
 21
6.908933451085171
 31
0.0
  0
LINE
  5
20B
330
6C
100
AcDbEntity
  8
Visible Narrow (ANSI)
100
AcDbLine
 10
10.76465958932908
 20
6.599547009251285
 30
0.0
 11
10.79718650126366
 21
6.580767587889947
 31
0.0
  0
LINE
  5
20C
330
6C
100
AcDbEntity
  8
Visible (ANSI)
100
AcDbLine
 10
10.76430628949121
 20
6.303950309446815
 30
0.0
 11
10.79683320142579
 21
6.285170888085477
 31
0.0
  0
LINE
  5
20D
330
6C
100
AcDbEntity
  8
Visible Narrow (ANSI)
100
AcDbLine
 10
10.86548605169994
 20
6.228649858531097
 30
0.0
 11
10.89801296363452
 21
6.209870437169759
 31
0.0
  0
LINE
  5
20E
330
6C
100
AcDbEntity
  8
Visible Narrow (ANSI)
100
AcDbLine
 10
10.89432563770101
 20
5.864667252473592
 30
0.0
 11
10.92685254963559
 21
5.845887831112254
 31
0.0
  0
LINE
  5
20F
330
6C
100
AcDbEntity
  8
Visible (ANSI)
100
AcDbLine
 10
11.13781636382115
 20
13.43217428885086
 30
0.0
 11
11.24471852426742
 21
13.58425861863279
 31
0.0
  0
LINE
  5
210
330
6C
100
AcDbEntity
  8
Visible (ANSI)
100
AcDbLine
 10
11.277245436202
 20
13.60303803999413
 30
0.0
 11
11.24471852426742
 21
13.58425861863279
 31
0.0
  0
LINE
  5
211
330
6C
100
AcDbEntity
  8
Visible (ANSI)
100
AcDbLine
 10
11.277245436202
 20
13.60303803999413
 30
0.0
 11
11.63595400833518
 21
13.39593754931241
 31
0.0
  0
LINE
  5
212
330
6C
100
AcDbEntity
  8
Visible (ANSI)
100
AcDbLine
 10
11.63595400833518
 20
13.39593754931241
 30
0.0
 11
11.79063361671974
 21
13.1280246086955
 31
0.0
  0
LINE
  5
213
330
6C
100
AcDbEntity
  8
Visible (ANSI)
100
AcDbLine
 10
11.79063361671974
 20
13.1280246086955
 30
0.0
 11
11.79063361671974
 21
11.67364007391798
 31
0.0
  0
ELLIPSE
  5
214
330
6C
100
AcDbEntity
  8
Visible (ANSI)
100
AcDbEllipse
 10
11.79063361671974
 20
11.52054696499403
 30
0.0
 11
-0.0937500000000006
 21
0.1623797632095834
 31
0.0
210
0.0
220
0.0
230
1.0
 40
0.5773502691896258
 41
0.1743589710557471
 42
2.356941183539633
  0
LINE
  5
215
330
6C
100
AcDbEntity
  8
Visible (ANSI)
100
AcDbLine
 10
11.7907326151973
 20
11.36739674195101
 30
0.0
 11
11.79073261519723
 21
6.009137850715516
 31
0.0
  0
ELLIPSE
  5
216
330
6C
100
AcDbEntity
  8
Visible (ANSI)
100
AcDbEllipse
 10
11.79061646876268
 20
5.939394207401769
 30
0.0
 11
-0.0427502275845927
 21
0.0740455662116471
 31
0.0
210
0.0
220
0.0
230
1.0
 40
0.5773502691896258
 41
0.3902608808791974
 42
0.7853993150478674
  0
LINE
  5
217
330
6C
100
AcDbEntity
  8
Visible (ANSI)
100
AcDbLine
 10
11.73015851711824
 20
5.974299541660666
 30
0.0
 11
11.73015851711824
 21
5.93352280522112
 31
0.0
  0
ELLIPSE
  5
218
330
6C
100
AcDbEntity
  8
Visible (ANSI)
100
AcDbEllipse
 10
11.79061646876267
 20
5.898617470821304
 30
0.0
 11
0.0427502275845895
 21
-0.0740455662116314
 31
0.0
210
0.0
220
0.0
230
0.9999999999999998
 40
0.5773502691896257
 41
3.926991966618713
 42
5.498070778222632
  0
LINE
  5
219
330
6C
100
AcDbEntity
  8
Visible (ANSI)
100
AcDbLine
 10
11.79063361671974
 20
5.828796743938368
 30
0.0
 11
11.79063361671974
 21
4.601565052295847
 31
0.0
  0
ELLIPSE
  5
21A
330
6C
100
AcDbEntity
  8
Visible (ANSI)
100
AcDbEllipse
 10
11.5194581661347
 20
8.462154896984007
 30
0.0
 11
-0.0427499999999999
 21
0.0740451720235693
 31
0.0
210
0.0
220
0.0
230
1.0
 40
0.5773502691896258
 41
0.3902630708023549
 42
2.356194490192345
  0
LINE
  5
21B
330
6C
100
AcDbEntity
  8
Visible (ANSI)
100
AcDbLine
 10
11.5194581661347
 20
8.392344439314683
 30
0.0
 11
11.57531960184844
 21
8.360092824368031
 31
0.0
  0
ELLIPSE
  5
21C
330
6C
100
AcDbEntity
  8
Visible (ANSI)
100
AcDbEllipse
 10
11.57531960184845
 20
8.429903282037344
 30
0.0
 11
0.0427499999999911
 21
-0.0740451720235542
 31
0.0
210
0.0
220
0.0
230
0.9999999999999998
 40
0.5773502691896258
 41
5.497787143782091
 42
5.892922236377292
  0
ELLIPSE
  5
21D
330
6C
100
AcDbEntity
  8
Visible (ANSI)
100
AcDbEllipse
 10
11.5194581661347
 20
10.14617909514744
 30
0.0
 11
-0.0427500000000001
 21
0.0740451720235697
 31
0.0
210
0.0
220
0.0
230
0.9999999999999998
 40
0.5773502691896257
 41
0.3902630708023546
 42
2.356194490192345
  0
LINE
  5
21E
330
6C
100
AcDbEntity
  8
Visible (ANSI)
100
AcDbLine
 10
11.5194581661347
 20
10.07636863747812
 30
0.0
 11
11.57531960184844
 21
10.04411702253147
 31
0.0
  0
ELLIPSE
  5
21F
330
6C
100
AcDbEntity
  8
Visible (ANSI)
100
AcDbEllipse
 10
11.57531960184844
 20
10.11392748020082
 30
0.0
 11
0.0427500000000153
 21
-0.074045172023596
 31
0.0
210
0.0
220
0.0
230
1.0
 40
0.5773502691896258
 41
5.497787143782183
 42
5.892922236377156
  0
ELLIPSE
  5
220
330
6C
100
AcDbEntity
  8
Visible (ANSI)
100
AcDbEllipse
 10
11.5194581661347
 20
12.79979298316255
 30
0.0
 11
-0.0427500000000001
 21
0.0740451720235697
 31
0.0
210
0.0
220
0.0
230
0.9999999999999998
 40
0.5773502691896257
 41
0.3902630708023546
 42
2.356194490192345
  0
LINE
  5
221
330
6C
100
AcDbEntity
  8
Visible (ANSI)
100
AcDbLine
 10
11.5194581661347
 20
12.72998252549323
 30
0.0
 11
11.57531960184844
 21
12.69773091054658
 31
0.0
  0
ELLIPSE
  5
222
330
6C
100
AcDbEntity
  8
Visible (ANSI)
100
AcDbEllipse
 10
11.57531960184844
 20
12.76754136821593
 30
0.0
 11
0.0427500000000153
 21
-0.074045172023596
 31
0.0
210
0.0
220
0.0
230
1.0
 40
0.5773502691896258
 41
5.497787143782183
 42
5.892922236377141
  0
ELLIPSE
  5
223
330
6C
100
AcDbEntity
  8
Visible (ANSI)
100
AcDbEllipse
 10
11.48693125420012
 20
12.78101356180121
 30
0.0
 11
-0.0427499999999955
 21
0.0740451720235719
 31
0.0
210
0.0
220
0.0
230
1.0
 40
0.5773502691896258
 41
5.49778714378238
 42
8.639379797372173
  0
LINE
  5
224
330
6C
100
AcDbEntity
  8
Visible (ANSI)
100
AcDbLine
 10
11.48693125420012
 20
12.85082401947053
 30
0.0
 11
11.54279268991386
 21
12.81857240452389
 31
0.0
  0
ELLIPSE
  5
225
330
6C
100
AcDbEntity
  8
Visible (ANSI)
100
AcDbEllipse
 10
11.54279268991386
 20
12.74876194685456
 30
0.0
 11
0.0427499999999955
 21
-0.0740451720235719
 31
0.0
210
0.0
220
0.0
230
1.0
 40
0.5773502691896258
 41
5.49778714378238
 42
8.639379797372173
  0
LINE
  5
226
330
6C
100
AcDbEntity
  8
Visible (ANSI)
100
AcDbLine
 10
11.54279268991386
 20
12.67895148918524
 30
0.0
 11
11.48693125420012
 21
12.7112031041319
 31
0.0
  0
ELLIPSE
  5
227
330
6C
100
AcDbEntity
  8
Visible (ANSI)
100
AcDbEllipse
 10
11.48693125420012
 20
10.1273996737861
 30
0.0
 11
-0.0427499999999955
 21
0.0740451720235719
 31
0.0
210
0.0
220
0.0
230
1.0
 40
0.5773502691896258
 41
5.49778714378238
 42
8.639379797372173
  0
LINE
  5
228
330
6C
100
AcDbEntity
  8
Visible (ANSI)
100
AcDbLine
 10
11.48693125420012
 20
10.19721013145542
 30
0.0
 11
11.54279268991386
 21
10.16495851650877
 31
0.0
  0
ELLIPSE
  5
229
330
6C
100
AcDbEntity
  8
Visible (ANSI)
100
AcDbEllipse
 10
11.54279268991386
 20
10.09514805883945
 30
0.0
 11
0.0427499999999955
 21
-0.0740451720235719
 31
0.0
210
0.0
220
0.0
230
1.0
 40
0.5773502691896258
 41
5.49778714378238
 42
8.639379797372173
  0
LINE
  5
22A
330
6C
100
AcDbEntity
  8
Visible (ANSI)
100
AcDbLine
 10
11.54279268991386
 20
10.02533760117013
 30
0.0
 11
11.48693125420012
 21
10.05758921611678
 31
0.0
  0
ELLIPSE
  5
22B
330
6C
100
AcDbEntity
  8
Visible (ANSI)
100
AcDbEllipse
 10
11.48693125420012
 20
8.443375475622669
 30
0.0
 11
-0.0427499999999955
 21
0.0740451720235719
 31
0.0
210
0.0
220
0.0
230
0.9999999999999996
 40
0.5773502691896257
 41
5.497787143782379
 42
8.639379797372173
  0
LINE
  5
22C
330
6C
100
AcDbEntity
  8
Visible (ANSI)
100
AcDbLine
 10
11.48693125420012
 20
8.513185933291993
 30
0.0
 11
11.54279268991386
 21
8.480934318345351
 31
0.0
  0
ELLIPSE
  5
22D
330
6C
100
AcDbEntity
  8
Visible (ANSI)
100
AcDbEllipse
 10
11.54279268991386
 20
8.411123860676021
 30
0.0
 11
0.0427499999999955
 21
-0.0740451720235719
 31
0.0
210
0.0
220
0.0
230
0.9999999999999996
 40
0.5773502691896257
 41
5.497787143782379
 42
8.639379797372173
  0
LINE
  5
22E
330
6C
100
AcDbEntity
  8
Visible (ANSI)
100
AcDbLine
 10
11.54279268991386
 20
8.341313403006692
 30
0.0
 11
11.48693125420012
 21
8.373565017953346
 31
0.0
  0
ELLIPSE
  5
22F
330
6C
100
AcDbEntity
  8
Visible (ANSI)
100
AcDbEllipse
 10
11.05099992359862
 20
5.837322513446594
 30
0.0
 11
-0.0624999999999977
 21
0.108253175473036
 31
0.0
210
0.0
220
0.0
230
1.0
 40
0.5773502691896258
 41
3.926990816986982
 42
4.115866787975692
  0
LINE
  5
230
330
6C
100
AcDbEntity
  8
Visible (ANSI)
100
AcDbLine
 10
11.13938827124693
 20
5.544645657099497
 30
0.0
 11
11.13938827124693
 21
5.786291477138618
 31
0.0
  0
ELLIPSE
  5
231
330
6C
100
AcDbEntity
  8
Visible (ANSI)
100
AcDbEllipse
 10
10.96261157595029
 20
5.646707729715467
 30
0.0
 11
-0.1250000000000171
 21
0.2165063509461096
 31
0.0
210
0.0
220
0.0
230
1.0
 40
0.5773502691896258
 41
3.839724354387238
 42
3.926990816986966
  0
LINE
  5
232
330
6C
100
AcDbEntity
  8
Visible (ANSI)
100
AcDbLine
 10
11.10558950436003
 20
5.109161287477705
 30
0.0
 11
11.13871558255098
 21
5.527243442608763
 31
0.0
  0
ELLIPSE
  5
233
330
6C
100
AcDbEntity
  8
Visible (ANSI)
100
AcDbEllipse
 10
11.28169351096071
 20
4.989697000370902
 30
0.0
 11
-0.1250000000000005
 21
0.2165063509461107
 31
0.0
210
0.0
220
0.0
230
1.0
 40
0.5773502691896258
 41
0.6981317007971964
 42
0.7853981633969163
  0
LINE
  5
234
330
6C
100
AcDbEntity
  8
Visible (ANSI)
100
AcDbLine
 10
11.10491681566409
 20
4.9599049892505
 30
0.0
 11
11.10491681566408
 21
5.091759072986976
 31
0.0
  0
LINE
  5
235
330
6C
100
AcDbEntity
  8
Visible (ANSI)
100
AcDbLine
 10
11.75810670478516
 20
5.81001732257703
 30
0.0
 11
11.75810670478516
 21
4.58278563093451
 31
0.0
  0
ELLIPSE
  5
236
330
6C
100
AcDbEntity
  8
Visible (ANSI)
100
AcDbEllipse
 10
11.75808955682809
 20
5.879838049459966
 30
0.0
 11
0.0427502275845895
 21
-0.0740455662116314
 31
0.0
210
0.0
220
0.0
230
0.9999999999999998
 40
0.5773502691896257
 41
3.926991966618713
 42
5.498070778222632
  0
LINE
  5
237
330
6C
100
AcDbEntity
  8
Visible (ANSI)
100
AcDbLine
 10
11.69763160518366
 20
5.955520120299328
 30
0.0
 11
11.69763160518366
 21
5.914743383859783
 31
0.0
  0
ELLIPSE
  5
238
330
6C
100
AcDbEntity
  8
Visible (ANSI)
100
AcDbEllipse
 10
11.75808955682809
 20
5.920614786040441
 30
0.0
 11
-0.0427502275845848
 21
0.0740455662116335
 31
0.0
210
0.0
220
0.0
230
0.9999999999999998
 40
0.5773502691896258
 41
5.495866031623286
 42
7.068584622227481
  0
LINE
  5
239
330
6C
100
AcDbEntity
  8
Visible (ANSI)
100
AcDbLine
 10
11.75820570326272
 20
11.34861732058968
 30
0.0
 11
11.75820570326265
 21
5.990358429354179
 31
0.0
  0
ELLIPSE
  5
23A
330
6C
100
AcDbEntity
  8
Visible (ANSI)
100
AcDbEllipse
 10
11.75810670478516
 20
11.50176754363269
 30
0.0
 11
-0.09375
 21
0.1623797632095824
 31
0.0
210
0.0
220
0.0
230
1.0
 40
0.5773502691896257
 41
5.497787143782149
 42
8.640126490719231
  0
LINE
  5
23B
330
6C
100
AcDbEntity
  8
Visible (ANSI)
100
AcDbLine
 10
11.75810670478516
 20
13.10924518733416
 30
0.0
 11
11.75810670478516
 21
11.65486065255664
 31
0.0
  0
LINE
  5
23C
330
6C
100
AcDbEntity
  8
Visible (ANSI)
100
AcDbLine
 10
11.6034270964006
 20
13.37715812795107
 30
0.0
 11
11.75810670478516
 21
13.10924518733416
 31
0.0
  0
LINE
  5
23D
330
6C
100
AcDbEntity
  8
Visible (ANSI)
100
AcDbLine
 10
11.24471852426742
 20
13.58425861863279
 30
0.0
 11
11.6034270964006
 21
13.37715812795107
 31
0.0
  0
LINE
  5
23E
330
6C
100
AcDbEntity
  8
Visible (ANSI)
100
AcDbLine
 10
9.968949771687908
 20
5.785168794339837
 30
0.0
 11
9.968949771687908
 21
5.653314710603369
 31
0.0
  0
LINE
  5
23F
330
6C
100
AcDbEntity
  8
Visible Narrow (ANSI)
100
AcDbLine
 10
9.968949771687908
 20
5.785168794339837
 30
0.0
 11
9.936422859753328
 21
5.766389372978499
 31
0.0
  0
ELLIPSE
  5
240
330
6C
100
AcDbEntity
  8
Visible (ANSI)
100
AcDbEllipse
 10
10.02286666375336
 20
6.468474370503744
 30
0.0
 11
0.0624999999999946
 21
-0.1082531754730307
 31
0.0
210
0.0
220
0.0
230
1.0
 40
0.5773502691896257
 41
3.738114845998168
 42
3.92699081698696
  0
LINE
  5
241
330
6C
100
AcDbEntity
  8
Visible (ANSI)
100
AcDbLine
 10
9.934478316105057
 20
6.519505406811715
 30
0.0
 11
9.934478316105057
 21
6.277859586772594
 31
0.0
  0
ELLIPSE
  5
242
330
6C
100
AcDbEntity
  8
Visible (ANSI)
100
AcDbEllipse
 10
10.11125501140161
 20
6.175797514156671
 30
0.0
 11
0.1249999999999562
 21
-0.2165063509460041
 31
0.0
210
0.0
220
0.0
230
1.0
 40
0.5773502691896258
 41
3.926990816986979
 42
4.01425727958675
  0
LINE
  5
243
330
6C
100
AcDbEntity
  8
Visible (ANSI)
100
AcDbLine
 10
9.935151004801003
 20
6.25968061828249
 30
0.0
 11
9.968277082991953
 21
5.803347762829947
 31
0.0
  0
ELLIPSE
  5
244
330
6C
100
AcDbEntity
  8
Visible (ANSI)
100
AcDbEllipse
 10
9.792173076391332
 20
5.887230866955664
 30
0.0
 11
0.1249999999999567
 21
-0.2165063509460348
 31
0.0
210
0.0
220
0.0
230
1.0
 40
0.5773502691896257
 41
0.7853981633979537
 42
0.8726646259977028
  0
ELLIPSE
  5
245
330
6C
100
AcDbEntity
  8
Visible (ANSI)
100
AcDbEllipse
 10
9.31575988256683
 20
12.94941598161755
 30
0.0
 11
0.0937499999999973
 21
-0.1623797632095777
 31
0.0
210
0.0
220
0.0
230
0.9999999999999998
 40
0.5773502691896258
 41
5.49853383712951
 42
6.108826336123878
  0
LINE
  5
246
330
6C
100
AcDbEntity
  8
Visible (ANSI)
100
AcDbLine
 10
9.470439490951385
 20
14.64619793885798
 30
0.0
 11
9.823992881544743
 21
14.442073793626
 31
0.0
  0
ELLIPSE
  5
247
330
6C
100
AcDbEntity
  8
Visible (ANSI)
100
AcDbEllipse
 10
9.531073897438123
 20
14.3560354664108
 30
0.0
 11
-0.0427500000000001
 21
0.0740451720235697
 31
0.0
210
0.0
220
0.0
230
0.9999999999999998
 40
0.5773502691896257
 41
0.3902630708023546
 42
2.356194490192345
  0
LINE
  5
248
330
6C
100
AcDbEntity
  8
Visible (ANSI)
100
AcDbLine
 10
9.531073897438123
 20
14.28622500874148
 30
0.0
 11
9.586935333151867
 21
14.25397339379483
 31
0.0
  0
ELLIPSE
  5
249
330
6C
100
AcDbEntity
  8
Visible (ANSI)
100
AcDbEllipse
 10
9.586935333151862
 20
14.32378385146418
 30
0.0
 11
0.0427500000000153
 21
-0.074045172023596
 31
0.0
210
0.0
220
0.0
230
1.0
 40
0.5773502691896258
 41
5.497787143782183
 42
5.892922236377141
  0
ELLIPSE
  5
24A
330
6C
100
AcDbEntity
  8
Visible (ANSI)
100
AcDbEllipse
 10
9.531073897438123
 20
9.303962871920498
 30
0.0
 11
-0.0427499999999999
 21
0.0740451720235693
 31
0.0
210
0.0
220
0.0
230
1.0
 40
0.5773502691896258
 41
0.3902630708023549
 42
2.356194490192345
  0
LINE
  5
24B
330
6C
100
AcDbEntity
  8
Visible (ANSI)
100
AcDbLine
 10
9.531073897438123
 20
9.234152414251177
 30
0.0
 11
9.586935333151867
 21
9.201900799304528
 31
0.0
  0
ELLIPSE
  5
24C
330
6C
100
AcDbEntity
  8
Visible (ANSI)
100
AcDbEllipse
 10
9.58693533315187
 20
9.27171125697381
 30
0.0
 11
0.0427499999999761
 21
-0.0740451720235281
 31
0.0
210
0.0
220
0.0
230
1.0
 40
0.5773502691896255
 41
5.497787143782068
 42
5.683882429185049
  0
LINE
  5
24D
330
6C
100
AcDbEntity
  8
Visible Narrow (ANSI)
100
AcDbLine
 10
9.968277082991953
 20
5.803347762829947
 30
0.0
 11
9.935750171057371
 21
5.784568341468609
 31
0.0
  0
LINE
  5
24E
330
6C
100
AcDbEntity
  8
Visible Narrow (ANSI)
100
AcDbLine
 10
9.935151004801003
 20
6.25968061828249
 30
0.0
 11
9.902624092866421
 21
6.240901196921152
 31
0.0
  0
LINE
  5
24F
330
6C
100
AcDbEntity
  8
Visible Narrow (ANSI)
100
AcDbLine
 10
9.934478316105057
 20
6.277859586772594
 30
0.0
 11
9.901951404170475
 21
6.259080165411257
 31
0.0
  0
LINE
  5
250
330
6C
100
AcDbEntity
  8
Visible Narrow (ANSI)
100
AcDbLine
 10
9.934478316105057
 20
6.519505406811715
 30
0.0
 11
9.901951404170475
 21
6.500725985450378
 31
0.0
  0
LINE
  5
251
330
6C
100
AcDbEntity
  8
Visible (ANSI)
100
AcDbLine
 10
9.470439490951385
 20
14.64619793885798
 30
0.0
 11
9.437912579016803
 21
14.62741851749665
 31
0.0
  0
LINE
  5
252
330
6C
100
AcDbEntity
  8
Visible (ANSI)
100
AcDbLine
 10
9.315858881044389
 20
12.79626575857454
 30
0.0
 11
9.283331969109809
 21
12.7774863372132
 31
0.0
  0
LINE
  5
253
330
6C
100
AcDbEntity
  8
Visible Narrow (ANSI)
100
AcDbLine
 10
9.586935333151867
 20
14.25397339379483
 30
0.0
 11
9.554408421217285
 21
14.2351939724335
 31
0.0
  0
LINE
  5
254
330
6C
100
AcDbEntity
  8
Visible Narrow (ANSI)
100
AcDbLine
 10
9.531073897438123
 20
14.28622500874148
 30
0.0
 11
9.498546985503542
 21
14.26744558738014
 31
0.0
  0
LINE
  5
255
330
6C
100
AcDbEntity
  8
Visible Narrow (ANSI)
100
AcDbLine
 10
9.586935333151867
 20
9.201900799304528
 30
0.0
 11
9.554408421217285
 21
9.183121377943191
 31
0.0
  0
LINE
  5
256
330
6C
100
AcDbEntity
  8
Visible Narrow (ANSI)
100
AcDbLine
 10
9.531073897438123
 20
9.234152414251177
 30
0.0
 11
9.498546985503542
 21
9.21537299288984
 31
0.0
  0
LINE
  5
257
330
6C
100
AcDbEntity
  8
Visible (ANSI)
100
AcDbLine
 10
9.949895947818747
 20
5.589197755497971
 30
0.0
 11
9.931652141404608
 21
5.557598555865232
 31
0.0
  0
ELLIPSE
  5
258
330
6C
100
AcDbEntity
  8
Visible (ANSI)
100
AcDbEllipse
 10
10.02004048905293
 20
5.506567519557249
 30
0.0
 11
-0.0625
 21
-0.108253175473055
 31
0.0
210
0.0
220
0.0
230
1.0
 40
0.8164965809277259
 41
4.712388980384697
 42
6.28318530717936
  0
LINE
  5
259
330
6C
100
AcDbEntity
  8
Visible (ANSI)
100
AcDbLine
 10
11.77157979285058
 20
4.537448097190448
 30
0.0
 11
11.33146098643644
 21
3.77513996311459
 31
0.0
  0
LINE
  5
25A
330
6C
100
AcDbEntity
  8
Visible (ANSI)
100
AcDbLine
 10
11.33146098643644
 20
3.77513996311459
 30
0.0
 11
10.69078906232168
 21
3.532174760219696
 31
0.0
  0
ELLIPSE
  5
25B
330
6C
100
AcDbEntity
  8
Visible (ANSI)
100
AcDbEllipse
 10
10.38082629216197
 20
3.710554498740974
 30
0.0
 11
0.0427499999999999
 21
0.0740451720235699
 31
0.0
210
0.0
220
0.0
230
1.0
 40
0.8164965809277262
 41
0.1913820155052519
 42
1.576644313343702
  0
ELLIPSE
  5
25C
330
6C
100
AcDbEntity
  8
Visible (ANSI)
100
AcDbEllipse
 10
9.275971946557994
 20
4.34844245259076
 30
0.0
 11
0.0427499999999999
 21
0.0740451720235694
 31
0.0
210
0.0
220
0.0
230
1.0
 40
0.816496580927726
 41
0.1913820155052521
 42
1.564948340246089
  0
ELLIPSE
  5
25D
330
6C
100
AcDbEntity
  8
Visible (ANSI)
100
AcDbEllipse
 10
9.672149119359984
 20
3.75886553698323
 30
0.0
 11
0.0427499999999997
 21
0.0740451720235696
 31
0.0
210
0.0
220
0.0
230
1.0
 40
0.8164965809277259
 41
0.1913820155052477
 42
2.950210638084541
  0
LINE
  5
25E
330
6C
100
AcDbEntity
  8
Visible (ANSI)
100
AcDbLine
 10
11.74857979285058
 20
4.55072715338181
 30
0.0
 11
11.30846098643644
 21
3.788419019305952
 31
0.0
  0
LINE
  5
25F
330
6C
100
AcDbEntity
  8
Visible (ANSI)
100
AcDbLine
 10
11.33146098643644
 20
3.77513996311459
 30
0.0
 11
11.30846098643644
 21
3.788419019305952
 31
0.0
  0
LINE
  5
260
330
6C
100
AcDbEntity
  8
Visible (ANSI)
100
AcDbLine
 10
9.793776743845032
 20
3.255631093353673
 30
0.0
 11
8.946185793981243
 21
3.744987956420223
 31
0.0
  0
ELLIPSE
  5
261
330
6C
100
AcDbEntity
  8
Visible (ANSI)
100
AcDbEllipse
 10
9.252971946557993
 20
4.361721508782122
 30
0.0
 11
0.0427499999999936
 21
0.0740451720235734
 31
0.0
210
0.0
220
0.0
230
1.0
 40
0.816496580927726
 41
3.799422328677126
 42
7.848133647425575
  0
LINE
  5
262
330
6C
100
AcDbEntity
  8
Visible (ANSI)
100
AcDbLine
 10
9.215765350557227
 20
4.383780097267984
 30
0.0
 11
9.192765350557227
 21
4.397059153459346
 31
0.0
  0
ELLIPSE
  5
263
330
6C
100
AcDbEntity
  8
Visible (ANSI)
100
AcDbEllipse
 10
9.649149119359984
 20
3.772144593174591
 30
0.0
 11
-0.04275
 21
-0.0740451720235695
 31
0.0
210
0.0
220
0.0
230
1.0
 40
0.8164965809277259
 41
0.0
 42
6.283185307179586
  0
LINE
  5
264
330
6C
100
AcDbEntity
  8
Visible (ANSI)
100
AcDbLine
 10
9.926895947818746
 20
5.602476811689332
 30
0.0
 11
9.908652141404608
 21
5.570877612056594
 31
0.0
  0
LINE
  5
265
330
6C
100
AcDbEntity
  8
Visible Narrow (ANSI)
100
AcDbLine
 10
9.931652141404608
 20
5.557598555865232
 30
0.0
 11
9.908652141404608
 21
5.570877612056594
 31
0.0
  0
ELLIPSE
  5
266
330
6C
100
AcDbEntity
  8
Visible (ANSI)
100
AcDbEllipse
 10
9.997040489052926
 20
5.51984657574861
 30
0.0
 11
-0.0625
 21
-0.1082531754730549
 31
0.0
210
0.0
220
0.0
230
1.0
 40
0.8164965809277259
 41
4.712388980384698
 42
6.28318530717936
  0
LINE
  5
267
330
6C
100
AcDbEntity
  8
Visible (ANSI)
100
AcDbLine
 10
9.934540489052906
 20
5.411593400275568
 30
0.0
 11
10.92625774966706
 21
4.839025172899987
 31
0.0
  0
ELLIPSE
  5
268
330
6C
100
AcDbEntity
  8
Visible (ANSI)
100
AcDbEllipse
 10
10.98875774966706
 20
4.947278348373042
 30
0.0
 11
-0.0625
 21
-0.1082531754730549
 31
0.0
210
0.0
220
0.0
230
1.0
 40
0.8164965809277257
 41
0.0
 42
1.570796326794895
  0
LINE
  5
269
330
6C
100
AcDbEntity
  8
Visible (ANSI)
100
AcDbLine
 10
11.07714609731538
 20
4.896247312065058
 30
0.0
 11
11.09538990372951
 21
4.927846511697799
 31
0.0
  0
LINE
  5
26A
330
6C
100
AcDbEntity
  8
Visible (ANSI)
100
AcDbLine
 10
11.30846098643644
 20
3.788419019305952
 30
0.0
 11
10.66778906232168
 21
3.545453816411057
 31
0.0
  0
LINE
  5
26B
330
6C
100
AcDbEntity
  8
Visible (ANSI)
100
AcDbLine
 10
10.69078906232168
 20
3.532174760219696
 30
0.0
 11
10.66778906232168
 21
3.545453816411057
 31
0.0
  0
LINE
  5
26C
330
6C
100
AcDbEntity
  8
Visible (ANSI)
100
AcDbLine
 10
10.66778906232168
 20
3.545453816411057
 30
0.0
 11
10.41853288816274
 21
3.689361935658896
 31
0.0
  0
ELLIPSE
  5
26D
330
6C
100
AcDbEntity
  8
Visible (ANSI)
100
AcDbEllipse
 10
10.35782629216197
 20
3.723833554932336
 30
0.0
 11
0.04275
 21
0.0740451720235696
 31
0.0
210
0.0
220
0.0
230
1.0
 40
0.816496580927725
 41
4.718236966933504
 42
7.859829620523298
  0
LINE
  5
26E
330
6C
100
AcDbEntity
  8
Visible (ANSI)
100
AcDbLine
 10
9.192765350557227
 20
4.397059153459346
 30
0.0
 11
8.943509176398286
 21
4.540967272707186
 31
0.0
  0
LINE
  5
26F
330
6C
100
AcDbEntity
  8
Visible (ANSI)
100
AcDbLine
 10
8.943509176398286
 20
4.540967272707186
 30
0.0
 11
8.833587252283527
 21
5.217288035929472
 31
0.0
  0
LINE
  5
270
330
6C
100
AcDbEntity
  8
Visible (ANSI)
100
AcDbLine
 10
8.833587252283527
 20
5.217288035929472
 30
0.0
 11
9.273706058697664
 21
5.979596170005331
 31
0.0
  0
ELLIPSE
  5
271
330
6C
100
AcDbEntity
  8
Visible (ANSI)
100
AcDbEllipse
 10
9.260296269218386
 20
4.357492809122515
 30
0.0
 11
-0.0427500000000011
 21
-0.0740451720235714
 31
0.0
210
0.0
220
0.0
230
1.0
 40
0.5773502691896257
 41
4.718236966933511
 42
5.632724834631893
  0
LINE
  5
272
330
6C
100
AcDbEntity
  8
Visible (ANSI)
100
AcDbLine
 10
9.041046269218385
 20
4.48349950537315
 30
0.0
 11
9.217297000218787
 21
4.381741098385199
 31
0.0
  0
LINE
  5
273
330
6C
100
AcDbEntity
  8
Visible (ANSI)
100
AcDbLine
 10
9.008519357283804
 20
4.502278926734487
 30
0.0
 11
9.041046269218385
 21
4.48349950537315
 31
0.0
  0
LINE
  5
274
330
6C
100
AcDbEntity
  8
Visible (ANSI)
100
AcDbLine
 10
8.916546269218384
 20
4.411619396859041
 30
0.0
 11
9.041046269218385
 21
4.48349950537315
 31
0.0
  0
LINE
  5
275
330
6C
100
AcDbEntity
  8
Visible (ANSI)
100
AcDbLine
 10
8.884019357283804
 20
4.430398818220378
 30
0.0
 11
9.008519357283804
 21
4.502278926734487
 31
0.0
  0
LINE
  5
276
330
6C
100
AcDbEntity
  8
Visible (ANSI)
100
AcDbLine
 10
8.884019357283804
 20
4.430398818220378
 30
0.0
 11
8.916546269218384
 21
4.411619396859041
 31
0.0
  0
LINE
  5
277
330
6C
100
AcDbEntity
  8
Visible (ANSI)
100
AcDbLine
 10
8.697796269218384
 20
4.032733282703349
 30
0.0
 11
8.916546269218384
 21
4.411619396859041
 31
0.0
  0
LINE
  5
278
330
6C
100
AcDbEntity
  8
Visible (ANSI)
100
AcDbLine
 10
8.665269357283802
 20
4.051512704064688
 30
0.0
 11
8.884019357283804
 21
4.430398818220378
 31
0.0
  0
LINE
  5
279
330
6C
100
AcDbEntity
  8
Visible (ANSI)
100
AcDbLine
 10
8.665269357283802
 20
4.051512704064688
 30
0.0
 11
8.697796269218384
 21
4.032733282703349
 31
0.0
  0
LINE
  5
27A
330
6C
100
AcDbEntity
  8
Visible (ANSI)
100
AcDbLine
 10
8.697796269218384
 20
3.888395715405943
 30
0.0
 11
8.697796269218384
 21
4.032733282703349
 31
0.0
  0
LINE
  5
27B
330
6C
100
AcDbEntity
  8
Visible (ANSI)
100
AcDbLine
 10
8.665269357283804
 20
3.907175136767281
 30
0.0
 11
8.665269357283802
 21
4.051512704064688
 31
0.0
  0
LINE
  5
27C
330
6C
100
AcDbEntity
  8
Visible (ANSI)
100
AcDbLine
 10
8.665269357283804
 20
3.907175136767281
 30
0.0
 11
8.697796269218384
 21
3.888395715405943
 31
0.0
  0
LINE
  5
27D
330
6C
100
AcDbEntity
  8
Visible (ANSI)
100
AcDbLine
 10
8.890658882046659
 20
3.777046433972922
 30
0.0
 11
8.697796269218384
 21
3.888395715405943
 31
0.0
  0
LINE
  5
27E
330
6C
100
AcDbEntity
  8
Visible (ANSI)
100
AcDbLine
 10
9.793776743845032
 20
3.39996866065108
 30
0.0
 11
9.793776743845032
 21
3.255631093353673
 31
0.0
  0
LINE
  5
27F
330
6C
100
AcDbEntity
  8
Visible (ANSI)
100
AcDbLine
 10
9.826303655779613
 20
3.236851671992336
 30
0.0
 11
9.793776743845032
 21
3.255631093353673
 31
0.0
  0
LINE
  5
280
330
6C
100
AcDbEntity
  8
Visible (ANSI)
100
AcDbLine
 10
9.826303655779613
 20
3.381189239289743
 30
0.0
 11
9.826303655779613
 21
3.236851671992336
 31
0.0
  0
LINE
  5
281
330
6C
100
AcDbEntity
  8
Visible (ANSI)
100
AcDbLine
 10
9.826303655779613
 20
3.381189239289743
 30
0.0
 11
9.793776743845032
 21
3.39996866065108
 31
0.0
  0
LINE
  5
282
330
6C
100
AcDbEntity
  8
Visible (ANSI)
100
AcDbLine
 10
10.01252674384503
 20
3.778854774806773
 30
0.0
 11
9.793776743845032
 21
3.39996866065108
 31
0.0
  0
LINE
  5
283
330
6C
100
AcDbEntity
  8
Visible (ANSI)
100
AcDbLine
 10
10.04505365577961
 20
3.760075353445435
 30
0.0
 11
9.826303655779613
 21
3.381189239289743
 31
0.0
  0
LINE
  5
284
330
6C
100
AcDbEntity
  8
Visible (ANSI)
100
AcDbLine
 10
10.04505365577961
 20
3.760075353445435
 30
0.0
 11
10.01252674384503
 21
3.778854774806773
 31
0.0
  0
LINE
  5
285
330
6C
100
AcDbEntity
  8
Visible (ANSI)
100
AcDbLine
 10
10.13702674384503
 20
3.850734883320881
 30
0.0
 11
10.01252674384503
 21
3.778854774806773
 31
0.0
  0
LINE
  5
286
330
6C
100
AcDbEntity
  8
Visible (ANSI)
100
AcDbLine
 10
10.16955365577961
 20
3.831955461959543
 30
0.0
 11
10.04505365577961
 21
3.760075353445435
 31
0.0
  0
LINE
  5
287
330
6C
100
AcDbEntity
  8
Visible (ANSI)
100
AcDbLine
 10
10.16955365577961
 20
3.831955461959543
 30
0.0
 11
10.13702674384503
 21
3.850734883320881
 31
0.0
  0
LINE
  5
288
330
6C
100
AcDbEntity
  8
Visible (ANSI)
100
AcDbLine
 10
10.34580438678001
 20
3.730197054971593
 30
0.0
 11
10.16955365577961
 21
3.831955461959543
 31
0.0
  0
LINE
  5
289
330
6C
100
AcDbEntity
  8
Visible (ANSI)
100
AcDbLine
 10
9.826303655779613
 20
3.236851671992336
 30
0.0
 11
10.01916626860789
 21
3.125502390559317
 31
0.0
  0
ELLIPSE
  5
28A
330
6C
100
AcDbEntity
  8
Visible (ANSI)
100
AcDbEllipse
 10
10.38880365577961
 20
3.705948765708907
 30
0.0
 11
0.0427500000000048
 21
0.0740451720235677
 31
0.0
210
0.0
220
0.0
230
0.9999999999999998
 40
0.5773502691896258
 41
1.576644313343848
 42
2.491132181042402
  0
LINE
  5
28B
330
6C
100
AcDbEntity
  8
Visible Narrow (ANSI)
100
AcDbLine
 10
11.5194581661347
 20
8.392344439314683
 30
0.0
 11
11.48693125420012
 21
8.373565017953346
 31
0.0
  0
LINE
  5
28C
330
6C
100
AcDbEntity
  8
Visible Narrow (ANSI)
100
AcDbLine
 10
11.57531960184844
 20
8.360092824368031
 30
0.0
 11
11.54279268991386
 21
8.341313403006692
 31
0.0
  0
LINE
  5
28D
330
6C
100
AcDbEntity
  8
Visible Narrow (ANSI)
100
AcDbLine
 10
11.5194581661347
 20
10.07636863747812
 30
0.0
 11
11.48693125420012
 21
10.05758921611678
 31
0.0
  0
LINE
  5
28E
330
6C
100
AcDbEntity
  8
Visible Narrow (ANSI)
100
AcDbLine
 10
11.57531960184844
 20
10.04411702253147
 30
0.0
 11
11.54279268991386
 21
10.02533760117013
 31
0.0
  0
LINE
  5
28F
330
6C
100
AcDbEntity
  8
Visible Narrow (ANSI)
100
AcDbLine
 10
11.5194581661347
 20
12.72998252549323
 30
0.0
 11
11.48693125420012
 21
12.7112031041319
 31
0.0
  0
LINE
  5
290
330
6C
100
AcDbEntity
  8
Visible Narrow (ANSI)
100
AcDbLine
 10
11.57531960184844
 20
12.69773091054658
 30
0.0
 11
11.54279268991386
 21
12.67895148918524
 31
0.0
  0
LINE
  5
291
330
6C
100
AcDbEntity
  8
Visible (ANSI)
100
AcDbLine
 10
11.63595400833518
 20
13.39593754931241
 30
0.0
 11
11.6034270964006
 21
13.37715812795107
 31
0.0
  0
LINE
  5
292
330
6C
100
AcDbEntity
  8
Visible (ANSI)
100
AcDbLine
 10
11.79063361671974
 20
13.1280246086955
 30
0.0
 11
11.75810670478516
 21
13.10924518733416
 31
0.0
  0
LINE
  5
293
330
6C
100
AcDbEntity
  8
Visible (ANSI)
100
AcDbLine
 10
11.79063361671974
 20
11.67364007391798
 30
0.0
 11
11.75810670478516
 21
11.65486065255664
 31
0.0
  0
LINE
  5
294
330
6C
100
AcDbEntity
  8
Visible (ANSI)
100
AcDbLine
 10
11.7907326151973
 20
11.36739674195101
 30
0.0
 11
11.75820570326272
 21
11.34861732058968
 31
0.0
  0
LINE
  5
295
330
6C
100
AcDbEntity
  8
Visible (ANSI)
100
AcDbLine
 10
11.79073261519723
 20
6.009137850715516
 30
0.0
 11
11.75820570326265
 21
5.990358429354179
 31
0.0
  0
LINE
  5
296
330
6C
100
AcDbEntity
  8
Visible Narrow (ANSI)
100
AcDbLine
 10
11.73015851711824
 20
5.974299541660666
 30
0.0
 11
11.69763160518366
 21
5.955520120299328
 31
0.0
  0
LINE
  5
297
330
6C
100
AcDbEntity
  8
Visible Narrow (ANSI)
100
AcDbLine
 10
11.73015851711824
 20
5.93352280522112
 30
0.0
 11
11.69763160518366
 21
5.914743383859783
 31
0.0
  0
LINE
  5
298
330
6C
100
AcDbEntity
  8
Visible (ANSI)
100
AcDbLine
 10
11.79063361671974
 20
5.828796743938368
 30
0.0
 11
11.75810670478516
 21
5.81001732257703
 31
0.0
  0
LINE
  5
299
330
6C
100
AcDbEntity
  8
Visible (ANSI)
100
AcDbLine
 10
9.884944414218431
 20
13.86907163821436
 30
0.0
 11
9.85241750228385
 21
13.8878510595757
 31
0.0
  0
LINE
  5
29A
330
6C
100
AcDbEntity
  8
Visible (ANSI)
100
AcDbLine
 10
9.788102428113605
 20
13.7442126925242
 30
0.0
 11
9.755575516179023
 21
13.76299211388553
 31
0.0
  0
LINE
  5
29B
330
6C
100
AcDbEntity
  8
Visible (ANSI)
100
AcDbLine
 10
9.650574943458657
 20
13.50459050910451
 30
0.0
 11
9.618048031524075
 21
13.52336993046585
 31
0.0
  0
LINE
  5
29C
330
6C
100
AcDbEntity
  8
Visible Narrow (ANSI)
100
AcDbLine
 10
9.650574943458657
 20
13.08228201029075
 30
0.0
 11
9.618048031524075
 21
13.10106143165209
 31
0.0
  0
LINE
  5
29D
330
6C
100
AcDbEntity
  8
Visible Narrow (ANSI)
100
AcDbLine
 10
9.453444999346929
 20
12.67190531085802
 30
0.0
 11
9.420918087412347
 21
12.69068473221936
 31
0.0
  0
LINE
  5
29E
330
6C
100
AcDbEntity
  8
Visible Narrow (ANSI)
100
AcDbLine
 10
9.316326238147965
 20
12.55036169165908
 30
0.0
 11
9.283799326213385
 21
12.56914111302042
 31
0.0
  0
LINE
  5
29F
330
6C
100
AcDbEntity
  8
Visible Narrow (ANSI)
100
AcDbLine
 10
9.120244857568788
 20
12.14216784701059
 30
0.0
 11
9.087717945634208
 21
12.16094726837193
 31
0.0
  0
LINE
  5
2A0
330
6C
100
AcDbEntity
  8
Visible Narrow (ANSI)
100
AcDbLine
 10
9.120244857568788
 20
11.85753713889919
 30
0.0
 11
9.087717945634208
 21
11.87631656026052
 31
0.0
  0
LINE
  5
2A1
330
6C
100
AcDbEntity
  8
Visible Narrow (ANSI)
100
AcDbLine
 10
9.650574943458655
 20
11.52979541131478
 30
0.0
 11
9.618048031524075
 21
11.54857483267611
 31
0.0
  0
LINE
  5
2A2
330
6C
100
AcDbEntity
  8
Visible Narrow (ANSI)
100
AcDbLine
 10
9.650574943458657
 20
11.1431026305874
 30
0.0
 11
9.618048031524075
 21
11.16188205194874
 31
0.0
  0
LINE
  5
2A3
330
6C
100
AcDbEntity
  8
Visible Narrow (ANSI)
100
AcDbLine
 10
9.453444999346968
 20
10.73272593115469
 30
0.0
 11
9.420918087412388
 21
10.75150535251603
 31
0.0
  0
LINE
  5
2A4
330
6C
100
AcDbEntity
  8
Visible Narrow (ANSI)
100
AcDbLine
 10
9.316326238148009
 20
10.61118231195576
 30
0.0
 11
9.283799326213427
 21
10.6299617333171
 31
0.0
  0
LINE
  5
2A5
330
6C
100
AcDbEntity
  8
Visible Narrow (ANSI)
100
AcDbLine
 10
9.12024485756879
 20
10.20298846730725
 30
0.0
 11
9.087717945634208
 21
10.22176788866858
 31
0.0
  0
LINE
  5
2A6
330
6C
100
AcDbEntity
  8
Visible Narrow (ANSI)
100
AcDbLine
 10
9.12024485756879
 20
9.91835775919584
 30
0.0
 11
9.087717945634208
 21
9.937137180557179
 31
0.0
  0
LINE
  5
2A7
330
6C
100
AcDbEntity
  8
Visible Narrow (ANSI)
100
AcDbLine
 10
9.650574943458535
 20
9.590616031611512
 30
0.0
 11
9.618048031523954
 21
9.609395452972849
 31
0.0
  0
LINE
  5
2A8
330
6C
100
AcDbEntity
  8
Visible Narrow (ANSI)
100
AcDbLine
 10
9.650574943458659
 20
9.305985323500177
 30
0.0
 11
9.618048031524077
 21
9.324764744861516
 31
0.0
  0
LINE
  5
2A9
330
6C
100
AcDbEntity
  8
Visible Narrow (ANSI)
100
AcDbLine
 10
9.453444999346888
 20
8.895608624067254
 30
0.0
 11
9.420918087412308
 21
8.914388045428593
 31
0.0
  0
LINE
  5
2AA
330
6C
100
AcDbEntity
  8
Visible Narrow (ANSI)
100
AcDbLine
 10
9.316326238147921
 20
8.77406500486834
 30
0.0
 11
9.283799326213339
 21
8.792844426229679
 31
0.0
  0
LINE
  5
2AB
330
6C
100
AcDbEntity
  8
Visible Narrow (ANSI)
100
AcDbLine
 10
9.12024485756879
 20
8.365871160219862
 30
0.0
 11
9.087717945634208
 21
8.384650581581199
 31
0.0
  0
LINE
  5
2AC
330
6C
100
AcDbEntity
  8
Visible Narrow (ANSI)
100
AcDbLine
 10
9.12024485756879
 20
8.285364597340388
 30
0.0
 11
9.087717945634208
 21
8.304144018701727
 31
0.0
  0
LINE
  5
2AD
330
6C
100
AcDbEntity
  8
Visible Narrow (ANSI)
100
AcDbLine
 10
9.6505749434587
 20
7.957622869756
 30
0.0
 11
9.618048031524118
 21
7.976402291117337
 31
0.0
  0
LINE
  5
2AE
330
6C
100
AcDbEntity
  8
Visible Narrow (ANSI)
100
AcDbLine
 10
9.6505749434587
 20
7.877116306876526
 30
0.0
 11
9.618048031524118
 21
7.895895728237864
 31
0.0
  0
LINE
  5
2AF
330
6C
100
AcDbEntity
  8
Visible Narrow (ANSI)
100
AcDbLine
 10
9.452802070577291
 20
7.466170703213275
 30
0.0
 11
9.420275158642709
 21
7.484950124574612
 31
0.0
  0
LINE
  5
2B0
330
6C
100
AcDbEntity
  8
Visible Narrow (ANSI)
100
AcDbLine
 10
9.316875189556371
 20
7.346104212457259
 30
0.0
 11
9.28434827762179
 21
7.364883633818596
 31
0.0
  0
LINE
  5
2B1
330
6C
100
AcDbEntity
  8
Visible Narrow (ANSI)
100
AcDbLine
 10
9.119891304178109
 20
6.936798019451016
 30
0.0
 11
9.087364392243529
 21
6.955577440812355
 31
0.0
  0
LINE
  5
2B2
330
6C
100
AcDbEntity
  8
Visible (ANSI)
100
AcDbLine
 10
9.119891304178191
 20
6.640981308180949
 30
0.0
 11
9.087364392243609
 21
6.659760729542286
 31
0.0
  0
LINE
  5
2B3
330
6C
100
AcDbEntity
  8
Visible Narrow (ANSI)
100
AcDbLine
 10
9.376710367742079
 20
6.665841202977978
 30
0.0
 11
9.365857356637897
 21
6.672107191860496
 31
0.0
  0
LINE
  5
2B4
330
6C
100
AcDbEntity
  8
Visible Narrow (ANSI)
100
AcDbLine
 10
9.628824776422698
 20
6.395641870642773
 30
0.0
 11
9.596297864488118
 21
6.414421292004111
 31
0.0
  0
LINE
  5
2B5
330
6C
100
AcDbEntity
  8
Visible (ANSI)
100
AcDbLine
 10
10.3117876931557
 20
11.96166993547889
 30
0.0
 11
10.34431460509028
 21
11.94289051411755
 31
0.0
  0
LINE
  5
2B6
330
6C
100
AcDbEntity
  8
Visible (ANSI)
100
AcDbLine
 10
10.31178769315565
 20
10.02249055577552
 30
0.0
 11
10.34431460509023
 21
10.00371113441418
 31
0.0
  0
LINE
  5
2B7
330
6C
100
AcDbEntity
  8
Visible (ANSI)
100
AcDbLine
 10
10.31178769315569
 20
8.185373248688158
 30
0.0
 11
10.34431460509027
 21
8.166593827326821
 31
0.0
  0
LINE
  5
2B8
330
6C
100
AcDbEntity
  8
Visible (ANSI)
100
AcDbLine
 10
10.31178769315565
 20
6.756504232064613
 30
0.0
 11
10.34431460509023
 21
6.737724810703274
 31
0.0
  0
LINE
  5
2B9
330
6C
100
AcDbEntity
  8
Visible (ANSI)
100
AcDbLine
 10
10.90710163935118
 20
5.840406736513738
 30
0.0
 11
10.93962855128576
 21
5.821627315152401
 31
0.0
  0
LINE
  5
2BA
330
6C
100
AcDbEntity
  8
Visible (ANSI)
100
AcDbLine
 10
9.197702793732558
 20
11.68632849851729
 30
0.0
 11
9.165175881797978
 21
11.70510791987863
 31
0.0
  0
LINE
  5
2BB
330
6C
100
AcDbEntity
  8
Visible (ANSI)
100
AcDbLine
 10
9.197702793732558
 20
9.747149118813947
 30
0.0
 11
9.165175881797978
 21
9.765928540175284
 31
0.0
  0
LINE
  5
2BC
330
6C
100
AcDbEntity
  8
Visible (ANSI)
100
AcDbLine
 10
9.197702793732432
 20
8.11415595695842
 30
0.0
 11
9.165175881797852
 21
8.132935378319757
 31
0.0
  0
LINE
  5
2BD
330
6C
100
AcDbEntity
  8
Visible (ANSI)
100
AcDbLine
 10
9.633776524256433
 20
6.391686571712018
 30
0.0
 11
9.601249612321851
 21
6.410465993073355
 31
0.0
  0
LINE
  5
2BE
330
6C
100
AcDbEntity
  8
Visible Narrow (ANSI)
100
AcDbLine
 10
9.936050223530838
 20
6.548330387843876
 30
0.0
 11
9.936050223530836
 21
13.95176895038762
 31
0.0
  0
SPLINE
  5
2BF
330
6C
100
AcDbEntity
  8
Visible (ANSI)
100
AcDbSpline
210
0.0
220
0.0
230
1.0
 70
     8
 71
     3
 72
    12
 73
     8
 74
     0
 42
0.0000000001
 43
0.0000000001
 40
0.0
 40
0.0
 40
0.0
 40
0.0
 40
0.0573582403478009
 40
0.0573582403478009
 40
0.125331976482713
 40
0.125331976482713
 40
0.1919347826010298
 40
0.1919347826010298
 40
0.1919347826010298
 40
0.1919347826010298
 10
9.9537348284362
 20
14.10730265258597
 30
0.0
 10
9.955088590489275
 20
14.10002775804672
 30
0.0
 10
9.957944559105058
 20
14.08520830268306
 30
0.0
 10
9.961776538464443
 20
14.0449035633169
 30
0.0
 10
9.961375711521975
 20
14.02445828066763
 30
0.0
 10
9.953791945736584
 20
13.9859224222332
 30
0.0
 10
9.946816465896226
 20
13.96810385935463
 30
0.0
 10
9.936050223530836
 20
13.95176895038762
 30
0.0
  0
LINE
  5
2C0
330
6C
100
AcDbEntity
  8
Visible (ANSI)
100
AcDbLine
 10
9.911637424435188
 20
14.09659738010967
 30
0.0
 11
9.9537348284362
 21
14.10730265258597
 31
0.0
  0
SPLINE
  5
2C1
330
6C
100
AcDbEntity
  8
Visible (ANSI)
100
AcDbSpline
210
0.0
220
0.0
230
1.0
 70
     8
 71
     3
 72
    14
 73
    10
 74
     0
 42
0.0000000001
 43
0.0000000001
 40
0.0
 40
0.0
 40
0.0
 40
0.0
 40
0.0350936145080649
 40
0.0350936145080649
 40
0.1605509949301336
 40
0.1605509949301336
 40
0.2251291995112969
 40
0.2251291995112969
 40
0.2968967263640359
 40
0.2968967263640359
 40
0.2968967263640359
 40
0.2968967263640359
 10
9.903523311596256
 20
13.97054837174896
 30
0.0
 10
9.90512392926456
 20
13.9747472731828
 30
0.0
 10
9.9065197191348
 20
13.9789789326901
 30
0.0
 10
9.912102636351164
 20
13.99865216448644
 30
0.0
 10
9.914431178765234
 20
14.01553889010638
 30
0.0
 10
9.91509461222817
 20
14.04483179766226
 30
0.0
 10
9.914811127896131
 20
14.0546568649143
 30
0.0
 10
9.913631393547838
 20
14.0753046692549
 30
0.0
 10
9.91270959366961
 20
14.08568240350264
 30
0.0
 10
9.911637424435186
 20
14.09659738010968
 30
0.0
  0
LINE
  5
2C2
330
6C
100
AcDbEntity
  8
Visible (ANSI)
100
AcDbLine
 10
9.917835152847471
 20
13.96228542634997
 30
0.0
 11
9.903523311596256
 21
13.97054837174896
 31
0.0
  0
LINE
  5
2C3
330
6C
100
AcDbEntity
  8
Visible (ANSI)
100
AcDbLine
 10
9.936050223530836
 20
13.95176895038762
 30
0.0
 11
9.917835152847471
 21
13.96228542634997
 31
0.0
  0
SPLINE
  5
2C4
330
6C
100
AcDbEntity
  8
Visible (ANSI)
100
AcDbSpline
210
0.0
220
0.0
230
1.0
 70
     8
 71
     3
 72
    12
 73
     8
 74
     0
 42
0.0000000001
 43
0.0000000001
 40
0.0
 40
0.0
 40
0.0
 40
0.0
 40
0.0829859923206201
 40
0.0829859923206201
 40
0.1698229876662296
 40
0.1698229876662296
 40
0.1808761259701643
 40
0.1808761259701643
 40
0.1808761259701643
 40
0.1808761259701643
 10
9.936050223530838
 20
6.548330387843876
 30
0.0
 10
9.943640380540259
 20
6.551210764514593
 30
0.0
 10
9.949585315326984
 20
6.554266836290406
 30
0.0
 10
9.958109598187659
 20
6.559982138059289
 30
0.0
 10
9.960401542622044
 20
6.562543608396147
 30
0.0
 10
9.960917703699552
 20
6.564400356072837
 30
0.0
 10
9.960946064465378
 20
6.564594278165282
 30
0.0
 10
9.960945901328207
 20
6.56477145129332
 30
0.0
  0
SPLINE
  5
2C5
330
6C
100
AcDbEntity
  8
Visible (ANSI)
100
AcDbSpline
210
0.0
220
0.0
230
1.0
 70
     8
 71
     3
 72
     8
 73
     4
 74
     0
 42
0.0000000001
 43
0.0000000001
 40
0.384462400699548
 40
0.384462400699548
 40
0.384462400699548
 40
0.384462400699548
 40
0.4184361998405098
 40
0.4184361998405098
 40
0.4184361998405098
 40
0.4184361998405098
 10
9.941248576059491
 20
6.550484817066818
 30
0.0
 10
9.939395282406826
 20
6.54727452084935
 30
0.0
 10
9.9375456718329
 20
6.543144895312609
 30
0.0
 10
9.936050223530838
 20
6.537760527493382
 30
0.0
  0
SPLINE
  5
2C6
330
6C
100
AcDbEntity
  8
Visible (ANSI)
100
AcDbSpline
210
0.0
220
0.0
230
1.0
 70
     8
 71
     3
 72
     8
 73
     4
 74
     0
 42
0.0000000001
 43
0.0000000001
 40
0.0
 40
0.0
 40
0.0
 40
0.0
 40
0.0547150543658246
 40
0.0547150543658246
 40
0.0547150543658246
 40
0.0547150543658246
 10
9.903523311596256
 20
6.518981106132044
 30
0.0
 10
9.90415918672212
 20
6.524430639750532
 30
0.0
 10
9.905044768136898
 20
6.529411404321163
 30
0.0
 10
9.906047255470005
 20
6.533927942715674
 30
0.0
  0
LINE
  5
2C7
330
6C
100
AcDbEntity
  8
Visible (ANSI)
100
AcDbLine
 10
9.917835152847473
 20
6.527244051531033
 30
0.0
 11
9.903523311596256
 21
6.518981106132044
 31
0.0
  0
LINE
  5
2C8
330
6C
100
AcDbEntity
  8
Visible (ANSI)
100
AcDbLine
 10
9.936050223530838
 20
6.537760527493383
 30
0.0
 11
9.917835152847473
 21
6.527244051531033
 31
0.0
  0
SPLINE
  5
2C9
330
6C
100
AcDbEntity
  8
Visible (ANSI)
100
AcDbSpline
210
0.0
220
0.0
230
1.0
 70
     8
 71
     3
 72
    10
 73
     6
 74
     0
 42
0.0000000001
 43
0.0000000001
 40
0.0
 40
0.0
 40
0.0
 40
0.0
 40
0.062740894516767
 40
0.062740894516767
 40
0.1254817890363418
 40
0.1254817890363418
 40
0.1254817890363418
 40
0.1254817890363418
 10
9.936050223530836
 20
14.15326277309348
 30
0.0
 10
9.939764384264071
 20
14.14594126878963
 30
0.0
 10
9.943126291848791
 20
14.13843673846154
 30
0.0
 10
9.949059259818678
 20
14.12307714480692
 30
0.0
 10
9.951617558585052
 20
14.11525510188654
 30
0.0
 10
9.953734828436264
 20
14.10730265258592
 30
0.0
  0
LINE
  5
2CA
330
6C
100
AcDbEntity
  8
Visible (ANSI)
100
AcDbLine
 10
9.917835373085248
 20
14.14274642428546
 30
0.0
 11
9.936050223530836
 21
14.15326277309347
 31
0.0
  0
LINE
  5
2CB
330
6C
100
AcDbEntity
  8
Visible (ANSI)
100
AcDbLine
 10
9.903523311596256
 20
14.13448335173213
 30
0.0
 11
9.917835373085248
 21
14.14274642428546
 31
0.0
  0
SPLINE
  5
2CC
330
6C
100
AcDbEntity
  8
Visible (ANSI)
100
AcDbSpline
210
0.0
220
0.0
230
1.0
 70
     8
 71
     3
 72
    10
 73
     6
 74
     0
 42
0.0000000001
 43
0.0000000001
 40
0.0
 40
0.0
 40
0.0
 40
0.0
 40
0.0516881461882972
 40
0.0516881461882972
 40
0.1033762923770007
 40
0.1033762923770007
 40
0.1033762923770007
 40
0.1033762923770007
 10
9.911637424435216
 20
14.09659738010966
 30
0.0
 10
9.910665970764352
 20
14.10304788210535
 30
0.0
 10
9.909492162920614
 20
14.10943254824295
 30
0.0
 10
9.906769978855871
 20
14.12208335825696
 30
0.0
 10
9.905227456713422
 20
14.12832234227915
 30
0.0
 10
9.903523311596256
 20
14.13448335173213
 30
0.0
  0
LINE
  5
2CD
330
6C
100
AcDbEntity
  8
Visible Narrow (ANSI)
100
AcDbLine
 10
9.903523311596256
 20
6.518981106132044
 30
0.0
 11
9.903523311596256
 21
6.532478307512073
 31
0.0
  0
LINE
  5
2CE
330
6C
100
AcDbEntity
  8
Visible Narrow (ANSI)
100
AcDbLine
 10
9.903523311596256
 20
13.97054837174896
 30
0.0
 11
9.903523311596256
 21
14.13448335173213
 31
0.0
  0
LINE
  5
2CF
330
6C
100
AcDbEntity
  8
Visible (ANSI)
100
AcDbLine
 10
9.96094614712998
 20
14.0418045520701
 30
0.0
 11
9.96094614712998
 21
6.564770893851801
 31
0.0
  0
LINE
  5
2D0
330
6C
100
AcDbEntity
  8
Visible Narrow (ANSI)
100
AcDbLine
 10
9.260637328274754
 20
10.10895991565634
 30
0.0
 11
9.40506089961142
 21
10.10895991565634
 31
0.0
  0
LINE
  5
2D1
330
6C
100
AcDbEntity
  8
Visible Narrow (ANSI)
100
AcDbLine
 10
9.296771935698302
 20
10.2122570881456
 30
0.0
 11
9.405060899611456
 21
10.2122570881456
 31
0.0
  0
LINE
  5
2D2
330
6C
100
AcDbEntity
  8
Visible Narrow (ANSI)
100
AcDbLine
 10
9.260637328274755
 20
8.475966753800902
 30
0.0
 11
9.405060899611445
 21
8.475966753800902
 31
0.0
  0
LINE
  5
2D3
330
6C
100
AcDbEntity
  8
Visible Narrow (ANSI)
100
AcDbLine
 10
9.296771935698309
 20
8.579263926290158
 30
0.0
 11
9.405060899611479
 21
8.57926392629016
 31
0.0
  0
SPLINE
  5
2D4
330
6C
100
AcDbEntity
  8
Visible (ANSI)
100
AcDbSpline
210
0.0
220
0.0
230
1.0
 70
     8
 71
     3
 72
    12
 73
     8
 74
     0
 42
0.0000000001
 43
0.0000000001
 40
0.3609586310274631
 40
0.3609586310274631
 40
0.3609586310274631
 40
0.3609586310274631
 40
0.3908063642121013
 40
0.3908063642121013
 40
0.4667622720147377
 40
0.4667622720147377
 40
0.473240529388178
 40
0.473240529388178
 40
0.473240529388178
 40
0.473240529388178
 10
10.52248686843237
 20
12.6527908385628
 30
0.0
 10
10.52117053469427
 20
12.65050503645635
 30
0.0
 10
10.5200947066691
 20
12.64806943762003
 30
0.0
 10
10.51725297186803
 20
12.63921637894684
 30
0.0
 10
10.51675531630481
 20
12.63127077193795
 30
0.0
 10
10.51877713420369
 20
12.62213597002849
 30
0.0
 10
10.51895196753658
 20
12.62141492892342
 30
0.0
 10
10.51914255426396
 20
12.62069160948644
 30
0.0
  0
LINE
  5
2D5
330
6C
100
AcDbEntity
  8
Visible Narrow (ANSI)
100
AcDbLine
 10
10.51914255426396
 20
12.62069160948644
 30
0.0
 11
10.61728358681897
 21
12.54763111977826
 31
0.0
  0
ELLIPSE
  5
2D6
330
6C
100
AcDbEntity
  8
Visible Narrow (ANSI)
100
AcDbEllipse
 10
10.72362994353559
 20
12.6012684973745
 30
0.0
 11
0.0746429821140331
 21
0.1002667702737261
 31
0.0
210
0.0
220
0.0
230
1.0
 40
0.8146443742189763
 41
1.665713354485646
 42
2.591024795534471
  0
LINE
  5
2D7
330
6C
100
AcDbEntity
  8
Visible Narrow (ANSI)
100
AcDbLine
 10
10.63524159588728
 20
12.65229953368248
 30
0.0
 11
10.5726949340661
 21
12.69886201242657
 31
0.0
  0
ELLIPSE
  5
2D8
330
6C
100
AcDbEntity
  8
Visible (ANSI)
100
AcDbEllipse
 10
10.66108328171442
 20
12.64783097611859
 30
0.0
 11
0.1458530312917844
 21
0.0330904291003374
 31
0.0
210
0.0
220
0.0
230
1.0
 40
0.535519779371581
 41
2.095377654044636
 42
2.682359205751942
  0
SPLINE
  5
2D9
330
6C
100
AcDbEntity
  8
Visible Narrow (ANSI)
100
AcDbSpline
210
0.0
220
0.0
230
1.0
 70
     8
 71
     3
 72
    16
 73
    12
 74
     0
 42
0.0000000001
 43
0.0000000001
 40
-0.852601677189893
 40
-0.852601677189893
 40
-0.852601677189893
 40
-0.852601677189893
 40
-0.751302994223221
 40
-0.751302994223221
 40
-0.5309499270924123
 40
-0.5309499270924123
 40
-0.3310649532850652
 40
-0.3310649532850652
 40
-0.1273326743404097
 40
-0.1273326743404097
 40
0.0
 40
0.0
 40
0.0
 40
0.0
 10
10.64277069578361
 20
12.403119189319
 30
0.0
 10
10.64852600255429
 20
12.41508453004865
 30
0.0
 10
10.65374149387959
 20
12.42726775421767
 30
0.0
 10
10.66814704481278
 20
12.46597394451388
 30
0.0
 10
10.67484252678836
 20
12.4926489457186
 30
0.0
 10
10.68035191432744
 20
12.54060289359555
 30
0.0
 10
10.67984125010883
 20
12.56214471052041
 30
0.0
 10
10.67249385094748
 20
12.60069521435394
 30
0.0
 10
10.66563409067733
 20
12.61736932233505
 30
0.0
 10
10.65004926590136
 20
12.63935243730943
 30
0.0
 10
10.64301534555905
 20
12.64651241342195
 30
0.0
 10
10.63524159588728
 20
12.65229953368248
 30
0.0
  0
SPLINE
  5
2DA
330
6C
100
AcDbEntity
  8
Visible Narrow (ANSI)
100
AcDbSpline
210
0.0
220
0.0
230
1.0
 70
     8
 71
     3
 72
    12
 73
     8
 74
     0
 42
0.0000000001
 43
0.0000000001
 40
0.0
 40
0.0
 40
0.0
 40
0.0
 40
0.1273326743404097
 40
0.1273326743404097
 40
0.3310649532850652
 40
0.3310649532850652
 40
0.4469861180940164
 40
0.4469861180940164
 40
0.4469861180940164
 40
0.4469861180940164
 10
10.61728358681897
 20
12.54763111977827
 30
0.0
 10
10.62143445747058
 20
12.54663269975982
 30
0.0
 10
10.62536236678858
 20
12.54447252529317
 30
0.0
 10
10.63431347094551
 20
12.53567655994852
 30
0.0
 10
10.63851632776553
 20
12.52720327150206
 30
0.0
 10
10.64210165040747
 20
12.50968129285377
 30
0.0
 10
10.64275732761077
 20
12.50250206365173
 30
0.0
 10
10.64276216274124
 20
12.49472391779791
 30
0.0
  0
LINE
  5
2DB
330
6C
100
AcDbEntity
  8
Visible Narrow (ANSI)
100
AcDbLine
 10
10.63524159588725
 20
10.66208911767113
 30
0.0
 11
10.57269493406608
 21
10.70865159641523
 31
0.0
  0
SPLINE
  5
2DC
330
6C
100
AcDbEntity
  8
Visible Narrow (ANSI)
100
AcDbSpline
210
0.0
220
0.0
230
1.0
 70
     8
 71
     3
 72
    16
 73
    12
 74
     0
 42
0.0000000001
 43
0.0000000001
 40
-0.8526016771896649
 40
-0.8526016771896649
 40
-0.8526016771896649
 40
-0.8526016771896649
 40
-0.7513029941110873
 40
-0.7513029941110873
 40
-0.5309499270820674
 40
-0.5309499270820674
 40
-0.3310649532808477
 40
-0.3310649532808477
 40
-0.1273326743387876
 40
-0.1273326743387876
 40
0.0
 40
0.0
 40
0.0
 40
0.0
 10
10.64277069578358
 20
10.41290877330765
 30
0.0
 10
10.6485260025606
 20
10.4248741140505
 30
0.0
 10
10.65374149389104
 20
10.43705733823319
 30
0.0
 10
10.66814704481992
 20
10.47576352853046
 30
0.0
 10
10.6748425267904
 20
10.50243852972245
 30
0.0
 10
10.68035191432741
 20
10.55039247758668
 30
0.0
 10
10.67984125010859
 20
10.57193429451092
 30
0.0
 10
10.67249385094713
 20
10.61048479834347
 30
0.0
 10
10.66563409067699
 20
10.62715890632426
 30
0.0
 10
10.65004926590115
 20
10.64914202129826
 30
0.0
 10
10.64301534555892
 20
10.65630199741068
 30
0.0
 10
10.63524159588725
 20
10.66208911767113
 30
0.0
  0
LINE
  5
2DD
330
6C
100
AcDbEntity
  8
Visible Narrow (ANSI)
100
AcDbLine
 10
10.63524159588722
 20
8.722909737967768
 30
0.0
 11
10.57269493406605
 21
8.769472216711863
 31
0.0
  0
SPLINE
  5
2DE
330
6C
100
AcDbEntity
  8
Visible Narrow (ANSI)
100
AcDbSpline
210
0.0
220
0.0
230
1.0
 70
     8
 71
     3
 72
    16
 73
    12
 74
     0
 42
0.0000000001
 43
0.0000000001
 40
-0.8526016716830287
 40
-0.8526016716830287
 40
-0.8526016716830287
 40
-0.8526016716830287
 40
-0.7513003490389263
 40
-0.7513003490389263
 40
-0.5309497023018687
 40
-0.5309497023018687
 40
-0.3310648512555091
 40
-0.3310648512555091
 40
-0.1273326350982733
 40
-0.1273326350982733
 40
-0.0000000000000008
 40
-0.0000000000000008
 40
-0.0000000000000008
 40
-0.0000000000000008
 10
10.64277069567064
 20
8.473729393631787
 30
0.0
 10
10.64852615205565
 20
8.485695045740726
 30
0.0
 10
10.6537417646211
 20
8.497878592125408
 30
0.0
 10
10.66814721308433
 20
8.536584805041028
 30
0.0
 10
10.67484257435771
 20
8.56325950383699
 30
0.0
 10
10.68035191432471
 20
8.61121315247824
 30
0.0
 10
10.67984124562385
 20
8.632754957186664
 30
0.0
 10
10.67249384321999
 20
8.671305439971472
 30
0.0
 10
10.66563408307601
 20
8.687979540068559
 30
0.0
 10
10.65004926154032
 20
8.709962646042153
 30
0.0
 10
10.64301534316323
 20
8.717122619490751
 30
0.0
 10
10.63524159588722
 20
8.722909737967768
 30
0.0
  0
SPLINE
  5
2DF
330
6C
100
AcDbEntity
  8
Visible (ANSI)
100
AcDbSpline
210
0.0
220
0.0
230
1.0
 70
     8
 71
     3
 72
    12
 73
     8
 74
     0
 42
0.0000000001
 43
0.0000000001
 40
0.3609586310275012
 40
0.3609586310275012
 40
0.3609586310275012
 40
0.3609586310275012
 40
0.3908063642121648
 40
0.3908063642121648
 40
0.4667622720148177
 40
0.4667622720148177
 40
0.473240529388343
 40
0.473240529388343
 40
0.473240529388343
 40
0.473240529388343
 10
10.52248686843236
 20
10.66258042255149
 30
0.0
 10
10.52117053469425
 20
10.66029462044503
 30
0.0
 10
10.52009470666908
 20
10.65785902160871
 30
0.0
 10
10.51725297186801
 20
10.64900596293552
 30
0.0
 10
10.51675531630478
 20
10.64106035592662
 30
0.0
 10
10.51877713420367
 20
10.63192555401715
 30
0.0
 10
10.51895196753656
 20
10.63120451291207
 30
0.0
 10
10.51914255426394
 20
10.63048119347508
 30
0.0
  0
LINE
  5
2E0
330
6C
100
AcDbEntity
  8
Visible Narrow (ANSI)
100
AcDbLine
 10
10.51914255426394
 20
10.63048119347508
 30
0.0
 11
10.61728358681895
 21
10.55742070376691
 31
0.0
  0
ELLIPSE
  5
2E1
330
6C
100
AcDbEntity
  8
Visible Narrow (ANSI)
100
AcDbEllipse
 10
10.72362994353557
 20
10.61105808136315
 30
0.0
 11
0.074642982114033
 21
0.1002667702737274
 31
0.0
210
0.0
220
0.0
230
1.0
 40
0.8146443742189733
 41
1.665713354485655
 42
2.591024795534472
  0
ELLIPSE
  5
2E2
330
6C
100
AcDbEntity
  8
Visible (ANSI)
100
AcDbEllipse
 10
10.6610832817144
 20
10.65762056010725
 30
0.0
 11
0.1458530312917844
 21
0.0330904291003374
 31
0.0
210
0.0
220
0.0
230
1.0
 40
0.535519779371581
 41
2.095377654044645
 42
2.68235920575153
  0
SPLINE
  5
2E3
330
6C
100
AcDbEntity
  8
Visible Narrow (ANSI)
100
AcDbSpline
210
0.0
220
0.0
230
1.0
 70
     8
 71
     3
 72
    12
 73
     8
 74
     0
 42
0.0000000001
 43
0.0000000001
 40
0.0
 40
0.0
 40
0.0
 40
0.0
 40
0.1273326743387876
 40
0.1273326743387876
 40
0.3310649532808477
 40
0.3310649532808477
 40
0.4469861180936007
 40
0.4469861180936007
 40
0.4469861180936007
 40
0.4469861180936007
 10
10.61728358681895
 20
10.55742070376691
 30
0.0
 10
10.6214344574705
 20
10.55642228374848
 30
0.0
 10
10.62536236678845
 20
10.55426210928188
 30
0.0
 10
10.6343134709453
 20
10.54546614393742
 30
0.0
 10
10.63851632776531
 20
10.53699285549118
 30
0.0
 10
10.64210165040739
 20
10.51947087684294
 30
0.0
 10
10.64275732761074
 20
10.51229164764065
 30
0.0
 10
10.64276216274121
 20
10.50451350178655
 30
0.0
  0
SPLINE
  5
2E4
330
6C
100
AcDbEntity
  8
Visible (ANSI)
100
AcDbSpline
210
0.0
220
0.0
230
1.0
 70
     8
 71
     3
 72
    12
 73
     8
 74
     0
 42
0.0000000001
 43
0.0000000001
 40
0.360958631027537
 40
0.360958631027537
 40
0.360958631027537
 40
0.360958631027537
 40
0.3908063642122206
 40
0.3908063642122206
 40
0.4667622720148909
 40
0.4667622720148909
 40
0.4732405293885015
 40
0.4732405293885015
 40
0.4732405293885015
 40
0.4732405293885015
 10
10.52248686843235
 20
8.723401042848154
 30
0.0
 10
10.52117053469424
 20
8.721115240741694
 30
0.0
 10
10.52009470666907
 20
8.718679641905378
 30
0.0
 10
10.51725297186799
 20
8.709826583232176
 30
0.0
 10
10.51675531630476
 20
8.701880976223279
 30
0.0
 10
10.51877713420364
 20
8.692746174313798
 30
0.0
 10
10.51895196753655
 20
8.692025133208703
 30
0.0
 10
10.51914255426392
 20
8.69130181377171
 30
0.0
  0
LINE
  5
2E5
330
6C
100
AcDbEntity
  8
Visible Narrow (ANSI)
100
AcDbLine
 10
10.51914255426392
 20
8.691301813771712
 30
0.0
 11
10.61728358681892
 21
8.618241324063552
 31
0.0
  0
ELLIPSE
  5
2E6
330
6C
100
AcDbEntity
  8
Visible Narrow (ANSI)
100
AcDbEllipse
 10
10.72362994353554
 20
8.671878701659785
 30
0.0
 11
0.0746429821140336
 21
0.1002667702737262
 31
0.0
210
0.0
220
0.0
230
1.0
 40
0.8146443742189774
 41
1.665713354485648
 42
2.591024795534476
  0
ELLIPSE
  5
2E7
330
6C
100
AcDbEntity
  8
Visible (ANSI)
100
AcDbEllipse
 10
10.66108328171437
 20
8.71844118040388
 30
0.0
 11
0.1458530312917844
 21
0.0330904291003374
 31
0.0
210
0.0
220
0.0
230
1.0
 40
0.535519779371581
 41
2.095377654044646
 42
2.68235920575115
  0
SPLINE
  5
2E8
330
6C
100
AcDbEntity
  8
Visible Narrow (ANSI)
100
AcDbSpline
210
0.0
220
0.0
230
1.0
 70
     8
 71
     3
 72
    12
 73
     8
 74
     0
 42
0.0000000001
 43
0.0000000001
 40
0.0000000000000008
 40
0.0000000000000008
 40
0.0000000000000008
 40
0.0000000000000008
 40
0.1273326350982733
 40
0.1273326350982733
 40
0.3310648512555091
 40
0.3310648512555091
 40
0.4469861080077962
 40
0.4469861080077962
 40
0.4469861080077962
 40
0.4469861080077962
 10
10.61728358681892
 20
8.618241324063552
 30
0.0
 10
10.62143445619129
 20
8.617242904352799
 30
0.0
 10
10.62536236435165
 20
8.615082730926237
 30
0.0
 10
10.63431346647113
 20
8.606286770305558
 30
0.0
 10
10.63851632304764
 20
8.597813486965831
 30
0.0
 10
10.64210164917898
 20
8.580291509901179
 30
0.0
 10
10.6427573275031
 20
8.573112274527801
 30
0.0
 10
10.64276216267862
 20
8.565334121925285
 30
0.0
  0
LINE
  5
2E9
330
6C
100
AcDbEntity
  8
Visible (ANSI)
100
AcDbLine
 10
10.61728358681897
 20
12.28745604172581
 30
0.0
 11
10.59121807556689
 21
12.25300280181685
 31
0.0
  0
ELLIPSE
  5
2EA
330
6C
100
AcDbEntity
  8
Visible (ANSI)
100
AcDbEllipse
 10
10.5395349164916
 20
12.36588345413011
 30
0.0
 11
0.0
 21
0.119208500815448
 31
0.0
210
0.0
220
0.0
230
1.0
 40
0.8660254037844381
 41
3.994360526114221
 42
5.430417434655158
  0
LINE
  5
2EB
330
6C
100
AcDbEntity
  8
Visible (ANSI)
100
AcDbLine
 10
10.59137250517114
 20
12.47855998229814
 30
0.0
 11
10.61728358681897
 21
12.4443108665344
 31
0.0
  0
LINE
  5
2EC
330
6C
100
AcDbEntity
  8
Visible (ANSI)
100
AcDbLine
 10
10.58959227957909
 20
12.41637781554109
 30
0.0
 11
10.54254851906287
 21
12.47855998229814
 31
0.0
  0
ELLIPSE
  5
2ED
330
6C
100
AcDbEntity
  8
Visible (ANSI)
100
AcDbEllipse
 10
10.5395349164916
 20
12.36588345413011
 30
0.0
 11
0.0
 21
0.0767506786072063
 31
0.0
210
0.0
220
0.0
230
1.0
 40
0.8660254037844381
 41
3.994360526114222
 42
5.430417434655156
  0
LINE
  5
2EE
330
6C
100
AcDbEntity
  8
Visible (ANSI)
100
AcDbLine
 10
10.54239408945861
 20
12.25300280181685
 30
0.0
 11
10.58959227957909
 21
12.31538909271912
 31
0.0
  0
LINE
  5
2EF
330
6C
100
AcDbEntity
  8
Visible (ANSI)
100
AcDbLine
 10
10.61728358681895
 20
10.29724562571449
 30
0.0
 11
10.59121807556685
 21
10.26279238580553
 31
0.0
  0
ELLIPSE
  5
2F0
330
6C
100
AcDbEntity
  8
Visible (ANSI)
100
AcDbEllipse
 10
10.53953491649157
 20
10.37567303811879
 30
0.0
 11
0.0
 21
0.119208500815448
 31
0.0
210
0.0
220
0.0
230
1.0
 40
0.8660254037844381
 41
3.994360526114221
 42
5.430417434655158
  0
LINE
  5
2F1
330
6C
100
AcDbEntity
  8
Visible (ANSI)
100
AcDbLine
 10
10.59137250517111
 20
10.48834956628682
 30
0.0
 11
10.61728358681895
 21
10.45410045052309
 31
0.0
  0
LINE
  5
2F2
330
6C
100
AcDbEntity
  8
Visible (ANSI)
100
AcDbLine
 10
10.58959227957906
 20
10.42616739952978
 30
0.0
 11
10.54254851906284
 21
10.48834956628682
 31
0.0
  0
ELLIPSE
  5
2F3
330
6C
100
AcDbEntity
  8
Visible (ANSI)
100
AcDbEllipse
 10
10.53953491649157
 20
10.37567303811879
 30
0.0
 11
0.0
 21
0.0767506786072063
 31
0.0
210
0.0
220
0.0
230
1.0
 40
0.8660254037844381
 41
3.994360526114223
 42
5.430417434655156
  0
LINE
  5
2F4
330
6C
100
AcDbEntity
  8
Visible (ANSI)
100
AcDbLine
 10
10.54239408945859
 20
10.26279238580553
 30
0.0
 11
10.58959227957906
 21
10.3251786767078
 31
0.0
  0
LINE
  5
2F5
330
6C
100
AcDbEntity
  8
Visible (ANSI)
100
AcDbLine
 10
10.61728358681892
 20
8.35806624601116
 30
0.0
 11
10.59121807556683
 21
8.323613006102201
 31
0.0
  0
ELLIPSE
  5
2F6
330
6C
100
AcDbEntity
  8
Visible (ANSI)
100
AcDbEllipse
 10
10.53953491649155
 20
8.436493658415459
 30
0.0
 11
0.0
 21
0.119208500815448
 31
0.0
210
0.0
220
0.0
230
1.0
 40
0.8660254037844381
 41
3.994360526114221
 42
5.430417434655158
  0
LINE
  5
2F7
330
6C
100
AcDbEntity
  8
Visible (ANSI)
100
AcDbLine
 10
10.59137250517108
 20
8.549170186583488
 30
0.0
 11
10.61728358681892
 21
8.514921070819756
 31
0.0
  0
LINE
  5
2F8
330
6C
100
AcDbEntity
  8
Visible (ANSI)
100
AcDbLine
 10
10.58959227957903
 20
8.486988019826444
 30
0.0
 11
10.54254851906281
 21
8.549170186583486
 31
0.0
  0
ELLIPSE
  5
2F9
330
6C
100
AcDbEntity
  8
Visible (ANSI)
100
AcDbEllipse
 10
10.53953491649155
 20
8.436493658415459
 30
0.0
 11
0.0
 21
0.0767506786072063
 31
0.0
210
0.0
220
0.0
230
1.0
 40
0.8660254037844381
 41
3.994360526114223
 42
5.430417434655156
  0
LINE
  5
2FA
330
6C
100
AcDbEntity
  8
Visible (ANSI)
100
AcDbLine
 10
10.54239408945856
 20
8.323613006102201
 30
0.0
 11
10.58959227957903
 21
8.385999297004472
 31
0.0
  0
ELLIPSE
  5
2FB
330
6C
100
AcDbEntity
  8
Visible (ANSI)
100
AcDbEllipse
 10
10.59121807556689
 20
12.32517158546555
 30
0.0
 11
-0.0691538649119623
 21
-0.1235116538901511
 31
0.0
210
0.0
220
0.0
230
1.0
 40
0.2781050601322884
 41
0.1544698851890928
 42
1.109786503313588
  0
ELLIPSE
  5
2FC
330
6C
100
AcDbEntity
  8
Visible (ANSI)
100
AcDbEllipse
 10
10.59137250517114
 20
12.55072876594684
 30
0.0
 11
-0.0691538649119614
 21
0.1235116538901505
 31
0.0
210
0.0
220
0.0
230
1.0
 40
0.2781050601322901
 41
0.8222993842803774
 42
2.031806150276228
  0
LINE
  5
2FD
330
6C
100
AcDbEntity
  8
Visible Narrow (ANSI)
100
AcDbLine
 10
10.52248686843237
 20
12.6527908385628
 30
0.0
 11
10.49289732016971
 21
12.6527908385628
 31
0.0
  0
ELLIPSE
  5
2FE
330
6C
100
AcDbEntity
  8
Visible (ANSI)
100
AcDbEllipse
 10
10.49289732016971
 20
12.55072876594683
 30
0.0
 11
0.1110092292471454
 21
0.1110092292471347
 31
0.0
210
0.0
220
0.0
230
1.0
 40
0.5176380902050358
 41
1.093138017732947
 42
1.254552588875203
  0
LINE
  5
2FF
330
6C
100
AcDbEntity
  8
Visible (ANSI)
100
AcDbLine
 10
10.47280800142275
 20
12.61193530503281
 30
0.0
 11
10.47280800142275
 21
12.63986555282631
 31
0.0
  0
ELLIPSE
  5
300
330
6C
100
AcDbEntity
  8
Visible (ANSI)
100
AcDbEllipse
 10
10.54254851906287
 20
12.55072876594684
 30
0.0
 11
0.0691538649119652
 21
-0.1235116538901485
 31
0.0
210
0.0
220
0.0
230
1.0
 40
0.2781050601322907
 41
4.046228148510593
 42
5.17339880386477
  0
LINE
  5
301
330
6C
100
AcDbEntity
  8
Visible Narrow (ANSI)
100
AcDbLine
 10
10.54254851906287
 20
12.47855998229814
 30
0.0
 11
10.59137250517114
 21
12.47855998229814
 31
0.0
  0
LINE
  5
302
330
6C
100
AcDbEntity
  8
Visible Narrow (ANSI)
100
AcDbLine
 10
10.59121807556689
 20
12.25300280181685
 30
0.0
 11
10.54239408945861
 21
12.25300280181685
 31
0.0
  0
ELLIPSE
  5
303
330
6C
100
AcDbEntity
  8
Visible (ANSI)
100
AcDbEllipse
 10
10.54239408945861
 20
12.32517158546555
 30
0.0
 11
0.0691538649119663
 21
0.1235116538901491
 31
0.0
210
0.0
220
0.0
230
1.0
 40
0.2781050601322895
 41
3.128845542508432
 42
4.251379156904613
  0
ELLIPSE
  5
304
330
6C
100
AcDbEntity
  8
Visible (ANSI)
100
AcDbEllipse
 10
10.49289732016974
 20
10.56051834993552
 30
0.0
 11
0.1110092292471454
 21
0.1110092292471347
 31
0.0
210
0.0
220
0.0
230
1.0
 40
0.5176380902050358
 41
1.093138017732947
 42
1.254552588875657
  0
ELLIPSE
  5
305
330
6C
100
AcDbEntity
  8
Visible (ANSI)
100
AcDbEllipse
 10
10.49289732016977
 20
8.621338970232187
 30
0.0
 11
0.1110092292471454
 21
0.1110092292471347
 31
0.0
210
0.0
220
0.0
230
1.0
 40
0.5176380902050358
 41
1.093138017732947
 42
1.254552588876119
  0
ELLIPSE
  5
306
330
6C
100
AcDbEntity
  8
Visible (ANSI)
100
AcDbEllipse
 10
10.59121807556686
 20
10.33496116945423
 30
0.0
 11
-0.0691538649119623
 21
-0.1235116538901511
 31
0.0
210
0.0
220
0.0
230
1.0
 40
0.2781050601322883
 41
0.1544698851890944
 42
1.109786503313589
  0
ELLIPSE
  5
307
330
6C
100
AcDbEntity
  8
Visible (ANSI)
100
AcDbEllipse
 10
10.59137250517111
 20
10.56051834993552
 30
0.0
 11
-0.0691538649119614
 21
0.1235116538901505
 31
0.0
210
0.0
220
0.0
230
1.0
 40
0.2781050601322901
 41
0.8222993842807451
 42
2.031806150276208
  0
LINE
  5
308
330
6C
100
AcDbEntity
  8
Visible Narrow (ANSI)
100
AcDbLine
 10
10.52248686843236
 20
10.66258042255149
 30
0.0
 11
10.49289732016974
 21
10.66258042255149
 31
0.0
  0
LINE
  5
309
330
6C
100
AcDbEntity
  8
Visible (ANSI)
100
AcDbLine
 10
10.47280800142272
 20
10.6217248890215
 30
0.0
 11
10.47280800142272
 21
10.64965513681495
 31
0.0
  0
ELLIPSE
  5
30A
330
6C
100
AcDbEntity
  8
Visible (ANSI)
100
AcDbEllipse
 10
10.54254851906284
 20
10.56051834993552
 30
0.0
 11
0.0691538649119652
 21
-0.1235116538901485
 31
0.0
210
0.0
220
0.0
230
1.0
 40
0.2781050601322907
 41
4.046228148510593
 42
5.173398803864753
  0
LINE
  5
30B
330
6C
100
AcDbEntity
  8
Visible Narrow (ANSI)
100
AcDbLine
 10
10.54254851906284
 20
10.48834956628682
 30
0.0
 11
10.59137250517111
 21
10.48834956628682
 31
0.0
  0
LINE
  5
30C
330
6C
100
AcDbEntity
  8
Visible Narrow (ANSI)
100
AcDbLine
 10
10.59121807556685
 20
10.26279238580553
 30
0.0
 11
10.54239408945859
 21
10.26279238580553
 31
0.0
  0
ELLIPSE
  5
30D
330
6C
100
AcDbEntity
  8
Visible (ANSI)
100
AcDbEllipse
 10
10.54239408945859
 20
10.33496116945423
 30
0.0
 11
0.0691538649119663
 21
0.1235116538901491
 31
0.0
210
0.0
220
0.0
230
1.0
 40
0.2781050601322894
 41
3.128845542508436
 42
4.251379156904615
  0
ELLIPSE
  5
30E
330
6C
100
AcDbEntity
  8
Visible (ANSI)
100
AcDbEllipse
 10
10.59121807556683
 20
8.395781789750904
 30
0.0
 11
-0.0691538649119623
 21
-0.1235116538901511
 31
0.0
210
0.0
220
0.0
230
1.0
 40
0.2781050601322884
 41
0.1544698851890928
 42
1.109786503313588
  0
ELLIPSE
  5
30F
330
6C
100
AcDbEntity
  8
Visible (ANSI)
100
AcDbEllipse
 10
10.59137250517108
 20
8.621338970232191
 30
0.0
 11
-0.0691538649119614
 21
0.1235116538901505
 31
0.0
210
0.0
220
0.0
230
1.0
 40
0.2781050601322901
 41
0.8222993842811305
 42
2.031806150276208
  0
LINE
  5
310
330
6C
100
AcDbEntity
  8
Visible Narrow (ANSI)
100
AcDbLine
 10
10.52248686843235
 20
8.723401042848154
 30
0.0
 11
10.49289732016977
 21
8.723401042848157
 31
0.0
  0
LINE
  5
311
330
6C
100
AcDbEntity
  8
Visible (ANSI)
100
AcDbLine
 10
10.47280800142269
 20
8.682545509318165
 30
0.0
 11
10.47280800142269
 21
8.710475757111584
 31
0.0
  0
ELLIPSE
  5
312
330
6C
100
AcDbEntity
  8
Visible (ANSI)
100
AcDbEllipse
 10
10.54254851906281
 20
8.621338970232189
 30
0.0
 11
0.0691538649119652
 21
-0.1235116538901485
 31
0.0
210
0.0
220
0.0
230
1.0
 40
0.2781050601322907
 41
4.046228148510575
 42
5.173398803864753
  0
LINE
  5
313
330
6C
100
AcDbEntity
  8
Visible Narrow (ANSI)
100
AcDbLine
 10
10.54254851906281
 20
8.549170186583486
 30
0.0
 11
10.59137250517108
 21
8.549170186583488
 31
0.0
  0
LINE
  5
314
330
6C
100
AcDbEntity
  8
Visible Narrow (ANSI)
100
AcDbLine
 10
10.59121807556683
 20
8.323613006102201
 30
0.0
 11
10.54239408945856
 21
8.323613006102201
 31
0.0
  0
ELLIPSE
  5
315
330
6C
100
AcDbEntity
  8
Visible (ANSI)
100
AcDbEllipse
 10
10.54239408945856
 20
8.395781789750904
 30
0.0
 11
0.0691538649119663
 21
0.1235116538901491
 31
0.0
210
0.0
220
0.0
230
1.0
 40
0.2781050601322895
 41
3.1288455425084
 42
4.251379156904613
  0
LINE
  5
316
330
6C
100
AcDbEntity
  8
Visible (ANSI)
100
AcDbLine
 10
10.52817245363368
 20
12.20017158546555
 30
0.0
 11
10.47934846752542
 21
12.20017158546555
 31
0.0
  0
LINE
  5
317
330
6C
100
AcDbEntity
  8
Visible (ANSI)
100
AcDbLine
 10
10.52817245363366
 20
10.20996116945424
 30
0.0
 11
10.47934846752539
 21
10.20996116945424
 31
0.0
  0
LINE
  5
318
330
6C
100
AcDbEntity
  8
Visible (ANSI)
100
AcDbLine
 10
10.52817245363363
 20
8.270781789750904
 30
0.0
 11
10.47934846752536
 21
8.270781789750904
 31
0.0
  0
LINE
  5
319
330
6C
100
AcDbEntity
  8
Visible Narrow (ANSI)
100
AcDbLine
 10
10.61728358681897
 20
12.4443108665344
 30
0.0
 11
10.61728358681897
 21
12.54763111977826
 31
0.0
  0
LINE
  5
31A
330
6C
100
AcDbEntity
  8
Visible (ANSI)
100
AcDbLine
 10
10.49289732016971
 20
12.6527908385628
 30
0.0
 11
10.5726949340661
 21
12.69886201242657
 31
0.0
  0
ELLIPSE
  5
31B
330
6C
100
AcDbEntity
  8
Visible (ANSI)
100
AcDbEllipse
 10
10.62771644580827
 20
12.50041112506672
 30
0.0
 11
-0.1265556735075542
 21
-0.2786963454235208
 31
0.0
210
0.0
220
0.0
230
1.0
 40
0.5007957916305258
 41
6.114072401500138
 42
6.120433148912133
  0
LINE
  5
31C
330
6C
100
AcDbEntity
  8
Visible (ANSI)
100
AcDbLine
 10
10.47280800142275
 20
12.2215945288086
 30
0.0
 11
10.48021803296549
 21
12.23566724875075
 31
0.0
  0
LINE
  5
31D
330
6C
100
AcDbEntity
  8
Visible Narrow (ANSI)
100
AcDbLine
 10
10.58959227957909
 20
12.31538909271912
 30
0.0
 11
10.58959227957909
 21
12.41637781554109
 31
0.0
  0
LINE
  5
31E
330
6C
100
AcDbEntity
  8
Visible (ANSI)
100
AcDbLine
 10
10.64277250654484
 20
12.36588345413011
 30
0.0
 11
10.64277250654484
 21
12.49468942801007
 31
0.0
  0
SPLINE
  5
31F
330
6C
100
AcDbEntity
  8
Visible (ANSI)
100
AcDbSpline
210
0.0
220
0.0
230
1.0
 70
     8
 71
     3
 72
    10
 73
     6
 74
     0
 42
0.0000000001
 43
0.0000000001
 40
0.1707237485762887
 40
0.1707237485762887
 40
0.1707237485762887
 40
0.1707237485762887
 40
0.208889462289021
 40
0.208889462289021
 40
0.2545816252221424
 40
0.2545816252221424
 40
0.2545816252221424
 40
0.2545816252221424
 10
10.47947542039284
 20
12.23635764881511
 30
0.0
 10
10.47828185081873
 20
12.2374804188825
 30
0.0
 10
10.47745398792461
 20
12.23848400030151
 30
0.0
 10
10.4764155284209
 20
12.24045875504079
 30
0.0
 10
10.47635587094631
 20
12.24143812446165
 30
0.0
 10
10.47683343948982
 20
12.24233360546861
 30
0.0
  0
LINE
  5
320
330
6C
100
AcDbEntity
  8
Visible Narrow (ANSI)
100
AcDbLine
 10
10.47947542039284
 20
12.23635764881511
 30
0.0
 11
10.5805552706805
 21
12.42832288090471
 31
0.0
  0
SPLINE
  5
321
330
6C
100
AcDbEntity
  8
Visible (ANSI)
100
AcDbSpline
210
0.0
220
0.0
230
1.0
 70
     8
 71
     3
 72
    10
 73
     6
 74
     0
 42
0.0000000001
 43
0.0000000001
 40
0.1707172994891675
 40
0.1707172994891675
 40
0.1707172994891675
 40
0.1707172994891675
 40
0.2087090104156017
 40
0.2087090104156017
 40
0.2545750285863
 40
0.2545750285863
 40
0.2545750285863
 40
0.2545750285863
 10
10.47947542039282
 20
10.24614723280379
 30
0.0
 10
10.47828737014897
 20
10.24726481093352
 30
0.0
 10
10.47746170343847
 20
10.24826423551358
 30
0.0
 10
10.47641621294739
 20
10.25024069342392
 30
0.0
 10
10.47635422424621
 20
10.25122422228834
 30
0.0
 10
10.47683353720948
 20
10.25212316463037
 30
0.0
  0
LINE
  5
322
330
6C
100
AcDbEntity
  8
Visible Narrow (ANSI)
100
AcDbLine
 10
10.47947542039282
 20
10.24614723280379
 30
0.0
 11
10.58055527068049
 21
10.43811246489338
 31
0.0
  0
SPLINE
  5
323
330
6C
100
AcDbEntity
  8
Visible (ANSI)
100
AcDbSpline
210
0.0
220
0.0
230
1.0
 70
     8
 71
     3
 72
    10
 73
     6
 74
     0
 42
0.0000000001
 43
0.0000000001
 40
0.1707237485762864
 40
0.1707237485762864
 40
0.1707237485762864
 40
0.1707237485762864
 40
0.2088894622890228
 40
0.2088894622890228
 40
0.2545816252221415
 40
0.2545816252221415
 40
0.2545816252221415
 40
0.2545816252221415
 10
10.4794754203928
 20
8.306967853100443
 30
0.0
 10
10.4782818508187
 20
8.308090623167826
 30
0.0
 10
10.47745398792457
 20
8.309094204586834
 30
0.0
 10
10.47641552842086
 20
8.311068959326119
 30
0.0
 10
10.47635587094628
 20
8.312048328746977
 30
0.0
 10
10.47683343948978
 20
8.312943809753935
 30
0.0
  0
LINE
  5
324
330
6C
100
AcDbEntity
  8
Visible Narrow (ANSI)
100
AcDbLine
 10
10.4794754203928
 20
8.306967853100447
 30
0.0
 11
10.58055527068047
 21
8.498933085190037
 31
0.0
  0
LINE
  5
325
330
6C
100
AcDbEntity
  8
Visible (ANSI)
100
AcDbLine
 10
10.47680009441673
 20
12.24234012587114
 30
0.0
 11
10.57712046207528
 21
12.43286299077528
 31
0.0
  0
LINE
  5
326
330
6C
100
AcDbEntity
  8
Visible (ANSI)
100
AcDbLine
 10
10.47680009441671
 20
10.25212970985982
 30
0.0
 11
10.57712046207527
 21
10.44265257476395
 31
0.0
  0
LINE
  5
327
330
6C
100
AcDbEntity
  8
Visible (ANSI)
100
AcDbLine
 10
10.4768000944167
 20
8.31295033015647
 30
0.0
 11
10.57712046207525
 21
8.503473195060605
 31
0.0
  0
LINE
  5
328
330
6C
100
AcDbEntity
  8
Visible (ANSI)
100
AcDbLine
 10
10.47280800142275
 20
12.2215945288086
 30
0.0
 11
10.47280800142275
 21
12.2019151123804
 31
0.0
  0
LINE
  5
329
330
6C
100
AcDbEntity
  8
Visible (ANSI)
100
AcDbLine
 10
10.47280800142272
 20
10.23138411279725
 30
0.0
 11
10.47280800142272
 21
10.21170469636909
 31
0.0
  0
LINE
  5
32A
330
6C
100
AcDbEntity
  8
Visible (ANSI)
100
AcDbLine
 10
10.47280800142269
 20
8.292204733093887
 30
0.0
 11
10.47280800142269
 21
8.272525316665754
 31
0.0
  0
LINE
  5
32B
330
6C
100
AcDbEntity
  8
Visible (ANSI)
100
AcDbLine
 10
10.47280800142272
 20
10.23138411279725
 30
0.0
 11
10.48021803296547
 21
10.24545683273943
 31
0.0
  0
LINE
  5
32C
330
6C
100
AcDbEntity
  8
Visible (ANSI)
100
AcDbLine
 10
10.49289732016974
 20
10.66258042255149
 30
0.0
 11
10.57269493406608
 21
10.70865159641523
 31
0.0
  0
LINE
  5
32D
330
6C
100
AcDbEntity
  8
Visible Narrow (ANSI)
100
AcDbLine
 10
10.61728358681895
 20
10.45410045052309
 30
0.0
 11
10.61728358681895
 21
10.55742070376691
 31
0.0
  0
ELLIPSE
  5
32E
330
6C
100
AcDbEntity
  8
Visible (ANSI)
100
AcDbEllipse
 10
10.62771644580824
 20
10.5102007090554
 30
0.0
 11
-0.126555673507554
 21
-0.2786963454235209
 31
0.0
210
0.0
220
0.0
230
1.0
 40
0.5007957916305257
 41
6.114072401500239
 42
6.120433148912234
  0
LINE
  5
32F
330
6C
100
AcDbEntity
  8
Visible Narrow (ANSI)
100
AcDbLine
 10
10.58959227957906
 20
10.3251786767078
 30
0.0
 11
10.58959227957906
 21
10.42616739952978
 31
0.0
  0
LINE
  5
330
330
6C
100
AcDbEntity
  8
Visible (ANSI)
100
AcDbLine
 10
10.64277250654481
 20
10.37567303811879
 30
0.0
 11
10.64277250654481
 21
10.50447901199873
 31
0.0
  0
LINE
  5
331
330
6C
100
AcDbEntity
  8
Visible (ANSI)
100
AcDbLine
 10
10.47280800142269
 20
8.292204733093887
 30
0.0
 11
10.48021803296546
 21
8.306277453036084
 31
0.0
  0
LINE
  5
332
330
6C
100
AcDbEntity
  8
Visible (ANSI)
100
AcDbLine
 10
10.49289732016977
 20
8.723401042848157
 30
0.0
 11
10.57269493406605
 21
8.769472216711863
 31
0.0
  0
LINE
  5
333
330
6C
100
AcDbEntity
  8
Visible Narrow (ANSI)
100
AcDbLine
 10
10.61728358681892
 20
8.514921070819756
 30
0.0
 11
10.61728358681892
 21
8.618241324063552
 31
0.0
  0
ELLIPSE
  5
334
330
6C
100
AcDbEntity
  8
Visible (ANSI)
100
AcDbEllipse
 10
10.62771644580821
 20
8.57102132935207
 30
0.0
 11
-0.1265556735075541
 21
-0.2786963454235207
 31
0.0
210
0.0
220
0.0
230
1.0
 40
0.5007957916305261
 41
6.11407240150034
 42
6.120433148912325
  0
LINE
  5
335
330
6C
100
AcDbEntity
  8
Visible Narrow (ANSI)
100
AcDbLine
 10
10.58959227957903
 20
8.385999297004472
 30
0.0
 11
10.58959227957903
 21
8.486988019826444
 31
0.0
  0
LINE
  5
336
330
6C
100
AcDbEntity
  8
Visible (ANSI)
100
AcDbLine
 10
10.64277250654478
 20
8.436493658415461
 30
0.0
 11
10.64277250654478
 21
8.565299632295358
 31
0.0
  0
LINE
  5
337
330
6C
100
AcDbEntity
  8
Visible Narrow (ANSI)
100
AcDbLine
 10
11.0826620348886
 20
5.886333749900466
 30
0.0
 11
11.0826620348886
 21
13.29850378781536
 31
0.0
  0
SPLINE
  5
338
330
6C
100
AcDbEntity
  8
Visible (ANSI)
100
AcDbSpline
210
0.0
220
0.0
230
1.0
 70
     8
 71
     3
 72
    16
 73
    12
 74
     0
 42
0.0000000001
 43
0.0000000001
 40
0.0
 40
0.0
 40
0.0
 40
0.0
 40
0.0185321603158749
 40
0.0185321603158749
 40
0.0577484296659976
 40
0.0577484296659976
 40
0.103432145648132
 40
0.103432145648132
 40
0.1568266477256095
 40
0.1568266477256095
 40
0.2218351458400143
 40
0.2218351458400143
 40
0.2218351458400143
 40
0.2218351458400143
 10
11.0826620348886
 20
5.886333749900466
 30
0.0
 10
11.08427325295947
 20
5.886569829986033
 30
0.0
 10
11.08596847662578
 20
5.886594225414773
 30
0.0
 10
11.09144089679062
 20
5.886036729925364
 30
0.0
 10
11.09554183775055
 20
5.884747795775405
 30
0.0
 10
11.10474714530484
 20
5.87971520274325
 30
0.0
 10
11.10979197573714
 20
5.875661828955413
 30
0.0
 10
11.12009022726453
 20
5.863640342354211
 30
0.0
 10
11.12491926578274
 20
5.855489321523551
 30
0.0
 10
11.13345705806713
 20
5.83384019515842
 30
0.0
 10
11.13636618432045
 20
5.820464432633701
 30
0.0
 10
11.13781636382115
 20
5.80636168017111
 30
0.0
  0
SPLINE
  5
339
330
6C
100
AcDbEntity
  8
Visible (ANSI)
100
AcDbSpline
210
0.0
220
0.0
230
1.0
 70
     8
 71
     3
 72
    10
 73
     6
 74
     0
 42
0.0000000001
 43
0.0000000001
 40
0.0
 40
0.0
 40
0.0
 40
0.0
 40
0.0688948915785397
 40
0.0688948915785397
 40
0.137789783162893
 40
0.137789783162893
 40
0.137789783162893
 40
0.137789783162893
 10
11.13781636382115
 20
13.43217428885086
 30
0.0
 10
11.13554492085285
 20
13.42658514477571
 30
0.0
 10
11.13300151174957
 20
13.42085522124085
 30
0.0
 10
11.12748645583117
 20
13.40895674763468
 30
0.0
 10
11.12453588820938
 20
13.40283342374279
 30
0.0
 10
11.12145939457491
 20
13.39646643220772
 30
0.0
  0
SPLINE
  5
33A
330
6C
100
AcDbEntity
  8
Visible (ANSI)
100
AcDbSpline
210
0.0
220
0.0
230
1.0
 70
     8
 71
     3
 72
    14
 73
    10
 74
     0
 42
0.0000000001
 43
0.0000000001
 40
0.0
 40
0.0
 40
0.0
 40
0.0
 40
0.150932663783518
 40
0.150932663783518
 40
0.2670074686972701
 40
0.2670074686972701
 40
0.3276107566719596
 40
0.3276107566719596
 40
0.3729865585240346
 40
0.3729865585240346
 40
0.3729865585240346
 40
0.3729865585240346
 10
11.05013512295402
 20
13.3172832091767
 30
0.0
 10
11.06080462333314
 20
13.33392046311141
 30
0.0
 10
11.0729737652813
 20
13.34839614315742
 30
0.0
 10
11.09403580662882
 20
13.37236086136692
 30
0.0
 10
11.10295853571831
 20
13.38207624049004
 30
0.0
 10
11.11558217596441
 20
13.39670150687775
 30
0.0
 10
11.11968933283294
 20
13.40162692548552
 30
0.0
 10
11.12643646953048
 20
13.41023602933782
 30
0.0
 10
11.12886673783964
 20
13.41351390333107
 30
0.0
 10
11.13097059611688
 20
13.41648219332112
 30
0.0
  0
LINE
  5
33B
330
6C
100
AcDbEntity
  8
Visible (ANSI)
100
AcDbLine
 10
11.06835019363738
 20
13.30676673321435
 30
0.0
 11
11.05013512295402
 21
13.3172832091767
 31
0.0
  0
LINE
  5
33C
330
6C
100
AcDbEntity
  8
Visible (ANSI)
100
AcDbLine
 10
11.0826620348886
 20
13.29850378781536
 30
0.0
 11
11.06835019363738
 21
13.30676673321435
 31
0.0
  0
SPLINE
  5
33D
330
6C
100
AcDbEntity
  8
Visible (ANSI)
100
AcDbSpline
210
0.0
220
0.0
230
1.0
 70
     8
 71
     3
 72
    14
 73
    10
 74
     0
 42
0.0000000001
 43
0.0000000001
 40
0.0
 40
0.0
 40
0.0
 40
0.0
 40
0.09317344382685
 40
0.09317344382685
 40
0.2164992531505061
 40
0.2164992531505061
 40
0.2716974984222022
 40
0.2716974984222022
 40
0.3231571569313875
 40
0.3231571569313875
 40
0.3231571569313875
 40
0.3231571569313875
 10
11.12145939457491
 20
13.39646643220772
 30
0.0
 10
11.1188013961412
 20
13.38720428995154
 30
0.0
 10
11.11587239570436
 20
13.37858894426687
 30
0.0
 10
11.10784712790907
 20
13.3575706986224
 30
0.0
 10
11.10261711248837
 20
13.34568998098906
 30
0.0
 10
11.0945149657665
 20
13.32732879397601
 30
0.0
 10
11.09197070802093
 20
13.32155235686477
 30
0.0
 10
11.08712753594019
 20
13.31006018938045
 30
0.0
 10
11.08483245977235
 20
13.30439669447252
 30
0.0
 10
11.0826620348886
 20
13.29850378781536
 30
0.0
  0
LINE
  5
33E
330
6C
100
AcDbEntity
  8
Visible Narrow (ANSI)
100
AcDbLine
 10
11.13781636382115
 20
13.43217428885086
 30
0.0
 11
11.13781636382115
 21
5.806361680171109
 31
0.0
  0
LINE
  5
33F
330
6C
100
AcDbEntity
  8
Visible (ANSI)
100
AcDbLine
 10
9.791465969610083
 20
6.467781970951675
 30
0.0
 11
9.791465969610076
 21
5.879678273582225
 31
0.0
  0
ELLIPSE
  5
340
330
6C
100
AcDbEntity
  8
Visible (ANSI)
100
AcDbEllipse
 10
9.699542088055832
 20
5.932750551342524
 30
0.0
 11
0.0649999999999955
 21
-0.1125833024919693
 31
0.0
210
0.0
220
0.0
230
1.0
 40
0.5773502691896257
 41
6.200954815015606
 42
7.068583470577026
  0
ELLIPSE
  5
341
330
6C
100
AcDbEntity
  8
Visible (ANSI)
100
AcDbEllipse
 10
11.51150321484635
 20
4.886614307028882
 30
0.0
 11
0.0650000000000003
 21
-0.1125833024919776
 31
0.0
210
0.0
220
0.0
230
0.9999999999999998
 40
0.5773502691896258
 41
6.200954815015616
 42
7.068583470577049
  0
ELLIPSE
  5
342
330
6C
100
AcDbEntity
  8
Visible (ANSI)
100
AcDbEllipse
 10
11.34179758736157
 20
5.946018620782608
 30
0.0
 11
-0.064999999999995
 21
0.1125833024919685
 31
0.0
210
0.0
220
0.0
230
1.0
 40
0.5773502691896258
 41
5.497787143782137
 42
6.365415799343574
  0
LINE
  5
343
330
6C
100
AcDbEntity
  8
Visible (ANSI)
100
AcDbLine
 10
11.34179758736157
 20
6.052163176303206
 30
0.0
 11
11.51150321484635
 21
5.954183586591876
 31
0.0
  0
ELLIPSE
  5
344
330
6C
100
AcDbEntity
  8
Visible (ANSI)
100
AcDbEllipse
 10
11.51150321484635
 20
5.848039031071277
 30
0.0
 11
0.0649999999999933
 21
-0.1125833024919809
 31
0.0
210
0.0
220
0.0
230
1.0
 40
0.5773502691896258
 41
0.7853981633977023
 42
2.356194490192594
  0
LINE
  5
345
330
6C
100
AcDbEntity
  8
Visible (ANSI)
100
AcDbLine
 10
11.6034270964006
 20
5.794966753310975
 30
0.0
 11
11.60342709640061
 21
4.833542029268573
 31
0.0
  0
LINE
  5
346
330
6C
100
AcDbEntity
  8
Visible Narrow (ANSI)
100
AcDbLine
 10
9.441909631817711
 20
6.043935876580914
 30
0.0
 11
9.441909631817717
 21
6.579884256244287
 31
0.0
  0
ELLIPSE
  5
347
330
6C
100
AcDbEntity
  8
Visible Narrow (ANSI)
100
AcDbEllipse
 10
9.497309548636474
 20
6.011950719692517
 30
0.0
 11
-0.0391736568597061
 21
0.0678507639992893
 31
0.0
210
0.0
220
0.0
230
0.9999999999999998
 40
0.5773502691896258
 41
0.7853981633976917
 42
2.356194490192592
  0
LINE
  5
348
330
6C
100
AcDbEntity
  8
Visible Narrow (ANSI)
100
AcDbLine
 10
9.667015176121253
 20
5.850000816204415
 30
0.0
 11
9.497309548636474
 21
5.947980405915739
 31
0.0
  0
ELLIPSE
  5
349
330
6C
100
AcDbEntity
  8
Visible Narrow (ANSI)
100
AcDbEllipse
 10
9.667015176121253
 20
5.913971129981187
 30
0.0
 11
0.0391736568597055
 21
-0.0678507639992791
 31
0.0
210
0.0
220
0.0
230
0.9999999999999998
 40
0.5773502691896255
 41
5.497787143782137
 42
7.068583470577
  0
LINE
  5
34A
330
6C
100
AcDbEntity
  8
Visible Narrow (ANSI)
100
AcDbLine
 10
9.722415092939993
 20
6.427915428718428
 30
0.0
 11
9.722415092939996
 21
5.881985973092802
 31
0.0
  0
ELLIPSE
  5
34B
330
6C
100
AcDbEntity
  8
Visible Narrow (ANSI)
100
AcDbEllipse
 10
9.534079101258175
 20
5.96920931701986
 30
0.0
 11
-0.0260000000000016
 21
-0.0450333209968097
 31
0.0
210
0.0
220
0.0
230
1.0
 40
0.5773502691896255
 41
5.497787143781142
 42
6.283185307178501
  0
ELLIPSE
  5
34C
330
6C
100
AcDbEntity
  8
Visible Narrow (ANSI)
100
AcDbEllipse
 10
9.703784728742954
 20
5.871229727308536
 30
0.0
 11
-0.026
 21
-0.0450333209967908
 31
0.0
210
0.0
220
0.0
230
1.0
 40
0.5773502691896255
 41
5.497787143782155
 42
6.283185307179731
  0
ELLIPSE
  5
34D
330
6C
100
AcDbEntity
  8
Visible Narrow (ANSI)
100
AcDbEllipse
 10
9.47867918443941
 20
6.065164787685034
 30
0.0
 11
-0.0520000000000001
 21
0.0000000000000023
 31
0.0
210
0.0
220
0.0
230
1.0
 40
0.5773502691896347
 41
0.0
 42
0.7853981633974208
  0
ELLIPSE
  5
34E
330
6C
100
AcDbEntity
  8
Visible Narrow (ANSI)
100
AcDbEllipse
 10
9.759184645561695
 20
5.903214884196921
 30
0.0
 11
0.052
 21
0.0000000000000023
 31
0.0
210
0.0
220
0.0
230
1.0
 40
0.5773502691895886
 41
3.926990816987
 42
5.382144951265624
  0
ELLIPSE
  5
34F
330
6C
100
AcDbEntity
  8
Visible Narrow (ANSI)
100
AcDbEllipse
 10
11.27557552587256
 20
4.685956251591141
 30
0.0
 11
0.026
 21
0.0450333209967908
 31
0.0
210
0.0
220
0.0
230
1.0
 40
0.5773502691896257
 41
0.1156421925162778
 42
1.570796326794916
  0
ELLIPSE
  5
350
330
6C
100
AcDbEntity
  8
Visible (ANSI)
100
AcDbEllipse
 10
11.23340186901286
 20
4.619837538399428
 30
0.0
 11
0.0649999999999973
 21
0.1125833024919726
 31
0.0
210
0.0
220
0.0
230
1.0
 40
0.8164965809277259
 41
0.0
 42
0.165023694321536
  0
LINE
  5
351
330
6C
100
AcDbEntity
  8
Visible Narrow (ANSI)
100
AcDbLine
 10
11.15500195219411
 20
4.665101751479182
 30
0.0
 11
11.13596863119731
 21
4.676090644480256
 31
0.0
  0
ELLIPSE
  5
352
330
6C
100
AcDbEntity
  8
Visible Narrow (ANSI)
100
AcDbEllipse
 10
11.21040186901286
 20
4.633116594590793
 30
0.0
 11
0.0391736568597068
 21
0.0678507639992781
 31
0.0
210
0.0
220
0.0
230
1.0
 40
0.8164965809277255
 41
0.0
 42
1.570796326794879
  0
ELLIPSE
  5
353
330
6C
100
AcDbEntity
  8
Visible Narrow (ANSI)
100
AcDbEllipse
 10
11.44528115335734
 20
4.587976661879819
 30
0.0
 11
0.026
 21
0.0450333209967908
 31
0.0
210
0.0
220
0.0
230
1.0
 40
0.5773502691896259
 41
0.1156421925163151
 42
1.570796326794903
  0
LINE
  5
354
330
6C
100
AcDbEntity
  8
Visible (ANSI)
100
AcDbLine
 10
11.29840186901286
 20
4.73242084089141
 30
0.0
 11
11.46810749649763
 21
4.634441251180079
 31
0.0
  0
LINE
  5
355
330
6C
100
AcDbEntity
  8
Visible Narrow (ANSI)
100
AcDbLine
 10
11.24957552587256
 20
4.700967358590072
 30
0.0
 11
11.41928115335734
 21
4.602987768878749
 31
0.0
  0
LINE
  5
356
330
6C
100
AcDbEntity
  8
Visible Narrow (ANSI)
100
AcDbLine
 10
10.8162519521941
 20
4.078369540415232
 30
0.0
 11
10.79721863119731
 21
4.089358433416303
 31
0.0
  0
LINE
  5
357
330
6C
100
AcDbEntity
  8
Visible Narrow (ANSI)
100
AcDbLine
 10
10.8162519521941
 20
4.078369540415232
 30
0.0
 11
11.15500195219411
 21
4.66510175147918
 31
0.0
  0
LINE
  5
358
330
6C
100
AcDbEntity
  8
Visible Narrow (ANSI)
100
AcDbLine
 10
11.49503137805189
 20
4.468785670927791
 30
0.0
 11
11.43550741331639
 21
4.503151847991068
 31
0.0
  0
ELLIPSE
  5
359
330
6C
100
AcDbEntity
  8
Visible (ANSI)
100
AcDbEllipse
 10
11.40310749649764
 20
4.521857948688096
 30
0.0
 11
0.0649999999999857
 21
0.1125833024919748
 31
0.0
210
0.0
220
0.0
230
1.0
 40
0.8164965809277259
 41
4.71238898038452
 42
6.283185307179487
  0
ELLIPSE
  5
35A
330
6C
100
AcDbEntity
  8
Visible Narrow (ANSI)
100
AcDbEllipse
 10
11.38010749649764
 20
4.535137004879457
 30
0.0
 11
0.0391736568596959
 21
0.0678507639992848
 31
0.0
210
0.0
220
0.0
230
1.0
 40
0.816496580927726
 41
4.712388980384435
 42
6.283185307179425
  0
ELLIPSE
  5
35B
330
6C
100
AcDbEntity
  8
Visible Narrow (ANSI)
100
AcDbEllipse
 10
10.85847821215315
 20
3.963522512528629
 30
0.0
 11
-0.026000000000002
 21
-0.0450333209968
 31
0.0
210
0.0
220
0.0
230
1.0
 40
0.5773502691896287
 41
4.712388980384684
 42
6.167543114663271
  0
ELLIPSE
  5
35C
330
6C
100
AcDbEntity
  8
Visible Narrow (ANSI)
100
AcDbEllipse
 10
10.87165186901285
 20
4.046384383526841
 30
0.0
 11
-0.0391736568597028
 21
-0.0678507639992807
 31
0.0
210
0.0
220
0.0
230
1.0
 40
0.8164965809277257
 41
4.712388980384623
 42
6.283185307179548
  0
ELLIPSE
  5
35D
330
6C
100
AcDbEntity
  8
Visible (ANSI)
100
AcDbEllipse
 10
10.89465186901284
 20
4.033105327335469
 30
0.0
 11
-0.0649999999999842
 21
-0.1125833024919611
 31
0.0
210
0.0
220
0.0
230
1.0
 40
0.8164965809277259
 41
6.118161612857935
 42
6.28318530717953
  0
LINE
  5
35E
330
6C
100
AcDbEntity
  8
Visible Narrow (ANSI)
100
AcDbLine
 10
11.15628137805188
 20
3.882053459863841
 30
0.0
 11
11.09675741331638
 21
3.916419636927116
 31
0.0
  0
LINE
  5
35F
330
6C
100
AcDbEntity
  8
Visible (ANSI)
100
AcDbLine
 10
11.49503137805189
 20
4.468785670927789
 30
0.0
 11
11.15628137805188
 21
3.882053459863842
 31
0.0
  0
LINE
  5
360
330
6C
100
AcDbEntity
  8
Visible Narrow (ANSI)
100
AcDbLine
 10
11.43550741331639
 20
4.503151847991068
 30
0.0
 11
11.09675741331638
 21
3.916419636927116
 31
0.0
  0
ELLIPSE
  5
361
330
6C
100
AcDbEntity
  8
Visible Narrow (ANSI)
100
AcDbEllipse
 10
11.02818383963792
 20
3.865542922817287
 30
0.0
 11
-0.0260000000000005
 21
-0.0450333209967905
 31
0.0
210
0.0
220
0.0
230
1.0
 40
0.5773502691896337
 41
4.712388980384702
 42
6.167543114663307
  0
LINE
  5
362
330
6C
100
AcDbEntity
  8
Visible Narrow (ANSI)
100
AcDbLine
 10
11.00218383963793
 20
3.880554029816218
 30
0.0
 11
10.83247821215315
 21
3.978533619527559
 31
0.0
  0
LINE
  5
363
330
6C
100
AcDbEntity
  8
Visible (ANSI)
100
AcDbLine
 10
10.99935749649763
 20
3.822542435132168
 30
0.0
 11
10.82965186901285
 21
3.9205220248435
 31
0.0
  0
ELLIPSE
  5
364
330
6C
100
AcDbEntity
  8
Visible (ANSI)
100
AcDbEllipse
 10
11.06435749649763
 20
3.935125737624146
 30
0.0
 11
-0.0649999999999972
 21
-0.1125833024919677
 31
0.0
210
0.0
220
0.0
230
0.9999999999999998
 40
0.816496580927726
 41
0.0
 42
1.570796326794885
  0
ELLIPSE
  5
365
330
6C
100
AcDbEntity
  8
Visible Narrow (ANSI)
100
AcDbEllipse
 10
11.04135749649763
 20
3.948404793815507
 30
0.0
 11
-0.0391736568597086
 21
-0.0678507639992777
 31
0.0
210
0.0
220
0.0
230
1.0
 40
0.8164965809277257
 41
0.0
 42
1.570796326794849
  0
ELLIPSE
  5
366
330
6C
100
AcDbEntity
  8
Visible Narrow (ANSI)
100
AcDbEllipse
 10
9.463614399082034
 20
5.732092495904793
 30
0.0
 11
0.0260000000000038
 21
0.0450333209967886
 31
0.0
210
0.0
220
0.0
230
1.0
 40
0.5773502691896284
 41
0.1156421925162121
 42
1.570796326795013
  0
ELLIPSE
  5
367
330
6C
100
AcDbEntity
  8
Visible (ANSI)
100
AcDbEllipse
 10
9.421440742222321
 20
5.665973782713084
 30
0.0
 11
0.0649999999999913
 21
0.112583302491974
 31
0.0
210
0.0
220
0.0
230
1.0
 40
0.8164965809277273
 41
0.0
 42
0.1650236943215022
  0
LINE
  5
368
330
6C
100
AcDbEntity
  8
Visible Narrow (ANSI)
100
AcDbLine
 10
9.343040825403571
 20
5.711237995792833
 30
0.0
 11
9.324007504406775
 21
5.722226888793903
 31
0.0
  0
ELLIPSE
  5
369
330
6C
100
AcDbEntity
  8
Visible Narrow (ANSI)
100
AcDbEllipse
 10
9.398440742222323
 20
5.679252838904448
 30
0.0
 11
0.0391736568597028
 21
0.0678507639992806
 31
0.0
210
0.0
220
0.0
230
1.0
 40
0.816496580927726
 41
0.0
 42
1.570796326794917
  0
ELLIPSE
  5
36A
330
6C
100
AcDbEntity
  8
Visible Narrow (ANSI)
100
AcDbEllipse
 10
9.633320026566819
 20
5.634112906193468
 30
0.0
 11
0.026
 21
0.0450333209967908
 31
0.0
210
0.0
220
0.0
230
1.0
 40
0.5773502691896259
 41
0.1156421925163151
 42
1.570796326794903
  0
LINE
  5
36B
330
6C
100
AcDbEntity
  8
Visible (ANSI)
100
AcDbLine
 10
9.486440742222331
 20
5.778557085205059
 30
0.0
 11
9.656146369707109
 21
5.680577495493728
 31
0.0
  0
LINE
  5
36C
330
6C
100
AcDbEntity
  8
Visible Narrow (ANSI)
100
AcDbLine
 10
9.437614399082033
 20
5.747103602903724
 30
0.0
 11
9.607320026566819
 21
5.649124013192398
 31
0.0
  0
LINE
  5
36D
330
6C
100
AcDbEntity
  8
Visible Narrow (ANSI)
100
AcDbLine
 10
9.004290825403581
 20
5.124505784728872
 30
0.0
 11
8.98525750440679
 21
5.135494677729941
 31
0.0
  0
LINE
  5
36E
330
6C
100
AcDbEntity
  8
Visible Narrow (ANSI)
100
AcDbLine
 10
9.004290825403582
 20
5.124505784728872
 30
0.0
 11
9.343040825403575
 21
5.71123799579283
 31
0.0
  0
LINE
  5
36F
330
6C
100
AcDbEntity
  8
Visible Narrow (ANSI)
100
AcDbLine
 10
9.683070251261355
 20
5.514921915241455
 30
0.0
 11
9.623546286525854
 21
5.549288092304728
 31
0.0
  0
ELLIPSE
  5
370
330
6C
100
AcDbEntity
  8
Visible (ANSI)
100
AcDbEllipse
 10
9.591146369707109
 20
5.567994193001751
 30
0.0
 11
0.0649999999999953
 21
0.112583302491969
 31
0.0
210
0.0
220
0.0
230
0.9999999999999998
 40
0.8164965809277259
 41
4.712388980384716
 42
6.283185307179585
  0
ELLIPSE
  5
371
330
6C
100
AcDbEntity
  8
Visible Narrow (ANSI)
100
AcDbEllipse
 10
9.568146369707109
 20
5.581273249193111
 30
0.0
 11
0.0391736568597053
 21
0.067850763999279
 31
0.0
210
0.0
220
0.0
230
1.0
 40
0.8164965809277257
 41
4.712388980384718
 42
6.283185307179588
  0
ELLIPSE
  5
372
330
6C
100
AcDbEntity
  8
Visible Narrow (ANSI)
100
AcDbEllipse
 10
9.046517085362628
 20
5.009658756842275
 30
0.0
 11
-0.026000000000006
 21
-0.0450333209967977
 31
0.0
210
0.0
220
0.0
230
1.0
 40
0.5773502691896201
 41
4.712388980384709
 42
6.167543114663319
  0
ELLIPSE
  5
373
330
6C
100
AcDbEntity
  8
Visible Narrow (ANSI)
100
AcDbEllipse
 10
9.059690742222334
 20
5.092520627840483
 30
0.0
 11
-0.0391736568597072
 21
-0.067850763999278
 31
0.0
210
0.0
220
0.0
230
0.9999999999999998
 40
0.8164965809277259
 41
4.712388980384757
 42
6.283185307179596
  0
ELLIPSE
  5
374
330
6C
100
AcDbEntity
  8
Visible (ANSI)
100
AcDbEllipse
 10
9.082690742222327
 20
5.079241571649112
 30
0.0
 11
-0.0649999999999909
 21
-0.112583302491957
 31
0.0
210
0.0
220
0.0
230
1.0
 40
0.8164965809277259
 41
6.118161612858078
 42
6.283185307179596
  0
LINE
  5
375
330
6C
100
AcDbEntity
  8
Visible Narrow (ANSI)
100
AcDbLine
 10
9.344320251261368
 20
4.928189704177491
 30
0.0
 11
9.284796286525869
 21
4.962555881240764
 31
0.0
  0
LINE
  5
376
330
6C
100
AcDbEntity
  8
Visible (ANSI)
100
AcDbLine
 10
9.683070251261362
 20
5.514921915241451
 30
0.0
 11
9.34432025126137
 21
4.928189704177491
 31
0.0
  0
LINE
  5
377
330
6C
100
AcDbEntity
  8
Visible Narrow (ANSI)
100
AcDbLine
 10
9.623546286525854
 20
5.549288092304728
 30
0.0
 11
9.284796286525869
 21
4.962555881240764
 31
0.0
  0
ELLIPSE
  5
378
330
6C
100
AcDbEntity
  8
Visible Narrow (ANSI)
100
AcDbEllipse
 10
9.216222712847402
 20
4.911679167130936
 30
0.0
 11
-0.0259999999999995
 21
-0.0450333209967911
 31
0.0
210
0.0
220
0.0
230
1.0
 40
0.5773502691896175
 41
4.712388980384679
 42
6.167543114663265
  0
LINE
  5
379
330
6C
100
AcDbEntity
  8
Visible Narrow (ANSI)
100
AcDbLine
 10
9.190222712847402
 20
4.926690274129866
 30
0.0
 11
9.020517085362628
 21
5.024669863841205
 31
0.0
  0
LINE
  5
37A
330
6C
100
AcDbEntity
  8
Visible (ANSI)
100
AcDbLine
 10
9.18739636970711
 20
4.868678679445815
 30
0.0
 11
9.017690742222331
 21
4.966658269157147
 31
0.0
  0
ELLIPSE
  5
37B
330
6C
100
AcDbEntity
  8
Visible (ANSI)
100
AcDbEllipse
 10
9.252396369707115
 20
4.98126198193779
 30
0.0
 11
-0.0649999999999924
 21
-0.1125833024919708
 31
0.0
210
0.0
220
0.0
230
1.0
 40
0.816496580927726
 41
0.0
 42
1.570796326794916
  0
ELLIPSE
  5
37C
330
6C
100
AcDbEntity
  8
Visible Narrow (ANSI)
100
AcDbEllipse
 10
9.229396369707117
 20
4.994541038129151
 30
0.0
 11
-0.039173656859705
 21
-0.0678507639992795
 31
0.0
210
0.0
220
0.0
230
0.9999999999999998
 40
0.816496580927726
 41
0.0
 42
1.570796326794895
  0
ELLIPSE
  5
37D
330
6C
100
AcDbEntity
  8
Visible Narrow (ANSI)
100
AcDbEllipse
 10
11.34604022804869
 20
6.012438424302162
 30
0.0
 11
0.0260000000000027
 21
0.0450333209967893
 31
0.0
210
0.0
220
0.0
230
1.0
 40
0.5773502691896255
 41
0.9010403559139801
 42
2.356194490192583
  0
ELLIPSE
  5
37E
330
6C
100
AcDbEntity
  8
Visible Narrow (ANSI)
100
AcDbEllipse
 10
11.29064031122995
 20
5.980453267413776
 30
0.0
 11
-0.0520000000000123
 21
0.0000000000000046
 31
0.0
210
0.0
220
0.0
230
1.0
 40
0.5773502691896195
 41
0.0000000000006132
 42
0.7853981633980191
  0
ELLIPSE
  5
37F
330
6C
100
AcDbEntity
  8
Visible Narrow (ANSI)
100
AcDbEllipse
 10
11.30927067542699
 20
5.92723919942127
 30
0.0
 11
-0.0391736568597054
 21
0.0678507639992789
 31
0.0
210
0.0
220
0.0
230
0.9999999999999998
 40
0.5773502691896257
 41
5.497787143782138
 42
7.068583470577066
  0
ELLIPSE
  5
380
330
6C
100
AcDbEntity
  8
Visible Narrow (ANSI)
100
AcDbEllipse
 10
11.51574585553347
 20
5.914458834590834
 30
0.0
 11
0.0260000000000027
 21
0.0450333209967893
 31
0.0
210
0.0
220
0.0
230
1.0
 40
0.5773502691896365
 41
0.9010403559139721
 42
2.356194490192576
  0
LINE
  5
381
330
6C
100
AcDbEntity
  8
Visible Narrow (ANSI)
100
AcDbLine
 10
11.30927067542699
 20
5.991209513198041
 30
0.0
 11
11.47897630291177
 21
5.893229923486713
 31
0.0
  0
ELLIPSE
  5
382
330
6C
100
AcDbEntity
  8
Visible Narrow (ANSI)
100
AcDbEllipse
 10
11.29064031122995
 20
5.019028543371377
 30
0.0
 11
-0.0520000000000012
 21
0.0000000000000015
 31
0.0
210
0.0
220
0.0
230
0.9999999999999998
 40
0.5773502691896139
 41
0.0
 42
0.7853981633973151
  0
LINE
  5
383
330
6C
100
AcDbEntity
  8
Visible Narrow (ANSI)
100
AcDbLine
 10
11.25387075860825
 20
4.997799632267258
 30
0.0
 11
11.25387075860825
 21
5.959224356309655
 31
0.0
  0
ELLIPSE
  5
384
330
6C
100
AcDbEntity
  8
Visible Narrow (ANSI)
100
AcDbEllipse
 10
11.57114577235222
 20
5.818503363925673
 30
0.0
 11
0.0520000000000001
 21
0.0000000000000039
 31
0.0
210
0.0
220
0.0
230
1.0
 40
0.57735026918962
 41
3.926990816986986
 42
5.382144951265591
  0
ELLIPSE
  5
385
330
6C
100
AcDbEntity
  8
Visible Narrow (ANSI)
100
AcDbEllipse
 10
11.47897630291177
 20
5.829259609709939
 30
0.0
 11
0.039173656859706
 21
-0.0678507639992893
 31
0.0
210
0.0
220
0.0
230
0.9999999999999998
 40
0.5773502691896255
 41
0.7853981633977157
 42
2.356194490192592
  0
ELLIPSE
  5
386
330
6C
100
AcDbEntity
  8
Visible Narrow (ANSI)
100
AcDbEllipse
 10
11.34604022804869
 20
4.923073072706224
 30
0.0
 11
-0.0260000000000023
 21
-0.0450333209967991
 31
0.0
210
0.0
220
0.0
230
1.0
 40
0.5773502691896257
 41
5.497787143781874
 42
6.28318530717934
  0
ELLIPSE
  5
387
330
6C
100
AcDbEntity
  8
Visible Narrow (ANSI)
100
AcDbEllipse
 10
11.30927067542699
 20
4.965814475378874
 30
0.0
 11
-0.0391736568597014
 21
0.0678507639992814
 31
0.0
210
0.0
220
0.0
230
0.9999999999999998
 40
0.5773502691896258
 41
0.7853981633977165
 42
2.356194490192592
  0
ELLIPSE
  5
388
330
6C
100
AcDbEntity
  8
Visible Narrow (ANSI)
100
AcDbEllipse
 10
11.57114577235223
 20
4.857078639883267
 30
0.0
 11
0.052
 21
0.0000000000000035
 31
0.0
210
0.0
220
0.0
230
1.0
 40
0.5773502691895742
 41
3.926990816987
 42
5.382144951265603
  0
LINE
  5
389
330
6C
100
AcDbEntity
  8
Visible Narrow (ANSI)
100
AcDbLine
 10
11.53437621973052
 20
5.797274452821552
 30
0.0
 11
11.53437621973053
 21
4.835849728779149
 31
0.0
  0
ELLIPSE
  5
38A
330
6C
100
AcDbEntity
  8
Visible Narrow (ANSI)
100
AcDbEllipse
 10
11.51574585553347
 20
4.825093482994869
 30
0.0
 11
-0.0260000000000042
 21
-0.0450333209967885
 31
0.0
210
0.0
220
0.0
230
1.0
 40
0.5773502691895965
 41
5.497787143782094
 42
6.283185307179476
  0
LINE
  5
38B
330
6C
100
AcDbEntity
  8
Visible Narrow (ANSI)
100
AcDbLine
 10
11.47897630291177
 20
4.803864571890749
 30
0.0
 11
11.30927067542699
 21
4.901844161602103
 31
0.0
  0
ELLIPSE
  5
38C
330
6C
100
AcDbEntity
  8
Visible Narrow (ANSI)
100
AcDbEllipse
 10
11.47897630291177
 20
4.867834885667543
 30
0.0
 11
0.0391736568597102
 21
-0.0678507639992872
 31
0.0
210
0.0
220
0.0
230
1.0
 40
0.5773502691896257
 41
5.497787143782188
 42
7.068583470577018
  0
LINE
  5
38D
330
6C
100
AcDbEntity
  8
Visible (ANSI)
100
AcDbLine
 10
9.677784728742954
 20
5.826196406311739
 30
0.0
 11
9.508079101258175
 21
5.924175996023054
 31
0.0
  0
SPLINE
  5
38E
330
6C
100
AcDbEntity
  8
Visible (ANSI)
100
AcDbSpline
210
0.0
220
0.0
230
1.0
 70
     8
 71
     3
 72
    16
 73
    12
 74
     0
 42
0.0000000001
 43
0.0000000001
 40
3.141592653589771
 40
3.141592653589771
 40
3.141592653589771
 40
3.141592653589771
 40
3.455751918948755
 40
3.455751918948755
 40
3.769911184307739
 40
3.769911184307739
 40
4.084070449666723
 40
4.084070449666723
 40
4.398229715025706
 40
4.398229715025706
 40
4.712388980384689
 40
4.712388980384689
 40
4.712388980384689
 40
4.712388980384689
 10
9.426679184439423
 20
6.06516478768503
 30
0.0
 10
9.426679184439423
 20
6.053749953744389
 30
0.0
 10
9.428200028528229
 20
6.04254599058393
 30
0.0
 10
9.433500508245257
 20
6.020648897334843
 30
0.0
 10
9.437296412294127
 20
6.009954506656415
 30
0.0
 10
9.446795122887985
 20
5.989374037829267
 30
0.0
 10
9.452500355735494
 20
5.97949228466837
 30
0.0
 10
9.465574209264669
 20
5.960975925577317
 30
0.0
 10
9.472937871245749
 20
5.952341380901454
 30
0.0
 10
9.489251070409981
 20
5.93680248418972
 30
0.0
 10
9.4981935650856
 20
5.929883412993389
 30
0.0
 10
9.508079101258175
 20
5.924175996023069
 30
0.0
  0
SPLINE
  5
38F
330
6C
100
AcDbEntity
  8
Visible (ANSI)
100
AcDbSpline
210
0.0
220
0.0
230
1.0
 70
     8
 71
     3
 72
    16
 73
    12
 74
     0
 42
0.0000000001
 43
0.0000000001
 40
4.712388980384689
 40
4.712388980384689
 40
4.712388980384689
 40
4.712388980384689
 40
4.853022514631383
 40
4.853022514631383
 40
4.993656048878076
 40
4.993656048878076
 40
5.134289583124769
 40
5.134289583124769
 40
5.274923117371463
 40
5.274923117371463
 40
5.415556651618156
 40
5.415556651618156
 40
5.415556651618156
 40
5.415556651618156
 10
9.677784728742953
 20
5.826196406311746
 30
0.0
 10
9.682209993387891
 20
5.823641478577755
 30
0.0
 10
9.686827905687175
 20
5.821332202676651
 30
0.0
 10
9.69650056868282
 20
5.817328865977257
 30
0.0
 10
9.701557099886553
 20
5.815633906879621
 30
0.0
 10
9.712140753778164
 20
5.813054390036063
 30
0.0
 10
9.717671515008326
 20
5.812170430457406
 30
0.0
 10
9.729138568453928
 20
5.81149320720433
 30
0.0
 10
9.735078479613274
 20
5.811704776916457
 30
0.0
 10
9.747078969519156
 20
5.813512909188939
 30
0.0
 10
9.753136541991242
 20
5.815117611536347
 30
0.0
 10
9.758983491247908
 20
5.817465220130996
 30
0.0
  0
LINE
  5
390
330
6C
100
AcDbEntity
  8
Visible (ANSI)
100
AcDbLine
 10
9.426679184439411
 20
6.065164787685037
 30
0.0
 11
9.426679184439418
 21
6.596207229351295
 31
0.0
  0
SPLINE
  5
391
330
6C
100
AcDbEntity
  8
Visible (ANSI)
100
AcDbSpline
210
0.0
220
0.0
230
1.0
 70
     8
 71
     3
 72
    18
 73
    14
 74
     0
 42
0.0000000001
 43
0.0000000001
 40
1.735820021116436
 40
1.735820021116436
 40
1.735820021116436
 40
1.735820021116436
 40
2.016261816901425
 40
2.016261816901425
 40
2.297416343396091
 40
2.297416343396091
 40
2.578570869890757
 40
2.578570869890757
 40
2.859725396385423
 40
2.859725396385423
 40
3.140879922880089
 40
3.140879922880089
 40
3.141592653589766
 40
3.141592653589766
 40
3.141592653589766
 40
3.141592653589766
 10
11.28241794881536
 20
4.739609822057991
 30
0.0
 10
11.27113634053961
 20
4.743378399060777
 30
0.0
 10
11.25929193396623
 20
4.745180627082559
 30
0.0
 10
11.23586426635254
 20
4.745050418999091
 30
0.0
 10
11.22428553123838
 20
4.743129132586862
 30
0.0
 10
11.20231613200319
 20
4.736231949854851
 30
0.0
 10
11.19191602622645
 20
4.731264422607297
 30
0.0
 10
11.17276788794426
 20
4.718954597867527
 30
0.0
 10
11.16401361034673
 20
4.711611931643143
 30
0.0
 10
11.14846991166369
 20
4.695118883560391
 30
0.0
 10
11.14167822703062
 20
4.685966727371708
 30
0.0
 10
11.1359973389396
 20
4.676140351046417
 30
0.0
 10
11.13598298145237
 20
4.676115499851088
 30
0.0
 10
11.13596863119732
 20
4.676090644480251
 30
0.0
  0
LINE
  5
392
330
6C
100
AcDbEntity
  8
Visible (ANSI)
100
AcDbLine
 10
10.79721863119731
 20
4.089358433416303
 30
0.0
 11
11.13596863119732
 21
4.676090644480255
 31
0.0
  0
SPLINE
  5
393
330
6C
100
AcDbEntity
  8
Visible (ANSI)
100
AcDbSpline
210
0.0
220
0.0
230
1.0
 70
     8
 71
     3
 72
    16
 73
    12
 74
     0
 42
0.0000000001
 43
0.0000000001
 40
3.141592653589754
 40
3.141592653589754
 40
3.141592653589754
 40
3.141592653589754
 40
3.422747180084433
 40
3.422747180084433
 40
3.703901706579113
 40
3.703901706579113
 40
3.985056233073793
 40
3.985056233073793
 40
4.266210759568473
 40
4.266210759568473
 40
4.547365286063152
 40
4.547365286063152
 40
4.547365286063152
 40
4.547365286063152
 10
10.79721863119732
 20
4.0893584334163
 30
0.0
 10
10.79155781273234
 20
4.079553608222535
 30
0.0
 10
10.78702158317005
 20
4.069098419999487
 30
0.0
 10
10.78049710332207
 20
4.047394666072309
 30
0.0
 10
10.77850844528681
 20
4.036143258607377
 30
0.0
 10
10.77740729575866
 20
4.013406702692989
 30
0.0
 10
10.77829759219271
 20
4.001915967529467
 30
0.0
 10
10.78329288732968
 20
3.979438633248287
 30
0.0
 10
10.78740982710001
 20
3.968448021182928
 30
0.0
 10
10.7990087562269
 20
3.948059885881915
 30
0.0
 10
10.80650695066763
 20
3.938675927664403
 30
0.0
 10
10.81543406859651
 20
3.930770015203308
 30
0.0
  0
SPLINE
  5
394
330
6C
100
AcDbEntity
  8
Visible (ANSI)
100
AcDbSpline
210
0.0
220
0.0
230
1.0
 70
     8
 71
     3
 72
    18
 73
    14
 74
     0
 42
0.0000000001
 43
0.0000000001
 40
1.735820021116436
 40
1.735820021116436
 40
1.735820021116436
 40
1.735820021116436
 40
2.016261816901425
 40
2.016261816901425
 40
2.297416343396106
 40
2.297416343396106
 40
2.578570869890787
 40
2.578570869890787
 40
2.859725396385468
 40
2.859725396385468
 40
3.140879922880149
 40
3.140879922880149
 40
3.141592653589841
 40
3.141592653589841
 40
3.141592653589841
 40
3.141592653589841
 10
9.470456822024821
 20
5.785746066371647
 30
0.0
 10
9.459175213749073
 20
5.789514643374432
 30
0.0
 10
9.447330807175692
 20
5.791316871396213
 30
0.0
 10
9.423903139562009
 20
5.791186663312745
 30
0.0
 10
9.412324404447838
 20
5.789265376900517
 30
0.0
 10
9.390355005212651
 20
5.782368194168506
 30
0.0
 10
9.379954899435915
 20
5.77740066692095
 30
0.0
 10
9.360806761153725
 20
5.765090842181179
 30
0.0
 10
9.352052483556192
 20
5.757748175956795
 30
0.0
 10
9.336508784873155
 20
5.741255127874042
 30
0.0
 10
9.329717100240081
 20
5.732102971685358
 30
0.0
 10
9.324036212149065
 20
5.722276595360065
 30
0.0
 10
9.324021854661827
 20
5.722251744164736
 30
0.0
 10
9.324007504406784
 20
5.722226888793898
 30
0.0
  0
LINE
  5
395
330
6C
100
AcDbEntity
  8
Visible (ANSI)
100
AcDbLine
 10
8.98525750440679
 20
5.135494677729941
 30
0.0
 11
9.324007504406777
 21
5.722226888793902
 31
0.0
  0
SPLINE
  5
396
330
6C
100
AcDbEntity
  8
Visible (ANSI)
100
AcDbSpline
210
0.0
220
0.0
230
1.0
 70
     8
 71
     3
 72
    16
 73
    12
 74
     0
 42
0.0000000001
 43
0.0000000001
 40
3.141592653589809
 40
3.141592653589809
 40
3.141592653589809
 40
3.141592653589809
 40
3.422747180084477
 40
3.422747180084477
 40
3.703901706579146
 40
3.703901706579146
 40
3.985056233073814
 40
3.985056233073814
 40
4.266210759568483
 40
4.266210759568483
 40
4.547365286063152
 40
4.547365286063152
 40
4.547365286063152
 40
4.547365286063152
 10
8.985257504406797
 20
5.135494677729937
 30
0.0
 10
8.979596685941821
 20
5.125689852536172
 30
0.0
 10
8.975060456379532
 20
5.115234664313125
 30
0.0
 10
8.968535976531551
 20
5.093530910385947
 30
0.0
 10
8.966547318496292
 20
5.082279502921015
 30
0.0
 10
8.965446168968144
 20
5.059542947006628
 30
0.0
 10
8.966336465402191
 20
5.048052211843106
 30
0.0
 10
8.971331760539163
 20
5.025574877561928
 30
0.0
 10
8.975448700309492
 20
5.014584265496569
 30
0.0
 10
8.987047629436386
 20
4.994196130195558
 30
0.0
 10
8.994545823877112
 20
4.984812171978046
 30
0.0
 10
9.003472941805997
 20
4.976906259516951
 30
0.0
  0
SPLINE
  5
397
330
6C
100
AcDbEntity
  8
Visible (ANSI)
100
AcDbSpline
210
0.0
220
0.0
230
1.0
 70
     8
 71
     3
 72
    16
 73
    12
 74
     0
 42
0.0000000001
 43
0.0000000001
 40
2.438424982356326
 40
2.438424982356326
 40
2.438424982356326
 40
2.438424982356326
 40
2.579058516603021
 40
2.579058516603021
 40
2.719692050849717
 40
2.719692050849717
 40
2.860325585096413
 40
2.860325585096413
 40
3.000959119343108
 40
3.000959119343108
 40
3.141592653589803
 40
3.141592653589803
 40
3.141592653589803
 40
3.141592653589803
 10
11.27167826344472
 20
6.055139051589303
 30
0.0
 10
11.26672170013528
 20
6.051249249295715
 30
0.0
 10
11.26230320090087
 20
6.046805588823328
 30
0.0
 10
11.25473706746656
 20
6.037316925843216
 30
0.0
 10
11.25158388714151
 20
6.032278596739064
 30
0.0
 10
11.24643685295991
 20
6.02200922552208
 30
0.0
 10
11.24443700379586
 20
6.016777466005164
 30
0.0
 10
11.24137910396607
 20
6.006321994448389
 30
0.0
 10
11.24031871600113
 20
6.001095430422108
 30
0.0
 10
11.23894937578488
 20
5.990716990195938
 30
0.0
 10
11.23864031122995
 20
5.985563122881757
 30
0.0
 10
11.23864031122995
 20
5.980453267413776
 30
0.0
  0
LINE
  5
398
330
6C
100
AcDbEntity
  8
Visible (ANSI)
100
AcDbLine
 10
11.23864031122995
 20
5.019028543371379
 30
0.0
 11
11.23864031122994
 21
5.98045326741378
 31
0.0
  0
SPLINE
  5
399
330
6C
100
AcDbEntity
  8
Visible (ANSI)
100
AcDbSpline
210
0.0
220
0.0
230
1.0
 70
     8
 71
     3
 72
    16
 73
    12
 74
     0
 42
0.0000000001
 43
0.0000000001
 40
3.141592653589798
 40
3.141592653589798
 40
3.141592653589798
 40
3.141592653589798
 40
3.455751918948776
 40
3.455751918948776
 40
3.769911184307755
 40
3.769911184307755
 40
4.084070449666733
 40
4.084070449666733
 40
4.398229715025712
 40
4.398229715025712
 40
4.712388980384689
 40
4.712388980384689
 40
4.712388980384689
 40
4.712388980384689
 10
11.23864031122995
 20
5.01902854337138
 30
0.0
 10
11.23864031122995
 20
5.00761370943074
 30
0.0
 10
11.24016115531875
 20
4.996409746270282
 30
0.0
 10
11.24546163503578
 20
4.974512653021197
 30
0.0
 10
11.24925753908465
 20
4.96381826234277
 30
0.0
 10
11.25875624967851
 20
4.943237793515624
 30
0.0
 10
11.26446148252602
 20
4.933356040354728
 30
0.0
 10
11.27753533605519
 20
4.914839681263678
 30
0.0
 10
11.28489899803627
 20
4.906205136587816
 30
0.0
 10
11.3012121972005
 20
4.890666239876082
 30
0.0
 10
11.31015469187611
 20
4.883747168679753
 30
0.0
 10
11.32004022804869
 20
4.878039751709433
 30
0.0
  0
LINE
  5
39A
330
6C
100
AcDbEntity
  8
Visible (ANSI)
100
AcDbLine
 10
11.48974585553347
 20
4.780060161998081
 30
0.0
 11
11.32004022804869
 21
4.878039751709427
 31
0.0
  0
SPLINE
  5
39B
330
6C
100
AcDbEntity
  8
Visible (ANSI)
100
AcDbSpline
210
0.0
220
0.0
230
1.0
 70
     8
 71
     3
 72
    16
 73
    12
 74
     0
 42
0.0000000001
 43
0.0000000001
 40
4.712388980384698
 40
4.712388980384698
 40
4.712388980384698
 40
4.712388980384698
 40
4.85302251463139
 40
4.85302251463139
 40
4.993656048878081
 40
4.993656048878081
 40
5.134289583124773
 40
5.134289583124773
 40
5.274923117371464
 40
5.274923117371464
 40
5.415556651618157
 40
5.415556651618157
 40
5.415556651618157
 40
5.415556651618157
 10
11.48974585553347
 20
4.780060161998094
 30
0.0
 10
11.49417112017841
 20
4.777505234264103
 30
0.0
 10
11.49878903247769
 20
4.775195958362999
 30
0.0
 10
11.50846169547334
 20
4.771192621663606
 30
0.0
 10
11.51351822667707
 20
4.769497662565969
 30
0.0
 10
11.52410188056868
 20
4.766918145722411
 30
0.0
 10
11.52963264179885
 20
4.766034186143754
 30
0.0
 10
11.54109969524445
 20
4.765356962890678
 30
0.0
 10
11.54703960640379
 20
4.765568532602805
 30
0.0
 10
11.55904009630968
 20
4.767376664875287
 30
0.0
 10
11.56509766878176
 20
4.768981367222695
 30
0.0
 10
11.57094461803843
 20
4.771328975817344
 30
0.0
  0
LINE
  5
39C
330
6C
100
AcDbEntity
  8
Visible Narrow (ANSI)
100
AcDbLine
 10
9.283232970632246
 20
6.01165464755803
 30
0.0
 11
9.936422859753328
 21
5.634535289242031
 31
0.0
  0
LINE
  5
39D
330
6C
100
AcDbEntity
  8
Visible Narrow (ANSI)
100
AcDbLine
 10
11.10491681566409
 20
4.9599049892505
 30
0.0
 11
11.75810670478516
 21
4.58278563093451
 31
0.0
  0
ELLIPSE
  5
39E
330
6C
100
AcDbEntity
  8
Visible (ANSI)
100
AcDbEllipse
 10
9.250706058697666
 20
5.992875226196692
 30
0.0
 11
-0.0230000000000018
 21
-0.0398371685740832
 31
0.0
210
0.0
220
0.0
230
0.9999999999999998
 40
0.5773502691895831
 41
1.570796326794994
 42
2.356194490192564
  0
ELLIPSE
  5
39F
330
6C
100
AcDbEntity
  8
Visible (ANSI)
100
AcDbEllipse
 10
9.903895947818746
 20
5.615755867880693
 30
0.0
 11
-0.0460000000000061
 21
-0.0796743371481649
 31
0.0
210
0.0
220
0.0
230
0.9999999999999998
 40
0.5773502691896211
 41
1.570796326795008
 42
2.356194490192583
  0
LINE
  5
3A0
330
6C
100
AcDbEntity
  8
Visible Narrow (ANSI)
100
AcDbLine
 10
9.936422859753328
 20
5.634535289242031
 30
0.0
 11
9.968949771687908
 21
5.653314710603369
 31
0.0
  0
ELLIPSE
  5
3A1
330
6C
100
AcDbEntity
  8
Visible (ANSI)
100
AcDbEllipse
 10
9.903895947818748
 20
5.615755867880693
 30
0.0
 11
0.023
 21
0.0398371685740841
 31
0.0
210
0.0
220
0.0
230
1.0
 40
0.5773502691896008
 41
4.712388980384695
 42
5.497787143782155
  0
LINE
  5
3A2
330
6C
100
AcDbEntity
  8
Visible Narrow (ANSI)
100
AcDbLine
 10
9.949895947818747
 20
5.589197755497971
 30
0.0
 11
9.926895947818746
 21
5.602476811689332
 31
0.0
  0
LINE
  5
3A3
330
6C
100
AcDbEntity
  8
Visible Narrow (ANSI)
100
AcDbLine
 10
9.926895947818746
 20
5.602476811689332
 30
0.0
 11
9.273706058697664
 21
5.979596170005331
 31
0.0
  0
ELLIPSE
  5
3A4
330
6C
100
AcDbEntity
  8
Visible (ANSI)
100
AcDbEllipse
 10
11.72557979285058
 20
4.564006209573171
 30
0.0
 11
0.0230000000000041
 21
0.0398371685740818
 31
0.0
210
0.0
220
0.0
230
1.0
 40
0.5773502691894955
 41
4.712388980384802
 42
5.497787143782136
  0
ELLIPSE
  5
3A5
330
6C
100
AcDbEntity
  8
Visible (ANSI)
100
AcDbEllipse
 10
11.07238990372951
 20
4.941125567889161
 30
0.0
 11
-0.0230000000000009
 21
-0.0398371685740837
 31
0.0
210
0.0
220
0.0
230
1.0
 40
0.5773502691896593
 41
1.570796326794956
 42
2.356194490192564
  0
LINE
  5
3A6
330
6C
100
AcDbEntity
  8
Visible Narrow (ANSI)
100
AcDbLine
 10
11.74857979285058
 20
4.55072715338181
 30
0.0
 11
11.09538990372951
 21
4.927846511697799
 31
0.0
  0
ELLIPSE
  5
3A7
330
6C
100
AcDbEntity
  8
Visible (ANSI)
100
AcDbEllipse
 10
11.72557979285058
 20
4.564006209573172
 30
0.0
 11
-0.0460000000000184
 21
-0.0796743371481577
 31
0.0
210
0.0
220
0.0
230
1.0
 40
0.5773502691895112
 41
1.570796326795111
 42
2.356194490192697
  0
LINE
  5
3A8
330
6C
100
AcDbEntity
  8
Visible Narrow (ANSI)
100
AcDbLine
 10
11.75810670478516
 20
4.58278563093451
 30
0.0
 11
11.79063361671974
 21
4.601565052295847
 31
0.0
  0
LINE
  5
3A9
330
6C
100
AcDbEntity
  8
Visible Narrow (ANSI)
100
AcDbLine
 10
11.77157979285058
 20
4.537448097190448
 30
0.0
 11
11.74857979285058
 21
4.55072715338181
 31
0.0
  0
LINE
  5
3AA
330
6C
100
AcDbEntity
  8
Visible (ANSI)
100
AcDbLine
 10
10.03378678188689
 20
3.117061233281992
 30
0.0
 11
10.01916626860789
 21
3.125502390559316
 31
0.0
  0
SPLINE
  5
3AB
330
6C
100
AcDbEntity
  8
Visible (ANSI)
100
AcDbSpline
210
0.0
220
0.0
230
1.0
 70
     8
 71
     3
 72
    12
 73
     8
 74
     0
 42
0.0000000001
 43
0.0000000001
 40
0.1337755653805152
 40
0.1337755653805152
 40
0.1337755653805152
 40
0.1337755653805152
 40
0.1639348888710781
 40
0.1639348888710781
 40
0.1902990354531098
 40
0.1902990354531098
 40
0.2247507374772126
 40
0.2247507374772126
 40
0.2247507374772126
 40
0.2247507374772126
 10
10.33513950783143
 20
3.639022888023507
 30
0.0
 10
10.33547017303587
 20
3.639598489085699
 30
0.0
 10
10.3353201700354
 20
3.640994896787359
 30
0.0
 10
10.33424896116064
 20
3.645138416317059
 30
0.0
 10
10.33343805339715
 20
3.647673930560078
 30
0.0
 10
10.33109753639512
 20
3.654864485343864
 30
0.0
 10
10.32975380036101
 20
3.659114563038159
 30
0.0
 10
10.32889560304383
 20
3.661969334396867
 30
0.0
  0
LINE
  5
3AC
330
6C
100
AcDbEntity
  8
Visible Narrow (ANSI)
100
AcDbLine
 10
10.01916626860789
 20
3.125502390559317
 30
0.0
 11
10.32889560304383
 21
3.661969334396867
 31
0.0
  0
LINE
  5
3AD
330
6C
100
AcDbEntity
  8
Visible (ANSI)
100
AcDbLine
 10
10.33514240906099
 20
3.639024490694315
 30
0.0
 11
10.03378678188689
 21
3.11706123328199
 31
0.0
  0
SPLINE
  5
3AE
330
6C
100
AcDbEntity
  8
Visible (ANSI)
100
AcDbSpline
210
0.0
220
0.0
230
1.0
 70
     8
 71
     3
 72
    20
 73
    16
 74
     0
 42
0.0000000001
 43
0.0000000001
 40
0.0
 40
0.0
 40
0.0
 40
0.0
 40
0.0183373295435009
 40
0.0183373295435009
 40
0.0434606194359188
 40
0.0434606194359188
 40
0.0640287376066433
 40
0.0640287376066433
 40
0.0833418444329896
 40
0.0833418444329896
 40
0.1038759418222162
 40
0.1038759418222162
 40
0.1188138393085536
 40
0.1188138393085536
 40
0.1387716787347392
 40
0.1387716787347392
 40
0.1387716787347392
 40
0.1387716787347392
 10
9.256106819834286
 20
4.281786919531564
 30
0.0
 10
9.254073215884004
 20
4.280899294628408
 30
0.0
 10
9.251190262452492
 20
4.279788939856509
 30
0.0
 10
9.242825968160111
 20
4.277926680114292
 30
0.0
 10
9.237755073512802
 20
4.277668738472732
 30
0.0
 10
9.228391197124496
 20
4.278957094316954
 30
0.0
 10
9.224259552515649
 20
4.280165265234392
 30
0.0
 10
9.216740389356388
 20
4.283689239365504
 30
0.0
 10
9.213462499182913
 20
4.285867905273105
 30
0.0
 10
9.207687943519307
 20
4.29116094733358
 30
0.0
 10
9.205364427865699
 20
4.294224144547357
 30
0.0
 10
9.202469683778915
 20
4.299917605337672
 30
0.0
 10
9.201611963824813
 20
4.302404135923424
 30
0.0
 10
9.200355440818599
 20
4.308336272329734
 30
0.0
 10
9.200309382170813
 20
4.311352138952991
 30
0.0
 10
9.200388216482604
 20
4.313513377810472
 30
0.0
  0
LINE
  5
3AF
330
6C
100
AcDbEntity
  8
Visible (ANSI)
100
AcDbLine
 10
8.890658882046663
 20
3.777046433972922
 30
0.0
 11
8.946185793981241
 21
3.744987956420223
 31
0.0
  0
LINE
  5
3B0
330
6C
100
AcDbEntity
  8
Visible Narrow (ANSI)
100
AcDbLine
 10
9.256106819834286
 20
4.281786919531564
 30
0.0
 11
8.946185793981243
 21
3.744987956420223
 31
0.0
  0
LINE
  5
3B1
330
6C
100
AcDbEntity
  8
Visible Narrow (ANSI)
100
AcDbLine
 10
8.890658882046659
 20
3.777046433972922
 30
0.0
 11
9.200388216482606
 21
4.313513377810472
 31
0.0
  0
ENDSEC
  0
SECTION
  2
OBJECTS
  0
DICTIONARY
  5
C
330
0
100
AcDbDictionary
281
     1
  3
ACAD_CIP_PREVIOUS_PRODUCT_INFO
350
3B2
  3
ACAD_COLOR
350
63
  3
ACAD_GROUP
350
D
  3
ACAD_LAYOUT
350
62
  3
ACAD_MATERIAL
350
10
  3
ACAD_MLEADERSTYLE
350
66
  3
ACAD_MLINESTYLE
350
5F
  3
ACAD_PLOTSETTINGS
350
61
  3
ACAD_PLOTSTYLENAME
350
E
  3
ACAD_SCALELIST
350
42
  3
ACAD_TABLESTYLE
350
64
  3
ACAD_VISUALSTYLE
350
29
  3
ACDB_RECOMPOSE_DATA
350
40A
  3
AcDbVariableDictionary
350
76
  3
DWGPROPS
350
40B
  0
DICTIONARY
  5
3B9
330
8
100
AcDbDictionary
280
     1
281
     1
  0
XRECORD
  5
3B2
102
{ACAD_REACTORS
330
C
102
}
330
C
100
AcDbXrecord
280
     1
300
AMECH_PP
300
2012
300
85796PDSU_2012_0F
  0
DICTIONARY
  5
63
102
{ACAD_REACTORS
330
C
102
}
330
C
100
AcDbDictionary
281
     1
  0
DICTIONARY
  5
D
102
{ACAD_REACTORS
330
C
102
}
330
C
100
AcDbDictionary
281
     1
  0
DICTIONARY
  5
62
102
{ACAD_REACTORS
330
C
102
}
330
C
100
AcDbDictionary
281
     1
  3
Layout1
350
6B
  3
Layout2
350
73
  3
Model
350
6F
  0
DICTIONARY
  5
10
102
{ACAD_REACTORS
330
C
102
}
330
C
100
AcDbDictionary
281
     1
  3
ByBlock
350
19
  3
ByLayer
350
11
  3
Global
350
21
  0
DICTIONARY
  5
66
102
{ACAD_REACTORS
330
C
102
}
330
C
100
AcDbDictionary
281
     1
  3
Standard
350
67
  0
DICTIONARY
  5
5F
102
{ACAD_REACTORS
330
C
102
}
330
C
100
AcDbDictionary
281
     1
  3
Standard
350
60
  0
DICTIONARY
  5
61
102
{ACAD_REACTORS
330
C
102
}
330
C
100
AcDbDictionary
281
     1
  0
ACDBDICTIONARYWDFLT
  5
E
102
{ACAD_REACTORS
330
C
102
}
330
C
100
AcDbDictionary
281
     1
  3
Normal
350
F
100
AcDbDictionaryWithDefault
340
F
  0
DICTIONARY
  5
42
102
{ACAD_REACTORS
330
C
102
}
330
C
100
AcDbDictionary
281
     1
  3
A0
350
43
  3
A1
350
44
  3
A2
350
45
  3
A3
350
46
  3
A4
350
47
  3
A5
350
48
  3
A6
350
49
  3
A7
350
4A
  3
A8
350
4B
  3
A9
350
4C
  3
B0
350
4D
  3
B1
350
4E
  3
B2
350
4F
  3
B3
350
50
  3
B4
350
51
  3
B5
350
52
  3
B6
350
53
  0
DICTIONARY
  5
64
102
{ACAD_REACTORS
330
C
102
}
330
C
100
AcDbDictionary
281
     1
  3
Standard
350
65
  0
DICTIONARY
  5
29
102
{ACAD_REACTORS
330
C
102
}
330
C
100
AcDbDictionary
281
     1
  3
2dWireframe
350
2F
  3
Basic
350
2E
  3
Brighten
350
35
  3
ColorChange
350
39
  3
Conceptual
350
32
  3
Dim
350
34
  3
EdgeColorOff
350
41
  3
Facepattern
350
38
  3
Flat
350
2A
  3
FlatWithEdges
350
2B
  3
Gouraud
350
2C
  3
GouraudWithEdges
350
2D
  3
Hidden
350
31
  3
JitterOff
350
3F
  3
Linepattern
350
37
  3
OverhangOff
350
40
  3
Realistic
350
33
  3
Shaded
350
3E
  3
Shaded with edges
350
3D
  3
Shades of Gray
350
3A
  3
Sketchy
350
3B
  3
Thicken
350
36
  3
Wireframe
350
30
  3
X-Ray
350
3C
  0
XRECORD
  5
40A
102
{ACAD_REACTORS
330
C
102
}
330
C
100
AcDbXrecord
280
     1
 90
        1
330
65
  0
DICTIONARY
  5
76
102
{ACAD_REACTORS
330
C
102
}
330
C
100
AcDbDictionary
281
     1
  3
CANNOSCALE
350
79
  3
CMLEADERSTYLE
350
78
  3
CTABLESTYLE
350
77
  3
DIMASSOC
350
3FD
  3
HIDETEXT
350
3FC
  3
INDEXCTL
350
3FB
  3
LAYEREVAL
350
3F8
  3
LAYERNOTIFY
350
3F9
  3
LIGHTINGUNITS
350
3F7
  3
MSLTSCALE
350
3F6
  3
SORTENTS
350
3FA
  3
XCLIPFRAME
350
405
  0
XRECORD
  5
40B
102
{ACAD_REACTORS
330
C
102
}
330
C
100
AcDbXrecord
280
     1
  1
DWGPROPS COOKIE
  2

  3

  4
JIM WALLS
  6

  7

  8
jwalls
  9

300
Manager=
301
Company=
302
Category=
303
Part Number=
304
Description=
305
Project=
306
Designer=JIM WALLS
307
Engineer=
308
Authority=
309
Cost Center=
 40
0.0002430324074074
 41
2456038.570588658
 42
2456038.589661841
  1

 90
       16
300
Vendor=
300
User Status=
300
Design Status=WorkInProgress
300
Checked by=
300
Engr Approved by=
300
Mfg Approved by=
  0
LAYOUT
  5
6B
102
{ACAD_XDICTIONARY
360
440
102
}
102
{ACAD_REACTORS
330
62
102
}
330
62
100
AcDbPlotSettings
  1

  2

  4

  6

 40
0.0
 41
0.0
 42
0.0
 43
0.0
 44
0.0
 45
0.0
 46
0.0
 47
0.0
 48
0.0
 49
0.0
140
0.0
141
0.0
142
1.0
143
1.0
 70
   688
 72
     0
 73
     0
 74
     5
  7

 75
    16
147
1.0
148
0.0
149
0.0
100
AcDbLayout
  1
Layout1
 70
     1
 71
     1
 10
0.0
 20
0.0
 11
22.0
 21
17.0
 12
0.0
 22
0.0
 32
0.0
 14
0.0
 24
0.0
 34
0.0
 15
22.0
 25
17.0
 35
0.0
146
0.0
 13
0.0
 23
0.0
 33
0.0
 16
1.0
 26
0.0
 36
0.0
 17
0.0
 27
1.0
 37
0.0
 76
     0
330
68
  0
LAYOUT
  5
73
102
{ACAD_XDICTIONARY
360
444
102
}
102
{ACAD_REACTORS
330
62
102
}
330
62
100
AcDbPlotSettings
  1

  2

  4

  6

 40
0.0
 41
0.0
 42
0.0
 43
0.0
 44
0.0
 45
0.0
 46
0.0
 47
0.0
 48
0.0
 49
0.0
140
0.0
141
0.0
142
1.0
143
1.0
 70
   688
 72
     0
 73
     0
 74
     5
  7

 75
    16
147
1.0
148
0.0
149
0.0
100
AcDbLayout
  1
Layout2
 70
     1
 71
     2
 10
0.0
 20
0.0
 11
12.0
 21
9.0
 12
0.0
 22
0.0
 32
0.0
 14
0.0
 24
0.0
 34
0.0
 15
0.0
 25
0.0
 35
0.0
146
0.0
 13
0.0
 23
0.0
 33
0.0
 16
1.0
 26
0.0
 36
0.0
 17
0.0
 27
1.0
 37
0.0
 76
     0
330
70
  0
LAYOUT
  5
6F
102
{ACAD_XDICTIONARY
360
442
102
}
102
{ACAD_REACTORS
330
62
102
}
330
62
100
AcDbPlotSettings
  1

  2

  4

  6

 40
0.0
 41
0.0
 42
0.0
 43
0.0
 44
0.0
 45
0.0
 46
0.0
 47
0.0
 48
0.0
 49
0.0
140
0.0
141
0.0
142
1.0
143
1.0
 70
  1712
 72
     0
 73
     0
 74
     0
  7

 75
     0
147
1.0
148
0.0
149
0.0
100
AcDbLayout
  1
Model
 70
     1
 71
     0
 10
0.0
 20
0.0
 11
12.0
 21
9.0
 12
0.0
 22
0.0
 32
0.0
 14
0.0
 24
0.0
 34
0.0
 15
0.0
 25
0.0
 35
0.0
146
0.0
 13
0.0
 23
0.0
 33
0.0
 16
1.0
 26
0.0
 36
0.0
 17
0.0
 27
1.0
 37
0.0
 76
     0
330
6C
331
57
  0
MATERIAL
  5
19
102
{ACAD_XDICTIONARY
360
1A
102
}
102
{ACAD_REACTORS
330
10
102
}
330
10
100
AcDbMaterial
  1
ByBlock
 72
     0
 43
0.0208333333333333
 43
0.0
 43
0.0
 43
0.0
 43
0.0
 43
0.0208333333333333
 43
0.0
 43
0.0
 43
0.0
 43
0.0
 43
1.0
 43
0.0
 43
0.0
 43
0.0
 43
0.0
 43
1.0
 77
     0
 47
0.0208333333333333
 47
0.0
 47
0.0
 47
0.0
 47
0.0
 47
0.0208333333333333
 47
0.0
 47
0.0
 47
0.0
 47
0.0
 47
1.0
 47
0.0
 47
0.0
 47
0.0
 47
0.0
 47
1.0
171
     0
 49
0.0208333333333333
 49
0.0
 49
0.0
 49
0.0
 49
0.0
 49
0.0208333333333333
 49
0.0
 49
0.0
 49
0.0
 49
0.0
 49
1.0
 49
0.0
 49
0.0
 49
0.0
 49
0.0
 49
1.0
175
     0
142
0.0208333333333333
142
0.0
142
0.0
142
0.0
142
0.0
142
0.0208333333333333
142
0.0
142
0.0
142
0.0
142
0.0
142
1.0
142
0.0
142
0.0
142
0.0
142
0.0
142
1.0
179
     0
144
0.0208333333333333
144
0.0
144
0.0
144
0.0
144
0.0
144
0.0208333333333333
144
0.0
144
0.0
144
0.0
144
0.0
144
1.0
144
0.0
144
0.0
144
0.0
144
0.0
144
1.0
147
0.0208333333333333
147
0.0
147
0.0
147
0.0
147
0.0
147
0.0208333333333333
147
0.0
147
0.0
147
0.0
147
0.0
147
1.0
147
0.0
147
0.0
147
0.0
147
0.0
147
1.0
  0
MATERIAL
  5
11
102
{ACAD_XDICTIONARY
360
12
102
}
102
{ACAD_REACTORS
330
10
102
}
330
10
100
AcDbMaterial
  1
ByLayer
 72
     0
 43
0.0208333333333333
 43
0.0
 43
0.0
 43
0.0
 43
0.0
 43
0.0208333333333333
 43
0.0
 43
0.0
 43
0.0
 43
0.0
 43
1.0
 43
0.0
 43
0.0
 43
0.0
 43
0.0
 43
1.0
 77
     0
 47
0.0208333333333333
 47
0.0
 47
0.0
 47
0.0
 47
0.0
 47
0.0208333333333333
 47
0.0
 47
0.0
 47
0.0
 47
0.0
 47
1.0
 47
0.0
 47
0.0
 47
0.0
 47
0.0
 47
1.0
171
     0
 49
0.0208333333333333
 49
0.0
 49
0.0
 49
0.0
 49
0.0
 49
0.0208333333333333
 49
0.0
 49
0.0
 49
0.0
 49
0.0
 49
1.0
 49
0.0
 49
0.0
 49
0.0
 49
0.0
 49
1.0
175
     0
142
0.0208333333333333
142
0.0
142
0.0
142
0.0
142
0.0
142
0.0208333333333333
142
0.0
142
0.0
142
0.0
142
0.0
142
1.0
142
0.0
142
0.0
142
0.0
142
0.0
142
1.0
179
     0
144
0.0208333333333333
144
0.0
144
0.0
144
0.0
144
0.0
144
0.0208333333333333
144
0.0
144
0.0
144
0.0
144
0.0
144
1.0
144
0.0
144
0.0
144
0.0
144
0.0
144
1.0
147
0.0208333333333333
147
0.0
147
0.0
147
0.0
147
0.0
147
0.0208333333333333
147
0.0
147
0.0
147
0.0
147
0.0
147
1.0
147
0.0
147
0.0
147
0.0
147
0.0
147
1.0
  0
MATERIAL
  5
21
102
{ACAD_XDICTIONARY
360
22
102
}
102
{ACAD_REACTORS
330
10
102
}
330
10
100
AcDbMaterial
  1
Global
 72
     0
 43
0.0208333333333333
 43
0.0
 43
0.0
 43
0.0
 43
0.0
 43
0.0208333333333333
 43
0.0
 43
0.0
 43
0.0
 43
0.0
 43
1.0
 43
0.0
 43
0.0
 43
0.0
 43
0.0
 43
1.0
 77
     0
 47
0.0208333333333333
 47
0.0
 47
0.0
 47
0.0
 47
0.0
 47
0.0208333333333333
 47
0.0
 47
0.0
 47
0.0
 47
0.0
 47
1.0
 47
0.0
 47
0.0
 47
0.0
 47
0.0
 47
1.0
171
     0
 49
0.0208333333333333
 49
0.0
 49
0.0
 49
0.0
 49
0.0
 49
0.0208333333333333
 49
0.0
 49
0.0
 49
0.0
 49
0.0
 49
1.0
 49
0.0
 49
0.0
 49
0.0
 49
0.0
 49
1.0
175
     0
142
0.0208333333333333
142
0.0
142
0.0
142
0.0
142
0.0
142
0.0208333333333333
142
0.0
142
0.0
142
0.0
142
0.0
142
1.0
142
0.0
142
0.0
142
0.0
142
0.0
142
1.0
179
     0
144
0.0208333333333333
144
0.0
144
0.0
144
0.0
144
0.0
144
0.0208333333333333
144
0.0
144
0.0
144
0.0
144
0.0
144
1.0
144
0.0
144
0.0
144
0.0
144
0.0
144
1.0
147
0.0208333333333333
147
0.0
147
0.0
147
0.0
147
0.0
147
0.0208333333333333
147
0.0
147
0.0
147
0.0
147
0.0
147
1.0
147
0.0
147
0.0
147
0.0
147
0.0
147
1.0
  0
MLEADERSTYLE
  5
67
102
{ACAD_XDICTIONARY
360
408
102
}
102
{ACAD_REACTORS
330
66
102
}
330
66
100
AcDbMLeaderStyle
170
     2
171
     1
172
     0
 90
        2
 40
0.0
 41
0.0
173
     1
 91
-1056964608
340
5B
 92
       -2
290
     1
 42
0.09
291
     1
 43
0.36
  3
Standard
 44
0.18
300

342
55
174
     1
178
     6
175
     1
176
     0
 93
-1056964608
 45
0.18
292
     0
297
     0
 46
0.18
 94
-1056964608
 47
1.0
 49
1.0
140
1.0
293
     1
141
0.0
294
     1
177
     0
142
1.0
295
     0
296
     0
143
0.125
1001
ACAD_MLEADERVER
1070
     2
  0
MLINESTYLE
  5
60
102
{ACAD_REACTORS
330
5F
102
}
330
5F
100
AcDbMlineStyle
  2
STANDARD
 70
     0
  3

 62
   256
 51
90.0
 52
90.0
 71
     2
 49
0.5
 62
   256
  6
BYLAYER
 49
-0.5
 62
   256
  6
BYLAYER
  0
ACDBPLACEHOLDER
  5
F
102
{ACAD_REACTORS
330
E
102
}
330
E
  0
SCALE
  5
43
102
{ACAD_REACTORS
330
42
102
}
330
42
100
AcDbScale
 70
     0
300
1:1
140
1.0
141
1.0
290
     1
  0
SCALE
  5
44
102
{ACAD_REACTORS
330
42
102
}
330
42
100
AcDbScale
 70
     0
300
1/128" = 1'-0"
140
0.0078125
141
12.0
290
     0
  0
SCALE
  5
45
102
{ACAD_REACTORS
330
42
102
}
330
42
100
AcDbScale
 70
     0
300
1/64" = 1'-0"
140
0.015625
141
12.0
290
     0
  0
SCALE
  5
46
102
{ACAD_REACTORS
330
42
102
}
330
42
100
AcDbScale
 70
     0
300
1/32" = 1'-0"
140
0.03125
141
12.0
290
     0
  0
SCALE
  5
47
102
{ACAD_REACTORS
330
42
102
}
330
42
100
AcDbScale
 70
     0
300
1/16" = 1'-0"
140
0.0625
141
12.0
290
     0
  0
SCALE
  5
48
102
{ACAD_REACTORS
330
42
102
}
330
42
100
AcDbScale
 70
     0
300
3/32" = 1'-0"
140
0.09375
141
12.0
290
     0
  0
SCALE
  5
49
102
{ACAD_REACTORS
330
42
102
}
330
42
100
AcDbScale
 70
     0
300
1/8" = 1'-0"
140
0.125
141
12.0
290
     0
  0
SCALE
  5
4A
102
{ACAD_REACTORS
330
42
102
}
330
42
100
AcDbScale
 70
     0
300
3/16" = 1'-0"
140
0.1875
141
12.0
290
     0
  0
SCALE
  5
4B
102
{ACAD_REACTORS
330
42
102
}
330
42
100
AcDbScale
 70
     0
300
1/4" = 1'-0"
140
0.25
141
12.0
290
     0
  0
SCALE
  5
4C
102
{ACAD_REACTORS
330
42
102
}
330
42
100
AcDbScale
 70
     0
300
3/8" = 1'-0"
140
0.375
141
12.0
290
     0
  0
SCALE
  5
4D
102
{ACAD_REACTORS
330
42
102
}
330
42
100
AcDbScale
 70
     0
300
1/2" = 1'-0"
140
0.5
141
12.0
290
     0
  0
SCALE
  5
4E
102
{ACAD_REACTORS
330
42
102
}
330
42
100
AcDbScale
 70
     0
300
3/4" = 1'-0"
140
0.75
141
12.0
290
     0
  0
SCALE
  5
4F
102
{ACAD_REACTORS
330
42
102
}
330
42
100
AcDbScale
 70
     0
300
1" = 1'-0"
140
1.0
141
12.0
290
     0
  0
SCALE
  5
50
102
{ACAD_REACTORS
330
42
102
}
330
42
100
AcDbScale
 70
     0
300
1-1/2" = 1'-0"
140
1.5
141
12.0
290
     0
  0
SCALE
  5
51
102
{ACAD_REACTORS
330
42
102
}
330
42
100
AcDbScale
 70
     0
300
3" = 1'-0"
140
3.0
141
12.0
290
     0
  0
SCALE
  5
52
102
{ACAD_REACTORS
330
42
102
}
330
42
100
AcDbScale
 70
     0
300
6" = 1'-0"
140
6.0
141
12.0
290
     0
  0
SCALE
  5
53
102
{ACAD_REACTORS
330
42
102
}
330
42
100
AcDbScale
 70
     0
300
1'-0" = 1'-0"
140
12.0
141
12.0
290
     0
  0
TABLESTYLE
  5
65
102
{ACAD_XDICTIONARY
360
3B3
102
}
102
{ACAD_REACTORS
330
64
102
}
330
64
100
AcDbTableStyle
  3
Standard
 70
     0
 71
     0
 40
0.06
 41
0.06
280
     0
281
     0
  7
Standard
140
0.18
170
     2
 62
     0
 63
     7
283
     0
274
    -2
284
     1
 64
     0
275
    -2
285
     1
 65
     0
276
    -2
286
     1
 66
     0
277
    -2
287
     1
 67
     0
278
    -2
288
     1
 68
     0
279
    -2
289
     1
 69
     0
  7
Standard
140
0.25
170
     5
 62
     0
 63
     7
283
     0
274
    -2
284
     1
 64
     0
275
    -2
285
     1
 65
     0
276
    -2
286
     1
 66
     0
277
    -2
287
     1
 67
     0
278
    -2
288
     1
 68
     0
279
    -2
289
     1
 69
     0
  7
Standard
140
0.18
170
     5
 62
     0
 63
     7
283
     0
274
    -2
284
     1
 64
     0
275
    -2
285
     1
 65
     0
276
    -2
286
     1
 66
     0
277
    -2
287
     1
 67
     0
278
    -2
288
     1
 68
     0
279
    -2
289
     1
 69
     0
  0
VISUALSTYLE
  5
2F
102
{ACAD_XDICTIONARY
360
419
102
}
102
{ACAD_REACTORS
330
29
102
}
330
29
100
AcDbVisualStyle
  2
2dWireframe
 70
     4
 71
     0
 72
     2
 73
     0
 90
        0
 40
-0.6
 41
-30.0
 62
     5
 63
     7
 74
     1
 91
        4
 64
     7
 65
   257
 75
     1
175
     1
 42
1.0
 92
        0
 66
   257
 43
1.0
 76
     1
 77
     6
 78
     2
 67
     7
 79
     5
170
     0
171
     0
290
     0
174
     0
 93
        1
 44
0.0
173
     0
291
     0
 45
0.0
1001
ACAD
1000
AcDbSavedByObjectVersion
1070
     0
  0
VISUALSTYLE
  5
2E
102
{ACAD_XDICTIONARY
360
417
102
}
102
{ACAD_REACTORS
330
29
102
}
330
29
100
AcDbVisualStyle
  2
Basic
 70
     7
 71
     1
 72
     0
 73
     1
 90
        0
 40
-0.6
 41
-30.0
 62
     5
 63
     7
 74
     0
 91
        4
 64
     7
 65
   257
 75
     1
175
     1
 42
1.0
 92
        8
 66
     7
 43
1.0
 76
     1
 77
     6
 78
     2
 67
     7
 79
     5
170
     0
171
     0
290
     0
174
     0
 93
        1
 44
0.0
173
     0
291
     1
 45
0.0
1001
ACAD
1000
AcDbSavedByObjectVersion
1070
     0
  0
VISUALSTYLE
  5
35
102
{ACAD_XDICTIONARY
360
425
102
}
102
{ACAD_REACTORS
330
29
102
}
330
29
100
AcDbVisualStyle
  2
Brighten
 70
    12
 71
     2
 72
     2
 73
     0
 90
        0
 40
-0.6
 41
-30.0
 62
     5
 63
     7
 74
     1
 91
        4
 64
     7
 65
   257
 75
     1
175
     1
 42
1.0
 92
        8
 66
     7
 43
1.0
 76
     1
 77
     6
 78
     2
 67
     7
 79
     5
170
     0
171
     0
290
     0
174
     0
 93
        1
 44
50.0
173
     0
291
     1
 45
0.0
1001
ACAD
1000
AcDbSavedByObjectVersion
1070
     0
  0
VISUALSTYLE
  5
39
102
{ACAD_XDICTIONARY
360
42D
102
}
102
{ACAD_REACTORS
330
29
102
}
330
29
100
AcDbVisualStyle
  2
ColorChange
 70
    16
 71
     2
 72
     2
 73
     3
 90
        0
 40
-0.6
 41
-30.0
 62
     5
 63
     8
 74
     1
 91
        4
 64
     7
 65
   257
 75
     1
175
     1
 42
1.0
 92
        8
 66
     8
 43
1.0
 76
     1
 77
     6
 78
     2
 67
     7
 79
     5
170
     0
171
     0
290
     0
174
     0
 93
        1
 44
0.0
173
     0
291
     1
 45
0.0
1001
ACAD
1000
AcDbSavedByObjectVersion
1070
     0
  0
VISUALSTYLE
  5
32
102
{ACAD_XDICTIONARY
360
41F
102
}
102
{ACAD_REACTORS
330
29
102
}
330
29
100
AcDbVisualStyle
  2
Conceptual
 70
     9
 71
     3
 72
     2
 73
     0
 90
        0
 40
-0.6
 41
-30.0
 62
     5
 63
     7
 74
     2
 91
        2
 64
     7
 65
   257
 75
     1
175
     1
 42
179.0
 92
        8
 66
     7
 43
1.0
 76
     1
 77
     6
 78
     2
 67
     7
 79
     3
170
     0
171
     0
290
     0
174
     0
 93
        1
 44
0.0
173
     0
291
     0
 45
0.0
1001
ACAD
1000
AcDbSavedByObjectVersion
1070
     0
  0
VISUALSTYLE
  5
34
102
{ACAD_XDICTIONARY
360
423
102
}
102
{ACAD_REACTORS
330
29
102
}
330
29
100
AcDbVisualStyle
  2
Dim
 70
    11
 71
     2
 72
     2
 73
     0
 90
        0
 40
-0.6
 41
-30.0
 62
     5
 63
     7
 74
     1
 91
        4
 64
     7
 65
   257
 75
     1
175
     1
 42
1.0
 92
        8
 66
     7
 43
1.0
 76
     1
 77
     6
 78
     2
 67
     7
 79
     5
170
     0
171
     0
290
     0
174
     0
 93
        1
 44
-50.0
173
     0
291
     1
 45
0.0
1001
ACAD
1000
AcDbSavedByObjectVersion
1070
     0
  0
VISUALSTYLE
  5
41
102
{ACAD_XDICTIONARY
360
43D
102
}
102
{ACAD_REACTORS
330
29
102
}
330
29
100
AcDbVisualStyle
  2
EdgeColorOff
 70
    22
 71
     2
 72
     2
 73
     0
 90
        0
 40
-0.6
 41
-30.0
 62
     5
 63
     7
 74
     1
 91
        4
 64
     7
 65
   257
 75
     1
175
     1
 42
1.0
 92
        8
 66
     7
 43
1.0
 76
     1
 77
     6
 78
     2
 67
     7
 79
     5
170
     0
171
     0
290
     0
174
     0
 93
        1
 44
0.0
173
     0
291
     1
 45
0.0
1001
ACAD
1000
AcDbSavedByObjectVersion
1070
     0
  0
VISUALSTYLE
  5
38
102
{ACAD_XDICTIONARY
360
42B
102
}
102
{ACAD_REACTORS
330
29
102
}
330
29
100
AcDbVisualStyle
  2
Facepattern
 70
    15
 71
     2
 72
     2
 73
     0
 90
        0
 40
-0.6
 41
-30.0
 62
     5
 63
     7
 74
     1
 91
        4
 64
     7
 65
   257
 75
     1
175
     1
 42
1.0
 92
        8
 66
     7
 43
1.0
 76
     1
 77
     6
 78
     2
 67
     7
 79
     5
170
     0
171
     0
290
     0
174
     0
 93
        1
 44
0.0
173
     0
291
     1
 45
0.0
1001
ACAD
1000
AcDbSavedByObjectVersion
1070
     0
  0
VISUALSTYLE
  5
2A
102
{ACAD_XDICTIONARY
360
40F
102
}
102
{ACAD_REACTORS
330
29
102
}
330
29
100
AcDbVisualStyle
  2
Flat
 70
     0
 71
     2
 72
     1
 73
     1
 90
        2
 40
-0.6
 41
30.0
 62
     5
 63
     7
 74
     0
 91
        0
 64
     7
 65
   257
 75
     1
175
     1
 42
1.0
 92
        8
 66
     7
 43
1.0
 76
     1
 77
     6
 78
     2
 67
     7
 79
     5
170
     0
171
     0
290
     0
174
     0
 93
       13
 44
0.0
173
     0
291
     1
 45
0.0
1001
ACAD
1000
AcDbSavedByObjectVersion
1070
     0
  0
VISUALSTYLE
  5
2B
102
{ACAD_XDICTIONARY
360
411
102
}
102
{ACAD_REACTORS
330
29
102
}
330
29
100
AcDbVisualStyle
  2
FlatWithEdges
 70
     1
 71
     2
 72
     1
 73
     1
 90
        2
 40
-0.6
 41
30.0
 62
     5
 63
     7
 74
     1
 91
        0
 64
     7
 65
   257
 75
     1
175
     1
 42
1.0
 92
        0
 66
   257
 43
1.0
 76
     1
 77
     6
 78
     2
 67
     7
 79
     5
170
     0
171
     0
290
     0
174
     0
 93
       13
 44
0.0
173
     0
291
     1
 45
0.0
1001
ACAD
1000
AcDbSavedByObjectVersion
1070
     0
  0
VISUALSTYLE
  5
2C
102
{ACAD_XDICTIONARY
360
413
102
}
102
{ACAD_REACTORS
330
29
102
}
330
29
100
AcDbVisualStyle
  2
Gouraud
 70
     2
 71
     2
 72
     2
 73
     1
 90
        2
 40
-0.6
 41
30.0
 62
     5
 63
     7
 74
     0
 91
        0
 64
     7
 65
   257
 75
     1
175
     1
 42
1.0
 92
        0
 66
     7
 43
1.0
 76
     1
 77
     6
 78
     2
 67
     7
 79
     5
170
     0
171
     0
290
     0
174
     0
 93
       13
 44
0.0
173
     0
291
     1
 45
0.0
1001
ACAD
1000
AcDbSavedByObjectVersion
1070
     0
  0
VISUALSTYLE
  5
2D
102
{ACAD_XDICTIONARY
360
415
102
}
102
{ACAD_REACTORS
330
29
102
}
330
29
100
AcDbVisualStyle
  2
GouraudWithEdges
 70
     3
 71
     2
 72
     2
 73
     1
 90
        2
 40
-0.6
 41
30.0
 62
     5
 63
     7
 74
     1
 91
        0
 64
     7
 65
   257
 75
     1
175
     1
 42
1.0
 92
        0
 66
   257
 43
1.0
 76
     1
 77
     6
 78
     2
 67
     7
 79
     5
170
     0
171
     0
290
     0
174
     0
 93
       13
 44
0.0
173
     0
291
     1
 45
0.0
1001
ACAD
1000
AcDbSavedByObjectVersion
1070
     0
  0
VISUALSTYLE
  5
31
102
{ACAD_XDICTIONARY
360
41D
102
}
102
{ACAD_REACTORS
330
29
102
}
330
29
100
AcDbVisualStyle
  2
Hidden
 70
     6
 71
     1
 72
     2
 73
     2
 90
        0
 40
-0.6
 41
-30.0
 62
     5
 63
     7
 74
     2
 91
        2
 64
     7
 65
   257
 75
     2
175
     1
 42
40.0
 92
        0
 66
   257
 43
1.0
 76
     1
 77
     6
 78
     2
 67
     7
 79
     3
170
     0
171
     0
290
     0
174
     0
 93
        1
 44
0.0
173
     0
291
     0
 45
0.0
1001
ACAD
1000
AcDbSavedByObjectVersion
1070
     0
  0
VISUALSTYLE
  5
3F
102
{ACAD_XDICTIONARY
360
439
102
}
102
{ACAD_REACTORS
330
29
102
}
330
29
100
AcDbVisualStyle
  2
JitterOff
 70
    20
 71
     2
 72
     2
 73
     0
 90
        0
 40
-0.6
 41
-30.0
 62
     5
 63
     7
 74
     1
 91
        4
 64
     7
 65
   257
 75
     1
175
     1
 42
1.0
 92
       10
 66
     7
 43
1.0
 76
     1
 77
     6
 78
     2
 67
     7
 79
     5
170
     0
171
     0
290
     0
174
     0
 93
        1
 44
0.0
173
     0
291
     1
 45
0.0
1001
ACAD
1000
AcDbSavedByObjectVersion
1070
     0
  0
VISUALSTYLE
  5
37
102
{ACAD_XDICTIONARY
360
429
102
}
102
{ACAD_REACTORS
330
29
102
}
330
29
100
AcDbVisualStyle
  2
Linepattern
 70
    14
 71
     2
 72
     2
 73
     0
 90
        0
 40
-0.6
 41
-30.0
 62
     5
 63
     7
 74
     1
 91
        4
 64
     7
 65
   257
 75
     7
175
     7
 42
1.0
 92
        8
 66
     7
 43
1.0
 76
     1
 77
     6
 78
     2
 67
     7
 79
     5
170
     0
171
     0
290
     0
174
     0
 93
        1
 44
0.0
173
     0
291
     1
 45
0.0
1001
ACAD
1000
AcDbSavedByObjectVersion
1070
     0
  0
VISUALSTYLE
  5
40
102
{ACAD_XDICTIONARY
360
43B
102
}
102
{ACAD_REACTORS
330
29
102
}
330
29
100
AcDbVisualStyle
  2
OverhangOff
 70
    21
 71
     2
 72
     2
 73
     0
 90
        0
 40
-0.6
 41
-30.0
 62
     5
 63
     7
 74
     1
 91
        4
 64
     7
 65
   257
 75
     1
175
     1
 42
1.0
 92
        9
 66
     7
 43
1.0
 76
     1
 77
     6
 78
     2
 67
     7
 79
     5
170
     0
171
     0
290
     0
174
     0
 93
        1
 44
0.0
173
     0
291
     1
 45
0.0
1001
ACAD
1000
AcDbSavedByObjectVersion
1070
     0
  0
VISUALSTYLE
  5
33
102
{ACAD_XDICTIONARY
360
421
102
}
102
{ACAD_REACTORS
330
29
102
}
330
29
100
AcDbVisualStyle
  2
Realistic
 70
     8
 71
     2
 72
     2
 73
     0
 90
        2
 40
-0.6
 41
30.0
 62
     5
 63
     7
 74
     0
 91
        0
 64
     7
 65
   257
 75
     1
175
     1
 42
1.0
 92
        8
 66
   257
 43
1.0
 76
     1
 77
     6
 78
     2
 67
     7
 79
     3
170
     0
171
     0
290
     0
174
     0
 93
       13
 44
0.0
173
     0
291
     0
 45
0.0
1001
ACAD
1000
AcDbSavedByObjectVersion
1070
     0
  0
VISUALSTYLE
  5
3E
102
{ACAD_XDICTIONARY
360
437
102
}
102
{ACAD_REACTORS
330
29
102
}
330
29
100
AcDbVisualStyle
  2
Shaded
 70
    27
 71
     2
 72
     2
 73
     1
 90
        2
 40
-0.6
 41
30.0
 62
     5
 63
     7
 74
     0
 91
        4
 64
     7
 65
   257
 75
     1
175
     1
 42
1.0
 92
        8
 66
   257
 43
1.0
 76
     1
 77
     6
 78
     2
 67
     8
 79
     3
170
     0
171
     0
290
     0
174
     0
 93
        5
 44
0.0
173
     0
291
     0
 45
0.0
1001
ACAD
1000
AcDbSavedByObjectVersion
1070
     0
  0
VISUALSTYLE
  5
3D
102
{ACAD_XDICTIONARY
360
435
102
}
102
{ACAD_REACTORS
330
29
102
}
330
29
100
AcDbVisualStyle
  2
Shaded with edges
 70
    26
 71
     2
 72
     2
 73
     1
 90
        2
 40
-0.6
 41
30.0
 62
     5
 63
     7
 74
     1
 91
       10
 64
     7
 65
   257
 75
     2
175
     1
 42
1.0
 92
        8
 66
   257
 43
1.0
 76
     1
 77
     6
 78
     2
 67
     7
 79
     3
170
     0
171
     0
290
     0
174
     0
 93
        5
 44
0.0
173
     0
291
     0
 45
0.0
1001
ACAD
1000
AcDbSavedByObjectVersion
1070
     0
  0
VISUALSTYLE
  5
3A
102
{ACAD_XDICTIONARY
360
42F
102
}
102
{ACAD_REACTORS
330
29
102
}
330
29
100
AcDbVisualStyle
  2
Shades of Gray
 70
    23
 71
     2
 72
     2
 73
     3
 90
        0
 40
-0.6
 41
-30.0
 62
     5
 63
     7
 74
     2
 91
        2
 64
     7
 65
     7
 75
     1
175
     1
 42
40.0
 92
        8
 66
     7
 43
1.0
 76
     1
 77
     6
 78
     2
 67
     7
 79
     3
170
     0
171
     0
290
     0
174
     0
 93
        1
 44
0.0
173
     0
291
     0
 45
0.0
1001
ACAD
1000
AcDbSavedByObjectVersion
1070
     0
  0
VISUALSTYLE
  5
3B
102
{ACAD_XDICTIONARY
360
431
102
}
102
{ACAD_REACTORS
330
29
102
}
330
29
100
AcDbVisualStyle
  2
Sketchy
 70
    24
 71
     1
 72
     2
 73
     2
 90
        0
 40
-0.6
 41
-30.0
 62
     5
 63
     7
 74
     2
 91
        2
 64
     7
 65
     7
 75
     1
175
     1
 42
40.0
 92
       11
 66
     7
 43
1.0
 76
     1
 77
     6
 78
     2
 67
     7
 79
     6
170
     0
171
     0
290
     0
174
     0
 93
        1
 44
0.0
173
     0
291
     0
 45
0.0
1001
ACAD
1000
AcDbSavedByObjectVersion
1070
     0
  0
VISUALSTYLE
  5
36
102
{ACAD_XDICTIONARY
360
427
102
}
102
{ACAD_REACTORS
330
29
102
}
330
29
100
AcDbVisualStyle
  2
Thicken
 70
    13
 71
     2
 72
     2
 73
     0
 90
        0
 40
-0.6
 41
-30.0
 62
     5
 63
     7
 74
     1
 91
        4
 64
     7
 65
   257
 75
     1
175
     1
 42
1.0
 92
       12
 66
     7
 43
1.0
 76
     1
 77
     6
 78
     2
 67
     7
 79
     5
170
     0
171
     0
290
     0
174
     0
 93
        1
 44
0.0
173
     0
291
     1
 45
0.0
1001
ACAD
1000
AcDbSavedByObjectVersion
1070
     0
  0
VISUALSTYLE
  5
30
102
{ACAD_XDICTIONARY
360
41B
102
}
102
{ACAD_REACTORS
330
29
102
}
330
29
100
AcDbVisualStyle
  2
Wireframe
 70
     5
 71
     0
 72
     2
 73
     0
 90
        0
 40
-0.6
 41
-30.0
 62
     5
 63
     7
 74
     1
 91
        4
 64
     7
 65
   257
 75
     1
175
     1
 42
1.0
 92
        0
 66
   257
 43
1.0
 76
     1
 77
     6
 78
     2
 67
     7
 79
     3
170
     0
171
     0
290
     0
174
     0
 93
        1
 44
0.0
173
     0
291
     0
 45
0.0
1001
ACAD
1000
AcDbSavedByObjectVersion
1070
     0
  0
VISUALSTYLE
  5
3C
102
{ACAD_XDICTIONARY
360
433
102
}
102
{ACAD_REACTORS
330
29
102
}
330
29
100
AcDbVisualStyle
  2
X-Ray
 70
    25
 71
     2
 72
     2
 73
     1
 90
        1
 40
0.5
 41
-30.0
 62
     5
 63
     7
 74
     1
 91
        0
 64
     7
 65
   257
 75
     1
175
     1
 42
1.0
 92
        8
 66
     7
 43
1.0
 76
     1
 77
     6
 78
     2
 67
     7
 79
     3
170
     0
171
     0
290
     0
174
     0
 93
       13
 44
0.0
173
     0
291
     0
 45
0.0
1001
ACAD
1000
AcDbSavedByObjectVersion
1070
     0
  0
DICTIONARYVAR
  5
79
102
{ACAD_REACTORS
330
76
102
}
330
76
100
DictionaryVariables
280
     0
  1
1:1
  0
DICTIONARYVAR
  5
78
102
{ACAD_REACTORS
330
76
102
}
330
76
100
DictionaryVariables
280
     0
  1
STANDARD
  0
DICTIONARYVAR
  5
77
102
{ACAD_REACTORS
330
76
102
}
330
76
100
DictionaryVariables
280
     0
  1
STANDARD
  0
DICTIONARYVAR
  5
3FD
102
{ACAD_REACTORS
330
76
102
}
330
76
100
DictionaryVariables
280
     0
  1
1
  0
DICTIONARYVAR
  5
3FC
102
{ACAD_REACTORS
330
76
102
}
330
76
100
DictionaryVariables
280
     0
  1
1
  0
DICTIONARYVAR
  5
3FB
102
{ACAD_REACTORS
330
76
102
}
330
76
100
DictionaryVariables
280
     0
  1
0
  0
DICTIONARYVAR
  5
3F8
102
{ACAD_REACTORS
330
76
102
}
330
76
100
DictionaryVariables
280
     0
  1
0
  0
DICTIONARYVAR
  5
3F9
102
{ACAD_REACTORS
330
76
102
}
330
76
100
DictionaryVariables
280
     0
  1
0
  0
DICTIONARYVAR
  5
3F7
102
{ACAD_REACTORS
330
76
102
}
330
76
100
DictionaryVariables
280
     0
  1
2
  0
DICTIONARYVAR
  5
3F6
102
{ACAD_REACTORS
330
76
102
}
330
76
100
DictionaryVariables
280
     0
  1
1
  0
DICTIONARYVAR
  5
3FA
102
{ACAD_REACTORS
330
76
102
}
330
76
100
DictionaryVariables
280
     0
  1
127
  0
DICTIONARYVAR
  5
405
102
{ACAD_REACTORS
330
76
102
}
330
76
100
DictionaryVariables
280
     0
  1
2
  0
DICTIONARY
  5
440
330
6B
100
AcDbDictionary
280
     1
281
     1
  3
ACAD_XREC_ROUNDTRIP
360
441
  0
DICTIONARY
  5
444
330
73
100
AcDbDictionary
280
     1
281
     1
  3
ACAD_XREC_ROUNDTRIP
360
445
  0
DICTIONARY
  5
442
330
6F
100
AcDbDictionary
280
     1
281
     1
  3
ACAD_XREC_ROUNDTRIP
360
443
  0
DICTIONARY
  5
1A
330
19
100
AcDbDictionary
280
     1
281
     1
  3
ACAD_XREC_ROUNDTRIP
360
40D
  3
BUMPTILE
360
1C
  3
DIFFUSETILE
360
1B
  3
OPACITYTILE
360
1F
  3
REFLECTIONTILE
360
1E
  3
REFRACTIONTILE
360
20
  3
SPECULARTILE
360
1D
  0
DICTIONARY
  5
12
330
11
100
AcDbDictionary
280
     1
281
     1
  3
ACAD_XREC_ROUNDTRIP
360
40C
  3
BUMPTILE
360
14
  3
DIFFUSETILE
360
13
  3
FBXASSET
360
F9
  3
OPACITYTILE
360
17
  3
REFLECTIONTILE
360
16
  3
REFRACTIONTILE
360
18
  3
SPECULARTILE
360
15
  0
DICTIONARY
  5
22
330
21
100
AcDbDictionary
280
     1
281
     1
  3
ACAD_XREC_ROUNDTRIP
360
40E
  3
BUMPTILE
360
24
  3
DIFFUSETILE
360
23
  3
FBXASSET
360
BA
  3
OPACITYTILE
360
27
  3
REFLECTIONTILE
360
26
  3
REFRACTIONTILE
360
28
  3
SPECULARTILE
360
25
  0
DICTIONARY
  5
408
330
67
100
AcDbDictionary
280
     1
281
     1
  3
ACAD_XREC_ROUNDTRIP
360
409
  0
DICTIONARY
  5
3B3
330
65
100
AcDbDictionary
280
     1
281
     1
  3
ACAD_ROUNDTRIP_2008_TABLESTYLE_CELLSTYLEMAP
360
407
  3
ACAD_XREC_ROUNDTRIP
360
43F
  0
DICTIONARY
  5
419
330
2F
100
AcDbDictionary
280
     1
281
     1
  3
ACAD_XREC_ROUNDTRIP
360
41A
  0
DICTIONARY
  5
417
330
2E
100
AcDbDictionary
280
     1
281
     1
  3
ACAD_XREC_ROUNDTRIP
360
418
  0
DICTIONARY
  5
425
330
35
100
AcDbDictionary
280
     1
281
     1
  3
ACAD_XREC_ROUNDTRIP
360
426
  0
DICTIONARY
  5
42D
330
39
100
AcDbDictionary
280
     1
281
     1
  3
ACAD_XREC_ROUNDTRIP
360
42E
  0
DICTIONARY
  5
41F
330
32
100
AcDbDictionary
280
     1
281
     1
  3
ACAD_XREC_ROUNDTRIP
360
420
  0
DICTIONARY
  5
423
330
34
100
AcDbDictionary
280
     1
281
     1
  3
ACAD_XREC_ROUNDTRIP
360
424
  0
DICTIONARY
  5
43D
330
41
100
AcDbDictionary
280
     1
281
     1
  3
ACAD_XREC_ROUNDTRIP
360
43E
  0
DICTIONARY
  5
42B
330
38
100
AcDbDictionary
280
     1
281
     1
  3
ACAD_XREC_ROUNDTRIP
360
42C
  0
DICTIONARY
  5
40F
330
2A
100
AcDbDictionary
280
     1
281
     1
  3
ACAD_XREC_ROUNDTRIP
360
410
  0
DICTIONARY
  5
411
330
2B
100
AcDbDictionary
280
     1
281
     1
  3
ACAD_XREC_ROUNDTRIP
360
412
  0
DICTIONARY
  5
413
330
2C
100
AcDbDictionary
280
     1
281
     1
  3
ACAD_XREC_ROUNDTRIP
360
414
  0
DICTIONARY
  5
415
330
2D
100
AcDbDictionary
280
     1
281
     1
  3
ACAD_XREC_ROUNDTRIP
360
416
  0
DICTIONARY
  5
41D
330
31
100
AcDbDictionary
280
     1
281
     1
  3
ACAD_XREC_ROUNDTRIP
360
41E
  0
DICTIONARY
  5
439
330
3F
100
AcDbDictionary
280
     1
281
     1
  3
ACAD_XREC_ROUNDTRIP
360
43A
  0
DICTIONARY
  5
429
330
37
100
AcDbDictionary
280
     1
281
     1
  3
ACAD_XREC_ROUNDTRIP
360
42A
  0
DICTIONARY
  5
43B
330
40
100
AcDbDictionary
280
     1
281
     1
  3
ACAD_XREC_ROUNDTRIP
360
43C
  0
DICTIONARY
  5
421
330
33
100
AcDbDictionary
280
     1
281
     1
  3
ACAD_XREC_ROUNDTRIP
360
422
  0
DICTIONARY
  5
437
330
3E
100
AcDbDictionary
280
     1
281
     1
  3
ACAD_XREC_ROUNDTRIP
360
438
  0
DICTIONARY
  5
435
330
3D
100
AcDbDictionary
280
     1
281
     1
  3
ACAD_XREC_ROUNDTRIP
360
436
  0
DICTIONARY
  5
42F
330
3A
100
AcDbDictionary
280
     1
281
     1
  3
ACAD_XREC_ROUNDTRIP
360
430
  0
DICTIONARY
  5
431
330
3B
100
AcDbDictionary
280
     1
281
     1
  3
ACAD_XREC_ROUNDTRIP
360
432
  0
DICTIONARY
  5
427
330
36
100
AcDbDictionary
280
     1
281
     1
  3
ACAD_XREC_ROUNDTRIP
360
428
  0
DICTIONARY
  5
41B
330
30
100
AcDbDictionary
280
     1
281
     1
  3
ACAD_XREC_ROUNDTRIP
360
41C
  0
DICTIONARY
  5
433
330
3C
100
AcDbDictionary
280
     1
281
     1
  3
ACAD_XREC_ROUNDTRIP
360
434
  0
XRECORD
  5
441
102
{ACAD_REACTORS
330
440
102
}
330
440
100
AcDbXrecord
280
     1
102
SHADEPLOT
 70
     0
102
SHADEPLOTRESLEVEL
 70
     2
102
SHADEPLOTCUSTOMDPI
 70
   300
  0
XRECORD
  5
445
102
{ACAD_REACTORS
330
444
102
}
330
444
100
AcDbXrecord
280
     1
102
SHADEPLOT
 70
     0
102
SHADEPLOTRESLEVEL
 70
     2
102
SHADEPLOTCUSTOMDPI
 70
   300
  0
XRECORD
  5
443
102
{ACAD_REACTORS
330
442
102
}
330
442
100
AcDbXrecord
280
     1
102
SHADEPLOT
 70
     0
102
SHADEPLOTRESLEVEL
 70
     2
102
SHADEPLOTCUSTOMDPI
 70
   300
  0
XRECORD
  5
40D
102
{ACAD_REACTORS
330
1A
102
}
330
1A
100
AcDbXrecord
280
     1
102
MATERIAL
148
0.0
149
0.0
149
0.0
 93
        0
 94
      127
282
     0
 72
     0
 77
     0
171
     0
175
     0
179
     0
273
     0
  0
XRECORD
  5
1C
102
{ACAD_REACTORS
330
1A
102
}
330
1A
100
AcDbXrecord
280
     1
270
     1
271
     1
  0
XRECORD
  5
1B
102
{ACAD_REACTORS
330
1A
102
}
330
1A
100
AcDbXrecord
280
     1
270
     1
271
     1
  0
XRECORD
  5
1F
102
{ACAD_REACTORS
330
1A
102
}
330
1A
100
AcDbXrecord
280
     1
270
     1
271
     1
  0
XRECORD
  5
1E
102
{ACAD_REACTORS
330
1A
102
}
330
1A
100
AcDbXrecord
280
     1
270
     1
271
     1
  0
XRECORD
  5
20
102
{ACAD_REACTORS
330
1A
102
}
330
1A
100
AcDbXrecord
280
     1
270
     1
271
     1
  0
XRECORD
  5
1D
102
{ACAD_REACTORS
330
1A
102
}
330
1A
100
AcDbXrecord
280
     1
270
     1
271
     1
  0
XRECORD
  5
40C
102
{ACAD_REACTORS
330
12
102
}
330
12
100
AcDbXrecord
280
     1
102
MATERIAL
148
0.0
149
0.0
149
0.0
 93
        0
 94
      127
282
     0
 72
     0
 77
     0
171
     0
175
     0
179
     0
273
     0
  0
XRECORD
  5
14
102
{ACAD_REACTORS
330
12
102
}
330
12
100
AcDbXrecord
280
     1
270
     1
271
     1
  0
XRECORD
  5
13
102
{ACAD_REACTORS
330
12
102
}
330
12
100
AcDbXrecord
280
     1
270
     1
271
     1
  0
XRECORD
  5
F9
102
{ACAD_REACTORS
330
12
102
}
330
12
100
AcDbXrecord
280
     1
 70
     1
 90
1959938040
 71
     1
  1
92343CFD-F54D-45BE-9C9E-A058C3A76062
311
504B03040A0000080000336D94403DEE336E79000000790000001B0000006175746F6465736B2D64657369676E2D7061636B6167652E786D6C3C3F786D6C2076657273696F6E3D22312E302220656E636F64696E673D227574662D3822203F3E3C666F726D6174733E3C666F726D61743E687474703A2F2F736368656D612E
311
6175746F6465736B2E636F6D2F64657369676E2D7061636B6167652F323030393C2F666F726D61743E3C2F666F726D6174733E504B0304140006080800336D9440D486FD9CA0000000F4000000130000005B436F6E74656E745F54797065735D2E786D6C7D8EC10E82300C865F65E91D8A1E8C310C0EEA1BF002731658846E
311
D98AC1B77784ABF1D8FE5FBFBF75BBCE937A534CCEB38643598122B6FEE978D0B0485F9C41B54DDD7D022595594E1A469170414C76A4D9A4D207E29CF43ECE46F218070CC6BECC4078ACAA135ACF422C856C0E68EA1BF5669944DDD7BCDE7B1F8E415D77AECB980613C2E4AC91FC167A2B244592486606FC29C8FD7F045B9A
311
EF7053A7E60B504B0304140006080800336D944031F8FE0CE90000007C01000008000000636F72652E786D6C8D90D18E832010457F85CC3B8A68A2354853DBFA05FB0304A84B5AC1086CF6F3175A9BECBEEDD34CEEDC3333B9ECF8BD3CD097DEBC717680AA2080B4954E193B0F10C30D77808E9C6DCE855F3640562C7A802C
311
0367F3E6E2BA4BD2D9A06D48AA754AEFA2F05E0740F2919A01BCFCD48B28440CC9E1EFC52AE45DCCBAA8DE5D8263340ABD8E1895F6999BD11BF0895E6847C9844F8789E2A66E47DC9D28C1ED995CC76B776E2F63C5CA0C7316CCF2BE2F372D8256C029A928260DA6E4A3AAFBA6EAEB03265D4F082BB3FD0F1457F54F281A1B
311
6ABABFFBC23CF0FCC873C05999B348E51954AA3937FE03504B0304140006080800336D944055019EA25F0000007C00000007000000636E782E786D6C4DCB3B0E80201045D1AD90E915ED2CF8AC45050C11660C8261F98AB1B07AC9C97D42D718D865D3E909258CFD00CCE24AC6E326A164D74DC0B4128928FF326038472BA1
311
3128B1252AC747C6BAB984FC68F0B87FE8960A5C09FE86CFB69FBA01504B0304140006080800336D944010DF4DBC64010000020300000C0000006662782F636F72652E786D6C8D52ED8E8320107C15C27F04D1A4B6419A7E3EC1BD0055EA992A1804D3C7BFF5A3E9F5D234171324333BBBB3A3627B6F1B3468D7D7D6E4388E
311
1846DA14B6AC4D95E3E0AF24C3682B85B3D6FF2AC3C8A856E77884B11495B3A15BA0C21AAF8D07D4D8522FA0EA7BED312A1AB8E4B82FBE75AB22153C54F4B7A853C54D553A8A23A0A14E8ADE3B3080E621E389E5F5721774C6A508A12E17B62E615A7DADB5C3F2CC8F3CE3EC4C76EB332769B2DA936CC719591DD8697FCA0E
311
ABE33E1674144BE1EBF6E1AE705A795D62C959CC094B09675F71B249E34DB2262CDB3026E858FE220A5DF94F51A88D4FF8627796F5588E4626E2CFB6109147BD1AC00F95828E21C26B4AF83568080442F6EAD23CF6B80134E8C25B970253DAF0A406D5040D53199A1E4167163A4F0D60B3B77DF8873E9F7BC00754A6026BCA
311
C3F512FC385DCC5397283AEDC8E0EFC858D7AAE6696EB6F83C9F83DECA0BDB58F71F355D56A54B9874FC7BE50F504B0304140006080800336D9440DB5344897E0000009D0000000B0000006662782F636E782E786D6C4DCCD10A83201886E15B91FFDC6553DC043596ADFB886521990EA76397BF1A1DECE883878F57369FD5
311
A3B74D2F178382FA4400D9F088A30BB38292277C05D4689962CC7F37406158AD829D41CB39C5F23C68B4D3507CDED4BBB01CD8727263BDB9606128C18CF5672CA8E830AF99E95A7EA7941AA8B4AC7EA56DF7B0FE02504B0304140006080800336D94401DB26E072C01000015020000310000006662782F4236304134464337
311
2D394333302D343446322D393339442D3631344344423645333333432F636F72652E786D6C8D51CB6EC32010FC15C4293D6083A18E1D61A2C669BEA03FE06092A2C460F1A8F2F985DA95DA5B2E2C9A9D991DEDF2FD63BA832FE5BCB6A683A4C0102823EDA8CDB583315C5003C15E70676DF84383C00C93EA6086A1E05767E3
311
BC42D29AA04C48A8B1A35AC1C17B152090F7F4E9A0979F6A1A8A2186C4F0B7621EE46DB8AA8214A99D7882FBE05200B00CC92F14871ABFB153BF456D4F3162EC54A196B6475413D61F0FF53BA5B4E7E522143C463DAE723DA638FAA2957BD6248B050F7AFA8D2F9D1A821AA1A830A91066A8C21F84EE18D9D116E16687312F
311
33FD9F28CEE393A2A84DA0D51A77917928082F9786E0A38DE7FB6F18F598AD0B20CFDB78255FA0C005C6758369B3AD79B970D3069269CD56531FAC4B1BDEDCCE894E5E17E79A095EE623A5F273C154F341C537504B0304140006080800336D9440AE6602524C01000033030000300000006662782F42363041344643372D39
311
4333302D343446322D393339442D3631344344423645333333432F636E782E786D6CD593BD6E032110845F05D1DFAF4F966371584A912748919683B54DCCC1899F287EFB2C3676DCB84899069D668799D5278EEDBE6743BEC007EDEC48BBBAA504AC744ADBC34853DC571B4A769C79E7E2838D122B66186996296707EFD252
311
24057B914C44D5687B2AA287E092971050CE37897152180C005B2514619E402950E46EC4AF3D785C05C5E94CE211C8DBEB0771D327C818589353386B720767F92C4D0F264AA411218C34C823CCA216293A05E1542B1145DDD5B7AE273BFD26917CE15699BC26B97CA4F9A4BC6C542347D6E090B3103DD22BA6785E8072B12C
311
464B11117273315E3D9C256DE37A285E8DE03DBABBF56A1830EC32E32CEA198A437A101114E57DDBF5553B547DFBDEADB643B75DBD54ED66DBB6ACC976CE26E74CB98431E0DD42A4B3116CA4BC634D1E3FC3577C44698FAC9D3FFF01240228AD573AF78CFFCCA7B9BC6FC4E5F12FE03F504B0304140006080800336D94406C
311
922805A505000081100000340000006662782F42363041344643372D394333302D343446322D393339442D3631344344423645333333432F6F626A656374732E786D6CAD57D96EDB3814FD1541F332F360CB5BD278A0A870ECA430DAB4458D14F360C0A0254AE1845A4052A9335F3F8722254B8E9D7A067DD1C2E5F2DE73CF
311
5DE8BFDFA5DC79A642B23CBB7687FD81EBD02CCC239625D76EA9E2DE95EBBC0F7C91E7AAB5CC753292D26B570FBB819F88BC2CEC504463527275307A77F39723439A51D7093991F2DA95E1234D499F942A8FA87CEA4744917E12EFFAC3BE59D8159B08523C1E082D88A09982A618CF20C5314A0DBBBF03D70B7C4FCF07BE7E
311
DA55E3D3ABBCCA9EEEF92C938A64E1ABC30EC48C8793C5EDE862DABB984CC6BDC9E568D8BBB9BB59F486EFC683F9E57C3E9DDD4E71B0540292AC2682C66EF001D80816FA9E990AFC92656A3CB24BAC833C419F99F6941B8C9CA1EF99358D75D6C863EA877996D1B0C20A6854F659D1112D6816C1E78C4A68D64268D0FD1D6A
311
1C5BD363FD6F8F6C0F9F87407B474B50AD7BFD6E6B9A6FFF8609F21C06094935030D96D650C3D5C11EE16D9E733BC7A49312450523DCE16C2B887871032CD54B02BF23463359E868D016B801BC60A6BB744118FD9CE7C7B48C4BCE358DDDA08A820D62852A5969C6FEA162AF7D1B19E8045F69365C5983D44B41DD606A2872
311
75C02603A4137392C0E53053EF1C8F0E0C9DEB385D2EDCE0E3DD76B7D2B17BFCF042E405154AD307D4AA1D57BF354A56A7E1599ED31BDC0355F6A07C03F29F11EA7B55E037C17693DDC49EA204C9649C8B14BE71064E6F80C7C019564FFDDDFAF2BD6673D77BA7F084B33554BF00CFAE0D6D5FB6E00CFC67103E17636BDA2A
311
241C69E39E65004893C4E139869087E3EDCE0D96C872C8CAD845783084C950F7199FBE67C520515427B5DE19B03C488B672468C05631126A18F25B05F77E7A95CEAA83EDB253F05EFC12BACE16AB8FAB52C424A4F736A6173466195328717BDEB415EA60DEB1E889BEFCC84504435FE3BD6AE39DDAA324D0D6986BE0933AA7
311
EB9FFDC99D0342EC4B729D6EFC9F9C002374616DC9BF6732A49C938CE6657DEE9BF50365C340AC835D33B92930FBC202D29899831844910E052B34884DB56A9266FF84750FCBCF60A41BDCBC7C222FEDECB5DDE7DE30E7B9D86C5F36262D1D85FA7B97DB16034F4B01DDAB20A9E3DF82BE89581C971249F008AEDF97F3B6EF
311
745A408AA8A59A6899C07E04171196B4B55C546B415049F36CC350371177470F68CB07A4960195C0531A4BCAE30DE3BC4C3731E3A8469B941427E0F8FFFA6FCBB4D890342F3375427647755487AEEE1DF6CA1F44858F6EB0AADEBD1BE4DE884627C8A06BC911AC3AAE9D8EC693F1FC6ED1BBBB982C7A938B9BDBDE743EBDED
311
CD061757F3F1ECDDE5E07254FBC96812F875A9694734BC84D2E6978259F73D2C113F3609B8C13D5172FDC18467FD7E58F6D10BFB1EF6A05E361B67D133FA3E1AFD5CC07EE55141CBB4E034A599223A86EEF507FF46D067749431E3CB9424F40C295F3EAC0E8CC1C819FBBEEA78A73F0EF6DAD1B90EC8A342D463996E33C2F8
311
C1C6C420D92FB2C4E257FBA4799B4253FFEA3FEB1874A632E72C421E8C9C84E62955C886671421915209EAB57BFAC8DE3DCED8FD6C3A4445B69CD69A3C1234C95C222C40AD3254DD71E7373475BAAFBA76516EFB4F78D84CE13AE0CCB58B265DB190CAFE16055AB742957070A9DDC9A3F12759C2D16B9B4DCD7FB34B63D329
311
C9CD9273FA276B9749E1D600A491027D031A2278A75226F02BDDEC7CF89F0CAFD57188C2E7B6548D2DFB81C698EA1884A831CADE16D0C43CD9A37708D4B7CD1AF6AB351D44CEBA65BD490223B5A78848AA9B82D6CFAA345B7CF5D0A138CB2F4EC1CB04BE3C5F524F5090B9D4010E16811556664114A83AFF73FD55E4B8C9A6
311
CE1D03059CDF7757977FACE7799AE699195ACFEC7DD8593DE2761BAD911CA8BE96C8F568301CADABEB80BDA16CB644D23E89E41306E059C11AA03BEE072FCD9D1175C84C34EB3CED8A03862E178E2D6C1308B57469E7560D0E1A8F8C3A88217DA5D411D35E50BC7923F0AAA55041A0970FFE05504B0304140006080000336D
311
9440000000000000000000000000350000006662782F42363041344643372D394333302D343446322D393339442D3631344344423645333333432F76657274696365732E62696E504B0304140006080800336D9440F270F1330600000004000000360000006662782F42363041344643372D394333302D343446322D393339
311
442D3631344344423645333333432F747269616E676C65732E62696E636660600000504B0304140006080000336D9440000000000000000000000000370000006662782F42363041344643372D394333302D343446322D393339442D3631344344423645333333432F617474726962757465732E62696E504B030414000608
311
0800336D9440D5987DFC8F00000041010000360000006662782F42363041344643372D394333302D343446322D393339442D3631344344423645333333432F6469726563746F72792E786D6C858F410EC2201045AF4266AF15DDB800BA74E7C21B903225242D6328188F2FA5C4183471359997F9FF81E89FF3C41E1816475E
311
02DF1F80A11FC8386F25A438EECEC07A250251FC3803E6F58C12560C4AD840E95E91C151A72936F496F35732D860FE635F62C8F2DA16B505C545B74125BAA2FA9E05D7CC053D063734D5C7665FD55B6B8D15D5E9BFEAFD8490FFA45E504B0304140006080800336D94405912A33DFC000000A00100003B0000006662782F42
311
363041344643372D394333302D343446322D393339442D3631344344423645333333432F7265736F75726365732F636F72652E786D6C8D50596AC33010BD8A987FD9B21CB01364852CCE097A01214F129158325A4A8F5F2971A1FDEBCFCCF016E6F1C4FE6B7E924FF4C1383B4053312068B59B8CBD0D90E295F640F65278E7
311
E22F1910AB661CA0C020C5CDBBB4AC907636A28D19B56EC21554216004A29FF91820E83BCEAA5229664578548BD20F75C3AAA9329D755284E87300F27E5226488FC125AF3188FACD4A919299568D99F24F7335E8415EF899F79C8DF4B0BD70BA69BB23ED0F9CD1EEC4C6E3D89FBAF3B11175314B11CDFC93517B541127909C
311
359CB20DE5ECA369779B66D76E29EB778C89BAC8FF98D232FDD3948C8D2D5FE3BE6D016409F222A4A84B5F79BDCACCBB742BBF01504B010214000A0000080000336D94403DEE336E79000000790000001B00000000000000000000000000000000006175746F6465736B2D64657369676E2D7061636B6167652E786D6C504B
311
01021400140006080800336D9440D486FD9CA0000000F40000001300000000000000000000000000B20000005B436F6E74656E745F54797065735D2E786D6C504B01021400140006080800336D944031F8FE0CE90000007C010000080000000000000000000000000083010000636F72652E786D6C504B0102140014000608
311
0800336D944055019EA25F0000007C000000070000000000000000000000000092020000636E782E786D6C504B01021400140006080800336D944010DF4DBC64010000020300000C00000000000000000000000000160300006662782F636F72652E786D6C504B01021400140006080800336D9440DB5344897E0000009D00
311
00000B00000000000000000000000000A40400006662782F636E782E786D6C504B01021400140006080800336D94401DB26E072C0100001502000031000000000000000000000000004B0500006662782F42363041344643372D394333302D343446322D393339442D3631344344423645333333432F636F72652E786D6C50
311
4B01021400140006080800336D9440AE6602524C010000330300003000000000000000000000000000C60600006662782F42363041344643372D394333302D343446322D393339442D3631344344423645333333432F636E782E786D6C504B01021400140006080800336D94406C922805A505000081100000340000000000
311
0000000000000000600800006662782F42363041344643372D394333302D343446322D393339442D3631344344423645333333432F6F626A656374732E786D6C504B01021400140006080000336D94400000000000000000000000003500000000000000000000000000570E00006662782F42363041344643372D39433330
311
2D343446322D393339442D3631344344423645333333432F76657274696365732E62696E504B01021400140006080800336D9440F270F13306000000040000003600000000000000000000000000AA0E00006662782F42363041344643372D394333302D343446322D393339442D3631344344423645333333432F74726961
311
6E676C65732E62696E504B01021400140006080000336D94400000000000000000000000003700000000000000000000000000040F00006662782F42363041344643372D394333302D343446322D393339442D3631344344423645333333432F617474726962757465732E62696E504B01021400140006080800336D9440D5
311
987DFC8F000000410100003600000000000000000000000000590F00006662782F42363041344643372D394333302D343446322D393339442D3631344344423645333333432F6469726563746F72792E786D6C504B01021400140006080800336D94405912A33DFC000000A00100003B000000000000000000000000003C10
311
00006662782F42363041344643372D394333302D343446322D393339442D3631344344423645333333432F7265736F75726365732F636F72652E786D6C504B0506000000000E000E0080040000911100000000
310
504B03040A0000080000336D94403DEE336E79000000790000001B0000006175746F6465736B2D64657369676E2D7061636B6167652E786D6C3C3F786D6C2076657273696F6E3D22312E302220656E636F64696E673D227574662D3822203F3E3C666F726D6174733E3C666F726D61743E687474703A2F2F736368656D612E
310
6175746F6465736B2E636F6D2F64657369676E2D7061636B6167652F323030393C2F666F726D61743E3C2F666F726D6174733E504B0304140006080800336D9440D486FD9CA0000000F4000000130000005B436F6E74656E745F54797065735D2E786D6C7D8EC10E82300C865F65E91D8A1E8C310C0EEA1BF002731658846E
310
D98AC1B77784ABF1D8FE5FBFBF75BBCE937A534CCEB38643598122B6FEE978D0B0485F9C41B54DDD7D022595594E1A469170414C76A4D9A4D207E29CF43ECE46F218070CC6BECC4078ACAA135ACF422C856C0E68EA1BF5669944DDD7BCDE7B1F8E415D77AECB980613C2E4AC91FC167A2B244592486606FC29C8FD7F045B9A
310
EF7053A7E60B504B0304140006080800336D94406D5A321DEA0000007C01000008000000636F72652E786D6C8D904D6EC3201085AF82668FCD8FEBBA1626AA95E604BD0002E2A0C46019A87AFCE2C491DA5D57337AF3BE99D11387EFF986BEEC1A5DF003D08A00B25E07E3FC34404E67DC013A48B186907ED9007935DB0136
310
19A498D690975DD2C127EB53517D307617558C3601D2B7D20C10F5C5CEAA52391547BC568BD25735D98A3EBB02E7EC0C7A1C71A6EC7367675790E378629C9177DC724671D376AF786CBA16D3D39173D21E3FBAF145D41B2C4572F3F3BE5EAD4AD6806484324C1ACCC827E57D437BFE8649D71322EACDFE07CA8BF927949D4F
310
9CEDEF3EB008929647EE0329EA2D8B52EE4195BAE5267F00504B0304140006080800336D944055019EA25F0000007C00000007000000636E782E786D6C4DCB3B0E80201045D1AD90E915ED2CF8AC45050C11660C8261F98AB1B07AC9C97D42D718D865D3E909258CFD00CCE24AC6E326A164D74DC0B4128928FF326038472B
310
A13128B1252AC747C6BAB984FC68F0B87FE8960A5C09FE86CFB69FBA01504B0304140006080800336D9440F9B61F7166010000020300000C0000006662782F636F72652E786D6C8D525B6E833010BC8AE57F63F328A591715494E604BD80030E45011B191BE5F85D1E114D15451192B16676766707F8FEDAB5685476688CCE
310
7118308C942E4DD5E83AC7DE9D4986D15E706B8CFB538691969DCAF10463C16B6B7CBF42A5D14E6907A836955A41390CCA6154B670C9F150FEA84E06D23BA8182E412FCB8BAC55100640439DE083B360002D43A6138BF3E9CAE9820BEE7D53AD6C53C1B4E6DC288B45511CA338629F248DA3902469F64E8A244B49783CC431
310
4B0F5F59F1C6E92416DC35DDCD5D699574AAC222626144584222F61DC6BB24DCC51F84653BC6389DCAEF44BEAF5E14F946BB385AED2EB2018B108CCCC4BF6D2122870639821F2A389D4284D79CF07DD0100884ECE4A9BDED71016854A5333601A6327EA346D97A0553199A1F4E17163ACF0D60B3877DA2277D9EF7800F2875
310
0DD6A483EBC9BB693A5FA6AE51F4CA92D15D9136B693ED666EB1B89DDBA087F2D2B4C6BEA2A6EBAA740D934E7FAFF805504B0304140006080800336D9440110686BE7E0000009D0000000B0000006662782F636E782E786D6C4DCCDF0AC2201C86E15B91DFB9CD3F951BA823B4EE63343724A7611A5D7E5BECA0A30F1E3E5E
310
D97F9680DE2EBF7C8A0AE8810072F19E461F6705B54CB805D46B99532A7F374071589C828D41CB39A7FADC6974D350435935F8F8D891F0ABB5CCB4B8B394E1A3B1025F9810989C0D3D915B470DE7D068D9FC4AEB6E61FD05504B0304140006080800336D9440620343E12C01000015020000310000006662782F3033454444
310
3243382D394431322D344344372D413237372D3036433135304639314333332F636F72652E786D6C8D51CB6EC32010FC158B537AC006E3C44E84892ABBFD82FE00B149821283C5A3CAE777A91DA9BDE5C2A2D999D981E5C7C774CFBE95F3DA9A16D19CA04C99C18EDA5C5A14C31937283B0AEEAC0D7F68283372522D4A3012
310
FCE26C9C5768B0262813003576542B28BD570165C31D2E2DF2C3554D32973100C3DFF2590E37795139CDA10D3CC17D7010205B86A41309C23EFABEEC1ABCEF6989ABAEAFF17B59D798EC3ABA259F7BDA31C68B4528788C7A5CE57A8438FAAC957BD52489050F7A7AC61F9C92418D48940466930A97E48BB243450F6C8F4973
310
20841789FE4F14E7F14551D426B0728DBBC83C1294174B43F0D1C6D3FD19463D66EB4296E66DBC1ADEE055392135DB96DB06340B177E004C77D56AEA8375F0C39BDB09E80C58C97957095EA42541F9DD20D4B450F103504B0304140006080800336D9440C8C1CD455401000033030000300000006662782F30334544443243
310
382D394431322D344344372D413237372D3036433135304639314333332F636E782E786D6CBD93CD6EC32010845F0571F7BF15B91126520F7D821E7AC5B04969305880ABE6EDBB2424CD25874A552FC89A1D66569F30DB7DCD867C820FDAD99136654D0958E994B68791AE715F0C94EC38F3CEC53B1B2556CC30D22453CE0E
310
DEAD4B9614ECC56A22AA46DB63163D04B77A0901E57493182785C100B0C58A22CC1328058ADC8CF8B5078FABA0389D487C07F2F2FC46DCF401320656A514CEAAD4C1593A73D39D8912694408230DF21D66518A353A05E1582A1145D994D7AE073BFD249174E15AB97A4D52F948D34979DEA8448EACC22167217AA4974DF1B4
310
00E562598C962222E4EA6CBC78385BB58D9B3E7B3582F7E8EEDACD3060D879C659D4336487F4202228CADBBA698BBA2FDAFAB5E9B67DB3ED9E8A7AD8D635AB929DB3C939932F610C78B710E96C041B296F5895C68FF0651F51DA236BE74FBF00890072EB85CE2DE32FF9349BAEEFFF914F757EDF88CBE35FC0BF01504B0304
310
140006080800336D9440C489DB0A630700009A1B0000340000006662782F30334544443243382D394431322D344344372D413237372D3036433135304639314333332F6F626A656374732E786D6CED59DD73A33610FF5718FAD23E189BD8CE251DC24D625F6E3CD75C6FEA5EA70F9E616490891A211849E4E2FEF55D7D8081
310
9804B7E9DB3DD8809056BBBFFDD412BC7FCAA8F388B92039BB727D6FE23A98C57942587AE5967237BA709DF761C0F35C36A6B90E4319BE72D5B01B0629CFCBC20E2578874A2A3BA3B7377F3A22C60CBB4E4C911057AE88EF71863C54CA3CC1E2C14B90445EBA7BF27CCF4C6C934D392AEE3B440BC43193C0298C33A0E218A6
310
FCF6E3C41D87C158BD0F03F56F674D07CD9AF5CF1A6BA9DB5C12262462F133963A64A683589AFAB3E587B3F9E5683E9B4D47B3F3337F74737BB31CF9EFA693C5F9627179FDE112D8DBE639B53225B8C02C01FDEDDDD00FC6EA4D2DBA45E018D771CE188E3590009516AB4B9060015B35E09BB41F7D2551E3B596B0F13C53EF
310
2D0B8DE1699B4ADFAC6140B4E8822076BB4AE2EADA942FDFFE05828B2146C90596C0AD901CB46BE1E1E0156E3809C666340CB6075D10E16448624E107528D972C4412930554D0903B3C09251CEC18194A324D09A33AFDBB6059EF9BAEB1CE3725752AA3CC30DB56345E07E580ACD19F91BF303F74D64802790B6244C5E582E
310
E5BEC06E78198CF56018A8CBF4CCBE34403A3B8A52A111316F3B822E94EBAF966EF8E976FBB456E1E0F8E605CF0BCCA5323AA547CD1718B2BD2A94ECB6FE20CDA905208C01D5AE3C80F21B20FF19A2C78115D01B274FB3A7999D2B39626297F30C74E34C9CD104FE268EAFFFD57DE32E18D78BDBDAEBC313DC544175F1DFF1
310
6CCBA0B1B2FC37E00C834730F89C4FEDAB758C28D8F31D610090321287E63004A17DB77D72C315044E08F4B00AD1D0079181DD47B80DC696CC412B957B59AF6380A8DD633A4449009BB64860A3474F1F217B70121FD4D414B10FDEF99B98EBF572FD695DF21D8AF19DF5E925DE11462464CDE30CB5306F49F480F7DF729E80
310
A0CFF15E37F1CEEC5602D056982BE0D30A04F570D8B9B5410CEBD25C859BE0951D400895AB1BF4EF888831A588E1BCACF6ADA39B32D4DAE36DCDE0866706E2E959C784397E24AAAA00A739CC68310A793FE6A45020BAE14723591D34BD1EE9BEAE3E8345D6F37B66AD18845E86E8EF3A681DC1A165D915D216885AE0ED219C
310
C739CD79B4DD4726D2B9504B001B6D6FF9A3451462BD5192A2021EA4FDAE0A29A991364AC86E570A88AB4758FC63B5689AC3C49BFA73A7F9DF71C619445BF05DC4ADDF75F6884886521CED50D2B75D73B79AB6D0247B4873BCA320177924721F21194D129C9E02CD49C42FDF947A4A732108C302F2D551F09B684C3C082446
310
9B15CB4AAB1DA08988322C113D050145A6075C9D76748D1B43E9F03A8FB5F5BEA4B126D1FFC92238825A32671181521472C8AB8CFBDE1C62481B5D8372075FB0B68AB61683965042C4FBE81B26E9BD3C057543BE07F7188E24A58CF202C560D603C83EF315A5D40EEF5B143FA8FC11C5257D2B031198EE2242699945F0230C
310
4E1E435CBB0E4C2FA2D0206E629FC419146548967CC826E7F3C9B37D4CCDD00D818D8D768442D88E3254F4A0DE0A88BA1E716AF02DF51EA56ECBAC885096976C90A178D3AE3759F25DB52AB203F955A522948D15614B300C08937556AD623698BA0EACE0463A50ED2381B2829A53D82B89C7AFBD4953EEDD805B3F7DDB0D32
310
28FC7AB4D78CA8B30A06CB63AB3010DF908CEFDD70ADAFA31BA8BF139C1C527D556B362B40404C45F29213ABA2AF2B286F6C8DE68677488ACD479375ABEBD79507DD8F600C6BA076A917AE14D0196612A9CAE44EDDD0DF1084E0160D33BE5239F5142AD749A2AB46446F499F3A5B65446BD38C78C53D6679063FB6212CA665
310
823728110FD19DA4D19A28D6AD945E462A8C5F14F0D78FEB0E3C303240A42FAAC0C3DF3A6BEDE842954B4789C8FB32DB32442008B6444B8D6EBC82A556239596EBAB3A5340DD050666553CFB7EB268B623BE9F2C526B18FFE96471B3FF05ED9B7D91463A8F955D9F740CA8F393A2F216C700DD76A8A9D659C424732BBF75A6
310
08826215E507576355D03004FB38FED759BB2F0B9AED3AFC9F96B5FD6715C74959A5355975A98E54AEAB660EBB3C9BCEA68BDBE5E8763E5B8E66F39B0FA3CBC5E587D1F5647EB1985EBF3B9F9CD7A9D8100F833A98E9DC05CF26A855C3EAC962005D59915392C0693E71520C315FC2997E40FB9C675840F26C36BB13DB941F
310
B0FAD1F43925DA525C71728FA0414C05A47510A38C657BDCF9015A93120EDA572E348DBC07F8B356E93A9079AE5C6815481263E16DA1CDA41A7A9A38A45C9DFB2D31086488A52A259A45F573BD4A61D30AFFF5942169C0CAD5EA6140E15640F7ABD5A1D0BC599EE29304AFD8719084DB6D29A15A33B21C066A61F43607F51B
310
D928610F76EB2770DD97C5F23D3DA785C8A04F062F1A81A13A9288A7BADFAD18B32C5D2FBF8CA1CFE6AC7E750A5AA6A0CBE194461C833197AAA0022B02ABB0340B24C154173F6FBEF01C3EF1648EAE8A9C1F9F2ECE7FDA2CF22CCB9919DA5CC3A92C810F45CEFA1E3EFB241B281EB06AAE8BCDD9C43FDBE8A6B6EDB3475B24
310
B0A7AA2218A88A092548C7E4C02E9F35A86CFB72AC54D199BE5A3A36884233C0D8D1B31EAFF9C8E5800FA9CF29CA63B49F57D2BED8D71EEBA960131C3AD2E13F504B0304140006080000336D9440000000000000000000000000350000006662782F30334544443243382D394431322D344344372D413237372D3036433135
310
304639314333332F76657274696365732E62696E504B0304140006080800336D9440F270F1330600000004000000360000006662782F30334544443243382D394431322D344344372D413237372D3036433135304639314333332F747269616E676C65732E62696E636660600000504B0304140006080000336D9440000000
310
000000000000000000370000006662782F30334544443243382D394431322D344344372D413237372D3036433135304639314333332F617474726962757465732E62696E504B0304140006080800336D9440D5987DFC8F00000041010000360000006662782F30334544443243382D394431322D344344372D413237372D30
310
36433135304639314333332F6469726563746F72792E786D6C858F410EC2201045AF4266AF15DDB800BA74E7C21B903225242D6328188F2FA5C4183471359997F9FF81E89FF3C41E1816475E02DF1F80A11FC8386F25A438EECEC07A250251FC3803E6F58C12560C4AD840E95E91C151A72936F496F35732D860FE635F62C8
310
F2DA16B505C545B74125BAA2FA9E05D7CC053D063734D5C7665FD55B6B8D15D5E9BFEAFD8490FFA45E504B0304140006080800336D9440D09351DCFC000000A00100003B0000006662782F30334544443243382D394431322D344344372D413237372D3036433135304639314333332F7265736F75726365732F636F72652E
310
786D6C8D50596AC33010BD8A997FD95A5CD709B20226CD097A01214F5C91580A5A4A8F5F3976A1FDEBCFCCF016E6F1E4E96BB9579F18A2F56E005653A8D0193F59370F90D395F4509D940CDEA75F32A89C5E7080150625E7E0F363878C77095D2AA8F313EEA08E111354E65E8E01A2F9C045D73AA7A288B7FAA1CD4DCF58B3
310
BAD045A7644CA104A8B627EB041530FA1C0C46D96CAC9239DB69D7D8A9FCB4578B01D4385EB8E0F4403AC11969BBFE958C6DDF1176390B41BBF35B3FBEC866352B99ECF293D104D40927509C324E684B387D67E2D8B2A33810DA1F2995CD2AFF63CA8FE99FA66C5D127C8FBBD9222856823C09259BB5AFB29E6596BD76ABBE
310
01504B010214000A0000080000336D94403DEE336E79000000790000001B00000000000000000000000000000000006175746F6465736B2D64657369676E2D7061636B6167652E786D6C504B01021400140006080800336D9440D486FD9CA0000000F40000001300000000000000000000000000B20000005B436F6E74656E
310
745F54797065735D2E786D6C504B01021400140006080800336D94406D5A321DEA0000007C010000080000000000000000000000000083010000636F72652E786D6C504B01021400140006080800336D944055019EA25F0000007C000000070000000000000000000000000093020000636E782E786D6C504B010214001400
310
06080800336D9440F9B61F7166010000020300000C00000000000000000000000000170300006662782F636F72652E786D6C504B01021400140006080800336D9440110686BE7E0000009D0000000B00000000000000000000000000A70400006662782F636E782E786D6C504B01021400140006080800336D9440620343E1
310
2C0100001502000031000000000000000000000000004E0500006662782F30334544443243382D394431322D344344372D413237372D3036433135304639314333332F636F72652E786D6C504B01021400140006080800336D9440C8C1CD4554010000330300003000000000000000000000000000C90600006662782F3033
310
4544443243382D394431322D344344372D413237372D3036433135304639314333332F636E782E786D6C504B01021400140006080800336D9440C489DB0A630700009A1B000034000000000000000000000000006B0800006662782F30334544443243382D394431322D344344372D413237372D3036433135304639314333
310
332F6F626A656374732E786D6C504B01021400140006080000336D94400000000000000000000000003500000000000000000000000000201000006662782F30334544443243382D394431322D344344372D413237372D3036433135304639314333332F76657274696365732E62696E504B01021400140006080800336D94
310
40F270F13306000000040000003600000000000000000000000000731000006662782F30334544443243382D394431322D344344372D413237372D3036433135304639314333332F747269616E676C65732E62696E504B01021400140006080000336D94400000000000000000000000003700000000000000000000000000
310
CD1000006662782F30334544443243382D394431322D344344372D413237372D3036433135304639314333332F617474726962757465732E62696E504B01021400140006080800336D9440D5987DFC8F000000410100003600000000000000000000000000221100006662782F30334544443243382D394431322D34434437
310
2D413237372D3036433135304639314333332F6469726563746F72792E786D6C504B01021400140006080800336D9440D09351DCFC000000A00100003B00000000000000000000000000051200006662782F30334544443243382D394431322D344344372D413237372D3036433135304639314333332F7265736F75726365
310
732F636F72652E786D6C504B0506000000000E000E00800400005A1300000000
  0
XRECORD
  5
17
102
{ACAD_REACTORS
330
12
102
}
330
12
100
AcDbXrecord
280
     1
270
     1
271
     1
  0
XRECORD
  5
16
102
{ACAD_REACTORS
330
12
102
}
330
12
100
AcDbXrecord
280
     1
270
     1
271
     1
  0
XRECORD
  5
18
102
{ACAD_REACTORS
330
12
102
}
330
12
100
AcDbXrecord
280
     1
270
     1
271
     1
  0
XRECORD
  5
15
102
{ACAD_REACTORS
330
12
102
}
330
12
100
AcDbXrecord
280
     1
270
     1
271
     1
  0
XRECORD
  5
40E
102
{ACAD_REACTORS
330
22
102
}
330
22
100
AcDbXrecord
280
     1
102
MATERIAL
148
0.0
149
0.0
149
0.0
 93
        0
 94
      127
282
     0
 72
     0
 77
     0
171
     0
175
     0
179
     0
273
     0
  0
XRECORD
  5
24
102
{ACAD_REACTORS
330
22
102
}
330
22
100
AcDbXrecord
280
     1
270
     1
271
     1
  0
XRECORD
  5
23
102
{ACAD_REACTORS
330
22
102
}
330
22
100
AcDbXrecord
280
     1
270
     1
271
     1
  0
XRECORD
  5
BA
102
{ACAD_REACTORS
330
22
102
}
330
22
100
AcDbXrecord
280
     1
 70
     1
 90
1959938040
 71
     1
  1
308B574C-45AB-4C2D-8AB9-3A266BDF56AE
311
504B03040A0000080000336D94403DEE336E79000000790000001B0000006175746F6465736B2D64657369676E2D7061636B6167652E786D6C3C3F786D6C2076657273696F6E3D22312E302220656E636F64696E673D227574662D3822203F3E3C666F726D6174733E3C666F726D61743E687474703A2F2F736368656D612E
311
6175746F6465736B2E636F6D2F64657369676E2D7061636B6167652F323030393C2F666F726D61743E3C2F666F726D6174733E504B0304140006080800336D9440D486FD9CA0000000F4000000130000005B436F6E74656E745F54797065735D2E786D6C7D8EC10E82300C865F65E91D8A1E8C310C0EEA1BF002731658846E
311
D98AC1B77784ABF1D8FE5FBFBF75BBCE937A534CCEB38643598122B6FEE978D0B0485F9C41B54DDD7D022595594E1A469170414C76A4D9A4D207E29CF43ECE46F218070CC6BECC4078ACAA135ACF422C856C0E68EA1BF5669944DDD7BCDE7B1F8E415D77AECB980613C2E4AC91FC167A2B244592486606FC29C8FD7F045B9A
311
EF7053A7E60B504B0304140006080800336D94405DEB2093E90000007C01000008000000636F72652E786D6C8D90E16E832014855F85F01FBDA8B36A90C69AF9047B0102D491563002CB1E7FD8DA64FBB75FF7E6703EEEC961E7EFE58EBEF4E68DB33DA61960A4AD74CAD8B9C7315C4983D199B3CDB9F0CB8691158BEEF12E
311
63CEE6CDC5F590A4B341DB9054EB943E44E1BD0E18C97B5A7AECE5A75E442662480E7FCB56216F62D6197D6D098ED128F43C6254FACF5C8DDE30A75043359E8094977624D5F45693611A6A727AAFE10243DB8C1365F90E7316CCF2BA2F372D82569817400B021529E083965D45BBB225D074002CDFED7FA0B8AA7F42D1D850
311
1647DC27E653D614E4F1C059BE7791C6A3A834F7DEF80F504B0304140006080800336D944055019EA25F0000007C00000007000000636E782E786D6C4DCB3B0E80201045D1AD90E915ED2CF8AC45050C11660C8261F98AB1B07AC9C97D42D718D865D3E909258CFD00CCE24AC6E326A164D74DC0B4128928FF326038472BA1
311
3128B1252AC747C6BAB984FC68F0B87FE8960A5C09FE86CFB69FBA01504B0304140006080800336D94408CBF1B1066010000020300000C0000006662782F636F72652E786D6C8D52ED8E8320107C15C27F043FCE7E0469DAE6FA04F70254A947AA60104C1FFFD68FA6D74BD35C4C90CCECECCE8EF2DDAD6DD0A05CAFAD2970
311
1C318C94296DA54D5DE0E02F648DD14E7067ADFF55869191AD2AF00863C16B6743B740A5355E190FA8B1955A40D9F7CA6354367029705F7EAB56463278A8E8AF5127CBABAC55144740439DE0BD776000CD43C6138BCBF9C6E98C0B1E82AE165657304D5FB47258C42C67D971C5487AD81C4976FAC8C9FEB4CFC9EA336707B6
311
DFAC8FA798D3512CB8D7EDDD5DE994F4AAC222617142584612F615A7DB2CDEA61BC2D65BC6381DCB9F44A1ABFE290ADAF83459ECCEB21EBC829189F8B32D44E4512F07F04305A76388F09A127E0E1A028190BD3C37F73DAE000DAAF4D665C054363CA8413641C15486A687D39985CE5303D8EC659FE44D9FF73DE0034A5383
311
35E9E17A0E7E9CCEE7A94B149D7264F03764AC6B65F330375B7C9C8F412FE5A56DACFB8F9A2EABD2254C3AFEBDE207504B0304140006080800336D94405F93D91D7E0000009D0000000B0000006662782F636E782E786D6C4DCCD10A83201886E15B91FFDC6516E5400D6B7A1FB12C62A6C3E9D8E5AF46073BFAE0E1E3E5DD
311
6773E86DE36B0D5E40792180ACBF8769F58B809C66CC007592C710D2DF0D901F372BE060907C89213F4F9AEC3C66977675AB7F9CD8B0BA37AA3258D141E17AD02DBE1A5261DD3372D3B4A4AD69A090BCF895F63DC2F20B504B0304140006080800336D9440853636AD2D01000015020000310000006662782F363834424641
311
33462D413243412D344345372D394630332D4542383044453231323746362F636F72652E786D6C8D51CB6EC23010FC95C8277A70E2474803728C80922FE80F84C4500B62477E547C7ED74D90DA1B17AF353B333BDA15BBC778CFBE95F3DA9A06D19CA04C99DE0EDA5C1B14C305D728DB49E1AC0D7F682833DDA81A946024C5
311
D5D9382D506F4D5026006AECA016B0F35E0594F577F834C8F75F6AECF22E0660F85B3E75FDADBBAA9CE6D0069E143E380890CD43D28B6455978776CF5BBC67C73D2E8FA777BC6909C7A7434D3E4E8CB2F7B612C52C9422463D2C723D401C7DD1CABD6A92C452043D3EE3F74E75410D48324219262566E493F26D49B77C8349
311
BD25441489FE4F14A7E14551D42670B6C49D651E492A8AB921C560E3F9FE0CA31E9375214BF3565EF56F48929C908AF38AAF610333173600A655B998FA601D6C78753B039DAE67E7AA94A2484782F27B41A8E9A0F207504B0304140006080800336D9440AE6602524C01000033030000300000006662782F36383442464133
311
462D413243412D344345372D394630332D4542383044453231323746362F636E782E786D6CD593BD6E032110845F05D1DFAF4F966371584A912748919683B54DCCC1899F287EFB2C3676DCB84899069D668799D5278EEDBE6743BEC007EDEC48BBBAA504AC744ADBC34853DC571B4A769C79E7E2838D122B66186996296707
311
EFD25224057B914C44D5687B2AA287E092971050CE37897152180C005B2514619E402950E46EC4AF3D785C05C5E94CE211C8DBEB0771D327C818589353386B720767F92C4D0F264AA411218C34C823CCA216293A05E1542B1145DDD5B7AE273BFD26917CE15699BC26B97CA4F9A4BC6C542347D6E090B3103DD22BA6785E80
311
72B12C464B11117273315E3D9C256DE37A285E8DE03DBABBF56A1830EC32E32CEA198A437A101114E57DDBF5553B547DFBDEADB643B75DBD54ED66DBB6ACC976CE26E74CB98431E0DD42A4B3116CA4BC634D1E3FC3577C44698FAC9D3FFF01240228AD573AF78CFFCCA7B9BC6FC4E5F12FE03F504B0304140006080800336D
311
94403EAB39EAA305000080100000340000006662782F36383442464133462D413243412D344345372D394630332D4542383044453231323746362F6F626A656374732E786D6CAD57DB6EDB3810FD1541FBB2FBE0BB93260B45852F4D6114698B1A2DF6C180414994C20D250A14953AFBF57B285237D74EBD8BBE5816351CCE
311
9C3973A1F7F69072E799CA8289ECCE9D0CC7AE43B350442C4BEEDC52C5831BD779EB7B5208D511739D8CA4F4CED5CBAEEF255294B95D8A684C4AAE8E56EF977F39454833EA3A21274571E716E1234DC990944A44B4781A46449161121F8693A111ECAB4D24C91F8F94E644D24CC152AC67D0E218A326FDD7B13BF2BD91FEEE
311
7BFAD74ACDCE4B8D2A7FFAE7B3AC50240B7F38EC48CD6C325FBF9B5EDD0EAEE6F3D9607E3D9D0C96F7CBF560F266365E5DAF56B78B77B738B850129AAC2592C6AEFF1ED848167A23F3C9F74A96A9D9D48AD8008D247D663A52AE3F7526DEC8C834DE59274F991F8A2CA3618515D0A8FCB3AA239AD32C42CC192D605907A171
311
FF75A271EC7C9EE9777B6477F93204BA3B3A8A6ADBEB67D75211FC0D178A4B18240BAA1968B0B48E1AAE8E5B840321B8FDC60A27258A4A46B8C35920897C717D886A11DFEBA9D14C963A1BB407AE8F2898CF7DBA208D7ECEF35356C625E79AC6AE5F65C11EB942555159C6FEA1B2B5BE8B0C6C42AC341B6EAC43EA25A7AE7F
311
6B287273C42603A413739220E47053EF9C4D8F1C5DE93CDDAC5DFFC37D70D8EADC3D7D782E454EA5D2F401B5EAC0D54F8D92B5697251E4F406F7C89416942F40FE2352BD35057193EC303FCCED294A92AC88854C111B67EC0CC6F8193B93EA57FFEFFCF346CDE67EF4CEE189606BA87E019E7D1FBAB1ECC0E97BCF20BC9033
311
EBDA36241C65E38165004893C4E1024BA8C3717070FD0DAA1CAA327611EE4FE032CC7DC65F6F64D5A0505427759E19B03C2A8B171468C05631126618F25B03DB38FD50CEAA83ADD83978AF7E095D17EBED876D296312D2079BD36B1AB38C29B4B896375D837A98F73C7AA22FDF858CE0E88F786FBB78A7F6A802686BCC35F0
311
495DD3F54B7B72EF8010FB12A1CB8DF79313E0846EAC1DFD0FAC0829E724A3A2ACCF7DB57FA06D188875B26B26370DA66D2C208DF972948368D2A164B906B1E9564DD11C9EF1EEEBE6231809792E02C25BA1A02DBDA1E042EE8397BDA94A2791FED6A7B68560A4B580ED558ED4E96F31DF472C8ECB0235F004ACDF36AB6EE8
311
74554085A8B59A6499C37DE4169196B3B55E346B49D04845B667689B48BB930774F503514B804AE1398B0BCAE33DE3BC4CF731E36846FB94E467E0F8FFF607659AEF492ACA4C9DD1DD331DCDA16F7B8FBCC577A2C247D7DF56CFC112A537A2511BE69EB06E2527B0EA857636BE595EBD99AF06F3ABC572305F4DD7839BC5F2
311
76305B4CAFAF97EBFBABEBC5BB3A4E46B9EFD59DA69BD088123A9B574A66C3F77583F4B135C0F51F882A76EF4D76D6CFAF9B2146616F843D6897CDC645F48CB18F463F57D04A9E54B449734E539A29A253E841FFE15F08C68C9E31667D9392845EA0E5D3FBED913358B960DF679DEEF4FBD15EBBBAD2097952897A2CD32023
311
8C1F6D4C0C92C33C4B2C7E754C9AA7E933F5AB7EB381C1605A08CE2294C1C849A848A94231BCA007C99416A05E77A48FECD5E382DDCF66405424E0B4B6E4916046E605D202D42A43D55F777EC34CA7C7AA3B17DD76F8841F5B295C079CB97331A32B16D26218A03FEB49A8520E2E750779CCFD244B38466DB3A9796F76696C
311
7A1DB911B9647CB27E990A6E1D4019C93136601E42742A637CAFB2CD7E0FFF93E3B5390E51F81B94AAF1A55D689CA98E418A1AA7EC650133CC933DFA80447DDDADC9B092E92172D125EB551218AD034564525D14B47DD6A4C5FAF308038AB3F9E4E4BC4C10CBCB350D2405994B9DE06011586175E64481AAAB3F779FA5C045
311
3675EE1928E0FC7EB8B9FE63B712692A32B3B45BD8EBB0B37DC4E536DAA138507D2B2976D3F164BAAB6E03F682B20F484187242A9EB080C84AD600DD0B3F7869AE8CE843E6432337D2A13862E866EDD8C63687524B976E6DD5E060EEC8A8831CD2374A9D315D81FCD50BC1A812850912A3BCFF2F504B030414000608000033
311
6D9440000000000000000000000000350000006662782F36383442464133462D413243412D344345372D394630332D4542383044453231323746362F76657274696365732E62696E504B0304140006080800336D9440F270F1330600000004000000360000006662782F36383442464133462D413243412D344345372D3946
311
30332D4542383044453231323746362F747269616E676C65732E62696E636660600000504B0304140006080000336D9440000000000000000000000000370000006662782F36383442464133462D413243412D344345372D394630332D4542383044453231323746362F617474726962757465732E62696E504B0304140006
311
080800336D9440D5987DFC8F00000041010000360000006662782F36383442464133462D413243412D344345372D394630332D4542383044453231323746362F6469726563746F72792E786D6C858F410EC2201045AF4266AF15DDB800BA74E7C21B903225242D6328188F2FA5C4183471359997F9FF81E89FF3C41E181647
311
5E02DF1F80A11FC8386F25A438EECEC07A250251FC3803E6F58C12560C4AD840E95E91C151A72936F496F35732D860FE635F62C8F2DA16B505C545B74125BAA2FA9E05D7CC053D063734D5C7665FD55B6B8D15D5E9BFEAFD8490FFA45E504B0304140006080800336D9440D906FE34FC000000A00100003B0000006662782F
311
36383442464133462D413243412D344345372D394630332D4542383044453231323746362F7265736F75726365732F636F72652E786D6C8D50DB6E842010FD15C33B0A6AAD1A64E39AFA05FD0182B396EC0A864BD3CF2FAC3669DFFA32333997CCC96197AFED917D8275CAE801D19CA00CB4348BD2EB8082BFE1166517CEAC
311
31FE970C655A6C30A00423CE566BC27E42D2680FDA47549B054E5038071E65F2118F0139F9019BC845F051E1EEF92EE45DAC90D33CD251C799F33606C88E2769226EC199602538561C2C6721A8E5D4A825FE54370516714A1A524FCD8CAB6B37E17A7E69F0388F0D7E7D6BC8958C5D3BCD9415C9CC9957DB4F466941785810
311
2F092D31A97149DE69D5D7B4AF3A4CDA9E105624F91F53D8977F9A82D2BE2ACFB887CDC5AC31C893E0AC487DC5F52C33EED42DFF06504B010214000A0000080000336D94403DEE336E79000000790000001B00000000000000000000000000000000006175746F6465736B2D64657369676E2D7061636B6167652E786D6C50
311
4B01021400140006080800336D9440D486FD9CA0000000F40000001300000000000000000000000000B20000005B436F6E74656E745F54797065735D2E786D6C504B01021400140006080800336D94405DEB2093E90000007C010000080000000000000000000000000083010000636F72652E786D6C504B01021400140006
311
080800336D944055019EA25F0000007C000000070000000000000000000000000092020000636E782E786D6C504B01021400140006080800336D94408CBF1B1066010000020300000C00000000000000000000000000160300006662782F636F72652E786D6C504B01021400140006080800336D94405F93D91D7E0000009D
311
0000000B00000000000000000000000000A60400006662782F636E782E786D6C504B01021400140006080800336D9440853636AD2D0100001502000031000000000000000000000000004D0500006662782F36383442464133462D413243412D344345372D394630332D4542383044453231323746362F636F72652E786D6C
311
504B01021400140006080800336D9440AE6602524C010000330300003000000000000000000000000000C90600006662782F36383442464133462D413243412D344345372D394630332D4542383044453231323746362F636E782E786D6C504B01021400140006080800336D94403EAB39EAA3050000801000003400000000
311
000000000000000000630800006662782F36383442464133462D413243412D344345372D394630332D4542383044453231323746362F6F626A656374732E786D6C504B01021400140006080000336D94400000000000000000000000003500000000000000000000000000580E00006662782F36383442464133462D413243
311
412D344345372D394630332D4542383044453231323746362F76657274696365732E62696E504B01021400140006080800336D9440F270F13306000000040000003600000000000000000000000000AB0E00006662782F36383442464133462D413243412D344345372D394630332D4542383044453231323746362F747269
311
616E676C65732E62696E504B01021400140006080000336D94400000000000000000000000003700000000000000000000000000050F00006662782F36383442464133462D413243412D344345372D394630332D4542383044453231323746362F617474726962757465732E62696E504B01021400140006080800336D9440
311
D5987DFC8F0000004101000036000000000000000000000000005A0F00006662782F36383442464133462D413243412D344345372D394630332D4542383044453231323746362F6469726563746F72792E786D6C504B01021400140006080800336D9440D906FE34FC000000A00100003B000000000000000000000000003D
311
1000006662782F36383442464133462D413243412D344345372D394630332D4542383044453231323746362F7265736F75726365732F636F72652E786D6C504B0506000000000E000E0080040000921100000000
310
504B03040A0000080000336D94403DEE336E79000000790000001B0000006175746F6465736B2D64657369676E2D7061636B6167652E786D6C3C3F786D6C2076657273696F6E3D22312E302220656E636F64696E673D227574662D3822203F3E3C666F726D6174733E3C666F726D61743E687474703A2F2F736368656D612E
310
6175746F6465736B2E636F6D2F64657369676E2D7061636B6167652F323030393C2F666F726D61743E3C2F666F726D6174733E504B0304140006080800336D9440D486FD9CA0000000F4000000130000005B436F6E74656E745F54797065735D2E786D6C7D8EC10E82300C865F65E91D8A1E8C310C0EEA1BF002731658846E
310
D98AC1B77784ABF1D8FE5FBFBF75BBCE937A534CCEB38643598122B6FEE978D0B0485F9C41B54DDD7D022595594E1A469170414C76A4D9A4D207E29CF43ECE46F218070CC6BECC4078ACAA135ACF422C856C0E68EA1BF5669944DDD7BCDE7B1F8E415D77AECB980613C2E4AC91FC167A2B244592486606FC29C8FD7F045B9A
310
EF7053A7E60B504B0304140006080800336D94405429E3F0EA0000007C01000008000000636F72652E786D6C8D90DD8E832010855F85708FF2A3560DD264AB6FB02F40805AD20A4660B38FBFD8DA64F76EAF6672E67C3393C3CFDFCB037C992D58EF06480A0C8171CA6BEBE601A678452D0467C137EFE32F1B044E2E6680BB
310
0C059F379FD64352DE45E362569DD7E61065082642A01EB919605037B3C842A6981DE15EAC52DDE56C0AF2EE329C92D5E075C4EABCCF5EADD9A0A8BB7A6A5873414DFB7141152327D4B5E3094D94B5D5588F151D275EEEB0E0D12EEFFB6A33321A0D05C584225C218A3F09EB2BD2B30EE1B6C79897BBFD0F9456FD4F285917
310
193DDE7D61010A921F790E042FF72C72790695EB9E9BF801504B0304140006080800336D944055019EA25F0000007C00000007000000636E782E786D6C4DCB3B0E80201045D1AD90E915ED2CF8AC45050C11660C8261F98AB1B07AC9C97D42D718D865D3E909258CFD00CCE24AC6E326A164D74DC0B4128928FF326038472B
310
A13128B1252AC747C6BAB984FC68F0B87FE8960A5C09FE86CFB69FBA01504B0304140006080800336D9440CEA7027A66010000020300000C0000006662782F636F72652E786D6C8D52ED8E8230107C95A6FF4BF952D1949A9CF806F702152AD7082D292DF1F16FF9309C17630C49696676766707D8F1DE366890B65746E738
310
0A428CA42E4DA5749D63EFAE24C3E8C89935C6FD29C3488B56E678843167B535BE5BA0D26827B503549B4A2EA0E87BE9302A1BB8E4B82F7F642B02E11D54F4B7A013E54DD4328802A0A18EB3DE593080E621E389F9F5726774C639F35E550BAB2A98A6AE4A5ACC37FBCD799B6C4F649B7D9D489A443BB2CF8A1D39C7499616
310
9B228D8B33A3A39833A7DA87BBD24AE16485791C463109531287DF517248A343B2276176084346C7F22791EFAA0F455E6997C48BDD59D6631E819189F8B72D44E4502F06F04339A36388F09A127E0E1A0281909DB8348F3D6E000DB274C6A6C054C6AFD4201A2F616A88A687D19985CE5303D8EC659FF84D9FF73DE0030A5D
310
8335E1E07AF16E9CCEE6A94B149DB4647077A48D6D45B39A9B2DAEE73AE8A5BC348DB19FA8E9B22A5DC2A4E3DFCB7F01504B0304140006080800336D9440183B4F727C0000009D0000000B0000006662782F636E782E786D6C4DCCD10AC2201805E05791FFDEADD448411DC5F23D467343723A4C478F9F8B5D74750E1F8723
310
BBCFE2D166D3DBC5A0E0DC9C00D9F08CA30BB3829227CC01755AA618F3DF0C501816AB6067D0724EB1AC078D761A8ACF55BD0BAF03AF86893BA3045F846198117AC3A27F086C28E5A416D3730AAD96EDEFA9E67EACBF504B0304140006080800336D944022581A0B2A01000015020000310000006662782F37463439423433
310
322D353946342D343233412D394445392D4633333832444539464438332F636F72652E786D6C8D51DB6EC3200CFD15C453F74042026B938A506DEAF205FB011A6887DA40C465EAE7CF5952697BEB8B6DD9E71C1FD9E2701F6FE8DB8468BDEB7055508C8C1BBCB6EED2E19CCEA4C1E82045F03EFD8161E4D4683A3CB7B11497
310
E0F3B4B606EF927109BACE6BB336558C266134DCA0E8701CBECCA80A951320E2B598D47055175354058C0127454C010CA065C91CB1DCF5BC7DE7AC26AF6DCF09AFD91B698F1F2DE9196B6A28FA63C344B910A5C8D9EA956E35D8B1676BC2B32233598A64C787FD2118958CC6B2A6554D282735FDACD89E577BD612DAEC2915
310
E50CFF47CA937E9294AD4BAC5EED2EB4886525CA652085F6F9747B9831F7C98784E67D9B6886172C6941E9AEE55B08A25CB0700110DDF25534261FE0C29BEB09E06C55DE7229CAF949907E3F08797EA8FC01504B0304140006080800336D9440C8C1CD455401000033030000300000006662782F37463439423433322D3539
310
46342D343233412D394445392D4633333832444539464438332F636E782E786D6CBD93CD6EC32010845F0571F7BF15B91126520F7D821E7AC5B04969305880ABE6EDBB2424CD25874A552FC89A1D66569F30DB7DCD867C820FDAD99136654D0958E994B68791AE715F0C94EC38F3CEC53B1B2556CC30D22453CE0EDEAD4B96
310
14ECC56A22AA46DB63163D04B77A0901E57493182785C100B0C58A22CC1328058ADC8CF8B5078FABA0389D487C07F2F2FC46DCF401320656A514CEAAD4C1593A73D39D8912694408230DF21D66518A353A05E1582A1145D994D7AE073BFD249174E15AB97A4D52F948D34979DEA8448EACC22167217AA4974DF1B400E56259
310
8C962222E4EA6CBC78385BB58D9B3E7B3582F7E8EEDACD3060D879C659D4336487F4202228CADBBA698BBA2FDAFAB5E9B67DB3ED9E8A7AD8D635AB929DB3C939932F610C78B710E96C041B296F5895C68FF0651F51DA236BE74FBF00890072EB85CE2DE32FF9349BAEEFFF914F757EDF88CBE35FC0BF01504B030414000608
310
0800336D944039290A6862070000991B0000340000006662782F37463439423433322D353946342D343233412D394445392D4633333832444539464438332F6F626A656374732E786D6CED595B73A33614FE2B0C7D691F8C8D2F69D221741C7BB3E3E9A4DD597777FAE019460699A81182914436E9AFEFD1050CC424B84DDF
310
FA6003423A3AE73B571D829F9F32EA3C622E48CEAE5DDF9BB80E66719E10965EBBA53C8C2E5DE7E730E0792E1BD35C87A10C5FBB6AD80D8394E7656187127C4025959DD1DB9B3F1C1163865D27A648886B57C4F738431E2A659E60F1E02548222F3D3C79BE6726B6C9A61C15F71DA205E29849E014C61950710C537EFB71E2
310
8EC360ACDE8781FAB7B3668366CDFB678DB5D46D2E091312B1F8054B1D32B3412CCDFCF9FAC37471355ACCE7B3D1FC62EA8F6E6E6FD623FFC7D96475B15A5D2D3F5C017BFB3CA756A604179825A0BF6737F483B17A538B6E1138C5759C3386630D2440A5C5EA122458C0560DF826ED475F49D478AD256C3CCFD57BCB426378
310
D6A6D2376B18102DBA2088DDAE92B8BA36E5CBF77F82E0628851728125702B2407ED5A783878851B4E82B1190D83FD5117443819929813441D4AF61C71500A4C5553C2C02CB06494737020E52809B4E6CCEBB66D8167BEED3AA7B83C94942ACF7043ED5811B81F96427346FEC2FCC87D1319E009A42D099397964BF95C6037
310
BC0AC67A300CD46536B52F0D90CE81A2546844CCDB8EA02BE5FA9BB51BFE72BB7FDAAA70707AF382E705E652199DD2A3E60B0CD95E154A765B7F90E6D40210C6806A571E41F90CC8FF0AD1E3C80AE88D93A7F9D3DCCE951C3171C87906BA7126CE68027F13C7D7FFEABE71178CEBC56DEDF5E1096EAAA0BAFCF778B665D058
310
59FE1B7086C123187CCE67F6D5364614ECF98E300048198943731882D07ED83FB9E1060227047A588568E883C8C0EE23DC06634BE6A895CABDACD73140D4EE311BA224804D5B24B0D1A3A78F903D38898F6A6A8AD807EFE25DCC75B9DEFEB22DF901C5F8CEFAF41A1F082312B2E669865A98B7247AC0CFDF729E80A02FF1DE
310
36F1CEEC5602D056982BE0D30A04F570DCB9B5410CEBD25C859BE08D1D400895AB1BF4EF888831A588E1BCACF6ADA39B32D4DAE36DCDE0865303F16CDA31618E1F89AA2AC0698E335A8C42DE8F392914886EF8D14856074DAF47BA2F9B5FC122EBF93DB3360C422F43F4771DB44EE0D0B2EC0A690B442DF0FE18CEE39CE63C
310
DA3F4726D2B9504B001B6D6FF9DA220AB1DE284951010FD27E578594D4481B25E4702805C4D5132C7EDDAC9AE630F166FEC269FE779C710ED1167C1771EB779D3D2292A114470794F46DD7DCADA62D34C91ED21C1F28C8451E897C8E908C26094ECF81E62CE257EF4A3DA5B910846101F9EA24F84D34261E0412A3CD8A65A5
310
D50ED044441996889E838022D303AE4E3BBAC68DA174789BC7DA7A5FD35893E87F64111C412D99B38840290A39E44DC67D6F0131A48DAE41B9832F585B455B8B414B2821E2E7E81B26E9BD3C077543BE07F7188E24A58CF202C560D603C8BEF015A5D40EEF7B143FA8FC11C5257D2F0311981E2242699945F0230C4E1E435C
310
BB0E4CAFA2D0206E629FC419146548967CC826178BC98B7D4CCDD00D818D8D0E8442D88E3254F4A0DE0A88BA1E716AF02DF51EA5EECBAC885096976C90A178B3AE3759F25DB52AB203F955A522948D15614B300C08937556AD623698BA0EACE0463A503D4702650535A7B037128F5F7B93A6DCBB01B77EFABE1B6450F8F568
310
AF1951E7150C96C7566120BE2119DFBBE1565F4737507F273839A6FAAAD66C568080988AE4252756455F3650DED81ACD0DEF9014BB8F26EB56D72F1B0FBA1FC118D640ED522FDC28A033CC245295C99DBAA19F1184E0160D33BE5139F51C2ACB24D15523A2B7A44F9DAD32A2B56946BCE21EB33C831FDB1116D332C13B9488
310
87E84ED2684B14EB564A2F2315C6AF0AF8DBC76D071E181920D22755E0E16F9DB57674A5CAA59344E47D99ED192210045BA2A546375EC152AB914ACBF5559D29A0EE0203B32A9EFF7FB268B623FE3F59A4D630FEDDC982E67B448FD1A691CD6365D6679D02EAF4A4A8BCC72940771D6AAA751231B9DC8A6F7D2982985805F9
310
C1C55815330CC13E8EFF71D2EE4B8266BB0EFFE7256DFF45C1715652694D564DAA1385EBA699C26693CB9BC58FF3D568BE58DE8CE6ABE97A74B9BCB91ACD96D38B8B9BF5EDE262F9A14653FB6918D4B14CA72E783631AD1A564F160368CA8A9C92040EF389936208F9128EF403BAE73CC3027267B3D79DD89EFC80D58FA6CD
310
29D19EE28A937B04FD612A20AB0346652CDBE3CE77D0999470CEBE76A167E43DC09FB54AD781C473ED42A74092180B6F0F5D26D5CFD3C421E3EAD46F89013E88A52A239A45F573BD4A61D38AFEF5942159C0CAD56A6140DD5640F3ABD5A0D0BC599EE2B304AFD8719084DB7D29A15833B21C076A61F43647F51BD928610F76
310
EB2770DDD7C5F23D3DA785C8A02F06AF1A81A13A9288A7BADDAD18B32C2DD79FC6D0667336BF39052D53D0E5704A238EC1984B554F81158155589A059260AAAB9F769F780E5F7832471745CEF74F97173FEC567996E5CC0CED9670284BE03B91B3BD87AF3EC90E6A07AC7AEB62379DF8D39DEE69DB367BB447027BAA288281
310
AA965082744C0EECF2457FCA762FC74A159DE99BB56383E802886ADB7DD1E235DFB81CF021F53545798CF6F34ADA57DBDA633D156C8243433AFC1B504B0304140006080000336D9440000000000000000000000000350000006662782F37463439423433322D353946342D343233412D394445392D46333338324445394644
310
38332F76657274696365732E62696E504B0304140006080800336D9440F270F1330600000004000000360000006662782F37463439423433322D353946342D343233412D394445392D4633333832444539464438332F747269616E676C65732E62696E636660600000504B0304140006080000336D94400000000000000000
310
00000000370000006662782F37463439423433322D353946342D343233412D394445392D4633333832444539464438332F617474726962757465732E62696E504B0304140006080800336D9440D5987DFC8F00000041010000360000006662782F37463439423433322D353946342D343233412D394445392D463333383244
310
4539464438332F6469726563746F72792E786D6C858F410EC2201045AF4266AF15DDB800BA74E7C21B903225242D6328188F2FA5C4183471359997F9FF81E89FF3C41E1816475E02DF1F80A11FC8386F25A438EECEC07A250251FC3803E6F58C12560C4AD840E95E91C151A72936F496F35732D860FE635F62C8F2DA16B505
310
C545B74125BAA2FA9E05D7CC053D063734D5C7665FD55B6B8D15D5E9BFEAFD8490FFA45E504B0304140006080800336D94404782CD68FC000000A00100003B0000006662782F37463439423433322D353946342D343233412D394445392D4633333832444539464438332F7265736F75726365732F636F72652E786D6C8D50
310
596E833010BD0A9A7F83CD16828C23A570835EC03293D44AB09197AAC7AF09546AFFFA33337A8BE6E9F1CBD7F2CC3ED1796DCD002CA790A15176D6E63E400C37D2417611DC591B7EC9203372C101361804BF3B1BD70352D6043421A1C6CE7880D27B0C90A9673A06F0EA031799CB1892C23FF255AA87BC63CEF244279DE03E
310
B81420DB9F6C1384436FA353E879B1B382C7A8E743A3E7F453DF343A10CDB999DAAABD92B6BBBE91BA622772EEC61399CAAAABC766ACCB71E2C566163CE8E527A3722803CE204ACA4A426B52D27756F535EBAB33A15D4F292F36F91F535CE77F9AA236A12A8FB8BBCD836029C88B10BCD8FA4AEB5566DA5BB7E21B504B0102
310
14000A0000080000336D94403DEE336E79000000790000001B00000000000000000000000000000000006175746F6465736B2D64657369676E2D7061636B6167652E786D6C504B01021400140006080800336D9440D486FD9CA0000000F40000001300000000000000000000000000B20000005B436F6E74656E745F547970
310
65735D2E786D6C504B01021400140006080800336D94405429E3F0EA0000007C010000080000000000000000000000000083010000636F72652E786D6C504B01021400140006080800336D944055019EA25F0000007C000000070000000000000000000000000093020000636E782E786D6C504B0102140014000608080033
310
6D9440CEA7027A66010000020300000C00000000000000000000000000170300006662782F636F72652E786D6C504B01021400140006080800336D9440183B4F727C0000009D0000000B00000000000000000000000000A70400006662782F636E782E786D6C504B01021400140006080800336D944022581A0B2A01000015
310
02000031000000000000000000000000004C0500006662782F37463439423433322D353946342D343233412D394445392D4633333832444539464438332F636F72652E786D6C504B01021400140006080800336D9440C8C1CD4554010000330300003000000000000000000000000000C50600006662782F37463439423433
310
322D353946342D343233412D394445392D4633333832444539464438332F636E782E786D6C504B01021400140006080800336D944039290A6862070000991B00003400000000000000000000000000670800006662782F37463439423433322D353946342D343233412D394445392D4633333832444539464438332F6F626A
310
656374732E786D6C504B01021400140006080000336D944000000000000000000000000035000000000000000000000000001B1000006662782F37463439423433322D353946342D343233412D394445392D4633333832444539464438332F76657274696365732E62696E504B01021400140006080800336D9440F270F133
310
060000000400000036000000000000000000000000006E1000006662782F37463439423433322D353946342D343233412D394445392D4633333832444539464438332F747269616E676C65732E62696E504B01021400140006080000336D94400000000000000000000000003700000000000000000000000000C810000066
310
62782F37463439423433322D353946342D343233412D394445392D4633333832444539464438332F617474726962757465732E62696E504B01021400140006080800336D9440D5987DFC8F0000004101000036000000000000000000000000001D1100006662782F37463439423433322D353946342D343233412D39444539
310
2D4633333832444539464438332F6469726563746F72792E786D6C504B01021400140006080800336D94404782CD68FC000000A00100003B00000000000000000000000000001200006662782F37463439423433322D353946342D343233412D394445392D4633333832444539464438332F7265736F75726365732F636F72
310
652E786D6C504B0506000000000E000E0080040000551300000000
  0
XRECORD
  5
27
102
{ACAD_REACTORS
330
22
102
}
330
22
100
AcDbXrecord
280
     1
270
     1
271
     1
  0
XRECORD
  5
26
102
{ACAD_REACTORS
330
22
102
}
330
22
100
AcDbXrecord
280
     1
270
     1
271
     1
  0
XRECORD
  5
28
102
{ACAD_REACTORS
330
22
102
}
330
22
100
AcDbXrecord
280
     1
270
     1
271
     1
  0
XRECORD
  5
25
102
{ACAD_REACTORS
330
22
102
}
330
22
100
AcDbXrecord
280
     1
270
     1
271
     1
  0
XRECORD
  5
409
102
{ACAD_REACTORS
330
408
102
}
330
408
100
AcDbXrecord
280
     1
102
ACAD_ROUNDTRIP_2012_MLEADER_STYLE
298
     1
  0
CELLSTYLEMAP
  5
407
102
{ACAD_REACTORS
330
3B3
102
}
330
3B3
100
AcDbCellStyleMap
 90
        3
300
CELLSTYLE
  1
TABLEFORMAT_BEGIN
 90
        5
170
     1
 91
        0
 92
    32768
 62
   257
 93
        1
300
CONTENTFORMAT
  1
CONTENTFORMAT_BEGIN
 90
        0
 91
        0
 92
      512
 93
        0
300

 40
0.0
140
1.0
 94
        5
 62
     0
340
55
144
0.25
309
CONTENTFORMAT_END
171
     0
 94
        0
309
TABLEFORMAT_END
  1
CELLSTYLE_BEGIN
 90
        1
 91
        1
300
_TITLE
309
CELLSTYLE_END
300
CELLSTYLE
  1
TABLEFORMAT_BEGIN
 90
        5
170
     1
 91
        0
 92
        0
 62
   257
 93
        1
300
CONTENTFORMAT
  1
CONTENTFORMAT_BEGIN
 90
        0
 91
        0
 92
      512
 93
        0
300

 40
0.0
140
1.0
 94
        5
 62
     0
340
55
144
0.18
309
CONTENTFORMAT_END
171
     0
 94
        0
309
TABLEFORMAT_END
  1
CELLSTYLE_BEGIN
 90
        2
 91
        1
300
_HEADER
309
CELLSTYLE_END
300
CELLSTYLE
  1
TABLEFORMAT_BEGIN
 90
        5
170
     1
 91
        0
 92
        0
 62
   257
 93
        1
300
CONTENTFORMAT
  1
CONTENTFORMAT_BEGIN
 90
        0
 91
        0
 92
      512
 93
        0
300

 40
0.0
140
1.0
 94
        2
 62
     0
340
55
144
0.18
309
CONTENTFORMAT_END
171
     0
 94
        0
309
TABLEFORMAT_END
  1
CELLSTYLE_BEGIN
 90
        3
 91
        2
300
_DATA
309
CELLSTYLE_END
  0
XRECORD
  5
43F
102
{ACAD_REACTORS
330
3B3
102
}
330
3B3
100
AcDbXrecord
280
     1
102
ACAD_ROUNDTRIP_PRE2007_TABLESTYLE
 90
      512
 91
        0
  1

 92
      512
 93
        0
  2

 94
      512
 95
        0
  3

  0
XRECORD
  5
41A
102
{ACAD_REACTORS
330
419
102
}
330
419
100
AcDbXrecord
280
     1
102
RTVSPropertyOp0
 70
     1
102
RTVSPropertyOp1
 70
     1
102
RTVSPropertyOp2
 70
     1
102
RTVSPropertyOp3
 70
     1
102
RTVSPropertyOp4
 70
     1
102
RTVSPropertyOp5
 70
     1
102
RTVSPropertyOp6
 70
     1
102
RTVSPropertyOp7
 70
     1
102
RTVSPropertyOp8
 70
     1
102
RTVSPropertyOp9
 70
     1
102
RTVSPropertyOp10
 70
     1
102
RTVSPropertyOp11
 70
     1
102
RTVSPropertyOp12
 70
     1
102
RTVSPropertyOp13
 70
     1
102
RTVSPropertyOp14
 70
     1
102
RTVSPropertyOp15
 70
     1
102
RTVSPropertyOp16
 70
     1
102
RTVSPropertyOp17
 70
     1
102
RTVSPropertyOp18
 70
     1
102
RTVSPropertyOp19
 70
     1
102
RTVSPropertyOp20
 70
     1
102
RTVSPropertyOp21
 70
     1
102
RTVSPropertyOp22
 70
     1
102
RTVSPropertyOp23
 70
     1
102
RTVSPropertyOp24
 70
     1
102
RTVSPropertyOp25
 70
     1
102
RTVSPropertyOp26
 70
     1
102
RTVSPropertyOp27
 70
     1
102
RTVSPropertyOp28
 70
     1
102
RTVSPropertyOp29
 70
     1
102
RTVSPropertyOp30
 70
     1
102
RTVSPropertyOp31
 70
     1
102
RTVSPropertyOp32
 70
     1
  0
XRECORD
  5
418
102
{ACAD_REACTORS
330
417
102
}
330
417
100
AcDbXrecord
280
     1
102
RTVSPropertyOp0
 70
     1
102
RTVSPropertyOp1
 70
     1
102
RTVSPropertyOp2
 70
     1
102
RTVSPropertyOp3
 70
     1
102
RTVSPropertyOp4
 70
     1
102
RTVSPropertyOp5
 70
     1
102
RTVSPropertyOp6
 70
     1
102
RTVSPropertyOp7
 70
     1
102
RTVSPropertyOp8
 70
     1
102
RTVSPropertyOp9
 70
     1
102
RTVSPropertyOp10
 70
     1
102
RTVSPropertyOp11
 70
     1
102
RTVSPropertyOp12
 70
     1
102
RTVSPropertyOp13
 70
     1
102
RTVSPropertyOp14
 70
     1
102
RTVSPropertyOp15
 70
     1
102
RTVSPropertyOp16
 70
     1
102
RTVSPropertyOp17
 70
     1
102
RTVSPropertyOp18
 70
     1
102
RTVSPropertyOp19
 70
     1
102
RTVSPropertyOp20
 70
     1
102
RTVSPropertyOp21
 70
     1
102
RTVSPropertyOp22
 70
     1
102
RTVSPropertyOp23
 70
     1
102
RTVSPropertyOp24
 70
     1
102
RTVSPropertyOp25
 70
     1
102
RTVSPropertyOp26
 70
     1
102
RTVSPropertyOp27
 70
     1
102
RTVSPropertyOp28
 70
     1
102
RTVSPropertyOp29
 70
     1
102
RTVSPropertyOp30
 70
     1
102
RTVSPropertyOp31
 70
     1
102
RTVSPropertyOp32
 70
     1
  0
XRECORD
  5
426
102
{ACAD_REACTORS
330
425
102
}
330
425
100
AcDbXrecord
280
     1
102
RTVSPropertyOp0
 70
     1
102
RTVSPropertyOp1
 70
     1
102
RTVSPropertyOp2
 70
     1
102
RTVSPropertyOp3
 70
     1
102
RTVSPropertyOp4
 70
     1
102
RTVSPropertyOp5
 70
     1
102
RTVSPropertyOp6
 70
     1
102
RTVSPropertyOp7
 70
     1
102
RTVSPropertyOp8
 70
     1
102
RTVSPropertyOp9
 70
     1
102
RTVSPropertyOp10
 70
     1
102
RTVSPropertyOp11
 70
     1
102
RTVSPropertyOp12
 70
     1
102
RTVSPropertyOp13
 70
     1
102
RTVSPropertyOp14
 70
     1
102
RTVSPropertyOp15
 70
     1
102
RTVSPropertyOp16
 70
     1
102
RTVSPropertyOp17
 70
     1
102
RTVSPropertyOp18
 70
     1
102
RTVSPropertyOp19
 70
     1
102
RTVSPropertyOp20
 70
     1
102
RTVSPropertyOp21
 70
     1
102
RTVSPropertyOp22
 70
     1
102
RTVSPropertyOp23
 70
     1
102
RTVSPropertyOp24
 70
     1
102
RTVSPropertyOp25
 70
     1
102
RTVSPropertyOp26
 70
     1
102
RTVSPropertyOp27
 70
     1
102
RTVSPropertyOp28
 70
     1
102
RTVSPropertyOp29
 70
     1
102
RTVSPropertyOp30
 70
     1
102
RTVSPropertyOp31
 70
     1
102
RTVSPropertyOp32
 70
     1
  0
XRECORD
  5
42E
102
{ACAD_REACTORS
330
42D
102
}
330
42D
100
AcDbXrecord
280
     1
102
RTVSPropertyOp0
 70
     1
102
RTVSPropertyOp1
 70
     1
102
RTVSPropertyOp2
 70
     1
102
RTVSPropertyOp3
 70
     1
102
RTVSPropertyOp4
 70
     1
102
RTVSPropertyOp5
 70
     1
102
RTVSPropertyOp6
 70
     1
102
RTVSPropertyOp7
 70
     1
102
RTVSPropertyOp8
 70
     1
102
RTVSPropertyOp9
 70
     1
102
RTVSPropertyOp10
 70
     1
102
RTVSPropertyOp11
 70
     1
102
RTVSPropertyOp12
 70
     1
102
RTVSPropertyOp13
 70
     1
102
RTVSPropertyOp14
 70
     1
102
RTVSPropertyOp15
 70
     1
102
RTVSPropertyOp16
 70
     1
102
RTVSPropertyOp17
 70
     1
102
RTVSPropertyOp18
 70
     1
102
RTVSPropertyOp19
 70
     1
102
RTVSPropertyOp20
 70
     1
102
RTVSPropertyOp21
 70
     1
102
RTVSPropertyOp22
 70
     1
102
RTVSPropertyOp23
 70
     1
102
RTVSPropertyOp24
 70
     1
102
RTVSPropertyOp25
 70
     1
102
RTVSPropertyOp26
 70
     1
102
RTVSPropertyOp27
 70
     1
102
RTVSPropertyOp28
 70
     1
102
RTVSPropertyOp29
 70
     1
102
RTVSPropertyOp30
 70
     1
102
RTVSPropertyOp31
 70
     1
102
RTVSPropertyOp32
 70
     1
  0
XRECORD
  5
420
102
{ACAD_REACTORS
330
41F
102
}
330
41F
100
AcDbXrecord
280
     1
102
RTVSPropertyOp0
 70
     1
102
RTVSPropertyOp1
 70
     1
102
RTVSPropertyOp2
 70
     1
102
RTVSPropertyOp3
 70
     1
102
RTVSPropertyOp4
 70
     1
102
RTVSPropertyOp5
 70
     1
102
RTVSPropertyOp6
 70
     1
102
RTVSPropertyOp7
 70
     1
102
RTVSPropertyOp8
 70
     1
102
RTVSPropertyOp9
 70
     1
102
RTVSPropertyOp10
 70
     1
102
RTVSPropertyOp11
 70
     1
102
RTVSPropertyOp12
 70
     1
102
RTVSPropertyOp13
 70
     1
102
RTVSPropertyOp14
 70
     1
102
RTVSPropertyOp15
 70
     1
102
RTVSPropertyOp16
 70
     1
102
RTVSPropertyOp17
 70
     1
102
RTVSPropertyOp18
 70
     1
102
RTVSPropertyOp19
 70
     1
102
RTVSPropertyOp20
 70
     1
102
RTVSPropertyOp21
 70
     1
102
RTVSPropertyOp22
 70
     1
102
RTVSPropertyOp23
 70
     1
102
RTVSPropertyOp24
 70
     1
102
RTVSPropertyOp25
 70
     1
102
RTVSPropertyOp26
 70
     1
102
RTVSPropertyOp27
 70
     1
102
RTVSPropertyOp28
 70
     1
102
RTVSPropertyOp29
 70
     1
102
RTVSPropertyOp30
 70
     1
102
RTVSPropertyOp31
 70
     1
102
RTVSPropertyOp32
 70
     1
  0
XRECORD
  5
424
102
{ACAD_REACTORS
330
423
102
}
330
423
100
AcDbXrecord
280
     1
102
RTVSPropertyOp0
 70
     1
102
RTVSPropertyOp1
 70
     1
102
RTVSPropertyOp2
 70
     1
102
RTVSPropertyOp3
 70
     1
102
RTVSPropertyOp4
 70
     1
102
RTVSPropertyOp5
 70
     1
102
RTVSPropertyOp6
 70
     1
102
RTVSPropertyOp7
 70
     1
102
RTVSPropertyOp8
 70
     1
102
RTVSPropertyOp9
 70
     1
102
RTVSPropertyOp10
 70
     1
102
RTVSPropertyOp11
 70
     1
102
RTVSPropertyOp12
 70
     1
102
RTVSPropertyOp13
 70
     1
102
RTVSPropertyOp14
 70
     1
102
RTVSPropertyOp15
 70
     1
102
RTVSPropertyOp16
 70
     1
102
RTVSPropertyOp17
 70
     1
102
RTVSPropertyOp18
 70
     1
102
RTVSPropertyOp19
 70
     1
102
RTVSPropertyOp20
 70
     1
102
RTVSPropertyOp21
 70
     1
102
RTVSPropertyOp22
 70
     1
102
RTVSPropertyOp23
 70
     1
102
RTVSPropertyOp24
 70
     1
102
RTVSPropertyOp25
 70
     1
102
RTVSPropertyOp26
 70
     1
102
RTVSPropertyOp27
 70
     1
102
RTVSPropertyOp28
 70
     1
102
RTVSPropertyOp29
 70
     1
102
RTVSPropertyOp30
 70
     1
102
RTVSPropertyOp31
 70
     1
102
RTVSPropertyOp32
 70
     1
  0
XRECORD
  5
43E
102
{ACAD_REACTORS
330
43D
102
}
330
43D
100
AcDbXrecord
280
     1
102
RTVSPropertyOp0
 70
     0
102
RTVSPropertyOp1
 70
     0
102
RTVSPropertyOp2
 70
     0
102
RTVSPropertyOp3
 70
     0
102
RTVSPropertyOp4
 70
     0
102
RTVSPropertyOp5
 70
     0
102
RTVSPropertyOp6
 70
     0
102
RTVSPropertyOp7
 70
     0
102
RTVSPropertyOp8
 70
     0
102
RTVSPropertyOp9
 70
     0
102
RTVSPropertyOp10
 70
     0
102
RTVSPropertyOp11
 70
     0
102
RTVSPropertyOp12
 70
     0
102
RTVSPropertyOp13
 70
     0
102
RTVSPropertyOp14
 70
     2
102
RTVSPropertyOp15
 70
     0
102
RTVSPropertyOp16
 70
     0
102
RTVSPropertyOp17
 70
     0
102
RTVSPropertyOp18
 70
     0
102
RTVSPropertyOp19
 70
     0
102
RTVSPropertyOp20
 70
     0
102
RTVSPropertyOp21
 70
     0
102
RTVSPropertyOp22
 70
     0
102
RTVSPropertyOp23
 70
     0
102
RTVSPropertyOp24
 70
     0
102
RTVSPropertyOp25
 70
     0
102
RTVSPropertyOp26
 70
     0
102
RTVSPropertyOp27
 70
     0
102
RTVSPropertyOp28
 70
     1
102
RTVSPropertyOp29
 70
     1
102
RTVSPropertyOp30
 70
     1
102
RTVSPropertyOp31
 70
     1
102
RTVSPropertyOp32
 70
     1
  0
XRECORD
  5
42C
102
{ACAD_REACTORS
330
42B
102
}
330
42B
100
AcDbXrecord
280
     1
102
RTVSPropertyOp0
 70
     1
102
RTVSPropertyOp1
 70
     1
102
RTVSPropertyOp2
 70
     1
102
RTVSPropertyOp3
 70
     1
102
RTVSPropertyOp4
 70
     1
102
RTVSPropertyOp5
 70
     1
102
RTVSPropertyOp6
 70
     1
102
RTVSPropertyOp7
 70
     1
102
RTVSPropertyOp8
 70
     1
102
RTVSPropertyOp9
 70
     1
102
RTVSPropertyOp10
 70
     1
102
RTVSPropertyOp11
 70
     1
102
RTVSPropertyOp12
 70
     1
102
RTVSPropertyOp13
 70
     1
102
RTVSPropertyOp14
 70
     1
102
RTVSPropertyOp15
 70
     1
102
RTVSPropertyOp16
 70
     1
102
RTVSPropertyOp17
 70
     1
102
RTVSPropertyOp18
 70
     1
102
RTVSPropertyOp19
 70
     1
102
RTVSPropertyOp20
 70
     1
102
RTVSPropertyOp21
 70
     1
102
RTVSPropertyOp22
 70
     1
102
RTVSPropertyOp23
 70
     1
102
RTVSPropertyOp24
 70
     1
102
RTVSPropertyOp25
 70
     1
102
RTVSPropertyOp26
 70
     1
102
RTVSPropertyOp27
 70
     1
102
RTVSPropertyOp28
 70
     1
102
RTVSPropertyOp29
 70
     1
102
RTVSPropertyOp30
 70
     1
102
RTVSPropertyOp31
 70
     1
102
RTVSPropertyOp32
 70
     1
  0
XRECORD
  5
410
102
{ACAD_REACTORS
330
40F
102
}
330
40F
100
AcDbXrecord
280
     1
102
RTVSPropertyOp0
 70
     1
102
RTVSPropertyOp1
 70
     1
102
RTVSPropertyOp2
 70
     1
102
RTVSPropertyOp3
 70
     1
102
RTVSPropertyOp4
 70
     1
102
RTVSPropertyOp5
 70
     1
102
RTVSPropertyOp6
 70
     1
102
RTVSPropertyOp7
 70
     1
102
RTVSPropertyOp8
 70
     1
102
RTVSPropertyOp9
 70
     1
102
RTVSPropertyOp10
 70
     1
102
RTVSPropertyOp11
 70
     1
102
RTVSPropertyOp12
 70
     1
102
RTVSPropertyOp13
 70
     1
102
RTVSPropertyOp14
 70
     1
102
RTVSPropertyOp15
 70
     1
102
RTVSPropertyOp16
 70
     1
102
RTVSPropertyOp17
 70
     1
102
RTVSPropertyOp18
 70
     1
102
RTVSPropertyOp19
 70
     1
102
RTVSPropertyOp20
 70
     1
102
RTVSPropertyOp21
 70
     1
102
RTVSPropertyOp22
 70
     1
102
RTVSPropertyOp23
 70
     1
102
RTVSPropertyOp24
 70
     1
102
RTVSPropertyOp25
 70
     1
102
RTVSPropertyOp26
 70
     1
102
RTVSPropertyOp27
 70
     1
102
RTVSPropertyOp28
 70
     1
102
RTVSPropertyOp29
 70
     1
102
RTVSPropertyOp30
 70
     1
102
RTVSPropertyOp31
 70
     1
102
RTVSPropertyOp32
 70
     1
  0
XRECORD
  5
412
102
{ACAD_REACTORS
330
411
102
}
330
411
100
AcDbXrecord
280
     1
102
RTVSPropertyOp0
 70
     1
102
RTVSPropertyOp1
 70
     1
102
RTVSPropertyOp2
 70
     1
102
RTVSPropertyOp3
 70
     1
102
RTVSPropertyOp4
 70
     1
102
RTVSPropertyOp5
 70
     1
102
RTVSPropertyOp6
 70
     1
102
RTVSPropertyOp7
 70
     1
102
RTVSPropertyOp8
 70
     1
102
RTVSPropertyOp9
 70
     1
102
RTVSPropertyOp10
 70
     1
102
RTVSPropertyOp11
 70
     1
102
RTVSPropertyOp12
 70
     1
102
RTVSPropertyOp13
 70
     1
102
RTVSPropertyOp14
 70
     1
102
RTVSPropertyOp15
 70
     1
102
RTVSPropertyOp16
 70
     1
102
RTVSPropertyOp17
 70
     1
102
RTVSPropertyOp18
 70
     1
102
RTVSPropertyOp19
 70
     1
102
RTVSPropertyOp20
 70
     1
102
RTVSPropertyOp21
 70
     1
102
RTVSPropertyOp22
 70
     1
102
RTVSPropertyOp23
 70
     1
102
RTVSPropertyOp24
 70
     1
102
RTVSPropertyOp25
 70
     1
102
RTVSPropertyOp26
 70
     1
102
RTVSPropertyOp27
 70
     1
102
RTVSPropertyOp28
 70
     1
102
RTVSPropertyOp29
 70
     1
102
RTVSPropertyOp30
 70
     1
102
RTVSPropertyOp31
 70
     1
102
RTVSPropertyOp32
 70
     1
  0
XRECORD
  5
414
102
{ACAD_REACTORS
330
413
102
}
330
413
100
AcDbXrecord
280
     1
102
RTVSPropertyOp0
 70
     1
102
RTVSPropertyOp1
 70
     1
102
RTVSPropertyOp2
 70
     1
102
RTVSPropertyOp3
 70
     1
102
RTVSPropertyOp4
 70
     1
102
RTVSPropertyOp5
 70
     1
102
RTVSPropertyOp6
 70
     1
102
RTVSPropertyOp7
 70
     1
102
RTVSPropertyOp8
 70
     1
102
RTVSPropertyOp9
 70
     1
102
RTVSPropertyOp10
 70
     1
102
RTVSPropertyOp11
 70
     1
102
RTVSPropertyOp12
 70
     1
102
RTVSPropertyOp13
 70
     1
102
RTVSPropertyOp14
 70
     1
102
RTVSPropertyOp15
 70
     1
102
RTVSPropertyOp16
 70
     1
102
RTVSPropertyOp17
 70
     1
102
RTVSPropertyOp18
 70
     1
102
RTVSPropertyOp19
 70
     1
102
RTVSPropertyOp20
 70
     1
102
RTVSPropertyOp21
 70
     1
102
RTVSPropertyOp22
 70
     1
102
RTVSPropertyOp23
 70
     1
102
RTVSPropertyOp24
 70
     1
102
RTVSPropertyOp25
 70
     1
102
RTVSPropertyOp26
 70
     1
102
RTVSPropertyOp27
 70
     1
102
RTVSPropertyOp28
 70
     1
102
RTVSPropertyOp29
 70
     1
102
RTVSPropertyOp30
 70
     1
102
RTVSPropertyOp31
 70
     1
102
RTVSPropertyOp32
 70
     1
  0
XRECORD
  5
416
102
{ACAD_REACTORS
330
415
102
}
330
415
100
AcDbXrecord
280
     1
102
RTVSPropertyOp0
 70
     1
102
RTVSPropertyOp1
 70
     1
102
RTVSPropertyOp2
 70
     1
102
RTVSPropertyOp3
 70
     1
102
RTVSPropertyOp4
 70
     1
102
RTVSPropertyOp5
 70
     1
102
RTVSPropertyOp6
 70
     1
102
RTVSPropertyOp7
 70
     1
102
RTVSPropertyOp8
 70
     1
102
RTVSPropertyOp9
 70
     1
102
RTVSPropertyOp10
 70
     1
102
RTVSPropertyOp11
 70
     1
102
RTVSPropertyOp12
 70
     1
102
RTVSPropertyOp13
 70
     1
102
RTVSPropertyOp14
 70
     1
102
RTVSPropertyOp15
 70
     1
102
RTVSPropertyOp16
 70
     1
102
RTVSPropertyOp17
 70
     1
102
RTVSPropertyOp18
 70
     1
102
RTVSPropertyOp19
 70
     1
102
RTVSPropertyOp20
 70
     1
102
RTVSPropertyOp21
 70
     1
102
RTVSPropertyOp22
 70
     1
102
RTVSPropertyOp23
 70
     1
102
RTVSPropertyOp24
 70
     1
102
RTVSPropertyOp25
 70
     1
102
RTVSPropertyOp26
 70
     1
102
RTVSPropertyOp27
 70
     1
102
RTVSPropertyOp28
 70
     1
102
RTVSPropertyOp29
 70
     1
102
RTVSPropertyOp30
 70
     1
102
RTVSPropertyOp31
 70
     1
102
RTVSPropertyOp32
 70
     1
  0
XRECORD
  5
41E
102
{ACAD_REACTORS
330
41D
102
}
330
41D
100
AcDbXrecord
280
     1
102
RTVSPropertyOp0
 70
     1
102
RTVSPropertyOp1
 70
     1
102
RTVSPropertyOp2
 70
     1
102
RTVSPropertyOp3
 70
     1
102
RTVSPropertyOp4
 70
     1
102
RTVSPropertyOp5
 70
     1
102
RTVSPropertyOp6
 70
     1
102
RTVSPropertyOp7
 70
     1
102
RTVSPropertyOp8
 70
     1
102
RTVSPropertyOp9
 70
     1
102
RTVSPropertyOp10
 70
     1
102
RTVSPropertyOp11
 70
     1
102
RTVSPropertyOp12
 70
     1
102
RTVSPropertyOp13
 70
     1
102
RTVSPropertyOp14
 70
     1
102
RTVSPropertyOp15
 70
     1
102
RTVSPropertyOp16
 70
     1
102
RTVSPropertyOp17
 70
     1
102
RTVSPropertyOp18
 70
     1
102
RTVSPropertyOp19
 70
     1
102
RTVSPropertyOp20
 70
     1
102
RTVSPropertyOp21
 70
     1
102
RTVSPropertyOp22
 70
     1
102
RTVSPropertyOp23
 70
     1
102
RTVSPropertyOp24
 70
     1
102
RTVSPropertyOp25
 70
     1
102
RTVSPropertyOp26
 70
     1
102
RTVSPropertyOp27
 70
     1
102
RTVSPropertyOp28
 70
     1
102
RTVSPropertyOp29
 70
     1
102
RTVSPropertyOp30
 70
     1
102
RTVSPropertyOp31
 70
     1
102
RTVSPropertyOp32
 70
     1
  0
XRECORD
  5
43A
102
{ACAD_REACTORS
330
439
102
}
330
439
100
AcDbXrecord
280
     1
102
RTVSPropertyOp0
 70
     0
102
RTVSPropertyOp1
 70
     0
102
RTVSPropertyOp2
 70
     0
102
RTVSPropertyOp3
 70
     0
102
RTVSPropertyOp4
 70
     0
102
RTVSPropertyOp5
 70
     0
102
RTVSPropertyOp6
 70
     0
102
RTVSPropertyOp7
 70
     0
102
RTVSPropertyOp8
 70
     0
102
RTVSPropertyOp9
 70
     0
102
RTVSPropertyOp10
 70
     0
102
RTVSPropertyOp11
 70
     0
102
RTVSPropertyOp12
 70
     0
102
RTVSPropertyOp13
 70
     0
102
RTVSPropertyOp14
 70
     2
102
RTVSPropertyOp15
 70
     0
102
RTVSPropertyOp16
 70
     0
102
RTVSPropertyOp17
 70
     0
102
RTVSPropertyOp18
 70
     0
102
RTVSPropertyOp19
 70
     0
102
RTVSPropertyOp20
 70
     0
102
RTVSPropertyOp21
 70
     0
102
RTVSPropertyOp22
 70
     0
102
RTVSPropertyOp23
 70
     0
102
RTVSPropertyOp24
 70
     0
102
RTVSPropertyOp25
 70
     0
102
RTVSPropertyOp26
 70
     0
102
RTVSPropertyOp27
 70
     0
102
RTVSPropertyOp28
 70
     1
102
RTVSPropertyOp29
 70
     1
102
RTVSPropertyOp30
 70
     1
102
RTVSPropertyOp31
 70
     1
102
RTVSPropertyOp32
 70
     1
  0
XRECORD
  5
42A
102
{ACAD_REACTORS
330
429
102
}
330
429
100
AcDbXrecord
280
     1
102
RTVSPropertyOp0
 70
     1
102
RTVSPropertyOp1
 70
     1
102
RTVSPropertyOp2
 70
     1
102
RTVSPropertyOp3
 70
     1
102
RTVSPropertyOp4
 70
     1
102
RTVSPropertyOp5
 70
     1
102
RTVSPropertyOp6
 70
     1
102
RTVSPropertyOp7
 70
     1
102
RTVSPropertyOp8
 70
     1
102
RTVSPropertyOp9
 70
     1
102
RTVSPropertyOp10
 70
     1
102
RTVSPropertyOp11
 70
     1
102
RTVSPropertyOp12
 70
     1
102
RTVSPropertyOp13
 70
     1
102
RTVSPropertyOp14
 70
     1
102
RTVSPropertyOp15
 70
     1
102
RTVSPropertyOp16
 70
     1
102
RTVSPropertyOp17
 70
     1
102
RTVSPropertyOp18
 70
     1
102
RTVSPropertyOp19
 70
     1
102
RTVSPropertyOp20
 70
     1
102
RTVSPropertyOp21
 70
     1
102
RTVSPropertyOp22
 70
     1
102
RTVSPropertyOp23
 70
     1
102
RTVSPropertyOp24
 70
     1
102
RTVSPropertyOp25
 70
     1
102
RTVSPropertyOp26
 70
     1
102
RTVSPropertyOp27
 70
     1
102
RTVSPropertyOp28
 70
     1
102
RTVSPropertyOp29
 70
     1
102
RTVSPropertyOp30
 70
     1
102
RTVSPropertyOp31
 70
     1
102
RTVSPropertyOp32
 70
     1
  0
XRECORD
  5
43C
102
{ACAD_REACTORS
330
43B
102
}
330
43B
100
AcDbXrecord
280
     1
102
RTVSPropertyOp0
 70
     0
102
RTVSPropertyOp1
 70
     0
102
RTVSPropertyOp2
 70
     0
102
RTVSPropertyOp3
 70
     0
102
RTVSPropertyOp4
 70
     0
102
RTVSPropertyOp5
 70
     0
102
RTVSPropertyOp6
 70
     0
102
RTVSPropertyOp7
 70
     0
102
RTVSPropertyOp8
 70
     0
102
RTVSPropertyOp9
 70
     0
102
RTVSPropertyOp10
 70
     0
102
RTVSPropertyOp11
 70
     0
102
RTVSPropertyOp12
 70
     0
102
RTVSPropertyOp13
 70
     0
102
RTVSPropertyOp14
 70
     2
102
RTVSPropertyOp15
 70
     0
102
RTVSPropertyOp16
 70
     0
102
RTVSPropertyOp17
 70
     0
102
RTVSPropertyOp18
 70
     0
102
RTVSPropertyOp19
 70
     0
102
RTVSPropertyOp20
 70
     0
102
RTVSPropertyOp21
 70
     0
102
RTVSPropertyOp22
 70
     0
102
RTVSPropertyOp23
 70
     0
102
RTVSPropertyOp24
 70
     0
102
RTVSPropertyOp25
 70
     0
102
RTVSPropertyOp26
 70
     0
102
RTVSPropertyOp27
 70
     0
102
RTVSPropertyOp28
 70
     1
102
RTVSPropertyOp29
 70
     1
102
RTVSPropertyOp30
 70
     1
102
RTVSPropertyOp31
 70
     1
102
RTVSPropertyOp32
 70
     1
  0
XRECORD
  5
422
102
{ACAD_REACTORS
330
421
102
}
330
421
100
AcDbXrecord
280
     1
102
RTVSPropertyOp0
 70
     1
102
RTVSPropertyOp1
 70
     1
102
RTVSPropertyOp2
 70
     1
102
RTVSPropertyOp3
 70
     1
102
RTVSPropertyOp4
 70
     1
102
RTVSPropertyOp5
 70
     1
102
RTVSPropertyOp6
 70
     1
102
RTVSPropertyOp7
 70
     1
102
RTVSPropertyOp8
 70
     1
102
RTVSPropertyOp9
 70
     1
102
RTVSPropertyOp10
 70
     1
102
RTVSPropertyOp11
 70
     1
102
RTVSPropertyOp12
 70
     1
102
RTVSPropertyOp13
 70
     1
102
RTVSPropertyOp14
 70
     1
102
RTVSPropertyOp15
 70
     1
102
RTVSPropertyOp16
 70
     1
102
RTVSPropertyOp17
 70
     1
102
RTVSPropertyOp18
 70
     1
102
RTVSPropertyOp19
 70
     1
102
RTVSPropertyOp20
 70
     1
102
RTVSPropertyOp21
 70
     1
102
RTVSPropertyOp22
 70
     1
102
RTVSPropertyOp23
 70
     1
102
RTVSPropertyOp24
 70
     1
102
RTVSPropertyOp25
 70
     1
102
RTVSPropertyOp26
 70
     1
102
RTVSPropertyOp27
 70
     1
102
RTVSPropertyOp28
 70
     1
102
RTVSPropertyOp29
 70
     1
102
RTVSPropertyOp30
 70
     1
102
RTVSPropertyOp31
 70
     1
102
RTVSPropertyOp32
 70
     1
  0
XRECORD
  5
438
102
{ACAD_REACTORS
330
437
102
}
330
437
100
AcDbXrecord
280
     1
102
RTVSPropertyOp0
 70
     1
102
RTVSPropertyOp1
 70
     1
102
RTVSPropertyOp2
 70
     1
102
RTVSPropertyOp3
 70
     1
102
RTVSPropertyOp4
 70
     1
102
RTVSPropertyOp5
 70
     1
102
RTVSPropertyOp6
 70
     1
102
RTVSPropertyOp7
 70
     1
102
RTVSPropertyOp8
 70
     1
102
RTVSPropertyOp9
 70
     1
102
RTVSPropertyOp10
 70
     1
102
RTVSPropertyOp11
 70
     1
102
RTVSPropertyOp12
 70
     1
102
RTVSPropertyOp13
 70
     1
102
RTVSPropertyOp14
 70
     1
102
RTVSPropertyOp15
 70
     1
102
RTVSPropertyOp16
 70
     1
102
RTVSPropertyOp17
 70
     1
102
RTVSPropertyOp18
 70
     1
102
RTVSPropertyOp19
 70
     1
102
RTVSPropertyOp20
 70
     1
102
RTVSPropertyOp21
 70
     1
102
RTVSPropertyOp22
 70
     1
102
RTVSPropertyOp23
 70
     1
102
RTVSPropertyOp24
 70
     1
102
RTVSPropertyOp25
 70
     1
102
RTVSPropertyOp26
 70
     1
102
RTVSPropertyOp27
 70
     1
102
RTVSPropertyOp28
 70
     1
102
RTVSPropertyOp29
 70
     1
102
RTVSPropertyOp30
 70
     1
102
RTVSPropertyOp31
 70
     1
102
RTVSPropertyOp32
 70
     1
  0
XRECORD
  5
436
102
{ACAD_REACTORS
330
435
102
}
330
435
100
AcDbXrecord
280
     1
102
RTVSPropertyOp0
 70
     1
102
RTVSPropertyOp1
 70
     1
102
RTVSPropertyOp2
 70
     1
102
RTVSPropertyOp3
 70
     1
102
RTVSPropertyOp4
 70
     1
102
RTVSPropertyOp5
 70
     1
102
RTVSPropertyOp6
 70
     1
102
RTVSPropertyOp7
 70
     1
102
RTVSPropertyOp8
 70
     1
102
RTVSPropertyOp9
 70
     1
102
RTVSPropertyOp10
 70
     1
102
RTVSPropertyOp11
 70
     1
102
RTVSPropertyOp12
 70
     1
102
RTVSPropertyOp13
 70
     1
102
RTVSPropertyOp14
 70
     1
102
RTVSPropertyOp15
 70
     1
102
RTVSPropertyOp16
 70
     1
102
RTVSPropertyOp17
 70
     1
102
RTVSPropertyOp18
 70
     1
102
RTVSPropertyOp19
 70
     1
102
RTVSPropertyOp20
 70
     1
102
RTVSPropertyOp21
 70
     1
102
RTVSPropertyOp22
 70
     1
102
RTVSPropertyOp23
 70
     1
102
RTVSPropertyOp24
 70
     1
102
RTVSPropertyOp25
 70
     1
102
RTVSPropertyOp26
 70
     1
102
RTVSPropertyOp27
 70
     1
102
RTVSPropertyOp28
 70
     1
102
RTVSPropertyOp29
 70
     1
102
RTVSPropertyOp30
 70
     1
102
RTVSPropertyOp31
 70
     1
102
RTVSPropertyOp32
 70
     1
  0
XRECORD
  5
430
102
{ACAD_REACTORS
330
42F
102
}
330
42F
100
AcDbXrecord
280
     1
102
RTVSPropertyOp0
 70
     1
102
RTVSPropertyOp1
 70
     1
102
RTVSPropertyOp2
 70
     1
102
RTVSPropertyOp3
 70
     1
102
RTVSPropertyOp4
 70
     1
102
RTVSPropertyOp5
 70
     1
102
RTVSPropertyOp6
 70
     1
102
RTVSPropertyOp7
 70
     1
102
RTVSPropertyOp8
 70
     1
102
RTVSPropertyOp9
 70
     1
102
RTVSPropertyOp10
 70
     1
102
RTVSPropertyOp11
 70
     1
102
RTVSPropertyOp12
 70
     1
102
RTVSPropertyOp13
 70
     1
102
RTVSPropertyOp14
 70
     1
102
RTVSPropertyOp15
 70
     1
102
RTVSPropertyOp16
 70
     1
102
RTVSPropertyOp17
 70
     1
102
RTVSPropertyOp18
 70
     1
102
RTVSPropertyOp19
 70
     1
102
RTVSPropertyOp20
 70
     1
102
RTVSPropertyOp21
 70
     1
102
RTVSPropertyOp22
 70
     1
102
RTVSPropertyOp23
 70
     1
102
RTVSPropertyOp24
 70
     1
102
RTVSPropertyOp25
 70
     1
102
RTVSPropertyOp26
 70
     1
102
RTVSPropertyOp27
 70
     1
102
RTVSPropertyOp28
 70
     1
102
RTVSPropertyOp29
 70
     1
102
RTVSPropertyOp30
 70
     1
102
RTVSPropertyOp31
 70
     1
102
RTVSPropertyOp32
 70
     1
  0
XRECORD
  5
432
102
{ACAD_REACTORS
330
431
102
}
330
431
100
AcDbXrecord
280
     1
102
RTVSPropertyOp0
 70
     1
102
RTVSPropertyOp1
 70
     1
102
RTVSPropertyOp2
 70
     1
102
RTVSPropertyOp3
 70
     1
102
RTVSPropertyOp4
 70
     1
102
RTVSPropertyOp5
 70
     1
102
RTVSPropertyOp6
 70
     1
102
RTVSPropertyOp7
 70
     1
102
RTVSPropertyOp8
 70
     1
102
RTVSPropertyOp9
 70
     1
102
RTVSPropertyOp10
 70
     1
102
RTVSPropertyOp11
 70
     1
102
RTVSPropertyOp12
 70
     1
102
RTVSPropertyOp13
 70
     1
102
RTVSPropertyOp14
 70
     1
102
RTVSPropertyOp15
 70
     1
102
RTVSPropertyOp16
 70
     1
102
RTVSPropertyOp17
 70
     1
102
RTVSPropertyOp18
 70
     1
102
RTVSPropertyOp19
 70
     1
102
RTVSPropertyOp20
 70
     1
102
RTVSPropertyOp21
 70
     1
102
RTVSPropertyOp22
 70
     1
102
RTVSPropertyOp23
 70
     1
102
RTVSPropertyOp24
 70
     1
102
RTVSPropertyOp25
 70
     1
102
RTVSPropertyOp26
 70
     1
102
RTVSPropertyOp27
 70
     1
102
RTVSPropertyOp28
 70
     1
102
RTVSPropertyOp29
 70
     1
102
RTVSPropertyOp30
 70
     1
102
RTVSPropertyOp31
 70
     1
102
RTVSPropertyOp32
 70
     1
  0
XRECORD
  5
428
102
{ACAD_REACTORS
330
427
102
}
330
427
100
AcDbXrecord
280
     1
102
RTVSPropertyOp0
 70
     1
102
RTVSPropertyOp1
 70
     1
102
RTVSPropertyOp2
 70
     1
102
RTVSPropertyOp3
 70
     1
102
RTVSPropertyOp4
 70
     1
102
RTVSPropertyOp5
 70
     1
102
RTVSPropertyOp6
 70
     1
102
RTVSPropertyOp7
 70
     1
102
RTVSPropertyOp8
 70
     1
102
RTVSPropertyOp9
 70
     1
102
RTVSPropertyOp10
 70
     1
102
RTVSPropertyOp11
 70
     1
102
RTVSPropertyOp12
 70
     1
102
RTVSPropertyOp13
 70
     1
102
RTVSPropertyOp14
 70
     1
102
RTVSPropertyOp15
 70
     1
102
RTVSPropertyOp16
 70
     1
102
RTVSPropertyOp17
 70
     1
102
RTVSPropertyOp18
 70
     1
102
RTVSPropertyOp19
 70
     1
102
RTVSPropertyOp20
 70
     1
102
RTVSPropertyOp21
 70
     1
102
RTVSPropertyOp22
 70
     1
102
RTVSPropertyOp23
 70
     1
102
RTVSPropertyOp24
 70
     1
102
RTVSPropertyOp25
 70
     1
102
RTVSPropertyOp26
 70
     1
102
RTVSPropertyOp27
 70
     1
102
RTVSPropertyOp28
 70
     1
102
RTVSPropertyOp29
 70
     1
102
RTVSPropertyOp30
 70
     1
102
RTVSPropertyOp31
 70
     1
102
RTVSPropertyOp32
 70
     1
  0
XRECORD
  5
41C
102
{ACAD_REACTORS
330
41B
102
}
330
41B
100
AcDbXrecord
280
     1
102
RTVSPropertyOp0
 70
     1
102
RTVSPropertyOp1
 70
     1
102
RTVSPropertyOp2
 70
     1
102
RTVSPropertyOp3
 70
     1
102
RTVSPropertyOp4
 70
     1
102
RTVSPropertyOp5
 70
     1
102
RTVSPropertyOp6
 70
     1
102
RTVSPropertyOp7
 70
     1
102
RTVSPropertyOp8
 70
     1
102
RTVSPropertyOp9
 70
     1
102
RTVSPropertyOp10
 70
     1
102
RTVSPropertyOp11
 70
     1
102
RTVSPropertyOp12
 70
     1
102
RTVSPropertyOp13
 70
     1
102
RTVSPropertyOp14
 70
     1
102
RTVSPropertyOp15
 70
     1
102
RTVSPropertyOp16
 70
     1
102
RTVSPropertyOp17
 70
     1
102
RTVSPropertyOp18
 70
     1
102
RTVSPropertyOp19
 70
     1
102
RTVSPropertyOp20
 70
     1
102
RTVSPropertyOp21
 70
     1
102
RTVSPropertyOp22
 70
     1
102
RTVSPropertyOp23
 70
     1
102
RTVSPropertyOp24
 70
     1
102
RTVSPropertyOp25
 70
     1
102
RTVSPropertyOp26
 70
     1
102
RTVSPropertyOp27
 70
     1
102
RTVSPropertyOp28
 70
     1
102
RTVSPropertyOp29
 70
     1
102
RTVSPropertyOp30
 70
     1
102
RTVSPropertyOp31
 70
     1
102
RTVSPropertyOp32
 70
     1
  0
XRECORD
  5
434
102
{ACAD_REACTORS
330
433
102
}
330
433
100
AcDbXrecord
280
     1
102
RTVSPropertyOp0
 70
     1
102
RTVSPropertyOp1
 70
     1
102
RTVSPropertyOp2
 70
     1
102
RTVSPropertyOp3
 70
     1
102
RTVSPropertyOp4
 70
     1
102
RTVSPropertyOp5
 70
     1
102
RTVSPropertyOp6
 70
     1
102
RTVSPropertyOp7
 70
     1
102
RTVSPropertyOp8
 70
     1
102
RTVSPropertyOp9
 70
     1
102
RTVSPropertyOp10
 70
     1
102
RTVSPropertyOp11
 70
     1
102
RTVSPropertyOp12
 70
     1
102
RTVSPropertyOp13
 70
     1
102
RTVSPropertyOp14
 70
     1
102
RTVSPropertyOp15
 70
     1
102
RTVSPropertyOp16
 70
     1
102
RTVSPropertyOp17
 70
     1
102
RTVSPropertyOp18
 70
     1
102
RTVSPropertyOp19
 70
     1
102
RTVSPropertyOp20
 70
     1
102
RTVSPropertyOp21
 70
     1
102
RTVSPropertyOp22
 70
     1
102
RTVSPropertyOp23
 70
     1
102
RTVSPropertyOp24
 70
     1
102
RTVSPropertyOp25
 70
     1
102
RTVSPropertyOp26
 70
     1
102
RTVSPropertyOp27
 70
     1
102
RTVSPropertyOp28
 70
     1
102
RTVSPropertyOp29
 70
     1
102
RTVSPropertyOp30
 70
     1
102
RTVSPropertyOp31
 70
     1
102
RTVSPropertyOp32
 70
     1
  0
ENDSEC
  0
EOF
