  0
SECTION
  2
HEADER
  9
$ACADVER
  1
AC1015
  9
$ACADMAINTVER
 70
    20
  9
$DWGCODEPAGE
  3
ANSI_1252
  9
$INSBASE
 10
0.0
 20
0.0
 30
0.0
  9
$EXTMIN
 10
0.5000000000000013
 20
0.4999999999999999
 30
0.0
  9
$EXTMAX
 10
16.5
 20
10.5
 30
0.0
  9
$LIMMIN
 10
0.0
 20
0.0
  9
$LIMMAX
 10
17.0
 20
11.0
  9
$ORTHOMODE
 70
     0
  9
$REGENMODE
 70
     1
  9
$FILLMODE
 70
     1
  9
$QTEXTMODE
 70
     0
  9
$MIRRTEXT
 70
     0
  9
$LTSCALE
 40
1.0
  9
$ATTMODE
 70
     1
  9
$TEXTSIZE
 40
0.2
  9
$TRACEWID
 40
0.05
  9
$TEXTSTYLE
  7
Standard
  9
$CLAYER
  8
0
  9
$CELTYPE
  6
ByLayer
  9
$CECOLOR
 62
   256
  9
$CELTSCALE
 40
1.0
  9
$DISPSILH
 70
     0
  9
$DIMSCALE
 40
1.0
  9
$DIMASZ
 40
0.0708661417322835
  9
$DIMEXO
 40
0.0625
  9
$DIMDLI
 40
0.38
  9
$DIMRND
 40
0.0
  9
$DIMDLE
 40
0.0
  9
$DIMEXE
 40
0.18
  9
$DIMTP
 40
0.0
  9
$DIMTM
 40
0.0
  9
$DIMTXT
 40
0.0708661417322835
  9
$DIMCEN
 40
0.09
  9
$DIMTSZ
 40
0.0
  9
$DIMTOL
 70
     0
  9
$DIMLIM
 70
     0
  9
$DIMTIH
 70
     1
  9
$DIMTOH
 70
     1
  9
$DIMSE1
 70
     0
  9
$DIMSE2
 70
     0
  9
$DIMTAD
 70
     0
  9
$DIMZIN
 70
     0
  9
$DIMBLK
  1

  9
$DIMASO
 70
     1
  9
$DIMSHO
 70
     1
  9
$DIMPOST
  1

  9
$DIMAPOST
  1

  9
$DIMALT
 70
     0
  9
$DIMALTD
 70
     2
  9
$DIMALTF
 40
25.4
  9
$DIMLFAC
 40
1.0
  9
$DIMTOFL
 70
     0
  9
$DIMTVP
 40
0.0
  9
$DIMTIX
 70
     0
  9
$DIMSOXD
 70
     0
  9
$DIMSAH
 70
     0
  9
$DIMBLK1
  1

  9
$DIMBLK2
  1

  9
$DIMSTYLE
  2
Standard
  9
$DIMCLRD
 70
     0
  9
$DIMCLRE
 70
     0
  9
$DIMCLRT
 70
     0
  9
$DIMTFAC
 40
1.0
  9
$DIMGAP
 40
0.09
  9
$DIMJUST
 70
     0
  9
$DIMSD1
 70
     0
  9
$DIMSD2
 70
     0
  9
$DIMTOLJ
 70
     1
  9
$DIMTZIN
 70
     0
  9
$DIMALTZ
 70
     0
  9
$DIMALTTZ
 70
     0
  9
$DIMUPT
 70
     0
  9
$DIMDEC
 70
     4
  9
$DIMTDEC
 70
     4
  9
$DIMALTU
 70
     2
  9
$DIMALTTD
 70
     2
  9
$DIMTXSTY
  7
Standard
  9
$DIMAUNIT
 70
     0
  9
$DIMADEC
 70
     0
  9
$DIMALTRND
 40
0.0
  9
$DIMAZIN
 70
     0
  9
$DIMDSEP
 70
    46
  9
$DIMATFIT
 70
     3
  9
$DIMFRAC
 70
     0
  9
$DIMLDRBLK
  1

  9
$DIMLUNIT
 70
     2
  9
$DIMLWD
 70
    -2
  9
$DIMLWE
 70
    -2
  9
$DIMTMOVE
 70
     0
  9
$LUNITS
 70
     2
  9
$LUPREC
 70
     4
  9
$SKETCHINC
 40
0.1
  9
$FILLETRAD
 40
0.0
  9
$AUNITS
 70
     0
  9
$AUPREC
 70
     0
  9
$MENU
  1
.
  9
$ELEVATION
 40
0.0
  9
$PELEVATION
 40
0.0
  9
$THICKNESS
 40
0.0
  9
$LIMCHECK
 70
     0
  9
$CHAMFERA
 40
0.0
  9
$CHAMFERB
 40
0.0
  9
$CHAMFERC
 40
0.0
  9
$CHAMFERD
 40
0.0
  9
$SKPOLY
 70
     0
  9
$TDCREATE
 40
2456038.559303415
  9
$TDUCREATE
 40
2456038.850970081
  9
$TDUPDATE
 40
2456038.591404746
  9
$TDUUPDATE
 40
2456038.883071412
  9
$TDINDWG
 40
0.0022767130
  9
$TDUSRTIMER
 40
0.0022767130
  9
$USRTIMER
 70
     1
  9
$ANGBASE
 50
0.0
  9
$ANGDIR
 70
     0
  9
$PDMODE
 70
     0
  9
$PDSIZE
 40
0.0
  9
$PLINEWID
 40
0.0
  9
$SPLFRAME
 70
     0
  9
$SPLINETYPE
 70
     6
  9
$SPLINESEGS
 70
     8
  9
$HANDSEED
  5
395
  9
$SURFTAB1
 70
     6
  9
$SURFTAB2
 70
     6
  9
$SURFTYPE
 70
     6
  9
$SURFU
 70
     6
  9
$SURFV
 70
     6
  9
$UCSBASE
  2

  9
$UCSNAME
  2

  9
$UCSORG
 10
0.0
 20
0.0
 30
0.0
  9
$UCSXDIR
 10
1.0
 20
0.0
 30
0.0
  9
$UCSYDIR
 10
0.0
 20
1.0
 30
0.0
  9
$UCSORTHOREF
  2

  9
$UCSORTHOVIEW
 70
     0
  9
$UCSORGTOP
 10
0.0
 20
0.0
 30
0.0
  9
$UCSORGBOTTOM
 10
0.0
 20
0.0
 30
0.0
  9
$UCSORGLEFT
 10
0.0
 20
0.0
 30
0.0
  9
$UCSORGRIGHT
 10
0.0
 20
0.0
 30
0.0
  9
$UCSORGFRONT
 10
0.0
 20
0.0
 30
0.0
  9
$UCSORGBACK
 10
0.0
 20
0.0
 30
0.0
  9
$PUCSBASE
  2

  9
$PUCSNAME
  2

  9
$PUCSORG
 10
0.0
 20
0.0
 30
0.0
  9
$PUCSXDIR
 10
1.0
 20
0.0
 30
0.0
  9
$PUCSYDIR
 10
0.0
 20
1.0
 30
0.0
  9
$PUCSORTHOREF
  2

  9
$PUCSORTHOVIEW
 70
     0
  9
$PUCSORGTOP
 10
0.0
 20
0.0
 30
0.0
  9
$PUCSORGBOTTOM
 10
0.0
 20
0.0
 30
0.0
  9
$PUCSORGLEFT
 10
0.0
 20
0.0
 30
0.0
  9
$PUCSORGRIGHT
 10
0.0
 20
0.0
 30
0.0
  9
$PUCSORGFRONT
 10
0.0
 20
0.0
 30
0.0
  9
$PUCSORGBACK
 10
0.0
 20
0.0
 30
0.0
  9
$USERI1
 70
     0
  9
$USERI2
 70
     0
  9
$USERI3
 70
     0
  9
$USERI4
 70
     0
  9
$USERI5
 70
     0
  9
$USERR1
 40
0.0
  9
$USERR2
 40
0.0
  9
$USERR3
 40
0.0
  9
$USERR4
 40
0.0
  9
$USERR5
 40
0.0
  9
$WORLDVIEW
 70
     1
  9
$SHADEDGE
 70
     3
  9
$SHADEDIF
 70
    70
  9
$TILEMODE
 70
     1
  9
$MAXACTVP
 70
    64
  9
$PINSBASE
 10
0.0
 20
0.0
 30
0.0
  9
$PLIMCHECK
 70
     0
  9
$PEXTMIN
 10
0.0
 20
0.0
 30
0.0
  9
$PEXTMAX
 10
17.0
 20
11.0
 30
0.0
  9
$PLIMMIN
 10
0.0
 20
0.0
  9
$PLIMMAX
 10
17.0
 20
11.0
  9
$UNITMODE
 70
     0
  9
$VISRETAIN
 70
     1
  9
$PLINEGEN
 70
     0
  9
$PSLTSCALE
 70
     1
  9
$TREEDEPTH
 70
  3020
  9
$CMLSTYLE
  2
Standard
  9
$CMLJUST
 70
     0
  9
$CMLSCALE
 40
1.0
  9
$PROXYGRAPHICS
 70
     1
  9
$MEASUREMENT
 70
     0
  9
$CELWEIGHT
370
    -1
  9
$ENDCAPS
280
     0
  9
$JOINSTYLE
280
     0
  9
$LWDISPLAY
290
     0
  9
$INSUNITS
 70
     1
  9
$HYPERLINKBASE
  1

  9
$STYLESHEET
  1

  9
$XEDIT
290
     1
  9
$CEPSNTYPE
380
     0
  9
$PSTYLEMODE
290
     1
  9
$FINGERPRINTGUID
  2
{4BB566B4-F82E-41F8-A365-8E4674F9438E}
  9
$VERSIONGUID
  2
{2F64ED4E-75E2-4140-B574-49DCA073FA8D}
  9
$EXTNAMES
290
     1
  9
$PSVPSCALE
 40
0.0
  9
$OLESTARTUP
290
     0
  0
ENDSEC
  0
SECTION
  2
CLASSES
  0
CLASS
  1
ACDBDICTIONARYWDFLT
  2
AcDbDictionaryWithDefault
  3
ObjectDBX Classes
 90
        0
280
     0
281
     0
  0
CLASS
  1
MATERIAL
  2
AcDbMaterial
  3
ObjectDBX Classes
 90
     1153
280
     0
281
     0
  0
CLASS
  1
VISUALSTYLE
  2
AcDbVisualStyle
  3
ObjectDBX Classes
 90
     4095
280
     0
281
     0
  0
CLASS
  1
SCALE
  2
AcDbScale
  3
ObjectDBX Classes
 90
     1153
280
     0
281
     0
  0
CLASS
  1
TABLESTYLE
  2
AcDbTableStyle
  3
ObjectDBX Classes
 90
     4095
280
     0
281
     0
  0
CLASS
  1
MLEADERSTYLE
  2
AcDbMLeaderStyle
  3
ACDB_MLEADERSTYLE_CLASS
 90
     4095
280
     0
281
     0
  0
CLASS
  1
DICTIONARYVAR
  2
AcDbDictionaryVar
  3
ObjectDBX Classes
 90
        0
280
     0
281
     0
  0
CLASS
  1
CELLSTYLEMAP
  2
AcDbCellStyleMap
  3
ObjectDBX Classes
 90
     1152
280
     0
281
     0
  0
CLASS
  1
ACDBPLACEHOLDER
  2
AcDbPlaceHolder
  3
ObjectDBX Classes
 90
        0
280
     0
281
     0
  0
CLASS
  1
LAYOUT
  2
AcDbLayout
  3
ObjectDBX Classes
 90
        0
280
     0
281
     0
  0
ENDSEC
  0
SECTION
  2
TABLES
  0
TABLE
  2
VPORT
  5
8
102
{ACAD_XDICTIONARY
360
308
102
}
330
0
100
AcDbSymbolTable
 70
     1
  0
VPORT
  5
57
330
8
100
AcDbSymbolTableRecord
100
AcDbViewportTableRecord
  2
*Active
 70
     0
 10
0.0
 20
0.0
 11
1.0
 21
1.0
 12
11.56649282920469
 22
5.5
 13
0.0
 23
0.0
 14
1.0
 24
1.0
 15
0.0
 25
0.0
 16
0.0
 26
0.0
 36
1.0
 17
0.0
 27
0.0
 37
0.0
 40
11.00219412622628
 41
2.102998696219035
 42
50.0
 43
0.0
 44
0.0
 50
0.0
 51
0.0
 71
     0
 72
   100
 73
     1
 74
     1
 75
     0
 76
     0
 77
     0
 78
     0
281
     0
 65
     1
110
0.0
120
0.0
130
0.0
111
1.0
121
0.0
131
0.0
112
0.0
122
1.0
132
0.0
 79
     0
146
0.0
1001
ACAD_NAV_VCDISPLAY
1070
     3
  0
ENDTAB
  0
TABLE
  2
LTYPE
  5
5
330
0
100
AcDbSymbolTable
 70
    59
  0
LTYPE
  5
5B
330
5
100
AcDbSymbolTableRecord
100
AcDbLinetypeTableRecord
  2
ByBlock
 70
     0
  3

 72
    65
 73
     0
 40
0.0
  0
LTYPE
  5
5C
330
5
100
AcDbSymbolTableRecord
100
AcDbLinetypeTableRecord
  2
ByLayer
 70
     0
  3

 72
    65
 73
     0
 40
0.0
  0
LTYPE
  5
5D
330
5
100
AcDbSymbolTableRecord
100
AcDbLinetypeTableRecord
  2
Continuous
 70
     0
  3
Solid line
 72
    65
 73
     0
 40
0.0
  0
LTYPE
  5
7C
330
5
100
AcDbSymbolTableRecord
100
AcDbLinetypeTableRecord
  2
BY_STANDARD
 70
     0
  3
By Standard ____________    ____    ____   _
 72
    65
 73
     6
 40
1.240299999999999
 49
0.6614
 74
     0
 49
-0.0827
 74
     0
 49
0.1654
 74
     0
 49
-0.0827
 74
     0
 49
0.1654
 74
     0
 49
-0.0827
 74
     0
  0
LTYPE
  5
7D
330
5
100
AcDbSymbolTableRecord
100
AcDbLinetypeTableRecord
  2
CHAIN
 70
     0
  3
Chain ____ _ ____ _ ____ _ ____ _ ____ _ ____
 72
    65
 73
     4
 40
0.7087
 49
0.4724000000000001
 74
     0
 49
-0.0591
 74
     0
 49
0.1181
 74
     0
 49
-0.0591
 74
     0
  0
LTYPE
  5
7E
330
5
100
AcDbSymbolTableRecord
100
AcDbLinetypeTableRecord
  2
DASH_DOT
 70
     0
  3
Dash dot __ . __ . __ . __ . __ . __ . __ . __
 72
    65
 73
     4
 40
0.37
 49
0.24
 74
     0
 49
-0.06
 74
     0
 49
0.01
 74
     0
 49
-0.06
 74
     0
  0
LTYPE
  5
7F
330
5
100
AcDbSymbolTableRecord
100
AcDbLinetypeTableRecord
  2
DOUBLE_DASH_DOT
 70
     0
  3
Double-Dash Dot __ __ . __ __ . __ __ . __ _
 72
    65
 73
     6
 40
0.4398
 49
0.24
 74
     0
 49
-0.06
 74
     0
 49
0.0098
 74
     0
 49
-0.06
 74
     0
 49
0.01
 74
     0
 49
-0.06
 74
     0
  0
LTYPE
  5
80
330
5
100
AcDbSymbolTableRecord
100
AcDbLinetypeTableRecord
  2
DASH_TRIPLE_DOT
 70
     0
  3
Dash Triple-Dot _ . . . _ . . . _ . . . _
 72
    65
 73
     8
 40
0.51
 49
0.24
 74
     0
 49
-0.06
 74
     0
 49
0.01
 74
     0
 49
-0.06
 74
     0
 49
0.01
 74
     0
 49
-0.06
 74
     0
 49
0.01
 74
     0
 49
-0.06
 74
     0
  0
LTYPE
  5
81
330
5
100
AcDbSymbolTableRecord
100
AcDbLinetypeTableRecord
  2
DASHED
 70
     0
  3
Dashed __ __ __ __ __ __ __ __ __ __ __ __ __ _
 72
    65
 73
     2
 40
0.2067
 49
0.1654
 74
     0
 49
-0.0413
 74
     0
  0
LTYPE
  5
82
330
5
100
AcDbSymbolTableRecord
100
AcDbLinetypeTableRecord
  2
DASH_DOUBLE_DOT
 70
     0
  3
Dash Double-Dot __ . . __ . . __ . . __ . .
 72
    65
 73
     6
 40
0.4398
 49
0.24
 74
     0
 49
-0.06
 74
     0
 49
0.0098
 74
     0
 49
-0.06
 74
     0
 49
0.01
 74
     0
 49
-0.06
 74
     0
  0
LTYPE
  5
83
330
5
100
AcDbSymbolTableRecord
100
AcDbLinetypeTableRecord
  2
DASHED_SPACE
 70
     0
  3
Dashed Space __ __ __ __ __ __ __ __ __ __ __ _
 72
    65
 73
     2
 40
0.2067
 49
0.1654
 74
     0
 49
-0.0413
 74
     0
  0
LTYPE
  5
84
330
5
100
AcDbSymbolTableRecord
100
AcDbLinetypeTableRecord
  2
DOTTED
 70
     0
  3
Dotted . . . . . . . . . . . . . . . . . . . . 
 72
    65
 73
     2
 40
0.0482
 49
0.0069
 74
     0
 49
-0.0413
 74
     0
  0
LTYPE
  5
85
330
5
100
AcDbSymbolTableRecord
100
AcDbLinetypeTableRecord
  2
DOUBLE_DASH_CHAIN
 70
     0
  3
Double-Dash Chain ______  __  __  ______  __  _
 72
    65
 73
     6
 40
1.240299999999999
 49
0.6614
 74
     0
 49
-0.0827
 74
     0
 49
0.1654
 74
     0
 49
-0.0827
 74
     0
 49
0.1654
 74
     0
 49
-0.0827
 74
     0
  0
LTYPE
  5
87
330
5
100
AcDbSymbolTableRecord
100
AcDbLinetypeTableRecord
  2
DOUBLE_DASH_DOUBLE_DOT
 70
     0
  3
Double-Dash Double-dot _ _ . . _ _ . . _
 72
    65
 73
     8
 40
0.7400000000000001
 49
0.24
 74
     0
 49
-0.06
 74
     0
 49
0.24
 74
     0
 49
-0.06
 74
     0
 49
0.01
 74
     0
 49
-0.06
 74
     0
 49
0.01
 74
     0
 49
-0.06
 74
     0
  0
LTYPE
  5
88
330
5
100
AcDbSymbolTableRecord
100
AcDbLinetypeTableRecord
  2
DOUBLE_DASH_TRIPLE_DOT
 70
     0
  3
Double Dash Triple Dot __ __ . . . __ __ . .
 72
    65
 73
    10
 40
0.8100000000000001
 49
0.24
 74
     0
 49
-0.06
 74
     0
 49
0.24
 74
     0
 49
-0.06
 74
     0
 49
0.01
 74
     0
 49
-0.06
 74
     0
 49
0.01
 74
     0
 49
-0.06
 74
     0
 49
0.01
 74
     0
 49
-0.06
 74
     0
  0
LTYPE
  5
89
330
5
100
AcDbSymbolTableRecord
100
AcDbLinetypeTableRecord
  2
LONG_DASH_DOTTED
 70
     0
  3
Long Dash Dotted ____ . ____ . ____ . ____ . _
 72
    65
 73
     4
 40
0.3543
 49
0.2362
 74
     0
 49
-0.0295
 74
     0
 49
0.0591
 74
     0
 49
-0.0295
 74
     0
  0
LTYPE
  5
8A
330
5
100
AcDbSymbolTableRecord
100
AcDbLinetypeTableRecord
  2
LONG_DASH_DOUBLE_DOT
 70
     0
  3
Long Dash Double Dot ________  .  .  ________  
 72
    65
 73
     6
 40
0.6799999999999999
 49
0.48
 74
     0
 49
-0.06
 74
     0
 49
0.01
 74
     0
 49
-0.06
 74
     0
 49
0.01
 74
     0
 49
-0.06
 74
     0
  0
LTYPE
  5
8B
330
5
100
AcDbSymbolTableRecord
100
AcDbLinetypeTableRecord
  2
LONG_DASH_TRIPLE_DOT
 70
     0
  3
Long Dash Triple Dot ____ ... ____ ... ____
 72
    65
 73
     8
 40
0.3689
 49
0.2362
 74
     0
 49
-0.0295
 74
     0
 49
0.0049
 74
     0
 49
-0.0295
 74
     0
 49
0.0049
 74
     0
 49
-0.0295
 74
     0
 49
0.0049
 74
     0
 49
-0.0295
 74
     0
  0
LTYPE
  5
8C
330
5
100
AcDbSymbolTableRecord
100
AcDbLinetypeTableRecord
  2
BORDER
 70
     0
  3
Border __ __ . __ __ . __ __ . __ __ . __ __ .
 72
    65
 73
     6
 40
1.75
 49
0.5
 74
     0
 49
-0.25
 74
     0
 49
0.5
 74
     0
 49
-0.25
 74
     0
 49
0.0
 74
     0
 49
-0.25
 74
     0
  0
LTYPE
  5
8D
330
5
100
AcDbSymbolTableRecord
100
AcDbLinetypeTableRecord
  2
BORDER2
 70
     0
  3
Border (.5x) __.__.__.__.__.__.__.__.__.__.__.
 72
    65
 73
     6
 40
0.875
 49
0.25
 74
     0
 49
-0.125
 74
     0
 49
0.25
 74
     0
 49
-0.125
 74
     0
 49
0.0
 74
     0
 49
-0.125
 74
     0
  0
LTYPE
  5
8E
330
5
100
AcDbSymbolTableRecord
100
AcDbLinetypeTableRecord
  2
BORDERX2
 70
     0
  3
Border (2x) ____  ____  .  ____  ____  .  ___
 72
    65
 73
     6
 40
3.5
 49
1.0
 74
     0
 49
-0.5
 74
     0
 49
1.0
 74
     0
 49
-0.5
 74
     0
 49
0.0
 74
     0
 49
-0.5
 74
     0
  0
LTYPE
  5
8F
330
5
100
AcDbSymbolTableRecord
100
AcDbLinetypeTableRecord
  2
CENTER
 70
     0
  3
Center ____ _ ____ _ ____ _ ____ _ ____ _ ____
 72
    65
 73
     4
 40
2.0
 49
1.25
 74
     0
 49
-0.25
 74
     0
 49
0.25
 74
     0
 49
-0.25
 74
     0
  0
LTYPE
  5
90
330
5
100
AcDbSymbolTableRecord
100
AcDbLinetypeTableRecord
  2
CENTER2
 70
     0
  3
Center (.5x) ___ _ ___ _ ___ _ ___ _ ___ _ ___
 72
    65
 73
     4
 40
1.125
 49
0.75
 74
     0
 49
-0.125
 74
     0
 49
0.125
 74
     0
 49
-0.125
 74
     0
  0
LTYPE
  5
91
330
5
100
AcDbSymbolTableRecord
100
AcDbLinetypeTableRecord
  2
CENTERX2
 70
     0
  3
Center (2x) ________  __  ________  __  _____
 72
    65
 73
     4
 40
4.0
 49
2.5
 74
     0
 49
-0.5
 74
     0
 49
0.5
 74
     0
 49
-0.5
 74
     0
  0
LTYPE
  5
92
330
5
100
AcDbSymbolTableRecord
100
AcDbLinetypeTableRecord
  2
DASHDOT2
 70
     0
  3
Dash dot (.5x) _._._._._._._._._._._._._._._.
 72
    65
 73
     4
 40
0.5
 49
0.25
 74
     0
 49
-0.125
 74
     0
 49
0.0
 74
     0
 49
-0.125
 74
     0
  0
LTYPE
  5
93
330
5
100
AcDbSymbolTableRecord
100
AcDbLinetypeTableRecord
  2
DASHDOTX2
 70
     0
  3
Dash dot (2x) ____  .  ____  .  ____  .  ___
 72
    65
 73
     4
 40
2.0
 49
1.0
 74
     0
 49
-0.5
 74
     0
 49
0.0
 74
     0
 49
-0.5
 74
     0
  0
LTYPE
  5
95
330
5
100
AcDbSymbolTableRecord
100
AcDbLinetypeTableRecord
  2
DASHED2
 70
     0
  3
Dashed (.5x) _ _ _ _ _ _ _ _ _ _ _ _ _ _ _ _ _
 72
    65
 73
     2
 40
0.375
 49
0.25
 74
     0
 49
-0.125
 74
     0
  0
LTYPE
  5
96
330
5
100
AcDbSymbolTableRecord
100
AcDbLinetypeTableRecord
  2
DASHEDX2
 70
     0
  3
Dashed (2x) ____  ____  ____  ____  ____  ___
 72
    65
 73
     2
 40
1.5
 49
1.0
 74
     0
 49
-0.5
 74
     0
  0
LTYPE
  5
97
330
5
100
AcDbSymbolTableRecord
100
AcDbLinetypeTableRecord
  2
DIVIDE
 70
     0
  3
Divide ____ . . ____ . . ____ . . ____ . . ____
 72
    65
 73
     6
 40
1.25
 49
0.5
 74
     0
 49
-0.25
 74
     0
 49
0.0
 74
     0
 49
-0.25
 74
     0
 49
0.0
 74
     0
 49
-0.25
 74
     0
  0
LTYPE
  5
98
330
5
100
AcDbSymbolTableRecord
100
AcDbLinetypeTableRecord
  2
DIVIDE2
 70
     0
  3
Divide (.5x) __..__..__..__..__..__..__..__.._
 72
    65
 73
     6
 40
0.625
 49
0.25
 74
     0
 49
-0.125
 74
     0
 49
0.0
 74
     0
 49
-0.125
 74
     0
 49
0.0
 74
     0
 49
-0.125
 74
     0
  0
LTYPE
  5
99
330
5
100
AcDbSymbolTableRecord
100
AcDbLinetypeTableRecord
  2
DIVIDEX2
 70
     0
  3
Divide (2x) ________  .  .  ________  .  .  _
 72
    65
 73
     6
 40
2.5
 49
1.0
 74
     0
 49
-0.5
 74
     0
 49
0.0
 74
     0
 49
-0.5
 74
     0
 49
0.0
 74
     0
 49
-0.5
 74
     0
  0
LTYPE
  5
9A
330
5
100
AcDbSymbolTableRecord
100
AcDbLinetypeTableRecord
  2
DOT
 70
     0
  3
Dot . . . . . . . . . . . . . . . . . . . . . .
 72
    65
 73
     2
 40
0.25
 49
0.0
 74
     0
 49
-0.25
 74
     0
  0
LTYPE
  5
9B
330
5
100
AcDbSymbolTableRecord
100
AcDbLinetypeTableRecord
  2
DOT2
 70
     0
  3
Dot (.5x) .....................................
 72
    65
 73
     2
 40
0.125
 49
0.0
 74
     0
 49
-0.125
 74
     0
  0
LTYPE
  5
9C
330
5
100
AcDbSymbolTableRecord
100
AcDbLinetypeTableRecord
  2
DOTX2
 70
     0
  3
Dot (2x) .  .  .  .  .  .  .  .  .  .  .  .  . 
 72
    65
 73
     2
 40
0.5
 49
0.0
 74
     0
 49
-0.5
 74
     0
  0
LTYPE
  5
9D
330
5
100
AcDbSymbolTableRecord
100
AcDbLinetypeTableRecord
  2
HIDDEN
 70
     0
  3
Hidden __ __ __ __ __ __ __ __ __ __ __ __ __ _
 72
    65
 73
     2
 40
0.375
 49
0.25
 74
     0
 49
-0.125
 74
     0
  0
LTYPE
  5
9E
330
5
100
AcDbSymbolTableRecord
100
AcDbLinetypeTableRecord
  2
HIDDEN2
 70
     0
  3
Hidden (.5x) _ _ _ _ _ _ _ _ _ _ _ _ _ _ _ _ _
 72
    65
 73
     2
 40
0.1875
 49
0.125
 74
     0
 49
-0.0625
 74
     0
  0
LTYPE
  5
9F
330
5
100
AcDbSymbolTableRecord
100
AcDbLinetypeTableRecord
  2
HIDDENX2
 70
     0
  3
Hidden (2x) ____ ____ ____ ____ ____ ____ ____
 72
    65
 73
     2
 40
0.75
 49
0.5
 74
     0
 49
-0.25
 74
     0
  0
LTYPE
  5
A0
330
5
100
AcDbSymbolTableRecord
100
AcDbLinetypeTableRecord
  2
PHANTOM
 70
     0
  3
Phantom ______  __  __  ______  __  __  ______
 72
    65
 73
     6
 40
2.5
 49
1.25
 74
     0
 49
-0.25
 74
     0
 49
0.25
 74
     0
 49
-0.25
 74
     0
 49
0.25
 74
     0
 49
-0.25
 74
     0
  0
LTYPE
  5
A1
330
5
100
AcDbSymbolTableRecord
100
AcDbLinetypeTableRecord
  2
PHANTOM2
 70
     0
  3
Phantom (.5x) ___ _ _ ___ _ _ ___ _ _ ___ _ _
 72
    65
 73
     6
 40
1.25
 49
0.625
 74
     0
 49
-0.125
 74
     0
 49
0.125
 74
     0
 49
-0.125
 74
     0
 49
0.125
 74
     0
 49
-0.125
 74
     0
  0
LTYPE
  5
A2
330
5
100
AcDbSymbolTableRecord
100
AcDbLinetypeTableRecord
  2
PHANTOMX2
 70
     0
  3
Phantom (2x) ____________    ____    ____   _
 72
    65
 73
     6
 40
5.0
 49
2.5
 74
     0
 49
-0.5
 74
     0
 49
0.5
 74
     0
 49
-0.5
 74
     0
 49
0.5
 74
     0
 49
-0.5
 74
     0
  0
LTYPE
  5
A3
330
5
100
AcDbSymbolTableRecord
100
AcDbLinetypeTableRecord
  2
ACAD_ISO02W100
 70
     0
  3
ISO dash __ __ __ __ __ __ __ __ __ __ __ __ __
 72
    65
 73
     2
 40
0.59
 49
0.47
 74
     0
 49
-0.12
 74
     0
  0
LTYPE
  5
A4
330
5
100
AcDbSymbolTableRecord
100
AcDbLinetypeTableRecord
  2
ACAD_ISO03W100
 70
     0
  3
ISO dash space __    __    __    __    __    __
 72
    65
 73
     2
 40
1.179999999999999
 49
0.47
 74
     0
 49
-0.71
 74
     0
  0
LTYPE
  5
A5
330
5
100
AcDbSymbolTableRecord
100
AcDbLinetypeTableRecord
  2
ACAD_ISO04W100
 70
     0
  3
ISO long-dash dot ____ . ____ . ____ . ____ . _
 72
    65
 73
     4
 40
1.179999999999999
 49
0.9399999999999998
 74
     0
 49
-0.12
 74
     0
 49
0.0
 74
     0
 49
-0.12
 74
     0
  0
LTYPE
  5
A6
330
5
100
AcDbSymbolTableRecord
100
AcDbLinetypeTableRecord
  2
ACAD_ISO05W100
 70
     0
  3
ISO long-dash double-dot ____ .. ____ .. ____ .
 72
    65
 73
     6
 40
1.299999999999999
 49
0.9399999999999998
 74
     0
 49
-0.12
 74
     0
 49
0.0
 74
     0
 49
-0.12
 74
     0
 49
0.0
 74
     0
 49
-0.12
 74
     0
  0
LTYPE
  5
A7
330
5
100
AcDbSymbolTableRecord
100
AcDbLinetypeTableRecord
  2
ACAD_ISO06W100
 70
     0
  3
ISO long-dash triple-dot ____ ... ____ ... ____
 72
    65
 73
     8
 40
1.419999999999999
 49
0.9399999999999998
 74
     0
 49
-0.12
 74
     0
 49
0.0
 74
     0
 49
-0.12
 74
     0
 49
0.0
 74
     0
 49
-0.12
 74
     0
 49
0.0
 74
     0
 49
-0.12
 74
     0
  0
LTYPE
  5
A8
330
5
100
AcDbSymbolTableRecord
100
AcDbLinetypeTableRecord
  2
ACAD_ISO07W100
 70
     0
  3
ISO dot . . . . . . . . . . . . . . . . . . . .
 72
    65
 73
     2
 40
0.12
 49
0.0
 74
     0
 49
-0.12
 74
     0
  0
LTYPE
  5
A9
330
5
100
AcDbSymbolTableRecord
100
AcDbLinetypeTableRecord
  2
ACAD_ISO08W100
 70
     0
  3
ISO long-dash short-dash ____ __ ____ __ ____ _
 72
    65
 73
     4
 40
0.95
 49
0.47
 74
     0
 49
-0.12
 74
     0
 49
0.24
 74
     0
 49
-0.12
 74
     0
  0
LTYPE
  5
AA
330
5
100
AcDbSymbolTableRecord
100
AcDbLinetypeTableRecord
  2
ACAD_ISO09W100
 70
     0
  3
ISO long-dash double-short-dash ____ __ __ ____
 72
    65
 73
     6
 40
1.31
 49
0.47
 74
     0
 49
-0.12
 74
     0
 49
0.24
 74
     0
 49
-0.12
 74
     0
 49
0.24
 74
     0
 49
-0.12
 74
     0
  0
LTYPE
  5
AB
330
5
100
AcDbSymbolTableRecord
100
AcDbLinetypeTableRecord
  2
ACAD_ISO10W100
 70
     0
  3
ISO dash dot __ . __ . __ . __ . __ . __ . __ .
 72
    65
 73
     4
 40
0.71
 49
0.47
 74
     0
 49
-0.12
 74
     0
 49
0.0
 74
     0
 49
-0.12
 74
     0
  0
LTYPE
  5
AC
330
5
100
AcDbSymbolTableRecord
100
AcDbLinetypeTableRecord
  2
ACAD_ISO11W100
 70
     0
  3
ISO double-dash dot __ __ . __ __ . __ __ . __ 
 72
    65
 73
     6
 40
1.299999999999999
 49
0.47
 74
     0
 49
-0.12
 74
     0
 49
0.47
 74
     0
 49
-0.12
 74
     0
 49
0.0
 74
     0
 49
-0.12
 74
     0
  0
LTYPE
  5
AD
330
5
100
AcDbSymbolTableRecord
100
AcDbLinetypeTableRecord
  2
ACAD_ISO12W100
 70
     0
  3
ISO dash double-dot __ . . __ . . __ . . __ . .
 72
    65
 73
     6
 40
0.8299999999999998
 49
0.47
 74
     0
 49
-0.12
 74
     0
 49
0.0
 74
     0
 49
-0.12
 74
     0
 49
0.0
 74
     0
 49
-0.12
 74
     0
  0
LTYPE
  5
AE
330
5
100
AcDbSymbolTableRecord
100
AcDbLinetypeTableRecord
  2
ACAD_ISO13W100
 70
     0
  3
ISO double-dash double-dot __ __ . . __ __ . . 
 72
    65
 73
     8
 40
1.419999999999999
 49
0.47
 74
     0
 49
-0.12
 74
     0
 49
0.47
 74
     0
 49
-0.12
 74
     0
 49
0.0
 74
     0
 49
-0.12
 74
     0
 49
0.0
 74
     0
 49
-0.12
 74
     0
  0
LTYPE
  5
AF
330
5
100
AcDbSymbolTableRecord
100
AcDbLinetypeTableRecord
  2
ACAD_ISO14W100
 70
     0
  3
ISO dash triple-dot __ . . . __ . . . __ . . . 
 72
    65
 73
     8
 40
0.95
 49
0.47
 74
     0
 49
-0.12
 74
     0
 49
0.0
 74
     0
 49
-0.12
 74
     0
 49
0.0
 74
     0
 49
-0.12
 74
     0
 49
0.0
 74
     0
 49
-0.12
 74
     0
  0
LTYPE
  5
B0
330
5
100
AcDbSymbolTableRecord
100
AcDbLinetypeTableRecord
  2
ACAD_ISO15W100
 70
     0
  3
ISO double-dash triple-dot __ __ . . . __ __ . 
 72
    65
 73
    10
 40
1.539999999999999
 49
0.47
 74
     0
 49
-0.12
 74
     0
 49
0.47
 74
     0
 49
-0.12
 74
     0
 49
0.0
 74
     0
 49
-0.12
 74
     0
 49
0.0
 74
     0
 49
-0.12
 74
     0
 49
0.0
 74
     0
 49
-0.12
 74
     0
  0
LTYPE
  5
B3
330
5
100
AcDbSymbolTableRecord
100
AcDbLinetypeTableRecord
  2
FENCELINE1
 70
     0
  3
Fenceline circle ----0-----0----0-----0----0---
 72
    65
 73
     4
 40
1.45
 49
0.25
 74
     0
 49
-0.1
 74
     4
 75
   133
340
B2
 46
0.1
 50
0.0
 44
-0.1
 45
0.0
 49
-0.1
 74
     0
 49
1.0
 74
     0
  0
LTYPE
  5
B4
330
5
100
AcDbSymbolTableRecord
100
AcDbLinetypeTableRecord
  2
FENCELINE2
 70
     0
  3
Fenceline square ----[]-----[]----[]-----[]----
 72
    65
 73
     4
 40
1.45
 49
0.25
 74
     0
 49
-0.1
 74
     4
 75
   132
340
B2
 46
0.1
 50
0.0
 44
-0.1
 45
0.0
 49
-0.1
 74
     0
 49
1.0
 74
     0
  0
LTYPE
  5
B5
330
5
100
AcDbSymbolTableRecord
100
AcDbLinetypeTableRecord
  2
TRACKS
 70
     0
  3
Tracks -|-|-|-|-|-|-|-|-|-|-|-|-|-|-|-|-|-|-|-|
 72
    65
 73
     2
 40
0.3
 49
0.15
 74
     4
 75
   130
340
B2
 46
0.25
 50
0.0
 44
0.0
 45
0.0
 49
0.15
 74
     0
  0
LTYPE
  5
B6
330
5
100
AcDbSymbolTableRecord
100
AcDbLinetypeTableRecord
  2
BATTING
 70
     0
  3
Batting SSSSSSSSSSSSSSSSSSSSSSSSSSSSSSSSSSSSSSS
 72
    65
 73
     4
 40
0.4001000000000001
 49
0.0001
 74
     0
 49
-0.1
 74
     4
 75
   134
340
B2
 46
0.1
 50
0.0
 44
-0.1
 45
0.0
 49
-0.2
 74
     4
 75
   134
340
B2
 46
0.1
 50
180.0
 44
0.1
 45
0.0
 49
-0.1
 74
     0
  0
LTYPE
  5
B7
330
5
100
AcDbSymbolTableRecord
100
AcDbLinetypeTableRecord
  2
HOT_WATER_SUPPLY
 70
     0
  3
Hot water supply ---- HW ---- HW ---- HW ----
 72
    65
 73
     3
 40
0.9
 49
0.5
 74
     0
 49
-0.2
 74
     2
 75
     0
340
55
 46
0.1
 50
0.0
 44
-0.1
 45
-0.05
  9
HW
 49
-0.2
 74
     0
  0
LTYPE
  5
B8
330
5
100
AcDbSymbolTableRecord
100
AcDbLinetypeTableRecord
  2
GAS_LINE
 70
     0
  3
Gas line ----GAS----GAS----GAS----GAS----GAS---
 72
    65
 73
     3
 40
0.95
 49
0.5
 74
     0
 49
-0.2
 74
     2
 75
     0
340
55
 46
0.1
 50
0.0
 44
-0.1
 45
-0.05
  9
GAS
 49
-0.25
 74
     0
  0
LTYPE
  5
B9
330
5
100
AcDbSymbolTableRecord
100
AcDbLinetypeTableRecord
  2
ZIGZAG
 70
     0
  3
Zig zag /\/\/\/\/\/\/\/\/\/\/\/\/\/\/\/\/\/\/\/
 72
    65
 73
     4
 40
0.8001000000000001
 49
0.0001
 74
     0
 49
-0.2
 74
     4
 75
   131
340
B2
 46
0.2
 50
0.0
 44
-0.2
 45
0.0
 49
-0.4
 74
     4
 75
   131
340
B2
 46
0.2
 50
180.0
 44
0.2
 45
0.0
 49
-0.2
 74
     0
  0
ENDTAB
  0
TABLE
  2
LAYER
  5
2
330
0
100
AcDbSymbolTable
 70
     4
  0
LAYER
  5
54
330
2
100
AcDbSymbolTableRecord
100
AcDbLayerTableRecord
  2
0
 70
     0
 62
     7
  6
Continuous
370
    -3
390
F
  0
LAYER
  5
BF
330
2
100
AcDbSymbolTableRecord
100
AcDbLayerTableRecord
  2
Border (ANSI)
 70
     0
 62
     7
  6
Continuous
370
    25
390
F
  0
LAYER
  5
D1
330
2
100
AcDbSymbolTableRecord
100
AcDbLayerTableRecord
  2
Visible (ANSI)
 70
     0
 62
     7
  6
Continuous
370
    18
390
F
  0
LAYER
  5
D2
330
2
100
AcDbSymbolTableRecord
100
AcDbLayerTableRecord
  2
Visible Narrow (ANSI)
 70
     0
 62
     7
  6
Continuous
370
     9
390
F
  0
ENDTAB
  0
TABLE
  2
STYLE
  5
3
330
0
100
AcDbSymbolTable
 70
     5
  0
STYLE
  5
55
330
3
100
AcDbSymbolTableRecord
100
AcDbTextStyleTableRecord
  2
Standard
 70
     0
 40
0.0
 41
0.899999976158142
 50
0.0
 71
     0
 42
0.2
  3
txt
  4

  0
STYLE
  5
5A
330
3
100
AcDbSymbolTableRecord
100
AcDbTextStyleTableRecord
  2
Annotative
 70
     0
 40
0.0
 41
1.0
 50
0.0
 71
     0
 42
0.2
  3
txt
  4

1001
AcadAnnotative
1000
AnnotativeData
1002
{
1070
     1
1070
     1
1002
}
  0
STYLE
  5
B2
330
3
100
AcDbSymbolTableRecord
100
AcDbTextStyleTableRecord
  2

 70
     1
 40
0.0
 41
1.0
 50
0.0
 71
     0
 42
0.2
  3
ltypeshp.shx
  4

  0
STYLE
  5
D6
330
3
100
AcDbSymbolTableRecord
100
AcDbTextStyleTableRecord
  2
Label Text (ANSI)
 70
     0
 40
0.0
 41
0.899999976158142
 50
0.0
 71
     0
 42
0.2
  3
Txt.shx
  4

  0
STYLE
  5
D7
330
3
100
AcDbSymbolTableRecord
100
AcDbTextStyleTableRecord
  2
Note Text (ANSI)
 70
     0
 40
0.0
 41
0.899999976158142
 50
0.0
 71
     0
 42
0.2
  3
Txt.shx
  4

  0
ENDTAB
  0
TABLE
  2
VIEW
  5
6
330
0
100
AcDbSymbolTable
 70
     0
  0
ENDTAB
  0
TABLE
  2
UCS
  5
7
330
0
100
AcDbSymbolTable
 70
     0
  0
ENDTAB
  0
TABLE
  2
APPID
  5
9
330
0
100
AcDbSymbolTable
 70
     4
  0
APPID
  5
56
330
9
100
AcDbSymbolTableRecord
100
AcDbRegAppTableRecord
  2
ACAD
 70
     0
  0
APPID
  5
5E
330
9
100
AcDbSymbolTableRecord
100
AcDbRegAppTableRecord
  2
AcadAnnotative
 70
     0
  0
APPID
  5
33E
330
9
100
AcDbSymbolTableRecord
100
AcDbRegAppTableRecord
  2
ACAD_MLEADERVER
 70
     0
  0
APPID
  5
355
330
9
100
AcDbSymbolTableRecord
100
AcDbRegAppTableRecord
  2
ACAD_NAV_VCDISPLAY
 70
     0
  0
ENDTAB
  0
TABLE
  2
DIMSTYLE
  5
A
330
0
100
AcDbSymbolTable
 70
    21
100
AcDbDimStyleTable
 71
     0
  0
DIMSTYLE
105
58
330
A
100
AcDbSymbolTableRecord
100
AcDbDimStyleTableRecord
  2
Standard
 70
     0
340
55
  0
DIMSTYLE
105
59
330
A
100
AcDbSymbolTableRecord
100
AcDbDimStyleTableRecord
  2
Annotative
 70
     0
340
55
1001
AcadAnnotative
1000
AnnotativeData
1002
{
1070
     1
1070
     1
1002
}
  0
DIMSTYLE
105
D8
330
A
100
AcDbSymbolTableRecord
100
AcDbDimStyleTableRecord
  2
Architectural (ANSI)
 70
     0
 41
0.0984251946210861
 43
0.2362204724409449
 44
0.125
 45
0.00000001
 46
0.3937007874015748
 78
     3
 79
     3
140
0.0799999982118607
146
1.500000119209289
147
0.031496062992126
171
     1
176
   256
177
   256
178
     5
272
     2
274
     1
276
     2
277
     4
284
    12
285
     4
286
    12
340
D7
371
    -1
372
    -1
  0
DIMSTYLE
105
D9
330
A
100
AcDbSymbolTableRecord
100
AcDbDimStyleTableRecord
  2
Architectural (ANSI)$7
 70
     0
 41
0.0984251946210861
 43
0.2362204724409449
 44
0.125
 45
0.00000001
 46
0.3937007874015748
 78
     3
 79
     3
140
0.0799999982118607
146
1.500000119209289
147
0.031496062992126
171
     1
176
     5
177
   256
178
     5
272
     2
274
     1
276
     2
277
     4
284
    12
285
     4
286
    12
340
D7
371
    -1
372
    -1
  0
DIMSTYLE
105
DA
330
A
100
AcDbSymbolTableRecord
100
AcDbDimStyleTableRecord
  2
Default - Fraction (ANSI)
 70
     0
 41
0.0984251946210861
 43
0.2362204724409449
 44
0.125
 45
0.00000001
 46
0.3937007874015748
 79
     3
140
0.0799999982118607
146
1.500000119209289
147
0.031496062992126
171
     1
176
   256
177
   256
178
     5
272
     2
274
     1
276
     2
277
     5
284
    12
285
     4
286
    12
340
D7
371
    -1
372
    -1
  0
DIMSTYLE
105
DB
330
A
100
AcDbSymbolTableRecord
100
AcDbDimStyleTableRecord
  2
Default - Fraction (ANSI)$7
 70
     0
 41
0.0984251946210861
 43
0.2362204724409449
 44
0.125
 45
0.00000001
 46
0.3937007874015748
 79
     3
140
0.0799999982118607
146
1.500000119209289
147
0.031496062992126
171
     1
176
     5
177
   256
178
     5
272
     2
274
     1
276
     2
277
     5
284
    12
285
     4
286
    12
340
D7
371
    -1
372
    -1
  0
DIMSTYLE
105
DC
330
A
100
AcDbSymbolTableRecord
100
AcDbDimStyleTableRecord
  2
Default - mm (ANSI)
 70
     0
 41
0.0984251946210861
 42
0.063
 43
0.2362204724409449
 44
0.125
 45
0.00000001
 46
0.3937007874015748
 73
     0
 78
     4
 79
     1
140
0.0799999982118607
143
1.0
144
25.4
146
1.500000119209289
147
0.031496062992126
171
     1
176
   256
177
   256
178
     5
179
     1
271
     2
272
     2
274
     1
284
     4
285
     4
340
D7
371
    -1
372
    -1
  0
DIMSTYLE
105
DD
330
A
100
AcDbSymbolTableRecord
100
AcDbDimStyleTableRecord
  2
Default - mm (ANSI)$7
 70
     0
 41
0.0984251946210861
 42
0.063
 43
0.2362204724409449
 44
0.125
 45
0.00000001
 46
0.3937007874015748
 73
     0
 78
     4
 79
     1
140
0.0799999982118607
143
1.0
144
25.4
146
1.500000119209289
147
0.031496062992126
171
     1
176
     5
177
   256
178
     5
179
     1
271
     2
272
     2
274
     1
284
     4
285
     4
340
D7
371
    -1
372
    -1
  0
DIMSTYLE
105
DE
330
A
100
AcDbSymbolTableRecord
100
AcDbDimStyleTableRecord
  2
Default - mm [in] (ANSI)
 70
     0
  4
 in
 41
0.0984251946210861
 42
0.063
 43
0.25
 44
0.125
 45
0.00000001
 46
0.3937007874015748
 73
     0
 78
     4
 79
     1
140
0.0799999982118607
143
0.03937
144
25.4
146
1.500000119209289
147
0.031496062992126
170
     1
171
     3
176
   256
177
   256
178
     5
179
     1
271
     2
272
     2
274
     3
284
     4
285
     4
286
     4
340
D7
371
    -1
372
    -1
  0
DIMSTYLE
105
DF
330
A
100
AcDbSymbolTableRecord
100
AcDbDimStyleTableRecord
  2
Default - mm [in] (ANSI)$7
 70
     0
  4
 in
 41
0.0984251946210861
 42
0.063
 43
0.25
 44
0.125
 45
0.00000001
 46
0.3937007874015748
 73
     0
 78
     4
 79
     1
140
0.0799999982118607
143
0.03937
144
25.4
146
1.500000119209289
147
0.031496062992126
170
     1
171
     3
176
     5
177
   256
178
     5
179
     1
271
     2
272
     2
274
     3
284
     4
285
     4
286
     4
340
D7
371
    -1
372
    -1
  0
DIMSTYLE
105
E0
330
A
100
AcDbSymbolTableRecord
100
AcDbDimStyleTableRecord
  2
Default (ANSI)
 70
     0
 41
0.0984251946210861
 43
0.2362204724409449
 44
0.125
 45
0.00000001
 46
0.3937007874015748
 78
     4
 79
     1
140
0.0799999982118607
146
1.500000119209289
147
0.031496062992126
171
     1
176
   256
177
   256
178
     5
271
     2
272
     2
274
     1
284
     4
285
     4
340
D7
371
    -1
372
    -1
  0
DIMSTYLE
105
E1
330
A
100
AcDbSymbolTableRecord
100
AcDbDimStyleTableRecord
  2
Default (ANSI)$7
 70
     0
 41
0.0984251946210861
 43
0.2362204724409449
 44
0.125
 45
0.00000001
 46
0.3937007874015748
 78
     4
 79
     1
140
0.0799999982118607
146
1.500000119209289
147
0.031496062992126
171
     1
176
     5
177
   256
178
     5
271
     2
272
     2
274
     1
284
     4
285
     4
340
D7
371
    -1
372
    -1
  0
DIMSTYLE
105
E2
330
A
100
AcDbSymbolTableRecord
100
AcDbDimStyleTableRecord
  2
SST-STANDARD DIMEN
 70
     0
 41
0.0984251946210861
 43
0.2362204724409449
 44
0.062
 45
0.00000001
 46
0.3937007874015748
140
0.0799999982118607
147
0.031496062992126
171
     1
176
     5
177
     5
178
     5
271
     3
272
     3
274
     1
286
    12
340
D7
371
     9
372
     9
  0
DIMSTYLE
105
E3
330
A
100
AcDbSymbolTableRecord
100
AcDbDimStyleTableRecord
  2
SST-STANDARD DIMEN$7
 70
     0
 41
0.0984251946210861
 43
0.2362204724409449
 44
0.062
 45
0.00000001
 46
0.3937007874015748
140
0.0799999982118607
147
0.031496062992126
171
     1
176
     5
177
     5
178
     5
271
     3
272
     3
274
     1
286
    12
340
D7
371
    -1
372
     9
  0
DIMSTYLE
105
E4
330
A
100
AcDbSymbolTableRecord
100
AcDbDimStyleTableRecord
  2
SST-STANDARD DIMENSION-METRIC
 70
     0
 41
0.0984251946210861
 43
0.2362204724409449
 44
0.062
 45
0.00000001
 46
0.3937007874015748
140
0.0799999982118607
143
0.03937
144
25.4
147
0.031496062992126
171
     3
176
     5
177
     5
178
     5
271
     1
272
     1
274
     3
286
    12
340
D7
371
    25
372
    25
  0
DIMSTYLE
105
E5
330
A
100
AcDbSymbolTableRecord
100
AcDbDimStyleTableRecord
  2
SST-STANDARD DIMENSION-METRIC$7
 70
     0
 41
0.0984251946210861
 43
0.2362204724409449
 44
0.062
 45
0.00000001
 46
0.3937007874015748
140
0.0799999982118607
143
0.03937
144
25.4
147
0.031496062992126
171
     3
176
     5
177
     5
178
     5
271
     1
272
     1
274
     3
286
    12
340
D7
371
    -1
372
    25
  0
DIMSTYLE
105
E6
330
A
100
AcDbSymbolTableRecord
100
AcDbDimStyleTableRecord
  2
SST-STANDARD DIMENSIONS-FRACTION
 70
     0
 41
0.0984251946210861
 43
0.2362204724409449
 44
0.062
 45
0.00000001
 46
0.3937007874015748
 78
     1
140
0.0799999982118607
147
0.031496062992126
171
     1
176
     5
177
     5
178
     5
271
     5
272
     3
274
     1
276
     2
277
     5
286
    12
340
D7
371
     9
372
     9
  0
DIMSTYLE
105
E7
330
A
100
AcDbSymbolTableRecord
100
AcDbDimStyleTableRecord
  2
SST-STANDARD DIMENSIONS-FRACTION$7
 70
     0
 41
0.0984251946210861
 43
0.2362204724409449
 44
0.062
 45
0.00000001
 46
0.3937007874015748
 78
     1
140
0.0799999982118607
147
0.031496062992126
171
     1
176
     5
177
     5
178
     5
271
     5
272
     3
274
     1
276
     2
277
     5
286
    12
340
D7
371
    -1
372
     9
  0
DIMSTYLE
105
E8
330
A
100
AcDbSymbolTableRecord
100
AcDbDimStyleTableRecord
  2
Alternate (ANSI)
 70
     0
 41
0.0979999974370003
340
55
342
E9
  0
DIMSTYLE
105
FB
330
A
100
AcDbSymbolTableRecord
100
AcDbDimStyleTableRecord
  2
Datum (ANSI)
 70
     0
 41
0.0979999974370003
340
55
342
E9
  0
DIMSTYLE
105
10A
330
A
100
AcDbSymbolTableRecord
100
AcDbDimStyleTableRecord
  2
Large (ANSI)
 70
     0
 41
0.1959999948740005
340
55
342
E9
  0
ENDTAB
  0
TABLE
  2
BLOCK_RECORD
  5
1
330
0
100
AcDbSymbolTable
 70
     5
  0
BLOCK_RECORD
  5
6C
330
1
100
AcDbSymbolTableRecord
100
AcDbBlockTableRecord
  2
*Model_Space
340
6F
  0
BLOCK_RECORD
  5
68
330
1
100
AcDbSymbolTableRecord
100
AcDbBlockTableRecord
  2
*Paper_Space
340
6B
  0
BLOCK_RECORD
  5
70
330
1
100
AcDbSymbolTableRecord
100
AcDbBlockTableRecord
  2
*Paper_Space0
340
73
  0
BLOCK_RECORD
  5
E9
330
1
100
AcDbSymbolTableRecord
100
AcDbBlockTableRecord
  2
_Closed
340
0
  0
BLOCK_RECORD
  5
F0
330
1
100
AcDbSymbolTableRecord
100
AcDbBlockTableRecord
  2
DatumFilled45
340
0
  0
BLOCK_RECORD
  5
FC
330
1
100
AcDbSymbolTableRecord
100
AcDbBlockTableRecord
  2
Filled-1
340
0
  0
BLOCK_RECORD
  5
10B
330
1
100
AcDbSymbolTableRecord
100
AcDbBlockTableRecord
  2
Borders SST-LAND
340
0
102
{BLKREFS
331
112
102
}
  0
ENDTAB
  0
ENDSEC
  0
SECTION
  2
BLOCKS
  0
BLOCK
  5
6D
330
6C
100
AcDbEntity
  8
0
100
AcDbBlockBegin
  2
*Model_Space
 70
     0
 10
0.0
 20
0.0
 30
0.0
  3
*Model_Space
  1

  0
ENDBLK
  5
6E
330
6C
100
AcDbEntity
  8
0
100
AcDbBlockEnd
  0
BLOCK
  5
69
330
68
100
AcDbEntity
 67
     1
  8
0
100
AcDbBlockBegin
  2
*Paper_Space
 70
     0
 10
0.0
 20
0.0
 30
0.0
  3
*Paper_Space
  1

  0
ENDBLK
  5
6A
330
68
100
AcDbEntity
 67
     1
  8
0
100
AcDbBlockEnd
  0
BLOCK
  5
71
330
70
100
AcDbEntity
 67
     1
  8
0
100
AcDbBlockBegin
  2
*Paper_Space0
 70
     0
 10
0.0
 20
0.0
 30
0.0
  3
*Paper_Space0
  1

  0
ENDBLK
  5
72
330
70
100
AcDbEntity
 67
     1
  8
0
100
AcDbBlockEnd
  0
BLOCK
  5
EE
330
E9
100
AcDbEntity
  8
0
100
AcDbBlockBegin
  2
_Closed
 70
     0
 10
0.0
 20
0.0
 30
0.0
  3
_Closed
  1

  0
LINE
  5
EA
330
E9
100
AcDbEntity
  8
0
  6
ByBlock
 62
     0
370
    -2
100
AcDbLine
 10
-1.0
 20
0.1666666666666666
 30
0.0
 11
0.0
 21
0.0
 31
0.0
  0
LINE
  5
EB
330
E9
100
AcDbEntity
  8
0
  6
ByBlock
 62
     0
370
    -2
100
AcDbLine
 10
0.0
 20
0.0
 30
0.0
 11
-1.0
 21
-0.1666666666666666
 31
0.0
  0
LINE
  5
EC
330
E9
100
AcDbEntity
  8
0
  6
ByBlock
 62
     0
370
    -2
100
AcDbLine
 10
-1.0
 20
0.1666666666666666
 30
0.0
 11
-1.0
 21
-0.1666666666666666
 31
0.0
  0
LINE
  5
ED
330
E9
100
AcDbEntity
  8
0
  6
ByBlock
 62
     0
370
    -2
100
AcDbLine
 10
0.0
 20
0.0
 30
0.0
 11
-1.0
 21
0.0
 31
0.0
  0
ENDBLK
  5
EF
330
E9
100
AcDbEntity
  8
0
100
AcDbBlockEnd
  0
BLOCK
  5
F1
330
F0
100
AcDbEntity
  8
0
100
AcDbBlockBegin
  2
DatumFilled45
 70
     0
 10
0.0
 20
0.0
 30
0.0
  3
DatumFilled45
  1

  0
POLYLINE
  5
F3
330
F0
100
AcDbEntity
  8
0
 62
     0
100
AcDb2dPolyline
 66
     1
 10
0.0
 20
0.0
 30
0.0
 70
   128
  0
VERTEX
  5
F4
330
F3
100
AcDbEntity
  8
0
 62
     0
100
AcDbVertex
100
AcDb2dVertex
 10
0.0
 20
0.9999999999999998
 30
0.0
  0
VERTEX
  5
F5
330
F3
100
AcDbEntity
  8
0
 62
     0
100
AcDbVertex
100
AcDb2dVertex
 10
0.0
 20
-0.9999999999999998
 30
0.0
  0
VERTEX
  5
F7
330
F3
100
AcDbEntity
  8
0
 62
     0
100
AcDbVertex
100
AcDb2dVertex
 10
-0.9999999999999998
 20
0.0
 30
0.0
  0
VERTEX
  5
F8
330
F3
100
AcDbEntity
  8
0
 62
     0
100
AcDbVertex
100
AcDb2dVertex
 10
0.0
 20
0.9999999999999998
 30
0.0
  0
SEQEND
  5
F6
330
F3
100
AcDbEntity
  8
0
 62
     0
  0
SOLID
  5
FA
330
F0
100
AcDbEntity
  8
0
 62
     0
100
AcDbTrace
 10
0.0
 20
0.9999999999999998
 30
0.0
 11
0.0
 21
-0.9999999999999998
 31
0.0
 12
-0.9999999999999998
 22
0.0
 32
0.0
 13
0.0
 23
0.9999999999999998
 33
0.0
  0
ENDBLK
  5
F2
330
F0
100
AcDbEntity
  8
0
100
AcDbBlockEnd
  0
BLOCK
  5
FD
330
FC
100
AcDbEntity
  8
0
100
AcDbBlockBegin
  2
Filled-1
 70
     0
 10
0.0
 20
0.0
 30
0.0
  3
Filled-1
  1

  0
LINE
  5
FF
330
FC
100
AcDbEntity
  8
0
 62
     0
100
AcDbLine
 10
-0.9999999999999998
 20
0.0
 30
0.0
 11
0.0
 21
0.0
 31
0.0
  0
POLYLINE
  5
100
330
FC
100
AcDbEntity
  8
0
 62
     0
100
AcDb2dPolyline
 66
     1
 10
0.0
 20
0.0
 30
0.0
 70
   128
  0
VERTEX
  5
101
330
100
100
AcDbEntity
  8
0
 62
     0
100
AcDbVertex
100
AcDb2dVertex
 10
-0.9999999999999998
 20
-0.0994897959183674
 30
0.0
  0
VERTEX
  5
102
330
100
100
AcDbEntity
  8
0
 62
     0
100
AcDbVertex
100
AcDb2dVertex
 10
0.0
 20
0.0
 30
0.0
  0
VERTEX
  5
104
330
100
100
AcDbEntity
  8
0
 62
     0
100
AcDbVertex
100
AcDb2dVertex
 10
-0.9999999999999998
 20
0.0994897959183674
 30
0.0
  0
VERTEX
  5
105
330
100
100
AcDbEntity
  8
0
 62
     0
100
AcDbVertex
100
AcDb2dVertex
 10
-0.9999999999999998
 20
-0.0994897959183674
 30
0.0
  0
SEQEND
  5
103
330
100
100
AcDbEntity
  8
0
 62
     0
  0
SOLID
  5
106
330
FC
100
AcDbEntity
  8
0
 62
     0
100
AcDbTrace
 10
-0.9999999999999998
 20
-0.0994897959183674
 30
0.0
 11
0.0
 21
0.0
 31
0.0
 12
-0.9999999999999998
 22
0.0994897959183674
 32
0.0
 13
-0.9999999999999998
 23
-0.0994897959183674
 33
0.0
  0
LINE
  5
107
330
FC
100
AcDbEntity
  8
0
 62
     0
100
AcDbLine
 10
-0.9999999999999998
 20
-0.0994897959183674
 30
0.0
 11
0.0
 21
0.0
 31
0.0
  0
LINE
  5
108
330
FC
100
AcDbEntity
  8
0
 62
     0
100
AcDbLine
 10
0.0
 20
0.0
 30
0.0
 11
-0.9999999999999998
 21
0.0994897959183674
 31
0.0
  0
LINE
  5
109
330
FC
100
AcDbEntity
  8
0
 62
     0
100
AcDbLine
 10
-0.9999999999999998
 20
0.0994897959183674
 30
0.0
 11
-0.9999999999999998
 21
-0.0994897959183674
 31
0.0
  0
ENDBLK
  5
FE
330
FC
100
AcDbEntity
  8
0
100
AcDbBlockEnd
  0
BLOCK
  5
10C
330
10B
100
AcDbEntity
  8
0
100
AcDbBlockBegin
  2
Borders SST-LAND
 70
     0
 10
0.0
 20
0.0
 30
0.0
  3
Borders SST-LAND
  1

  0
LINE
  5
10E
330
10B
100
AcDbEntity
  8
Border (ANSI)
 62
     7
370
    50
100
AcDbLine
 10
0.5000000000000013
 20
10.5
 30
0.0
 11
0.500000000000005
 21
0.4999999999999999
 31
0.0
  0
LINE
  5
10F
330
10B
100
AcDbEntity
  8
Border (ANSI)
 62
     7
370
    50
100
AcDbLine
 10
16.49999999999999
 20
10.5
 30
0.0
 11
0.5000000000000013
 21
10.5
 31
0.0
  0
LINE
  5
110
330
10B
100
AcDbEntity
  8
Border (ANSI)
 62
     7
370
    50
100
AcDbLine
 10
16.5
 20
0.4999999999999999
 30
0.0
 11
16.49999999999999
 21
10.5
 31
0.0
  0
LINE
  5
111
330
10B
100
AcDbEntity
  8
Border (ANSI)
 62
     7
370
    50
100
AcDbLine
 10
0.500000000000005
 20
0.4999999999999999
 30
0.0
 11
16.5
 21
0.4999999999999999
 31
0.0
  0
ENDBLK
  5
10D
330
10B
100
AcDbEntity
  8
0
100
AcDbBlockEnd
  0
ENDSEC
  0
SECTION
  2
ENTITIES
  0
INSERT
  5
112
330
6C
100
AcDbEntity
  8
0
100
AcDbBlockReference
  2
Borders SST-LAND
 10
0.0
 20
0.0
 30
0.0
  0
SPLINE
  5
113
330
6C
100
AcDbEntity
  8
Visible (ANSI)
100
AcDbSpline
210
0.0
220
0.0
230
1.0
 70
     8
 71
     3
 72
    12
 73
     8
 74
     0
 42
0.0000000001
 43
0.0000000001
 40
0.5304578326454945
 40
0.5304578326454945
 40
0.5304578326454945
 40
0.5304578326454945
 40
0.6526931970837532
 40
0.6526931970837532
 40
0.7749285615220119
 40
0.7749285615220119
 40
0.8021491729745793
 40
0.8021491729745793
 40
0.8021491729745793
 40
0.8021491729745793
 10
7.79328287409696
 20
6.048641745140944
 30
0.0
 10
7.782672951941996
 20
6.04714825093858
 30
0.0
 10
7.769649928325986
 20
6.04801012612441
 30
0.0
 10
7.741455020415968
 20
6.054808138092266
 30
0.0
 10
7.726250463605661
 20
6.060684955410048
 30
0.0
 10
7.70869139248415
 20
6.06878395238115
 30
0.0
 10
7.705442626658289
 20
6.070335509110981
 30
0.0
 10
7.702164968786246
 20
6.071946752215619
 30
0.0
  0
LINE
  5
114
330
6C
100
AcDbEntity
  8
Visible Narrow (ANSI)
100
AcDbLine
 10
7.79328287409696
 20
6.048641745140944
 30
0.0
 11
7.890058507808294
 21
6.232430893486112
 31
0.0
  0
ELLIPSE
  5
115
330
6C
100
AcDbEntity
  8
Visible Narrow (ANSI)
100
AcDbEllipse
 10
7.801670160159975
 20
6.283461929794095
 30
0.0
 11
-0.1106037377703249
 21
0.0582392753323126
 31
0.0
210
0.0
220
0.0
230
1.0
 40
0.0549599991522592
 41
1.599727875326133
 42
2.525042170005246
  0
LINE
  5
116
330
6C
100
AcDbEntity
  8
Visible Narrow (ANSI)
100
AcDbLine
 10
7.801670160159975
 20
6.275700974988728
 30
0.0
 11
7.696890328276381
 21
6.076710843618703
 31
0.0
  0
ELLIPSE
  5
117
330
6C
100
AcDbEntity
  8
Visible Narrow (ANSI)
100
AcDbEllipse
 10
7.801670160159883
 20
6.493505611036177
 30
0.0
 11
-0.0746418122175677
 21
-0.1002676411853667
 31
0.0
210
0.0
220
0.0
230
1.0
 40
0.8146447478256629
 41
0.740389554729517
 42
1.665703849385859
  0
ELLIPSE
  5
118
330
6C
100
AcDbEntity
  8
Visible Narrow (ANSI)
100
AcDbEllipse
 10
7.75073162561241
 20
6.297675528753481
 30
0.0
 11
0.0478276359922093
 21
0.0828398955444159
 31
0.0
210
0.0
220
0.0
230
0.9999999999999998
 40
0.5773502691896243
 41
4.779751892062282
 42
6.215822395502995
  0
ELLIPSE
  5
119
330
6C
100
AcDbEntity
  8
Visible Narrow (ANSI)
100
AcDbEllipse
 10
7.785946996382552
 20
6.277343924959728
 30
0.0
 11
0.0977532533139448
 21
0.1693136013449031
 31
0.0
210
0.0
220
0.0
230
0.9999999999999998
 40
0.5773502691896259
 41
4.779751892062289
 42
6.215822395503001
  0
LINE
  5
11A
330
6C
100
AcDbEntity
  8
Visible Narrow (ANSI)
100
AcDbLine
 10
7.728663874038239
 20
6.432816593795171
 30
0.0
 11
7.801670160159931
 21
6.378468835784589
 31
0.0
  0
LINE
  5
11B
330
6C
100
AcDbEntity
  8
Visible Narrow (ANSI)
100
AcDbLine
 10
7.890058507808202
 20
6.442474574728193
 30
0.0
 11
7.793282874096953
 21
6.514516846725033
 31
0.0
  0
LINE
  5
11C
330
6C
100
AcDbEntity
  8
Visible Narrow (ANSI)
100
AcDbLine
 10
7.799234509598756
 20
6.377968050811252
 30
0.0
 11
7.698233095695344
 21
6.377968050811252
 31
0.0
  0
LINE
  5
11D
330
6C
100
AcDbEntity
  8
Visible Narrow (ANSI)
100
AcDbLine
 10
7.799234509598756
 20
6.377968050811252
 30
0.0
 11
7.801670160159931
 21
6.378468835784589
 31
0.0
  0
LINE
  5
11E
330
6C
100
AcDbEntity
  8
Visible Narrow (ANSI)
100
AcDbLine
 10
7.799234509598801
 20
6.276978542189245
 30
0.0
 11
7.662774571812595
 21
6.276978542189245
 31
0.0
  0
ELLIPSE
  5
11F
330
6C
100
AcDbEntity
  8
Visible (ANSI)
100
AcDbEllipse
 10
7.749177443760851
 20
6.298572836063848
 30
0.0
 11
-0.0470000000000049
 21
-0.0814063879557345
 31
0.0
210
0.0
220
0.0
230
1.0
 40
0.5773502691896259
 41
1.638159238472608
 42
3.074229741913571
  0
LINE
  5
120
330
6C
100
AcDbEntity
  8
Visible Narrow (ANSI)
100
AcDbLine
 10
7.799234509598801
 20
6.276978542189245
 30
0.0
 11
7.801670160159975
 21
6.275700974988728
 31
0.0
  0
ELLIPSE
  5
121
330
6C
100
AcDbEntity
  8
Visible (ANSI)
100
AcDbEllipse
 10
7.869555890775544
 20
7.754484559267799
 30
0.0
 11
-0.1524999999999842
 21
-0.2641377481542628
 31
0.0
210
0.0
220
0.0
230
1.0
 40
0.5773502691896259
 41
4.288472034984295
 42
6.707102252579714
  0
LINE
  5
122
330
6C
100
AcDbEntity
  8
Visible Narrow (ANSI)
100
AcDbLine
 10
7.890058507808285
 20
7.871343591351652
 30
0.0
 11
7.793282874096953
 21
7.943385863348555
 31
0.0
  0
ELLIPSE
  5
123
330
6C
100
AcDbEntity
  8
Visible Narrow (ANSI)
100
AcDbEllipse
 10
7.785946996382552
 20
7.706212941583247
 30
0.0
 11
0.0977532533139449
 21
0.1693136013449033
 31
0.0
210
0.0
220
0.0
230
1.0
 40
0.5773502691896259
 41
4.779751892062286
 42
6.215822395502081
  0
LINE
  5
124
330
6C
100
AcDbEntity
  8
Visible Narrow (ANSI)
100
AcDbLine
 10
7.793282874096962
 20
7.477510761764467
 30
0.0
 11
7.890058507808292
 21
7.661299910109632
 31
0.0
  0
LINE
  5
125
330
6C
100
AcDbEntity
  8
Visible Narrow (ANSI)
100
AcDbLine
 10
8.336352122414856
 20
5.776095738741839
 30
0.0
 11
8.336352122414856
 21
9.095565800727383
 31
0.0
  0
LINE
  5
126
330
6C
100
AcDbEntity
  8
Visible (ANSI)
100
AcDbLine
 10
8.20636038604203
 20
9.02051503674035
 30
0.0
 11
8.336352122414856
 21
9.095565800727383
 31
0.0
  0
LINE
  5
127
330
6C
100
AcDbEntity
  8
Visible (ANSI)
100
AcDbLine
 10
8.052342993712173
 20
8.75374908797646
 30
0.0
 11
8.20636038604203
 21
9.02051503674035
 31
0.0
  0
LINE
  5
128
330
6C
100
AcDbEntity
  8
Visible (ANSI)
100
AcDbLine
 10
8.052342993712269
 20
8.534197969224887
 30
0.0
 11
8.052342993712173
 21
8.75374908797646
 31
0.0
  0
ELLIPSE
  5
129
330
6C
100
AcDbEntity
  8
Visible (ANSI)
100
AcDbEllipse
 10
7.786470843986128
 20
8.38069661201032
 30
0.0
 11
0.18799999999998
 21
0.3256255518229596
 31
0.0
210
0.0
220
0.0
230
1.0
 40
0.5773502691896249
 41
4.18851542211682
 42
5.497787143782463
  0
LINE
  5
12A
330
6C
100
AcDbEntity
  8
Visible (ANSI)
100
AcDbLine
 10
7.71809428840153
 20
8.00227765059305
 30
0.0
 11
7.855213049600498
 21
8.123821269791964
 31
0.0
  0
ELLIPSE
  5
12B
330
6C
100
AcDbEntity
  8
Visible (ANSI)
100
AcDbEllipse
 10
7.78647084398604
 20
7.746768666577983
 30
0.0
 11
0.1870000000000197
 21
0.3238935010153701
 31
0.0
210
0.0
220
0.0
230
0.9999999999999998
 40
0.577350269189625
 41
1.046922768527304
 42
2.356194490192581
  0
LINE
  5
12C
330
6C
100
AcDbEntity
  8
Visible (ANSI)
100
AcDbLine
 10
7.522012907822398
 20
7.513577243065098
 30
0.0
 11
7.522012907822398
 21
7.594083805944571
 31
0.0
  0
ELLIPSE
  5
12D
330
6C
100
AcDbEntity
  8
Visible (ANSI)
100
AcDbEllipse
 10
7.786470843986041
 20
7.666262103698509
 30
0.0
 11
-0.1869999999999994
 21
-0.3238935010153792
 31
0.0
210
0.0
220
0.0
230
0.9999999999999998
 40
0.5773502691896258
 41
5.497787143782133
 42
6.807058865447652
  0
LINE
  5
12E
330
6C
100
AcDbEntity
  8
Visible (ANSI)
100
AcDbLine
 10
7.855213049600581
 20
7.368586162316959
 30
0.0
 11
7.718094288401619
 21
7.331798674137554
 31
0.0
  0
ELLIPSE
  5
12F
330
6C
100
AcDbEntity
  8
Visible (ANSI)
100
AcDbEllipse
 10
7.786470843986168
 20
7.032334158266296
 30
0.0
 11
0.1879999999999997
 21
0.3256255518229485
 31
0.0
210
0.0
220
0.0
230
0.9999999999999998
 40
0.5773502691896258
 41
5.497787143782135
 42
6.807058865447195
  0
LINE
  5
130
330
6C
100
AcDbEntity
  8
Visible (ANSI)
100
AcDbLine
 10
8.05234299371231
 20
7.105328952601235
 30
0.0
 11
8.05234299371231
 21
7.185835515480709
 31
0.0
  0
ELLIPSE
  5
131
330
6C
100
AcDbEntity
  8
Visible (ANSI)
100
AcDbEllipse
 10
7.786470843986168
 20
6.951827595386822
 30
0.0
 11
0.1879999999999806
 21
0.3256255518229605
 31
0.0
210
0.0
220
0.0
230
1.0
 40
0.577350269189625
 41
4.186012949625262
 42
5.497787143781962
  0
LINE
  5
132
330
6C
100
AcDbEntity
  8
Visible (ANSI)
100
AcDbLine
 10
7.71864323980998
 20
6.574316858181968
 30
0.0
 11
7.854570120830902
 21
6.694383348937985
 31
0.0
  0
ELLIPSE
  5
133
330
6C
100
AcDbEntity
  8
Visible (ANSI)
100
AcDbEllipse
 10
7.786470843986167
 20
6.317899649954536
 30
0.0
 11
0.1872500000000801
 21
0.3243265137173668
 31
0.0
210
0.0
220
0.0
230
1.0
 40
0.5773502691896249
 41
1.044420295970988
 42
2.356194490192727
  0
LINE
  5
134
330
6C
100
AcDbEntity
  8
Visible (ANSI)
100
AcDbLine
 10
7.521659354431799
 20
5.869193953905658
 30
0.0
 11
7.521659354431719
 21
6.165010665175725
 31
0.0
  0
LINE
  5
135
330
6C
100
AcDbEntity
  8
Visible (ANSI)
100
AcDbLine
 10
7.60969414868949
 20
5.818367041742928
 30
0.0
 11
7.521659354431799
 21
5.869193953905658
 31
0.0
  0
LINE
  5
136
330
6C
100
AcDbEntity
  8
Visible (ANSI)
100
AcDbLine
 10
7.742276670161967
 20
5.894913596204902
 30
0.0
 11
7.60969414868949
 21
5.818367041742928
 31
0.0
  0
ELLIPSE
  5
137
330
6C
100
AcDbEntity
  8
Visible (ANSI)
100
AcDbEllipse
 10
7.742276670161967
 20
5.843882559896919
 30
0.0
 11
0.0312499999999996
 21
0.0541265877365267
 31
0.0
210
0.0
220
0.0
230
1.0
 40
0.5773502691896258
 41
6.108652381980188
 42
7.068583470577066
  0
LINE
  5
138
330
6C
100
AcDbEntity
  8
Visible (ANSI)
100
AcDbLine
 10
8.030592826676308
 20
5.623854516367482
 30
0.0
 11
7.778478417995689
 21
5.894053848702688
 31
0.0
  0
ELLIPSE
  5
139
330
6C
100
AcDbEntity
  8
Visible (ANSI)
100
AcDbEllipse
 10
8.066794574510042
 20
5.674025805173255
 30
0.0
 11
-0.0312500000000001
 21
-0.0541265877365276
 31
0.0
210
0.0
220
0.0
230
1.0
 40
0.5773502691896257
 41
6.108652381979972
 42
7.068583470577034
  0
LINE
  5
13A
330
6C
100
AcDbEntity
  8
Visible (ANSI)
100
AcDbLine
 10
8.316800929876036
 20
5.767336005434946
 30
0.0
 11
8.066794574510042
 21
5.622994768865263
 31
0.0
  0
ELLIPSE
  5
13B
330
6C
100
AcDbEntity
  8
Visible (ANSI)
100
AcDbEllipse
 10
8.316800929876036
 20
5.665273932818974
 30
0.0
 11
-0.0624999999999976
 21
-0.1082531754730656
 31
0.0
210
0.0
220
0.0
230
1.0
 40
0.5773502691896257
 41
3.703949632825377
 42
3.926990816986942
  0
ELLIPSE
  5
13C
330
6C
100
AcDbEntity
  8
Visible (ANSI)
100
AcDbEllipse
 10
7.869555890775545
 20
6.325615542644278
 30
0.0
 11
-0.1524999999999842
 21
-0.2641377481542628
 31
0.0
210
0.0
220
0.0
230
1.0
 40
0.5773502691896262
 41
4.288472034984295
 42
6.707102252579716
  0
SPLINE
  5
13D
330
6C
100
AcDbEntity
  8
Visible (ANSI)
100
AcDbSpline
210
0.0
220
0.0
230
1.0
 70
     8
 71
     3
 72
    12
 73
     8
 74
     0
 42
0.0000000001
 43
0.0000000001
 40
1.545730988681323
 40
1.545730988681323
 40
1.545730988681323
 40
1.545730988681323
 40
1.668308176551489
 40
1.668308176551489
 40
1.790885364421654
 40
1.790885364421654
 40
1.817444250196421
 40
1.817444250196421
 40
1.817444250196421
 40
1.817444250196421
 10
7.793282874096962
 20
7.477510761764467
 30
0.0
 10
7.782643281968662
 20
7.476013091100435
 30
0.0
 10
7.769581161436303
 20
7.476884764462109
 30
0.0
 10
7.741302362606526
 20
7.483725006392599
 30
0.0
 10
7.726052766026247
 20
7.489633541840555
 30
0.0
 10
7.70853052451765
 20
7.497729803316244
 30
0.0
 10
7.705361741615222
 20
7.499244267823415
 30
0.0
 10
7.702164993934327
 20
7.500815745393495
 30
0.0
  0
ELLIPSE
  5
13E
330
6C
100
AcDbEntity
  8
Visible (ANSI)
100
AcDbEllipse
 10
8.030025021888345
 20
5.695254716277381
 30
0.0
 11
-0.0312500000000031
 21
-0.0541265877365327
 31
0.0
210
0.0
220
0.0
230
1.0
 40
0.5773502691896257
 41
6.10865238197999
 42
6.283185307179564
  0
LINE
  5
13F
330
6C
100
AcDbEntity
  8
Visible (ANSI)
100
AcDbLine
 10
7.75572758685504
 20
5.90025843333457
 30
0.0
 11
7.993823274054608
 21
5.645083427471603
 31
0.0
  0
LINE
  5
140
330
6C
100
AcDbEntity
  8
Visible (ANSI)
100
AcDbLine
 10
7.484889801810019
 20
6.186239576279846
 30
0.0
 11
7.484889801810099
 21
5.890422865009779
 31
0.0
  0
ELLIPSE
  5
141
330
6C
100
AcDbEntity
  8
Visible (ANSI)
100
AcDbEllipse
 10
7.749701291364467
 20
6.339128561058657
 30
0.0
 11
-0.1872500000000414
 21
-0.3243265137173888
 31
0.0
210
0.0
220
0.0
230
1.0
 40
0.5773502691896258
 41
4.186012949560501
 42
5.497787143782109
  0
LINE
  5
142
330
6C
100
AcDbEntity
  8
Visible (ANSI)
100
AcDbLine
 10
7.817800568209202
 20
6.715612260042105
 30
0.0
 11
7.68187368718828
 21
6.595545769286088
 31
0.0
  0
ELLIPSE
  5
143
330
6C
100
AcDbEntity
  8
Visible (ANSI)
100
AcDbEllipse
 10
7.749701291364468
 20
6.973056506490943
 30
0.0
 11
-0.1880000000000195
 21
-0.3256255518229378
 31
0.0
210
0.0
220
0.0
230
0.9999999999999998
 40
0.577350269189626
 41
1.044420296035742
 42
2.356194490192583
  0
LINE
  5
144
330
6C
100
AcDbEntity
  8
Visible (ANSI)
100
AcDbLine
 10
8.015573441090609
 20
7.20706442658483
 30
0.0
 11
8.015573441090609
 21
7.126557863705357
 31
0.0
  0
ELLIPSE
  5
145
330
6C
100
AcDbEntity
  8
Visible (ANSI)
100
AcDbEllipse
 10
7.74970129136447
 20
7.053563069370419
 30
0.0
 11
0.1879999999999985
 21
0.3256255518229464
 31
0.0
210
0.0
220
0.0
230
1.0
 40
0.5773502691896258
 41
5.49778714378214
 42
6.185237403634455
  0
ELLIPSE
  5
146
330
6C
100
AcDbEntity
  8
Visible (ANSI)
100
AcDbEllipse
 10
7.749701291364344
 20
7.687491014802634
 30
0.0
 11
-0.1870000000000006
 21
-0.3238935010153811
 31
0.0
210
0.0
220
0.0
230
1.0
 40
0.577350269189626
 41
5.497787143782137
 42
6.283185307179586
  0
LINE
  5
147
330
6C
100
AcDbEntity
  8
Visible (ANSI)
100
AcDbLine
 10
7.485243355200698
 20
7.615312717048693
 30
0.0
 11
7.485243355200698
 21
7.534806154169219
 31
0.0
  0
ELLIPSE
  5
148
330
6C
100
AcDbEntity
  8
Visible (ANSI)
100
AcDbEllipse
 10
7.749701291364339
 20
7.767997577682103
 30
0.0
 11
-0.1869999999999813
 21
-0.3238935010153923
 31
0.0
210
0.0
220
0.0
230
1.0
 40
0.5773502691896258
 41
4.18851542211682
 42
5.497787143781964
  0
LINE
  5
149
330
6C
100
AcDbEntity
  8
Visible (ANSI)
100
AcDbLine
 10
7.818443496978798
 20
8.145050180896085
 30
0.0
 11
7.681324735779829
 21
8.023506561697171
 31
0.0
  0
ELLIPSE
  5
14A
330
6C
100
AcDbEntity
  8
Visible (ANSI)
100
AcDbEllipse
 10
7.749701291364427
 20
8.40192552311444
 30
0.0
 11
-0.1880000000000186
 21
-0.3256255518229363
 31
0.0
210
0.0
220
0.0
230
1.0
 40
0.5773502691896258
 41
1.046922768527299
 42
2.356194490193091
  0
LINE
  5
14B
330
6C
100
AcDbEntity
  8
Visible (ANSI)
100
AcDbLine
 10
8.015573441090472
 20
8.774977999080581
 30
0.0
 11
8.015573441090568
 21
8.555426880329008
 31
0.0
  0
LINE
  5
14C
330
6C
100
AcDbEntity
  8
Visible (ANSI)
100
AcDbLine
 10
8.169590833420329
 20
9.041743947844471
 30
0.0
 11
8.015573441090472
 21
8.774977999080581
 31
0.0
  0
LINE
  5
14D
330
6C
100
AcDbEntity
  8
Visible (ANSI)
100
AcDbLine
 10
8.299582569793154
 20
9.116794711831502
 30
0.0
 11
8.169590833420329
 21
9.041743947844471
 31
0.0
  0
LINE
  5
14E
330
6C
100
AcDbEntity
  8
Visible Narrow (ANSI)
100
AcDbLine
 10
9.02718001133317
 20
6.517916051034806
 30
0.0
 11
8.964633349511997
 21
6.564478529778903
 31
0.0
  0
SPLINE
  5
14F
330
6C
100
AcDbEntity
  8
Visible Narrow (ANSI)
100
AcDbSpline
210
0.0
220
0.0
230
1.0
 70
     8
 71
     3
 72
    16
 73
    12
 74
     0
 42
0.0000000001
 43
0.0000000001
 40
-0.8526014295714494
 40
-0.8526014295714494
 40
-0.8526014295714494
 40
-0.8526014295714494
 40
-0.7511841478390238
 40
-0.7511841478390238
 40
-0.5309397873152254
 40
-0.5309397873152254
 40
-0.3310603362594525
 40
-0.3310603362594525
 40
-0.1273308985613279
 40
-0.1273308985613279
 40
0.0
 40
0.0
 40
0.0
 40
0.0
 10
9.034709106152572
 20
6.268735707904578
 30
0.0
 10
9.040471134962231
 20
6.280715038656023
 30
0.0
 10
9.045692072743673
 20
6.29291273996132
 30
0.0
 10
9.06009302099954
 20
6.33161995033735
 30
0.0
 10
9.066783081751175
 20
6.35828137029893
 30
0.0
 10
9.072290329876715
 20
6.406221876343658
 30
0.0
 10
9.071779463118119
 20
6.427763143042843
 30
0.0
 10
9.064431916717811
 20
6.466312696881261
 30
0.0
 10
9.05757216215078
 20
6.482986448242481
 30
0.0
 10
9.041987484004597
 20
6.504969155916219
 30
0.0
 10
9.034953652592372
 20
6.512129011481348
 30
0.0
 10
9.02718001133317
 20
6.517916051034806
 30
0.0
  0
SPLINE
  5
150
330
6C
100
AcDbEntity
  8
Visible (ANSI)
100
AcDbSpline
210
0.0
220
0.0
230
1.0
 70
     8
 71
     3
 72
    10
 73
     6
 74
     0
 42
0.0000000001
 43
0.0000000001
 40
1.210563213600773
 40
1.210563213600773
 40
1.210563213600773
 40
1.210563213600773
 40
1.254764688472911
 40
1.254764688472911
 40
1.306642161038959
 40
1.306642161038959
 40
1.306642161038959
 40
1.306642161038959
 10
8.875180618551539
 20
6.108821949173214
 30
0.0
 10
8.873743966262761
 20
6.110021173964081
 30
0.0
 10
8.872734384519105
 20
6.111080145641452
 30
0.0
 10
8.871449727429428
 20
6.113126974704773
 30
0.0
 10
8.871327463311763
 20
6.114124227832567
 30
0.0
 10
8.871815614855238
 20
6.115037326629122
 30
0.0
  0
ELLIPSE
  5
151
330
6C
100
AcDbEntity
  8
Visible (ANSI)
100
AcDbEllipse
 10
8.978391304391493
 20
6.400038848083691
 30
0.0
 11
-0.1525000000023837
 21
-0.2641377481583826
 31
0.0
210
0.0
220
0.0
230
1.0
 40
0.5773502691896258
 41
0.1208498579151325
 42
0.2871327068958154
  0
ELLIPSE
  5
152
330
6C
100
AcDbEntity
  8
Visible (ANSI)
100
AcDbEllipse
 10
8.978391304391568
 20
7.828907864707379
 30
0.0
 11
-0.1525000000024754
 21
-0.2641377481585414
 31
0.0
210
0.0
220
0.0
230
1.0
 40
0.5773502691896259
 41
0.1208498579151733
 42
0.287132706896239
  0
ELLIPSE
  5
153
330
6C
100
AcDbEntity
  8
Visible (ANSI)
100
AcDbEllipse
 10
9.334870203797567
 20
5.125951983684728
 30
0.0
 11
-0.0312499999999994
 21
-0.0541265877365263
 31
0.0
210
0.0
220
0.0
230
1.0
 40
0.5773502691896259
 41
5.585053606381855
 42
6.283185307179578
  0
LINE
  5
154
330
6C
100
AcDbEntity
  8
Visible (ANSI)
100
AcDbLine
 10
9.262004616146327
 20
5.46006851796556
 30
0.0
 11
9.290844202147397
 21
5.096085911908055
 31
0.0
  0
ELLIPSE
  5
155
330
6C
100
AcDbEntity
  8
Visible (ANSI)
100
AcDbEllipse
 10
9.217978614496155
 20
5.430202446188901
 30
0.0
 11
0.0312500000000129
 21
0.0541265877365185
 31
0.0
210
0.0
220
0.0
230
1.0
 40
0.5773502691896259
 41
5.585053606383212
 42
6.283185307181283
  0
LINE
  5
156
330
6C
100
AcDbEntity
  8
Visible (ANSI)
100
AcDbLine
 10
9.161178153775473
 20
5.830965668685747
 30
0.0
 11
9.160824853937601
 21
5.535368968881278
 31
0.0
  0
ELLIPSE
  5
157
330
6C
100
AcDbEntity
  8
Visible (ANSI)
100
AcDbEllipse
 10
8.895306257602044
 20
5.677888447082169
 30
0.0
 11
0.1880000000000005
 21
0.3256255518229481
 31
0.0
210
0.0
220
0.0
230
0.9999999999999998
 40
0.5773502691896269
 41
5.496406083169446
 42
6.185237403634451
  0
ELLIPSE
  5
158
330
6C
100
AcDbEntity
  8
Visible (ANSI)
100
AcDbEllipse
 10
8.895306257602044
 20
6.311816392514455
 30
0.0
 11
-0.1870000000000005
 21
-0.32389350101538
 31
0.0
210
0.0
220
0.0
230
0.9999999999999998
 40
0.5773502691896263
 41
5.497787143782141
 42
6.283185307179586
  0
LINE
  5
159
330
6C
100
AcDbEntity
  8
Visible (ANSI)
100
AcDbLine
 10
8.630848321438275
 20
6.239638094760445
 30
0.0
 11
8.630848321438275
 21
6.15913153188097
 31
0.0
  0
ELLIPSE
  5
15A
330
6C
100
AcDbEntity
  8
Visible (ANSI)
100
AcDbEllipse
 10
8.895306257602042
 20
6.39232295539393
 30
0.0
 11
-0.1869999999999798
 21
-0.3238935010153896
 31
0.0
210
0.0
220
0.0
230
0.9999999999999998
 40
0.5773502691896261
 41
4.188515422116973
 42
5.497787143781967
  0
LINE
  5
15B
330
6C
100
AcDbEntity
  8
Visible (ANSI)
100
AcDbLine
 10
8.964048463216457
 20
6.769375558607895
 30
0.0
 11
8.826929702017494
 21
6.647831939408962
 31
0.0
  0
ELLIPSE
  5
15C
330
6C
100
AcDbEntity
  8
Visible (ANSI)
100
AcDbEllipse
 10
8.895306257602172
 20
7.026250900826288
 30
0.0
 11
-0.1880000000000183
 21
-0.3256255518229354
 31
0.0
210
0.0
220
0.0
230
1.0
 40
0.5773502691896263
 41
1.046922768526999
 42
2.356194490192587
  0
LINE
  5
15D
330
6C
100
AcDbEntity
  8
Visible (ANSI)
100
AcDbLine
 10
9.161178407328186
 20
7.260258820920102
 30
0.0
 11
9.161178407328186
 21
7.179752258040627
 31
0.0
  0
ELLIPSE
  5
15E
330
6C
100
AcDbEntity
  8
Visible (ANSI)
100
AcDbEllipse
 10
8.895306257602172
 20
7.106757463705763
 30
0.0
 11
0.1880000000000014
 21
0.3256255518229496
 31
0.0
210
0.0
220
0.0
230
1.0
 40
0.5773502691896264
 41
5.497787143782138
 42
6.185237403634446
  0
ELLIPSE
  5
15F
330
6C
100
AcDbEntity
  8
Visible (ANSI)
100
AcDbEllipse
 10
8.895306257602085
 20
7.740685409137999
 30
0.0
 11
-0.1869999999999999
 21
-0.3238935010153785
 31
0.0
210
0.0
220
0.0
230
1.0
 40
0.5773502691896266
 41
5.497787143778427
 42
6.283185307179588
  0
LINE
  5
160
330
6C
100
AcDbEntity
  8
Visible (ANSI)
100
AcDbLine
 10
8.63084832143801
 20
7.807551667255915
 30
0.0
 11
8.630848321437307
 21
7.588000548505066
 31
0.0
  0
LINE
  5
161
330
6C
100
AcDbEntity
  8
Visible (ANSI)
100
AcDbLine
 10
8.78486571376754
 20
8.07431761602041
 30
0.0
 11
8.63084832143801
 21
7.807551667255915
 31
0.0
  0
LINE
  5
162
330
6C
100
AcDbEntity
  8
Visible (ANSI)
100
AcDbLine
 10
9.445742896398087
 20
8.455875235314689
 30
0.0
 11
8.78486571376754
 21
8.07431761602041
 31
0.0
  0
ELLIPSE
  5
163
330
6C
100
AcDbEntity
  8
Visible (ANSI)
100
AcDbEllipse
 10
9.019654861254162
 20
6.376215322421345
 30
0.0
 11
-0.1265556735075594
 21
-0.278696345423518
 31
0.0
210
0.0
220
0.0
230
0.9999999999999998
 40
0.5007957916305325
 41
6.145829397368679
 42
6.151258180837266
  0
LINE
  5
164
330
6C
100
AcDbEntity
  8
Visible (ANSI)
100
AcDbLine
 10
8.869326565868949
 20
6.09590941050701
 30
0.0
 11
8.875839229990022
 21
6.108277900131454
 31
0.0
  0
ELLIPSE
  5
165
330
6C
100
AcDbEntity
  8
Visible (ANSI)
100
AcDbEllipse
 10
8.905325019351819
 20
6.456752157112242
 30
0.0
 11
0.0587268700417841
 21
0.0780778514241587
 31
0.0
210
0.0
220
0.0
230
1.0
 40
0.5657414540893356
 41
0.9259156141491073
 42
1.437864161595507
  0
LINE
  5
166
330
6C
100
AcDbEntity
  8
Visible (ANSI)
100
AcDbLine
 10
8.905325019351819
 20
6.530236849395738
 30
0.0
 11
8.964633349511997
 21
6.564478529778903
 31
0.0
  0
ELLIPSE
  5
167
330
6C
100
AcDbEntity
  8
Visible (ANSI)
100
AcDbEllipse
 10
9.015160857013208
 20
6.3788099369796
 30
0.0
 11
-0.1525000000024005
 21
-0.2641377481584111
 31
0.0
210
0.0
220
0.0
230
1.0
 40
0.5773502691896261
 41
4.657303344973269
 42
6.366248580055543
  0
LINE
  5
168
330
6C
100
AcDbEntity
  8
Visible (ANSI)
100
AcDbLine
 10
8.869326565869085
 20
7.52477842713061
 30
0.0
 11
8.8758392299901
 21
7.537146916754944
 31
0.0
  0
ELLIPSE
  5
169
330
6C
100
AcDbEntity
  8
Visible (ANSI)
100
AcDbEllipse
 10
9.015160857013206
 20
7.807678953603122
 30
0.0
 11
-0.1525000000024006
 21
-0.2641377481584107
 31
0.0
210
0.0
220
0.0
230
0.9999999999999998
 40
0.577350269189626
 41
4.657303344972863
 42
6.366248580056018
  0
ELLIPSE
  5
16A
330
6C
100
AcDbEntity
  8
Visible (ANSI)
100
AcDbEllipse
 10
8.905325019351741
 20
7.885621173735718
 30
0.0
 11
0.0587268700417841
 21
0.0780778514241587
 31
0.0
210
0.0
220
0.0
230
1.0
 40
0.5657414540893356
 41
0.9259156141491073
 42
1.437864161592191
  0
LINE
  5
16B
330
6C
100
AcDbEntity
  8
Visible (ANSI)
100
AcDbLine
 10
8.905325019351741
 20
7.959105866019213
 30
0.0
 11
8.964633349512132
 21
7.993347546402501
 31
0.0
  0
LINE
  5
16C
330
6C
100
AcDbEntity
  8
Visible Narrow (ANSI)
100
AcDbLine
 10
9.027180011333303
 20
7.946785067658406
 30
0.0
 11
8.964633349512132
 21
7.993347546402501
 31
0.0
  0
SPLINE
  5
16D
330
6C
100
AcDbEntity
  8
Visible Narrow (ANSI)
100
AcDbSpline
210
0.0
220
0.0
230
1.0
 70
     8
 71
     3
 72
    16
 73
    12
 74
     0
 42
0.0000000001
 43
0.0000000001
 40
-0.8526014239648713
 40
-0.8526014239648713
 40
-0.8526014239648713
 40
-0.8526014239648713
 40
-0.7511814591715595
 40
-0.7511814591715595
 40
-0.530939556973415
 40
-0.530939556973415
 40
-0.331060231030227
 40
-0.331060231030227
 40
-0.1273308580885488
 40
-0.1273308580885488
 40
0.0
 40
0.0
 40
0.0
 40
0.0
 10
9.034709106037759
 20
7.69760472455602
 30
0.0
 10
9.040471286919625
 20
7.709584371803361
 30
0.0
 10
9.045692347897958
 20
7.721782400630329
 30
0.0
 10
9.06009319205637
 20
7.76048963417378
 30
0.0
 10
9.06678313020709
 20
7.787150747023132
 30
0.0
 10
9.072290329884463
 20
7.835090949034801
 30
0.0
 10
9.071779458516456
 20
7.856632203254155
 30
0.0
 10
9.06443190874841
 20
7.895181735499219
 30
0.0
 10
9.057572154311216
 20
7.911855478735962
 30
0.0
 10
9.041987479506984
 20
7.933838177126715
 30
0.0
 10
9.034953650121614
 20
7.940998029944388
 30
0.0
 10
9.027180011333303
 20
7.946785067658406
 30
0.0
  0
LINE
  5
16E
330
6C
100
AcDbEntity
  8
Visible (ANSI)
100
AcDbLine
 10
8.821635266389241
 20
8.053088704916289
 30
0.0
 11
9.482512449019786
 21
8.434646324210566
 31
0.0
  0
LINE
  5
16F
330
6C
100
AcDbEntity
  8
Visible (ANSI)
100
AcDbLine
 10
8.667617874059711
 20
7.786322756151793
 30
0.0
 11
8.821635266389241
 21
8.053088704916289
 31
0.0
  0
LINE
  5
170
330
6C
100
AcDbEntity
  8
Visible (ANSI)
100
AcDbLine
 10
8.667617874059006
 20
7.566771637400944
 30
0.0
 11
8.667617874059711
 21
7.786322756151793
 31
0.0
  0
ELLIPSE
  5
171
330
6C
100
AcDbEntity
  8
Visible (ANSI)
100
AcDbEllipse
 10
8.932075810223787
 20
7.719456498033882
 30
0.0
 11
-0.1870000000000014
 21
-0.3238935010153817
 31
0.0
210
0.0
220
0.0
230
1.0
 40
0.5773502691896263
 41
5.497787143778434
 42
6.80705886544735
  0
LINE
  5
172
330
6C
100
AcDbEntity
  8
Visible (ANSI)
100
AcDbLine
 10
9.000818015838246
 20
7.421780556652293
 30
0.0
 11
8.863699254639277
 21
7.38499306847286
 31
0.0
  0
ELLIPSE
  5
173
330
6C
100
AcDbEntity
  8
Visible (ANSI)
100
AcDbEllipse
 10
8.932075810223873
 20
7.085528552601644
 30
0.0
 11
0.1880000000000002
 21
0.3256255518229482
 31
0.0
210
0.0
220
0.0
230
1.0
 40
0.5773502691896263
 41
5.497787143782137
 42
6.807058865447354
  0
LINE
  5
174
330
6C
100
AcDbEntity
  8
Visible (ANSI)
100
AcDbLine
 10
9.197947959949887
 20
7.158523346936507
 30
0.0
 11
9.197947959949887
 21
7.239029909815981
 31
0.0
  0
ELLIPSE
  5
175
330
6C
100
AcDbEntity
  8
Visible (ANSI)
100
AcDbEllipse
 10
8.932075810223869
 20
7.005021989722167
 30
0.0
 11
0.1879999999999807
 21
0.3256255518229599
 31
0.0
210
0.0
220
0.0
230
1.0
 40
0.5773502691896264
 41
4.18851542211652
 42
5.497787143781969
  0
LINE
  5
176
330
6C
100
AcDbEntity
  8
Visible (ANSI)
100
AcDbLine
 10
8.863699254639195
 20
6.62660302830484
 30
0.0
 11
9.000818015838156
 21
6.748146647503775
 31
0.0
  0
ELLIPSE
  5
177
330
6C
100
AcDbEntity
  8
Visible (ANSI)
100
AcDbEllipse
 10
8.932075810223745
 20
6.371094044289808
 30
0.0
 11
0.1870000000000187
 21
0.3238935010153672
 31
0.0
210
0.0
220
0.0
230
0.9999999999999998
 40
0.5773502691896267
 41
1.046922768527453
 42
2.35619449019259
  0
LINE
  5
178
330
6C
100
AcDbEntity
  8
Visible (ANSI)
100
AcDbLine
 10
8.667617874059976
 20
6.13790262077685
 30
0.0
 11
8.667617874059976
 21
6.218409183656324
 31
0.0
  0
ELLIPSE
  5
179
330
6C
100
AcDbEntity
  8
Visible (ANSI)
100
AcDbEllipse
 10
8.932075810223745
 20
6.290587481410335
 30
0.0
 11
-0.1870000000000003
 21
-0.3238935010153798
 31
0.0
210
0.0
220
0.0
230
1.0
 40
0.5773502691896262
 41
5.497787143782136
 42
6.80705886544719
  0
LINE
  5
17A
330
6C
100
AcDbEntity
  8
Visible (ANSI)
100
AcDbLine
 10
9.000818015838156
 20
5.992911540028709
 30
0.0
 11
8.863699254639197
 21
5.956124051849305
 31
0.0
  0
ELLIPSE
  5
17B
330
6C
100
AcDbEntity
  8
Visible (ANSI)
100
AcDbEllipse
 10
8.932075810223745
 20
5.656659535978048
 30
0.0
 11
0.1880000000000001
 21
0.3256255518229481
 31
0.0
210
0.0
220
0.0
230
1.0
 40
0.5773502691896263
 41
5.496406083169443
 42
6.807058865447196
  0
LINE
  5
17C
330
6C
100
AcDbEntity
  8
Visible (ANSI)
100
AcDbLine
 10
9.1975944065593
 20
5.514140057777157
 30
0.0
 11
9.197947706397174
 21
5.809736757581626
 31
0.0
  0
LINE
  5
17D
330
6C
100
AcDbEntity
  8
Visible (ANSI)
100
AcDbLine
 10
9.285998167117869
 20
5.463100122821298
 30
0.0
 11
9.1975944065593
 21
5.514140057777157
 31
0.0
  0
ELLIPSE
  5
17E
330
6C
100
AcDbEntity
  8
Visible (ANSI)
100
AcDbEllipse
 10
9.254748167117854
 20
5.408973535084779
 30
0.0
 11
0.0312499999999999
 21
0.0541265877365272
 31
0.0
210
0.0
220
0.0
230
1.0
 40
0.5773502691896258
 41
5.585053606381563
 42
6.283185307179155
  0
LINE
  5
17F
330
6C
100
AcDbEntity
  8
Visible (ANSI)
100
AcDbLine
 10
9.327613754769096
 20
5.074857000803934
 30
0.0
 11
9.298774168768028
 21
5.438839606861439
 31
0.0
  0
ELLIPSE
  5
180
330
6C
100
AcDbEntity
  8
Visible (ANSI)
100
AcDbEllipse
 10
9.37163975641927
 20
5.104723072580608
 30
0.0
 11
-0.0312499999999999
 21
-0.0541265877365273
 31
0.0
210
0.0
220
0.0
230
1.0
 40
0.5773502691896258
 41
5.585053606381823
 42
7.068583470577034
  0
LINE
  5
181
330
6C
100
AcDbEntity
  8
Visible (ANSI)
100
AcDbLine
 10
9.462405896113697
 20
5.106095891458506
 30
0.0
 11
9.37163975641927
 21
5.053692036272626
 31
0.0
  0
ELLIPSE
  5
182
330
6C
100
AcDbEntity
  8
Visible (ANSI)
100
AcDbEllipse
 10
9.462405896113699
 20
5.004033818842555
 30
0.0
 11
-0.0624999999999857
 21
-0.1082531754730449
 31
0.0
210
0.0
220
0.0
230
1.0
 40
0.5773502691896259
 41
3.697502096068815
 42
3.926990816986942
  0
SPLINE
  5
183
330
6C
100
AcDbEntity
  8
Visible (ANSI)
100
AcDbSpline
210
0.0
220
0.0
230
1.0
 70
     8
 71
     3
 72
    10
 73
     6
 74
     0
 42
0.0000000001
 43
0.0000000001
 40
0.1958042101334049
 40
0.1958042101334049
 40
0.1958042101334049
 40
0.1958042101334049
 40
0.2400056850055416
 40
0.2400056850055416
 40
0.2918831575715835
 40
0.2918831575715835
 40
0.2918831575715835
 40
0.2918831575715835
 10
8.875180618551617
 20
7.537690965796705
 30
0.0
 10
8.873743966262841
 20
7.538890190587574
 30
0.0
 10
8.872734384519183
 20
7.539949162264945
 30
0.0
 10
8.871449727429512
 20
7.54199599132827
 30
0.0
 10
8.871327463311848
 20
7.542993244456067
 30
0.0
 10
8.871815614855321
 20
7.543906343252623
 30
0.0
  0
ELLIPSE
  5
184
330
6C
100
AcDbEntity
  8
Visible (ANSI)
100
AcDbEllipse
 10
9.019654861254297
 20
7.805084339044787
 30
0.0
 11
-0.1265556735075593
 21
-0.2786963454235179
 31
0.0
210
0.0
220
0.0
230
1.0
 40
0.5007957916305325
 41
6.145829397368216
 42
6.151258180836787
  0
LINE
  5
185
330
6C
100
AcDbEntity
  8
Visible Narrow (ANSI)
100
AcDbLine
 10
8.315761172946704
 20
5.74396601289147
 30
0.0
 11
8.299582569793155
 21
5.734625292005657
 31
0.0
  0
LINE
  5
186
330
6C
100
AcDbEntity
  8
Visible (ANSI)
100
AcDbLine
 10
8.336352122414856
 20
5.755854203109778
 30
0.0
 11
8.315761172946704
 21
5.74396601289147
 31
0.0
  0
LINE
  5
187
330
6C
100
AcDbEntity
  8
Visible Narrow (ANSI)
100
AcDbLine
 10
8.299582569793154
 20
9.148638078487556
 30
0.0
 11
8.336352122414854
 21
9.169866989591675
 31
0.0
  0
LINE
  5
188
330
6C
100
AcDbEntity
  8
Visible Narrow (ANSI)
100
AcDbLine
 10
8.336352122414856
 20
9.095565800727383
 30
0.0
 11
8.299582569793154
 21
9.116794711831502
 31
0.0
  0
LINE
  5
189
330
6C
100
AcDbEntity
  8
Visible Narrow (ANSI)
100
AcDbLine
 10
8.299582569793155
 20
5.734625292005657
 30
0.0
 11
8.299582569793155
 21
5.75739498060609
 31
0.0
  0
LINE
  5
18A
330
6C
100
AcDbEntity
  8
Visible Narrow (ANSI)
100
AcDbLine
 10
8.299582569793154
 20
9.116794711831502
 30
0.0
 11
8.299582569793154
 21
9.148638078487556
 31
0.0
  0
LINE
  5
18B
330
6C
100
AcDbEntity
  8
Visible (ANSI)
100
AcDbLine
 10
7.90194439423132
 20
7.304796881100401
 30
0.0
 11
7.95770938692538
 21
7.272600947557127
 31
0.0
  0
ELLIPSE
  5
18C
330
6C
100
AcDbEntity
  8
Visible (ANSI)
100
AcDbEllipse
 10
7.95770938692538
 20
7.202790489887807
 30
0.0
 11
0.0427499999999955
 21
-0.0740451720235719
 31
0.0
210
0.0
220
0.0
230
1.0
 40
0.5773502691896259
 41
1.079368712366765
 42
2.356194490192585
  0
ELLIPSE
  5
18D
330
6C
100
AcDbEntity
  8
Visible (ANSI)
100
AcDbEllipse
 10
7.95770938692538
 20
7.202790489887807
 30
0.0
 11
0.0427499999999999
 21
-0.0740451720235694
 31
0.0
210
0.0
220
0.0
230
0.9999999999999998
 40
0.5773502691896257
 41
5.497787143782137
 42
6.77461292160789
  0
LINE
  5
18E
330
6C
100
AcDbEntity
  8
Visible (ANSI)
100
AcDbLine
 10
7.95770938692538
 20
7.132980032218486
 30
0.0
 11
7.90194439423132
 21
7.165175965761759
 31
0.0
  0
ELLIPSE
  5
18F
330
6C
100
AcDbEntity
  8
Visible (ANSI)
100
AcDbEllipse
 10
7.90194439423132
 20
7.23498642343108
 30
0.0
 11
-0.0427499999999957
 21
0.0740451720235722
 31
0.0
210
0.0
220
0.0
230
1.0
 40
0.5773502691896258
 41
5.497787143782379
 42
8.639379797372173
  0
ELLIPSE
  5
190
330
6C
100
AcDbEntity
  8
Visible (ANSI)
100
AcDbEllipse
 10
7.90194439423132
 20
8.51076241995439
 30
0.0
 11
-0.0427499999999955
 21
0.0740451720235719
 31
0.0
210
0.0
220
0.0
230
1.0
 40
0.5773502691896259
 41
5.497787143782379
 42
8.639379797372173
  0
LINE
  5
191
330
6C
100
AcDbEntity
  8
Visible (ANSI)
100
AcDbLine
 10
7.90194439423132
 20
8.58057287762371
 30
0.0
 11
7.95770938692538
 21
8.548376944080436
 31
0.0
  0
ELLIPSE
  5
192
330
6C
100
AcDbEntity
  8
Visible (ANSI)
100
AcDbEllipse
 10
7.95770938692538
 20
8.478566486411116
 30
0.0
 11
0.0427499999999955
 21
-0.0740451720235719
 31
0.0
210
0.0
220
0.0
230
1.0
 40
0.5773502691896259
 41
1.335113651824485
 42
2.356194490192587
  0
ELLIPSE
  5
193
330
6C
100
AcDbEntity
  8
Visible (ANSI)
100
AcDbEllipse
 10
7.957709386925384
 20
8.478566486411109
 30
0.0
 11
0.0427499999999957
 21
-0.074045172023562
 31
0.0
210
0.0
220
0.0
230
1.0
 40
0.5773502691896254
 41
5.497787143782115
 42
6.004301630784556
  0
LINE
  5
194
330
6C
100
AcDbEntity
  8
Visible (ANSI)
100
AcDbLine
 10
7.95770938692538
 20
8.408756028741796
 30
0.0
 11
7.90194439423132
 21
8.440951962285071
 31
0.0
  0
LINE
  5
195
330
6C
100
AcDbEntity
  8
Visible (ANSI)
100
AcDbLine
 10
7.835587787490199
 20
9.41652559095187
 30
0.0
 11
8.299582569793154
 21
9.148638078487556
 31
0.0
  0
LINE
  5
196
330
6C
100
AcDbEntity
  8
Visible (ANSI)
100
AcDbLine
 10
7.680973525110777
 20
9.327259004947801
 30
0.0
 11
7.835587787490199
 21
9.41652559095187
 31
0.0
  0
LINE
  5
197
330
6C
100
AcDbEntity
  8
Visible (ANSI)
100
AcDbLine
 10
7.680973525110777
 20
8.43421586955811
 30
0.0
 11
7.680973525110777
 21
9.327259004947801
 31
0.0
  0
ELLIPSE
  5
198
330
6C
100
AcDbEntity
  8
Visible (ANSI)
100
AcDbEllipse
 10
7.680973525110777
 20
8.281122760634161
 30
0.0
 11
0.0937500000000001
 21
-0.1623797632095824
 31
0.0
210
0.0
220
0.0
230
1.0
 40
0.5773502691896257
 41
5.497787143782137
 42
8.63937979737193
  0
LINE
  5
199
330
6C
100
AcDbEntity
  8
Visible (ANSI)
100
AcDbLine
 10
7.680973525110778
 20
6.648129558494122
 30
0.0
 11
7.680973525110778
 21
7.325333399637231
 31
0.0
  0
LINE
  5
19A
330
6C
100
AcDbEntity
  8
Visible (ANSI)
100
AcDbLine
 10
7.680973525110777
 20
8.023194945743423
 30
0.0
 11
7.680973525110777
 21
8.128029651710212
 31
0.0
  0
ELLIPSE
  5
19B
330
6C
100
AcDbEntity
  8
Visible (ANSI)
100
AcDbEllipse
 10
7.680973525110782
 20
6.578318729180733
 30
0.0
 11
-0.042750227584583
 21
0.0740455662116302
 31
0.0
210
0.0
220
0.0
230
1.0
 40
0.5773502691896259
 41
4.975341496248566
 42
5.497787143782184
  0
LINE
  5
19C
330
6C
100
AcDbEntity
  8
Visible (ANSI)
100
AcDbLine
 10
7.680758380198737
 20
5.243496906587382
 30
0.0
 11
7.680758380198737
 21
5.859395994934546
 31
0.0
  0
LINE
  5
19D
330
6C
100
AcDbEntity
  8
Visible (ANSI)
100
AcDbLine
 10
8.333948269319819
 20
4.995358542670178
 30
0.0
 11
8.333948269319819
 21
4.866377548271383
 31
0.0
  0
ELLIPSE
  5
19E
330
6C
100
AcDbEntity
  8
Visible (ANSI)
100
AcDbEllipse
 10
8.157171574023244
 20
5.097420615286004
 30
0.0
 11
0.1249999999999559
 21
-0.2165063509460333
 31
0.0
210
0.0
220
0.0
230
1.0
 40
0.5773502691896259
 41
0.7853981633979537
 42
0.8726646259977028
  0
LINE
  5
19F
330
6C
100
AcDbEntity
  8
Visible (ANSI)
100
AcDbLine
 10
8.300149502432912
 20
5.469870366612831
 30
0.0
 11
8.333275580623864
 21
5.013537511160288
 31
0.0
  0
ELLIPSE
  5
1A0
330
6C
100
AcDbEntity
  8
Visible (ANSI)
100
AcDbEllipse
 10
8.47625350903365
 20
5.385987262486946
 30
0.0
 11
0.1250000000000455
 21
-0.2165063509461586
 31
0.0
210
0.0
220
0.0
230
1.0
 40
0.5773502691896259
 41
3.926990816987006
 42
4.014257279586716
  0
LINE
  5
1A1
330
6C
100
AcDbEntity
  8
Visible (ANSI)
100
AcDbLine
 10
8.299476813736966
 20
5.729695155142057
 30
0.0
 11
8.299476813736966
 21
5.488049335102936
 31
0.0
  0
ELLIPSE
  5
1A2
330
6C
100
AcDbEntity
  8
Visible (ANSI)
100
AcDbEllipse
 10
8.387865161385018
 20
5.678664118834234
 30
0.0
 11
0.0624999999998187
 21
-0.1082531754727259
 31
0.0
210
0.0
220
0.0
230
1.0
 40
0.5773502691896258
 41
3.87806777809491
 42
3.926990816987037
  0
LINE
  5
1A3
330
6C
100
AcDbEntity
  8
Visible (ANSI)
100
AcDbLine
 10
8.336352122414854
 20
9.169866989591675
 30
0.0
 11
7.872357340111899
 21
9.437754502055991
 31
0.0
  0
LINE
  5
1A4
330
6C
100
AcDbEntity
  8
Visible (ANSI)
100
AcDbLine
 10
7.872357340111899
 20
9.437754502055991
 30
0.0
 11
7.835587787490199
 21
9.41652559095187
 31
0.0
  0
LINE
  5
1A5
330
6C
100
AcDbEntity
  8
Visible (ANSI)
100
AcDbLine
 10
9.536252564389965
 20
8.434646324210696
 30
0.0
 11
10.00132628810238
 21
8.16613588463319
 31
0.0
  0
LINE
  5
1A6
330
6C
100
AcDbEntity
  8
Visible (ANSI)
100
AcDbLine
 10
10.03809584072408
 20
8.187364795737311
 30
0.0
 11
10.00132628810238
 21
8.16613588463319
 31
0.0
  0
LINE
  5
1A7
330
6C
100
AcDbEntity
  8
Visible (ANSI)
100
AcDbLine
 10
10.03809584072408
 20
8.187364795737311
 30
0.0
 11
9.573022117011666
 21
8.455875235314815
 31
0.0
  0
LINE
  5
1A8
330
6C
100
AcDbEntity
  8
Visible (ANSI)
100
AcDbLine
 10
10.19240166697339
 20
7.920099264765208
 30
0.0
 11
10.03809584072408
 21
8.187364795737311
 31
0.0
  0
LINE
  5
1A9
330
6C
100
AcDbEntity
  8
Visible (ANSI)
100
AcDbLine
 10
10.19240166697331
 20
7.026699975933974
 30
0.0
 11
10.19240166697339
 21
7.920099264765208
 31
0.0
  0
ELLIPSE
  5
1AA
330
6C
100
AcDbEntity
  8
Visible (ANSI)
100
AcDbEllipse
 10
10.19240166697331
 20
6.873606867010026
 30
0.0
 11
-0.0937499999999904
 21
0.162379763209588
 31
0.0
210
0.0
220
0.0
230
1.0
 40
0.5773502691896257
 41
0.1973834706105979
 42
2.35619449019259
  0
LINE
  5
1AB
330
6C
100
AcDbEntity
  8
Visible (ANSI)
100
AcDbLine
 10
10.19240166697331
 20
5.24061366694763
 30
0.0
 11
10.19240166697331
 21
6.720513758086077
 31
0.0
  0
ELLIPSE
  5
1AC
330
6C
100
AcDbEntity
  8
Visible (ANSI)
100
AcDbEllipse
 10
10.19240166697335
 20
5.170802837634216
 30
0.0
 11
-0.0427502275845838
 21
0.0740455662116316
 31
0.0
210
0.0
220
0.0
230
1.0
 40
0.5773502691896259
 41
0.444549219853136
 42
0.785398163397451
  0
LINE
  5
1AD
330
6C
100
AcDbEntity
  8
Visible (ANSI)
100
AcDbLine
 10
10.13194371532869
 20
5.164931518518522
 30
0.0
 11
10.13194371532869
 21
5.205708252290909
 31
0.0
  0
ELLIPSE
  5
1AE
330
6C
100
AcDbEntity
  8
Visible (ANSI)
100
AcDbEllipse
 10
10.19240166697335
 20
5.130026103861826
 30
0.0
 11
-0.0427502275845802
 21
0.0740455662116357
 31
0.0
210
0.0
220
0.0
230
0.9999999999999998
 40
0.5773502691896255
 41
0.7853981633976757
 42
2.356194490192587
  0
LINE
  5
1AF
330
6C
100
AcDbEntity
  8
Visible (ANSI)
100
AcDbLine
 10
10.19240166697335
 20
3.835856801067982
 30
0.0
 11
10.19240166697335
 21
5.060215274548435
 31
0.0
  0
ELLIPSE
  5
1B0
330
6C
100
AcDbEntity
  8
Visible (ANSI)
100
AcDbEllipse
 10
9.915569362138812
 20
6.67621881658253
 30
0.0
 11
0.0427500000000044
 21
-0.074045172023567
 31
0.0
210
0.0
220
0.0
230
0.9999999999999998
 40
0.5773502691896258
 41
3.58614440934842
 42
5.497787143781803
  0
LINE
  5
1B1
330
6C
100
AcDbEntity
  8
Visible (ANSI)
100
AcDbLine
 10
9.915569362138812
 20
6.60640835891321
 30
0.0
 11
9.971430797852557
 21
6.574156743966561
 31
0.0
  0
ELLIPSE
  5
1B2
330
6C
100
AcDbEntity
  8
Visible (ANSI)
100
AcDbEllipse
 10
9.971430797852555
 20
6.643967201635889
 30
0.0
 11
0.0427499999999968
 21
-0.0740451720235639
 31
0.0
210
0.0
220
0.0
230
0.9999999999999998
 40
0.5773502691896257
 41
5.497787143782161
 42
5.838633551420448
  0
ELLIPSE
  5
1B3
330
6C
100
AcDbEntity
  8
Visible (ANSI)
100
AcDbEllipse
 10
9.915569362138812
 20
7.696839542742186
 30
0.0
 11
0.0427500000000044
 21
-0.074045172023567
 31
0.0
210
0.0
220
0.0
230
0.9999999999999998
 40
0.5773502691896258
 41
3.58614440934842
 42
5.497787143781803
  0
LINE
  5
1B4
330
6C
100
AcDbEntity
  8
Visible (ANSI)
100
AcDbLine
 10
9.915569362138812
 20
7.627029085072866
 30
0.0
 11
9.971430797852557
 21
7.594777470126217
 31
0.0
  0
ELLIPSE
  5
1B5
330
6C
100
AcDbEntity
  8
Visible (ANSI)
100
AcDbEllipse
 10
9.971430797852555
 20
7.664587927795552
 30
0.0
 11
0.0427500000000086
 21
-0.0740451720235845
 31
0.0
210
0.0
220
0.0
230
0.9999999999999998
 40
0.5773502691896257
 41
5.497787143782161
 42
5.838633551420501
  0
ELLIPSE
  5
1B6
330
6C
100
AcDbEntity
  8
Visible (ANSI)
100
AcDbEllipse
 10
9.878799809517113
 20
7.675610631638065
 30
0.0
 11
-0.0427499999999955
 21
0.0740451720235719
 31
0.0
210
0.0
220
0.0
230
1.0
 40
0.5773502691896259
 41
5.497787143782379
 42
8.639379797372173
  0
LINE
  5
1B7
330
6C
100
AcDbEntity
  8
Visible (ANSI)
100
AcDbLine
 10
9.878799809517113
 20
7.745421089307385
 30
0.0
 11
9.934661245230856
 21
7.713169474360737
 31
0.0
  0
ELLIPSE
  5
1B8
330
6C
100
AcDbEntity
  8
Visible (ANSI)
100
AcDbEllipse
 10
9.934661245230856
 20
7.643359016691416
 30
0.0
 11
0.0427499999999955
 21
-0.0740451720235719
 31
0.0
210
0.0
220
0.0
230
1.0
 40
0.5773502691896259
 41
5.497787143782379
 42
8.639379797372173
  0
LINE
  5
1B9
330
6C
100
AcDbEntity
  8
Visible (ANSI)
100
AcDbLine
 10
9.934661245230856
 20
7.573548559022095
 30
0.0
 11
9.878799809517113
 21
7.605800173968744
 31
0.0
  0
ELLIPSE
  5
1BA
330
6C
100
AcDbEntity
  8
Visible (ANSI)
100
AcDbEllipse
 10
9.878799809517113
 20
6.654989905478409
 30
0.0
 11
-0.0427499999999955
 21
0.0740451720235719
 31
0.0
210
0.0
220
0.0
230
1.0
 40
0.5773502691896259
 41
5.497787143782379
 42
8.639379797372173
  0
LINE
  5
1BB
330
6C
100
AcDbEntity
  8
Visible (ANSI)
100
AcDbLine
 10
9.878799809517113
 20
6.724800363147729
 30
0.0
 11
9.934661245230856
 21
6.692548748201081
 31
0.0
  0
ELLIPSE
  5
1BC
330
6C
100
AcDbEntity
  8
Visible (ANSI)
100
AcDbEllipse
 10
9.934661245230856
 20
6.622738290531762
 30
0.0
 11
0.0427499999999878
 21
-0.0740451720235586
 31
0.0
210
0.0
220
0.0
230
1.0
 40
0.5773502691896259
 41
5.497787143782379
 42
8.639379797372171
  0
LINE
  5
1BD
330
6C
100
AcDbEntity
  8
Visible (ANSI)
100
AcDbLine
 10
9.934661245230856
 20
6.552927832862441
 30
0.0
 11
9.878799809517113
 21
6.58517944780909
 31
0.0
  0
ELLIPSE
  5
1BE
330
6C
100
AcDbEntity
  8
Visible (ANSI)
100
AcDbEllipse
 10
9.448525333165118
 20
5.066291683138273
 30
0.0
 11
-0.0624999999999969
 21
0.1082531754730344
 31
0.0
210
0.0
220
0.0
230
1.0
 40
0.5773502691896258
 41
3.926990816986995
 42
4.049375631460168
  0
LINE
  5
1BF
330
6C
100
AcDbEntity
  8
Visible (ANSI)
100
AcDbLine
 10
9.536913680813423
 20
4.773614826791176
 30
0.0
 11
9.536913680813423
 21
5.015260646830298
 31
0.0
  0
ELLIPSE
  5
1C0
330
6C
100
AcDbEntity
  8
Visible (ANSI)
100
AcDbEllipse
 10
9.360136985516776
 20
4.875676899407149
 30
0.0
 11
-0.1250000000000202
 21
0.2165063509461149
 31
0.0
210
0.0
220
0.0
230
1.0
 40
0.5773502691896257
 41
3.839724354387241
 42
3.926990816986972
  0
LINE
  5
1C1
330
6C
100
AcDbEntity
  8
Visible (ANSI)
100
AcDbLine
 10
9.503114913926525
 20
4.338130457169383
 30
0.0
 11
9.536240992117477
 21
4.756212612300442
 31
0.0
  0
ELLIPSE
  5
1C2
330
6C
100
AcDbEntity
  8
Visible (ANSI)
100
AcDbEllipse
 10
9.679218920527208
 20
4.218666170062579
 30
0.0
 11
-0.1250000000000018
 21
0.2165063509461128
 31
0.0
210
0.0
220
0.0
230
1.0
 40
0.5773502691896258
 41
0.6981317007972017
 42
0.7853981633969172
  0
LINE
  5
1C3
330
6C
100
AcDbEntity
  8
Visible (ANSI)
100
AcDbLine
 10
9.502442225230584
 20
4.191747248279853
 30
0.0
 11
9.50244222523057
 21
4.320728242678655
 31
0.0
  0
LINE
  5
1C4
330
6C
100
AcDbEntity
  8
Visible (ANSI)
100
AcDbLine
 10
10.15563211435165
 20
5.038986363444314
 30
0.0
 11
10.15563211435165
 21
3.814627889963861
 31
0.0
  0
ELLIPSE
  5
1C5
330
6C
100
AcDbEntity
  8
Visible (ANSI)
100
AcDbEllipse
 10
10.15563211435165
 20
5.108797192757705
 30
0.0
 11
0.0427502275845891
 21
-0.0740455662116306
 31
0.0
210
0.0
220
0.0
230
1.0
 40
0.5773502691896258
 41
3.926990816986993
 42
5.497787143781919
  0
LINE
  5
1C6
330
6C
100
AcDbEntity
  8
Visible (ANSI)
100
AcDbLine
 10
10.095174162707
 20
5.184479341186788
 30
0.0
 11
10.095174162707
 21
5.143702607414401
 31
0.0
  0
ELLIPSE
  5
1C7
330
6C
100
AcDbEntity
  8
Visible (ANSI)
100
AcDbEllipse
 10
10.15563211435165
 20
5.149573926530092
 30
0.0
 11
-0.0427502275845849
 21
0.0740455662116335
 31
0.0
210
0.0
220
0.0
230
1.0
 40
0.5773502691896257
 41
5.497787143782854
 42
7.068583470577038
  0
LINE
  5
1C8
330
6C
100
AcDbEntity
  8
Visible (ANSI)
100
AcDbLine
 10
10.15563211435161
 20
6.699284846981956
 30
0.0
 11
10.15563211435161
 21
5.219384755843509
 31
0.0
  0
ELLIPSE
  5
1C9
330
6C
100
AcDbEntity
  8
Visible (ANSI)
100
AcDbEllipse
 10
10.15563211435161
 20
6.852377955905904
 30
0.0
 11
-0.0937500000000001
 21
0.1623797632095824
 31
0.0
210
0.0
220
0.0
230
1.0
 40
0.5773502691896257
 41
5.497787143782137
 42
8.63937979737193
  0
LINE
  5
1CA
330
6C
100
AcDbEntity
  8
Visible (ANSI)
100
AcDbLine
 10
10.15563211435169
 20
7.898870353661088
 30
0.0
 11
10.15563211435161
 21
7.005471064829854
 31
0.0
  0
LINE
  5
1CB
330
6C
100
AcDbEntity
  8
Visible (ANSI)
100
AcDbLine
 10
10.00132628810238
 20
8.16613588463319
 30
0.0
 11
10.15563211435169
 21
7.898870353661088
 31
0.0
  0
LINE
  5
1CC
330
6C
100
AcDbEntity
  8
Visible (ANSI)
100
AcDbLine
 10
8.37071782194152
 20
4.887606459375504
 30
0.0
 11
8.37071782194152
 21
5.016587453774299
 31
0.0
  0
LINE
  5
1CD
330
6C
100
AcDbEntity
  8
Visible Narrow (ANSI)
100
AcDbLine
 10
8.37071782194152
 20
5.016587453774299
 30
0.0
 11
8.333948269319819
 21
4.995358542670178
 31
0.0
  0
ELLIPSE
  5
1CE
330
6C
100
AcDbEntity
  8
Visible (ANSI)
100
AcDbEllipse
 10
8.424634714006719
 20
5.699893029938355
 30
0.0
 11
-0.0624999999998123
 21
0.1082531754727297
 31
0.0
210
0.0
220
0.0
230
1.0
 40
0.5773502691896258
 41
0.736475124505394
 42
0.7853981633975132
  0
LINE
  5
1CF
330
6C
100
AcDbEntity
  8
Visible (ANSI)
100
AcDbLine
 10
8.336246366358667
 20
5.509278246207056
 30
0.0
 11
8.336246366358667
 21
5.750924066246178
 31
0.0
  0
ELLIPSE
  5
1D0
330
6C
100
AcDbEntity
  8
Visible (ANSI)
100
AcDbEllipse
 10
8.513023061655358
 20
5.407216173591062
 30
0.0
 11
-0.1250000000000386
 21
0.2165063509461766
 31
0.0
210
0.0
220
0.0
230
0.9999999999999998
 40
0.5773502691896258
 41
0.7853981633974563
 42
0.872664625997146
  0
LINE
  5
1D1
330
6C
100
AcDbEntity
  8
Visible (ANSI)
100
AcDbLine
 10
8.370045133245564
 20
5.034766422264409
 30
0.0
 11
8.336919055054615
 21
5.491099277716952
 31
0.0
  0
ELLIPSE
  5
1D2
330
6C
100
AcDbEntity
  8
Visible (ANSI)
100
AcDbEllipse
 10
8.193941126644944
 20
5.118649526390125
 30
0.0
 11
-0.1249999999999688
 21
0.2165063509460259
 31
0.0
210
0.0
220
0.0
230
1.0
 40
0.5773502691896258
 41
3.926990816987508
 42
4.014257279587281
  0
ELLIPSE
  5
1D3
330
6C
100
AcDbEntity
  8
Visible (ANSI)
100
AcDbEllipse
 10
7.717743077732477
 20
8.302351671738284
 30
0.0
 11
0.0937500000000011
 21
-0.1623797632095841
 31
0.0
210
0.0
220
0.0
230
0.9999999999999998
 40
0.5773502691896259
 41
5.497787143782137
 42
6.085801836569353
  0
ELLIPSE
  5
1D4
330
6C
100
AcDbEntity
  8
Visible (ANSI)
100
AcDbEllipse
 10
7.938713946853022
 20
8.53199133105851
 30
0.0
 11
0.0427500000000044
 21
-0.074045172023567
 31
0.0
210
0.0
220
0.0
230
0.9999999999999998
 40
0.5773502691896258
 41
3.58614440934842
 42
5.497787143781803
  0
LINE
  5
1D5
330
6C
100
AcDbEntity
  8
Visible (ANSI)
100
AcDbLine
 10
7.93871394685302
 20
8.462180873389192
 30
0.0
 11
7.994478939547081
 21
8.429984939845917
 31
0.0
  0
ELLIPSE
  5
1D6
330
6C
100
AcDbEntity
  8
Visible (ANSI)
100
AcDbEllipse
 10
7.994478939547106
 20
8.49979539751348
 30
0.0
 11
0.0427499999989323
 21
-0.0740451720217203
 31
0.0
210
0.0
220
0.0
230
0.9999999999999998
 40
0.5773502691896259
 41
5.497787143781721
 42
5.525518569918333
  0
ELLIPSE
  5
1D7
330
6C
100
AcDbEntity
  8
Visible (ANSI)
100
AcDbEllipse
 10
7.93871394685302
 20
7.2562153345352
 30
0.0
 11
0.0427500000000044
 21
-0.0740451720235669
 31
0.0
210
0.0
220
0.0
230
1.0
 40
0.5773502691896258
 41
3.58614440934842
 42
5.497787143781826
  0
LINE
  5
1D8
330
6C
100
AcDbEntity
  8
Visible (ANSI)
100
AcDbLine
 10
7.93871394685302
 20
7.186404876865879
 30
0.0
 11
7.994478939547081
 21
7.154208943322607
 31
0.0
  0
ELLIPSE
  5
1D9
330
6C
100
AcDbEntity
  8
Visible (ANSI)
100
AcDbEllipse
 10
7.994478939547081
 20
7.224019400991922
 30
0.0
 11
0.0427499999999969
 21
-0.0740451720235642
 31
0.0
210
0.0
220
0.0
230
1.0
 40
0.577350269189626
 41
5.497787143782137
 42
5.838633551420595
  0
LINE
  5
1DA
330
6C
100
AcDbEntity
  8
Visible Narrow (ANSI)
100
AcDbLine
 10
8.370045133245564
 20
5.034766422264409
 30
0.0
 11
8.333275580623864
 21
5.013537511160288
 31
0.0
  0
LINE
  5
1DB
330
6C
100
AcDbEntity
  8
Visible Narrow (ANSI)
100
AcDbLine
 10
8.336919055054615
 20
5.491099277716952
 30
0.0
 11
8.300149502432912
 21
5.469870366612831
 31
0.0
  0
LINE
  5
1DC
330
6C
100
AcDbEntity
  8
Visible Narrow (ANSI)
100
AcDbLine
 10
8.336246366358667
 20
5.509278246207056
 30
0.0
 11
8.299476813736966
 21
5.488049335102936
 31
0.0
  0
LINE
  5
1DD
330
6C
100
AcDbEntity
  8
Visible Narrow (ANSI)
100
AcDbLine
 10
8.336246366358667
 20
5.750924066246178
 30
0.0
 11
8.299476813736966
 21
5.729695155142057
 31
0.0
  0
LINE
  5
1DE
330
6C
100
AcDbEntity
  8
Visible (ANSI)
100
AcDbLine
 10
7.717743077732479
 20
8.149258562814333
 30
0.0
 11
7.680973525110777
 21
8.128029651710212
 31
0.0
  0
LINE
  5
1DF
330
6C
100
AcDbEntity
  8
Visible Narrow (ANSI)
100
AcDbLine
 10
7.994478939547081
 20
8.429984939845917
 30
0.0
 11
7.95770938692538
 21
8.408756028741796
 31
0.0
  0
LINE
  5
1E0
330
6C
100
AcDbEntity
  8
Visible Narrow (ANSI)
100
AcDbLine
 10
7.93871394685302
 20
8.462180873389192
 30
0.0
 11
7.90194439423132
 21
8.440951962285071
 31
0.0
  0
LINE
  5
1E1
330
6C
100
AcDbEntity
  8
Visible Narrow (ANSI)
100
AcDbLine
 10
7.93871394685302
 20
7.186404876865879
 30
0.0
 11
7.90194439423132
 21
7.165175965761759
 31
0.0
  0
LINE
  5
1E2
330
6C
100
AcDbEntity
  8
Visible Narrow (ANSI)
100
AcDbLine
 10
7.994478939547081
 20
7.154208943322607
 30
0.0
 11
7.95770938692538
 21
7.132980032218486
 31
0.0
  0
LINE
  5
1E3
330
6C
100
AcDbEntity
  8
Visible (ANSI)
100
AcDbLine
 10
8.332568429634175
 20
4.786356562046347
 30
0.0
 11
8.349178716698117
 21
4.815126423169401
 31
0.0
  0
ELLIPSE
  5
1E4
330
6C
100
AcDbEntity
  8
Visible (ANSI)
100
AcDbEllipse
 10
8.420956777282492
 20
4.735325525738364
 30
0.0
 11
-0.0625000000000201
 21
-0.1082531754730433
 31
0.0
210
0.0
220
0.0
230
1.0
 40
0.8164965809277259
 41
4.71238898038495
 42
6.283185307179809
  0
LINE
  5
1E5
330
6C
100
AcDbEntity
  8
Visible (ANSI)
100
AcDbLine
 10
9.73237727466601
 20
3.003897969295705
 30
0.0
 11
10.17086256172995
 21
3.76337676486188
 31
0.0
  0
LINE
  5
1E6
330
6C
100
AcDbEntity
  8
Visible (ANSI)
100
AcDbLine
 10
9.091705350551249
 20
2.76093276640081
 30
0.0
 11
9.73237727466601
 21
3.003897969295705
 31
0.0
  0
ELLIPSE
  5
1E7
330
6C
100
AcDbEntity
  8
Visible (ANSI)
100
AcDbEllipse
 10
8.78174258039154
 20
2.93931250492209
 30
0.0
 11
0.0427499999999998
 21
0.0740451720235692
 31
0.0
210
0.0
220
0.0
230
0.9999999999999998
 40
0.816496580927725
 41
0.2167190909678975
 42
1.576644313343703
  0
ELLIPSE
  5
1E8
330
6C
100
AcDbEntity
  8
Visible (ANSI)
100
AcDbEllipse
 10
7.676888234787559
 20
3.577200458771875
 30
0.0
 11
0.0427500000000001
 21
0.0740451720235696
 31
0.0
210
0.0
220
0.0
230
1.0
 40
0.8164965809277259
 41
0.2167190909678816
 42
1.564948340246097
  0
ELLIPSE
  5
1E9
330
6C
100
AcDbEntity
  8
Visible (ANSI)
100
AcDbEllipse
 10
8.073065407589551
 20
2.987623543164345
 30
0.0
 11
0.0427500000000001
 21
0.0740451720235695
 31
0.0
210
0.0
220
0.0
230
0.9999999999999998
 40
0.816496580927726
 41
0.2167190909678807
 42
2.924873562621895
  0
LINE
  5
1EA
330
6C
100
AcDbEntity
  8
Visible (ANSI)
100
AcDbLine
 10
10.14486256172995
 20
3.77838787186081
 30
0.0
 11
9.706377274666008
 21
3.018909076294636
 31
0.0
  0
LINE
  5
1EB
330
6C
100
AcDbEntity
  8
Visible (ANSI)
100
AcDbLine
 10
9.73237727466601
 20
3.003897969295705
 30
0.0
 11
9.706377274666008
 21
3.018909076294636
 31
0.0
  0
LINE
  5
1EC
330
6C
100
AcDbEntity
  8
Visible (ANSI)
100
AcDbLine
 10
8.191530279254383
 20
2.48621511572692
 30
0.0
 11
7.348900395784019
 21
2.972707705775758
 31
0.0
  0
LINE
  5
1ED
330
6C
100
AcDbEntity
  8
Visible Narrow (ANSI)
100
AcDbLine
 10
7.661738853369366
 20
3.51455980887506
 30
0.0
 11
7.348900395784019
 21
2.972707705775758
 31
0.0
  0
LINE
  5
1EE
330
6C
100
AcDbEntity
  8
Visible Narrow (ANSI)
100
AcDbLine
 10
7.286130843162319
 20
3.008947723878808
 30
0.0
 11
7.598732390422709
 21
3.550389486258448
 31
0.0
  0
ELLIPSE
  5
1EF
330
6C
100
AcDbEntity
  8
Visible (ANSI)
100
AcDbEllipse
 10
7.650888234787561
 20
3.592211565770806
 30
0.0
 11
0.0427499999999938
 21
0.074045172023573
 31
0.0
210
0.0
220
0.0
230
1.0
 40
0.8164965809277255
 41
3.904142495490868
 42
7.848133647425585
  0
LINE
  5
1F0
330
6C
100
AcDbEntity
  8
Visible (ANSI)
100
AcDbLine
 10
7.616681638786793
 20
3.612538103449099
 30
0.0
 11
7.590681638786793
 21
3.627549210448029
 31
0.0
  0
ELLIPSE
  5
1F1
330
6C
100
AcDbEntity
  8
Visible (ANSI)
100
AcDbEllipse
 10
8.047065407589551
 20
3.002634650163275
 30
0.0
 11
-0.04275
 21
-0.0740451720235695
 31
0.0
210
0.0
220
0.0
230
1.0
 40
0.8164965809277259
 41
0.0
 42
6.283185307179586
  0
LINE
  5
1F2
330
6C
100
AcDbEntity
  8
Visible (ANSI)
100
AcDbLine
 10
7.231503540513093
 20
4.447778092918156
 30
0.0
 11
7.669988827577036
 21
5.20725688848433
 31
0.0
  0
LINE
  5
1F3
330
6C
100
AcDbEntity
  8
Visible (ANSI)
100
AcDbLine
 10
8.323178716698118
 20
4.830137530168332
 30
0.0
 11
8.306568429634175
 21
4.801367669045277
 31
0.0
  0
LINE
  5
1F4
330
6C
100
AcDbEntity
  8
Visible Narrow (ANSI)
100
AcDbLine
 10
8.332568429634175
 20
4.786356562046347
 30
0.0
 11
8.306568429634175
 21
4.801367669045277
 31
0.0
  0
ELLIPSE
  5
1F5
330
6C
100
AcDbEntity
  8
Visible (ANSI)
100
AcDbEllipse
 10
8.394956777282493
 20
4.750336632737295
 30
0.0
 11
-0.0625
 21
-0.1082531754730549
 31
0.0
210
0.0
220
0.0
230
1.0
 40
0.8164965809277259
 41
4.712388980384698
 42
6.283185307179361
  0
LINE
  5
1F6
330
6C
100
AcDbEntity
  8
Visible (ANSI)
100
AcDbLine
 10
8.332456777282473
 20
4.642083457264251
 30
0.0
 11
9.324174037896629
 21
4.06951522988867
 31
0.0
  0
ELLIPSE
  5
1F7
330
6C
100
AcDbEntity
  8
Visible (ANSI)
100
AcDbEllipse
 10
9.386674037896629
 20
4.177768405361725
 30
0.0
 11
-0.0625
 21
-0.1082531754730549
 31
0.0
210
0.0
220
0.0
230
0.9999999999999998
 40
0.816496580927726
 41
0.0
 42
1.570796326794894
  0
LINE
  5
1F8
330
6C
100
AcDbEntity
  8
Visible (ANSI)
100
AcDbLine
 10
9.475062385544946
 20
4.126737369053743
 30
0.0
 11
9.491672672608888
 21
4.155507230176798
 31
0.0
  0
LINE
  5
1F9
330
6C
100
AcDbEntity
  8
Visible (ANSI)
100
AcDbLine
 10
9.706377274666008
 20
3.018909076294636
 30
0.0
 11
9.065705350551249
 21
2.77594387339974
 31
0.0
  0
LINE
  5
1FA
330
6C
100
AcDbEntity
  8
Visible (ANSI)
100
AcDbLine
 10
9.091705350551249
 20
2.76093276640081
 30
0.0
 11
9.065705350551249
 21
2.77594387339974
 31
0.0
  0
LINE
  5
1FB
330
6C
100
AcDbEntity
  8
Visible (ANSI)
100
AcDbLine
 10
9.065705350551249
 20
2.77594387339974
 30
0.0
 11
8.816449176392309
 21
2.919851992647581
 31
0.0
  0
ELLIPSE
  5
1FC
330
6C
100
AcDbEntity
  8
Visible (ANSI)
100
AcDbEllipse
 10
8.75574258039154
 20
2.95432361192102
 30
0.0
 11
0.0427500000000001
 21
0.0740451720235696
 31
0.0
210
0.0
220
0.0
230
1.0
 40
0.8164965809277259
 41
4.718236966933501
 42
7.859829620523294
  0
LINE
  5
1FD
330
6C
100
AcDbEntity
  8
Visible (ANSI)
100
AcDbLine
 10
7.590681638786793
 20
3.627549210448029
 30
0.0
 11
7.341425464627853
 21
3.771457329695869
 31
0.0
  0
LINE
  5
1FE
330
6C
100
AcDbEntity
  8
Visible (ANSI)
100
AcDbLine
 10
7.341425464627853
 20
3.771457329695869
 30
0.0
 11
7.231503540513093
 21
4.447778092918156
 31
0.0
  0
ELLIPSE
  5
1FF
330
6C
100
AcDbEntity
  8
Visible (ANSI)
100
AcDbEllipse
 10
7.659161150399921
 20
3.587435195715027
 30
0.0
 11
-0.0427500000000009
 21
-0.074045172023571
 31
0.0
210
0.0
220
0.0
230
1.0
 40
0.5773502691896259
 41
4.718236966933511
 42
5.528692141631148
  0
LINE
  5
200
330
6C
100
AcDbEntity
  8
Visible (ANSI)
100
AcDbLine
 10
7.43991115039992
 20
3.713441891965663
 30
0.0
 11
7.616161881400321
 21
3.611683484977713
 31
0.0
  0
LINE
  5
201
330
6C
100
AcDbEntity
  8
Visible (ANSI)
100
AcDbLine
 10
7.40314159777822
 20
3.734670803069784
 30
0.0
 11
7.43991115039992
 21
3.713441891965663
 31
0.0
  0
LINE
  5
202
330
6C
100
AcDbEntity
  8
Visible (ANSI)
100
AcDbLine
 10
7.31541115039992
 20
3.641561783451555
 30
0.0
 11
7.43991115039992
 21
3.713441891965663
 31
0.0
  0
LINE
  5
203
330
6C
100
AcDbEntity
  8
Visible (ANSI)
100
AcDbLine
 10
7.40314159777822
 20
3.734670803069784
 30
0.0
 11
7.278641597778218
 21
3.662790694555676
 31
0.0
  0
LINE
  5
204
330
6C
100
AcDbEntity
  8
Visible (ANSI)
100
AcDbLine
 10
7.278641597778218
 20
3.662790694555676
 30
0.0
 11
7.31541115039992
 21
3.641561783451555
 31
0.0
  0
LINE
  5
205
330
6C
100
AcDbEntity
  8
Visible (ANSI)
100
AcDbLine
 10
7.096661150399919
 20
3.262675669295863
 30
0.0
 11
7.31541115039992
 21
3.641561783451555
 31
0.0
  0
LINE
  5
206
330
6C
100
AcDbEntity
  8
Visible (ANSI)
100
AcDbLine
 10
7.278641597778218
 20
3.662790694555676
 30
0.0
 11
7.059891597778219
 21
3.283904580399984
 31
0.0
  0
LINE
  5
207
330
6C
100
AcDbEntity
  8
Visible (ANSI)
100
AcDbLine
 10
7.059891597778219
 20
3.283904580399984
 30
0.0
 11
7.096661150399919
 21
3.262675669295863
 31
0.0
  0
LINE
  5
208
330
6C
100
AcDbEntity
  8
Visible (ANSI)
100
AcDbLine
 10
7.09666115039992
 20
3.118338101998456
 30
0.0
 11
7.096661150399919
 21
3.262675669295863
 31
0.0
  0
LINE
  5
209
330
6C
100
AcDbEntity
  8
Visible (ANSI)
100
AcDbLine
 10
7.059891597778219
 20
3.283904580399984
 30
0.0
 11
7.059891597778219
 21
3.139567013102578
 31
0.0
  0
LINE
  5
20A
330
6C
100
AcDbEntity
  8
Visible (ANSI)
100
AcDbLine
 10
7.059891597778219
 20
3.139567013102578
 30
0.0
 11
7.09666115039992
 21
3.118338101998456
 31
0.0
  0
LINE
  5
20B
330
6C
100
AcDbEntity
  8
Visible (ANSI)
100
AcDbLine
 10
7.286130843162319
 20
3.008947723878808
 30
0.0
 11
7.09666115039992
 21
3.118338101998456
 31
0.0
  0
LINE
  5
20C
330
6C
100
AcDbEntity
  8
Visible (ANSI)
100
AcDbLine
 10
8.191530279254383
 20
2.630552683024326
 30
0.0
 11
8.191530279254383
 21
2.48621511572692
 31
0.0
  0
LINE
  5
20D
330
6C
100
AcDbEntity
  8
Visible (ANSI)
100
AcDbLine
 10
8.228299831876084
 20
2.464986204622799
 30
0.0
 11
8.191530279254383
 21
2.48621511572692
 31
0.0
  0
LINE
  5
20E
330
6C
100
AcDbEntity
  8
Visible (ANSI)
100
AcDbLine
 10
8.228299831876084
 20
2.464986204622799
 30
0.0
 11
8.228299831876084
 21
2.609323771920205
 31
0.0
  0
LINE
  5
20F
330
6C
100
AcDbEntity
  8
Visible (ANSI)
100
AcDbLine
 10
8.228299831876084
 20
2.609323771920205
 30
0.0
 11
8.191530279254383
 21
2.630552683024326
 31
0.0
  0
LINE
  5
210
330
6C
100
AcDbEntity
  8
Visible (ANSI)
100
AcDbLine
 10
8.410280279254385
 20
3.009438797180018
 30
0.0
 11
8.191530279254383
 21
2.630552683024326
 31
0.0
  0
LINE
  5
211
330
6C
100
AcDbEntity
  8
Visible (ANSI)
100
AcDbLine
 10
8.228299831876084
 20
2.609323771920205
 30
0.0
 11
8.447049831876086
 21
2.988209886075897
 31
0.0
  0
LINE
  5
212
330
6C
100
AcDbEntity
  8
Visible (ANSI)
100
AcDbLine
 10
8.447049831876086
 20
2.988209886075897
 30
0.0
 11
8.410280279254385
 21
3.009438797180018
 31
0.0
  0
LINE
  5
213
330
6C
100
AcDbEntity
  8
Visible (ANSI)
100
AcDbLine
 10
8.534780279254386
 20
3.081318905694127
 30
0.0
 11
8.410280279254385
 21
3.009438797180018
 31
0.0
  0
LINE
  5
214
330
6C
100
AcDbEntity
  8
Visible (ANSI)
100
AcDbLine
 10
8.447049831876086
 20
2.988209886075897
 30
0.0
 11
8.571549831876085
 21
3.060089994590006
 31
0.0
  0
LINE
  5
215
330
6C
100
AcDbEntity
  8
Visible (ANSI)
100
AcDbLine
 10
8.571549831876085
 20
3.060089994590006
 30
0.0
 11
8.534780279254386
 21
3.081318905694127
 31
0.0
  0
LINE
  5
216
330
6C
100
AcDbEntity
  8
Visible (ANSI)
100
AcDbLine
 10
8.571549831876085
 20
3.060089994590006
 30
0.0
 11
8.747800562876486
 21
2.958331587602056
 31
0.0
  0
LINE
  5
217
330
6C
100
AcDbEntity
  8
Visible (ANSI)
100
AcDbLine
 10
8.417769524638483
 20
2.355595826503153
 30
0.0
 11
8.228299831876084
 21
2.464986204622799
 31
0.0
  0
ELLIPSE
  5
218
330
6C
100
AcDbEntity
  8
Visible (ANSI)
100
AcDbEllipse
 10
8.790799831876084
 20
2.93408329833937
 30
0.0
 11
-0.0427500000000004
 21
-0.0740451720235702
 31
0.0
210
0.0
220
0.0
230
1.0
 40
0.5773502691896255
 41
4.718236966933496
 42
5.528692141631116
  0
LINE
  5
219
330
6C
100
AcDbEntity
  8
Visible Narrow (ANSI)
100
AcDbLine
 10
9.915569362138812
 20
6.60640835891321
 30
0.0
 11
9.878799809517113
 21
6.58517944780909
 31
0.0
  0
LINE
  5
21A
330
6C
100
AcDbEntity
  8
Visible Narrow (ANSI)
100
AcDbLine
 10
9.971430797852557
 20
6.574156743966561
 30
0.0
 11
9.934661245230856
 21
6.552927832862441
 31
0.0
  0
LINE
  5
21B
330
6C
100
AcDbEntity
  8
Visible Narrow (ANSI)
100
AcDbLine
 10
9.915569362138812
 20
7.627029085072866
 30
0.0
 11
9.878799809517113
 21
7.605800173968744
 31
0.0
  0
LINE
  5
21C
330
6C
100
AcDbEntity
  8
Visible Narrow (ANSI)
100
AcDbLine
 10
9.971430797852557
 20
7.594777470126217
 30
0.0
 11
9.934661245230856
 21
7.573548559022095
 31
0.0
  0
LINE
  5
21D
330
6C
100
AcDbEntity
  8
Visible (ANSI)
100
AcDbLine
 10
10.19240166697339
 20
7.920099264765208
 30
0.0
 11
10.15563211435169
 21
7.898870353661088
 31
0.0
  0
LINE
  5
21E
330
6C
100
AcDbEntity
  8
Visible (ANSI)
100
AcDbLine
 10
10.19240166697331
 20
7.026699975933974
 30
0.0
 11
10.15563211435161
 21
7.005471064829854
 31
0.0
  0
LINE
  5
21F
330
6C
100
AcDbEntity
  8
Visible (ANSI)
100
AcDbLine
 10
10.19240166697331
 20
6.720513758086077
 30
0.0
 11
10.15563211435161
 21
6.699284846981956
 31
0.0
  0
LINE
  5
220
330
6C
100
AcDbEntity
  8
Visible (ANSI)
100
AcDbLine
 10
10.19240166697331
 20
5.24061366694763
 30
0.0
 11
10.15563211435161
 21
5.219384755843509
 31
0.0
  0
LINE
  5
221
330
6C
100
AcDbEntity
  8
Visible Narrow (ANSI)
100
AcDbLine
 10
10.13194371532869
 20
5.205708252290909
 30
0.0
 11
10.095174162707
 21
5.184479341186788
 31
0.0
  0
LINE
  5
222
330
6C
100
AcDbEntity
  8
Visible Narrow (ANSI)
100
AcDbLine
 10
10.13194371532869
 20
5.164931518518522
 30
0.0
 11
10.095174162707
 21
5.143702607414401
 31
0.0
  0
LINE
  5
223
330
6C
100
AcDbEntity
  8
Visible (ANSI)
100
AcDbLine
 10
10.19240166697335
 20
5.060215274548435
 30
0.0
 11
10.15563211435165
 21
5.038986363444314
 31
0.0
  0
LINE
  5
224
330
6C
100
AcDbEntity
  8
Visible (ANSI)
100
AcDbLine
 10
8.78486571376754
 20
8.07431761602041
 30
0.0
 11
8.821635266389241
 21
8.053088704916289
 31
0.0
  0
LINE
  5
225
330
6C
100
AcDbEntity
  8
Visible (ANSI)
100
AcDbLine
 10
8.63084832143801
 20
7.807551667255915
 30
0.0
 11
8.667617874059711
 21
7.786322756151793
 31
0.0
  0
LINE
  5
226
330
6C
100
AcDbEntity
  8
Visible Narrow (ANSI)
100
AcDbLine
 10
8.630848321437307
 20
7.588000548505066
 30
0.0
 11
8.667617874059006
 21
7.566771637400944
 31
0.0
  0
LINE
  5
227
330
6C
100
AcDbEntity
  8
Visible Narrow (ANSI)
100
AcDbLine
 10
9.161178407328186
 20
7.260258820920102
 30
0.0
 11
9.197947959949887
 21
7.239029909815981
 31
0.0
  0
LINE
  5
228
330
6C
100
AcDbEntity
  8
Visible Narrow (ANSI)
100
AcDbLine
 10
9.161178407328186
 20
7.179752258040627
 30
0.0
 11
9.197947959949887
 21
7.158523346936507
 31
0.0
  0
LINE
  5
229
330
6C
100
AcDbEntity
  8
Visible Narrow (ANSI)
100
AcDbLine
 10
8.964048463216457
 20
6.769375558607895
 30
0.0
 11
9.000818015838156
 21
6.748146647503775
 31
0.0
  0
LINE
  5
22A
330
6C
100
AcDbEntity
  8
Visible Narrow (ANSI)
100
AcDbLine
 10
8.826929702017494
 20
6.647831939408962
 30
0.0
 11
8.863699254639195
 21
6.62660302830484
 31
0.0
  0
LINE
  5
22B
330
6C
100
AcDbEntity
  8
Visible Narrow (ANSI)
100
AcDbLine
 10
8.630848321438275
 20
6.239638094760445
 30
0.0
 11
8.667617874059976
 21
6.218409183656324
 31
0.0
  0
LINE
  5
22C
330
6C
100
AcDbEntity
  8
Visible Narrow (ANSI)
100
AcDbLine
 10
8.630848321438275
 20
6.15913153188097
 30
0.0
 11
8.667617874059976
 21
6.13790262077685
 31
0.0
  0
LINE
  5
22D
330
6C
100
AcDbEntity
  8
Visible Narrow (ANSI)
100
AcDbLine
 10
9.161178153775473
 20
5.830965668685747
 30
0.0
 11
9.197947706397174
 21
5.809736757581626
 31
0.0
  0
LINE
  5
22E
330
6C
100
AcDbEntity
  8
Visible (ANSI)
100
AcDbLine
 10
9.160824853937601
 20
5.535368968881278
 30
0.0
 11
9.1975944065593
 21
5.514140057777157
 31
0.0
  0
LINE
  5
22F
330
6C
100
AcDbEntity
  8
Visible Narrow (ANSI)
100
AcDbLine
 10
9.262004616146327
 20
5.46006851796556
 30
0.0
 11
9.298774168768028
 21
5.438839606861439
 31
0.0
  0
LINE
  5
230
330
6C
100
AcDbEntity
  8
Visible Narrow (ANSI)
100
AcDbLine
 10
9.290844202147397
 20
5.096085911908055
 30
0.0
 11
9.327613754769096
 21
5.074857000803934
 31
0.0
  0
LINE
  5
231
330
6C
100
AcDbEntity
  8
Visible (ANSI)
100
AcDbLine
 10
8.20636038604203
 20
9.02051503674035
 30
0.0
 11
8.169590833420329
 21
9.041743947844471
 31
0.0
  0
LINE
  5
232
330
6C
100
AcDbEntity
  8
Visible (ANSI)
100
AcDbLine
 10
8.052342993712173
 20
8.75374908797646
 30
0.0
 11
8.015573441090472
 21
8.774977999080581
 31
0.0
  0
LINE
  5
233
330
6C
100
AcDbEntity
  8
Visible Narrow (ANSI)
100
AcDbLine
 10
8.052342993712269
 20
8.534197969224887
 30
0.0
 11
8.015573441090568
 21
8.555426880329008
 31
0.0
  0
LINE
  5
234
330
6C
100
AcDbEntity
  8
Visible Narrow (ANSI)
100
AcDbLine
 10
7.855213049600498
 20
8.123821269791964
 30
0.0
 11
7.818443496978798
 21
8.145050180896085
 31
0.0
  0
LINE
  5
235
330
6C
100
AcDbEntity
  8
Visible Narrow (ANSI)
100
AcDbLine
 10
7.71809428840153
 20
8.00227765059305
 30
0.0
 11
7.681324735779829
 21
8.023506561697171
 31
0.0
  0
LINE
  5
236
330
6C
100
AcDbEntity
  8
Visible Narrow (ANSI)
100
AcDbLine
 10
7.522012907822398
 20
7.594083805944571
 30
0.0
 11
7.485243355200698
 21
7.615312717048693
 31
0.0
  0
LINE
  5
237
330
6C
100
AcDbEntity
  8
Visible Narrow (ANSI)
100
AcDbLine
 10
7.522012907822398
 20
7.513577243065098
 30
0.0
 11
7.485243355200698
 21
7.534806154169219
 31
0.0
  0
LINE
  5
238
330
6C
100
AcDbEntity
  8
Visible Narrow (ANSI)
100
AcDbLine
 10
8.05234299371231
 20
7.185835515480709
 30
0.0
 11
8.015573441090609
 21
7.20706442658483
 31
0.0
  0
LINE
  5
239
330
6C
100
AcDbEntity
  8
Visible Narrow (ANSI)
100
AcDbLine
 10
8.05234299371231
 20
7.105328952601235
 30
0.0
 11
8.015573441090609
 21
7.126557863705357
 31
0.0
  0
LINE
  5
23A
330
6C
100
AcDbEntity
  8
Visible Narrow (ANSI)
100
AcDbLine
 10
7.854570120830902
 20
6.694383348937985
 30
0.0
 11
7.817800568209202
 21
6.715612260042105
 31
0.0
  0
LINE
  5
23B
330
6C
100
AcDbEntity
  8
Visible Narrow (ANSI)
100
AcDbLine
 10
7.71864323980998
 20
6.574316858181968
 30
0.0
 11
7.68187368718828
 21
6.595545769286088
 31
0.0
  0
LINE
  5
23C
330
6C
100
AcDbEntity
  8
Visible Narrow (ANSI)
100
AcDbLine
 10
7.521659354431719
 20
6.165010665175725
 30
0.0
 11
7.484889801810019
 21
6.186239576279846
 31
0.0
  0
LINE
  5
23D
330
6C
100
AcDbEntity
  8
Visible (ANSI)
100
AcDbLine
 10
7.521659354431799
 20
5.869193953905658
 30
0.0
 11
7.484889801810099
 21
5.890422865009779
 31
0.0
  0
LINE
  5
23E
330
6C
100
AcDbEntity
  8
Visible Narrow (ANSI)
100
AcDbLine
 10
7.778478417995689
 20
5.894053848702688
 30
0.0
 11
7.767625406891508
 21
5.900319837585206
 31
0.0
  0
LINE
  5
23F
330
6C
100
AcDbEntity
  8
Visible Narrow (ANSI)
100
AcDbLine
 10
8.030592826676308
 20
5.623854516367482
 30
0.0
 11
7.993823274054608
 21
5.645083427471603
 31
0.0
  0
LINE
  5
240
330
6C
100
AcDbEntity
  8
Visible (ANSI)
100
AcDbLine
 10
8.708306257602085
 20
7.416791908122621
 30
0.0
 11
8.745075810223784
 21
7.3955629970185
 31
0.0
  0
LINE
  5
241
330
6C
100
AcDbEntity
  8
Visible (ANSI)
100
AcDbLine
 10
8.708306257602044
 20
5.987922891499075
 30
0.0
 11
8.745075810223745
 21
5.966693980394954
 31
0.0
  0
LINE
  5
242
330
6C
100
AcDbEntity
  8
Visible (ANSI)
100
AcDbLine
 10
9.303620203797569
 20
5.071825395948201
 30
0.0
 11
9.34038975641927
 21
5.050596484844081
 31
0.0
  0
LINE
  5
243
330
6C
100
AcDbEntity
  8
Visible (ANSI)
100
AcDbLine
 10
7.599470843986043
 20
7.34236860268313
 30
0.0
 11
7.562701291364342
 21
7.36359751378725
 31
0.0
  0
LINE
  5
244
330
6C
100
AcDbEntity
  8
Visible (ANSI)
100
AcDbLine
 10
8.035544574510042
 20
5.619899217436727
 30
0.0
 11
7.998775021888342
 21
5.641128128540848
 31
0.0
  0
LINE
  5
245
330
6C
100
AcDbEntity
  8
Visible Narrow (ANSI)
100
AcDbLine
 10
7.728663874038239
 20
7.861685610418691
 30
0.0
 11
7.801670160159968
 21
7.807337852408118
 31
0.0
  0
ELLIPSE
  5
246
330
6C
100
AcDbEntity
  8
Visible Narrow (ANSI)
100
AcDbEllipse
 10
7.801670160159967
 20
7.922374627659637
 30
0.0
 11
0.0746418122178674
 21
0.100267641185144
 31
0.0
210
0.0
220
0.0
230
1.0
 40
0.8146447478255744
 41
3.881982208321998
 42
4.807296502978072
  0
ELLIPSE
  5
247
330
6C
100
AcDbEntity
  8
Visible Narrow (ANSI)
100
AcDbEllipse
 10
7.801670160159977
 20
7.712330946417618
 30
0.0
 11
0.1106037377703257
 21
-0.0582392753323148
 31
0.0
210
0.0
220
0.0
230
1.0
 40
0.0549599991522828
 41
4.741320528893233
 42
5.666634823549628
  0
LINE
  5
248
330
6C
100
AcDbEntity
  8
Visible Narrow (ANSI)
100
AcDbLine
 10
7.801670160159974
 20
7.704569991612251
 30
0.0
 11
7.69689032827638
 21
7.505579860242224
 31
0.0
  0
ELLIPSE
  5
249
330
6C
100
AcDbEntity
  8
Visible Narrow (ANSI)
100
AcDbEllipse
 10
7.75073162561241
 20
7.726544545377
 30
0.0
 11
0.0478276359922092
 21
0.0828398955444163
 31
0.0
210
0.0
220
0.0
230
1.0
 40
0.5773502691896257
 41
4.779751892062287
 42
6.215822395502998
  0
LINE
  5
24A
330
6C
100
AcDbEntity
  8
Visible Narrow (ANSI)
100
AcDbLine
 10
7.799234509598801
 20
7.705847558812766
 30
0.0
 11
7.801670160159974
 21
7.704569991612251
 31
0.0
  0
LINE
  5
24B
330
6C
100
AcDbEntity
  8
Visible Narrow (ANSI)
100
AcDbLine
 10
7.799234509598756
 20
7.806837067434773
 30
0.0
 11
7.801670160159968
 21
7.807337852408118
 31
0.0
  0
ELLIPSE
  5
24C
330
6C
100
AcDbEntity
  8
Visible (ANSI)
100
AcDbEllipse
 10
7.749177443760851
 20
7.727441852687369
 30
0.0
 11
-0.0470000000000049
 21
-0.0814063879557345
 31
0.0
210
0.0
220
0.0
230
1.0
 40
0.5773502691896259
 41
1.638159238472608
 42
3.074229741913571
  0
LINE
  5
24D
330
6C
100
AcDbEntity
  8
Visible Narrow (ANSI)
100
AcDbLine
 10
7.799234509598801
 20
7.705847558812766
 30
0.0
 11
7.662774571812595
 21
7.705847558812766
 31
0.0
  0
LINE
  5
24E
330
6C
100
AcDbEntity
  8
Visible Narrow (ANSI)
100
AcDbLine
 10
7.799234509598756
 20
7.806837067434773
 30
0.0
 11
7.698233095695344
 21
7.806837067434772
 31
0.0
  0
SPLINE
  5
24F
330
6C
100
AcDbEntity
  8
Visible (ANSI)
100
AcDbSpline
210
0.0
220
0.0
230
1.0
 70
     8
 71
     3
 72
    12
 73
     8
 74
     0
 42
0.0000000001
 43
0.0000000001
 40
0.2150359196812374
 40
0.2150359196812374
 40
0.2150359196812374
 40
0.2150359196812374
 40
0.2751313054490047
 40
0.2751313054490047
 40
0.342284028160712
 40
0.342284028160712
 40
0.3592374510640837
 40
0.3592374510640837
 40
0.3592374510640837
 40
0.3592374510640837
 10
8.920751341129882
 20
6.527850389111463
 30
0.0
 10
8.917370039738004
 20
6.523431452057251
 30
0.0
 10
8.914752715288283
 20
6.517393647912817
 30
0.0
 10
8.912517604941861
 20
6.504482645989475
 30
0.0
 10
8.912930126382775
 20
6.496359368321181
 30
0.0
 10
8.915655986403731
 20
6.486027775495203
 30
0.0
 10
8.916310432992883
 20
6.483937091374885
 30
0.0
 10
8.917058363501835
 20
6.481858292694461
 30
0.0
  0
LINE
  5
250
330
6C
100
AcDbEntity
  8
Visible Narrow (ANSI)
100
AcDbLine
 10
8.917058363501835
 20
6.481858292694459
 30
0.0
 11
9.009222002264868
 21
6.41324763713059
 31
0.0
  0
ELLIPSE
  5
251
330
6C
100
AcDbEntity
  8
Visible Narrow (ANSI)
100
AcDbEllipse
 10
9.115568358981489
 20
6.466885014726822
 30
0.0
 11
0.074642982114038
 21
0.1002667702737234
 31
0.0
210
0.0
220
0.0
230
1.0
 40
0.8146443742189839
 41
1.665713354485694
 42
2.591024795534519
  0
ELLIPSE
  5
252
330
6C
100
AcDbEntity
  8
Visible (ANSI)
100
AcDbEllipse
 10
9.053021697160314
 20
6.513447493470922
 30
0.0
 11
0.1458530312917847
 21
0.0330904291003343
 31
0.0
210
0.0
220
0.0
230
1.0
 40
0.5355197793715817
 41
2.095377654044654
 42
2.570245602442223
  0
SPLINE
  5
253
330
6C
100
AcDbEntity
  8
Visible Narrow (ANSI)
100
AcDbSpline
210
0.0
220
0.0
230
1.0
 70
     8
 71
     3
 72
    12
 73
     8
 74
     0
 42
0.0000000001
 43
0.0000000001
 40
0.0
 40
0.0
 40
0.0
 40
0.0
 40
0.1273308985613279
 40
0.1273308985613279
 40
0.3310603362594525
 40
0.3310603362594525
 40
0.4469856652259478
 40
0.4469856652259478
 40
0.4469856652259478
 40
0.4469856652259478
 10
9.009222002264868
 20
6.41324763713059
 30
0.0
 10
9.01337281502851
 20
6.412249231036086
 30
0.0
 10
9.017300671961697
 20
6.410089103634654
 30
0.0
 10
9.026251683919118
 20
6.401293352057135
 30
0.0
 10
9.030454529724197
 20
6.392820294608941
 30
0.0
 10
9.03404001027113
 20
6.375298387711902
 30
0.0
 10
9.034695738215603
 20
6.368118879323198
 30
0.0
 10
9.034700575376177
 20
6.360340428015454
 30
0.0
  0
SPLINE
  5
254
330
6C
100
AcDbEntity
  8
Visible (ANSI)
100
AcDbSpline
210
0.0
220
0.0
230
1.0
 70
     8
 71
     3
 72
     8
 73
     4
 74
     0
 42
0.0000000001
 43
0.0000000001
 40
2.468104024838319
 40
2.468104024838319
 40
2.468104024838319
 40
2.468104024838319
 40
2.470247092048651
 40
2.470247092048651
 40
2.470247092048651
 40
2.470247092048651
 10
8.916959550324447
 20
6.081173092966533
 30
0.0
 10
8.916865142780606
 20
6.08118548497663
 30
0.0
 10
8.916772218516818
 20
6.081198749416679
 30
0.0
 10
8.91668079947266
 20
6.081212899732704
 30
0.0
  0
LINE
  5
255
330
6C
100
AcDbEntity
  8
Visible (ANSI)
100
AcDbLine
 10
9.009222002264866
 20
6.167203388684734
 30
0.0
 11
8.961536346417391
 21
6.111549765075879
 31
0.0
  0
ELLIPSE
  5
256
330
6C
100
AcDbEntity
  8
Visible (ANSI)
100
AcDbEllipse
 10
8.961536346417391
 20
6.165344293405962
 30
0.0
 11
-0.048686026992362
 21
-0.082793005115919
 31
0.0
210
0.0
220
0.0
230
1.0
 40
0.3241934785064076
 41
0.1366188010941807
 42
1.066950138547344
  0
LINE
  5
257
330
6C
100
AcDbEntity
  8
Visible Narrow (ANSI)
100
AcDbLine
 10
9.009222002264868
 20
6.32405821349333
 30
0.0
 11
9.009222002264868
 21
6.41324763713059
 31
0.0
  0
ELLIPSE
  5
258
330
6C
100
AcDbEntity
  8
Visible (ANSI)
100
AcDbEllipse
 10
8.931473331937493
 20
6.257658562246948
 30
0.0
 11
0.0428993075561414
 21
-0.1150656282436045
 31
0.0
210
0.0
220
0.0
230
0.9999999999999998
 40
0.8160763660440339
 41
0.4242318985995173
 42
1.860288807140388
  0
ELLIPSE
  5
259
330
6C
100
AcDbEntity
  8
Visible (ANSI)
100
AcDbEllipse
 10
8.961690776021642
 20
6.448032344209266
 30
0.0
 11
-0.04999803628525
 21
0.0973444133858774
 31
0.0
210
0.0
220
0.0
230
1.0
 40
0.2497289325483475
 41
1.091346643767746
 42
2.023353970557629
  0
LINE
  5
25A
330
6C
100
AcDbEntity
  8
Visible (ANSI)
100
AcDbLine
 10
8.961690776021644
 20
6.394237815879184
 30
0.0
 11
9.009222002264868
 21
6.32405821349333
 31
0.0
  0
LINE
  5
25B
330
6C
100
AcDbEntity
  8
Visible Narrow (ANSI)
100
AcDbLine
 10
8.875180618551537
 20
6.108821949173215
 30
0.0
 11
8.978453624593324
 21
6.304952300741609
 31
0.0
  0
LINE
  5
25C
330
6C
100
AcDbEntity
  8
Visible (ANSI)
100
AcDbLine
 10
8.869326565868949
 20
6.088538612055865
 30
0.0
 11
8.869326565868949
 21
6.088625098342719
 31
0.0
  0
LINE
  5
25D
330
6C
100
AcDbEntity
  8
Visible Narrow (ANSI)
100
AcDbLine
 10
8.961536346417391
 20
6.111549765075879
 30
0.0
 11
8.912712360309123
 21
6.119102862012648
 31
0.0
  0
ELLIPSE
  5
25E
330
6C
100
AcDbEntity
  8
Visible (ANSI)
100
AcDbEllipse
 10
8.912712360309123
 20
6.172897390342732
 30
0.0
 11
0.0486860269923645
 21
0.0827930051159174
 31
0.0
210
0.0
220
0.0
230
0.9999999999999998
 40
0.3241934785064066
 41
3.313245465398312
 42
4.208542792137624
  0
LINE
  5
25F
330
6C
100
AcDbEntity
  8
Visible (ANSI)
100
AcDbLine
 10
8.869326565868949
 20
6.09590941050701
 30
0.0
 11
8.869326565868949
 21
6.08862509834272
 31
0.0
  0
LINE
  5
260
330
6C
100
AcDbEntity
  8
Visible (ANSI)
100
AcDbLine
 10
8.912712360309123
 20
6.119102862012648
 30
0.0
 11
8.981530695024979
 21
6.199420299816482
 31
0.0
  0
LINE
  5
261
330
6C
100
AcDbEntity
  8
Visible Narrow (ANSI)
100
AcDbLine
 10
8.981530695024979
 20
6.199420299816482
 30
0.0
 11
8.981530695024979
 21
6.300409022638456
 31
0.0
  0
LINE
  5
262
330
6C
100
AcDbEntity
  8
Visible Narrow (ANSI)
100
AcDbLine
 10
8.912866789913376
 20
6.401790912815953
 30
0.0
 11
8.961690776021644
 21
6.394237815879184
 31
0.0
  0
LINE
  5
263
330
6C
100
AcDbEntity
  8
Visible (ANSI)
100
AcDbLine
 10
8.98153069502498
 20
6.300409022638454
 30
0.0
 11
8.912866789913376
 21
6.401790912815953
 31
0.0
  0
ELLIPSE
  5
264
330
6C
100
AcDbEntity
  8
Visible (ANSI)
100
AcDbEllipse
 10
8.931473331937493
 20
6.257658562246948
 30
0.0
 11
-0.0276201021251932
 21
0.0740833496910856
 31
0.0
210
0.0
220
0.0
230
0.9999999999999998
 40
0.8160763660440338
 41
3.565824552189148
 42
5.001881460730069
  0
LINE
  5
265
330
6C
100
AcDbEntity
  8
Visible Narrow (ANSI)
100
AcDbLine
 10
8.920751341129879
 20
6.52785038911146
 30
0.0
 11
8.905325019351819
 21
6.530236849395738
 31
0.0
  0
LINE
  5
266
330
6C
100
AcDbEntity
  8
Visible (ANSI)
100
AcDbLine
 10
8.86932656586895
 20
6.486422691157367
 30
0.0
 11
8.86932656586895
 21
6.500031778858725
 31
0.0
  0
ELLIPSE
  5
267
330
6C
100
AcDbEntity
  8
Visible (ANSI)
100
AcDbEllipse
 10
8.912866789913376
 20
6.455585441146036
 30
0.0
 11
-0.0499980362852498
 21
0.0973444133858774
 31
0.0
210
0.0
220
0.0
230
1.0
 40
0.2497289325483471
 41
1.123601839227822
 42
2.023353970557629
  0
LINE
  5
268
330
6C
100
AcDbEntity
  8
Visible (ANSI)
100
AcDbLine
 10
9.034710921990729
 20
6.241687651484736
 30
0.0
 11
9.034710921990729
 21
6.360305945362399
 31
0.0
  0
LINE
  5
269
330
6C
100
AcDbEntity
  8
Visible (ANSI)
100
AcDbLine
 10
8.974695142465943
 20
6.310501679584147
 30
0.0
 11
8.871776490630963
 21
6.115044297824847
 31
0.0
  0
LINE
  5
26A
330
6C
100
AcDbEntity
  8
Visible (ANSI)
100
AcDbLine
 10
8.916680777943605
 20
6.081212889953389
 30
0.0
 11
8.869326565868949
 21
6.088538612055865
 31
0.0
  0
LINE
  5
26B
330
6C
100
AcDbEntity
  8
Visible Narrow (ANSI)
100
AcDbLine
 10
9.482512449019786
 20
5.115028636266409
 30
0.0
 11
9.482512449019786
 21
8.434646324210564
 31
0.0
  0
ELLIPSE
  5
26C
330
6C
100
AcDbEntity
  8
Visible (ANSI)
100
AcDbEllipse
 10
9.509382506704875
 20
8.41913288917294
 30
0.0
 11
0.0900000000000002
 21
-0.0000000000000046
 31
0.0
210
0.0
220
0.0
230
1.0
 40
0.5773502691896137
 41
0.7853981633977041
 42
2.356194490192596
  0
LINE
  5
26D
330
6C
100
AcDbEntity
  8
Visible Narrow (ANSI)
100
AcDbLine
 10
9.482512449019786
 20
8.434646324210566
 30
0.0
 11
9.445742896398087
 21
8.455875235314689
 31
0.0
  0
ELLIPSE
  5
26E
330
6C
100
AcDbEntity
  8
Visible (ANSI)
100
AcDbEllipse
 10
9.509382506704875
 20
8.41913288917294
 30
0.0
 11
-0.0379999999999999
 21
-0.0000000000000023
 31
0.0
210
0.0
220
0.0
230
1.0
 40
0.5773502691896259
 41
3.926990816986949
 42
5.497787143781891
  0
LINE
  5
26F
330
6C
100
AcDbEntity
  8
Visible Narrow (ANSI)
100
AcDbLine
 10
9.573022117011666
 20
8.455875235314815
 30
0.0
 11
9.536252564389965
 21
8.434646324210696
 31
0.0
  0
SPLINE
  5
270
330
6C
100
AcDbEntity
  8
Visible (ANSI)
100
AcDbSpline
210
0.0
220
0.0
230
1.0
 70
     8
 71
     3
 72
    18
 73
    14
 74
     0
 42
0.0000000001
 43
0.0000000001
 40
0.0
 40
0.0
 40
0.0
 40
0.0
 40
0.0177164848753976
 40
0.0177164848753976
 40
0.0576196370926604
 40
0.0576196370926604
 40
0.1077238148441311
 40
0.1077238148441311
 40
0.1698257679785371
 40
0.1698257679785371
 40
0.2069807788695513
 40
0.2069807788695513
 40
0.2561959262459998
 40
0.2561959262459998
 40
0.2561959262459998
 40
0.2561959262459998
 10
9.482512449019786
 20
5.115028636266409
 30
0.0
 10
9.484051432089176
 20
5.1152494969825
 30
0.0
 10
9.485663604606958
 20
5.115263652677739
 30
0.0
 10
9.491085948502579
 20
5.11467002815558
 30
0.0
 10
9.495013283438952
 20
5.113281824149991
 30
0.0
 10
9.503590305409975
 20
5.108448866436494
 30
0.0
 10
9.508464005695962
 20
5.104415142518995
 30
0.0
 10
9.518753866230783
 20
5.092045919387454
 30
0.0
 10
9.523682879273479
 20
5.083311866985654
 30
0.0
 10
9.52984381207249
 20
5.066409312686595
 30
0.0
 10
9.531588443834177
 20
5.059930609613194
 30
0.0
 10
9.534683575517977
 20
5.044885677271089
 30
0.0
 10
9.53572958974469
 20
5.036251091249187
 30
0.0
 10
9.536252564389965
 20
5.028102032331783
 30
0.0
  0
LINE
  5
271
330
6C
100
AcDbEntity
  8
Visible Narrow (ANSI)
100
AcDbLine
 10
9.536252564389965
 20
8.434646324210696
 30
0.0
 11
9.536252564389965
 21
5.028102032331783
 31
0.0
  0
SPLINE
  5
272
330
6C
100
AcDbEntity
  8
Visible (ANSI)
100
AcDbSpline
210
0.0
220
0.0
230
1.0
 70
     8
 71
     3
 72
    12
 73
     8
 74
     0
 42
0.0000000001
 43
0.0000000001
 40
0.2150359196811882
 40
0.2150359196811882
 40
0.2150359196811882
 40
0.2150359196811882
 40
0.2751313054488063
 40
0.2751313054488063
 40
0.342284028160444
 40
0.342284028160444
 40
0.3592374510635031
 40
0.3592374510635031
 40
0.3592374510635031
 40
0.3592374510635031
 10
8.920751341129911
 20
7.956719405734922
 30
0.0
 10
8.917370039738052
 20
7.952300468680718
 30
0.0
 10
8.914752715288347
 20
7.9462626645363
 30
0.0
 10
8.912517604941946
 20
7.933351662612986
 30
0.0
 10
8.912930126382867
 20
7.925228384944706
 30
0.0
 10
8.915655986403816
 20
7.914896792118779
 30
0.0
 10
8.916310432992958
 20
7.912806107998501
 30
0.0
 10
8.917058363501894
 20
7.910727309318116
 30
0.0
  0
LINE
  5
273
330
6C
100
AcDbEntity
  8
Visible Narrow (ANSI)
100
AcDbLine
 10
8.917058363501894
 20
7.910727309318116
 30
0.0
 11
9.009222002265001
 21
7.842116653754188
 31
0.0
  0
ELLIPSE
  5
274
330
6C
100
AcDbEntity
  8
Visible Narrow (ANSI)
100
AcDbEllipse
 10
9.115568358981624
 20
7.895754031350421
 30
0.0
 11
0.074642982114038
 21
0.1002667702737237
 31
0.0
210
0.0
220
0.0
230
1.0
 40
0.8146443742189834
 41
1.665713354485678
 42
2.591024795534501
  0
ELLIPSE
  5
275
330
6C
100
AcDbEntity
  8
Visible (ANSI)
100
AcDbEllipse
 10
9.053021697160451
 20
7.942316510094519
 30
0.0
 11
0.1458530312917846
 21
0.0330904291003343
 31
0.0
210
0.0
220
0.0
230
1.0
 40
0.5355197793715816
 41
2.095377654044654
 42
2.57024560244388
  0
SPLINE
  5
276
330
6C
100
AcDbEntity
  8
Visible Narrow (ANSI)
100
AcDbSpline
210
0.0
220
0.0
230
1.0
 70
     8
 71
     3
 72
    12
 73
     8
 74
     0
 42
0.0000000001
 43
0.0000000001
 40
0.0
 40
0.0
 40
0.0
 40
0.0
 40
0.1273308580885488
 40
0.1273308580885488
 40
0.331060231030227
 40
0.331060231030227
 40
0.4469856549877794
 40
0.4469856549877794
 40
0.4469856549877794
 40
0.4469856549877794
 10
9.009222002265001
 20
7.842116653754188
 30
0.0
 10
9.013372813709288
 20
7.841118247977033
 30
0.0
 10
9.017300669448543
 20
7.838958121648285
 30
0.0
 10
9.026251679304579
 20
7.830162374942822
 30
0.0
 10
9.030454524858706
 20
7.821689322757309
 30
0.0
 10
9.034040009004623
 20
7.804167417497667
 30
0.0
 10
9.034695738106075
 20
7.79698790274769
 30
0.0
 10
9.034700575312724
 20
7.789209444476693
 30
0.0
  0
SPLINE
  5
277
330
6C
100
AcDbEntity
  8
Visible (ANSI)
100
AcDbSpline
210
0.0
220
0.0
230
1.0
 70
     8
 71
     3
 72
     8
 73
     4
 74
     0
 42
0.0000000001
 43
0.0000000001
 40
2.468104024836129
 40
2.468104024836129
 40
2.468104024836129
 40
2.468104024836129
 40
2.470247092045882
 40
2.470247092045882
 40
2.470247092045882
 40
2.470247092045882
 10
8.916959550324506
 20
7.510042109589986
 30
0.0
 10
8.916865142780691
 20
7.510054501600079
 30
0.0
 10
8.916772218516928
 20
7.510067766040125
 30
0.0
 10
8.916680799472791
 20
7.510081916356145
 30
0.0
  0
LINE
  5
278
330
6C
100
AcDbEntity
  8
Visible (ANSI)
100
AcDbLine
 10
9.009222002265001
 20
7.596072405308176
 30
0.0
 11
8.961536346417526
 21
7.540418781699322
 31
0.0
  0
ELLIPSE
  5
279
330
6C
100
AcDbEntity
  8
Visible (ANSI)
100
AcDbEllipse
 10
8.931473331937628
 20
7.686527578870392
 30
0.0
 11
0.0428993075561414
 21
-0.1150656282436045
 31
0.0
210
0.0
220
0.0
230
0.9999999999999998
 40
0.8160763660440339
 41
0.4242318985995217
 42
1.860288807140388
  0
LINE
  5
27A
330
6C
100
AcDbEntity
  8
Visible (ANSI)
100
AcDbLine
 10
8.961690776021779
 20
7.823106832502625
 30
0.0
 11
9.009222002265003
 21
7.752927230116772
 31
0.0
  0
LINE
  5
27B
330
6C
100
AcDbEntity
  8
Visible (ANSI)
100
AcDbLine
 10
8.981530695025117
 20
7.729278039261897
 30
0.0
 11
8.912866789913511
 21
7.830659929439395
 31
0.0
  0
LINE
  5
27C
330
6C
100
AcDbEntity
  8
Visible (ANSI)
100
AcDbLine
 10
8.912712360309258
 20
7.547971878636091
 30
0.0
 11
8.981530695025115
 21
7.628289316439924
 31
0.0
  0
ELLIPSE
  5
27D
330
6C
100
AcDbEntity
  8
Visible (ANSI)
100
AcDbEllipse
 10
8.931473331937628
 20
7.686527578870392
 30
0.0
 11
-0.0276201021251932
 21
0.0740833496910856
 31
0.0
210
0.0
220
0.0
230
0.9999999999999998
 40
0.8160763660440338
 41
3.565824552189148
 42
5.001881460730069
  0
ELLIPSE
  5
27E
330
6C
100
AcDbEntity
  8
Visible (ANSI)
100
AcDbEllipse
 10
8.961536346417526
 20
7.594213310029406
 30
0.0
 11
-0.048686026992362
 21
-0.082793005115919
 31
0.0
210
0.0
220
0.0
230
1.0
 40
0.3241934785064076
 41
0.136618801091859
 42
1.066950138547344
  0
ELLIPSE
  5
27F
330
6C
100
AcDbEntity
  8
Visible (ANSI)
100
AcDbEllipse
 10
8.961690776021779
 20
7.876901360832709
 30
0.0
 11
-0.04999803628525
 21
0.0973444133858774
 31
0.0
210
0.0
220
0.0
230
1.0
 40
0.2497289325483475
 41
1.091346643765437
 42
2.023353970557629
  0
ELLIPSE
  5
280
330
6C
100
AcDbEntity
  8
Visible (ANSI)
100
AcDbEllipse
 10
8.912866789913511
 20
7.884454457769479
 30
0.0
 11
-0.0499980362852498
 21
0.0973444133858774
 31
0.0
210
0.0
220
0.0
230
1.0
 40
0.2497289325483471
 41
1.123601839227822
 42
2.023353970557629
  0
ELLIPSE
  5
281
330
6C
100
AcDbEntity
  8
Visible (ANSI)
100
AcDbEllipse
 10
8.912712360309257
 20
7.601766406966175
 30
0.0
 11
0.0486860269923648
 21
0.0827930051159173
 31
0.0
210
0.0
220
0.0
230
0.9999999999999998
 40
0.3241934785064228
 41
3.313245465398306
 42
4.208542792137631
  0
LINE
  5
282
330
6C
100
AcDbEntity
  8
Visible (ANSI)
100
AcDbLine
 10
8.869326565869085
 20
7.517407628679308
 30
0.0
 11
8.869326565869085
 21
7.517494114966162
 31
0.0
  0
LINE
  5
283
330
6C
100
AcDbEntity
  8
Visible Narrow (ANSI)
100
AcDbLine
 10
8.961536346417526
 20
7.540418781699322
 30
0.0
 11
8.912712360309258
 21
7.547971878636091
 31
0.0
  0
LINE
  5
284
330
6C
100
AcDbEntity
  8
Visible Narrow (ANSI)
100
AcDbLine
 10
8.912866789913511
 20
7.830659929439395
 30
0.0
 11
8.961690776021779
 21
7.823106832502625
 31
0.0
  0
LINE
  5
285
330
6C
100
AcDbEntity
  8
Visible Narrow (ANSI)
100
AcDbLine
 10
8.920751341129909
 20
7.956719405734919
 30
0.0
 11
8.905325019351741
 21
7.959105866019213
 31
0.0
  0
LINE
  5
286
330
6C
100
AcDbEntity
  8
Visible (ANSI)
100
AcDbLine
 10
8.869326565869085
 20
7.91529170778081
 30
0.0
 11
8.869326565869085
 21
7.928900795482443
 31
0.0
  0
LINE
  5
287
330
6C
100
AcDbEntity
  8
Visible (ANSI)
100
AcDbLine
 10
8.916680777943739
 20
7.510081906576833
 30
0.0
 11
8.869326565869085
 21
7.517407628679308
 31
0.0
  0
LINE
  5
288
330
6C
100
AcDbEntity
  8
Visible Narrow (ANSI)
100
AcDbLine
 10
9.009222002265003
 20
7.752927230116772
 30
0.0
 11
9.009222002265001
 21
7.842116653754188
 31
0.0
  0
LINE
  5
289
330
6C
100
AcDbEntity
  8
Visible Narrow (ANSI)
100
AcDbLine
 10
8.981530695025115
 20
7.628289316439924
 30
0.0
 11
8.981530695025115
 21
7.7292780392619
 31
0.0
  0
LINE
  5
28A
330
6C
100
AcDbEntity
  8
Visible (ANSI)
100
AcDbLine
 10
9.034710921990864
 20
7.67055666810818
 30
0.0
 11
9.034710921990864
 21
7.789174961985998
 31
0.0
  0
LINE
  5
28B
330
6C
100
AcDbEntity
  8
Visible Narrow (ANSI)
100
AcDbLine
 10
8.875180618551617
 20
7.537690965796705
 30
0.0
 11
8.978453624593413
 21
7.73382131736512
 31
0.0
  0
LINE
  5
28C
330
6C
100
AcDbEntity
  8
Visible (ANSI)
100
AcDbLine
 10
8.871776490631047
 20
7.543913314448349
 30
0.0
 11
8.97469514246603
 21
7.739370696207657
 31
0.0
  0
LINE
  5
28D
330
6C
100
AcDbEntity
  8
Visible (ANSI)
100
AcDbLine
 10
8.869326565869085
 20
7.52477842713061
 30
0.0
 11
8.869326565869085
 21
7.517494114966162
 31
0.0
  0
SPLINE
  5
28E
330
6C
100
AcDbEntity
  8
Visible (ANSI)
100
AcDbSpline
210
0.0
220
0.0
230
1.0
 70
     8
 71
     3
 72
    12
 73
     8
 74
     0
 42
0.0000000001
 43
0.0000000001
 40
0.0
 40
0.0
 40
0.0
 40
0.0
 40
0.0881869190644389
 40
0.0881869190644389
 40
0.1801127479292781
 40
0.1801127479292781
 40
0.192756698806629
 40
0.192756698806629
 40
0.192756698806629
 40
0.192756698806629
 10
8.336352122414856
 20
5.776095738741839
 30
0.0
 10
8.344438969518989
 20
5.779317353804879
 30
0.0
 10
8.350790772682007
 20
5.782722033798272
 30
0.0
 10
8.35990345933191
 20
5.789103092935826
 30
0.0
 10
8.362373888288008
 20
5.791974807196688
 30
0.0
 10
8.362970268581348
 20
5.794127408104029
 30
0.0
 10
8.363005209612717
 20
5.794367938690595
 30
0.0
 10
8.363004887074644
 20
5.79458728116223
 30
0.0
  0
SPLINE
  5
28F
330
6C
100
AcDbEntity
  8
Visible (ANSI)
100
AcDbSpline
210
0.0
220
0.0
230
1.0
 70
     8
 71
     3
 72
    10
 73
     6
 74
     0
 42
0.0000000001
 43
0.0000000001
 40
0.420424902560754
 40
0.420424902560754
 40
0.420424902560754
 40
0.420424902560754
 40
0.4389668742853556
 40
0.4389668742853556
 40
0.5294326630655153
 40
0.5294326630655153
 40
0.5294326630655153
 40
0.5294326630655153
 10
8.342225548734978
 20
5.778602678849423
 30
0.0
 10
8.341566409924562
 20
5.777289727474032
 30
0.0
 10
8.340943240615988
 20
5.775903472563054
 30
0.0
 10
8.337551415746156
 20
5.767325932200322
 30
0.0
 10
8.336642047258271
 20
5.760331651491326
 30
0.0
 10
8.336352122414856
 20
5.755854203109778
 30
0.0
  0
SPLINE
  5
290
330
6C
100
AcDbEntity
  8
Visible (ANSI)
100
AcDbSpline
210
0.0
220
0.0
230
1.0
 70
     8
 71
     3
 72
     8
 73
     4
 74
     0
 42
0.0000000001
 43
0.0000000001
 40
0.0
 40
0.0
 40
0.0
 40
0.0
 40
0.0790674281369808
 40
0.0790674281369808
 40
0.0790674281369808
 40
0.0790674281369808
 10
8.299582569793155
 20
5.734625292005657
 30
0.0
 10
8.299808990002167
 20
5.742962749063186
 30
0.0
 10
8.300656898507341
 20
5.751220254798405
 30
0.0
 10
8.301970181349254
 20
5.7587732942517
 30
0.0
  0
ELLIPSE
  5
291
330
6C
100
AcDbEntity
  8
Visible (ANSI)
100
AcDbEllipse
 10
8.272005405326879
 20
9.132716395159462
 30
0.0
 11
0.0909999999999998
 21
0.0000000000000437
 31
0.0
210
0.0
220
0.0
230
0.9999999999999998
 40
0.5773502691893144
 41
5.497787143781865
 42
7.068583470576772
  0
ELLIPSE
  5
292
330
6C
100
AcDbEntity
  8
Visible (ANSI)
100
AcDbEllipse
 10
8.272005405326877
 20
9.132716395159462
 30
0.0
 11
0.0390000000000002
 21
0.0000000000000172
 31
0.0
210
0.0
220
0.0
230
1.0
 40
0.5773502691893202
 41
5.497787143781884
 42
7.068583470576793
  0
LINE
  5
293
330
6C
100
AcDbEntity
  8
Visible (ANSI)
100
AcDbLine
 10
8.36300540532688
 20
9.132716395159491
 30
0.0
 11
8.36300540532688
 21
5.794586547677741
 31
0.0
  0
LINE
  5
294
330
6C
100
AcDbEntity
  8
Visible (ANSI)
100
AcDbLine
 10
8.188991379176574
 20
5.693545126933601
 30
0.0
 11
8.188991379176568
 21
5.108647443273905
 31
0.0
  0
ELLIPSE
  5
295
330
6C
100
AcDbEntity
  8
Visible (ANSI)
100
AcDbEllipse
 10
8.097067497622324
 20
5.161719721034203
 30
0.0
 11
0.0649999999999951
 21
-0.1125833024919685
 31
0.0
210
0.0
220
0.0
230
0.9999999999999998
 40
0.5773502691896259
 41
0.0
 42
0.7853981633974457
  0
ELLIPSE
  5
296
330
6C
100
AcDbEntity
  8
Visible (ANSI)
100
AcDbEllipse
 10
9.909028624412844
 20
4.11558347672056
 30
0.0
 11
0.0650000000000003
 21
-0.1125833024919776
 31
0.0
210
0.0
220
0.0
230
0.9999999999999998
 40
0.577350269189626
 41
0.0
 42
0.7853981633974634
  0
ELLIPSE
  5
297
330
6C
100
AcDbEntity
  8
Visible (ANSI)
100
AcDbEllipse
 10
9.739322996928065
 20
5.174987790474287
 30
0.0
 11
-0.0649999999999955
 21
0.1125833024919693
 31
0.0
210
0.0
220
0.0
230
1.0
 40
0.5773502691896258
 41
5.49778714378214
 42
6.283185307179586
  0
LINE
  5
298
330
6C
100
AcDbEntity
  8
Visible (ANSI)
100
AcDbLine
 10
9.739322996928065
 20
5.281132345994887
 30
0.0
 11
9.909028624412844
 21
5.183152756283556
 31
0.0
  0
ELLIPSE
  5
299
330
6C
100
AcDbEntity
  8
Visible (ANSI)
100
AcDbEllipse
 10
9.909028624412844
 20
5.077008200762956
 30
0.0
 11
0.0649999999999933
 21
-0.1125833024919809
 31
0.0
210
0.0
220
0.0
230
1.0
 40
0.5773502691896257
 41
0.7853981633977014
 42
2.356194490192592
  0
LINE
  5
29A
330
6C
100
AcDbEntity
  8
Visible (ANSI)
100
AcDbLine
 10
10.00095250596709
 20
5.023935923002656
 30
0.0
 11
10.00095250596711
 21
4.062511198960253
 31
0.0
  0
ELLIPSE
  5
29B
330
6C
100
AcDbEntity
  8
Visible Narrow (ANSI)
100
AcDbEllipse
 10
8.060297945000623
 20
5.140490809930082
 30
0.0
 11
0.0389999999999954
 21
-0.0675499814951783
 31
0.0
210
0.0
220
0.0
230
1.0
 40
0.5773502691896259
 41
5.497787143782137
 42
7.06858347057703
  0
LINE
  5
29C
330
6C
100
AcDbEntity
  8
Visible Narrow (ANSI)
100
AcDbLine
 10
8.115452273933172
 20
5.651087304725357
 30
0.0
 11
8.115452273933168
 21
5.108647443273905
 31
0.0
  0
LINE
  5
29D
330
6C
100
AcDbEntity
  8
Visible Narrow (ANSI)
100
AcDbLine
 10
7.835437988583283
 20
5.270313766297602
 30
0.0
 11
7.83543798858329
 21
5.81483016511358
 31
0.0
  0
ELLIPSE
  5
29E
330
6C
100
AcDbEntity
  8
Visible Narrow (ANSI)
100
AcDbEllipse
 10
7.890592317515847
 20
5.238470399641413
 30
0.0
 11
-0.0389999999999962
 21
0.0675499814951889
 31
0.0
210
0.0
220
0.0
230
1.0
 40
0.5773502691896258
 41
0.7853981633976686
 42
2.356194490192592
  0
LINE
  5
29F
330
6C
100
AcDbEntity
  8
Visible Narrow (ANSI)
100
AcDbLine
 10
8.060297945000623
 20
5.076804076617728
 30
0.0
 11
7.890592317515847
 21
5.174783666329051
 31
0.0
  0
ELLIPSE
  5
2A0
330
6C
100
AcDbEntity
  8
Visible Narrow (ANSI)
100
AcDbEllipse
 10
7.927361870137548
 20
5.196012577433172
 30
0.0
 11
-0.0260000000000016
 21
-0.0450333209968099
 31
0.0
210
0.0
220
0.0
230
1.0
 40
0.5773502691896258
 41
5.49778714378112
 42
6.283185307178491
  0
ELLIPSE
  5
2A1
330
6C
100
AcDbEntity
  8
Visible Narrow (ANSI)
100
AcDbEllipse
 10
8.097067497622324
 20
5.098032987721849
 30
0.0
 11
-0.0260000000000004
 21
-0.0450333209967914
 31
0.0
210
0.0
220
0.0
230
1.0
 40
0.5773502691896257
 41
5.497787143782138
 42
6.283185307179743
  0
ELLIPSE
  5
2A2
330
6C
100
AcDbEntity
  8
Visible Narrow (ANSI)
100
AcDbEllipse
 10
7.872207541204985
 20
5.291542677401723
 30
0.0
 11
-0.0520000000000001
 21
0.0000000000000007
 31
0.0
210
0.0
220
0.0
230
1.0
 40
0.5773502691896331
 41
0.0000000000000022
 42
0.78539816339746
  0
ELLIPSE
  5
2A3
330
6C
100
AcDbEntity
  8
Visible Narrow (ANSI)
100
AcDbEllipse
 10
8.152221826554869
 20
5.129876354378026
 30
0.0
 11
-0.0519999999999983
 21
0.0000000000000036
 31
0.0
210
0.0
220
0.0
230
1.0
 40
0.5773502691896314
 41
0.7853981633976659
 42
2.356194490192583
  0
ELLIPSE
  5
2A4
330
6C
100
AcDbEntity
  8
Visible Narrow (ANSI)
100
AcDbEllipse
 10
9.423273784727207
 20
3.09806581311765
 30
0.0
 11
-0.0259999999999991
 21
-0.0450333209967918
 31
0.0
210
0.0
220
0.0
230
0.9999999999999998
 40
0.5773502691896257
 41
4.712388980384659
 42
6.283185307179647
  0
ELLIPSE
  5
2A5
330
6C
100
AcDbEntity
  8
Visible (ANSI)
100
AcDbEllipse
 10
9.462273784727202
 20
3.165615794612829
 30
0.0
 11
-0.0649999999999972
 21
-0.1125833024919678
 31
0.0
210
0.0
220
0.0
230
1.0
 40
0.816496580927726
 41
0.0
 42
1.570796326794887
  0
LINE
  5
2A6
330
6C
100
AcDbEntity
  8
Visible Narrow (ANSI)
100
AcDbLine
 10
9.49142811365974
 20
3.148783534955583
 30
0.0
 11
9.554197666281451
 21
3.112543516852525
 31
0.0
  0
ELLIPSE
  5
2A7
330
6C
100
AcDbEntity
  8
Visible Narrow (ANSI)
100
AcDbEllipse
 10
9.436273784727202
 20
3.18062690161176
 30
0.0
 11
-0.0389999999999969
 21
-0.0675499814951777
 31
0.0
210
0.0
220
0.0
230
1.0
 40
0.8164965809277259
 41
0.0
 42
1.570796326794878
  0
LINE
  5
2A8
330
6C
100
AcDbEntity
  8
Visible (ANSI)
100
AcDbLine
 10
9.892947666281461
 20
3.699275727916472
 30
0.0
 11
9.554197666281451
 21
3.112543516852525
 31
0.0
  0
LINE
  5
2A9
330
6C
100
AcDbEntity
  8
Visible Narrow (ANSI)
100
AcDbLine
 10
9.83017811365976
 20
3.735515746019524
 30
0.0
 11
9.892947666281461
 21
3.699275727916472
 31
0.0
  0
LINE
  5
2AA
330
6C
100
AcDbEntity
  8
Visible Narrow (ANSI)
100
AcDbLine
 10
9.83017811365976
 20
3.735515746019524
 30
0.0
 11
9.491428113659745
 21
3.148783534955581
 31
0.0
  0
ELLIPSE
  5
2AB
330
6C
100
AcDbEntity
  8
Visible (ANSI)
100
AcDbEllipse
 10
9.801023784727213
 20
3.752348005676779
 30
0.0
 11
0.0649999999999857
 21
0.1125833024919748
 31
0.0
210
0.0
220
0.0
230
0.9999999999999998
 40
0.8164965809277259
 41
4.71238898038452
 42
6.283185307179487
  0
ELLIPSE
  5
2AC
330
6C
100
AcDbEntity
  8
Visible Narrow (ANSI)
100
AcDbEllipse
 10
9.840023784727202
 20
3.819897987171961
 30
0.0
 11
0.0260000000000006
 21
0.045033320996801
 31
0.0
210
0.0
220
0.0
230
1.0
 40
0.577350269189628
 41
0.0000000000003088
 42
1.570796326795004
  0
ELLIPSE
  5
2AD
330
6C
100
AcDbEntity
  8
Visible Narrow (ANSI)
100
AcDbEllipse
 10
9.775023784727213
 20
3.767359112675709
 30
0.0
 11
0.0389999999999897
 21
0.0675499814951818
 31
0.0
210
0.0
220
0.0
230
1.0
 40
0.8164965809277264
 41
4.71238898038452
 42
6.28318530717949
  0
LINE
  5
2AE
330
6C
100
AcDbEntity
  8
Visible (ANSI)
100
AcDbLine
 10
9.696318157242426
 20
3.962910897880092
 30
0.0
 11
9.866023784727204
 21
3.864931308168762
 31
0.0
  0
ELLIPSE
  5
2AF
330
6C
100
AcDbEntity
  8
Visible Narrow (ANSI)
100
AcDbEllipse
 10
9.670318157242427
 20
3.917877576883302
 30
0.0
 11
0.026
 21
0.0450333209967909
 31
0.0
210
0.0
220
0.0
230
1.0
 40
0.5773502691896258
 41
0.0
 42
1.570796326794892
  0
LINE
  5
2B0
330
6C
100
AcDbEntity
  8
Visible Narrow (ANSI)
100
AcDbLine
 10
9.644318157242425
 20
3.932888683882232
 30
0.0
 11
9.814023784727202
 21
3.834909094170892
 31
0.0
  0
LINE
  5
2B1
330
6C
100
AcDbEntity
  8
Visible Narrow (ANSI)
100
AcDbLine
 10
9.550163828309878
 20
3.897182069043228
 30
0.0
 11
9.531130507313084
 21
3.908170962044301
 31
0.0
  0
ELLIPSE
  5
2B2
330
6C
100
AcDbEntity
  8
Visible Narrow (ANSI)
100
AcDbEllipse
 10
9.605318157242425
 20
3.865338702387046
 30
0.0
 11
0.0389999999999967
 21
0.0675499814951772
 31
0.0
210
0.0
220
0.0
230
0.9999999999999998
 40
0.8164965809277257
 41
0.0
 42
1.570796326794894
  0
LINE
  5
2B3
330
6C
100
AcDbEntity
  8
Visible Narrow (ANSI)
100
AcDbLine
 10
9.21141382830987
 20
3.310449857979277
 30
0.0
 11
9.19238050731308
 21
3.321438750980347
 31
0.0
  0
LINE
  5
2B4
330
6C
100
AcDbEntity
  8
Visible Narrow (ANSI)
100
AcDbLine
 10
9.21141382830987
 20
3.310449857979278
 30
0.0
 11
9.550163828309884
 21
3.897182069043225
 31
0.0
  0
ELLIPSE
  5
2B5
330
6C
100
AcDbEntity
  8
Visible Narrow (ANSI)
100
AcDbEllipse
 10
9.253568157242426
 20
3.196045402828983
 30
0.0
 11
-0.026000000000003
 21
-0.0450333209967998
 31
0.0
210
0.0
220
0.0
230
0.9999999999999998
 40
0.5773502691896251
 41
4.712388980384741
 42
6.28318530717972
  0
ELLIPSE
  5
2B6
330
6C
100
AcDbEntity
  8
Visible Narrow (ANSI)
100
AcDbEllipse
 10
9.266568157242419
 20
3.278606491323092
 30
0.0
 11
-0.0389999999999923
 21
-0.0675499814951797
 31
0.0
210
0.0
220
0.0
230
1.0
 40
0.8164965809277259
 41
4.712388980384587
 42
6.283185307179538
  0
LINE
  5
2B7
330
6C
100
AcDbEntity
  8
Visible (ANSI)
100
AcDbLine
 10
9.397273784727204
 20
3.053032492120851
 30
0.0
 11
9.227568157242423
 21
3.151012081832183
 31
0.0
  0
LINE
  5
2B8
330
6C
100
AcDbEntity
  8
Visible Narrow (ANSI)
100
AcDbLine
 10
9.397273784727207
 20
3.113076920116581
 30
0.0
 11
9.227568157242426
 21
3.211056509827913
 31
0.0
  0
ELLIPSE
  5
2B9
330
6C
100
AcDbEntity
  8
Visible Narrow (ANSI)
100
AcDbEllipse
 10
7.611312657936684
 20
4.144202057431296
 30
0.0
 11
-0.0260000000000021
 21
-0.0450333209967901
 31
0.0
210
0.0
220
0.0
230
0.9999999999999996
 40
0.5773502691896257
 41
4.712388980384721
 42
6.283185307179589
  0
ELLIPSE
  5
2BA
330
6C
100
AcDbEntity
  8
Visible (ANSI)
100
AcDbEllipse
 10
7.650312657936683
 20
4.211752038926473
 30
0.0
 11
-0.0649999999999924
 21
-0.1125833024919707
 31
0.0
210
0.0
220
0.0
230
0.9999999999999998
 40
0.816496580927726
 41
0.0
 42
1.570796326794916
  0
LINE
  5
2BB
330
6C
100
AcDbEntity
  8
Visible Narrow (ANSI)
100
AcDbLine
 10
7.679466986869223
 20
4.19491977926923
 30
0.0
 11
7.742236539490935
 21
4.158679761166174
 31
0.0
  0
ELLIPSE
  5
2BC
330
6C
100
AcDbEntity
  8
Visible Narrow (ANSI)
100
AcDbEllipse
 10
7.624312657936682
 20
4.226763145925403
 30
0.0
 11
-0.0389999999999934
 21
-0.0675499814951791
 31
0.0
210
0.0
220
0.0
230
1.0
 40
0.816496580927726
 41
0.0
 42
1.570796326794909
  0
LINE
  5
2BD
330
6C
100
AcDbEntity
  8
Visible (ANSI)
100
AcDbLine
 10
8.080986539490929
 20
4.745411972230134
 30
0.0
 11
7.742236539490937
 21
4.158679761166174
 31
0.0
  0
LINE
  5
2BE
330
6C
100
AcDbEntity
  8
Visible Narrow (ANSI)
100
AcDbLine
 10
8.018216986869227
 20
4.781651990333185
 30
0.0
 11
8.080986539490927
 21
4.745411972230134
 31
0.0
  0
LINE
  5
2BF
330
6C
100
AcDbEntity
  8
Visible Narrow (ANSI)
100
AcDbLine
 10
8.018216986869227
 20
4.781651990333185
 30
0.0
 11
7.679466986869227
 21
4.194919779269228
 31
0.0
  0
ELLIPSE
  5
2C0
330
6C
100
AcDbEntity
  8
Visible (ANSI)
100
AcDbEllipse
 10
7.989062657936676
 20
4.798484249990433
 30
0.0
 11
0.0649999999999954
 21
0.112583302491969
 31
0.0
210
0.0
220
0.0
230
1.0
 40
0.816496580927726
 41
4.712388980384716
 42
6.283185307179584
  0
ELLIPSE
  5
2C1
330
6C
100
AcDbEntity
  8
Visible Narrow (ANSI)
100
AcDbEllipse
 10
8.02806265793667
 20
4.866034231485611
 30
0.0
 11
0.0260000000000049
 21
0.0450333209967993
 31
0.0
210
0.0
220
0.0
230
1.0
 40
0.5773502691896258
 41
0.000000000000008
 42
1.570796326794909
  0
ELLIPSE
  5
2C2
330
6C
100
AcDbEntity
  8
Visible Narrow (ANSI)
100
AcDbEllipse
 10
7.963062657936675
 20
4.813495356989364
 30
0.0
 11
0.038999999999995
 21
0.0675499814951781
 31
0.0
210
0.0
220
0.0
230
0.9999999999999998
 40
0.8164965809277266
 41
4.712388980384717
 42
6.283185307179581
  0
LINE
  5
2C3
330
6C
100
AcDbEntity
  8
Visible (ANSI)
100
AcDbLine
 10
7.884357030451898
 20
5.009047142193741
 30
0.0
 11
8.054062657936677
 21
4.911067552482411
 31
0.0
  0
ELLIPSE
  5
2C4
330
6C
100
AcDbEntity
  8
Visible Narrow (ANSI)
100
AcDbEllipse
 10
7.858357030451899
 20
4.96401382119695
 30
0.0
 11
0.026
 21
0.0450333209967909
 31
0.0
210
0.0
220
0.0
230
1.0
 40
0.5773502691896258
 41
0.0
 42
1.570796326794892
  0
LINE
  5
2C5
330
6C
100
AcDbEntity
  8
Visible Narrow (ANSI)
100
AcDbLine
 10
7.832357030451899
 20
4.979024928195881
 30
0.0
 11
8.00206265793667
 21
4.881045338484542
 31
0.0
  0
LINE
  5
2C6
330
6C
100
AcDbEntity
  8
Visible Narrow (ANSI)
100
AcDbLine
 10
7.738202701519338
 20
4.943318313356878
 30
0.0
 11
7.719169380522544
 21
4.954307206357948
 31
0.0
  0
ELLIPSE
  5
2C7
330
6C
100
AcDbEntity
  8
Visible Narrow (ANSI)
100
AcDbEllipse
 10
7.793357030451889
 20
4.911474946700701
 30
0.0
 11
0.0389999999999923
 21
0.0675499814951795
 31
0.0
210
0.0
220
0.0
230
1.0
 40
0.8164965809277255
 41
0.0
 42
1.57079632679494
  0
LINE
  5
2C8
330
6C
100
AcDbEntity
  8
Visible Narrow (ANSI)
100
AcDbLine
 10
7.39945270151935
 20
4.356586102292916
 30
0.0
 11
7.380419380522559
 21
4.367574995293985
 31
0.0
  0
LINE
  5
2C9
330
6C
100
AcDbEntity
  8
Visible Narrow (ANSI)
100
AcDbLine
 10
7.39945270151935
 20
4.356586102292916
 30
0.0
 11
7.738202701519342
 21
4.943318313356876
 31
0.0
  0
ELLIPSE
  5
2CA
330
6C
100
AcDbEntity
  8
Visible Narrow (ANSI)
100
AcDbEllipse
 10
7.441607030451904
 20
4.242181647142628
 30
0.0
 11
-0.0260000000000058
 21
-0.0450333209967981
 31
0.0
210
0.0
220
0.0
230
1.0
 40
0.5773502691896253
 41
4.712388980384669
 42
6.283185307179489
  0
ELLIPSE
  5
2CB
330
6C
100
AcDbEntity
  8
Visible Narrow (ANSI)
100
AcDbEllipse
 10
7.454607030451901
 20
4.324742735636736
 30
0.0
 11
-0.0389999999999974
 21
-0.0675499814951774
 31
0.0
210
0.0
220
0.0
230
0.9999999999999998
 40
0.8164965809277264
 41
4.712388980384742
 42
6.283185307179596
  0
LINE
  5
2CC
330
6C
100
AcDbEntity
  8
Visible (ANSI)
100
AcDbLine
 10
7.585312657936678
 20
4.099168736434498
 30
0.0
 11
7.415607030451898
 21
4.197148326145831
 31
0.0
  0
LINE
  5
2CD
330
6C
100
AcDbEntity
  8
Visible Narrow (ANSI)
100
AcDbLine
 10
7.585312657936685
 20
4.159213164430226
 30
0.0
 11
7.415607030451903
 21
4.257192754141558
 31
0.0
  0
ELLIPSE
  5
2CE
330
6C
100
AcDbEntity
  8
Visible Narrow (ANSI)
100
AcDbEllipse
 10
9.909028624412844
 20
4.051896743408198
 30
0.0
 11
-0.0260000000000003
 21
-0.0450333209967913
 31
0.0
210
0.0
220
0.0
230
1.0
 40
0.5773502691896258
 41
5.497787143782139
 42
6.283185307179794
  0
ELLIPSE
  5
2CF
330
6C
100
AcDbEntity
  8
Visible Narrow (ANSI)
100
AcDbEllipse
 10
9.964182953345394
 20
4.08374011006438
 30
0.0
 11
-0.052000000000017
 21
0.0000000000000023
 31
0.0
210
0.0
220
0.0
230
1.0
 40
0.5773502691896164
 41
0.7853981633976775
 42
2.356194490192599
  0
ELLIPSE
  5
2D0
330
6C
100
AcDbEntity
  8
Visible Narrow (ANSI)
100
AcDbEllipse
 10
9.872259071791141
 20
4.094354565616439
 30
0.0
 11
0.0390000000000002
 21
-0.0675499814951865
 31
0.0
210
0.0
220
0.0
230
0.9999999999999998
 40
0.5773502691896259
 41
5.497787143782137
 42
7.068583470577049
  0
ELLIPSE
  5
2D1
330
6C
100
AcDbEntity
  8
Visible Narrow (ANSI)
100
AcDbEllipse
 10
9.964182953345396
 20
5.045164834106776
 30
0.0
 11
-0.0520000000000003
 21
0.0000000000000026
 31
0.0
210
0.0
220
0.0
230
0.9999999999999998
 40
0.5773502691896173
 41
0.7853981633976704
 42
2.356194490192567
  0
LINE
  5
2D2
330
6C
100
AcDbEntity
  8
Visible Narrow (ANSI)
100
AcDbLine
 10
9.927413400723695
 20
5.023935923002654
 30
0.0
 11
9.927413400723692
 21
4.062511198960259
 31
0.0
  0
ELLIPSE
  5
2D3
330
6C
100
AcDbEntity
  8
Visible Narrow (ANSI)
100
AcDbEllipse
 10
9.909028624412844
 20
5.14069493407532
 30
0.0
 11
-0.0259999999999941
 21
-0.0450333209967868
 31
0.0
210
0.0
220
0.0
230
0.9999999999999998
 40
0.5773502691896258
 41
3.92699081698703
 42
5.497787143781875
  0
ELLIPSE
  5
2D4
330
6C
100
AcDbEntity
  8
Visible Narrow (ANSI)
100
AcDbEllipse
 10
9.872259071791141
 20
5.055779289658835
 30
0.0
 11
0.0389999999999962
 21
-0.067549981495189
 31
0.0
210
0.0
220
0.0
230
1.0
 40
0.5773502691896258
 41
0.7853981633977245
 42
2.356194490192592
  0
ELLIPSE
  5
2D5
330
6C
100
AcDbEntity
  8
Visible Narrow (ANSI)
100
AcDbEllipse
 10
9.739322996928066
 20
5.238674523786644
 30
0.0
 11
-0.0259999999999975
 21
-0.0450333209967926
 31
0.0
210
0.0
220
0.0
230
1.0
 40
0.5773502691896258
 41
3.926990816986993
 42
5.497787143781885
  0
LINE
  5
2D6
330
6C
100
AcDbEntity
  8
Visible Narrow (ANSI)
100
AcDbLine
 10
9.702553444306365
 20
5.217445612682523
 30
0.0
 11
9.872259071791141
 21
5.119466022971198
 31
0.0
  0
ELLIPSE
  5
2D7
330
6C
100
AcDbEntity
  8
Visible Narrow (ANSI)
100
AcDbEllipse
 10
9.684168667995521
 20
5.206831157130464
 30
0.0
 11
-0.0520000000000124
 21
0.0000000000000045
 31
0.0
210
0.0
220
0.0
230
1.0
 40
0.5773502691896193
 41
0.0000000000006081
 42
0.7853981633980166
  0
ELLIPSE
  5
2D8
330
6C
100
AcDbEntity
  8
Visible Narrow (ANSI)
100
AcDbEllipse
 10
9.702553444306365
 20
5.153758879370166
 30
0.0
 11
-0.0389999999999955
 21
0.0675499814951785
 31
0.0
210
0.0
220
0.0
230
0.9999999999999998
 40
0.5773502691896258
 41
5.497787143782137
 42
7.06858347057704
  0
ELLIPSE
  5
2D9
330
6C
100
AcDbEntity
  8
Visible Narrow (ANSI)
100
AcDbEllipse
 10
9.684168667995523
 20
4.245406433088067
 30
0.0
 11
-0.0520000000000003
 21
-0.0000000000000006
 31
0.0
210
0.0
220
0.0
230
1.0
 40
0.5773502691896184
 41
0.0000000000000093
 42
0.7853981633974625
  0
LINE
  5
2DA
330
6C
100
AcDbEntity
  8
Visible Narrow (ANSI)
100
AcDbLine
 10
9.647399115373822
 20
4.224177521983946
 30
0.0
 11
9.64739911537382
 21
5.185602246026343
 31
0.0
  0
ELLIPSE
  5
2DB
330
6C
100
AcDbEntity
  8
Visible Narrow (ANSI)
100
AcDbEllipse
 10
9.739322996928066
 20
4.149876333119536
 30
0.0
 11
-0.0260000000000023
 21
-0.0450333209967993
 31
0.0
210
0.0
220
0.0
230
0.9999999999999998
 40
0.5773502691896259
 41
5.49778714378187
 42
6.28318530717929
  0
ELLIPSE
  5
2DC
330
6C
100
AcDbEntity
  8
Visible Narrow (ANSI)
100
AcDbEllipse
 10
9.702553444306365
 20
4.19233415532777
 30
0.0
 11
-0.0389999999999916
 21
0.0675499814951809
 31
0.0
210
0.0
220
0.0
230
1.0
 40
0.5773502691896257
 41
0.7853981633977059
 42
2.356194490192592
  0
LINE
  5
2DD
330
6C
100
AcDbEntity
  8
Visible Narrow (ANSI)
100
AcDbLine
 10
9.872259071791141
 20
4.030667832304077
 30
0.0
 11
9.702553444306365
 21
4.128647422015415
 31
0.0
  0
LINE
  5
2DE
330
6C
100
AcDbEntity
  8
Visible (ANSI)
100
AcDbLine
 10
7.901361870137549
 20
5.150979256436366
 30
0.0
 11
8.071067497622326
 21
5.05299966672505
 31
0.0
  0
SPLINE
  5
2DF
330
6C
100
AcDbEntity
  8
Visible (ANSI)
100
AcDbSpline
210
0.0
220
0.0
230
1.0
 70
     8
 71
     3
 72
    16
 73
    12
 74
     0
 42
0.0000000001
 43
0.0000000001
 40
3.141592653589776
 40
3.141592653589776
 40
3.141592653589776
 40
3.141592653589776
 40
3.455751918948759
 40
3.455751918948759
 40
3.769911184307741
 40
3.769911184307741
 40
4.084070449666723
 40
4.084070449666723
 40
4.398229715025706
 40
4.398229715025706
 40
4.712388980384689
 40
4.712388980384689
 40
4.712388980384689
 40
4.712388980384689
 10
7.820207541204997
 20
5.291542677401717
 30
0.0
 10
7.820207541204997
 20
5.280157539937866
 30
0.0
 10
7.821724312636277
 20
5.268985619805551
 30
0.0
 10
7.827008897814944
 20
5.247154189327991
 30
0.0
 10
7.83079298255133
 20
5.236493407782692
 30
0.0
 10
7.840261459936625
 20
5.215978444015439
 30
0.0
 10
7.845948283773348
 20
5.206128576196539
 30
0.0
 10
7.85898052486086
 20
5.187671152362089
 30
0.0
 10
7.866320990135092
 20
5.179063648077657
 30
0.0
 10
7.88258527094028
 20
5.163571347825687
 30
0.0
 10
7.891502051868275
 20
5.156671825168307
 30
0.0
 10
7.901361870137548
 20
5.150979256436381
 30
0.0
  0
LINE
  5
2E0
330
6C
100
AcDbEntity
  8
Visible (ANSI)
100
AcDbLine
 10
7.820207541204991
 20
5.831153138220588
 30
0.0
 11
7.820207541204984
 21
5.291542677401724
 31
0.0
  0
SPLINE
  5
2E1
330
6C
100
AcDbEntity
  8
Visible (ANSI)
100
AcDbSpline
210
0.0
220
0.0
230
1.0
 70
     8
 71
     3
 72
    16
 73
    12
 74
     0
 42
0.0000000001
 43
0.0000000001
 40
4.712388980384689
 40
4.712388980384689
 40
4.712388980384689
 40
4.712388980384689
 40
4.869468613064179
 40
4.869468613064179
 40
5.026548245743668
 40
5.026548245743668
 40
5.183627878423158
 40
5.183627878423158
 40
5.340707511102648
 40
5.340707511102648
 40
5.497787143782137
 40
5.497787143782137
 40
5.497787143782137
 40
5.497787143782137
 10
8.071067497622324
 20
5.052999666725058
 30
0.0
 10
8.075997406756961
 20
5.050153382359096
 30
0.0
 10
8.081167694948508
 20
5.047611585364911
 30
0.0
 10
8.092060922853855
 20
5.043314602699856
 30
0.0
 10
8.097787323798815
 20
5.041558003020281
 30
0.0
 10
8.109826649111605
 20
5.039124068953563
 30
0.0
 10
8.116146427460812
 20
5.038449133835912
 30
0.0
 10
8.129211481638565
 20
5.038592836911098
 30
0.0
 10
8.135960387706322
 20
5.03942282441357
 30
0.0
 10
8.149332033763297
 20
5.042920696979551
 30
0.0
 10
8.15594139194782
 20
5.045599509781978
 30
0.0
 10
8.16206749762232
 20
5.049136418542235
 30
0.0
  0
SPLINE
  5
2E2
330
6C
100
AcDbEntity
  8
Visible (ANSI)
100
AcDbSpline
210
0.0
220
0.0
230
1.0
 70
     8
 71
     3
 72
    18
 73
    14
 74
     0
 42
0.0000000001
 43
0.0000000001
 40
1.570796326794896
 40
1.570796326794896
 40
1.570796326794896
 40
1.570796326794896
 40
1.847924456005915
 40
1.847924456005915
 40
2.133937428360994
 40
2.133937428360994
 40
2.442600953300392
 40
2.442600953300392
 40
2.756760218659366
 40
2.756760218659366
 40
3.07091948401834
 40
3.07091948401834
 40
3.141592653589766
 40
3.141592653589766
 40
3.141592653589766
 40
3.141592653589766
 10
9.696318157242423
 20
3.962910897880084
 30
0.0
 10
9.686128279912443
 20
3.968794026299555
 30
0.0
 10
9.674934481843415
 20
3.972908501031776
 30
0.0
 10
9.651653611955929
 20
3.9773465773271
 30
0.0
 10
9.639571551046298
 20
3.977559835024754
 30
0.0
 10
9.615249910349655
 20
3.974266224072275
 30
0.0
 10
9.603070843145557
 20
3.970484819864795
 30
0.0
 10
9.58027835517281
 20
3.959595075805959
 30
0.0
 10
9.569682855425014
 20
3.95243339626581
 30
0.0
 10
9.550809101809958
 20
3.935617029648573
 30
0.0
 10
9.542524864432824
 20
3.925959438184603
 30
0.0
 10
9.534039123282102
 20
3.913045088095058
 30
0.0
 10
9.532549363328948
 20
3.910628492752381
 30
0.0
 10
9.531130507313093
 20
3.908170962044295
 30
0.0
  0
LINE
  5
2E3
330
6C
100
AcDbEntity
  8
Visible (ANSI)
100
AcDbLine
 10
9.531130507313086
 20
3.9081709620443
 30
0.0
 11
9.19238050731308
 21
3.321438750980347
 31
0.0
  0
SPLINE
  5
2E4
330
6C
100
AcDbEntity
  8
Visible (ANSI)
100
AcDbSpline
210
0.0
220
0.0
230
1.0
 70
     8
 71
     3
 72
    18
 73
    14
 74
     0
 42
0.0000000001
 43
0.0000000001
 40
3.141592653589758
 40
3.141592653589758
 40
3.141592653589758
 40
3.141592653589758
 40
3.455751918948754
 40
3.455751918948754
 40
3.76991118430775
 40
3.76991118430775
 40
4.084070449666746
 40
4.084070449666746
 40
4.398229715025742
 40
4.398229715025742
 40
4.686622143810505
 40
4.686622143810505
 40
4.712388980384737
 40
4.712388980384737
 40
4.712388980384737
 40
4.712388980384737
 10
9.192380507313085
 20
3.321438750980344
 30
0.0
 10
9.186073350491138
 20
3.310514434913427
 30
0.0
 10
9.181165912454503
 20
3.298780079303991
 30
0.0
 10
9.174568011897695
 20
3.274398142485666
 30
0.0
 10
9.172877165469948
 20
3.261745081177123
 30
0.0
 10
9.173177585626833
 20
3.23633030544162
 30
0.0
 10
9.175176659480271
 20
3.223558200148916
 30
0.0
 10
9.183299030361105
 20
3.199050625516095
 30
0.0
 10
9.189448944665219
 20
3.187315708604598
 30
0.0
 10
9.205130631268435
 20
3.16745941148386
 30
0.0
 10
9.214347523449987
 20
3.159150832896243
 30
0.0
 10
9.225681919872675
 20
3.15212103771032
 30
0.0
 10
9.226620722189119
 20
3.151559083715259
 30
0.0
 10
9.227568157242428
 20
3.15101208183219
 30
0.0
  0
SPLINE
  5
2E5
330
6C
100
AcDbEntity
  8
Visible (ANSI)
100
AcDbSpline
210
0.0
220
0.0
230
1.0
 70
     8
 71
     3
 72
    18
 73
    14
 74
     0
 42
0.0000000001
 43
0.0000000001
 40
1.570796326794789
 40
1.570796326794789
 40
1.570796326794789
 40
1.570796326794789
 40
1.847924456005807
 40
1.847924456005807
 40
2.13393742836088
 40
2.13393742836088
 40
2.442600953300268
 40
2.442600953300268
 40
2.756760218659279
 40
2.756760218659279
 40
3.070919484018289
 40
3.070919484018289
 40
3.141592653589841
 40
3.141592653589841
 40
3.141592653589841
 40
3.141592653589841
 10
7.884357030451895
 20
5.009047142193733
 30
0.0
 10
7.87416715312192
 20
5.014930270613206
 30
0.0
 10
7.862973355052892
 20
5.019044745345426
 30
0.0
 10
7.839692485165405
 20
5.023482821640754
 30
0.0
 10
7.827610424255775
 20
5.023696079338409
 30
0.0
 10
7.803288783559131
 20
5.020402468385935
 30
0.0
 10
7.791109716355034
 20
5.016621064178456
 30
0.0
 10
7.768317228382284
 20
5.005731320119622
 30
0.0
 10
7.757721728634487
 20
4.998569640579471
 30
0.0
 10
7.738847975019426
 20
4.981753273962234
 30
0.0
 10
7.730563737642289
 20
4.972095682498265
 30
0.0
 10
7.722077996491567
 20
4.959181332408713
 30
0.0
 10
7.720588236538408
 20
4.956764737066032
 30
0.0
 10
7.719169380522551
 20
4.954307206357943
 30
0.0
  0
LINE
  5
2E6
330
6C
100
AcDbEntity
  8
Visible (ANSI)
100
AcDbLine
 10
7.719169380522544
 20
4.954307206357946
 30
0.0
 11
7.380419380522559
 21
4.367574995293985
 31
0.0
  0
SPLINE
  5
2E7
330
6C
100
AcDbEntity
  8
Visible (ANSI)
100
AcDbSpline
210
0.0
220
0.0
230
1.0
 70
     8
 71
     3
 72
    18
 73
    14
 74
     0
 42
0.0000000001
 43
0.0000000001
 40
3.141592653589813
 40
3.141592653589813
 40
3.141592653589813
 40
3.141592653589813
 40
3.455751918948782
 40
3.455751918948782
 40
3.769911184307751
 40
3.769911184307751
 40
4.08407044966672
 40
4.08407044966672
 40
4.398229715025689
 40
4.398229715025689
 40
4.686622143810455
 40
4.686622143810455
 40
4.712388980384657
 40
4.712388980384657
 40
4.712388980384657
 40
4.712388980384657
 10
7.380419380522566
 20
4.367574995293981
 30
0.0
 10
7.374112223700619
 20
4.356650679227064
 30
0.0
 10
7.369204785663985
 20
4.34491632361763
 30
0.0
 10
7.362606885107178
 20
4.320534386799307
 30
0.0
 10
7.360916038679431
 20
4.307881325490765
 30
0.0
 10
7.361216458836315
 20
4.282466549755263
 30
0.0
 10
7.363215532689753
 20
4.269694444462562
 30
0.0
 10
7.371337903570587
 20
4.245186869829741
 30
0.0
 10
7.377487817874698
 20
4.233451952918247
 30
0.0
 10
7.393169504477912
 20
4.213595655797508
 30
0.0
 10
7.402386396659464
 20
4.205287077209891
 30
0.0
 10
7.41372079308215
 20
4.198257282023967
 30
0.0
 10
7.414659595398593
 20
4.197695328028907
 30
0.0
 10
7.415607030451902
 20
4.197148326145838
 30
0.0
  0
SPLINE
  5
2E8
330
6C
100
AcDbEntity
  8
Visible (ANSI)
100
AcDbSpline
210
0.0
220
0.0
230
1.0
 70
     8
 71
     3
 72
    16
 73
    12
 74
     0
 42
0.0000000001
 43
0.0000000001
 40
4.712388980384689
 40
4.712388980384689
 40
4.712388980384689
 40
4.712388980384689
 40
4.869468613064179
 40
4.869468613064179
 40
5.026548245743668
 40
5.026548245743668
 40
5.183627878423158
 40
5.183627878423158
 40
5.340707511102648
 40
5.340707511102648
 40
5.497787143782137
 40
5.497787143782137
 40
5.497787143782137
 40
5.497787143782137
 10
9.883028624412842
 20
4.006863422411407
 30
0.0
 10
9.887958533547479
 20
4.004017138045445
 30
0.0
 10
9.893128821739026
 20
4.001475341051259
 30
0.0
 10
9.904022049644375
 20
3.997178358386205
 30
0.0
 10
9.909748450589335
 20
3.995421758706629
 30
0.0
 10
9.921787775902124
 20
3.992987824639912
 30
0.0
 10
9.928107554251331
 20
3.992312889522261
 30
0.0
 10
9.941172608429086
 20
3.992456592597445
 30
0.0
 10
9.947921514496844
 20
3.993286580099918
 30
0.0
 10
9.96129316055382
 20
3.996784452665899
 30
0.0
 10
9.967902518738343
 20
3.999463265468326
 30
0.0
 10
9.974028624412843
 20
4.003000174228583
 30
0.0
  0
SPLINE
  5
2E9
330
6C
100
AcDbEntity
  8
Visible (ANSI)
100
AcDbSpline
210
0.0
220
0.0
230
1.0
 70
     8
 71
     3
 72
    16
 73
    12
 74
     0
 42
0.0000000001
 43
0.0000000001
 40
2.356194490192344
 40
2.356194490192344
 40
2.356194490192344
 40
2.356194490192344
 40
2.513274122871836
 40
2.513274122871836
 40
2.670353755551328
 40
2.670353755551328
 40
2.82743338823082
 40
2.82743338823082
 40
2.984513020910312
 40
2.984513020910312
 40
3.141592653589803
 40
3.141592653589803
 40
3.141592653589803
 40
3.141592653589803
 10
9.67432299692807
 20
5.287571092966256
 30
0.0
 10
9.66819689125357
 20
5.284034184206
 30
0.0
 10
9.662572292222424
 20
5.279649718516706
 30
0.0
 10
9.652857222692595
 20
5.269818469623942
 30
0.0
 10
9.648763979396752
 20
5.264388739272745
 30
0.0
 10
9.642107001794164
 20
5.253145921990583
 30
0.0
 10
9.639531623577351
 20
5.247335365835056
 30
0.0
 10
9.635619809653871
 20
5.235692037236398
 30
0.0
 10
9.634277869128183
 20
5.229854528706019
 30
0.0
 10
9.632552551323067
 20
5.218272225278247
 30
0.0
 10
9.632168667995522
 20
5.212523725862389
 30
0.0
 10
9.632168667995522
 20
5.206831157130464
 30
0.0
  0
LINE
  5
2EA
330
6C
100
AcDbEntity
  8
Visible (ANSI)
100
AcDbLine
 10
9.632168667995513
 20
5.206831157130468
 30
0.0
 11
9.632168667995522
 21
4.245406433088067
 31
0.0
  0
SPLINE
  5
2EB
330
6C
100
AcDbEntity
  8
Visible (ANSI)
100
AcDbSpline
210
0.0
220
0.0
230
1.0
 70
     8
 71
     3
 72
    16
 73
    12
 74
     0
 42
0.0000000001
 43
0.0000000001
 40
3.141592653589803
 40
3.141592653589803
 40
3.141592653589803
 40
3.141592653589803
 40
3.45575191894878
 40
3.45575191894878
 40
3.769911184307757
 40
3.769911184307757
 40
4.084070449666734
 40
4.084070449666734
 40
4.398229715025712
 40
4.398229715025712
 40
4.712388980384689
 40
4.712388980384689
 40
4.712388980384689
 40
4.712388980384689
 10
9.632168667995522
 20
4.245406433088068
 30
0.0
 10
9.632168667995522
 20
4.234021295624217
 30
0.0
 10
9.6336854394268
 20
4.222849375491904
 30
0.0
 10
9.63897002460547
 20
4.201017945014346
 30
0.0
 10
9.642754109341854
 20
4.190357163469047
 30
0.0
 10
9.652222586727148
 20
4.169842199701797
 30
0.0
 10
9.657909410563872
 20
4.159992331882897
 30
0.0
 10
9.67094165165138
 20
4.141534908048449
 30
0.0
 10
9.678282116925613
 20
4.132927403764019
 30
0.0
 10
9.6945463977308
 20
4.117435103512049
 30
0.0
 10
9.703463178658793
 20
4.11053558085467
 30
0.0
 10
9.713322996928066
 20
4.104843012122746
 30
0.0
  0
LINE
  5
2EC
330
6C
100
AcDbEntity
  8
Visible (ANSI)
100
AcDbLine
 10
9.713322996928065
 20
4.104843012122739
 30
0.0
 11
9.883028624412842
 21
4.006863422411393
 31
0.0
  0
LINE
  5
2ED
330
6C
100
AcDbEntity
  8
Visible Narrow (ANSI)
100
AcDbLine
 10
7.680758380198737
 20
5.243496906587382
 30
0.0
 11
8.333948269319819
 21
4.866377548271383
 31
0.0
  0
LINE
  5
2EE
330
6C
100
AcDbEntity
  8
Visible Narrow (ANSI)
100
AcDbLine
 10
9.502442225230584
 20
4.191747248279853
 30
0.0
 11
10.15563211435165
 21
3.814627889963861
 31
0.0
  0
ELLIPSE
  5
2EF
330
6C
100
AcDbEntity
  8
Visible (ANSI)
100
AcDbEllipse
 10
7.643988827577037
 20
5.22226799548326
 30
0.0
 11
-0.0259999999999997
 21
-0.045033320996791
 31
0.0
210
0.0
220
0.0
230
1.0
 40
0.5773502691896386
 41
1.570796326794974
 42
2.356194490192535
  0
ELLIPSE
  5
2F0
330
6C
100
AcDbEntity
  8
Visible (ANSI)
100
AcDbEllipse
 10
8.297178716698118
 20
4.845148637167262
 30
0.0
 11
-0.0520000000000066
 21
-0.0900666419935779
 31
0.0
210
0.0
220
0.0
230
1.0
 40
0.5773502691896132
 41
1.570796326795012
 42
2.356194490192597
  0
LINE
  5
2F1
330
6C
100
AcDbEntity
  8
Visible Narrow (ANSI)
100
AcDbLine
 10
8.333948269319819
 20
4.866377548271383
 30
0.0
 11
8.37071782194152
 21
4.887606459375504
 31
0.0
  0
ELLIPSE
  5
2F2
330
6C
100
AcDbEntity
  8
Visible (ANSI)
100
AcDbEllipse
 10
8.297178716698118
 20
4.845148637167262
 30
0.0
 11
0.0260000000000006
 21
0.0450333209967905
 31
0.0
210
0.0
220
0.0
230
1.0
 40
0.5773502691896204
 41
4.712388980384716
 42
5.497787143782136
  0
LINE
  5
2F3
330
6C
100
AcDbEntity
  8
Visible Narrow (ANSI)
100
AcDbLine
 10
8.349178716698117
 20
4.815126423169401
 30
0.0
 11
8.323178716698118
 21
4.830137530168332
 31
0.0
  0
LINE
  5
2F4
330
6C
100
AcDbEntity
  8
Visible Narrow (ANSI)
100
AcDbLine
 10
8.323178716698118
 20
4.830137530168332
 30
0.0
 11
7.669988827577036
 21
5.20725688848433
 31
0.0
  0
ELLIPSE
  5
2F5
330
6C
100
AcDbEntity
  8
Visible (ANSI)
100
AcDbEllipse
 10
10.11886256172995
 20
3.79339897885974
 30
0.0
 11
0.0260000000000071
 21
0.0450333209967868
 31
0.0
210
0.0
220
0.0
230
1.0
 40
0.5773502691894775
 41
4.712388980384876
 42
5.497787143782118
  0
ELLIPSE
  5
2F6
330
6C
100
AcDbEntity
  8
Visible (ANSI)
100
AcDbEllipse
 10
9.465672672608887
 20
4.170518337175729
 30
0.0
 11
-0.0259999999999983
 21
-0.0450333209967918
 31
0.0
210
0.0
220
0.0
230
1.0
 40
0.5773502691896937
 41
1.570796326794946
 42
2.356194490192532
  0
LINE
  5
2F7
330
6C
100
AcDbEntity
  8
Visible Narrow (ANSI)
100
AcDbLine
 10
10.14486256172995
 20
3.77838787186081
 30
0.0
 11
9.491672672608888
 21
4.155507230176798
 31
0.0
  0
ELLIPSE
  5
2F8
330
6C
100
AcDbEntity
  8
Visible (ANSI)
100
AcDbEllipse
 10
10.11886256172995
 20
3.79339897885974
 30
0.0
 11
-0.0520000000000255
 21
-0.0900666419935668
 31
0.0
210
0.0
220
0.0
230
1.0
 40
0.5773502691894687
 41
1.570796326795131
 42
2.356194490192715
  0
LINE
  5
2F9
330
6C
100
AcDbEntity
  8
Visible Narrow (ANSI)
100
AcDbLine
 10
10.15563211435165
 20
3.814627889963861
 30
0.0
 11
10.19240166697335
 21
3.835856801067982
 31
0.0
  0
LINE
  5
2FA
330
6C
100
AcDbEntity
  8
Visible Narrow (ANSI)
100
AcDbLine
 10
10.17086256172995
 20
3.76337676486188
 30
0.0
 11
10.14486256172995
 21
3.77838787186081
 31
0.0
  0
LINE
  5
2FB
330
6C
100
AcDbEntity
  8
Visible (ANSI)
100
AcDbLine
 10
8.434297061388663
 20
2.346053648711394
 30
0.0
 11
8.417769524638483
 21
2.355595826503153
 31
0.0
  0
SPLINE
  5
2FC
330
6C
100
AcDbEntity
  8
Visible (ANSI)
100
AcDbSpline
210
0.0
220
0.0
230
1.0
 70
     8
 71
     3
 72
    12
 73
     8
 74
     0
 42
0.0000000001
 43
0.0000000001
 40
0.1421839326165229
 40
0.1421839326165229
 40
0.1421839326165229
 40
0.1421839326165229
 40
0.1658611411731019
 40
0.1658611411731019
 40
0.1979777325178448
 40
0.1979777325178448
 40
0.2418295498402551
 40
0.2418295498402551
 40
0.2418295498402551
 40
0.2418295498402551
 10
8.735749245427964
 20
2.86819077087194
 30
0.0
 10
8.736069212580094
 20
2.868745744097509
 30
0.0
 10
8.736106926863508
 20
2.869858373987154
 30
0.0
 10
8.735588376722391
 20
2.873792638549441
 30
0.0
 10
8.734826606304244
 20
2.877052212479171
 30
0.0
 10
8.732445047726342
 20
2.88703327305839
 30
0.0
 10
8.731080234815944
 20
2.893300716626003
 30
0.0
 10
8.730371071898874
 20
2.897037588882792
 30
0.0
  0
LINE
  5
2FD
330
6C
100
AcDbEntity
  8
Visible Narrow (ANSI)
100
AcDbLine
 10
8.417769524638483
 20
2.355595826503153
 30
0.0
 11
8.730371071898874
 21
2.897037588882792
 31
0.0
  0
LINE
  5
2FE
330
6C
100
AcDbEntity
  8
Visible (ANSI)
100
AcDbLine
 10
8.735754443019406
 20
2.868193150012521
 30
0.0
 11
8.434297061388663
 21
2.346053648711394
 31
0.0
  0
SPLINE
  5
2FF
330
6C
100
AcDbEntity
  8
Visible (ANSI)
100
AcDbSpline
210
0.0
220
0.0
230
1.0
 70
     8
 71
     3
 72
    20
 73
    16
 74
     0
 42
0.0000000001
 43
0.0000000001
 40
0.0
 40
0.0
 40
0.0
 40
0.0
 40
0.0213105760992184
 40
0.0213105760992184
 40
0.0505839085933875
 40
0.0505839085933875
 40
0.0743931382957456
 40
0.0743931382957456
 40
0.0962051165718927
 40
0.0962051165718927
 40
0.1188954899718782
 40
0.1188954899718782
 40
0.1412884715796278
 40
0.1412884715796278
 40
0.1732751307969173
 40
0.1732751307969173
 40
0.1732751307969173
 40
0.1732751307969173
 10
7.661738853369366
 20
3.51455980887506
 30
0.0
 10
7.659442685914177
 20
3.513279139517292
 30
0.0
 10
7.656104017768377
 20
3.511588043849446
 30
0.0
 10
7.646325915280614
 20
3.508395671675504
 30
0.0
 10
7.640600548211674
 20
3.507648537194811
 30
0.0
 10
7.630348367281049
 20
3.508254483984353
 30
0.0
 10
7.625792497833964
 20
3.509243139488922
 30
0.0
 10
7.617498578718596
 20
3.512550240876526
 30
0.0
 10
7.613879177610343
 20
3.514688884627018
 30
0.0
 10
7.607471758216115
 20
3.520025972100591
 30
0.0
 10
7.604850528804075
 20
3.523156917177514
 30
0.0
 10
7.600940924605845
 20
3.529958313258765
 30
0.0
 10
7.599683568054978
 20
3.53353532168578
 30
0.0
 10
7.598022409261059
 20
3.542529439430287
 30
0.0
 10
7.598363574170654
 20
3.547282668161948
 30
0.0
 10
7.598732390422709
 20
3.550389486258448
 30
0.0
  0
LINE
  5
300
330
6C
100
AcDbEntity
  8
Visible (ANSI)
100
AcDbLine
 10
7.286130843162319
 20
3.008947723878807
 30
0.0
 11
7.348900395784019
 21
2.972707705775757
 31
0.0
  0
ENDSEC
  0
SECTION
  2
OBJECTS
  0
DICTIONARY
  5
C
330
0
100
AcDbDictionary
281
     1
  3
ACAD_CIP_PREVIOUS_PRODUCT_INFO
350
301
  3
ACAD_COLOR
350
63
  3
ACAD_GROUP
350
D
  3
ACAD_LAYOUT
350
62
  3
ACAD_MATERIAL
350
10
  3
ACAD_MLEADERSTYLE
350
66
  3
ACAD_MLINESTYLE
350
5F
  3
ACAD_PLOTSETTINGS
350
61
  3
ACAD_PLOTSTYLENAME
350
E
  3
ACAD_SCALELIST
350
42
  3
ACAD_TABLESTYLE
350
64
  3
ACAD_VISUALSTYLE
350
29
  3
ACDB_RECOMPOSE_DATA
350
359
  3
AcDbVariableDictionary
350
76
  3
DWGPROPS
350
35A
  0
DICTIONARY
  5
308
330
8
100
AcDbDictionary
280
     1
281
     1
  0
XRECORD
  5
301
102
{ACAD_REACTORS
330
C
102
}
330
C
100
AcDbXrecord
280
     1
300
AMECH_PP
300
2012
300
85796PDSU_2012_0F
  0
DICTIONARY
  5
63
102
{ACAD_REACTORS
330
C
102
}
330
C
100
AcDbDictionary
281
     1
  0
DICTIONARY
  5
D
102
{ACAD_REACTORS
330
C
102
}
330
C
100
AcDbDictionary
281
     1
  0
DICTIONARY
  5
62
102
{ACAD_REACTORS
330
C
102
}
330
C
100
AcDbDictionary
281
     1
  3
Layout1
350
6B
  3
Layout2
350
73
  3
Model
350
6F
  0
DICTIONARY
  5
10
102
{ACAD_REACTORS
330
C
102
}
330
C
100
AcDbDictionary
281
     1
  3
ByBlock
350
19
  3
ByLayer
350
11
  3
Global
350
21
  0
DICTIONARY
  5
66
102
{ACAD_REACTORS
330
C
102
}
330
C
100
AcDbDictionary
281
     1
  3
Standard
350
67
  0
DICTIONARY
  5
5F
102
{ACAD_REACTORS
330
C
102
}
330
C
100
AcDbDictionary
281
     1
  3
Standard
350
60
  0
DICTIONARY
  5
61
102
{ACAD_REACTORS
330
C
102
}
330
C
100
AcDbDictionary
281
     1
  0
ACDBDICTIONARYWDFLT
  5
E
102
{ACAD_REACTORS
330
C
102
}
330
C
100
AcDbDictionary
281
     1
  3
Normal
350
F
100
AcDbDictionaryWithDefault
340
F
  0
DICTIONARY
  5
42
102
{ACAD_REACTORS
330
C
102
}
330
C
100
AcDbDictionary
281
     1
  3
A0
350
43
  3
A1
350
44
  3
A2
350
45
  3
A3
350
46
  3
A4
350
47
  3
A5
350
48
  3
A6
350
49
  3
A7
350
4A
  3
A8
350
4B
  3
A9
350
4C
  3
B0
350
4D
  3
B1
350
4E
  3
B2
350
4F
  3
B3
350
50
  3
B4
350
51
  3
B5
350
52
  3
B6
350
53
  0
DICTIONARY
  5
64
102
{ACAD_REACTORS
330
C
102
}
330
C
100
AcDbDictionary
281
     1
  3
Standard
350
65
  0
DICTIONARY
  5
29
102
{ACAD_REACTORS
330
C
102
}
330
C
100
AcDbDictionary
281
     1
  3
2dWireframe
350
2F
  3
Basic
350
2E
  3
Brighten
350
35
  3
ColorChange
350
39
  3
Conceptual
350
32
  3
Dim
350
34
  3
EdgeColorOff
350
41
  3
Facepattern
350
38
  3
Flat
350
2A
  3
FlatWithEdges
350
2B
  3
Gouraud
350
2C
  3
GouraudWithEdges
350
2D
  3
Hidden
350
31
  3
JitterOff
350
3F
  3
Linepattern
350
37
  3
OverhangOff
350
40
  3
Realistic
350
33
  3
Shaded
350
3E
  3
Shaded with edges
350
3D
  3
Shades of Gray
350
3A
  3
Sketchy
350
3B
  3
Thicken
350
36
  3
Wireframe
350
30
  3
X-Ray
350
3C
  0
XRECORD
  5
359
102
{ACAD_REACTORS
330
C
102
}
330
C
100
AcDbXrecord
280
     1
 90
        1
330
65
  0
DICTIONARY
  5
76
102
{ACAD_REACTORS
330
C
102
}
330
C
100
AcDbDictionary
281
     1
  3
CANNOSCALE
350
79
  3
CMLEADERSTYLE
350
78
  3
CTABLESTYLE
350
77
  3
DIMASSOC
350
34C
  3
HIDETEXT
350
34B
  3
INDEXCTL
350
34A
  3
LAYEREVAL
350
347
  3
LAYERNOTIFY
350
348
  3
LIGHTINGUNITS
350
346
  3
MSLTSCALE
350
345
  3
SORTENTS
350
349
  3
XCLIPFRAME
350
354
  0
XRECORD
  5
35A
102
{ACAD_REACTORS
330
C
102
}
330
C
100
AcDbXrecord
280
     1
  1
DWGPROPS COOKIE
  2

  3

  4
JIM WALLS
  6

  7

  8
jwalls
  9

300
Manager=
301
Company=
302
Category=
303
Part Number=
304
Description=
305
Project=
306
Designer=JIM WALLS
307
Engineer=
308
Authority=
309
Cost Center=
 40
0.0022764583333333
 41
2456038.559303415
 42
2456038.591404746
  1

 90
       16
300
Vendor=
300
User Status=
300
Design Status=WorkInProgress
300
Checked by=
300
Engr Approved by=
300
Mfg Approved by=
  0
LAYOUT
  5
6B
102
{ACAD_XDICTIONARY
360
38F
102
}
102
{ACAD_REACTORS
330
62
102
}
330
62
100
AcDbPlotSettings
  1

  2

  4

  6

 40
0.0
 41
0.0
 42
0.0
 43
0.0
 44
0.0
 45
0.0
 46
0.0
 47
0.0
 48
0.0
 49
0.0
140
0.0
141
0.0
142
1.0
143
1.0
 70
   688
 72
     0
 73
     0
 74
     5
  7

 75
    16
147
1.0
148
0.0
149
0.0
100
AcDbLayout
  1
Layout1
 70
     1
 71
     1
 10
0.0
 20
0.0
 11
17.0
 21
11.0
 12
0.0
 22
0.0
 32
0.0
 14
0.0
 24
0.0
 34
0.0
 15
17.0
 25
11.0
 35
0.0
146
0.0
 13
0.0
 23
0.0
 33
0.0
 16
1.0
 26
0.0
 36
0.0
 17
0.0
 27
1.0
 37
0.0
 76
     0
330
68
  0
LAYOUT
  5
73
102
{ACAD_XDICTIONARY
360
393
102
}
102
{ACAD_REACTORS
330
62
102
}
330
62
100
AcDbPlotSettings
  1

  2

  4

  6

 40
0.0
 41
0.0
 42
0.0
 43
0.0
 44
0.0
 45
0.0
 46
0.0
 47
0.0
 48
0.0
 49
0.0
140
0.0
141
0.0
142
1.0
143
1.0
 70
   688
 72
     0
 73
     0
 74
     5
  7

 75
    16
147
1.0
148
0.0
149
0.0
100
AcDbLayout
  1
Layout2
 70
     1
 71
     2
 10
0.0
 20
0.0
 11
12.0
 21
9.0
 12
0.0
 22
0.0
 32
0.0
 14
0.0
 24
0.0
 34
0.0
 15
0.0
 25
0.0
 35
0.0
146
0.0
 13
0.0
 23
0.0
 33
0.0
 16
1.0
 26
0.0
 36
0.0
 17
0.0
 27
1.0
 37
0.0
 76
     0
330
70
  0
LAYOUT
  5
6F
102
{ACAD_XDICTIONARY
360
391
102
}
102
{ACAD_REACTORS
330
62
102
}
330
62
100
AcDbPlotSettings
  1

  2

  4

  6

 40
0.0
 41
0.0
 42
0.0
 43
0.0
 44
0.0
 45
0.0
 46
0.0
 47
0.0
 48
0.0
 49
0.0
140
0.0
141
0.0
142
1.0
143
1.0
 70
  1712
 72
     0
 73
     0
 74
     0
  7

 75
     0
147
1.0
148
0.0
149
0.0
100
AcDbLayout
  1
Model
 70
     1
 71
     0
 10
0.0
 20
0.0
 11
12.0
 21
9.0
 12
0.0
 22
0.0
 32
0.0
 14
0.0
 24
0.0
 34
0.0
 15
0.0
 25
0.0
 35
0.0
146
0.0
 13
0.0
 23
0.0
 33
0.0
 16
1.0
 26
0.0
 36
0.0
 17
0.0
 27
1.0
 37
0.0
 76
     0
330
6C
331
57
  0
MATERIAL
  5
19
102
{ACAD_XDICTIONARY
360
1A
102
}
102
{ACAD_REACTORS
330
10
102
}
330
10
100
AcDbMaterial
  1
ByBlock
 72
     0
 43
0.0208333333333333
 43
0.0
 43
0.0
 43
0.0
 43
0.0
 43
0.0208333333333333
 43
0.0
 43
0.0
 43
0.0
 43
0.0
 43
1.0
 43
0.0
 43
0.0
 43
0.0
 43
0.0
 43
1.0
 77
     0
 47
0.0208333333333333
 47
0.0
 47
0.0
 47
0.0
 47
0.0
 47
0.0208333333333333
 47
0.0
 47
0.0
 47
0.0
 47
0.0
 47
1.0
 47
0.0
 47
0.0
 47
0.0
 47
0.0
 47
1.0
171
     0
 49
0.0208333333333333
 49
0.0
 49
0.0
 49
0.0
 49
0.0
 49
0.0208333333333333
 49
0.0
 49
0.0
 49
0.0
 49
0.0
 49
1.0
 49
0.0
 49
0.0
 49
0.0
 49
0.0
 49
1.0
175
     0
142
0.0208333333333333
142
0.0
142
0.0
142
0.0
142
0.0
142
0.0208333333333333
142
0.0
142
0.0
142
0.0
142
0.0
142
1.0
142
0.0
142
0.0
142
0.0
142
0.0
142
1.0
179
     0
144
0.0208333333333333
144
0.0
144
0.0
144
0.0
144
0.0
144
0.0208333333333333
144
0.0
144
0.0
144
0.0
144
0.0
144
1.0
144
0.0
144
0.0
144
0.0
144
0.0
144
1.0
147
0.0208333333333333
147
0.0
147
0.0
147
0.0
147
0.0
147
0.0208333333333333
147
0.0
147
0.0
147
0.0
147
0.0
147
1.0
147
0.0
147
0.0
147
0.0
147
0.0
147
1.0
  0
MATERIAL
  5
11
102
{ACAD_XDICTIONARY
360
12
102
}
102
{ACAD_REACTORS
330
10
102
}
330
10
100
AcDbMaterial
  1
ByLayer
 72
     0
 43
0.0208333333333333
 43
0.0
 43
0.0
 43
0.0
 43
0.0
 43
0.0208333333333333
 43
0.0
 43
0.0
 43
0.0
 43
0.0
 43
1.0
 43
0.0
 43
0.0
 43
0.0
 43
0.0
 43
1.0
 77
     0
 47
0.0208333333333333
 47
0.0
 47
0.0
 47
0.0
 47
0.0
 47
0.0208333333333333
 47
0.0
 47
0.0
 47
0.0
 47
0.0
 47
1.0
 47
0.0
 47
0.0
 47
0.0
 47
0.0
 47
1.0
171
     0
 49
0.0208333333333333
 49
0.0
 49
0.0
 49
0.0
 49
0.0
 49
0.0208333333333333
 49
0.0
 49
0.0
 49
0.0
 49
0.0
 49
1.0
 49
0.0
 49
0.0
 49
0.0
 49
0.0
 49
1.0
175
     0
142
0.0208333333333333
142
0.0
142
0.0
142
0.0
142
0.0
142
0.0208333333333333
142
0.0
142
0.0
142
0.0
142
0.0
142
1.0
142
0.0
142
0.0
142
0.0
142
0.0
142
1.0
179
     0
144
0.0208333333333333
144
0.0
144
0.0
144
0.0
144
0.0
144
0.0208333333333333
144
0.0
144
0.0
144
0.0
144
0.0
144
1.0
144
0.0
144
0.0
144
0.0
144
0.0
144
1.0
147
0.0208333333333333
147
0.0
147
0.0
147
0.0
147
0.0
147
0.0208333333333333
147
0.0
147
0.0
147
0.0
147
0.0
147
1.0
147
0.0
147
0.0
147
0.0
147
0.0
147
1.0
  0
MATERIAL
  5
21
102
{ACAD_XDICTIONARY
360
22
102
}
102
{ACAD_REACTORS
330
10
102
}
330
10
100
AcDbMaterial
  1
Global
 72
     0
 43
0.0208333333333333
 43
0.0
 43
0.0
 43
0.0
 43
0.0
 43
0.0208333333333333
 43
0.0
 43
0.0
 43
0.0
 43
0.0
 43
1.0
 43
0.0
 43
0.0
 43
0.0
 43
0.0
 43
1.0
 77
     0
 47
0.0208333333333333
 47
0.0
 47
0.0
 47
0.0
 47
0.0
 47
0.0208333333333333
 47
0.0
 47
0.0
 47
0.0
 47
0.0
 47
1.0
 47
0.0
 47
0.0
 47
0.0
 47
0.0
 47
1.0
171
     0
 49
0.0208333333333333
 49
0.0
 49
0.0
 49
0.0
 49
0.0
 49
0.0208333333333333
 49
0.0
 49
0.0
 49
0.0
 49
0.0
 49
1.0
 49
0.0
 49
0.0
 49
0.0
 49
0.0
 49
1.0
175
     0
142
0.0208333333333333
142
0.0
142
0.0
142
0.0
142
0.0
142
0.0208333333333333
142
0.0
142
0.0
142
0.0
142
0.0
142
1.0
142
0.0
142
0.0
142
0.0
142
0.0
142
1.0
179
     0
144
0.0208333333333333
144
0.0
144
0.0
144
0.0
144
0.0
144
0.0208333333333333
144
0.0
144
0.0
144
0.0
144
0.0
144
1.0
144
0.0
144
0.0
144
0.0
144
0.0
144
1.0
147
0.0208333333333333
147
0.0
147
0.0
147
0.0
147
0.0
147
0.0208333333333333
147
0.0
147
0.0
147
0.0
147
0.0
147
1.0
147
0.0
147
0.0
147
0.0
147
0.0
147
1.0
  0
MLEADERSTYLE
  5
67
102
{ACAD_XDICTIONARY
360
357
102
}
102
{ACAD_REACTORS
330
66
102
}
330
66
100
AcDbMLeaderStyle
170
     2
171
     1
172
     0
 90
        2
 40
0.0
 41
0.0
173
     1
 91
-1056964608
340
5B
 92
       -2
290
     1
 42
0.09
291
     1
 43
0.36
  3
Standard
 44
0.18
300

342
55
174
     1
178
     6
175
     1
176
     0
 93
-1056964608
 45
0.18
292
     0
297
     0
 46
0.18
 94
-1056964608
 47
1.0
 49
1.0
140
1.0
293
     1
141
0.0
294
     1
177
     0
142
1.0
295
     0
296
     0
143
0.125
1001
ACAD_MLEADERVER
1070
     2
  0
MLINESTYLE
  5
60
102
{ACAD_REACTORS
330
5F
102
}
330
5F
100
AcDbMlineStyle
  2
STANDARD
 70
     0
  3

 62
   256
 51
90.0
 52
90.0
 71
     2
 49
0.5
 62
   256
  6
BYLAYER
 49
-0.5
 62
   256
  6
BYLAYER
  0
ACDBPLACEHOLDER
  5
F
102
{ACAD_REACTORS
330
E
102
}
330
E
  0
SCALE
  5
43
102
{ACAD_REACTORS
330
42
102
}
330
42
100
AcDbScale
 70
     0
300
1:1
140
1.0
141
1.0
290
     1
  0
SCALE
  5
44
102
{ACAD_REACTORS
330
42
102
}
330
42
100
AcDbScale
 70
     0
300
1/128" = 1'-0"
140
0.0078125
141
12.0
290
     0
  0
SCALE
  5
45
102
{ACAD_REACTORS
330
42
102
}
330
42
100
AcDbScale
 70
     0
300
1/64" = 1'-0"
140
0.015625
141
12.0
290
     0
  0
SCALE
  5
46
102
{ACAD_REACTORS
330
42
102
}
330
42
100
AcDbScale
 70
     0
300
1/32" = 1'-0"
140
0.03125
141
12.0
290
     0
  0
SCALE
  5
47
102
{ACAD_REACTORS
330
42
102
}
330
42
100
AcDbScale
 70
     0
300
1/16" = 1'-0"
140
0.0625
141
12.0
290
     0
  0
SCALE
  5
48
102
{ACAD_REACTORS
330
42
102
}
330
42
100
AcDbScale
 70
     0
300
3/32" = 1'-0"
140
0.09375
141
12.0
290
     0
  0
SCALE
  5
49
102
{ACAD_REACTORS
330
42
102
}
330
42
100
AcDbScale
 70
     0
300
1/8" = 1'-0"
140
0.125
141
12.0
290
     0
  0
SCALE
  5
4A
102
{ACAD_REACTORS
330
42
102
}
330
42
100
AcDbScale
 70
     0
300
3/16" = 1'-0"
140
0.1875
141
12.0
290
     0
  0
SCALE
  5
4B
102
{ACAD_REACTORS
330
42
102
}
330
42
100
AcDbScale
 70
     0
300
1/4" = 1'-0"
140
0.25
141
12.0
290
     0
  0
SCALE
  5
4C
102
{ACAD_REACTORS
330
42
102
}
330
42
100
AcDbScale
 70
     0
300
3/8" = 1'-0"
140
0.375
141
12.0
290
     0
  0
SCALE
  5
4D
102
{ACAD_REACTORS
330
42
102
}
330
42
100
AcDbScale
 70
     0
300
1/2" = 1'-0"
140
0.5
141
12.0
290
     0
  0
SCALE
  5
4E
102
{ACAD_REACTORS
330
42
102
}
330
42
100
AcDbScale
 70
     0
300
3/4" = 1'-0"
140
0.75
141
12.0
290
     0
  0
SCALE
  5
4F
102
{ACAD_REACTORS
330
42
102
}
330
42
100
AcDbScale
 70
     0
300
1" = 1'-0"
140
1.0
141
12.0
290
     0
  0
SCALE
  5
50
102
{ACAD_REACTORS
330
42
102
}
330
42
100
AcDbScale
 70
     0
300
1-1/2" = 1'-0"
140
1.5
141
12.0
290
     0
  0
SCALE
  5
51
102
{ACAD_REACTORS
330
42
102
}
330
42
100
AcDbScale
 70
     0
300
3" = 1'-0"
140
3.0
141
12.0
290
     0
  0
SCALE
  5
52
102
{ACAD_REACTORS
330
42
102
}
330
42
100
AcDbScale
 70
     0
300
6" = 1'-0"
140
6.0
141
12.0
290
     0
  0
SCALE
  5
53
102
{ACAD_REACTORS
330
42
102
}
330
42
100
AcDbScale
 70
     0
300
1'-0" = 1'-0"
140
12.0
141
12.0
290
     0
  0
TABLESTYLE
  5
65
102
{ACAD_XDICTIONARY
360
302
102
}
102
{ACAD_REACTORS
330
64
102
}
330
64
100
AcDbTableStyle
  3
Standard
 70
     0
 71
     0
 40
0.06
 41
0.06
280
     0
281
     0
  7
Standard
140
0.18
170
     2
 62
     0
 63
     7
283
     0
274
    -2
284
     1
 64
     0
275
    -2
285
     1
 65
     0
276
    -2
286
     1
 66
     0
277
    -2
287
     1
 67
     0
278
    -2
288
     1
 68
     0
279
    -2
289
     1
 69
     0
  7
Standard
140
0.25
170
     5
 62
     0
 63
     7
283
     0
274
    -2
284
     1
 64
     0
275
    -2
285
     1
 65
     0
276
    -2
286
     1
 66
     0
277
    -2
287
     1
 67
     0
278
    -2
288
     1
 68
     0
279
    -2
289
     1
 69
     0
  7
Standard
140
0.18
170
     5
 62
     0
 63
     7
283
     0
274
    -2
284
     1
 64
     0
275
    -2
285
     1
 65
     0
276
    -2
286
     1
 66
     0
277
    -2
287
     1
 67
     0
278
    -2
288
     1
 68
     0
279
    -2
289
     1
 69
     0
  0
VISUALSTYLE
  5
2F
102
{ACAD_XDICTIONARY
360
368
102
}
102
{ACAD_REACTORS
330
29
102
}
330
29
100
AcDbVisualStyle
  2
2dWireframe
 70
     4
 71
     0
 72
     2
 73
     0
 90
        0
 40
-0.6
 41
-30.0
 62
     5
 63
     7
 74
     1
 91
        4
 64
     7
 65
   257
 75
     1
175
     1
 42
1.0
 92
        0
 66
   257
 43
1.0
 76
     1
 77
     6
 78
     2
 67
     7
 79
     5
170
     0
171
     0
290
     0
174
     0
 93
        1
 44
0.0
173
     0
291
     0
 45
0.0
1001
ACAD
1000
AcDbSavedByObjectVersion
1070
     0
  0
VISUALSTYLE
  5
2E
102
{ACAD_XDICTIONARY
360
366
102
}
102
{ACAD_REACTORS
330
29
102
}
330
29
100
AcDbVisualStyle
  2
Basic
 70
     7
 71
     1
 72
     0
 73
     1
 90
        0
 40
-0.6
 41
-30.0
 62
     5
 63
     7
 74
     0
 91
        4
 64
     7
 65
   257
 75
     1
175
     1
 42
1.0
 92
        8
 66
     7
 43
1.0
 76
     1
 77
     6
 78
     2
 67
     7
 79
     5
170
     0
171
     0
290
     0
174
     0
 93
        1
 44
0.0
173
     0
291
     1
 45
0.0
1001
ACAD
1000
AcDbSavedByObjectVersion
1070
     0
  0
VISUALSTYLE
  5
35
102
{ACAD_XDICTIONARY
360
374
102
}
102
{ACAD_REACTORS
330
29
102
}
330
29
100
AcDbVisualStyle
  2
Brighten
 70
    12
 71
     2
 72
     2
 73
     0
 90
        0
 40
-0.6
 41
-30.0
 62
     5
 63
     7
 74
     1
 91
        4
 64
     7
 65
   257
 75
     1
175
     1
 42
1.0
 92
        8
 66
     7
 43
1.0
 76
     1
 77
     6
 78
     2
 67
     7
 79
     5
170
     0
171
     0
290
     0
174
     0
 93
        1
 44
50.0
173
     0
291
     1
 45
0.0
1001
ACAD
1000
AcDbSavedByObjectVersion
1070
     0
  0
VISUALSTYLE
  5
39
102
{ACAD_XDICTIONARY
360
37C
102
}
102
{ACAD_REACTORS
330
29
102
}
330
29
100
AcDbVisualStyle
  2
ColorChange
 70
    16
 71
     2
 72
     2
 73
     3
 90
        0
 40
-0.6
 41
-30.0
 62
     5
 63
     8
 74
     1
 91
        4
 64
     7
 65
   257
 75
     1
175
     1
 42
1.0
 92
        8
 66
     8
 43
1.0
 76
     1
 77
     6
 78
     2
 67
     7
 79
     5
170
     0
171
     0
290
     0
174
     0
 93
        1
 44
0.0
173
     0
291
     1
 45
0.0
1001
ACAD
1000
AcDbSavedByObjectVersion
1070
     0
  0
VISUALSTYLE
  5
32
102
{ACAD_XDICTIONARY
360
36E
102
}
102
{ACAD_REACTORS
330
29
102
}
330
29
100
AcDbVisualStyle
  2
Conceptual
 70
     9
 71
     3
 72
     2
 73
     0
 90
        0
 40
-0.6
 41
-30.0
 62
     5
 63
     7
 74
     2
 91
        2
 64
     7
 65
   257
 75
     1
175
     1
 42
179.0
 92
        8
 66
     7
 43
1.0
 76
     1
 77
     6
 78
     2
 67
     7
 79
     3
170
     0
171
     0
290
     0
174
     0
 93
        1
 44
0.0
173
     0
291
     0
 45
0.0
1001
ACAD
1000
AcDbSavedByObjectVersion
1070
     0
  0
VISUALSTYLE
  5
34
102
{ACAD_XDICTIONARY
360
372
102
}
102
{ACAD_REACTORS
330
29
102
}
330
29
100
AcDbVisualStyle
  2
Dim
 70
    11
 71
     2
 72
     2
 73
     0
 90
        0
 40
-0.6
 41
-30.0
 62
     5
 63
     7
 74
     1
 91
        4
 64
     7
 65
   257
 75
     1
175
     1
 42
1.0
 92
        8
 66
     7
 43
1.0
 76
     1
 77
     6
 78
     2
 67
     7
 79
     5
170
     0
171
     0
290
     0
174
     0
 93
        1
 44
-50.0
173
     0
291
     1
 45
0.0
1001
ACAD
1000
AcDbSavedByObjectVersion
1070
     0
  0
VISUALSTYLE
  5
41
102
{ACAD_XDICTIONARY
360
38C
102
}
102
{ACAD_REACTORS
330
29
102
}
330
29
100
AcDbVisualStyle
  2
EdgeColorOff
 70
    22
 71
     2
 72
     2
 73
     0
 90
        0
 40
-0.6
 41
-30.0
 62
     5
 63
     7
 74
     1
 91
        4
 64
     7
 65
   257
 75
     1
175
     1
 42
1.0
 92
        8
 66
     7
 43
1.0
 76
     1
 77
     6
 78
     2
 67
     7
 79
     5
170
     0
171
     0
290
     0
174
     0
 93
        1
 44
0.0
173
     0
291
     1
 45
0.0
1001
ACAD
1000
AcDbSavedByObjectVersion
1070
     0
  0
VISUALSTYLE
  5
38
102
{ACAD_XDICTIONARY
360
37A
102
}
102
{ACAD_REACTORS
330
29
102
}
330
29
100
AcDbVisualStyle
  2
Facepattern
 70
    15
 71
     2
 72
     2
 73
     0
 90
        0
 40
-0.6
 41
-30.0
 62
     5
 63
     7
 74
     1
 91
        4
 64
     7
 65
   257
 75
     1
175
     1
 42
1.0
 92
        8
 66
     7
 43
1.0
 76
     1
 77
     6
 78
     2
 67
     7
 79
     5
170
     0
171
     0
290
     0
174
     0
 93
        1
 44
0.0
173
     0
291
     1
 45
0.0
1001
ACAD
1000
AcDbSavedByObjectVersion
1070
     0
  0
VISUALSTYLE
  5
2A
102
{ACAD_XDICTIONARY
360
35E
102
}
102
{ACAD_REACTORS
330
29
102
}
330
29
100
AcDbVisualStyle
  2
Flat
 70
     0
 71
     2
 72
     1
 73
     1
 90
        2
 40
-0.6
 41
30.0
 62
     5
 63
     7
 74
     0
 91
        0
 64
     7
 65
   257
 75
     1
175
     1
 42
1.0
 92
        8
 66
     7
 43
1.0
 76
     1
 77
     6
 78
     2
 67
     7
 79
     5
170
     0
171
     0
290
     0
174
     0
 93
       13
 44
0.0
173
     0
291
     1
 45
0.0
1001
ACAD
1000
AcDbSavedByObjectVersion
1070
     0
  0
VISUALSTYLE
  5
2B
102
{ACAD_XDICTIONARY
360
360
102
}
102
{ACAD_REACTORS
330
29
102
}
330
29
100
AcDbVisualStyle
  2
FlatWithEdges
 70
     1
 71
     2
 72
     1
 73
     1
 90
        2
 40
-0.6
 41
30.0
 62
     5
 63
     7
 74
     1
 91
        0
 64
     7
 65
   257
 75
     1
175
     1
 42
1.0
 92
        0
 66
   257
 43
1.0
 76
     1
 77
     6
 78
     2
 67
     7
 79
     5
170
     0
171
     0
290
     0
174
     0
 93
       13
 44
0.0
173
     0
291
     1
 45
0.0
1001
ACAD
1000
AcDbSavedByObjectVersion
1070
     0
  0
VISUALSTYLE
  5
2C
102
{ACAD_XDICTIONARY
360
362
102
}
102
{ACAD_REACTORS
330
29
102
}
330
29
100
AcDbVisualStyle
  2
Gouraud
 70
     2
 71
     2
 72
     2
 73
     1
 90
        2
 40
-0.6
 41
30.0
 62
     5
 63
     7
 74
     0
 91
        0
 64
     7
 65
   257
 75
     1
175
     1
 42
1.0
 92
        0
 66
     7
 43
1.0
 76
     1
 77
     6
 78
     2
 67
     7
 79
     5
170
     0
171
     0
290
     0
174
     0
 93
       13
 44
0.0
173
     0
291
     1
 45
0.0
1001
ACAD
1000
AcDbSavedByObjectVersion
1070
     0
  0
VISUALSTYLE
  5
2D
102
{ACAD_XDICTIONARY
360
364
102
}
102
{ACAD_REACTORS
330
29
102
}
330
29
100
AcDbVisualStyle
  2
GouraudWithEdges
 70
     3
 71
     2
 72
     2
 73
     1
 90
        2
 40
-0.6
 41
30.0
 62
     5
 63
     7
 74
     1
 91
        0
 64
     7
 65
   257
 75
     1
175
     1
 42
1.0
 92
        0
 66
   257
 43
1.0
 76
     1
 77
     6
 78
     2
 67
     7
 79
     5
170
     0
171
     0
290
     0
174
     0
 93
       13
 44
0.0
173
     0
291
     1
 45
0.0
1001
ACAD
1000
AcDbSavedByObjectVersion
1070
     0
  0
VISUALSTYLE
  5
31
102
{ACAD_XDICTIONARY
360
36C
102
}
102
{ACAD_REACTORS
330
29
102
}
330
29
100
AcDbVisualStyle
  2
Hidden
 70
     6
 71
     1
 72
     2
 73
     2
 90
        0
 40
-0.6
 41
-30.0
 62
     5
 63
     7
 74
     2
 91
        2
 64
     7
 65
   257
 75
     2
175
     1
 42
40.0
 92
        0
 66
   257
 43
1.0
 76
     1
 77
     6
 78
     2
 67
     7
 79
     3
170
     0
171
     0
290
     0
174
     0
 93
        1
 44
0.0
173
     0
291
     0
 45
0.0
1001
ACAD
1000
AcDbSavedByObjectVersion
1070
     0
  0
VISUALSTYLE
  5
3F
102
{ACAD_XDICTIONARY
360
388
102
}
102
{ACAD_REACTORS
330
29
102
}
330
29
100
AcDbVisualStyle
  2
JitterOff
 70
    20
 71
     2
 72
     2
 73
     0
 90
        0
 40
-0.6
 41
-30.0
 62
     5
 63
     7
 74
     1
 91
        4
 64
     7
 65
   257
 75
     1
175
     1
 42
1.0
 92
       10
 66
     7
 43
1.0
 76
     1
 77
     6
 78
     2
 67
     7
 79
     5
170
     0
171
     0
290
     0
174
     0
 93
        1
 44
0.0
173
     0
291
     1
 45
0.0
1001
ACAD
1000
AcDbSavedByObjectVersion
1070
     0
  0
VISUALSTYLE
  5
37
102
{ACAD_XDICTIONARY
360
378
102
}
102
{ACAD_REACTORS
330
29
102
}
330
29
100
AcDbVisualStyle
  2
Linepattern
 70
    14
 71
     2
 72
     2
 73
     0
 90
        0
 40
-0.6
 41
-30.0
 62
     5
 63
     7
 74
     1
 91
        4
 64
     7
 65
   257
 75
     7
175
     7
 42
1.0
 92
        8
 66
     7
 43
1.0
 76
     1
 77
     6
 78
     2
 67
     7
 79
     5
170
     0
171
     0
290
     0
174
     0
 93
        1
 44
0.0
173
     0
291
     1
 45
0.0
1001
ACAD
1000
AcDbSavedByObjectVersion
1070
     0
  0
VISUALSTYLE
  5
40
102
{ACAD_XDICTIONARY
360
38A
102
}
102
{ACAD_REACTORS
330
29
102
}
330
29
100
AcDbVisualStyle
  2
OverhangOff
 70
    21
 71
     2
 72
     2
 73
     0
 90
        0
 40
-0.6
 41
-30.0
 62
     5
 63
     7
 74
     1
 91
        4
 64
     7
 65
   257
 75
     1
175
     1
 42
1.0
 92
        9
 66
     7
 43
1.0
 76
     1
 77
     6
 78
     2
 67
     7
 79
     5
170
     0
171
     0
290
     0
174
     0
 93
        1
 44
0.0
173
     0
291
     1
 45
0.0
1001
ACAD
1000
AcDbSavedByObjectVersion
1070
     0
  0
VISUALSTYLE
  5
33
102
{ACAD_XDICTIONARY
360
370
102
}
102
{ACAD_REACTORS
330
29
102
}
330
29
100
AcDbVisualStyle
  2
Realistic
 70
     8
 71
     2
 72
     2
 73
     0
 90
        2
 40
-0.6
 41
30.0
 62
     5
 63
     7
 74
     0
 91
        0
 64
     7
 65
   257
 75
     1
175
     1
 42
1.0
 92
        8
 66
   257
 43
1.0
 76
     1
 77
     6
 78
     2
 67
     7
 79
     3
170
     0
171
     0
290
     0
174
     0
 93
       13
 44
0.0
173
     0
291
     0
 45
0.0
1001
ACAD
1000
AcDbSavedByObjectVersion
1070
     0
  0
VISUALSTYLE
  5
3E
102
{ACAD_XDICTIONARY
360
386
102
}
102
{ACAD_REACTORS
330
29
102
}
330
29
100
AcDbVisualStyle
  2
Shaded
 70
    27
 71
     2
 72
     2
 73
     1
 90
        2
 40
-0.6
 41
30.0
 62
     5
 63
     7
 74
     0
 91
        4
 64
     7
 65
   257
 75
     1
175
     1
 42
1.0
 92
        8
 66
   257
 43
1.0
 76
     1
 77
     6
 78
     2
 67
     8
 79
     3
170
     0
171
     0
290
     0
174
     0
 93
        5
 44
0.0
173
     0
291
     0
 45
0.0
1001
ACAD
1000
AcDbSavedByObjectVersion
1070
     0
  0
VISUALSTYLE
  5
3D
102
{ACAD_XDICTIONARY
360
384
102
}
102
{ACAD_REACTORS
330
29
102
}
330
29
100
AcDbVisualStyle
  2
Shaded with edges
 70
    26
 71
     2
 72
     2
 73
     1
 90
        2
 40
-0.6
 41
30.0
 62
     5
 63
     7
 74
     1
 91
       10
 64
     7
 65
   257
 75
     2
175
     1
 42
1.0
 92
        8
 66
   257
 43
1.0
 76
     1
 77
     6
 78
     2
 67
     7
 79
     3
170
     0
171
     0
290
     0
174
     0
 93
        5
 44
0.0
173
     0
291
     0
 45
0.0
1001
ACAD
1000
AcDbSavedByObjectVersion
1070
     0
  0
VISUALSTYLE
  5
3A
102
{ACAD_XDICTIONARY
360
37E
102
}
102
{ACAD_REACTORS
330
29
102
}
330
29
100
AcDbVisualStyle
  2
Shades of Gray
 70
    23
 71
     2
 72
     2
 73
     3
 90
        0
 40
-0.6
 41
-30.0
 62
     5
 63
     7
 74
     2
 91
        2
 64
     7
 65
     7
 75
     1
175
     1
 42
40.0
 92
        8
 66
     7
 43
1.0
 76
     1
 77
     6
 78
     2
 67
     7
 79
     3
170
     0
171
     0
290
     0
174
     0
 93
        1
 44
0.0
173
     0
291
     0
 45
0.0
1001
ACAD
1000
AcDbSavedByObjectVersion
1070
     0
  0
VISUALSTYLE
  5
3B
102
{ACAD_XDICTIONARY
360
380
102
}
102
{ACAD_REACTORS
330
29
102
}
330
29
100
AcDbVisualStyle
  2
Sketchy
 70
    24
 71
     1
 72
     2
 73
     2
 90
        0
 40
-0.6
 41
-30.0
 62
     5
 63
     7
 74
     2
 91
        2
 64
     7
 65
     7
 75
     1
175
     1
 42
40.0
 92
       11
 66
     7
 43
1.0
 76
     1
 77
     6
 78
     2
 67
     7
 79
     6
170
     0
171
     0
290
     0
174
     0
 93
        1
 44
0.0
173
     0
291
     0
 45
0.0
1001
ACAD
1000
AcDbSavedByObjectVersion
1070
     0
  0
VISUALSTYLE
  5
36
102
{ACAD_XDICTIONARY
360
376
102
}
102
{ACAD_REACTORS
330
29
102
}
330
29
100
AcDbVisualStyle
  2
Thicken
 70
    13
 71
     2
 72
     2
 73
     0
 90
        0
 40
-0.6
 41
-30.0
 62
     5
 63
     7
 74
     1
 91
        4
 64
     7
 65
   257
 75
     1
175
     1
 42
1.0
 92
       12
 66
     7
 43
1.0
 76
     1
 77
     6
 78
     2
 67
     7
 79
     5
170
     0
171
     0
290
     0
174
     0
 93
        1
 44
0.0
173
     0
291
     1
 45
0.0
1001
ACAD
1000
AcDbSavedByObjectVersion
1070
     0
  0
VISUALSTYLE
  5
30
102
{ACAD_XDICTIONARY
360
36A
102
}
102
{ACAD_REACTORS
330
29
102
}
330
29
100
AcDbVisualStyle
  2
Wireframe
 70
     5
 71
     0
 72
     2
 73
     0
 90
        0
 40
-0.6
 41
-30.0
 62
     5
 63
     7
 74
     1
 91
        4
 64
     7
 65
   257
 75
     1
175
     1
 42
1.0
 92
        0
 66
   257
 43
1.0
 76
     1
 77
     6
 78
     2
 67
     7
 79
     3
170
     0
171
     0
290
     0
174
     0
 93
        1
 44
0.0
173
     0
291
     0
 45
0.0
1001
ACAD
1000
AcDbSavedByObjectVersion
1070
     0
  0
VISUALSTYLE
  5
3C
102
{ACAD_XDICTIONARY
360
382
102
}
102
{ACAD_REACTORS
330
29
102
}
330
29
100
AcDbVisualStyle
  2
X-Ray
 70
    25
 71
     2
 72
     2
 73
     1
 90
        1
 40
0.5
 41
-30.0
 62
     5
 63
     7
 74
     1
 91
        0
 64
     7
 65
   257
 75
     1
175
     1
 42
1.0
 92
        8
 66
     7
 43
1.0
 76
     1
 77
     6
 78
     2
 67
     7
 79
     3
170
     0
171
     0
290
     0
174
     0
 93
       13
 44
0.0
173
     0
291
     0
 45
0.0
1001
ACAD
1000
AcDbSavedByObjectVersion
1070
     0
  0
DICTIONARYVAR
  5
79
102
{ACAD_REACTORS
330
76
102
}
330
76
100
DictionaryVariables
280
     0
  1
1:1
  0
DICTIONARYVAR
  5
78
102
{ACAD_REACTORS
330
76
102
}
330
76
100
DictionaryVariables
280
     0
  1
STANDARD
  0
DICTIONARYVAR
  5
77
102
{ACAD_REACTORS
330
76
102
}
330
76
100
DictionaryVariables
280
     0
  1
STANDARD
  0
DICTIONARYVAR
  5
34C
102
{ACAD_REACTORS
330
76
102
}
330
76
100
DictionaryVariables
280
     0
  1
1
  0
DICTIONARYVAR
  5
34B
102
{ACAD_REACTORS
330
76
102
}
330
76
100
DictionaryVariables
280
     0
  1
1
  0
DICTIONARYVAR
  5
34A
102
{ACAD_REACTORS
330
76
102
}
330
76
100
DictionaryVariables
280
     0
  1
0
  0
DICTIONARYVAR
  5
347
102
{ACAD_REACTORS
330
76
102
}
330
76
100
DictionaryVariables
280
     0
  1
0
  0
DICTIONARYVAR
  5
348
102
{ACAD_REACTORS
330
76
102
}
330
76
100
DictionaryVariables
280
     0
  1
0
  0
DICTIONARYVAR
  5
346
102
{ACAD_REACTORS
330
76
102
}
330
76
100
DictionaryVariables
280
     0
  1
2
  0
DICTIONARYVAR
  5
345
102
{ACAD_REACTORS
330
76
102
}
330
76
100
DictionaryVariables
280
     0
  1
1
  0
DICTIONARYVAR
  5
349
102
{ACAD_REACTORS
330
76
102
}
330
76
100
DictionaryVariables
280
     0
  1
127
  0
DICTIONARYVAR
  5
354
102
{ACAD_REACTORS
330
76
102
}
330
76
100
DictionaryVariables
280
     0
  1
2
  0
DICTIONARY
  5
38F
330
6B
100
AcDbDictionary
280
     1
281
     1
  3
ACAD_XREC_ROUNDTRIP
360
390
  0
DICTIONARY
  5
393
330
73
100
AcDbDictionary
280
     1
281
     1
  3
ACAD_XREC_ROUNDTRIP
360
394
  0
DICTIONARY
  5
391
330
6F
100
AcDbDictionary
280
     1
281
     1
  3
ACAD_XREC_ROUNDTRIP
360
392
  0
DICTIONARY
  5
1A
330
19
100
AcDbDictionary
280
     1
281
     1
  3
ACAD_XREC_ROUNDTRIP
360
35C
  3
BUMPTILE
360
1C
  3
DIFFUSETILE
360
1B
  3
OPACITYTILE
360
1F
  3
REFLECTIONTILE
360
1E
  3
REFRACTIONTILE
360
20
  3
SPECULARTILE
360
1D
  0
DICTIONARY
  5
12
330
11
100
AcDbDictionary
280
     1
281
     1
  3
ACAD_XREC_ROUNDTRIP
360
35B
  3
BUMPTILE
360
14
  3
DIFFUSETILE
360
13
  3
FBXASSET
360
F9
  3
OPACITYTILE
360
17
  3
REFLECTIONTILE
360
16
  3
REFRACTIONTILE
360
18
  3
SPECULARTILE
360
15
  0
DICTIONARY
  5
22
330
21
100
AcDbDictionary
280
     1
281
     1
  3
ACAD_XREC_ROUNDTRIP
360
35D
  3
BUMPTILE
360
24
  3
DIFFUSETILE
360
23
  3
FBXASSET
360
BA
  3
OPACITYTILE
360
27
  3
REFLECTIONTILE
360
26
  3
REFRACTIONTILE
360
28
  3
SPECULARTILE
360
25
  0
DICTIONARY
  5
357
330
67
100
AcDbDictionary
280
     1
281
     1
  3
ACAD_XREC_ROUNDTRIP
360
358
  0
DICTIONARY
  5
302
330
65
100
AcDbDictionary
280
     1
281
     1
  3
ACAD_ROUNDTRIP_2008_TABLESTYLE_CELLSTYLEMAP
360
356
  3
ACAD_XREC_ROUNDTRIP
360
38E
  0
DICTIONARY
  5
368
330
2F
100
AcDbDictionary
280
     1
281
     1
  3
ACAD_XREC_ROUNDTRIP
360
369
  0
DICTIONARY
  5
366
330
2E
100
AcDbDictionary
280
     1
281
     1
  3
ACAD_XREC_ROUNDTRIP
360
367
  0
DICTIONARY
  5
374
330
35
100
AcDbDictionary
280
     1
281
     1
  3
ACAD_XREC_ROUNDTRIP
360
375
  0
DICTIONARY
  5
37C
330
39
100
AcDbDictionary
280
     1
281
     1
  3
ACAD_XREC_ROUNDTRIP
360
37D
  0
DICTIONARY
  5
36E
330
32
100
AcDbDictionary
280
     1
281
     1
  3
ACAD_XREC_ROUNDTRIP
360
36F
  0
DICTIONARY
  5
372
330
34
100
AcDbDictionary
280
     1
281
     1
  3
ACAD_XREC_ROUNDTRIP
360
373
  0
DICTIONARY
  5
38C
330
41
100
AcDbDictionary
280
     1
281
     1
  3
ACAD_XREC_ROUNDTRIP
360
38D
  0
DICTIONARY
  5
37A
330
38
100
AcDbDictionary
280
     1
281
     1
  3
ACAD_XREC_ROUNDTRIP
360
37B
  0
DICTIONARY
  5
35E
330
2A
100
AcDbDictionary
280
     1
281
     1
  3
ACAD_XREC_ROUNDTRIP
360
35F
  0
DICTIONARY
  5
360
330
2B
100
AcDbDictionary
280
     1
281
     1
  3
ACAD_XREC_ROUNDTRIP
360
361
  0
DICTIONARY
  5
362
330
2C
100
AcDbDictionary
280
     1
281
     1
  3
ACAD_XREC_ROUNDTRIP
360
363
  0
DICTIONARY
  5
364
330
2D
100
AcDbDictionary
280
     1
281
     1
  3
ACAD_XREC_ROUNDTRIP
360
365
  0
DICTIONARY
  5
36C
330
31
100
AcDbDictionary
280
     1
281
     1
  3
ACAD_XREC_ROUNDTRIP
360
36D
  0
DICTIONARY
  5
388
330
3F
100
AcDbDictionary
280
     1
281
     1
  3
ACAD_XREC_ROUNDTRIP
360
389
  0
DICTIONARY
  5
378
330
37
100
AcDbDictionary
280
     1
281
     1
  3
ACAD_XREC_ROUNDTRIP
360
379
  0
DICTIONARY
  5
38A
330
40
100
AcDbDictionary
280
     1
281
     1
  3
ACAD_XREC_ROUNDTRIP
360
38B
  0
DICTIONARY
  5
370
330
33
100
AcDbDictionary
280
     1
281
     1
  3
ACAD_XREC_ROUNDTRIP
360
371
  0
DICTIONARY
  5
386
330
3E
100
AcDbDictionary
280
     1
281
     1
  3
ACAD_XREC_ROUNDTRIP
360
387
  0
DICTIONARY
  5
384
330
3D
100
AcDbDictionary
280
     1
281
     1
  3
ACAD_XREC_ROUNDTRIP
360
385
  0
DICTIONARY
  5
37E
330
3A
100
AcDbDictionary
280
     1
281
     1
  3
ACAD_XREC_ROUNDTRIP
360
37F
  0
DICTIONARY
  5
380
330
3B
100
AcDbDictionary
280
     1
281
     1
  3
ACAD_XREC_ROUNDTRIP
360
381
  0
DICTIONARY
  5
376
330
36
100
AcDbDictionary
280
     1
281
     1
  3
ACAD_XREC_ROUNDTRIP
360
377
  0
DICTIONARY
  5
36A
330
30
100
AcDbDictionary
280
     1
281
     1
  3
ACAD_XREC_ROUNDTRIP
360
36B
  0
DICTIONARY
  5
382
330
3C
100
AcDbDictionary
280
     1
281
     1
  3
ACAD_XREC_ROUNDTRIP
360
383
  0
XRECORD
  5
390
102
{ACAD_REACTORS
330
38F
102
}
330
38F
100
AcDbXrecord
280
     1
102
SHADEPLOT
 70
     0
102
SHADEPLOTRESLEVEL
 70
     2
102
SHADEPLOTCUSTOMDPI
 70
   300
  0
XRECORD
  5
394
102
{ACAD_REACTORS
330
393
102
}
330
393
100
AcDbXrecord
280
     1
102
SHADEPLOT
 70
     0
102
SHADEPLOTRESLEVEL
 70
     2
102
SHADEPLOTCUSTOMDPI
 70
   300
  0
XRECORD
  5
392
102
{ACAD_REACTORS
330
391
102
}
330
391
100
AcDbXrecord
280
     1
102
SHADEPLOT
 70
     0
102
SHADEPLOTRESLEVEL
 70
     2
102
SHADEPLOTCUSTOMDPI
 70
   300
  0
XRECORD
  5
35C
102
{ACAD_REACTORS
330
1A
102
}
330
1A
100
AcDbXrecord
280
     1
102
MATERIAL
148
0.0
149
0.0
149
0.0
 93
        0
 94
      127
282
     0
 72
     0
 77
     0
171
     0
175
     0
179
     0
273
     0
  0
XRECORD
  5
1C
102
{ACAD_REACTORS
330
1A
102
}
330
1A
100
AcDbXrecord
280
     1
270
     1
271
     1
  0
XRECORD
  5
1B
102
{ACAD_REACTORS
330
1A
102
}
330
1A
100
AcDbXrecord
280
     1
270
     1
271
     1
  0
XRECORD
  5
1F
102
{ACAD_REACTORS
330
1A
102
}
330
1A
100
AcDbXrecord
280
     1
270
     1
271
     1
  0
XRECORD
  5
1E
102
{ACAD_REACTORS
330
1A
102
}
330
1A
100
AcDbXrecord
280
     1
270
     1
271
     1
  0
XRECORD
  5
20
102
{ACAD_REACTORS
330
1A
102
}
330
1A
100
AcDbXrecord
280
     1
270
     1
271
     1
  0
XRECORD
  5
1D
102
{ACAD_REACTORS
330
1A
102
}
330
1A
100
AcDbXrecord
280
     1
270
     1
271
     1
  0
XRECORD
  5
35B
102
{ACAD_REACTORS
330
12
102
}
330
12
100
AcDbXrecord
280
     1
102
MATERIAL
148
0.0
149
0.0
149
0.0
 93
        0
 94
      127
282
     0
 72
     0
 77
     0
171
     0
175
     0
179
     0
273
     0
  0
XRECORD
  5
14
102
{ACAD_REACTORS
330
12
102
}
330
12
100
AcDbXrecord
280
     1
270
     1
271
     1
  0
XRECORD
  5
13
102
{ACAD_REACTORS
330
12
102
}
330
12
100
AcDbXrecord
280
     1
270
     1
271
     1
  0
XRECORD
  5
F9
102
{ACAD_REACTORS
330
12
102
}
330
12
100
AcDbXrecord
280
     1
 70
     1
 90
1959938040
 71
     1
  1
9ED13A1E-1636-4F9A-8461-A23043FDD93B
311
504B03040A00000800002D6B94403DEE336E79000000790000001B0000006175746F6465736B2D64657369676E2D7061636B6167652E786D6C3C3F786D6C2076657273696F6E3D22312E302220656E636F64696E673D227574662D3822203F3E3C666F726D6174733E3C666F726D61743E687474703A2F2F736368656D612E
311
6175746F6465736B2E636F6D2F64657369676E2D7061636B6167652F323030393C2F666F726D61743E3C2F666F726D6174733E504B03041400060808002D6B9440D486FD9CA0000000F4000000130000005B436F6E74656E745F54797065735D2E786D6C7D8EC10E82300C865F65E91D8A1E8C310C0EEA1BF002731658846E
311
D98AC1B77784ABF1D8FE5FBFBF75BBCE937A534CCEB38643598122B6FEE978D0B0485F9C41B54DDD7D022595594E1A469170414C76A4D9A4D207E29CF43ECE46F218070CC6BECC4078ACAA135ACF422C856C0E68EA1BF5669944DDD7BCDE7B1F8E415D77AECB980613C2E4AC91FC167A2B244592486606FC29C8FD7F045B9A
311
EF7053A7E60B504B03041400060808002D6B9440BBD621FFE90000007C01000008000000636F72652E786D6C8D90416EC3201045AF82668F0DD86EA2081385C43D412F8080B828315806AA1EBF3871A476D7D58CFEFC3733FAFCF83DDDD1975DA20BBE075A1140D6EB609C1F7BC8E98AF7808E822F21A45F36405E4DB68755
311
06C1C725E4799374F0C9FA54541F8CDD4415A34D80F4BD343D44FD692755A99C8A23DEAA59E99B1A6D455F5D817376063D8F3853F6B9ABB30B885D771EE4205B4C87738BDB1369B194A70137B2E9587791EF3B79E1F50A0B9EDCF4BAAF17AB92352018A10C1788910FDA1C5877606F98EC0F84F07AB5FF81F26CFE0965E753
311
C3B6779F580441CB238F81E0F59A45298FA04A5D73133F504B03041400060808002D6B944055019EA25F0000007C00000007000000636E782E786D6C4DCB3B0E80201045D1AD90E915ED2CF8AC45050C11660C8261F98AB1B07AC9C97D42D718D865D3E909258CFD00CCE24AC6E326A164D74DC0B4128928FF326038472BA1
311
3128B1252AC747C6BAB984FC68F0B87FE8960A5C09FE86CFB69FBA01504B03041400060808002D6B944099DBFB1366010000020300000C0000006662782F636F72652E786D6C8D52ED8E8320107C15C27F05BFAE4D8334B5F59EE05E8022F54C150C82E9E3DFFAD1F47A699A8B0992999DDDD951B6BF752D1A951D1AA3731C
311
851423A5A5A91A5DE7D8BB4BB0C568CF9935C6FD2AC3488B4EE578823167B535BE5F2169B453DA01AA4DA556500C837218C9162E391EE4B7EA4428BC838AE11AF6425E45ADC228041AEA381B9C05036819329D985FCE3746169C33EF9B6A659B0AA635974659CC37D9B12CCA220DA2F29806E981A641511CCA2029922CCE4E
311
C5E7A63831328939734D777727AD124E5598C7348A0310C5F42B4A7671B68B3F02BADD51CAC854FE24F27DF54F916FB44BE2D5EE221B308FC0C84CFCD9162272681023F8219C91294478CD093F070D8140C84E9CDBFB1E578046259DB1293095F10F6A14AD573095A2F9616461A1F3DC00367BD9277ED3E77D0FF88042D760
311
4D38B89EBD9BA6B365EA1A45AF6C30BA1BD2C676A27D985B2C3ECEC7A09772695A63FFA326EBAA640D934C7F2FFF01504B03041400060808002D6B94404423D9167D0000009D0000000B0000006662782F636E782E786D6C4DCCD10A83201886E15B91FFDC655168A086C3791F511692E9703A76F9ABD1C18E3E78F878F9F0
311
D93D7ADBF4723108A86F04900D539C5D580594BC600668903CC598FF6E80C2B85B012783E46B8AE579D16C97B1F87CA87761BB50370D25A6D55811A271CBA8C18A32857BD53D4CDF99FACE34549257BFD2B167587E01504B03041400060808002D6B94409EF888082C01000015020000310000006662782F44323237304634
311
442D413030442D343837462D413738412D3941354546393546314238442F636F72652E786D6C8D51CB6EC32010FC15C4293D6063E257224CE4CAF517F4071C20294A0C168F2A9F5FA81DA9BDE5C2A2D999D9D12E3D3DE63BF896D629A33B58641802A9B9114A5F3B18FC05B5109C18B5C6F83F3408F434CB0E2618327AB526
311
2C1BC48DF652FB886A23E4064ECE490F01BFC74F071DFF92F3944DC14786BB65CBC46FD355664516DB91C7A8F3360600EB90F4423610D2E0B11C508FF180CAB61951DFB43D3AF4D5C778A8C6E2BD1D68BE0A190D41894DAE448CA32E4ADA574D929851AFE6677C6EE5E4A5808CE082205C22823F8BFD9154475223DC1E31A6
311
79A2FF138545BC280A4AFB3DD9E2AE32075941F3B5C1A830E17C7F86918FC5580FD2BC9D93FC0D329C61DCD4B822FB86E62B376E209AD6E566EABCB171C3BBDB39D28B6A75AE4B46F374A4587E2F186B3A28FB01504B03041400060808002D6B9440566C29E64C01000033030000300000006662782F44323237304634442D
311
413030442D343837462D413738412D3941354546393546314238442F636E782E786D6CD593BD6E032110845F05D1DFAF2F966571584A912748919683B54DCCC1899F287EFB2C3676DCB84899069D668799D5278EEDBE6743BEC007EDEC48BBBAA504AC744ADBC34853DC571B4A769C79E7E2838D122B66186996296707EFD2
311
5224057B914C44D5687B2AA287E092971050CE37897152180C005B2514619E402950E46EC4AF3D785C05C5E94CE211C8DBEB0771D327C818589353386B720767F92C4D0F264AA411218C34C823CCA216293A05E1542B1145DDD5B7AE273BFD26917CE15699BC26B97CA4F9A4BC6C542347D6E090B3103DD22BA6785E8072B1
311
2C464B11117273315E3D9C256DE37A285E8DE03DBABBF56A1830EC32E32CEA198A437A101114E57DDBF5553B547DFBDEADB6FDCBB65F57ED66DBB6ACC976CE26E74CB98431E0DD42A4B3116CA4BC634D1E3FC3577C44698FAC9D3FFF01240228AD573AF78CFFCCA7B9BC6FC4E5F12FE03F504B03041400060808002D6B9440
311
C896BC10A405000081100000340000006662782F44323237304634442D413030442D343837462D413738412D3941354546393546314238442F6F626A656374732E786D6CAD575B6FDB3614FE2B82F6B23DD8B26C378B074585632785D1A52D6AB4D88301839628850B750149A5CE7EFD3E8A942CB976EA0D7DD18597C373BE
311
F39D0B83B7FB8C3BCF544856E437AE3F1CB90ECDA32266797AE3562A195CBBCEDB301045A13ACB5C272719BD71F5B01B06A928AAD20EC53421155747A3F7B77F3932A239759D8813296F5C193DD28C0C49A58A98CAA7614C1419A6C97EE80FCDC2BED85490F2F148684904CD1534C5780E298E51CAEFFF8E5C2F0C3C3D1F06
311
FA69574DCEAFF26A7BFAE7B35C2A9247DF1D762466E24F9777E337B3C19BE97432985E8DFDC1EDFDED72E0FF3E192DAE168BD9FC6E8683A512906435113471C377C046B028F0CC5418542C5793B15D621DE409FACCB4A7DC70ECF88167D6B4D659234FA91F15794EA31A2BA051DB6745C7B4A4790C9F332AA15907A151FFD7
311
D73876A627FADF1ED91DBE0C81EE8E8EA046F7E6DDD5B4D8FD0D13E4250C12926A061A2CADA186ABA303C2BBA2E0768E4927238A0A46B8C3D94E10F1E28658AA9784414F8C66B2D0D1A02D704378C14CF7E98230FA31CF4F6999549C6B1ABB611D055BC40A55B2D68CFD43C541FB2E32D009BED26CB8B606A99792BAE1CC50
311
E4FA884D064827E12485CB61A6DE39191F19BAD071BA5ABAE1FBFBDD7EAD63F7F4E1A5284A2A94A60FA8D538AE796B94AC4EFE459ED31BDC23550EA07C06F21F10EA0755E037C1F6D3FDD49EA204C96552880CBE7146CE6084C7C8F1EBA7FEEE7C055EBBB9EFBD7378C2D91AAA9F8067DF86AE2F3B7086C133085F8889356D
311
1D118EB4F1C07200A449E2F00243C8C3C96EEF862B64396465EC223CF46132D47DC667E059314814F5499D770E2C8FD2E205091AB0D58C841A86FC56C1839FBE4B67F5C176D93978DFFC14BACE97EBF7EB4A2424A20F36A69734613953287107DE7415EA61DEB3E889BE7C2B440C43BFC77BDDC53BB34749A0AD31D7C0A74D
311
4ED73F87937B0744D897163ADD043F380146E8C2DA91FFC064443927392DAAE6DC57EB07CA86815807BB66725B600E8505A43133473188221D09566A10DB6AD526CDE119EBBEAC3E80916E78FBF22779E966AFDD21F746052FC476F7B23569E924D45FFBDCB618785A0AE85E074913FF16F46DCC92A49248822770FDBA5A74
311
7DA7D302524423D544CB14F623B888B0A46DE4A25A0B824A5AE45B86BA89B83B7940573E20B50CA8059ED358529E6C19E755B64D184735DA66A43C03C7FFD77F5765E596644595AB33B27BAAA33AF475EFB1577E232A7A74C375FD1EDC22F7C6343E43065D4B4E60D573EDEC6EE94FE6FEDDC0BF9A5C0DA6F7B3F9E07A7AE5
311
0FE6E3C9683AB95F2E6793DBC64F469330684A4D37A2E12594B6A012CCBAEFCB0AF16393801B3E102537EF4C7836EF2FAB217AE1C0C31ED4CB76E33C7E46DF47E31F0B38AC3C296895959C66345744C7D083FEE09F09FA8C9E32667C9591945E20E5E3BBF5913118B960DF271DEFF4DBD15E3BBAD0017952887AACB25D4E18
311
3FDA981A2487659E5AFC1A9FB46F53689A5FFD671D83CE54169CC5C883B193D222A30AD9F0822224322A41BD6E4F1FDBBBC705BB9F4D87A8C88ED34693478226994B8405A85545AA3FEEFC82A64EF755372ECAEDF0090F9B295C079CB971D1A42B165139DCA140EB56A8160E2E753B7934FE244F397A6DB3A9FD6F77696C7A
311
25B95D7249FF64ED3229DC1A803452A26F404304EFD4CA8441AD9B9D8FFE93E18D3A0E51F8DC55AAB5E530D01A531F83103546D9DB029A98277BF41E81FABA59FEB05ED343E4A25BD6AB243052078A88B4BE2968FDAC4AF3E5270F1D8AB3FAE894BC4AE1CBCB250D0405992B1DE06011586165964481AA8B3F369F44819B6C
311
E6DC3350C0F9757F7DF5DB66516459919BA1CDDCDE879DF5236EB7F106C981EA6B89DC8C47FE78535F07EC0D65BB23920E492C9F3000CF0AD602DD733F7869EE8CA84366A25DE769571C3174B5746C619B42A8A54B37B76A70D078E4D4410CE92BA58E98EE82F2D51B81572F850A02BD7CF82F504B03041400060800002D6B
311
9440000000000000000000000000350000006662782F44323237304634442D413030442D343837462D413738412D3941354546393546314238442F76657274696365732E62696E504B03041400060808002D6B9440F270F1330600000004000000360000006662782F44323237304634442D413030442D343837462D413738
311
412D3941354546393546314238442F747269616E676C65732E62696E636660600000504B03041400060800002D6B9440000000000000000000000000370000006662782F44323237304634442D413030442D343837462D413738412D3941354546393546314238442F617474726962757465732E62696E504B030414000608
311
08002D6B9440D5987DFC8F00000041010000360000006662782F44323237304634442D413030442D343837462D413738412D3941354546393546314238442F6469726563746F72792E786D6C858F410EC2201045AF4266AF15DDB800BA74E7C21B903225242D6328188F2FA5C4183471359997F9FF81E89FF3C41E1816475E
311
02DF1F80A11FC8386F25A438EECEC07A250251FC3803E6F58C12560C4AD840E95E91C151A72936F496F35732D860FE635F62C8F2DA16B505C545B74125BAA2FA9E05D7CC053D063734D5C7665FD55B6B8D15D5E9BFEAFD8490FFA45E504B03041400060808002D6B944064B8EB47FC000000A00100003B0000006662782F44
311
323237304634442D413030442D343837462D413738412D3941354546393546314238442F7265736F75726365732F636F72652E786D6C8D504B6E833010BD0A9ABDC11868A2C8388A137A825EC032136225D8C89FAAC7AF49A8D4EEBA9919BD8FE6E9F1E3D7FC283ED107E36C0F7549A140ABDD68ECD4438A57B287E228B877
311
2EFE924161D58C3DAC30083E7997960DD2CE46B431A3D68DB8812A048C50E8473E7A08FA86B32A558A5911EEE5A2F45D4D58D665A6B34EF0107D0E50BC9EAC1384C7E092D71878F562054FC98C9BC68CF9A7B91AF42076DD7990836C483D9C5BD29E684BA43C0DA4914DC7BA8B7CDFC90BAF56B3E0D1CC3F19B547157104C1
311
68CD483631FA513707D61DD81BA1FB03A5BC5AE57F4C6919FF694AC6C6866D715FB600A2CE419E84E0D5DA575ECF32F35EBB15DF504B010214000A00000800002D6B94403DEE336E79000000790000001B00000000000000000000000000000000006175746F6465736B2D64657369676E2D7061636B6167652E786D6C504B
311
010214001400060808002D6B9440D486FD9CA0000000F40000001300000000000000000000000000B20000005B436F6E74656E745F54797065735D2E786D6C504B010214001400060808002D6B9440BBD621FFE90000007C010000080000000000000000000000000083010000636F72652E786D6C504B0102140014000608
311
08002D6B944055019EA25F0000007C000000070000000000000000000000000092020000636E782E786D6C504B010214001400060808002D6B944099DBFB1366010000020300000C00000000000000000000000000160300006662782F636F72652E786D6C504B010214001400060808002D6B94404423D9167D0000009D00
311
00000B00000000000000000000000000A60400006662782F636E782E786D6C504B010214001400060808002D6B94409EF888082C0100001502000031000000000000000000000000004C0500006662782F44323237304634442D413030442D343837462D413738412D3941354546393546314238442F636F72652E786D6C50
311
4B010214001400060808002D6B9440566C29E64C010000330300003000000000000000000000000000C70600006662782F44323237304634442D413030442D343837462D413738412D3941354546393546314238442F636E782E786D6C504B010214001400060808002D6B9440C896BC10A405000081100000340000000000
311
0000000000000000610800006662782F44323237304634442D413030442D343837462D413738412D3941354546393546314238442F6F626A656374732E786D6C504B010214001400060800002D6B94400000000000000000000000003500000000000000000000000000570E00006662782F44323237304634442D41303044
311
2D343837462D413738412D3941354546393546314238442F76657274696365732E62696E504B010214001400060808002D6B9440F270F13306000000040000003600000000000000000000000000AA0E00006662782F44323237304634442D413030442D343837462D413738412D3941354546393546314238442F74726961
311
6E676C65732E62696E504B010214001400060800002D6B94400000000000000000000000003700000000000000000000000000040F00006662782F44323237304634442D413030442D343837462D413738412D3941354546393546314238442F617474726962757465732E62696E504B010214001400060808002D6B9440D5
311
987DFC8F000000410100003600000000000000000000000000590F00006662782F44323237304634442D413030442D343837462D413738412D3941354546393546314238442F6469726563746F72792E786D6C504B010214001400060808002D6B944064B8EB47FC000000A00100003B000000000000000000000000003C10
311
00006662782F44323237304634442D413030442D343837462D413738412D3941354546393546314238442F7265736F75726365732F636F72652E786D6C504B0506000000000E000E0080040000911100000000
310
504B03040A00000800002D6B94403DEE336E79000000790000001B0000006175746F6465736B2D64657369676E2D7061636B6167652E786D6C3C3F786D6C2076657273696F6E3D22312E302220656E636F64696E673D227574662D3822203F3E3C666F726D6174733E3C666F726D61743E687474703A2F2F736368656D612E
310
6175746F6465736B2E636F6D2F64657369676E2D7061636B6167652F323030393C2F666F726D61743E3C2F666F726D6174733E504B03041400060808002D6B9440D486FD9CA0000000F4000000130000005B436F6E74656E745F54797065735D2E786D6C7D8EC10E82300C865F65E91D8A1E8C310C0EEA1BF002731658846E
310
D98AC1B77784ABF1D8FE5FBFBF75BBCE937A534CCEB38643598122B6FEE978D0B0485F9C41B54DDD7D022595594E1A469170414C76A4D9A4D207E29CF43ECE46F218070CC6BECC4078ACAA135ACF422C856C0E68EA1BF5669944DDD7BCDE7B1F8E415D77AECB980613C2E4AC91FC167A2B244592486606FC29C8FD7F045B9A
310
EF7053A7E60B504B03041400060808002D6B94405723326BEA0000007C01000008000000636F72652E786D6C8D90D16EC3200C457F05F99DC490A44D2342B5AEEA17EC0710A1196A035180699F3FD2A6D2F6B6275BD7F7D8D615C7EFE94EBECC12AC773DB0028118A7FD60DDD8438A57DA02394AB1781F7FD9803835991E56
310
19A418179FE64DD2DE45E362569D1FCC26AA104C04A2EFB9E921E84F33A942A5981DE156CC4ADFD4680AF6EA329C921DC8F3881DF23E7BB56601D9E2F9C4AA0BD237C486D6589FE8E150EF293FB43BD65CF8B9DABF8B7285A588767ADDD78B51D10C2039324EB1A61C3F58D5F1A6E33B8A6D8728CAD5FE074AF3F04F285917
310
2BBEBDFBC40248961F790CA428D72C72790495EB9A9BFC01504B03041400060808002D6B944055019EA25F0000007C00000007000000636E782E786D6C4DCB3B0E80201045D1AD90E915ED2CF8AC45050C11660C8261F98AB1B07AC9C97D42D718D865D3E909258CFD00CCE24AC6E326A164D74DC0B4128928FF326038472B
310
A13128B1252AC747C6BAB984FC68F0B87FE8960A5C09FE86CFB69FBA01504B03041400060808002D6B9440B9D13E8E65010000020300000C0000006662782F636F72652E786D6C8D52ED8E8320107C15C27F04D17E0669AED7F409EE05A852CF54C120983EFEAD1F8DD74BD35C4C90CCECECCE8E8AC3BDA951AF5D575993E1
310
3862186993DBA232658683BF922D4607299CB5FE57194646353AC3038CA5289D0DED0CE5D6786D3CA0C6167A0655D7698F515EC325C35DFEAD1B15A9E0A1A2BB45ADCA6FAAD4511C010D755274DE8101340D194E2CAF97BBA0132E45085531B35501D3AA6BA51D965B763AC6C999910FC6562465E991EC76E986F0DD761DAF
310
CEFC946C3E051DC452F8AA79B8CB9D565E1758721673C252C2D9579CECF96ACFD7846DF78C093A943F89425BFC53142AE3133EDB9D641D96311819893FDB42441E75AA073F540A3A8408AF31E1E7A0211008D9AB4BFDD8E30650AF736F5D0A4C61C342F5AA0E1AA632343E824E2C741E1BC0662FFBF0377DDEF7800FA84C09
310
D69487EB25F861BA98A6CE51B4DA91DEDF91B1AE51F5626EB2B89CCBA097F2DCD6D6FD474DE755E91C261DFE5EF903504B03041400060808002D6B94404DDA38AE7D0000009D0000000B0000006662782F636E782E786D6C4DCCD10A83201886E15B91FFDC6565B403352CED3E6259C84CC3E9D8E5AF46073BFAE0E1E365DD
310
6773E86DE2CB06CFA1BC1140C63FC26CFDCA21A705DF017582C510D2DF0D909F36C3E164106C8D21EF17CD6699B24B873AEB9F1712A5655F0D0D6E7539623A342D9635A970DD2BA5C8483495140AC18A5FE9D8332CBE504B03041400060808002D6B9440479A78402B01000014020000310000006662782F30444541423243
310
352D374531462D344335372D413330322D3342444444304630453441342F636F72652E786D6C8D51DB8EC22014FC15C293FB400BB4D64B2846AD7EC1FE40057489161A2E1B3F7F615B93DD375F3864CECC9C81C376CFE101BE95F3DA9A16920243A08CB0529B5B0B63B8A235043BCE9CB5E10F0D02D30FAA8519869CDD9C8D
310
E30C096B823221A1C64A3583BDF72A40201EE9D2422FBED4D0177D0C89E1EFC5D88B7B7F530529523BF138F3C1A500601A924FC87177DA1FE8718956277246F571B942FB0A53541DBAAEC3677CAAF7352B272167316A39CBB54C71F4552BF7AE49167316F4F08A2F9CEA839290534C28C235A2F893545BBADCD206E1F51663
310
5666FA3F511CE59BA2A84DA8E81C779279C8092BA70667D2C6CBE315463D47EB02C8F3165E898FF4AA02930D25B8A9583951D30724CFA69E3D7DB02E7DF0E27E49EC6A366E6ACECABCA3547E17986ADE27FF01504B03041400060808002D6B944030CBE6F15401000033030000300000006662782F30444541423243352D37
310
4531462D344335372D413330322D3342444444304630453441342F636E782E786D6CBD93CD6EC32010845F0571F76F5CCB8A30917AE813F4D02B864D4A83C1025C356FDF2521692E3954AA7A41D6EC30B3FA84D9EE6B36E4137CD0CE8EB4296B4AC04AA7B43D8C748DFB62A064C799772EDED928B162869126997276F06E5D
310
B2A4602F56135135DA1EB3E821B8D54B0828A79BC438290C06802D5614619E402950E466C4AF3D785C05C5E944E23B9097E737E2A60F9031B02AA57056A50ECED2999BEE4C94482342186990EF308B52ACD12908C7528928CAA6BC763DD8E92789A40BD7CAD56B92CA479A4ECAF346257264150E390BD123BD6C8AA7052817
310
CB62B41411215767E3C5C3D9AA6DECBBECD508DEA37BD3F6C38061E7196751CF901DD28388A0286FEBA62DEAAE68EBD766B36D9FB66D5FD4C3B6AE5995EC9C4DCE997C0963C0BB85486723D84879C3AA347E842FFB88D21E593B7FFA054804905B2F746E197FC9A7E9375DF78F7CAAF3FB465C1EFF02FE0D504B0304140006
310
0808002D6B9440AFBEF117620700009A1B0000340000006662782F30444541423243352D374531462D344335372D413330322D3342444444304630453441342F6F626A656374732E786D6CED59DD73A33610FF5718FAD23E189BE0A44987D049E2CB8DE79ABB9BBAD7E98367181964A24608461249DCBFBEAB0F301093E036
310
7DEB830D0869B5FBDB4F2DE1CFCF39751E3117A46097AEEFCD5C07B3A44809CB2EDD4A6E27E7AEF37314F2A290AD69AEC3508E2F5D35EC4661C68BAAB44329DEA28ACADEE8EDF51F8E4830C3AE935024C4A52B927B9C230F55B248B178F0522491976D9F3DDF3313BB64338ECAFB1ED11271CC24700AE30CA8388629BFFB38
310
73A7513855EFA350FDDB59C1A859F3E159532D75974BC284442C79C1528F4C308AA5C09F2F3E9C9C5E4C4EE7F360323F3BF127D7B7D78B89FF6330BB39BBB9B9B8FA7001EC6D8A825A99525C629682FE766EE48753F5A611DD227088EBA4600C271A48804A8BD52748B080AD5AF0CDBA8FBE92A8F55A4BD87A9EABF79685D6
310
70D0A532346B1C101DBA2088DDAE96B8BEB6E52B367F82E0628C51728125702B2407ED5A783878851BCDC2A9198DC2CD5E17443839929813441D4A361C71500A4C5553A2D02CB06494737020E52809B4E6CCEBAE6D8167BEED3A87B8DC56942ACF7023ED5831B81F96427346FEC27CCF7D1B19E009A4AD0893E7964BB92BB1
310
1B5D84533D1885EA129CD8970648674B51263422E66D4FD01BE5FACB851B7DBADD3CAF543838BC79C98B1273A98C4EE951F305866CAF0A25BBAD3F4A736A01086340B52BF7A0FC0AC87F86E8B16705F4C6C9F3FC796EE74A8E98D8163C07DD3833673283BF99E3EB7F75DFBA0BA7CDE2AEF686F0043755509DFF7B3CBB3268
310
AC2CFF2D38A3F0110CBEE0817DB54A10057BBE230C005246E2D0028620B46F37CF6EB484C009811E56211AF92032B0FB08B7E1D492D96BA5762FEB750C10B57B04639404B0698B043606F4F411B20727C95E4D6D1187E03D7D1773BD5AAC3EAD2ABE4509BEB33EBDC05BC28884AC7998A10EE61D891EF0EEA9E02908FA12EF
310
551BEFDC6E25006D85B9023EAB41500FFB9D3B1B24B02E2B54B809DFD8018450B9BA45FF8E8804538A182EAA7ADF26BA29436D3CDED60C6E7462200E4E7A26CCF12351550538CD7E468751C8FB0927A502D18D3E1AC99AA0E90D48F76DF9192CB2993F306BC920F432447FD341EB000E1DCBAE91B64034026FF6E13C2968C1
310
E3CD2E3691CE855A02D8E87ACBEF1DA210EB8D921415F020ED777548C98CB4714AB6DB4A405C3DC0E2EFCB9BB639CCBCC03F75DAFF3D679C43B405DF45DCFA5D6F8F98E428C3F116A543DBB5776B680B4D728034C75B0A72914722773192F12CC5D931D01C45FCE25DA967B41082302C205F1D04BF8DC6CC834062B459B3AC
310
B4DA039A8838C712D16310506406C0D56947D7B809940E6FF3D858EF6B1A6B13FD8F2C8223A8250B161328452187BCC9B8EF9D420CE9A26B50EEE10BD656D3D662D00A4A8864173F6192DDCB635037E407704FE04852C9B8285102663D82EC0B5F514AEDF1BE41C983CA1F7152D1F7321081E936269456790C3FC2E0E431C6
310
B59BC0F42A0A2DE226F6499C43518664C5C76C72763A7BB18FA919FA21B0B5D1965008DB718ECA01D43B0151D7234E03BEA53EA0D44D959731CA8B8A8D32142FE87B9325DF57AB223B925F552A42D95813B604A39030D964D53A6683A9EBC00A6EA403D52E16282FA93985BD9178FCC69B34E5C10DB8F5D3F7DD2087C26F40
310
7BED883AAF61B03C760A03F1846472EF462B7D9D5C43FD9DE2749FEAEB5AB35D0102622A92579C58157D5B4279636B3437BA4352AC3F9AAC5B5FBF2D3DE87E84535803B54BB370A980CE319348552677EA86FE8A2004776898F1A5CAA9C750B94A535D35227A4B86D4D929233A9BE6C42BEF312B72F8B1356109AD52BC46A9
310
7888EF248D5744B16EA5F4725263FCAA805F3EAE7AF0C0C80891BEAA020F3FF5D6DAD11B552E1D2422EFAB7CC3108120D8112D33BAF14A96598DD45A6EAEEA4C017517189855F1FCFF9345BB1DF1FFC922B386F1AF4E16D7BB5FD0AEDD1769A5F344D9F551C780263F292AEF710CD06D87866A93454C32B7F25B678A2128D6
310
517E743556070D437088E37F9CB587B2A0D9AEC7FF7159DB7F51711C95553A935597EA40E5BA6CE7B08B0F0B3FB8F23F4CFCB3E06C32BFBDB89A9CCFCFFCC9D549309B07B78BC54570DDA0A91D350A9B60A673173C9BA0560FAB278B0174654541490AA7F9D4C930C47C0967FA11ED739E6301C9B3DDEC4E6D537EC4EA47D3
310
E794684371CDC93D8206311590D601A32A91DD71E73B684D4A38685FBAD034F21EE0CF5AA5EB40E6B974A15520498285B78136936AE869E2907275EEB7C4001FC4329512CDA2E6B959A5B0E984FF66CA983460E5EAF430A0702BA1FBD5E95068DE2C4FC95182D7EC3848C2EDA69250AD1959F6038D307A9BBDFA8D6C94B007
310
BBF533B8EEEB62F99E9ED34164D42783578DC0509D48C433DDEF568C5996AE165FA7D06773965F9C925619E8723CA509C760CC952AA8C08AC02A2CCD124930D59B9FD65F79019F7872475745CEF7CFE7673FAC6F8A3C2F98195A5FC1A92C850F45CEEA1E3EFBA46B281EB06AAE8BF5C9CC3F59EBA6B6EDB3C71B24B0A7AA22
310
18A88B092548CFE4C02E5F34A86CFB72AA54D19BBE5C3836884233C0D8D18B1EAFF9C8E5800FA9CF29CA63B49FD7D2BEDAD79EEAA960131C3AD2D1DF504B03041400060800002D6B9440000000000000000000000000350000006662782F30444541423243352D374531462D344335372D413330322D334244444430463045
310
3441342F76657274696365732E62696E504B03041400060808002D6B9440F270F1330600000004000000360000006662782F30444541423243352D374531462D344335372D413330322D3342444444304630453441342F747269616E676C65732E62696E636660600000504B03041400060800002D6B944000000000000000
310
0000000000370000006662782F30444541423243352D374531462D344335372D413330322D3342444444304630453441342F617474726962757465732E62696E504B03041400060808002D6B9440D5987DFC8F00000041010000360000006662782F30444541423243352D374531462D344335372D413330322D3342444444
310
304630453441342F6469726563746F72792E786D6C858F410EC2201045AF4266AF15DDB800BA74E7C21B903225242D6328188F2FA5C4183471359997F9FF81E89FF3C41E1816475E02DF1F80A11FC8386F25A438EECEC07A250251FC3803E6F58C12560C4AD840E95E91C151A72936F496F35732D860FE635F62C8F2DA16B5
310
05C545B74125BAA2FA9E05D7CC053D063734D5C7665FD55B6B8D15D5E9BFEAFD8490FFA45E504B03041400060808002D6B94402615920BFD000000A00100003B0000006662782F30444541423243352D374531462D344335372D413330322D3342444444304630453441342F7265736F75726365732F636F72652E786D6C8D
310
504B6EC32010BD8A357B6CC04EE25898A8699A13F402084F5C9418223E558F5F485CA9DD7533337A1FCDD31387AFE5567DA20FC6D911584DA142ABDD64EC3C428A17D2437590C23B177FC9A0B26AC1110A0C52CCDEA5FB0A696723DA9851EB265C41150246A8F42D1F2304FD818BAA558A5911AEF55DE9AB9AB16675A6B34E
310
8A107D0E503D9F9409D26370C96B0CA279B252A464A65563A6FCD35C0C7A903D3D1D59FB76262F946E4847BB23D9EFBB1DE1FB7ECB36677E6A77AFA2296629A2597E326A8F2AE2049253C609ED08A7EFAC1DF866E05B42FB8152D114F91F53BA4FFF34256363CBD7B84F5B00C9729007214553FACAEB5166DEA55BF90D504B
310
010214000A00000800002D6B94403DEE336E79000000790000001B00000000000000000000000000000000006175746F6465736B2D64657369676E2D7061636B6167652E786D6C504B010214001400060808002D6B9440D486FD9CA0000000F40000001300000000000000000000000000B20000005B436F6E74656E745F54
310
797065735D2E786D6C504B010214001400060808002D6B94405723326BEA0000007C010000080000000000000000000000000083010000636F72652E786D6C504B010214001400060808002D6B944055019EA25F0000007C000000070000000000000000000000000093020000636E782E786D6C504B010214001400060808
310
002D6B9440B9D13E8E65010000020300000C00000000000000000000000000170300006662782F636F72652E786D6C504B010214001400060808002D6B94404DDA38AE7D0000009D0000000B00000000000000000000000000A60400006662782F636E782E786D6C504B010214001400060808002D6B9440479A78402B0100
310
001402000031000000000000000000000000004C0500006662782F30444541423243352D374531462D344335372D413330322D3342444444304630453441342F636F72652E786D6C504B010214001400060808002D6B944030CBE6F154010000330300003000000000000000000000000000C60600006662782F3044454142
310
3243352D374531462D344335372D413330322D3342444444304630453441342F636E782E786D6C504B010214001400060808002D6B9440AFBEF117620700009A1B00003400000000000000000000000000680800006662782F30444541423243352D374531462D344335372D413330322D3342444444304630453441342F6F
310
626A656374732E786D6C504B010214001400060800002D6B944000000000000000000000000035000000000000000000000000001C1000006662782F30444541423243352D374531462D344335372D413330322D3342444444304630453441342F76657274696365732E62696E504B010214001400060808002D6B9440F270
310
F133060000000400000036000000000000000000000000006F1000006662782F30444541423243352D374531462D344335372D413330322D3342444444304630453441342F747269616E676C65732E62696E504B010214001400060800002D6B94400000000000000000000000003700000000000000000000000000C91000
310
006662782F30444541423243352D374531462D344335372D413330322D3342444444304630453441342F617474726962757465732E62696E504B010214001400060808002D6B9440D5987DFC8F0000004101000036000000000000000000000000001E1100006662782F30444541423243352D374531462D344335372D4133
310
30322D3342444444304630453441342F6469726563746F72792E786D6C504B010214001400060808002D6B94402615920BFD000000A00100003B00000000000000000000000000011200006662782F30444541423243352D374531462D344335372D413330322D3342444444304630453441342F7265736F75726365732F63
310
6F72652E786D6C504B0506000000000E000E0080040000571300000000
  0
XRECORD
  5
17
102
{ACAD_REACTORS
330
12
102
}
330
12
100
AcDbXrecord
280
     1
270
     1
271
     1
  0
XRECORD
  5
16
102
{ACAD_REACTORS
330
12
102
}
330
12
100
AcDbXrecord
280
     1
270
     1
271
     1
  0
XRECORD
  5
18
102
{ACAD_REACTORS
330
12
102
}
330
12
100
AcDbXrecord
280
     1
270
     1
271
     1
  0
XRECORD
  5
15
102
{ACAD_REACTORS
330
12
102
}
330
12
100
AcDbXrecord
280
     1
270
     1
271
     1
  0
XRECORD
  5
35D
102
{ACAD_REACTORS
330
22
102
}
330
22
100
AcDbXrecord
280
     1
102
MATERIAL
148
0.0
149
0.0
149
0.0
 93
        0
 94
      127
282
     0
 72
     0
 77
     0
171
     0
175
     0
179
     0
273
     0
  0
XRECORD
  5
24
102
{ACAD_REACTORS
330
22
102
}
330
22
100
AcDbXrecord
280
     1
270
     1
271
     1
  0
XRECORD
  5
23
102
{ACAD_REACTORS
330
22
102
}
330
22
100
AcDbXrecord
280
     1
270
     1
271
     1
  0
XRECORD
  5
BA
102
{ACAD_REACTORS
330
22
102
}
330
22
100
AcDbXrecord
280
     1
 70
     1
 90
1959938040
 71
     1
  1
236530E7-A025-4DA7-9676-804AB7C8422C
311
504B03040A00000800002D6B94403DEE336E79000000790000001B0000006175746F6465736B2D64657369676E2D7061636B6167652E786D6C3C3F786D6C2076657273696F6E3D22312E302220656E636F64696E673D227574662D3822203F3E3C666F726D6174733E3C666F726D61743E687474703A2F2F736368656D612E
311
6175746F6465736B2E636F6D2F64657369676E2D7061636B6167652F323030393C2F666F726D61743E3C2F666F726D6174733E504B03041400060808002D6B9440D486FD9CA0000000F4000000130000005B436F6E74656E745F54797065735D2E786D6C7D8EC10E82300C865F65E91D8A1E8C310C0EEA1BF002731658846E
311
D98AC1B77784ABF1D8FE5FBFBF75BBCE937A534CCEB38643598122B6FEE978D0B0485F9C41B54DDD7D022595594E1A469170414C76A4D9A4D207E29CF43ECE46F218070CC6BECC4078ACAA135ACF422C856C0E68EA1BF5669944DDD7BCDE7B1F8E415D77AECB980613C2E4AC91FC167A2B244592486606FC29C8FD7F045B9A
311
EF7053A7E60B504B03041400060808002D6B94403A972F50EA0000007C01000008000000636F72652E786D6C8D90416EC3201045AF82668F0D3876520B13A5AE73825E0001715062B00C543D7E71E248EDAEAB19FDF96F66F4F9F17BBAA32FB304EB5D07B420808C535E5B377690E2051F001D055FBC8FBF6C809C9C4C07AB
311
0C828F8B4FF32629EFA27131ABCE6BB38932041301A97B6E3A08EA6A2659C814B323DC8A59AA9B1C4D415F5D8653B21A3D8F589DF7D98B350B88FE839EEAEAFC86F7B4E9F1AEAF077C1ADEF7F85C553D23F4CC9A81F17285058F767ADD578B91D16810D9C330D961463E69D5B2BA650D268796105EAEF63F509AF53FA1645D
311
ACD8F6EE130B20687EE43110BC5CB3C8E51154AE6B6EE207504B03041400060808002D6B944055019EA25F0000007C00000007000000636E782E786D6C4DCB3B0E80201045D1AD90E915ED2CF8AC45050C11660C8261F98AB1B07AC9C97D42D718D865D3E909258CFD00CCE24AC6E326A164D74DC0B4128928FF326038472B
311
A13128B1252AC747C6BAB984FC68F0B87FE8960A5C09FE86CFB69FBA01504B03041400060808002D6B9440B10AEB9766010000020300000C0000006662782F636F72652E786D6C8D52ED8E8320107C15C27F44B15FD7204DCF6B9FE05E8022F54C150C82E9E3DFFAD1F47A699AC604C9CCCEEEEC28DF5D9B1AF5DA75953519
311
4EA218236D942D2A536638F833D960B413DC59EBFF94616464A3333CC058F0D2D9D0CE90B2C66BE30135B6D03328BB4E7B8C540D970C77EA47373292C1434577895AA92EB2D45112010D758277DE8101340D194E2CCEA72BA7132E78085531B35501D3AA73A51D16F957B25FA6C70FB24E563959E4CB03D91F3ED7E498A639
311
8B93235B1D18A78358705F353777CA69E9758105D430122F088BBF9374CB965BB622F1661BC79C0EE50FA2D0166F8A42657CCA66BB93ACC322012323F16F5B88C8A34EF6E0870A4E8710E13526FC18340402217B79AA6F7B5C00EAB5F2D62D80296CB853BDAC8386A9311A1F4E27163A8F0D60B3A77DD88B3EAF7BC00794A6
311
046BD2C3F514FC309D4F53E7285AED48EFAFC858D7C8FA6E6EB2783FEF839ECA95ADAD7B474DE755E91C261DFE5EF10B504B03041400060808002D6B944049121AEE7D0000009D0000000B0000006662782F636E782E786D6C4DCCD10AC2201886E15B91FFDC366DA5823A34EA3E467343721AA6D1E5B7C50E3AFAE0E1E395
311
FD6709E8EDF2CBA7A8801C5A402EDED3E8E3ACA096097340BD9639A5F277031487C529D818B49C73AACF9D46370D359455838F8F1D0531E22408C3B7EE6A7167C5191BC218B6F4786985E586720A8D96CDAFB4EE16D65F504B03041400060808002D6B94406D9075572A01000013020000310000006662782F393141393539
311
31372D463445422D344239362D413137372D4232334330394238413238322F636F72652E786D6C8D514B6EC32014BC0A62952EB0017F62479828AEDA13F40214488A1283C5A7CAF18B6B476A77D9F0D0BC9979038F1DEFD30D7C6B1F8CB303240586405BE994B19701A678461D0447CEBC73F10F0D022B263DC005869C5DBC
311
4BF3064967A3B631A3D629BD8122041D2190B77C1960905F7A1285483133C2B59885BC8A8B2E4891DB99C759883E0700EB90E584BC27A7BEE9C91EBDD76F23AAC7BE4527B2DFA39156AFB81FBB13ED282B5721672919B5C98DCA71CCD968FFACC922E62C9AE9115F7A2DA25690534C28C235A2F8835407DA1C688B7077C098
311
950BFD9F28CDEA4951323656748BBBCA02E484956B8333E5D2E7ED1146DF67E72358E6ED82962F90E30213D2356DC5CA9599DF9F2DDB7AB30CD1F9FCBFBBEB67269366F56D6BCECA6545B9FCEE2FD7659DFC07504B03041400060808002D6B9440566C29E64C01000033030000300000006662782F39314139353931372D46
311
3445422D344239362D413137372D4232334330394238413238322F636E782E786D6CD593BD6E032110845F05D1DFAF2F966571584A912748919683B54DCCC1899F287EFB2C3676DCB84899069D668799D5278EEDBE6743BEC007EDEC48BBBAA504AC744ADBC34853DC571B4A769C79E7E2838D122B66186996296707EFD252
311
24057B914C44D5687B2AA287E092971050CE37897152180C005B2514619E402950E46EC4AF3D785C05C5E94CE211C8DBEB0771D327C818589353386B720767F92C4D0F264AA411218C34C823CCA216293A05E1542B1145DDD5B7AE273BFD26917CE15699BC26B97CA4F9A4BC6C542347D6E090B3103DD22BA6785E8072B12C
311
464B11117273315E3D9C256DE37A285E8DE03DBABBF56A1830EC32E32CEA198A437A101114E57DDBF5553B547DFBDEADB6FDCBB65F57ED66DBB6ACC976CE26E74CB98431E0DD42A4B3116CA4BC634D1E3FC3577C44698FAC9D3FFF01240228AD573AF78CFFCCA7B9BC6FC4E5F12FE03F504B03041400060808002D6B9440DE
311
0A7396A405000080100000340000006662782F39314139353931372D463445422D344239362D413137372D4232334330394238413238322F6F626A656374732E786D6CAD57DB6EDB3810FD1541FBB2FBE0BB735B282A1CBB298C226D51A3C53E1830288952B8A14481A41267BF7E0F25EAE6DAA977D117CBA286C39933672E
311
F4DEED53EE3C53A998C86EDDC970EC3A340B45C4B2E4D62D743CB8769D77BE2785D01D31D7C9484A6F5DB3ECFA5E224591DBA588C6A4E0FA60F5FEEE2F478534A3AE1372A2D4ADABC2479A922129B488A87A1A4644936112EF87936125D8579B48923F1E28CD89A49986A558CFA0C5A98C9AF45FC7EEC8F746E6BBEF995F2B
311
353B2D352AFDE99FCF32A54916FE70D8819AD964BE7A3FBDB8195CCCE7B3C1FC723A19DCDDDFAD0693ABD97879B95CDE2CDEDFE060A52534594B248D5DFF03B0912CF446D527DF2B58A667532B62033492F4999948B9FED49978A34AA6F1CE3A79CCFC5064190D4BAC8046E99F551DD19C661162CEA882651D84C6FDD789C1
311
B1F37966DEED91DDE5F310E8EEE828AA6DAF9F5D4B45F0375C50E730482A6A185861691DADB83A6E110E84E0F61B534E4A34958C7087B34012F9EAFA103522BED75363982C4D36180F5C1F51A83EF7E98234FA39CF8F5919179C1B1ABB7E99053BE40AD5AAB48CFD43656B7D1719D8845819365C5B87F46B4E5DFFA6A2C8F5
311
019B2A209D98930421879B66E76C7AE0E8D2E4E97AE5FA1FEF83FDC6E4EEF1C37329722AB5A10FA85507AE7E1A94AC4D93B3226736B807A6B4A07C05F29F90EAAD29889B64FBF97E6E4FD192642A1632456C9CB13318E367EC4CCA5FF3BFF3CF1B359BFBD13B8527826DA0FA0578F67DE8C6B203A7EF3D83F042CEAC6B9B90
311
70948D079601204312870B2CA10EC7C1DEF5D7A872A8CAD845B83F81CB30F7197FBD91558342519ED47966C0F2A02C9E51A0015BC948985191DF1AD8C6E98772561E6CC54EC17BF14BE8BA586D3E6E0A1993903ED89C5ED198654CA3C5B5BCE91AD4C3BCE7D1137D7D113282A33FE2BDE9E29DDAA314D036981BE093BAA69B
311
97F6E4DE0121F625C2941BEF2727C009D3583BFA1F980A29E724A3A2A8CF7DB37FA06D54109B64374C6E1A4CDB58409AEACB410EA2498792E506C4A65B35457378C2BB6FEB4F6024E4B908086F8582B6F486820BB90B5E7755553A8AF4F73EB52D0423A3056C2F73A44E7F8BF92E62715C28D4C023B07E5F2FBBA133550115
311
A2D65A25CB1CEE23B788B49CADF5A2594B82462AB21D43DB44DA1D3DA0AB1F885A02940A4F59AC288F778CF322DDC58CA319ED52929F80E3FFDB1F1469BE23A928327D4277CF743487BEED3DF2AA17A2C347D7DF94CFC11D4A6F44A336CC3D61D34A8E60D50BED747679311BBFBF1A2CC6D38BC17CB5B81ADC5C5E5D0EAEC7
311
F3C5DDD5F27A3E9DC2756B513943F95EDD69BA098D28A1B3798564367CDFD6481F5B035CFF8168B5FD506567FDFCB61E6214F646D88376D96C5C44CF18FB68F47305ADE45145EB34E734A5992626851ECC1FFE9560CCE81953ADAF5392D033B47CFEB03970062B67ECFB62D29DBE1CECB5AB4B93904795E8C7220D32C2F8C1
311
C6A44272986789C5AF8E49F3ACFA4CFD6ADE6C6030982AC15984321839091529D5288667F420995205EA7547FAC85E3DCED8FD5C0D889A049CD6963C12CCC85C212DC0DB22D4FD75E737CC7466ACBA75D16D874FF8B195C275C0995B1733BA662155C300FDD94C42A57270A93BC883B3244B3846ED6A53F3DEEC32D8F43A72
311
2372CEF864FDAA2AB875006524C7D8807908D1298DF1BDD236FB3DFC4F8ED7E63844E36F50E8C69776A171A63C06295A39652F0B98619EECD17B24EADB6E4D86A54C0F91B32E596F92A0D23AD04426E545C1D8674D5AACBE8C30A038EBCF4ECE8B04B13C5FD3405290B930090E16811556674E34A8BAFC73FB450A5C6453E7
311
9E8102CEEFFBEBCB3FB64B91A622AB96B60B7B1D76368FB8DC465B14076A6E256A3B1D4FA6DBF236602F28BB80283A24917AC202222B5903742FFCE0657565441FAA3E347223138A0386AE578E6D6C7328B574E9D656030EE68E8C3AC82173A33419D315C8DFBC108C4A51982031CAFBFF02504B03041400060800002D6B94
311
40000000000000000000000000350000006662782F39314139353931372D463445422D344239362D413137372D4232334330394238413238322F76657274696365732E62696E504B03041400060808002D6B9440F270F1330600000004000000360000006662782F39314139353931372D463445422D344239362D41313737
311
2D4232334330394238413238322F747269616E676C65732E62696E636660600000504B03041400060800002D6B9440000000000000000000000000370000006662782F39314139353931372D463445422D344239362D413137372D4232334330394238413238322F617474726962757465732E62696E504B03041400060808
311
002D6B9440D5987DFC8F00000041010000360000006662782F39314139353931372D463445422D344239362D413137372D4232334330394238413238322F6469726563746F72792E786D6C858F410EC2201045AF4266AF15DDB800BA74E7C21B903225242D6328188F2FA5C4183471359997F9FF81E89FF3C41E1816475E02
311
DF1F80A11FC8386F25A438EECEC07A250251FC3803E6F58C12560C4AD840E95E91C151A72936F496F35732D860FE635F62C8F2DA16B505C545B74125BAA2FA9E05D7CC053D063734D5C7665FD55B6B8D15D5E9BFEAFD8490FFA45E504B03041400060808002D6B9440293C01C8FE000000A00100003B0000006662782F3931
311
4139353931372D463445422D344239362D413137372D4232334330394238413238322F7265736F75726365732F636F72652E786D6C8D905D6E83301084AF82F6DD609BFC20641CA5349CA017B0CC86580976E49FAAC7AF09546ADFFAE2B566BED18E569CBEE647F1893E18673B60258502AD76A3B15307295E4903C5490AEF
311
5CFC854161D58C1D2C32483179979E9BA49D8D686356AD1B7113550818A1D08FFCE920E81BCEAA54296622DCCBA7D2773561C9CA6C674E8A107D2E50AC4B9617A4C7E092D71844B5BA52A464C68D3163DE69AE063DC8FE9D9DF7F5D090233BF464D7EF2FE47C793B92A1AE7B4ED9C00F172EAA252C4534F34F47ED51451C41
311
668613BA239C7EB0BAE5FB961F086D5A4A45B5E07F42E939FE33948C8D35DFEAAEB10092E5222F438A6AB9571EAF63E6B9DC567E03504B010214000A00000800002D6B94403DEE336E79000000790000001B00000000000000000000000000000000006175746F6465736B2D64657369676E2D7061636B6167652E786D6C50
311
4B010214001400060808002D6B9440D486FD9CA0000000F40000001300000000000000000000000000B20000005B436F6E74656E745F54797065735D2E786D6C504B010214001400060808002D6B94403A972F50EA0000007C010000080000000000000000000000000083010000636F72652E786D6C504B01021400140006
311
0808002D6B944055019EA25F0000007C000000070000000000000000000000000093020000636E782E786D6C504B010214001400060808002D6B9440B10AEB9766010000020300000C00000000000000000000000000170300006662782F636F72652E786D6C504B010214001400060808002D6B944049121AEE7D0000009D
311
0000000B00000000000000000000000000A70400006662782F636E782E786D6C504B010214001400060808002D6B94406D9075572A0100001302000031000000000000000000000000004D0500006662782F39314139353931372D463445422D344239362D413137372D4232334330394238413238322F636F72652E786D6C
311
504B010214001400060808002D6B9440566C29E64C010000330300003000000000000000000000000000C60600006662782F39314139353931372D463445422D344239362D413137372D4232334330394238413238322F636E782E786D6C504B010214001400060808002D6B9440DE0A7396A4050000801000003400000000
311
000000000000000000600800006662782F39314139353931372D463445422D344239362D413137372D4232334330394238413238322F6F626A656374732E786D6C504B010214001400060800002D6B94400000000000000000000000003500000000000000000000000000560E00006662782F39314139353931372D463445
311
422D344239362D413137372D4232334330394238413238322F76657274696365732E62696E504B010214001400060808002D6B9440F270F13306000000040000003600000000000000000000000000A90E00006662782F39314139353931372D463445422D344239362D413137372D4232334330394238413238322F747269
311
616E676C65732E62696E504B010214001400060800002D6B94400000000000000000000000003700000000000000000000000000030F00006662782F39314139353931372D463445422D344239362D413137372D4232334330394238413238322F617474726962757465732E62696E504B010214001400060808002D6B9440
311
D5987DFC8F000000410100003600000000000000000000000000580F00006662782F39314139353931372D463445422D344239362D413137372D4232334330394238413238322F6469726563746F72792E786D6C504B010214001400060808002D6B9440293C01C8FE000000A00100003B000000000000000000000000003B
311
1000006662782F39314139353931372D463445422D344239362D413137372D4232334330394238413238322F7265736F75726365732F636F72652E786D6C504B0506000000000E000E0080040000921100000000
310
504B03040A00000800002D6B94403DEE336E79000000790000001B0000006175746F6465736B2D64657369676E2D7061636B6167652E786D6C3C3F786D6C2076657273696F6E3D22312E302220656E636F64696E673D227574662D3822203F3E3C666F726D6174733E3C666F726D61743E687474703A2F2F736368656D612E
310
6175746F6465736B2E636F6D2F64657369676E2D7061636B6167652F323030393C2F666F726D61743E3C2F666F726D6174733E504B03041400060808002D6B9440D486FD9CA0000000F4000000130000005B436F6E74656E745F54797065735D2E786D6C7D8EC10E82300C865F65E91D8A1E8C310C0EEA1BF002731658846E
310
D98AC1B77784ABF1D8FE5FBFBF75BBCE937A534CCEB38643598122B6FEE978D0B0485F9C41B54DDD7D022595594E1A469170414C76A4D9A4D207E29CF43ECE46F218070CC6BECC4078ACAA135ACF422C856C0E68EA1BF5669944DDD7BCDE7B1F8E415D77AECB980613C2E4AC91FC167A2B244592486606FC29C8FD7F045B9A
310
EF7053A7E60B504B03041400060808002D6B9440C78EA51BEA0000007C01000008000000636F72652E786D6C8D904D6E83301085AF62CDDEE01F4223641C15484ED00B58D8A156828DB05DF5F8350991DA5D57337AF3BE99D113A7EFF98EBECC1AAC772DD08200326EF4DABAA98514AFF808E824C5EA7DFC6503E4D46C5AD8
310
6490625A7D5A7669F42E1A17B3EABC36BBA8423011D078CF4D0B61FC34B32A548AD9116EC5A2C69B9A4C415F5D8653B21A3D8F589DF7D9AB352B485E9F8737463B3C74A4C355D5BFE3AEBE305C9F3927BCEE0FFD6510E5064B11EDFCBA3FAE4645A341324219261566E483F2861D1A5663726C0811E566FF03A545FF134AD6
310
45CEF6779F580049F3238F8114E596452E8FA072DD72933F504B03041400060808002D6B944055019EA25F0000007C00000007000000636E782E786D6C4DCB3B0E80201045D1AD90E915ED2CF8AC45050C11660C8261F98AB1B07AC9C97D42D718D865D3E909258CFD00CCE24AC6E326A164D74DC0B4128928FF326038472B
310
A13128B1252AC747C6BAB984FC68F0B87FE8960A5C09FE86CFB69FBA01504B03041400060808002D6B944055C9DD5D66010000020300000C0000006662782F636F72652E786D6C8D52ED8E8320107C15C27F04B1F59A86D25CBF9EE05E802AF548151A04D3C7BFF5A3F17A699A8B0992999DDDD951B1BD3735EAB46F8DB31B
310
9C260C236D0B571A5B6D700C17B2C2682B85772EFC2AC3C8AA466F700F63292AEFE26D820A6783B60150EB4A3D81AA6D75C0A8A8E1B2C16DF1AD1B95A818A0A2BD2637555C55A59334011AEAA468830703681CD29F585ECE7741475C8A184D39B1A68469E662B4C732CB8F870F9EEEC861C77664B1D87F925D7EE2243F6619
310
CBF2FD727F3A08DA8BA508A679B82BBC56419758729672C21684B3AF345BF3E59AE784ADD68C09DA973F89E2ADFCA7281A1B323ED91D652D96291819883FDB424401B5AA033F540ADA8708AF21E1E7A021100839A873FDD8E30A50A78BE0FC0298D2C599EA541D354C656878041D59E83C3480CD5EF6E16FFABCEF011F50D9
310
0AACA900D7730CFD74314E9DA2B8694FBA7047D6F946D5B3B9D1E27CCE835ECA0B573BFF1F359D56A55398B4FF7BE50F504B03041400060808002D6B9440BD48D7717E0000009D0000000B0000006662782F636E782E786D6C4DCCD10A83201886E15B91FFDCA5E6CC811A5BB4FB886521331DA66397BF1A1DECE883878F57
310
B59FC5A3B74DAB8B41033D1140363CE2E8C2ACA1E4094B40AD5129C6FC77031486C56AD8198C9A532CAF83463B0DC5E74DBD0BCF0349CFA4E81A86E58D7798535E632908C777D608D29FAFF44238544655BFD2B67BD87C01504B03041400060808002D6B94404C7DC0D92A01000014020000310000006662782F3045323836
310
4337322D384234432D343134332D383630342D4632373630453541313930342F636F72652E786D6C8D51CB6EC32010FC158B537AB00D983824C2446D947E417F801892A0C460F1A8F2F95DD78ED4DE7261D1ECCCECC08AFD63B817DF2644EB5D87488551615CEFB575970EE5742E392AF65204EFD31F1A2A9C1A4C87261849
310
71093E8F0BD47B978C4B803AAFCD02AA184D42457F874B87627F3583AA544EC088B76A54FD4D5D4C452A68034F8A98020428E621D389243E52DE1E36B4E41FEC5032C29A92B798959F74D3E2E3FA9D6C3113F52C942267AB17B9D510C79EAD09AF9A4C6229921D9EF1FB6054321A498A092D6128C55FA4D9D1F58EB625E63B
310
8C453DD1FF89F2A85F1465EB524397B8B32C2249443D37A4D03E9FEECF30E631FA908A69DE2A9AFE0D5E55E10DDFD2167351CF54F800F06CD9E219930FF0C1ABDB09D8CD62DC3229EA6947507E170875DAA7FC01504B03041400060808002D6B944030CBE6F15401000033030000300000006662782F30453238364337322D
310
384234432D343134332D383630342D4632373630453541313930342F636E782E786D6CBD93CD6EC32010845F0571F76F5CCB8A30917AE813F4D02B864D4A83C1025C356FDF2521692E3954AA7A41D6EC30B3FA84D9EE6B36E4137CD0CE8EB4296B4AC04AA7B43D8C748DFB62A064C799772EDED928B162869126997276F06E
310
5DB2A4602F56135135DA1EB3E821B8D54B0828A79BC438290C06802D5614619E402950E466C4AF3D785C05C5E944E23B9097E737E2A60F9031B02AA57056A50ECED2999BEE4C94482342186990EF308B52ACD12908C7528928CAA6BC763DD8E92789A40BD7CAD56B92CA479A4ECAF346257264150E390BD123BD6C8AA70528
310
17CB62B41411215767E3C5C3D9AA6DECBBECD508DEA37BD3F6C38061E7196751CF901DD28388A0286FEBA62DEAAE68EBD766B36D9FB66D5FD4C3B6AE5995EC9C4DCE997C0963C0BB85486723D84879C3AA347E842FFB88D21E593B7FFA054804905B2F746E197FC9A7E9375DF78F7CAAF3FB465C1EFF02FE0D504B03041400
310
060808002D6B94405428322862070000991B0000340000006662782F30453238364337322D384234432D343134332D383630342D4632373630453541313930342F6F626A656374732E786D6CED595B73A33614FE2B0C7D691F8C8DEDDC3A844EE26C329E9DECEEACBB3B7DF00C23834CD408C1482297FEFA1E5DC0404C82BB
310
E9DB3ED880908ECEF9CE5587E08FA78C3A0F980B92B373D7F726AE83599C2784A5E76E29B7A353D7F9230C789ECBC634D76128C3E7AE1A76C320E57959D8A1046F51496567F4FAF22F47C49861D7892912E2DC15F11DCE90874A992758DC7B0992C84BB74F9EEF99896DB22947C55D87688138661238857106541CC394DF7E
310
9CB8E33018ABF761A0FEEDACD9A059F3FE59632D759B4BC284442C7EC15287CC6C104B337F7EF5617A74363A9ACF67A3F9F1D41F5D5E5F5E8DFC93D96471BC589C5D7C3803F636794EAD4C092E304B407FCF6EE80763F5A616DD22B08FEB38670CC71A48804A8BD52548B080AD1AF04DDA8FBE92A8F15A4BD8789EABF79685
310
C6F0AC4DA56FD630205A744110BB5D2571756DCA976FFE06C1C510A3E4024BE056480EDAB5F070F00A379C0463331A069B9D2E887032243127883A946C38E2A01498AAA684815960C928E7E040CA511268CD99D76DDB02CF7CDB75F671B92D29559EE186DAB122703F2C85E68CFC83F98EFB2632C013485B12264F2D97F2B9
310
C06E78168CF56018A8CB6C6A5F1A209D2D45A9D08898B71D4117CAF597576EF8F17AF3B452E160FFE605CF0BCCA5323AA547CD1718B2BD2A94ECB6FE20CDA905208C01D5AEDC81F21590FF04D163C70AE88D93A7F9D3DCCE951C31B1CD7906BA7126CE68027F13C7D7FFEABE71178CEBC56DEDF5E1096EAAA03AFD713CDB32
310
68AC2CFF0D38C3E0010C3EE733FB6A15230AF67C4B1800A48CC4A1390C4168DF6E9EDC70098113023DAC4234F4416460F7016E83B125B3D34AE55ED6EB18206AF7980D5112C0A62D12D8E8D1D30D640F4EE29D9A9A22F6C17BF42EE67A71B5FAB82AF916C5F8D6FAF415DE12462464CDFD0CB5306F49748F9F1F739E80A02F
310
F15E35F1CEEC5602D056982BE0D30A04F5B0DBB9B5410CEBD25C859BE08D1D400895AB1BF46F898831A588E1BCACF6ADA39B32D4DAE36DCDE0865303F16CDA31618E1F88AA2AC06976335A8C42DE8F392914886E786324AB83A6D723DDB7E527B0C87A7ECFAC2583D0CB10FD5307AD3D38B42CBB42DA02510BBCD985F338A7
310
398F36CF9189742ED412C046DB5BBEB78842AC374A5254C083B4DF55212535D24609D96E4B0171750F8BDF978BA6394CBC997FE434FF3BCE3887680BBE8BB8F5BBCE1E11C9508AA32D4AFAB66BEE56D3169A640F698EB714E4220F443E4748469304A787407310F1B377A59ED25C08C2B0807CB517FC261A130F0289D166C5
310
B2D26A076822A20C4B440F414091E90157A71D5DE3C6503ABCCD636DBDAF69AC49F47FB2088EA096CC5944A014851CF226E3BE770431A48DAE41B9832F585B455B8B414B2821E2E7E81193F44E1E82BA21DF837B0C4792524679816230EB01645FF88A526A87F70D8AEF55FE88E292BE9781084CB711A1B4CC22F81106278F
310
21AE5D07A65751681037B14FE20C8A32244B3E6493E3A3C98B7D4CCDD00D818D8DB68442D88E3254F4A0DE0A88BA1E716AF02DF51EA56ECAAC885096976C90A178B3AE3759F25DB52AB203F955A522948D15614B300C08937556AD623698BA0EACE0463A503D4702650535A7B037128F5F7B93A6DCBB01B77EFABE1B6450F8
310
F568AF1951E7150C96C75661201E918CEFDC70A5AFA34BA8BF139CEC527D556B362B40404C45F29213ABA26F4B286F6C8DE686B7488AF58DC9BAD5F5DBD283EE4730863550BBD40B970AE80C3389546572AB6EE8570421B845C38C2F554E3D84CA4592E8AA11D16BD2A7CE5619D1DA34235E7187599EC18FAD098B6999E035
310
4AC47D742B69B4228A752BA597910AE35705FC7CB3EAC003230344FAA20A3CFCD8596B4717AA5CDA4B44DE95D986210241B0255A6A74E3152CB51AA9B45C5FD59902EA2E3030ABE2F9CF9345B31DF1F364915AC3F8B19305CD3788EEA24D239BC7CAAC0F3A05D4E94951798F5380EE3AD454EB246272B915DFFA520431B10A
310
F2838BB12A6618827D1CFFE7A4DD9704CD761DFE0F4BDAFE8B82E3A0A4D29AAC9A547B0AD76533854D67C747B3C98793D1C5647A349A5F5D9C8CCE8E4F8E47A793F9C5E5C9E2743E9D2E6A34B59F86411DCB74EA826713D3AA61F5643180A6ACC82949E0309F382986902FE1483FA07BCE332C2077367BDD89EDC90F58FD60
310
DA9C126D28AE38B943D01FA602B23A6054C6B23DEEFC029D4909E7EC73177A46DE3DFC59AB741D483CE72E740A2489B1F036D06552FD3C4D1C32AE4EFD9618E08358AA32A259543FD7AB1436ADE85F4F199205AC5CAD1606D46D0534BF5A0D0ACD9BE5293E48F08A1D0749B8DD94128A3523CB6EA016466FB353BF918D1276
310
6FB77E02D77D5D2CDFD3735A880CFA62F0AA1118AA238978AADBDD8A31CBD2C5D59731B4D99CE567A7A0650ABA1C4E69C4311873A9EA29B022B00A4BB340124C75F1FBFA0BCFE10B4FE6E8A2C8F9F5E9F4F8B7F522CFB29C99A1F5051CCA12F84EE4ACEEE0AB4FB286DA01ABDEBA584F27FE74AD7BDAB6CD1E6D90C09E2A8A
310
60A0AA2594201D9303BB7CD19FB2DDCBB1524567FAF2CAB141147A01C68E5EB478CD372E077C487D4D511EA3FDBC92F6D5B6F6584F059BE0D0900EFF05504B03041400060800002D6B9440000000000000000000000000350000006662782F30453238364337322D384234432D343134332D383630342D4632373630453541
310
313930342F76657274696365732E62696E504B03041400060808002D6B9440F270F1330600000004000000360000006662782F30453238364337322D384234432D343134332D383630342D4632373630453541313930342F747269616E676C65732E62696E636660600000504B03041400060800002D6B9440000000000000
310
000000000000370000006662782F30453238364337322D384234432D343134332D383630342D4632373630453541313930342F617474726962757465732E62696E504B03041400060808002D6B9440D5987DFC8F00000041010000360000006662782F30453238364337322D384234432D343134332D383630342D46323736
310
30453541313930342F6469726563746F72792E786D6C858F410EC2201045AF4266AF15DDB800BA74E7C21B903225242D6328188F2FA5C4183471359997F9FF81E89FF3C41E1816475E02DF1F80A11FC8386F25A438EECEC07A250251FC3803E6F58C12560C4AD840E95E91C151A72936F496F35732D860FE635F62C8F2DA16
310
B505C545B74125BAA2FA9E05D7CC053D063734D5C7665FD55B6B8D15D5E9BFEAFD8490FFA45E504B03041400060808002D6B9440AF64F82AFD000000A00100003B0000006662782F30453238364337322D384234432D343134332D383630342D4632373630453541313930342F7265736F75726365732F636F72652E786D6C
310
8D504B6E833010BD0A9ABDC11842A3C8380A909CA017B0CC845A0936F2A7EAF16B0295DA5D3733A3F7D13C3D7EFE9A9FD9273AAFAD69A1CC296468941DB5995A88E14E8E909D0577D6865F32C88C9CB1851506C12767E3B243CA9A802624D4D81177507A8F0132F54C470B5E7DE02C73194352F847BE48F59013E6659EE8A4
310
13DC07970264DB93758270E86D740A3D2F3656F018F5B86BF4987EEABB4607A26AAEC31B2B2F64E86847EABABF90AEB931D25CAB8A564D7FE86F032F56B3E041CF3F199543197004C168C908AD09A3EF65756287136B083D9E28E5C52AFF638ACBF84F53D426546C8FBBD93C883205791182176B5F69BDCA4C7BED567C0350
310
4B010214000A00000800002D6B94403DEE336E79000000790000001B00000000000000000000000000000000006175746F6465736B2D64657369676E2D7061636B6167652E786D6C504B010214001400060808002D6B9440D486FD9CA0000000F40000001300000000000000000000000000B20000005B436F6E74656E745F
310
54797065735D2E786D6C504B010214001400060808002D6B9440C78EA51BEA0000007C010000080000000000000000000000000083010000636F72652E786D6C504B010214001400060808002D6B944055019EA25F0000007C000000070000000000000000000000000093020000636E782E786D6C504B0102140014000608
310
08002D6B944055C9DD5D66010000020300000C00000000000000000000000000170300006662782F636F72652E786D6C504B010214001400060808002D6B9440BD48D7717E0000009D0000000B00000000000000000000000000A70400006662782F636E782E786D6C504B010214001400060808002D6B94404C7DC0D92A01
310
00001402000031000000000000000000000000004E0500006662782F30453238364337322D384234432D343134332D383630342D4632373630453541313930342F636F72652E786D6C504B010214001400060808002D6B944030CBE6F154010000330300003000000000000000000000000000C70600006662782F30453238
310
364337322D384234432D343134332D383630342D4632373630453541313930342F636E782E786D6C504B010214001400060808002D6B94405428322862070000991B00003400000000000000000000000000690800006662782F30453238364337322D384234432D343134332D383630342D4632373630453541313930342F
310
6F626A656374732E786D6C504B010214001400060800002D6B944000000000000000000000000035000000000000000000000000001D1000006662782F30453238364337322D384234432D343134332D383630342D4632373630453541313930342F76657274696365732E62696E504B010214001400060808002D6B9440F2
310
70F13306000000040000003600000000000000000000000000701000006662782F30453238364337322D384234432D343134332D383630342D4632373630453541313930342F747269616E676C65732E62696E504B010214001400060800002D6B94400000000000000000000000003700000000000000000000000000CA10
310
00006662782F30453238364337322D384234432D343134332D383630342D4632373630453541313930342F617474726962757465732E62696E504B010214001400060808002D6B9440D5987DFC8F0000004101000036000000000000000000000000001F1100006662782F30453238364337322D384234432D343134332D38
310
3630342D4632373630453541313930342F6469726563746F72792E786D6C504B010214001400060808002D6B9440AF64F82AFD000000A00100003B00000000000000000000000000021200006662782F30453238364337322D384234432D343134332D383630342D4632373630453541313930342F7265736F75726365732F
310
636F72652E786D6C504B0506000000000E000E0080040000581300000000
  0
XRECORD
  5
27
102
{ACAD_REACTORS
330
22
102
}
330
22
100
AcDbXrecord
280
     1
270
     1
271
     1
  0
XRECORD
  5
26
102
{ACAD_REACTORS
330
22
102
}
330
22
100
AcDbXrecord
280
     1
270
     1
271
     1
  0
XRECORD
  5
28
102
{ACAD_REACTORS
330
22
102
}
330
22
100
AcDbXrecord
280
     1
270
     1
271
     1
  0
XRECORD
  5
25
102
{ACAD_REACTORS
330
22
102
}
330
22
100
AcDbXrecord
280
     1
270
     1
271
     1
  0
XRECORD
  5
358
102
{ACAD_REACTORS
330
357
102
}
330
357
100
AcDbXrecord
280
     1
102
ACAD_ROUNDTRIP_2012_MLEADER_STYLE
298
     1
  0
CELLSTYLEMAP
  5
356
102
{ACAD_REACTORS
330
302
102
}
330
302
100
AcDbCellStyleMap
 90
        3
300
CELLSTYLE
  1
TABLEFORMAT_BEGIN
 90
        5
170
     1
 91
        0
 92
    32768
 62
   257
 93
        1
300
CONTENTFORMAT
  1
CONTENTFORMAT_BEGIN
 90
        0
 91
        0
 92
      512
 93
        0
300

 40
0.0
140
1.0
 94
        5
 62
     0
340
55
144
0.25
309
CONTENTFORMAT_END
171
     0
 94
        0
309
TABLEFORMAT_END
  1
CELLSTYLE_BEGIN
 90
        1
 91
        1
300
_TITLE
309
CELLSTYLE_END
300
CELLSTYLE
  1
TABLEFORMAT_BEGIN
 90
        5
170
     1
 91
        0
 92
        0
 62
   257
 93
        1
300
CONTENTFORMAT
  1
CONTENTFORMAT_BEGIN
 90
        0
 91
        0
 92
      512
 93
        0
300

 40
0.0
140
1.0
 94
        5
 62
     0
340
55
144
0.18
309
CONTENTFORMAT_END
171
     0
 94
        0
309
TABLEFORMAT_END
  1
CELLSTYLE_BEGIN
 90
        2
 91
        1
300
_HEADER
309
CELLSTYLE_END
300
CELLSTYLE
  1
TABLEFORMAT_BEGIN
 90
        5
170
     1
 91
        0
 92
        0
 62
   257
 93
        1
300
CONTENTFORMAT
  1
CONTENTFORMAT_BEGIN
 90
        0
 91
        0
 92
      512
 93
        0
300

 40
0.0
140
1.0
 94
        2
 62
     0
340
55
144
0.18
309
CONTENTFORMAT_END
171
     0
 94
        0
309
TABLEFORMAT_END
  1
CELLSTYLE_BEGIN
 90
        3
 91
        2
300
_DATA
309
CELLSTYLE_END
  0
XRECORD
  5
38E
102
{ACAD_REACTORS
330
302
102
}
330
302
100
AcDbXrecord
280
     1
102
ACAD_ROUNDTRIP_PRE2007_TABLESTYLE
 90
      512
 91
        0
  1

 92
      512
 93
        0
  2

 94
      512
 95
        0
  3

  0
XRECORD
  5
369
102
{ACAD_REACTORS
330
368
102
}
330
368
100
AcDbXrecord
280
     1
102
RTVSPropertyOp0
 70
     1
102
RTVSPropertyOp1
 70
     1
102
RTVSPropertyOp2
 70
     1
102
RTVSPropertyOp3
 70
     1
102
RTVSPropertyOp4
 70
     1
102
RTVSPropertyOp5
 70
     1
102
RTVSPropertyOp6
 70
     1
102
RTVSPropertyOp7
 70
     1
102
RTVSPropertyOp8
 70
     1
102
RTVSPropertyOp9
 70
     1
102
RTVSPropertyOp10
 70
     1
102
RTVSPropertyOp11
 70
     1
102
RTVSPropertyOp12
 70
     1
102
RTVSPropertyOp13
 70
     1
102
RTVSPropertyOp14
 70
     1
102
RTVSPropertyOp15
 70
     1
102
RTVSPropertyOp16
 70
     1
102
RTVSPropertyOp17
 70
     1
102
RTVSPropertyOp18
 70
     1
102
RTVSPropertyOp19
 70
     1
102
RTVSPropertyOp20
 70
     1
102
RTVSPropertyOp21
 70
     1
102
RTVSPropertyOp22
 70
     1
102
RTVSPropertyOp23
 70
     1
102
RTVSPropertyOp24
 70
     1
102
RTVSPropertyOp25
 70
     1
102
RTVSPropertyOp26
 70
     1
102
RTVSPropertyOp27
 70
     1
102
RTVSPropertyOp28
 70
     1
102
RTVSPropertyOp29
 70
     1
102
RTVSPropertyOp30
 70
     1
102
RTVSPropertyOp31
 70
     1
102
RTVSPropertyOp32
 70
     1
  0
XRECORD
  5
367
102
{ACAD_REACTORS
330
366
102
}
330
366
100
AcDbXrecord
280
     1
102
RTVSPropertyOp0
 70
     1
102
RTVSPropertyOp1
 70
     1
102
RTVSPropertyOp2
 70
     1
102
RTVSPropertyOp3
 70
     1
102
RTVSPropertyOp4
 70
     1
102
RTVSPropertyOp5
 70
     1
102
RTVSPropertyOp6
 70
     1
102
RTVSPropertyOp7
 70
     1
102
RTVSPropertyOp8
 70
     1
102
RTVSPropertyOp9
 70
     1
102
RTVSPropertyOp10
 70
     1
102
RTVSPropertyOp11
 70
     1
102
RTVSPropertyOp12
 70
     1
102
RTVSPropertyOp13
 70
     1
102
RTVSPropertyOp14
 70
     1
102
RTVSPropertyOp15
 70
     1
102
RTVSPropertyOp16
 70
     1
102
RTVSPropertyOp17
 70
     1
102
RTVSPropertyOp18
 70
     1
102
RTVSPropertyOp19
 70
     1
102
RTVSPropertyOp20
 70
     1
102
RTVSPropertyOp21
 70
     1
102
RTVSPropertyOp22
 70
     1
102
RTVSPropertyOp23
 70
     1
102
RTVSPropertyOp24
 70
     1
102
RTVSPropertyOp25
 70
     1
102
RTVSPropertyOp26
 70
     1
102
RTVSPropertyOp27
 70
     1
102
RTVSPropertyOp28
 70
     1
102
RTVSPropertyOp29
 70
     1
102
RTVSPropertyOp30
 70
     1
102
RTVSPropertyOp31
 70
     1
102
RTVSPropertyOp32
 70
     1
  0
XRECORD
  5
375
102
{ACAD_REACTORS
330
374
102
}
330
374
100
AcDbXrecord
280
     1
102
RTVSPropertyOp0
 70
     1
102
RTVSPropertyOp1
 70
     1
102
RTVSPropertyOp2
 70
     1
102
RTVSPropertyOp3
 70
     1
102
RTVSPropertyOp4
 70
     1
102
RTVSPropertyOp5
 70
     1
102
RTVSPropertyOp6
 70
     1
102
RTVSPropertyOp7
 70
     1
102
RTVSPropertyOp8
 70
     1
102
RTVSPropertyOp9
 70
     1
102
RTVSPropertyOp10
 70
     1
102
RTVSPropertyOp11
 70
     1
102
RTVSPropertyOp12
 70
     1
102
RTVSPropertyOp13
 70
     1
102
RTVSPropertyOp14
 70
     1
102
RTVSPropertyOp15
 70
     1
102
RTVSPropertyOp16
 70
     1
102
RTVSPropertyOp17
 70
     1
102
RTVSPropertyOp18
 70
     1
102
RTVSPropertyOp19
 70
     1
102
RTVSPropertyOp20
 70
     1
102
RTVSPropertyOp21
 70
     1
102
RTVSPropertyOp22
 70
     1
102
RTVSPropertyOp23
 70
     1
102
RTVSPropertyOp24
 70
     1
102
RTVSPropertyOp25
 70
     1
102
RTVSPropertyOp26
 70
     1
102
RTVSPropertyOp27
 70
     1
102
RTVSPropertyOp28
 70
     1
102
RTVSPropertyOp29
 70
     1
102
RTVSPropertyOp30
 70
     1
102
RTVSPropertyOp31
 70
     1
102
RTVSPropertyOp32
 70
     1
  0
XRECORD
  5
37D
102
{ACAD_REACTORS
330
37C
102
}
330
37C
100
AcDbXrecord
280
     1
102
RTVSPropertyOp0
 70
     1
102
RTVSPropertyOp1
 70
     1
102
RTVSPropertyOp2
 70
     1
102
RTVSPropertyOp3
 70
     1
102
RTVSPropertyOp4
 70
     1
102
RTVSPropertyOp5
 70
     1
102
RTVSPropertyOp6
 70
     1
102
RTVSPropertyOp7
 70
     1
102
RTVSPropertyOp8
 70
     1
102
RTVSPropertyOp9
 70
     1
102
RTVSPropertyOp10
 70
     1
102
RTVSPropertyOp11
 70
     1
102
RTVSPropertyOp12
 70
     1
102
RTVSPropertyOp13
 70
     1
102
RTVSPropertyOp14
 70
     1
102
RTVSPropertyOp15
 70
     1
102
RTVSPropertyOp16
 70
     1
102
RTVSPropertyOp17
 70
     1
102
RTVSPropertyOp18
 70
     1
102
RTVSPropertyOp19
 70
     1
102
RTVSPropertyOp20
 70
     1
102
RTVSPropertyOp21
 70
     1
102
RTVSPropertyOp22
 70
     1
102
RTVSPropertyOp23
 70
     1
102
RTVSPropertyOp24
 70
     1
102
RTVSPropertyOp25
 70
     1
102
RTVSPropertyOp26
 70
     1
102
RTVSPropertyOp27
 70
     1
102
RTVSPropertyOp28
 70
     1
102
RTVSPropertyOp29
 70
     1
102
RTVSPropertyOp30
 70
     1
102
RTVSPropertyOp31
 70
     1
102
RTVSPropertyOp32
 70
     1
  0
XRECORD
  5
36F
102
{ACAD_REACTORS
330
36E
102
}
330
36E
100
AcDbXrecord
280
     1
102
RTVSPropertyOp0
 70
     1
102
RTVSPropertyOp1
 70
     1
102
RTVSPropertyOp2
 70
     1
102
RTVSPropertyOp3
 70
     1
102
RTVSPropertyOp4
 70
     1
102
RTVSPropertyOp5
 70
     1
102
RTVSPropertyOp6
 70
     1
102
RTVSPropertyOp7
 70
     1
102
RTVSPropertyOp8
 70
     1
102
RTVSPropertyOp9
 70
     1
102
RTVSPropertyOp10
 70
     1
102
RTVSPropertyOp11
 70
     1
102
RTVSPropertyOp12
 70
     1
102
RTVSPropertyOp13
 70
     1
102
RTVSPropertyOp14
 70
     1
102
RTVSPropertyOp15
 70
     1
102
RTVSPropertyOp16
 70
     1
102
RTVSPropertyOp17
 70
     1
102
RTVSPropertyOp18
 70
     1
102
RTVSPropertyOp19
 70
     1
102
RTVSPropertyOp20
 70
     1
102
RTVSPropertyOp21
 70
     1
102
RTVSPropertyOp22
 70
     1
102
RTVSPropertyOp23
 70
     1
102
RTVSPropertyOp24
 70
     1
102
RTVSPropertyOp25
 70
     1
102
RTVSPropertyOp26
 70
     1
102
RTVSPropertyOp27
 70
     1
102
RTVSPropertyOp28
 70
     1
102
RTVSPropertyOp29
 70
     1
102
RTVSPropertyOp30
 70
     1
102
RTVSPropertyOp31
 70
     1
102
RTVSPropertyOp32
 70
     1
  0
XRECORD
  5
373
102
{ACAD_REACTORS
330
372
102
}
330
372
100
AcDbXrecord
280
     1
102
RTVSPropertyOp0
 70
     1
102
RTVSPropertyOp1
 70
     1
102
RTVSPropertyOp2
 70
     1
102
RTVSPropertyOp3
 70
     1
102
RTVSPropertyOp4
 70
     1
102
RTVSPropertyOp5
 70
     1
102
RTVSPropertyOp6
 70
     1
102
RTVSPropertyOp7
 70
     1
102
RTVSPropertyOp8
 70
     1
102
RTVSPropertyOp9
 70
     1
102
RTVSPropertyOp10
 70
     1
102
RTVSPropertyOp11
 70
     1
102
RTVSPropertyOp12
 70
     1
102
RTVSPropertyOp13
 70
     1
102
RTVSPropertyOp14
 70
     1
102
RTVSPropertyOp15
 70
     1
102
RTVSPropertyOp16
 70
     1
102
RTVSPropertyOp17
 70
     1
102
RTVSPropertyOp18
 70
     1
102
RTVSPropertyOp19
 70
     1
102
RTVSPropertyOp20
 70
     1
102
RTVSPropertyOp21
 70
     1
102
RTVSPropertyOp22
 70
     1
102
RTVSPropertyOp23
 70
     1
102
RTVSPropertyOp24
 70
     1
102
RTVSPropertyOp25
 70
     1
102
RTVSPropertyOp26
 70
     1
102
RTVSPropertyOp27
 70
     1
102
RTVSPropertyOp28
 70
     1
102
RTVSPropertyOp29
 70
     1
102
RTVSPropertyOp30
 70
     1
102
RTVSPropertyOp31
 70
     1
102
RTVSPropertyOp32
 70
     1
  0
XRECORD
  5
38D
102
{ACAD_REACTORS
330
38C
102
}
330
38C
100
AcDbXrecord
280
     1
102
RTVSPropertyOp0
 70
     0
102
RTVSPropertyOp1
 70
     0
102
RTVSPropertyOp2
 70
     0
102
RTVSPropertyOp3
 70
     0
102
RTVSPropertyOp4
 70
     0
102
RTVSPropertyOp5
 70
     0
102
RTVSPropertyOp6
 70
     0
102
RTVSPropertyOp7
 70
     0
102
RTVSPropertyOp8
 70
     0
102
RTVSPropertyOp9
 70
     0
102
RTVSPropertyOp10
 70
     0
102
RTVSPropertyOp11
 70
     0
102
RTVSPropertyOp12
 70
     0
102
RTVSPropertyOp13
 70
     0
102
RTVSPropertyOp14
 70
     2
102
RTVSPropertyOp15
 70
     0
102
RTVSPropertyOp16
 70
     0
102
RTVSPropertyOp17
 70
     0
102
RTVSPropertyOp18
 70
     0
102
RTVSPropertyOp19
 70
     0
102
RTVSPropertyOp20
 70
     0
102
RTVSPropertyOp21
 70
     0
102
RTVSPropertyOp22
 70
     0
102
RTVSPropertyOp23
 70
     0
102
RTVSPropertyOp24
 70
     0
102
RTVSPropertyOp25
 70
     0
102
RTVSPropertyOp26
 70
     0
102
RTVSPropertyOp27
 70
     0
102
RTVSPropertyOp28
 70
     1
102
RTVSPropertyOp29
 70
     1
102
RTVSPropertyOp30
 70
     1
102
RTVSPropertyOp31
 70
     1
102
RTVSPropertyOp32
 70
     1
  0
XRECORD
  5
37B
102
{ACAD_REACTORS
330
37A
102
}
330
37A
100
AcDbXrecord
280
     1
102
RTVSPropertyOp0
 70
     1
102
RTVSPropertyOp1
 70
     1
102
RTVSPropertyOp2
 70
     1
102
RTVSPropertyOp3
 70
     1
102
RTVSPropertyOp4
 70
     1
102
RTVSPropertyOp5
 70
     1
102
RTVSPropertyOp6
 70
     1
102
RTVSPropertyOp7
 70
     1
102
RTVSPropertyOp8
 70
     1
102
RTVSPropertyOp9
 70
     1
102
RTVSPropertyOp10
 70
     1
102
RTVSPropertyOp11
 70
     1
102
RTVSPropertyOp12
 70
     1
102
RTVSPropertyOp13
 70
     1
102
RTVSPropertyOp14
 70
     1
102
RTVSPropertyOp15
 70
     1
102
RTVSPropertyOp16
 70
     1
102
RTVSPropertyOp17
 70
     1
102
RTVSPropertyOp18
 70
     1
102
RTVSPropertyOp19
 70
     1
102
RTVSPropertyOp20
 70
     1
102
RTVSPropertyOp21
 70
     1
102
RTVSPropertyOp22
 70
     1
102
RTVSPropertyOp23
 70
     1
102
RTVSPropertyOp24
 70
     1
102
RTVSPropertyOp25
 70
     1
102
RTVSPropertyOp26
 70
     1
102
RTVSPropertyOp27
 70
     1
102
RTVSPropertyOp28
 70
     1
102
RTVSPropertyOp29
 70
     1
102
RTVSPropertyOp30
 70
     1
102
RTVSPropertyOp31
 70
     1
102
RTVSPropertyOp32
 70
     1
  0
XRECORD
  5
35F
102
{ACAD_REACTORS
330
35E
102
}
330
35E
100
AcDbXrecord
280
     1
102
RTVSPropertyOp0
 70
     1
102
RTVSPropertyOp1
 70
     1
102
RTVSPropertyOp2
 70
     1
102
RTVSPropertyOp3
 70
     1
102
RTVSPropertyOp4
 70
     1
102
RTVSPropertyOp5
 70
     1
102
RTVSPropertyOp6
 70
     1
102
RTVSPropertyOp7
 70
     1
102
RTVSPropertyOp8
 70
     1
102
RTVSPropertyOp9
 70
     1
102
RTVSPropertyOp10
 70
     1
102
RTVSPropertyOp11
 70
     1
102
RTVSPropertyOp12
 70
     1
102
RTVSPropertyOp13
 70
     1
102
RTVSPropertyOp14
 70
     1
102
RTVSPropertyOp15
 70
     1
102
RTVSPropertyOp16
 70
     1
102
RTVSPropertyOp17
 70
     1
102
RTVSPropertyOp18
 70
     1
102
RTVSPropertyOp19
 70
     1
102
RTVSPropertyOp20
 70
     1
102
RTVSPropertyOp21
 70
     1
102
RTVSPropertyOp22
 70
     1
102
RTVSPropertyOp23
 70
     1
102
RTVSPropertyOp24
 70
     1
102
RTVSPropertyOp25
 70
     1
102
RTVSPropertyOp26
 70
     1
102
RTVSPropertyOp27
 70
     1
102
RTVSPropertyOp28
 70
     1
102
RTVSPropertyOp29
 70
     1
102
RTVSPropertyOp30
 70
     1
102
RTVSPropertyOp31
 70
     1
102
RTVSPropertyOp32
 70
     1
  0
XRECORD
  5
361
102
{ACAD_REACTORS
330
360
102
}
330
360
100
AcDbXrecord
280
     1
102
RTVSPropertyOp0
 70
     1
102
RTVSPropertyOp1
 70
     1
102
RTVSPropertyOp2
 70
     1
102
RTVSPropertyOp3
 70
     1
102
RTVSPropertyOp4
 70
     1
102
RTVSPropertyOp5
 70
     1
102
RTVSPropertyOp6
 70
     1
102
RTVSPropertyOp7
 70
     1
102
RTVSPropertyOp8
 70
     1
102
RTVSPropertyOp9
 70
     1
102
RTVSPropertyOp10
 70
     1
102
RTVSPropertyOp11
 70
     1
102
RTVSPropertyOp12
 70
     1
102
RTVSPropertyOp13
 70
     1
102
RTVSPropertyOp14
 70
     1
102
RTVSPropertyOp15
 70
     1
102
RTVSPropertyOp16
 70
     1
102
RTVSPropertyOp17
 70
     1
102
RTVSPropertyOp18
 70
     1
102
RTVSPropertyOp19
 70
     1
102
RTVSPropertyOp20
 70
     1
102
RTVSPropertyOp21
 70
     1
102
RTVSPropertyOp22
 70
     1
102
RTVSPropertyOp23
 70
     1
102
RTVSPropertyOp24
 70
     1
102
RTVSPropertyOp25
 70
     1
102
RTVSPropertyOp26
 70
     1
102
RTVSPropertyOp27
 70
     1
102
RTVSPropertyOp28
 70
     1
102
RTVSPropertyOp29
 70
     1
102
RTVSPropertyOp30
 70
     1
102
RTVSPropertyOp31
 70
     1
102
RTVSPropertyOp32
 70
     1
  0
XRECORD
  5
363
102
{ACAD_REACTORS
330
362
102
}
330
362
100
AcDbXrecord
280
     1
102
RTVSPropertyOp0
 70
     1
102
RTVSPropertyOp1
 70
     1
102
RTVSPropertyOp2
 70
     1
102
RTVSPropertyOp3
 70
     1
102
RTVSPropertyOp4
 70
     1
102
RTVSPropertyOp5
 70
     1
102
RTVSPropertyOp6
 70
     1
102
RTVSPropertyOp7
 70
     1
102
RTVSPropertyOp8
 70
     1
102
RTVSPropertyOp9
 70
     1
102
RTVSPropertyOp10
 70
     1
102
RTVSPropertyOp11
 70
     1
102
RTVSPropertyOp12
 70
     1
102
RTVSPropertyOp13
 70
     1
102
RTVSPropertyOp14
 70
     1
102
RTVSPropertyOp15
 70
     1
102
RTVSPropertyOp16
 70
     1
102
RTVSPropertyOp17
 70
     1
102
RTVSPropertyOp18
 70
     1
102
RTVSPropertyOp19
 70
     1
102
RTVSPropertyOp20
 70
     1
102
RTVSPropertyOp21
 70
     1
102
RTVSPropertyOp22
 70
     1
102
RTVSPropertyOp23
 70
     1
102
RTVSPropertyOp24
 70
     1
102
RTVSPropertyOp25
 70
     1
102
RTVSPropertyOp26
 70
     1
102
RTVSPropertyOp27
 70
     1
102
RTVSPropertyOp28
 70
     1
102
RTVSPropertyOp29
 70
     1
102
RTVSPropertyOp30
 70
     1
102
RTVSPropertyOp31
 70
     1
102
RTVSPropertyOp32
 70
     1
  0
XRECORD
  5
365
102
{ACAD_REACTORS
330
364
102
}
330
364
100
AcDbXrecord
280
     1
102
RTVSPropertyOp0
 70
     1
102
RTVSPropertyOp1
 70
     1
102
RTVSPropertyOp2
 70
     1
102
RTVSPropertyOp3
 70
     1
102
RTVSPropertyOp4
 70
     1
102
RTVSPropertyOp5
 70
     1
102
RTVSPropertyOp6
 70
     1
102
RTVSPropertyOp7
 70
     1
102
RTVSPropertyOp8
 70
     1
102
RTVSPropertyOp9
 70
     1
102
RTVSPropertyOp10
 70
     1
102
RTVSPropertyOp11
 70
     1
102
RTVSPropertyOp12
 70
     1
102
RTVSPropertyOp13
 70
     1
102
RTVSPropertyOp14
 70
     1
102
RTVSPropertyOp15
 70
     1
102
RTVSPropertyOp16
 70
     1
102
RTVSPropertyOp17
 70
     1
102
RTVSPropertyOp18
 70
     1
102
RTVSPropertyOp19
 70
     1
102
RTVSPropertyOp20
 70
     1
102
RTVSPropertyOp21
 70
     1
102
RTVSPropertyOp22
 70
     1
102
RTVSPropertyOp23
 70
     1
102
RTVSPropertyOp24
 70
     1
102
RTVSPropertyOp25
 70
     1
102
RTVSPropertyOp26
 70
     1
102
RTVSPropertyOp27
 70
     1
102
RTVSPropertyOp28
 70
     1
102
RTVSPropertyOp29
 70
     1
102
RTVSPropertyOp30
 70
     1
102
RTVSPropertyOp31
 70
     1
102
RTVSPropertyOp32
 70
     1
  0
XRECORD
  5
36D
102
{ACAD_REACTORS
330
36C
102
}
330
36C
100
AcDbXrecord
280
     1
102
RTVSPropertyOp0
 70
     1
102
RTVSPropertyOp1
 70
     1
102
RTVSPropertyOp2
 70
     1
102
RTVSPropertyOp3
 70
     1
102
RTVSPropertyOp4
 70
     1
102
RTVSPropertyOp5
 70
     1
102
RTVSPropertyOp6
 70
     1
102
RTVSPropertyOp7
 70
     1
102
RTVSPropertyOp8
 70
     1
102
RTVSPropertyOp9
 70
     1
102
RTVSPropertyOp10
 70
     1
102
RTVSPropertyOp11
 70
     1
102
RTVSPropertyOp12
 70
     1
102
RTVSPropertyOp13
 70
     1
102
RTVSPropertyOp14
 70
     1
102
RTVSPropertyOp15
 70
     1
102
RTVSPropertyOp16
 70
     1
102
RTVSPropertyOp17
 70
     1
102
RTVSPropertyOp18
 70
     1
102
RTVSPropertyOp19
 70
     1
102
RTVSPropertyOp20
 70
     1
102
RTVSPropertyOp21
 70
     1
102
RTVSPropertyOp22
 70
     1
102
RTVSPropertyOp23
 70
     1
102
RTVSPropertyOp24
 70
     1
102
RTVSPropertyOp25
 70
     1
102
RTVSPropertyOp26
 70
     1
102
RTVSPropertyOp27
 70
     1
102
RTVSPropertyOp28
 70
     1
102
RTVSPropertyOp29
 70
     1
102
RTVSPropertyOp30
 70
     1
102
RTVSPropertyOp31
 70
     1
102
RTVSPropertyOp32
 70
     1
  0
XRECORD
  5
389
102
{ACAD_REACTORS
330
388
102
}
330
388
100
AcDbXrecord
280
     1
102
RTVSPropertyOp0
 70
     0
102
RTVSPropertyOp1
 70
     0
102
RTVSPropertyOp2
 70
     0
102
RTVSPropertyOp3
 70
     0
102
RTVSPropertyOp4
 70
     0
102
RTVSPropertyOp5
 70
     0
102
RTVSPropertyOp6
 70
     0
102
RTVSPropertyOp7
 70
     0
102
RTVSPropertyOp8
 70
     0
102
RTVSPropertyOp9
 70
     0
102
RTVSPropertyOp10
 70
     0
102
RTVSPropertyOp11
 70
     0
102
RTVSPropertyOp12
 70
     0
102
RTVSPropertyOp13
 70
     0
102
RTVSPropertyOp14
 70
     2
102
RTVSPropertyOp15
 70
     0
102
RTVSPropertyOp16
 70
     0
102
RTVSPropertyOp17
 70
     0
102
RTVSPropertyOp18
 70
     0
102
RTVSPropertyOp19
 70
     0
102
RTVSPropertyOp20
 70
     0
102
RTVSPropertyOp21
 70
     0
102
RTVSPropertyOp22
 70
     0
102
RTVSPropertyOp23
 70
     0
102
RTVSPropertyOp24
 70
     0
102
RTVSPropertyOp25
 70
     0
102
RTVSPropertyOp26
 70
     0
102
RTVSPropertyOp27
 70
     0
102
RTVSPropertyOp28
 70
     1
102
RTVSPropertyOp29
 70
     1
102
RTVSPropertyOp30
 70
     1
102
RTVSPropertyOp31
 70
     1
102
RTVSPropertyOp32
 70
     1
  0
XRECORD
  5
379
102
{ACAD_REACTORS
330
378
102
}
330
378
100
AcDbXrecord
280
     1
102
RTVSPropertyOp0
 70
     1
102
RTVSPropertyOp1
 70
     1
102
RTVSPropertyOp2
 70
     1
102
RTVSPropertyOp3
 70
     1
102
RTVSPropertyOp4
 70
     1
102
RTVSPropertyOp5
 70
     1
102
RTVSPropertyOp6
 70
     1
102
RTVSPropertyOp7
 70
     1
102
RTVSPropertyOp8
 70
     1
102
RTVSPropertyOp9
 70
     1
102
RTVSPropertyOp10
 70
     1
102
RTVSPropertyOp11
 70
     1
102
RTVSPropertyOp12
 70
     1
102
RTVSPropertyOp13
 70
     1
102
RTVSPropertyOp14
 70
     1
102
RTVSPropertyOp15
 70
     1
102
RTVSPropertyOp16
 70
     1
102
RTVSPropertyOp17
 70
     1
102
RTVSPropertyOp18
 70
     1
102
RTVSPropertyOp19
 70
     1
102
RTVSPropertyOp20
 70
     1
102
RTVSPropertyOp21
 70
     1
102
RTVSPropertyOp22
 70
     1
102
RTVSPropertyOp23
 70
     1
102
RTVSPropertyOp24
 70
     1
102
RTVSPropertyOp25
 70
     1
102
RTVSPropertyOp26
 70
     1
102
RTVSPropertyOp27
 70
     1
102
RTVSPropertyOp28
 70
     1
102
RTVSPropertyOp29
 70
     1
102
RTVSPropertyOp30
 70
     1
102
RTVSPropertyOp31
 70
     1
102
RTVSPropertyOp32
 70
     1
  0
XRECORD
  5
38B
102
{ACAD_REACTORS
330
38A
102
}
330
38A
100
AcDbXrecord
280
     1
102
RTVSPropertyOp0
 70
     0
102
RTVSPropertyOp1
 70
     0
102
RTVSPropertyOp2
 70
     0
102
RTVSPropertyOp3
 70
     0
102
RTVSPropertyOp4
 70
     0
102
RTVSPropertyOp5
 70
     0
102
RTVSPropertyOp6
 70
     0
102
RTVSPropertyOp7
 70
     0
102
RTVSPropertyOp8
 70
     0
102
RTVSPropertyOp9
 70
     0
102
RTVSPropertyOp10
 70
     0
102
RTVSPropertyOp11
 70
     0
102
RTVSPropertyOp12
 70
     0
102
RTVSPropertyOp13
 70
     0
102
RTVSPropertyOp14
 70
     2
102
RTVSPropertyOp15
 70
     0
102
RTVSPropertyOp16
 70
     0
102
RTVSPropertyOp17
 70
     0
102
RTVSPropertyOp18
 70
     0
102
RTVSPropertyOp19
 70
     0
102
RTVSPropertyOp20
 70
     0
102
RTVSPropertyOp21
 70
     0
102
RTVSPropertyOp22
 70
     0
102
RTVSPropertyOp23
 70
     0
102
RTVSPropertyOp24
 70
     0
102
RTVSPropertyOp25
 70
     0
102
RTVSPropertyOp26
 70
     0
102
RTVSPropertyOp27
 70
     0
102
RTVSPropertyOp28
 70
     1
102
RTVSPropertyOp29
 70
     1
102
RTVSPropertyOp30
 70
     1
102
RTVSPropertyOp31
 70
     1
102
RTVSPropertyOp32
 70
     1
  0
XRECORD
  5
371
102
{ACAD_REACTORS
330
370
102
}
330
370
100
AcDbXrecord
280
     1
102
RTVSPropertyOp0
 70
     1
102
RTVSPropertyOp1
 70
     1
102
RTVSPropertyOp2
 70
     1
102
RTVSPropertyOp3
 70
     1
102
RTVSPropertyOp4
 70
     1
102
RTVSPropertyOp5
 70
     1
102
RTVSPropertyOp6
 70
     1
102
RTVSPropertyOp7
 70
     1
102
RTVSPropertyOp8
 70
     1
102
RTVSPropertyOp9
 70
     1
102
RTVSPropertyOp10
 70
     1
102
RTVSPropertyOp11
 70
     1
102
RTVSPropertyOp12
 70
     1
102
RTVSPropertyOp13
 70
     1
102
RTVSPropertyOp14
 70
     1
102
RTVSPropertyOp15
 70
     1
102
RTVSPropertyOp16
 70
     1
102
RTVSPropertyOp17
 70
     1
102
RTVSPropertyOp18
 70
     1
102
RTVSPropertyOp19
 70
     1
102
RTVSPropertyOp20
 70
     1
102
RTVSPropertyOp21
 70
     1
102
RTVSPropertyOp22
 70
     1
102
RTVSPropertyOp23
 70
     1
102
RTVSPropertyOp24
 70
     1
102
RTVSPropertyOp25
 70
     1
102
RTVSPropertyOp26
 70
     1
102
RTVSPropertyOp27
 70
     1
102
RTVSPropertyOp28
 70
     1
102
RTVSPropertyOp29
 70
     1
102
RTVSPropertyOp30
 70
     1
102
RTVSPropertyOp31
 70
     1
102
RTVSPropertyOp32
 70
     1
  0
XRECORD
  5
387
102
{ACAD_REACTORS
330
386
102
}
330
386
100
AcDbXrecord
280
     1
102
RTVSPropertyOp0
 70
     1
102
RTVSPropertyOp1
 70
     1
102
RTVSPropertyOp2
 70
     1
102
RTVSPropertyOp3
 70
     1
102
RTVSPropertyOp4
 70
     1
102
RTVSPropertyOp5
 70
     1
102
RTVSPropertyOp6
 70
     1
102
RTVSPropertyOp7
 70
     1
102
RTVSPropertyOp8
 70
     1
102
RTVSPropertyOp9
 70
     1
102
RTVSPropertyOp10
 70
     1
102
RTVSPropertyOp11
 70
     1
102
RTVSPropertyOp12
 70
     1
102
RTVSPropertyOp13
 70
     1
102
RTVSPropertyOp14
 70
     1
102
RTVSPropertyOp15
 70
     1
102
RTVSPropertyOp16
 70
     1
102
RTVSPropertyOp17
 70
     1
102
RTVSPropertyOp18
 70
     1
102
RTVSPropertyOp19
 70
     1
102
RTVSPropertyOp20
 70
     1
102
RTVSPropertyOp21
 70
     1
102
RTVSPropertyOp22
 70
     1
102
RTVSPropertyOp23
 70
     1
102
RTVSPropertyOp24
 70
     1
102
RTVSPropertyOp25
 70
     1
102
RTVSPropertyOp26
 70
     1
102
RTVSPropertyOp27
 70
     1
102
RTVSPropertyOp28
 70
     1
102
RTVSPropertyOp29
 70
     1
102
RTVSPropertyOp30
 70
     1
102
RTVSPropertyOp31
 70
     1
102
RTVSPropertyOp32
 70
     1
  0
XRECORD
  5
385
102
{ACAD_REACTORS
330
384
102
}
330
384
100
AcDbXrecord
280
     1
102
RTVSPropertyOp0
 70
     1
102
RTVSPropertyOp1
 70
     1
102
RTVSPropertyOp2
 70
     1
102
RTVSPropertyOp3
 70
     1
102
RTVSPropertyOp4
 70
     1
102
RTVSPropertyOp5
 70
     1
102
RTVSPropertyOp6
 70
     1
102
RTVSPropertyOp7
 70
     1
102
RTVSPropertyOp8
 70
     1
102
RTVSPropertyOp9
 70
     1
102
RTVSPropertyOp10
 70
     1
102
RTVSPropertyOp11
 70
     1
102
RTVSPropertyOp12
 70
     1
102
RTVSPropertyOp13
 70
     1
102
RTVSPropertyOp14
 70
     1
102
RTVSPropertyOp15
 70
     1
102
RTVSPropertyOp16
 70
     1
102
RTVSPropertyOp17
 70
     1
102
RTVSPropertyOp18
 70
     1
102
RTVSPropertyOp19
 70
     1
102
RTVSPropertyOp20
 70
     1
102
RTVSPropertyOp21
 70
     1
102
RTVSPropertyOp22
 70
     1
102
RTVSPropertyOp23
 70
     1
102
RTVSPropertyOp24
 70
     1
102
RTVSPropertyOp25
 70
     1
102
RTVSPropertyOp26
 70
     1
102
RTVSPropertyOp27
 70
     1
102
RTVSPropertyOp28
 70
     1
102
RTVSPropertyOp29
 70
     1
102
RTVSPropertyOp30
 70
     1
102
RTVSPropertyOp31
 70
     1
102
RTVSPropertyOp32
 70
     1
  0
XRECORD
  5
37F
102
{ACAD_REACTORS
330
37E
102
}
330
37E
100
AcDbXrecord
280
     1
102
RTVSPropertyOp0
 70
     1
102
RTVSPropertyOp1
 70
     1
102
RTVSPropertyOp2
 70
     1
102
RTVSPropertyOp3
 70
     1
102
RTVSPropertyOp4
 70
     1
102
RTVSPropertyOp5
 70
     1
102
RTVSPropertyOp6
 70
     1
102
RTVSPropertyOp7
 70
     1
102
RTVSPropertyOp8
 70
     1
102
RTVSPropertyOp9
 70
     1
102
RTVSPropertyOp10
 70
     1
102
RTVSPropertyOp11
 70
     1
102
RTVSPropertyOp12
 70
     1
102
RTVSPropertyOp13
 70
     1
102
RTVSPropertyOp14
 70
     1
102
RTVSPropertyOp15
 70
     1
102
RTVSPropertyOp16
 70
     1
102
RTVSPropertyOp17
 70
     1
102
RTVSPropertyOp18
 70
     1
102
RTVSPropertyOp19
 70
     1
102
RTVSPropertyOp20
 70
     1
102
RTVSPropertyOp21
 70
     1
102
RTVSPropertyOp22
 70
     1
102
RTVSPropertyOp23
 70
     1
102
RTVSPropertyOp24
 70
     1
102
RTVSPropertyOp25
 70
     1
102
RTVSPropertyOp26
 70
     1
102
RTVSPropertyOp27
 70
     1
102
RTVSPropertyOp28
 70
     1
102
RTVSPropertyOp29
 70
     1
102
RTVSPropertyOp30
 70
     1
102
RTVSPropertyOp31
 70
     1
102
RTVSPropertyOp32
 70
     1
  0
XRECORD
  5
381
102
{ACAD_REACTORS
330
380
102
}
330
380
100
AcDbXrecord
280
     1
102
RTVSPropertyOp0
 70
     1
102
RTVSPropertyOp1
 70
     1
102
RTVSPropertyOp2
 70
     1
102
RTVSPropertyOp3
 70
     1
102
RTVSPropertyOp4
 70
     1
102
RTVSPropertyOp5
 70
     1
102
RTVSPropertyOp6
 70
     1
102
RTVSPropertyOp7
 70
     1
102
RTVSPropertyOp8
 70
     1
102
RTVSPropertyOp9
 70
     1
102
RTVSPropertyOp10
 70
     1
102
RTVSPropertyOp11
 70
     1
102
RTVSPropertyOp12
 70
     1
102
RTVSPropertyOp13
 70
     1
102
RTVSPropertyOp14
 70
     1
102
RTVSPropertyOp15
 70
     1
102
RTVSPropertyOp16
 70
     1
102
RTVSPropertyOp17
 70
     1
102
RTVSPropertyOp18
 70
     1
102
RTVSPropertyOp19
 70
     1
102
RTVSPropertyOp20
 70
     1
102
RTVSPropertyOp21
 70
     1
102
RTVSPropertyOp22
 70
     1
102
RTVSPropertyOp23
 70
     1
102
RTVSPropertyOp24
 70
     1
102
RTVSPropertyOp25
 70
     1
102
RTVSPropertyOp26
 70
     1
102
RTVSPropertyOp27
 70
     1
102
RTVSPropertyOp28
 70
     1
102
RTVSPropertyOp29
 70
     1
102
RTVSPropertyOp30
 70
     1
102
RTVSPropertyOp31
 70
     1
102
RTVSPropertyOp32
 70
     1
  0
XRECORD
  5
377
102
{ACAD_REACTORS
330
376
102
}
330
376
100
AcDbXrecord
280
     1
102
RTVSPropertyOp0
 70
     1
102
RTVSPropertyOp1
 70
     1
102
RTVSPropertyOp2
 70
     1
102
RTVSPropertyOp3
 70
     1
102
RTVSPropertyOp4
 70
     1
102
RTVSPropertyOp5
 70
     1
102
RTVSPropertyOp6
 70
     1
102
RTVSPropertyOp7
 70
     1
102
RTVSPropertyOp8
 70
     1
102
RTVSPropertyOp9
 70
     1
102
RTVSPropertyOp10
 70
     1
102
RTVSPropertyOp11
 70
     1
102
RTVSPropertyOp12
 70
     1
102
RTVSPropertyOp13
 70
     1
102
RTVSPropertyOp14
 70
     1
102
RTVSPropertyOp15
 70
     1
102
RTVSPropertyOp16
 70
     1
102
RTVSPropertyOp17
 70
     1
102
RTVSPropertyOp18
 70
     1
102
RTVSPropertyOp19
 70
     1
102
RTVSPropertyOp20
 70
     1
102
RTVSPropertyOp21
 70
     1
102
RTVSPropertyOp22
 70
     1
102
RTVSPropertyOp23
 70
     1
102
RTVSPropertyOp24
 70
     1
102
RTVSPropertyOp25
 70
     1
102
RTVSPropertyOp26
 70
     1
102
RTVSPropertyOp27
 70
     1
102
RTVSPropertyOp28
 70
     1
102
RTVSPropertyOp29
 70
     1
102
RTVSPropertyOp30
 70
     1
102
RTVSPropertyOp31
 70
     1
102
RTVSPropertyOp32
 70
     1
  0
XRECORD
  5
36B
102
{ACAD_REACTORS
330
36A
102
}
330
36A
100
AcDbXrecord
280
     1
102
RTVSPropertyOp0
 70
     1
102
RTVSPropertyOp1
 70
     1
102
RTVSPropertyOp2
 70
     1
102
RTVSPropertyOp3
 70
     1
102
RTVSPropertyOp4
 70
     1
102
RTVSPropertyOp5
 70
     1
102
RTVSPropertyOp6
 70
     1
102
RTVSPropertyOp7
 70
     1
102
RTVSPropertyOp8
 70
     1
102
RTVSPropertyOp9
 70
     1
102
RTVSPropertyOp10
 70
     1
102
RTVSPropertyOp11
 70
     1
102
RTVSPropertyOp12
 70
     1
102
RTVSPropertyOp13
 70
     1
102
RTVSPropertyOp14
 70
     1
102
RTVSPropertyOp15
 70
     1
102
RTVSPropertyOp16
 70
     1
102
RTVSPropertyOp17
 70
     1
102
RTVSPropertyOp18
 70
     1
102
RTVSPropertyOp19
 70
     1
102
RTVSPropertyOp20
 70
     1
102
RTVSPropertyOp21
 70
     1
102
RTVSPropertyOp22
 70
     1
102
RTVSPropertyOp23
 70
     1
102
RTVSPropertyOp24
 70
     1
102
RTVSPropertyOp25
 70
     1
102
RTVSPropertyOp26
 70
     1
102
RTVSPropertyOp27
 70
     1
102
RTVSPropertyOp28
 70
     1
102
RTVSPropertyOp29
 70
     1
102
RTVSPropertyOp30
 70
     1
102
RTVSPropertyOp31
 70
     1
102
RTVSPropertyOp32
 70
     1
  0
XRECORD
  5
383
102
{ACAD_REACTORS
330
382
102
}
330
382
100
AcDbXrecord
280
     1
102
RTVSPropertyOp0
 70
     1
102
RTVSPropertyOp1
 70
     1
102
RTVSPropertyOp2
 70
     1
102
RTVSPropertyOp3
 70
     1
102
RTVSPropertyOp4
 70
     1
102
RTVSPropertyOp5
 70
     1
102
RTVSPropertyOp6
 70
     1
102
RTVSPropertyOp7
 70
     1
102
RTVSPropertyOp8
 70
     1
102
RTVSPropertyOp9
 70
     1
102
RTVSPropertyOp10
 70
     1
102
RTVSPropertyOp11
 70
     1
102
RTVSPropertyOp12
 70
     1
102
RTVSPropertyOp13
 70
     1
102
RTVSPropertyOp14
 70
     1
102
RTVSPropertyOp15
 70
     1
102
RTVSPropertyOp16
 70
     1
102
RTVSPropertyOp17
 70
     1
102
RTVSPropertyOp18
 70
     1
102
RTVSPropertyOp19
 70
     1
102
RTVSPropertyOp20
 70
     1
102
RTVSPropertyOp21
 70
     1
102
RTVSPropertyOp22
 70
     1
102
RTVSPropertyOp23
 70
     1
102
RTVSPropertyOp24
 70
     1
102
RTVSPropertyOp25
 70
     1
102
RTVSPropertyOp26
 70
     1
102
RTVSPropertyOp27
 70
     1
102
RTVSPropertyOp28
 70
     1
102
RTVSPropertyOp29
 70
     1
102
RTVSPropertyOp30
 70
     1
102
RTVSPropertyOp31
 70
     1
102
RTVSPropertyOp32
 70
     1
  0
ENDSEC
  0
EOF
