  0
SECTION
  2
HEADER
  9
$ACADVER
  1
AC1015
  9
$ACADMAINTVER
 70
    20
  9
$DWGCODEPAGE
  3
ANSI_1252
  9
$INSBASE
 10
0.0
 20
0.0
 30
0.0
  9
$EXTMIN
 10
0.5000000000000013
 20
0.4999999999999999
 30
0.0
  9
$EXTMAX
 10
16.5
 20
10.5
 30
0.0
  9
$LIMMIN
 10
0.0
 20
0.0
  9
$LIMMAX
 10
17.0
 20
11.0
  9
$ORTHOMODE
 70
     0
  9
$REGENMODE
 70
     1
  9
$FILLMODE
 70
     1
  9
$QTEXTMODE
 70
     0
  9
$MIRRTEXT
 70
     0
  9
$LTSCALE
 40
1.0
  9
$ATTMODE
 70
     1
  9
$TEXTSIZE
 40
0.2
  9
$TRACEWID
 40
0.05
  9
$TEXTSTYLE
  7
Standard
  9
$CLAYER
  8
0
  9
$CELTYPE
  6
ByLayer
  9
$CECOLOR
 62
   256
  9
$CELTSCALE
 40
1.0
  9
$DISPSILH
 70
     0
  9
$DIMSCALE
 40
1.0
  9
$DIMASZ
 40
0.0708661417322835
  9
$DIMEXO
 40
0.0625
  9
$DIMDLI
 40
0.38
  9
$DIMRND
 40
0.0
  9
$DIMDLE
 40
0.0
  9
$DIMEXE
 40
0.18
  9
$DIMTP
 40
0.0
  9
$DIMTM
 40
0.0
  9
$DIMTXT
 40
0.0708661417322835
  9
$DIMCEN
 40
0.09
  9
$DIMTSZ
 40
0.0
  9
$DIMTOL
 70
     0
  9
$DIMLIM
 70
     0
  9
$DIMTIH
 70
     1
  9
$DIMTOH
 70
     1
  9
$DIMSE1
 70
     0
  9
$DIMSE2
 70
     0
  9
$DIMTAD
 70
     0
  9
$DIMZIN
 70
     0
  9
$DIMBLK
  1

  9
$DIMASO
 70
     1
  9
$DIMSHO
 70
     1
  9
$DIMPOST
  1

  9
$DIMAPOST
  1

  9
$DIMALT
 70
     0
  9
$DIMALTD
 70
     2
  9
$DIMALTF
 40
25.4
  9
$DIMLFAC
 40
1.0
  9
$DIMTOFL
 70
     0
  9
$DIMTVP
 40
0.0
  9
$DIMTIX
 70
     0
  9
$DIMSOXD
 70
     0
  9
$DIMSAH
 70
     0
  9
$DIMBLK1
  1

  9
$DIMBLK2
  1

  9
$DIMSTYLE
  2
Standard
  9
$DIMCLRD
 70
     0
  9
$DIMCLRE
 70
     0
  9
$DIMCLRT
 70
     0
  9
$DIMTFAC
 40
1.0
  9
$DIMGAP
 40
0.09
  9
$DIMJUST
 70
     0
  9
$DIMSD1
 70
     0
  9
$DIMSD2
 70
     0
  9
$DIMTOLJ
 70
     1
  9
$DIMTZIN
 70
     0
  9
$DIMALTZ
 70
     0
  9
$DIMALTTZ
 70
     0
  9
$DIMUPT
 70
     0
  9
$DIMDEC
 70
     4
  9
$DIMTDEC
 70
     4
  9
$DIMALTU
 70
     2
  9
$DIMALTTD
 70
     2
  9
$DIMTXSTY
  7
Standard
  9
$DIMAUNIT
 70
     0
  9
$DIMADEC
 70
     0
  9
$DIMALTRND
 40
0.0
  9
$DIMAZIN
 70
     0
  9
$DIMDSEP
 70
    46
  9
$DIMATFIT
 70
     3
  9
$DIMFRAC
 70
     0
  9
$DIMLDRBLK
  1

  9
$DIMLUNIT
 70
     2
  9
$DIMLWD
 70
    -2
  9
$DIMLWE
 70
    -2
  9
$DIMTMOVE
 70
     0
  9
$LUNITS
 70
     2
  9
$LUPREC
 70
     4
  9
$SKETCHINC
 40
0.1
  9
$FILLETRAD
 40
0.0
  9
$AUNITS
 70
     0
  9
$AUPREC
 70
     0
  9
$MENU
  1
.
  9
$ELEVATION
 40
0.0
  9
$PELEVATION
 40
0.0
  9
$THICKNESS
 40
0.0
  9
$LIMCHECK
 70
     0
  9
$CHAMFERA
 40
0.0
  9
$CHAMFERB
 40
0.0
  9
$CHAMFERC
 40
0.0
  9
$CHAMFERD
 40
0.0
  9
$SKPOLY
 70
     0
  9
$TDCREATE
 40
2456038.564168403
  9
$TDUCREATE
 40
2456038.855835069
  9
$TDUPDATE
 40
2456038.590807106
  9
$TDUUPDATE
 40
2456038.882473773
  9
$TDINDWG
 40
0.0015623032
  9
$TDUSRTIMER
 40
0.0015623032
  9
$USRTIMER
 70
     1
  9
$ANGBASE
 50
0.0
  9
$ANGDIR
 70
     0
  9
$PDMODE
 70
     0
  9
$PDSIZE
 40
0.0
  9
$PLINEWID
 40
0.0
  9
$SPLFRAME
 70
     0
  9
$SPLINETYPE
 70
     6
  9
$SPLINESEGS
 70
     8
  9
$HANDSEED
  5
3C7
  9
$SURFTAB1
 70
     6
  9
$SURFTAB2
 70
     6
  9
$SURFTYPE
 70
     6
  9
$SURFU
 70
     6
  9
$SURFV
 70
     6
  9
$UCSBASE
  2

  9
$UCSNAME
  2

  9
$UCSORG
 10
0.0
 20
0.0
 30
0.0
  9
$UCSXDIR
 10
1.0
 20
0.0
 30
0.0
  9
$UCSYDIR
 10
0.0
 20
1.0
 30
0.0
  9
$UCSORTHOREF
  2

  9
$UCSORTHOVIEW
 70
     0
  9
$UCSORGTOP
 10
0.0
 20
0.0
 30
0.0
  9
$UCSORGBOTTOM
 10
0.0
 20
0.0
 30
0.0
  9
$UCSORGLEFT
 10
0.0
 20
0.0
 30
0.0
  9
$UCSORGRIGHT
 10
0.0
 20
0.0
 30
0.0
  9
$UCSORGFRONT
 10
0.0
 20
0.0
 30
0.0
  9
$UCSORGBACK
 10
0.0
 20
0.0
 30
0.0
  9
$PUCSBASE
  2

  9
$PUCSNAME
  2

  9
$PUCSORG
 10
0.0
 20
0.0
 30
0.0
  9
$PUCSXDIR
 10
1.0
 20
0.0
 30
0.0
  9
$PUCSYDIR
 10
0.0
 20
1.0
 30
0.0
  9
$PUCSORTHOREF
  2

  9
$PUCSORTHOVIEW
 70
     0
  9
$PUCSORGTOP
 10
0.0
 20
0.0
 30
0.0
  9
$PUCSORGBOTTOM
 10
0.0
 20
0.0
 30
0.0
  9
$PUCSORGLEFT
 10
0.0
 20
0.0
 30
0.0
  9
$PUCSORGRIGHT
 10
0.0
 20
0.0
 30
0.0
  9
$PUCSORGFRONT
 10
0.0
 20
0.0
 30
0.0
  9
$PUCSORGBACK
 10
0.0
 20
0.0
 30
0.0
  9
$USERI1
 70
     0
  9
$USERI2
 70
     0
  9
$USERI3
 70
     0
  9
$USERI4
 70
     0
  9
$USERI5
 70
     0
  9
$USERR1
 40
0.0
  9
$USERR2
 40
0.0
  9
$USERR3
 40
0.0
  9
$USERR4
 40
0.0
  9
$USERR5
 40
0.0
  9
$WORLDVIEW
 70
     1
  9
$SHADEDGE
 70
     3
  9
$SHADEDIF
 70
    70
  9
$TILEMODE
 70
     1
  9
$MAXACTVP
 70
    64
  9
$PINSBASE
 10
0.0
 20
0.0
 30
0.0
  9
$PLIMCHECK
 70
     0
  9
$PEXTMIN
 10
0.0
 20
0.0
 30
0.0
  9
$PEXTMAX
 10
17.0
 20
11.0
 30
0.0
  9
$PLIMMIN
 10
0.0
 20
0.0
  9
$PLIMMAX
 10
17.0
 20
11.0
  9
$UNITMODE
 70
     0
  9
$VISRETAIN
 70
     1
  9
$PLINEGEN
 70
     0
  9
$PSLTSCALE
 70
     1
  9
$TREEDEPTH
 70
  3020
  9
$CMLSTYLE
  2
Standard
  9
$CMLJUST
 70
     0
  9
$CMLSCALE
 40
1.0
  9
$PROXYGRAPHICS
 70
     1
  9
$MEASUREMENT
 70
     0
  9
$CELWEIGHT
370
    -1
  9
$ENDCAPS
280
     0
  9
$JOINSTYLE
280
     0
  9
$LWDISPLAY
290
     0
  9
$INSUNITS
 70
     1
  9
$HYPERLINKBASE
  1

  9
$STYLESHEET
  1

  9
$XEDIT
290
     1
  9
$CEPSNTYPE
380
     0
  9
$PSTYLEMODE
290
     1
  9
$FINGERPRINTGUID
  2
{6665E0A0-1110-4A28-AABA-7E3520AD5EFA}
  9
$VERSIONGUID
  2
{7DCB88D1-6FDD-497B-9434-AD8546D7A726}
  9
$EXTNAMES
290
     1
  9
$PSVPSCALE
 40
0.0
  9
$OLESTARTUP
290
     0
  0
ENDSEC
  0
SECTION
  2
CLASSES
  0
CLASS
  1
ACDBDICTIONARYWDFLT
  2
AcDbDictionaryWithDefault
  3
ObjectDBX Classes
 90
        0
280
     0
281
     0
  0
CLASS
  1
MATERIAL
  2
AcDbMaterial
  3
ObjectDBX Classes
 90
     1153
280
     0
281
     0
  0
CLASS
  1
VISUALSTYLE
  2
AcDbVisualStyle
  3
ObjectDBX Classes
 90
     4095
280
     0
281
     0
  0
CLASS
  1
SCALE
  2
AcDbScale
  3
ObjectDBX Classes
 90
     1153
280
     0
281
     0
  0
CLASS
  1
TABLESTYLE
  2
AcDbTableStyle
  3
ObjectDBX Classes
 90
     4095
280
     0
281
     0
  0
CLASS
  1
MLEADERSTYLE
  2
AcDbMLeaderStyle
  3
ACDB_MLEADERSTYLE_CLASS
 90
     4095
280
     0
281
     0
  0
CLASS
  1
DICTIONARYVAR
  2
AcDbDictionaryVar
  3
ObjectDBX Classes
 90
        0
280
     0
281
     0
  0
CLASS
  1
CELLSTYLEMAP
  2
AcDbCellStyleMap
  3
ObjectDBX Classes
 90
     1152
280
     0
281
     0
  0
CLASS
  1
ACDBPLACEHOLDER
  2
AcDbPlaceHolder
  3
ObjectDBX Classes
 90
        0
280
     0
281
     0
  0
CLASS
  1
LAYOUT
  2
AcDbLayout
  3
ObjectDBX Classes
 90
        0
280
     0
281
     0
  0
ENDSEC
  0
SECTION
  2
TABLES
  0
TABLE
  2
VPORT
  5
8
102
{ACAD_XDICTIONARY
360
33A
102
}
330
0
100
AcDbSymbolTable
 70
     1
  0
VPORT
  5
57
330
8
100
AcDbSymbolTableRecord
100
AcDbViewportTableRecord
  2
*Active
 70
     0
 10
0.0
 20
0.0
 11
1.0
 21
1.0
 12
11.56649282920469
 22
5.5
 13
0.0
 23
0.0
 14
1.0
 24
1.0
 15
0.0
 25
0.0
 16
0.0
 26
0.0
 36
1.0
 17
0.0
 27
0.0
 37
0.0
 40
11.00477534477828
 41
2.102998696219035
 42
50.0
 43
0.0
 44
0.0
 50
0.0
 51
0.0
 71
     0
 72
   100
 73
     1
 74
     1
 75
     0
 76
     0
 77
     0
 78
     0
281
     0
 65
     1
110
0.0
120
0.0
130
0.0
111
1.0
121
0.0
131
0.0
112
0.0
122
1.0
132
0.0
 79
     0
146
0.0
1001
ACAD_NAV_VCDISPLAY
1070
     3
  0
ENDTAB
  0
TABLE
  2
LTYPE
  5
5
330
0
100
AcDbSymbolTable
 70
    59
  0
LTYPE
  5
5B
330
5
100
AcDbSymbolTableRecord
100
AcDbLinetypeTableRecord
  2
ByBlock
 70
     0
  3

 72
    65
 73
     0
 40
0.0
  0
LTYPE
  5
5C
330
5
100
AcDbSymbolTableRecord
100
AcDbLinetypeTableRecord
  2
ByLayer
 70
     0
  3

 72
    65
 73
     0
 40
0.0
  0
LTYPE
  5
5D
330
5
100
AcDbSymbolTableRecord
100
AcDbLinetypeTableRecord
  2
Continuous
 70
     0
  3
Solid line
 72
    65
 73
     0
 40
0.0
  0
LTYPE
  5
7C
330
5
100
AcDbSymbolTableRecord
100
AcDbLinetypeTableRecord
  2
BY_STANDARD
 70
     0
  3
By Standard ____________    ____    ____   _
 72
    65
 73
     6
 40
1.240299999999999
 49
0.6614
 74
     0
 49
-0.0827
 74
     0
 49
0.1654
 74
     0
 49
-0.0827
 74
     0
 49
0.1654
 74
     0
 49
-0.0827
 74
     0
  0
LTYPE
  5
7D
330
5
100
AcDbSymbolTableRecord
100
AcDbLinetypeTableRecord
  2
CHAIN
 70
     0
  3
Chain ____ _ ____ _ ____ _ ____ _ ____ _ ____
 72
    65
 73
     4
 40
0.7087
 49
0.4724000000000001
 74
     0
 49
-0.0591
 74
     0
 49
0.1181
 74
     0
 49
-0.0591
 74
     0
  0
LTYPE
  5
7E
330
5
100
AcDbSymbolTableRecord
100
AcDbLinetypeTableRecord
  2
DASH_DOT
 70
     0
  3
Dash dot __ . __ . __ . __ . __ . __ . __ . __
 72
    65
 73
     4
 40
0.37
 49
0.24
 74
     0
 49
-0.06
 74
     0
 49
0.01
 74
     0
 49
-0.06
 74
     0
  0
LTYPE
  5
7F
330
5
100
AcDbSymbolTableRecord
100
AcDbLinetypeTableRecord
  2
DOUBLE_DASH_DOT
 70
     0
  3
Double-Dash Dot __ __ . __ __ . __ __ . __ _
 72
    65
 73
     6
 40
0.4398
 49
0.24
 74
     0
 49
-0.06
 74
     0
 49
0.0098
 74
     0
 49
-0.06
 74
     0
 49
0.01
 74
     0
 49
-0.06
 74
     0
  0
LTYPE
  5
80
330
5
100
AcDbSymbolTableRecord
100
AcDbLinetypeTableRecord
  2
DASH_TRIPLE_DOT
 70
     0
  3
Dash Triple-Dot _ . . . _ . . . _ . . . _
 72
    65
 73
     8
 40
0.51
 49
0.24
 74
     0
 49
-0.06
 74
     0
 49
0.01
 74
     0
 49
-0.06
 74
     0
 49
0.01
 74
     0
 49
-0.06
 74
     0
 49
0.01
 74
     0
 49
-0.06
 74
     0
  0
LTYPE
  5
81
330
5
100
AcDbSymbolTableRecord
100
AcDbLinetypeTableRecord
  2
DASHED
 70
     0
  3
Dashed __ __ __ __ __ __ __ __ __ __ __ __ __ _
 72
    65
 73
     2
 40
0.2067
 49
0.1654
 74
     0
 49
-0.0413
 74
     0
  0
LTYPE
  5
82
330
5
100
AcDbSymbolTableRecord
100
AcDbLinetypeTableRecord
  2
DASH_DOUBLE_DOT
 70
     0
  3
Dash Double-Dot __ . . __ . . __ . . __ . .
 72
    65
 73
     6
 40
0.4398
 49
0.24
 74
     0
 49
-0.06
 74
     0
 49
0.0098
 74
     0
 49
-0.06
 74
     0
 49
0.01
 74
     0
 49
-0.06
 74
     0
  0
LTYPE
  5
83
330
5
100
AcDbSymbolTableRecord
100
AcDbLinetypeTableRecord
  2
DASHED_SPACE
 70
     0
  3
Dashed Space __ __ __ __ __ __ __ __ __ __ __ _
 72
    65
 73
     2
 40
0.2067
 49
0.1654
 74
     0
 49
-0.0413
 74
     0
  0
LTYPE
  5
84
330
5
100
AcDbSymbolTableRecord
100
AcDbLinetypeTableRecord
  2
DOTTED
 70
     0
  3
Dotted . . . . . . . . . . . . . . . . . . . . 
 72
    65
 73
     2
 40
0.0482
 49
0.0069
 74
     0
 49
-0.0413
 74
     0
  0
LTYPE
  5
85
330
5
100
AcDbSymbolTableRecord
100
AcDbLinetypeTableRecord
  2
DOUBLE_DASH_CHAIN
 70
     0
  3
Double-Dash Chain ______  __  __  ______  __  _
 72
    65
 73
     6
 40
1.240299999999999
 49
0.6614
 74
     0
 49
-0.0827
 74
     0
 49
0.1654
 74
     0
 49
-0.0827
 74
     0
 49
0.1654
 74
     0
 49
-0.0827
 74
     0
  0
LTYPE
  5
87
330
5
100
AcDbSymbolTableRecord
100
AcDbLinetypeTableRecord
  2
DOUBLE_DASH_DOUBLE_DOT
 70
     0
  3
Double-Dash Double-dot _ _ . . _ _ . . _
 72
    65
 73
     8
 40
0.7400000000000001
 49
0.24
 74
     0
 49
-0.06
 74
     0
 49
0.24
 74
     0
 49
-0.06
 74
     0
 49
0.01
 74
     0
 49
-0.06
 74
     0
 49
0.01
 74
     0
 49
-0.06
 74
     0
  0
LTYPE
  5
88
330
5
100
AcDbSymbolTableRecord
100
AcDbLinetypeTableRecord
  2
DOUBLE_DASH_TRIPLE_DOT
 70
     0
  3
Double Dash Triple Dot __ __ . . . __ __ . .
 72
    65
 73
    10
 40
0.8100000000000001
 49
0.24
 74
     0
 49
-0.06
 74
     0
 49
0.24
 74
     0
 49
-0.06
 74
     0
 49
0.01
 74
     0
 49
-0.06
 74
     0
 49
0.01
 74
     0
 49
-0.06
 74
     0
 49
0.01
 74
     0
 49
-0.06
 74
     0
  0
LTYPE
  5
89
330
5
100
AcDbSymbolTableRecord
100
AcDbLinetypeTableRecord
  2
LONG_DASH_DOTTED
 70
     0
  3
Long Dash Dotted ____ . ____ . ____ . ____ . _
 72
    65
 73
     4
 40
0.3543
 49
0.2362
 74
     0
 49
-0.0295
 74
     0
 49
0.0591
 74
     0
 49
-0.0295
 74
     0
  0
LTYPE
  5
8A
330
5
100
AcDbSymbolTableRecord
100
AcDbLinetypeTableRecord
  2
LONG_DASH_DOUBLE_DOT
 70
     0
  3
Long Dash Double Dot ________  .  .  ________  
 72
    65
 73
     6
 40
0.6799999999999999
 49
0.48
 74
     0
 49
-0.06
 74
     0
 49
0.01
 74
     0
 49
-0.06
 74
     0
 49
0.01
 74
     0
 49
-0.06
 74
     0
  0
LTYPE
  5
8B
330
5
100
AcDbSymbolTableRecord
100
AcDbLinetypeTableRecord
  2
LONG_DASH_TRIPLE_DOT
 70
     0
  3
Long Dash Triple Dot ____ ... ____ ... ____
 72
    65
 73
     8
 40
0.3689
 49
0.2362
 74
     0
 49
-0.0295
 74
     0
 49
0.0049
 74
     0
 49
-0.0295
 74
     0
 49
0.0049
 74
     0
 49
-0.0295
 74
     0
 49
0.0049
 74
     0
 49
-0.0295
 74
     0
  0
LTYPE
  5
8C
330
5
100
AcDbSymbolTableRecord
100
AcDbLinetypeTableRecord
  2
BORDER
 70
     0
  3
Border __ __ . __ __ . __ __ . __ __ . __ __ .
 72
    65
 73
     6
 40
1.75
 49
0.5
 74
     0
 49
-0.25
 74
     0
 49
0.5
 74
     0
 49
-0.25
 74
     0
 49
0.0
 74
     0
 49
-0.25
 74
     0
  0
LTYPE
  5
8D
330
5
100
AcDbSymbolTableRecord
100
AcDbLinetypeTableRecord
  2
BORDER2
 70
     0
  3
Border (.5x) __.__.__.__.__.__.__.__.__.__.__.
 72
    65
 73
     6
 40
0.875
 49
0.25
 74
     0
 49
-0.125
 74
     0
 49
0.25
 74
     0
 49
-0.125
 74
     0
 49
0.0
 74
     0
 49
-0.125
 74
     0
  0
LTYPE
  5
8E
330
5
100
AcDbSymbolTableRecord
100
AcDbLinetypeTableRecord
  2
BORDERX2
 70
     0
  3
Border (2x) ____  ____  .  ____  ____  .  ___
 72
    65
 73
     6
 40
3.5
 49
1.0
 74
     0
 49
-0.5
 74
     0
 49
1.0
 74
     0
 49
-0.5
 74
     0
 49
0.0
 74
     0
 49
-0.5
 74
     0
  0
LTYPE
  5
8F
330
5
100
AcDbSymbolTableRecord
100
AcDbLinetypeTableRecord
  2
CENTER
 70
     0
  3
Center ____ _ ____ _ ____ _ ____ _ ____ _ ____
 72
    65
 73
     4
 40
2.0
 49
1.25
 74
     0
 49
-0.25
 74
     0
 49
0.25
 74
     0
 49
-0.25
 74
     0
  0
LTYPE
  5
90
330
5
100
AcDbSymbolTableRecord
100
AcDbLinetypeTableRecord
  2
CENTER2
 70
     0
  3
Center (.5x) ___ _ ___ _ ___ _ ___ _ ___ _ ___
 72
    65
 73
     4
 40
1.125
 49
0.75
 74
     0
 49
-0.125
 74
     0
 49
0.125
 74
     0
 49
-0.125
 74
     0
  0
LTYPE
  5
91
330
5
100
AcDbSymbolTableRecord
100
AcDbLinetypeTableRecord
  2
CENTERX2
 70
     0
  3
Center (2x) ________  __  ________  __  _____
 72
    65
 73
     4
 40
4.0
 49
2.5
 74
     0
 49
-0.5
 74
     0
 49
0.5
 74
     0
 49
-0.5
 74
     0
  0
LTYPE
  5
92
330
5
100
AcDbSymbolTableRecord
100
AcDbLinetypeTableRecord
  2
DASHDOT2
 70
     0
  3
Dash dot (.5x) _._._._._._._._._._._._._._._.
 72
    65
 73
     4
 40
0.5
 49
0.25
 74
     0
 49
-0.125
 74
     0
 49
0.0
 74
     0
 49
-0.125
 74
     0
  0
LTYPE
  5
93
330
5
100
AcDbSymbolTableRecord
100
AcDbLinetypeTableRecord
  2
DASHDOTX2
 70
     0
  3
Dash dot (2x) ____  .  ____  .  ____  .  ___
 72
    65
 73
     4
 40
2.0
 49
1.0
 74
     0
 49
-0.5
 74
     0
 49
0.0
 74
     0
 49
-0.5
 74
     0
  0
LTYPE
  5
95
330
5
100
AcDbSymbolTableRecord
100
AcDbLinetypeTableRecord
  2
DASHED2
 70
     0
  3
Dashed (.5x) _ _ _ _ _ _ _ _ _ _ _ _ _ _ _ _ _
 72
    65
 73
     2
 40
0.375
 49
0.25
 74
     0
 49
-0.125
 74
     0
  0
LTYPE
  5
96
330
5
100
AcDbSymbolTableRecord
100
AcDbLinetypeTableRecord
  2
DASHEDX2
 70
     0
  3
Dashed (2x) ____  ____  ____  ____  ____  ___
 72
    65
 73
     2
 40
1.5
 49
1.0
 74
     0
 49
-0.5
 74
     0
  0
LTYPE
  5
97
330
5
100
AcDbSymbolTableRecord
100
AcDbLinetypeTableRecord
  2
DIVIDE
 70
     0
  3
Divide ____ . . ____ . . ____ . . ____ . . ____
 72
    65
 73
     6
 40
1.25
 49
0.5
 74
     0
 49
-0.25
 74
     0
 49
0.0
 74
     0
 49
-0.25
 74
     0
 49
0.0
 74
     0
 49
-0.25
 74
     0
  0
LTYPE
  5
98
330
5
100
AcDbSymbolTableRecord
100
AcDbLinetypeTableRecord
  2
DIVIDE2
 70
     0
  3
Divide (.5x) __..__..__..__..__..__..__..__.._
 72
    65
 73
     6
 40
0.625
 49
0.25
 74
     0
 49
-0.125
 74
     0
 49
0.0
 74
     0
 49
-0.125
 74
     0
 49
0.0
 74
     0
 49
-0.125
 74
     0
  0
LTYPE
  5
99
330
5
100
AcDbSymbolTableRecord
100
AcDbLinetypeTableRecord
  2
DIVIDEX2
 70
     0
  3
Divide (2x) ________  .  .  ________  .  .  _
 72
    65
 73
     6
 40
2.5
 49
1.0
 74
     0
 49
-0.5
 74
     0
 49
0.0
 74
     0
 49
-0.5
 74
     0
 49
0.0
 74
     0
 49
-0.5
 74
     0
  0
LTYPE
  5
9A
330
5
100
AcDbSymbolTableRecord
100
AcDbLinetypeTableRecord
  2
DOT
 70
     0
  3
Dot . . . . . . . . . . . . . . . . . . . . . .
 72
    65
 73
     2
 40
0.25
 49
0.0
 74
     0
 49
-0.25
 74
     0
  0
LTYPE
  5
9B
330
5
100
AcDbSymbolTableRecord
100
AcDbLinetypeTableRecord
  2
DOT2
 70
     0
  3
Dot (.5x) .....................................
 72
    65
 73
     2
 40
0.125
 49
0.0
 74
     0
 49
-0.125
 74
     0
  0
LTYPE
  5
9C
330
5
100
AcDbSymbolTableRecord
100
AcDbLinetypeTableRecord
  2
DOTX2
 70
     0
  3
Dot (2x) .  .  .  .  .  .  .  .  .  .  .  .  . 
 72
    65
 73
     2
 40
0.5
 49
0.0
 74
     0
 49
-0.5
 74
     0
  0
LTYPE
  5
9D
330
5
100
AcDbSymbolTableRecord
100
AcDbLinetypeTableRecord
  2
HIDDEN
 70
     0
  3
Hidden __ __ __ __ __ __ __ __ __ __ __ __ __ _
 72
    65
 73
     2
 40
0.375
 49
0.25
 74
     0
 49
-0.125
 74
     0
  0
LTYPE
  5
9E
330
5
100
AcDbSymbolTableRecord
100
AcDbLinetypeTableRecord
  2
HIDDEN2
 70
     0
  3
Hidden (.5x) _ _ _ _ _ _ _ _ _ _ _ _ _ _ _ _ _
 72
    65
 73
     2
 40
0.1875
 49
0.125
 74
     0
 49
-0.0625
 74
     0
  0
LTYPE
  5
9F
330
5
100
AcDbSymbolTableRecord
100
AcDbLinetypeTableRecord
  2
HIDDENX2
 70
     0
  3
Hidden (2x) ____ ____ ____ ____ ____ ____ ____
 72
    65
 73
     2
 40
0.75
 49
0.5
 74
     0
 49
-0.25
 74
     0
  0
LTYPE
  5
A0
330
5
100
AcDbSymbolTableRecord
100
AcDbLinetypeTableRecord
  2
PHANTOM
 70
     0
  3
Phantom ______  __  __  ______  __  __  ______
 72
    65
 73
     6
 40
2.5
 49
1.25
 74
     0
 49
-0.25
 74
     0
 49
0.25
 74
     0
 49
-0.25
 74
     0
 49
0.25
 74
     0
 49
-0.25
 74
     0
  0
LTYPE
  5
A1
330
5
100
AcDbSymbolTableRecord
100
AcDbLinetypeTableRecord
  2
PHANTOM2
 70
     0
  3
Phantom (.5x) ___ _ _ ___ _ _ ___ _ _ ___ _ _
 72
    65
 73
     6
 40
1.25
 49
0.625
 74
     0
 49
-0.125
 74
     0
 49
0.125
 74
     0
 49
-0.125
 74
     0
 49
0.125
 74
     0
 49
-0.125
 74
     0
  0
LTYPE
  5
A2
330
5
100
AcDbSymbolTableRecord
100
AcDbLinetypeTableRecord
  2
PHANTOMX2
 70
     0
  3
Phantom (2x) ____________    ____    ____   _
 72
    65
 73
     6
 40
5.0
 49
2.5
 74
     0
 49
-0.5
 74
     0
 49
0.5
 74
     0
 49
-0.5
 74
     0
 49
0.5
 74
     0
 49
-0.5
 74
     0
  0
LTYPE
  5
A3
330
5
100
AcDbSymbolTableRecord
100
AcDbLinetypeTableRecord
  2
ACAD_ISO02W100
 70
     0
  3
ISO dash __ __ __ __ __ __ __ __ __ __ __ __ __
 72
    65
 73
     2
 40
0.59
 49
0.47
 74
     0
 49
-0.12
 74
     0
  0
LTYPE
  5
A4
330
5
100
AcDbSymbolTableRecord
100
AcDbLinetypeTableRecord
  2
ACAD_ISO03W100
 70
     0
  3
ISO dash space __    __    __    __    __    __
 72
    65
 73
     2
 40
1.179999999999999
 49
0.47
 74
     0
 49
-0.71
 74
     0
  0
LTYPE
  5
A5
330
5
100
AcDbSymbolTableRecord
100
AcDbLinetypeTableRecord
  2
ACAD_ISO04W100
 70
     0
  3
ISO long-dash dot ____ . ____ . ____ . ____ . _
 72
    65
 73
     4
 40
1.179999999999999
 49
0.9399999999999998
 74
     0
 49
-0.12
 74
     0
 49
0.0
 74
     0
 49
-0.12
 74
     0
  0
LTYPE
  5
A6
330
5
100
AcDbSymbolTableRecord
100
AcDbLinetypeTableRecord
  2
ACAD_ISO05W100
 70
     0
  3
ISO long-dash double-dot ____ .. ____ .. ____ .
 72
    65
 73
     6
 40
1.299999999999999
 49
0.9399999999999998
 74
     0
 49
-0.12
 74
     0
 49
0.0
 74
     0
 49
-0.12
 74
     0
 49
0.0
 74
     0
 49
-0.12
 74
     0
  0
LTYPE
  5
A7
330
5
100
AcDbSymbolTableRecord
100
AcDbLinetypeTableRecord
  2
ACAD_ISO06W100
 70
     0
  3
ISO long-dash triple-dot ____ ... ____ ... ____
 72
    65
 73
     8
 40
1.419999999999999
 49
0.9399999999999998
 74
     0
 49
-0.12
 74
     0
 49
0.0
 74
     0
 49
-0.12
 74
     0
 49
0.0
 74
     0
 49
-0.12
 74
     0
 49
0.0
 74
     0
 49
-0.12
 74
     0
  0
LTYPE
  5
A8
330
5
100
AcDbSymbolTableRecord
100
AcDbLinetypeTableRecord
  2
ACAD_ISO07W100
 70
     0
  3
ISO dot . . . . . . . . . . . . . . . . . . . .
 72
    65
 73
     2
 40
0.12
 49
0.0
 74
     0
 49
-0.12
 74
     0
  0
LTYPE
  5
A9
330
5
100
AcDbSymbolTableRecord
100
AcDbLinetypeTableRecord
  2
ACAD_ISO08W100
 70
     0
  3
ISO long-dash short-dash ____ __ ____ __ ____ _
 72
    65
 73
     4
 40
0.95
 49
0.47
 74
     0
 49
-0.12
 74
     0
 49
0.24
 74
     0
 49
-0.12
 74
     0
  0
LTYPE
  5
AA
330
5
100
AcDbSymbolTableRecord
100
AcDbLinetypeTableRecord
  2
ACAD_ISO09W100
 70
     0
  3
ISO long-dash double-short-dash ____ __ __ ____
 72
    65
 73
     6
 40
1.31
 49
0.47
 74
     0
 49
-0.12
 74
     0
 49
0.24
 74
     0
 49
-0.12
 74
     0
 49
0.24
 74
     0
 49
-0.12
 74
     0
  0
LTYPE
  5
AB
330
5
100
AcDbSymbolTableRecord
100
AcDbLinetypeTableRecord
  2
ACAD_ISO10W100
 70
     0
  3
ISO dash dot __ . __ . __ . __ . __ . __ . __ .
 72
    65
 73
     4
 40
0.71
 49
0.47
 74
     0
 49
-0.12
 74
     0
 49
0.0
 74
     0
 49
-0.12
 74
     0
  0
LTYPE
  5
AC
330
5
100
AcDbSymbolTableRecord
100
AcDbLinetypeTableRecord
  2
ACAD_ISO11W100
 70
     0
  3
ISO double-dash dot __ __ . __ __ . __ __ . __ 
 72
    65
 73
     6
 40
1.299999999999999
 49
0.47
 74
     0
 49
-0.12
 74
     0
 49
0.47
 74
     0
 49
-0.12
 74
     0
 49
0.0
 74
     0
 49
-0.12
 74
     0
  0
LTYPE
  5
AD
330
5
100
AcDbSymbolTableRecord
100
AcDbLinetypeTableRecord
  2
ACAD_ISO12W100
 70
     0
  3
ISO dash double-dot __ . . __ . . __ . . __ . .
 72
    65
 73
     6
 40
0.8299999999999998
 49
0.47
 74
     0
 49
-0.12
 74
     0
 49
0.0
 74
     0
 49
-0.12
 74
     0
 49
0.0
 74
     0
 49
-0.12
 74
     0
  0
LTYPE
  5
AE
330
5
100
AcDbSymbolTableRecord
100
AcDbLinetypeTableRecord
  2
ACAD_ISO13W100
 70
     0
  3
ISO double-dash double-dot __ __ . . __ __ . . 
 72
    65
 73
     8
 40
1.419999999999999
 49
0.47
 74
     0
 49
-0.12
 74
     0
 49
0.47
 74
     0
 49
-0.12
 74
     0
 49
0.0
 74
     0
 49
-0.12
 74
     0
 49
0.0
 74
     0
 49
-0.12
 74
     0
  0
LTYPE
  5
AF
330
5
100
AcDbSymbolTableRecord
100
AcDbLinetypeTableRecord
  2
ACAD_ISO14W100
 70
     0
  3
ISO dash triple-dot __ . . . __ . . . __ . . . 
 72
    65
 73
     8
 40
0.95
 49
0.47
 74
     0
 49
-0.12
 74
     0
 49
0.0
 74
     0
 49
-0.12
 74
     0
 49
0.0
 74
     0
 49
-0.12
 74
     0
 49
0.0
 74
     0
 49
-0.12
 74
     0
  0
LTYPE
  5
B0
330
5
100
AcDbSymbolTableRecord
100
AcDbLinetypeTableRecord
  2
ACAD_ISO15W100
 70
     0
  3
ISO double-dash triple-dot __ __ . . . __ __ . 
 72
    65
 73
    10
 40
1.539999999999999
 49
0.47
 74
     0
 49
-0.12
 74
     0
 49
0.47
 74
     0
 49
-0.12
 74
     0
 49
0.0
 74
     0
 49
-0.12
 74
     0
 49
0.0
 74
     0
 49
-0.12
 74
     0
 49
0.0
 74
     0
 49
-0.12
 74
     0
  0
LTYPE
  5
B3
330
5
100
AcDbSymbolTableRecord
100
AcDbLinetypeTableRecord
  2
FENCELINE1
 70
     0
  3
Fenceline circle ----0-----0----0-----0----0---
 72
    65
 73
     4
 40
1.45
 49
0.25
 74
     0
 49
-0.1
 74
     4
 75
   133
340
B2
 46
0.1
 50
0.0
 44
-0.1
 45
0.0
 49
-0.1
 74
     0
 49
1.0
 74
     0
  0
LTYPE
  5
B4
330
5
100
AcDbSymbolTableRecord
100
AcDbLinetypeTableRecord
  2
FENCELINE2
 70
     0
  3
Fenceline square ----[]-----[]----[]-----[]----
 72
    65
 73
     4
 40
1.45
 49
0.25
 74
     0
 49
-0.1
 74
     4
 75
   132
340
B2
 46
0.1
 50
0.0
 44
-0.1
 45
0.0
 49
-0.1
 74
     0
 49
1.0
 74
     0
  0
LTYPE
  5
B5
330
5
100
AcDbSymbolTableRecord
100
AcDbLinetypeTableRecord
  2
TRACKS
 70
     0
  3
Tracks -|-|-|-|-|-|-|-|-|-|-|-|-|-|-|-|-|-|-|-|
 72
    65
 73
     2
 40
0.3
 49
0.15
 74
     4
 75
   130
340
B2
 46
0.25
 50
0.0
 44
0.0
 45
0.0
 49
0.15
 74
     0
  0
LTYPE
  5
B6
330
5
100
AcDbSymbolTableRecord
100
AcDbLinetypeTableRecord
  2
BATTING
 70
     0
  3
Batting SSSSSSSSSSSSSSSSSSSSSSSSSSSSSSSSSSSSSSS
 72
    65
 73
     4
 40
0.4001000000000001
 49
0.0001
 74
     0
 49
-0.1
 74
     4
 75
   134
340
B2
 46
0.1
 50
0.0
 44
-0.1
 45
0.0
 49
-0.2
 74
     4
 75
   134
340
B2
 46
0.1
 50
180.0
 44
0.1
 45
0.0
 49
-0.1
 74
     0
  0
LTYPE
  5
B7
330
5
100
AcDbSymbolTableRecord
100
AcDbLinetypeTableRecord
  2
HOT_WATER_SUPPLY
 70
     0
  3
Hot water supply ---- HW ---- HW ---- HW ----
 72
    65
 73
     3
 40
0.9
 49
0.5
 74
     0
 49
-0.2
 74
     2
 75
     0
340
55
 46
0.1
 50
0.0
 44
-0.1
 45
-0.05
  9
HW
 49
-0.2
 74
     0
  0
LTYPE
  5
B8
330
5
100
AcDbSymbolTableRecord
100
AcDbLinetypeTableRecord
  2
GAS_LINE
 70
     0
  3
Gas line ----GAS----GAS----GAS----GAS----GAS---
 72
    65
 73
     3
 40
0.95
 49
0.5
 74
     0
 49
-0.2
 74
     2
 75
     0
340
55
 46
0.1
 50
0.0
 44
-0.1
 45
-0.05
  9
GAS
 49
-0.25
 74
     0
  0
LTYPE
  5
B9
330
5
100
AcDbSymbolTableRecord
100
AcDbLinetypeTableRecord
  2
ZIGZAG
 70
     0
  3
Zig zag /\/\/\/\/\/\/\/\/\/\/\/\/\/\/\/\/\/\/\/
 72
    65
 73
     4
 40
0.8001000000000001
 49
0.0001
 74
     0
 49
-0.2
 74
     4
 75
   131
340
B2
 46
0.2
 50
0.0
 44
-0.2
 45
0.0
 49
-0.4
 74
     4
 75
   131
340
B2
 46
0.2
 50
180.0
 44
0.2
 45
0.0
 49
-0.2
 74
     0
  0
ENDTAB
  0
TABLE
  2
LAYER
  5
2
330
0
100
AcDbSymbolTable
 70
     4
  0
LAYER
  5
54
330
2
100
AcDbSymbolTableRecord
100
AcDbLayerTableRecord
  2
0
 70
     0
 62
     7
  6
Continuous
370
    -3
390
F
  0
LAYER
  5
BF
330
2
100
AcDbSymbolTableRecord
100
AcDbLayerTableRecord
  2
Border (ANSI)
 70
     0
 62
     7
  6
Continuous
370
    25
390
F
  0
LAYER
  5
D1
330
2
100
AcDbSymbolTableRecord
100
AcDbLayerTableRecord
  2
Visible (ANSI)
 70
     0
 62
     7
  6
Continuous
370
    18
390
F
  0
LAYER
  5
D2
330
2
100
AcDbSymbolTableRecord
100
AcDbLayerTableRecord
  2
Visible Narrow (ANSI)
 70
     0
 62
     7
  6
Continuous
370
     9
390
F
  0
ENDTAB
  0
TABLE
  2
STYLE
  5
3
330
0
100
AcDbSymbolTable
 70
     5
  0
STYLE
  5
55
330
3
100
AcDbSymbolTableRecord
100
AcDbTextStyleTableRecord
  2
Standard
 70
     0
 40
0.0
 41
0.899999976158142
 50
0.0
 71
     0
 42
0.2
  3
txt
  4

  0
STYLE
  5
5A
330
3
100
AcDbSymbolTableRecord
100
AcDbTextStyleTableRecord
  2
Annotative
 70
     0
 40
0.0
 41
1.0
 50
0.0
 71
     0
 42
0.2
  3
txt
  4

1001
AcadAnnotative
1000
AnnotativeData
1002
{
1070
     1
1070
     1
1002
}
  0
STYLE
  5
B2
330
3
100
AcDbSymbolTableRecord
100
AcDbTextStyleTableRecord
  2

 70
     1
 40
0.0
 41
1.0
 50
0.0
 71
     0
 42
0.2
  3
ltypeshp.shx
  4

  0
STYLE
  5
D6
330
3
100
AcDbSymbolTableRecord
100
AcDbTextStyleTableRecord
  2
Label Text (ANSI)
 70
     0
 40
0.0
 41
0.899999976158142
 50
0.0
 71
     0
 42
0.2
  3
Txt.shx
  4

  0
STYLE
  5
D7
330
3
100
AcDbSymbolTableRecord
100
AcDbTextStyleTableRecord
  2
Note Text (ANSI)
 70
     0
 40
0.0
 41
0.899999976158142
 50
0.0
 71
     0
 42
0.2
  3
Txt.shx
  4

  0
ENDTAB
  0
TABLE
  2
VIEW
  5
6
330
0
100
AcDbSymbolTable
 70
     0
  0
ENDTAB
  0
TABLE
  2
UCS
  5
7
330
0
100
AcDbSymbolTable
 70
     0
  0
ENDTAB
  0
TABLE
  2
APPID
  5
9
330
0
100
AcDbSymbolTable
 70
     4
  0
APPID
  5
56
330
9
100
AcDbSymbolTableRecord
100
AcDbRegAppTableRecord
  2
ACAD
 70
     0
  0
APPID
  5
5E
330
9
100
AcDbSymbolTableRecord
100
AcDbRegAppTableRecord
  2
AcadAnnotative
 70
     0
  0
APPID
  5
370
330
9
100
AcDbSymbolTableRecord
100
AcDbRegAppTableRecord
  2
ACAD_MLEADERVER
 70
     0
  0
APPID
  5
387
330
9
100
AcDbSymbolTableRecord
100
AcDbRegAppTableRecord
  2
ACAD_NAV_VCDISPLAY
 70
     0
  0
ENDTAB
  0
TABLE
  2
DIMSTYLE
  5
A
330
0
100
AcDbSymbolTable
 70
    21
100
AcDbDimStyleTable
 71
     0
  0
DIMSTYLE
105
58
330
A
100
AcDbSymbolTableRecord
100
AcDbDimStyleTableRecord
  2
Standard
 70
     0
340
55
  0
DIMSTYLE
105
59
330
A
100
AcDbSymbolTableRecord
100
AcDbDimStyleTableRecord
  2
Annotative
 70
     0
340
55
1001
AcadAnnotative
1000
AnnotativeData
1002
{
1070
     1
1070
     1
1002
}
  0
DIMSTYLE
105
D8
330
A
100
AcDbSymbolTableRecord
100
AcDbDimStyleTableRecord
  2
Architectural (ANSI)
 70
     0
 41
0.0984251946210861
 43
0.2362204724409449
 44
0.125
 45
0.00000001
 46
0.3937007874015748
 78
     3
 79
     3
140
0.0799999982118607
146
1.500000119209289
147
0.031496062992126
171
     1
176
   256
177
   256
178
     5
272
     2
274
     1
276
     2
277
     4
284
    12
285
     4
286
    12
340
D7
371
    -1
372
    -1
  0
DIMSTYLE
105
D9
330
A
100
AcDbSymbolTableRecord
100
AcDbDimStyleTableRecord
  2
Architectural (ANSI)$7
 70
     0
 41
0.0984251946210861
 43
0.2362204724409449
 44
0.125
 45
0.00000001
 46
0.3937007874015748
 78
     3
 79
     3
140
0.0799999982118607
146
1.500000119209289
147
0.031496062992126
171
     1
176
     5
177
   256
178
     5
272
     2
274
     1
276
     2
277
     4
284
    12
285
     4
286
    12
340
D7
371
    -1
372
    -1
  0
DIMSTYLE
105
DA
330
A
100
AcDbSymbolTableRecord
100
AcDbDimStyleTableRecord
  2
Default - Fraction (ANSI)
 70
     0
 41
0.0984251946210861
 43
0.2362204724409449
 44
0.125
 45
0.00000001
 46
0.3937007874015748
 79
     3
140
0.0799999982118607
146
1.500000119209289
147
0.031496062992126
171
     1
176
   256
177
   256
178
     5
272
     2
274
     1
276
     2
277
     5
284
    12
285
     4
286
    12
340
D7
371
    -1
372
    -1
  0
DIMSTYLE
105
DB
330
A
100
AcDbSymbolTableRecord
100
AcDbDimStyleTableRecord
  2
Default - Fraction (ANSI)$7
 70
     0
 41
0.0984251946210861
 43
0.2362204724409449
 44
0.125
 45
0.00000001
 46
0.3937007874015748
 79
     3
140
0.0799999982118607
146
1.500000119209289
147
0.031496062992126
171
     1
176
     5
177
   256
178
     5
272
     2
274
     1
276
     2
277
     5
284
    12
285
     4
286
    12
340
D7
371
    -1
372
    -1
  0
DIMSTYLE
105
DC
330
A
100
AcDbSymbolTableRecord
100
AcDbDimStyleTableRecord
  2
Default - mm (ANSI)
 70
     0
 41
0.0984251946210861
 42
0.063
 43
0.2362204724409449
 44
0.125
 45
0.00000001
 46
0.3937007874015748
 73
     0
 78
     4
 79
     1
140
0.0799999982118607
143
1.0
144
25.4
146
1.500000119209289
147
0.031496062992126
171
     1
176
   256
177
   256
178
     5
179
     1
271
     2
272
     2
274
     1
284
     4
285
     4
340
D7
371
    -1
372
    -1
  0
DIMSTYLE
105
DD
330
A
100
AcDbSymbolTableRecord
100
AcDbDimStyleTableRecord
  2
Default - mm (ANSI)$7
 70
     0
 41
0.0984251946210861
 42
0.063
 43
0.2362204724409449
 44
0.125
 45
0.00000001
 46
0.3937007874015748
 73
     0
 78
     4
 79
     1
140
0.0799999982118607
143
1.0
144
25.4
146
1.500000119209289
147
0.031496062992126
171
     1
176
     5
177
   256
178
     5
179
     1
271
     2
272
     2
274
     1
284
     4
285
     4
340
D7
371
    -1
372
    -1
  0
DIMSTYLE
105
DE
330
A
100
AcDbSymbolTableRecord
100
AcDbDimStyleTableRecord
  2
Default - mm [in] (ANSI)
 70
     0
  4
 in
 41
0.0984251946210861
 42
0.063
 43
0.25
 44
0.125
 45
0.00000001
 46
0.3937007874015748
 73
     0
 78
     4
 79
     1
140
0.0799999982118607
143
0.03937
144
25.4
146
1.500000119209289
147
0.031496062992126
170
     1
171
     3
176
   256
177
   256
178
     5
179
     1
271
     2
272
     2
274
     3
284
     4
285
     4
286
     4
340
D7
371
    -1
372
    -1
  0
DIMSTYLE
105
DF
330
A
100
AcDbSymbolTableRecord
100
AcDbDimStyleTableRecord
  2
Default - mm [in] (ANSI)$7
 70
     0
  4
 in
 41
0.0984251946210861
 42
0.063
 43
0.25
 44
0.125
 45
0.00000001
 46
0.3937007874015748
 73
     0
 78
     4
 79
     1
140
0.0799999982118607
143
0.03937
144
25.4
146
1.500000119209289
147
0.031496062992126
170
     1
171
     3
176
     5
177
   256
178
     5
179
     1
271
     2
272
     2
274
     3
284
     4
285
     4
286
     4
340
D7
371
    -1
372
    -1
  0
DIMSTYLE
105
E0
330
A
100
AcDbSymbolTableRecord
100
AcDbDimStyleTableRecord
  2
Default (ANSI)
 70
     0
 41
0.0984251946210861
 43
0.2362204724409449
 44
0.125
 45
0.00000001
 46
0.3937007874015748
 78
     4
 79
     1
140
0.0799999982118607
146
1.500000119209289
147
0.031496062992126
171
     1
176
   256
177
   256
178
     5
271
     2
272
     2
274
     1
284
     4
285
     4
340
D7
371
    -1
372
    -1
  0
DIMSTYLE
105
E1
330
A
100
AcDbSymbolTableRecord
100
AcDbDimStyleTableRecord
  2
Default (ANSI)$7
 70
     0
 41
0.0984251946210861
 43
0.2362204724409449
 44
0.125
 45
0.00000001
 46
0.3937007874015748
 78
     4
 79
     1
140
0.0799999982118607
146
1.500000119209289
147
0.031496062992126
171
     1
176
     5
177
   256
178
     5
271
     2
272
     2
274
     1
284
     4
285
     4
340
D7
371
    -1
372
    -1
  0
DIMSTYLE
105
E2
330
A
100
AcDbSymbolTableRecord
100
AcDbDimStyleTableRecord
  2
SST-STANDARD DIMEN
 70
     0
 41
0.0984251946210861
 43
0.2362204724409449
 44
0.062
 45
0.00000001
 46
0.3937007874015748
140
0.0799999982118607
147
0.031496062992126
171
     1
176
     5
177
     5
178
     5
271
     3
272
     3
274
     1
286
    12
340
D7
371
     9
372
     9
  0
DIMSTYLE
105
E3
330
A
100
AcDbSymbolTableRecord
100
AcDbDimStyleTableRecord
  2
SST-STANDARD DIMEN$7
 70
     0
 41
0.0984251946210861
 43
0.2362204724409449
 44
0.062
 45
0.00000001
 46
0.3937007874015748
140
0.0799999982118607
147
0.031496062992126
171
     1
176
     5
177
     5
178
     5
271
     3
272
     3
274
     1
286
    12
340
D7
371
    -1
372
     9
  0
DIMSTYLE
105
E4
330
A
100
AcDbSymbolTableRecord
100
AcDbDimStyleTableRecord
  2
SST-STANDARD DIMENSION-METRIC
 70
     0
 41
0.0984251946210861
 43
0.2362204724409449
 44
0.062
 45
0.00000001
 46
0.3937007874015748
140
0.0799999982118607
143
0.03937
144
25.4
147
0.031496062992126
171
     3
176
     5
177
     5
178
     5
271
     1
272
     1
274
     3
286
    12
340
D7
371
    25
372
    25
  0
DIMSTYLE
105
E5
330
A
100
AcDbSymbolTableRecord
100
AcDbDimStyleTableRecord
  2
SST-STANDARD DIMENSION-METRIC$7
 70
     0
 41
0.0984251946210861
 43
0.2362204724409449
 44
0.062
 45
0.00000001
 46
0.3937007874015748
140
0.0799999982118607
143
0.03937
144
25.4
147
0.031496062992126
171
     3
176
     5
177
     5
178
     5
271
     1
272
     1
274
     3
286
    12
340
D7
371
    -1
372
    25
  0
DIMSTYLE
105
E6
330
A
100
AcDbSymbolTableRecord
100
AcDbDimStyleTableRecord
  2
SST-STANDARD DIMENSIONS-FRACTION
 70
     0
 41
0.0984251946210861
 43
0.2362204724409449
 44
0.062
 45
0.00000001
 46
0.3937007874015748
 78
     1
140
0.0799999982118607
147
0.031496062992126
171
     1
176
     5
177
     5
178
     5
271
     5
272
     3
274
     1
276
     2
277
     5
286
    12
340
D7
371
     9
372
     9
  0
DIMSTYLE
105
E7
330
A
100
AcDbSymbolTableRecord
100
AcDbDimStyleTableRecord
  2
SST-STANDARD DIMENSIONS-FRACTION$7
 70
     0
 41
0.0984251946210861
 43
0.2362204724409449
 44
0.062
 45
0.00000001
 46
0.3937007874015748
 78
     1
140
0.0799999982118607
147
0.031496062992126
171
     1
176
     5
177
     5
178
     5
271
     5
272
     3
274
     1
276
     2
277
     5
286
    12
340
D7
371
    -1
372
     9
  0
DIMSTYLE
105
E8
330
A
100
AcDbSymbolTableRecord
100
AcDbDimStyleTableRecord
  2
Alternate (ANSI)
 70
     0
 41
0.0979999974370003
340
55
342
E9
  0
DIMSTYLE
105
FB
330
A
100
AcDbSymbolTableRecord
100
AcDbDimStyleTableRecord
  2
Datum (ANSI)
 70
     0
 41
0.0979999974370003
340
55
342
E9
  0
DIMSTYLE
105
10A
330
A
100
AcDbSymbolTableRecord
100
AcDbDimStyleTableRecord
  2
Large (ANSI)
 70
     0
 41
0.1959999948740005
340
55
342
E9
  0
ENDTAB
  0
TABLE
  2
BLOCK_RECORD
  5
1
330
0
100
AcDbSymbolTable
 70
     5
  0
BLOCK_RECORD
  5
6C
330
1
100
AcDbSymbolTableRecord
100
AcDbBlockTableRecord
  2
*Model_Space
340
6F
  0
BLOCK_RECORD
  5
68
330
1
100
AcDbSymbolTableRecord
100
AcDbBlockTableRecord
  2
*Paper_Space
340
6B
  0
BLOCK_RECORD
  5
70
330
1
100
AcDbSymbolTableRecord
100
AcDbBlockTableRecord
  2
*Paper_Space0
340
73
  0
BLOCK_RECORD
  5
E9
330
1
100
AcDbSymbolTableRecord
100
AcDbBlockTableRecord
  2
_Closed
340
0
  0
BLOCK_RECORD
  5
F0
330
1
100
AcDbSymbolTableRecord
100
AcDbBlockTableRecord
  2
DatumFilled45
340
0
  0
BLOCK_RECORD
  5
FC
330
1
100
AcDbSymbolTableRecord
100
AcDbBlockTableRecord
  2
Filled-1
340
0
  0
BLOCK_RECORD
  5
10B
330
1
100
AcDbSymbolTableRecord
100
AcDbBlockTableRecord
  2
Borders SST-LAND
340
0
102
{BLKREFS
331
112
102
}
  0
ENDTAB
  0
ENDSEC
  0
SECTION
  2
BLOCKS
  0
BLOCK
  5
6D
330
6C
100
AcDbEntity
  8
0
100
AcDbBlockBegin
  2
*Model_Space
 70
     0
 10
0.0
 20
0.0
 30
0.0
  3
*Model_Space
  1

  0
ENDBLK
  5
6E
330
6C
100
AcDbEntity
  8
0
100
AcDbBlockEnd
  0
BLOCK
  5
69
330
68
100
AcDbEntity
 67
     1
  8
0
100
AcDbBlockBegin
  2
*Paper_Space
 70
     0
 10
0.0
 20
0.0
 30
0.0
  3
*Paper_Space
  1

  0
ENDBLK
  5
6A
330
68
100
AcDbEntity
 67
     1
  8
0
100
AcDbBlockEnd
  0
BLOCK
  5
71
330
70
100
AcDbEntity
 67
     1
  8
0
100
AcDbBlockBegin
  2
*Paper_Space0
 70
     0
 10
0.0
 20
0.0
 30
0.0
  3
*Paper_Space0
  1

  0
ENDBLK
  5
72
330
70
100
AcDbEntity
 67
     1
  8
0
100
AcDbBlockEnd
  0
BLOCK
  5
EE
330
E9
100
AcDbEntity
  8
0
100
AcDbBlockBegin
  2
_Closed
 70
     0
 10
0.0
 20
0.0
 30
0.0
  3
_Closed
  1

  0
LINE
  5
EA
330
E9
100
AcDbEntity
  8
0
  6
ByBlock
 62
     0
370
    -2
100
AcDbLine
 10
-1.0
 20
0.1666666666666666
 30
0.0
 11
0.0
 21
0.0
 31
0.0
  0
LINE
  5
EB
330
E9
100
AcDbEntity
  8
0
  6
ByBlock
 62
     0
370
    -2
100
AcDbLine
 10
0.0
 20
0.0
 30
0.0
 11
-1.0
 21
-0.1666666666666666
 31
0.0
  0
LINE
  5
EC
330
E9
100
AcDbEntity
  8
0
  6
ByBlock
 62
     0
370
    -2
100
AcDbLine
 10
-1.0
 20
0.1666666666666666
 30
0.0
 11
-1.0
 21
-0.1666666666666666
 31
0.0
  0
LINE
  5
ED
330
E9
100
AcDbEntity
  8
0
  6
ByBlock
 62
     0
370
    -2
100
AcDbLine
 10
0.0
 20
0.0
 30
0.0
 11
-1.0
 21
0.0
 31
0.0
  0
ENDBLK
  5
EF
330
E9
100
AcDbEntity
  8
0
100
AcDbBlockEnd
  0
BLOCK
  5
F1
330
F0
100
AcDbEntity
  8
0
100
AcDbBlockBegin
  2
DatumFilled45
 70
     0
 10
0.0
 20
0.0
 30
0.0
  3
DatumFilled45
  1

  0
POLYLINE
  5
F3
330
F0
100
AcDbEntity
  8
0
 62
     0
100
AcDb2dPolyline
 66
     1
 10
0.0
 20
0.0
 30
0.0
 70
   128
  0
VERTEX
  5
F4
330
F3
100
AcDbEntity
  8
0
 62
     0
100
AcDbVertex
100
AcDb2dVertex
 10
0.0
 20
0.9999999999999998
 30
0.0
  0
VERTEX
  5
F5
330
F3
100
AcDbEntity
  8
0
 62
     0
100
AcDbVertex
100
AcDb2dVertex
 10
0.0
 20
-0.9999999999999998
 30
0.0
  0
VERTEX
  5
F7
330
F3
100
AcDbEntity
  8
0
 62
     0
100
AcDbVertex
100
AcDb2dVertex
 10
-0.9999999999999998
 20
0.0
 30
0.0
  0
VERTEX
  5
F8
330
F3
100
AcDbEntity
  8
0
 62
     0
100
AcDbVertex
100
AcDb2dVertex
 10
0.0
 20
0.9999999999999998
 30
0.0
  0
SEQEND
  5
F6
330
F3
100
AcDbEntity
  8
0
 62
     0
  0
SOLID
  5
FA
330
F0
100
AcDbEntity
  8
0
 62
     0
100
AcDbTrace
 10
0.0
 20
0.9999999999999998
 30
0.0
 11
0.0
 21
-0.9999999999999998
 31
0.0
 12
-0.9999999999999998
 22
0.0
 32
0.0
 13
0.0
 23
0.9999999999999998
 33
0.0
  0
ENDBLK
  5
F2
330
F0
100
AcDbEntity
  8
0
100
AcDbBlockEnd
  0
BLOCK
  5
FD
330
FC
100
AcDbEntity
  8
0
100
AcDbBlockBegin
  2
Filled-1
 70
     0
 10
0.0
 20
0.0
 30
0.0
  3
Filled-1
  1

  0
LINE
  5
FF
330
FC
100
AcDbEntity
  8
0
 62
     0
100
AcDbLine
 10
-0.9999999999999998
 20
0.0
 30
0.0
 11
0.0
 21
0.0
 31
0.0
  0
POLYLINE
  5
100
330
FC
100
AcDbEntity
  8
0
 62
     0
100
AcDb2dPolyline
 66
     1
 10
0.0
 20
0.0
 30
0.0
 70
   128
  0
VERTEX
  5
101
330
100
100
AcDbEntity
  8
0
 62
     0
100
AcDbVertex
100
AcDb2dVertex
 10
-0.9999999999999998
 20
-0.0994897959183674
 30
0.0
  0
VERTEX
  5
102
330
100
100
AcDbEntity
  8
0
 62
     0
100
AcDbVertex
100
AcDb2dVertex
 10
0.0
 20
0.0
 30
0.0
  0
VERTEX
  5
104
330
100
100
AcDbEntity
  8
0
 62
     0
100
AcDbVertex
100
AcDb2dVertex
 10
-0.9999999999999998
 20
0.0994897959183674
 30
0.0
  0
VERTEX
  5
105
330
100
100
AcDbEntity
  8
0
 62
     0
100
AcDbVertex
100
AcDb2dVertex
 10
-0.9999999999999998
 20
-0.0994897959183674
 30
0.0
  0
SEQEND
  5
103
330
100
100
AcDbEntity
  8
0
 62
     0
  0
SOLID
  5
106
330
FC
100
AcDbEntity
  8
0
 62
     0
100
AcDbTrace
 10
-0.9999999999999998
 20
-0.0994897959183674
 30
0.0
 11
0.0
 21
0.0
 31
0.0
 12
-0.9999999999999998
 22
0.0994897959183674
 32
0.0
 13
-0.9999999999999998
 23
-0.0994897959183674
 33
0.0
  0
LINE
  5
107
330
FC
100
AcDbEntity
  8
0
 62
     0
100
AcDbLine
 10
-0.9999999999999998
 20
-0.0994897959183674
 30
0.0
 11
0.0
 21
0.0
 31
0.0
  0
LINE
  5
108
330
FC
100
AcDbEntity
  8
0
 62
     0
100
AcDbLine
 10
0.0
 20
0.0
 30
0.0
 11
-0.9999999999999998
 21
0.0994897959183674
 31
0.0
  0
LINE
  5
109
330
FC
100
AcDbEntity
  8
0
 62
     0
100
AcDbLine
 10
-0.9999999999999998
 20
0.0994897959183674
 30
0.0
 11
-0.9999999999999998
 21
-0.0994897959183674
 31
0.0
  0
ENDBLK
  5
FE
330
FC
100
AcDbEntity
  8
0
100
AcDbBlockEnd
  0
BLOCK
  5
10C
330
10B
100
AcDbEntity
  8
0
100
AcDbBlockBegin
  2
Borders SST-LAND
 70
     0
 10
0.0
 20
0.0
 30
0.0
  3
Borders SST-LAND
  1

  0
LINE
  5
10E
330
10B
100
AcDbEntity
  8
Border (ANSI)
 62
     7
370
    50
100
AcDbLine
 10
0.5000000000000013
 20
10.5
 30
0.0
 11
0.500000000000005
 21
0.4999999999999999
 31
0.0
  0
LINE
  5
10F
330
10B
100
AcDbEntity
  8
Border (ANSI)
 62
     7
370
    50
100
AcDbLine
 10
16.49999999999999
 20
10.5
 30
0.0
 11
0.5000000000000013
 21
10.5
 31
0.0
  0
LINE
  5
110
330
10B
100
AcDbEntity
  8
Border (ANSI)
 62
     7
370
    50
100
AcDbLine
 10
16.5
 20
0.4999999999999999
 30
0.0
 11
16.49999999999999
 21
10.5
 31
0.0
  0
LINE
  5
111
330
10B
100
AcDbEntity
  8
Border (ANSI)
 62
     7
370
    50
100
AcDbLine
 10
0.500000000000005
 20
0.4999999999999999
 30
0.0
 11
16.5
 21
0.4999999999999999
 31
0.0
  0
ENDBLK
  5
10D
330
10B
100
AcDbEntity
  8
0
100
AcDbBlockEnd
  0
ENDSEC
  0
SECTION
  2
ENTITIES
  0
INSERT
  5
112
330
6C
100
AcDbEntity
  8
0
100
AcDbBlockReference
  2
Borders SST-LAND
 10
0.0
 20
0.0
 30
0.0
  0
SPLINE
  5
113
330
6C
100
AcDbEntity
  8
Visible (ANSI)
100
AcDbSpline
210
0.0
220
0.0
230
1.0
 70
     8
 71
     3
 72
    12
 73
     8
 74
     0
 42
0.0000000001
 43
0.0000000001
 40
0.5308012450639198
 40
0.5308012450639198
 40
0.5308012450639198
 40
0.5308012450639198
 40
0.6533784329340846
 40
0.6533784329340846
 40
0.7759556208042496
 40
0.7759556208042496
 40
0.8025145065790166
 40
0.8025145065790166
 40
0.8025145065790166
 40
0.8025145065790166
 10
7.987248385486911
 20
8.253443747130964
 30
0.0
 10
7.976608793358612
 20
8.251946076466934
 30
0.0
 10
7.963546672826254
 20
8.252817749828608
 30
0.0
 10
7.935267873996476
 20
8.259657991759098
 30
0.0
 10
7.920018277416197
 20
8.265566527207054
 30
0.0
 10
7.902496035907599
 20
8.273662788682742
 30
0.0
 10
7.899327253005172
 20
8.275177253189914
 30
0.0
 10
7.896130505324278
 20
8.276748730759994
 30
0.0
  0
LINE
  5
114
330
6C
100
AcDbEntity
  8
Visible Narrow (ANSI)
100
AcDbLine
 10
7.987248385486911
 20
8.253443747130964
 30
0.0
 11
8.084024019198244
 21
8.437232895476132
 31
0.0
  0
ELLIPSE
  5
115
330
6C
100
AcDbEntity
  8
Visible Narrow (ANSI)
100
AcDbEllipse
 10
7.979912507772501
 20
8.482145926949746
 30
0.0
 11
0.0977532533139455
 21
0.1693136013449042
 31
0.0
210
0.0
220
0.0
230
1.0
 40
0.5773502691896259
 41
4.779751892062296
 42
6.215822395502997
  0
LINE
  5
116
330
6C
100
AcDbEntity
  8
Visible Narrow (ANSI)
100
AcDbLine
 10
8.084024019198151
 20
8.647276576718214
 30
0.0
 11
7.987248385486903
 21
8.719318848715053
 31
0.0
  0
ELLIPSE
  5
117
330
6C
100
AcDbEntity
  8
Visible (ANSI)
100
AcDbEllipse
 10
8.063521402165495
 20
8.530417544634296
 30
0.0
 11
-0.152499999999984
 21
-0.2641377481542624
 31
0.0
210
0.0
220
0.0
230
0.9999999999999998
 40
0.577350269189626
 41
4.288472034984291
 42
6.707102252579724
  0
LINE
  5
118
330
6C
100
AcDbEntity
  8
Visible (ANSI)
100
AcDbLine
 10
8.246308505102094
 20
7.961768500847266
 30
0.0
 11
8.246308505102218
 21
7.677137792735933
 31
0.0
  0
ELLIPSE
  5
119
330
6C
100
AcDbEntity
  8
Visible (ANSI)
100
AcDbEllipse
 10
7.980436355376078
 20
7.523636435521368
 30
0.0
 11
-0.1880000000000186
 21
-0.3256255518229366
 31
0.0
210
0.0
220
0.0
230
1.0
 40
0.577350269189625
 41
1.0469227685273
 42
2.356194490193081
  0
LINE
  5
11A
330
6C
100
AcDbEntity
  8
Visible (ANSI)
100
AcDbLine
 10
8.049178560990448
 20
7.26676109330301
 30
0.0
 11
7.912059799791482
 21
7.145217474104098
 31
0.0
  0
ELLIPSE
  5
11B
330
6C
100
AcDbEntity
  8
Visible (ANSI)
100
AcDbEllipse
 10
7.98043635537599
 20
6.88970849008903
 30
0.0
 11
-0.1869999999999811
 21
-0.3238935010153922
 31
0.0
210
0.0
220
0.0
230
1.0
 40
0.5773502691896251
 41
4.188515422116824
 42
5.497787143781962
  0
LINE
  5
11C
330
6C
100
AcDbEntity
  8
Visible (ANSI)
100
AcDbLine
 10
7.71597841921235
 20
6.737023629455619
 30
0.0
 11
7.71597841921235
 21
6.656517066576146
 31
0.0
  0
ELLIPSE
  5
11D
330
6C
100
AcDbEntity
  8
Visible (ANSI)
100
AcDbEllipse
 10
7.980436355375991
 20
6.809201927209555
 30
0.0
 11
-0.1869999999999987
 21
-0.3238935010153776
 31
0.0
210
0.0
220
0.0
230
1.0
 40
0.5773502691896259
 41
5.497787143782132
 42
6.807058865447664
  0
LINE
  5
11E
330
6C
100
AcDbEntity
  8
Visible (ANSI)
100
AcDbLine
 10
7.91205979979157
 20
6.474738497648602
 30
0.0
 11
8.049178560990531
 21
6.511525985828005
 31
0.0
  0
ELLIPSE
  5
11F
330
6C
100
AcDbEntity
  8
Visible (ANSI)
100
AcDbEllipse
 10
7.980436355376118
 20
6.175273981777344
 30
0.0
 11
0.1879999999999997
 21
0.3256255518229485
 31
0.0
210
0.0
220
0.0
230
0.9999999999999998
 40
0.5773502691896258
 41
5.497787143782137
 42
6.807058865447205
  0
LINE
  5
120
330
6C
100
AcDbEntity
  8
Visible (ANSI)
100
AcDbLine
 10
8.246308505102259
 20
6.328775338991755
 30
0.0
 11
8.246308505102261
 21
6.248268776112282
 31
0.0
  0
ELLIPSE
  5
121
330
6C
100
AcDbEntity
  8
Visible (ANSI)
100
AcDbEllipse
 10
7.980436355376118
 20
6.09476741889787
 30
0.0
 11
-0.1880000000000195
 21
-0.3256255518229381
 31
0.0
210
0.0
220
0.0
230
1.0
 40
0.577350269189625
 41
1.044420296035742
 42
2.356194490192583
  0
LINE
  5
122
330
6C
100
AcDbEntity
  8
Visible (ANSI)
100
AcDbLine
 10
8.048535632220852
 20
5.837323172449032
 30
0.0
 11
7.912608751199932
 21
5.717256681693015
 31
0.0
  0
ELLIPSE
  5
123
330
6C
100
AcDbEntity
  8
Visible (ANSI)
100
AcDbEllipse
 10
7.980436355376118
 20
5.460839473465584
 30
0.0
 11
-0.1872500000000419
 21
-0.3243265137173894
 31
0.0
210
0.0
220
0.0
230
1.0
 40
0.5773502691896248
 41
4.186012949560502
 42
5.497787143782106
  0
LINE
  5
124
330
6C
100
AcDbEntity
  8
Visible (ANSI)
100
AcDbLine
 10
7.715624865821669
 20
5.307950488686773
 30
0.0
 11
7.715624865821749
 21
5.012133777416706
 31
0.0
  0
LINE
  5
125
330
6C
100
AcDbEntity
  8
Visible (ANSI)
100
AcDbLine
 10
7.715624865821749
 20
5.012133777416706
 30
0.0
 11
7.80365966007944
 21
4.961306865253975
 31
0.0
  0
LINE
  5
126
330
6C
100
AcDbEntity
  8
Visible (ANSI)
100
AcDbLine
 10
7.80365966007944
 20
4.961306865253975
 30
0.0
 11
7.936242181551917
 21
5.03785341971595
 31
0.0
  0
ELLIPSE
  5
127
330
6C
100
AcDbEntity
  8
Visible (ANSI)
100
AcDbEllipse
 10
7.936242181551916
 20
4.986822383407965
 30
0.0
 11
0.0312500000000008
 21
0.0541265877365288
 31
0.0
210
0.0
220
0.0
230
1.0
 40
0.5773502691896257
 41
6.108652381980148
 42
7.068583470577003
  0
LINE
  5
128
330
6C
100
AcDbEntity
  8
Visible (ANSI)
100
AcDbLine
 10
7.972443929385639
 20
5.036993672213736
 30
0.0
 11
8.224558338066259
 21
4.76679433987853
 31
0.0
  0
ELLIPSE
  5
129
330
6C
100
AcDbEntity
  8
Visible (ANSI)
100
AcDbEllipse
 10
8.260760085899992
 20
4.816965628684303
 30
0.0
 11
-0.0312500000000003
 21
-0.0541265877365279
 31
0.0
210
0.0
220
0.0
230
1.0
 40
0.5773502691896259
 41
6.108652381979965
 42
7.068583470577034
  0
LINE
  5
12A
330
6C
100
AcDbEntity
  8
Visible (ANSI)
100
AcDbLine
 10
8.260760085899992
 20
4.765934592376311
 30
0.0
 11
8.510766441265985
 21
4.910275828945994
 31
0.0
  0
ELLIPSE
  5
12B
330
6C
100
AcDbEntity
  8
Visible (ANSI)
100
AcDbEllipse
 10
8.510766441265985
 20
4.80821375633002
 30
0.0
 11
0.0625000000000048
 21
0.1082531754730631
 31
0.0
210
0.0
220
0.0
230
1.0
 40
0.577350269189626
 41
0.5623569792359469
 42
0.7853981633974483
  0
LINE
  5
12C
330
6C
100
AcDbEntity
  8
Visible Narrow (ANSI)
100
AcDbLine
 10
8.530317633804806
 20
4.919035562252886
 30
0.0
 11
8.530317633804804
 21
9.263776215918712
 31
0.0
  0
ELLIPSE
  5
12D
330
6C
100
AcDbEntity
  8
Visible (ANSI)
100
AcDbEllipse
 10
8.321563897771854
 20
9.332053241396149
 30
0.0
 11
-0.1875000000000006
 21
-0.3247595264191666
 31
0.0
210
0.0
220
0.0
230
1.0
 40
0.5773502691896275
 41
0.8048215116312533
 42
1.69175031314243
  0
LINE
  5
12E
330
6C
100
AcDbEntity
  8
Visible (ANSI)
100
AcDbLine
 10
8.326713966901431
 20
9.028898172425481
 30
0.0
 11
7.869757436552281
 21
8.765074196620462
 31
0.0
  0
LINE
  5
12F
330
6C
100
AcDbEntity
  8
Visible (ANSI)
100
AcDbLine
 10
7.869757436552281
 20
8.765074196620462
 30
0.0
 11
7.715978419212349
 21
8.498746221392075
 31
0.0
  0
LINE
  5
130
330
6C
100
AcDbEntity
  8
Visible (ANSI)
100
AcDbLine
 10
7.715978419212349
 20
8.498746221392075
 30
0.0
 11
7.715978419212349
 21
8.289510228431598
 31
0.0
  0
ELLIPSE
  5
131
330
6C
100
AcDbEntity
  8
Visible (ANSI)
100
AcDbEllipse
 10
7.980436355376118
 20
8.442195089065082
 30
0.0
 11
-0.1870000000000003
 21
-0.3238935010153804
 31
0.0
210
0.0
220
0.0
230
1.0
 40
0.5773502691896258
 41
5.497787143782144
 42
6.807058865446811
  0
LINE
  5
132
330
6C
100
AcDbEntity
  8
Visible (ANSI)
100
AcDbLine
 10
7.912059799791459
 20
8.107731659503972
 30
0.0
 11
8.049178560990554
 21
8.144519147683473
 31
0.0
  0
ELLIPSE
  5
133
330
6C
100
AcDbEntity
  8
Visible (ANSI)
100
AcDbEllipse
 10
7.980436355375952
 20
7.808267143632701
 30
0.0
 11
0.1880000000000001
 21
0.3256255518229489
 31
0.0
210
0.0
220
0.0
230
0.9999999999999998
 40
0.5773502691896258
 41
5.497787143782639
 42
6.807058865446508
  0
ELLIPSE
  5
134
330
6C
100
AcDbEntity
  8
Visible (ANSI)
100
AcDbEllipse
 10
8.063521402165497
 20
6.897424382778845
 30
0.0
 11
-0.1524999999999842
 21
-0.2641377481542627
 31
0.0
210
0.0
220
0.0
230
0.9999999999999998
 40
0.577350269189626
 41
4.288472034984295
 42
6.707102252579715
  0
LINE
  5
135
330
6C
100
AcDbEntity
  8
Visible Narrow (ANSI)
100
AcDbLine
 10
8.084024019198237
 20
7.014283414862701
 30
0.0
 11
7.987248385486903
 21
7.086325686859601
 31
0.0
  0
ELLIPSE
  5
136
330
6C
100
AcDbEntity
  8
Visible Narrow (ANSI)
100
AcDbEllipse
 10
7.979912507772501
 20
6.849152765094296
 30
0.0
 11
0.097753253313945
 21
0.1693136013449032
 31
0.0
210
0.0
220
0.0
230
1.0
 40
0.5773502691896259
 41
4.779751892062286
 42
6.215822395502082
  0
LINE
  5
137
330
6C
100
AcDbEntity
  8
Visible Narrow (ANSI)
100
AcDbLine
 10
7.987248385486911
 20
6.620450585275512
 30
0.0
 11
8.084024019198244
 21
6.804239733620681
 31
0.0
  0
ELLIPSE
  5
138
330
6C
100
AcDbEntity
  8
Visible (ANSI)
100
AcDbEllipse
 10
8.223990533278296
 20
4.838194539788429
 30
0.0
 11
-0.0312500000000031
 21
-0.0541265877365327
 31
0.0
210
0.0
220
0.0
230
1.0
 40
0.5773502691896258
 41
6.10865238197999
 42
6.283185307179597
  0
LINE
  5
139
330
6C
100
AcDbEntity
  8
Visible (ANSI)
100
AcDbLine
 10
7.94969309824499
 20
5.043198256845617
 30
0.0
 11
8.18778878544456
 21
4.788023250982651
 31
0.0
  0
LINE
  5
13A
330
6C
100
AcDbEntity
  8
Visible (ANSI)
100
AcDbLine
 10
7.678855313199969
 20
5.329179399790894
 30
0.0
 11
7.678855313200049
 21
5.033362688520827
 31
0.0
  0
ELLIPSE
  5
13B
330
6C
100
AcDbEntity
  8
Visible (ANSI)
100
AcDbEllipse
 10
7.943666802754418
 20
5.482068384569704
 30
0.0
 11
-0.1872500000000419
 21
-0.3243265137173894
 31
0.0
210
0.0
220
0.0
230
0.9999999999999998
 40
0.5773502691896258
 41
4.186012949560506
 42
5.49778714378211
  0
LINE
  5
13C
330
6C
100
AcDbEntity
  8
Visible (ANSI)
100
AcDbLine
 10
8.011766079599151
 20
5.858552083553152
 30
0.0
 11
7.875839198578231
 21
5.738485592797136
 31
0.0
  0
ELLIPSE
  5
13D
330
6C
100
AcDbEntity
  8
Visible (ANSI)
100
AcDbEllipse
 10
7.943666802754417
 20
6.115996330001991
 30
0.0
 11
-0.1880000000000197
 21
-0.325625551822938
 31
0.0
210
0.0
220
0.0
230
1.0
 40
0.577350269189626
 41
1.044420296035748
 42
2.356194490192585
  0
LINE
  5
13E
330
6C
100
AcDbEntity
  8
Visible (ANSI)
100
AcDbLine
 10
8.20953895248056
 20
6.350004250095877
 30
0.0
 11
8.20953895248056
 21
6.269497687216403
 31
0.0
  0
ELLIPSE
  5
13F
330
6C
100
AcDbEntity
  8
Visible (ANSI)
100
AcDbEllipse
 10
7.943666802754417
 20
6.196502892881464
 30
0.0
 11
0.1880000000000008
 21
0.32562555182295
 31
0.0
210
0.0
220
0.0
230
1.0
 40
0.577350269189626
 41
5.49778714378214
 42
6.185237403634452
  0
ELLIPSE
  5
140
330
6C
100
AcDbEntity
  8
Visible (ANSI)
100
AcDbEllipse
 10
7.943666802754294
 20
6.830430838313679
 30
0.0
 11
-0.1870000000000007
 21
-0.3238935010153812
 31
0.0
210
0.0
220
0.0
230
1.0
 40
0.5773502691896259
 41
5.497787143782137
 42
6.283185307179587
  0
LINE
  5
141
330
6C
100
AcDbEntity
  8
Visible (ANSI)
100
AcDbLine
 10
7.679208866590649
 20
6.758252540559741
 30
0.0
 11
7.679208866590649
 21
6.677745977680266
 31
0.0
  0
ELLIPSE
  5
142
330
6C
100
AcDbEntity
  8
Visible (ANSI)
100
AcDbEllipse
 10
7.94366680275429
 20
6.91093740119315
 30
0.0
 11
-0.1869999999999813
 21
-0.3238935010153921
 31
0.0
210
0.0
220
0.0
230
1.0
 40
0.5773502691896259
 41
4.18851542211682
 42
5.497787143781963
  0
LINE
  5
143
330
6C
100
AcDbEntity
  8
Visible (ANSI)
100
AcDbLine
 10
8.012409008368749
 20
7.287990004407132
 30
0.0
 11
7.87529024716978
 21
7.166446385208218
 31
0.0
  0
ELLIPSE
  5
144
330
6C
100
AcDbEntity
  8
Visible (ANSI)
100
AcDbEllipse
 10
7.943666802754377
 20
7.544865346625488
 30
0.0
 11
-0.1880000000000187
 21
-0.3256255518229365
 31
0.0
210
0.0
220
0.0
230
0.9999999999999998
 40
0.5773502691896259
 41
1.046922768527299
 42
2.356194490193086
  0
LINE
  5
145
330
6C
100
AcDbEntity
  8
Visible (ANSI)
100
AcDbLine
 10
8.209538952480395
 20
7.982997411951387
 30
0.0
 11
8.209538952480519
 21
7.698366703840054
 31
0.0
  0
ELLIPSE
  5
146
330
6C
100
AcDbEntity
  8
Visible (ANSI)
100
AcDbEllipse
 10
7.943666802754252
 20
7.829496054736821
 30
0.0
 11
0.1880000000000004
 21
0.3256255518229496
 31
0.0
210
0.0
220
0.0
230
1.0
 40
0.5773502691896259
 41
5.497787143782645
 42
6.185237403634449
  0
ELLIPSE
  5
147
330
6C
100
AcDbEntity
  8
Visible (ANSI)
100
AcDbEllipse
 10
7.943666802754419
 20
8.463424000169204
 30
0.0
 11
-0.1870000000000011
 21
-0.3238935010153819
 31
0.0
210
0.0
220
0.0
230
1.0
 40
0.5773502691896259
 41
5.49778714378214
 42
6.283185307179586
  0
LINE
  5
148
330
6C
100
AcDbEntity
  8
Visible (ANSI)
100
AcDbLine
 10
7.679208866590649
 20
8.519975132496195
 30
0.0
 11
7.679208866590649
 21
8.310739139535717
 31
0.0
  0
LINE
  5
149
330
6C
100
AcDbEntity
  8
Visible (ANSI)
100
AcDbLine
 10
7.83298788393058
 20
8.786303107724583
 30
0.0
 11
7.679208866590649
 21
8.519975132496195
 31
0.0
  0
LINE
  5
14A
330
6C
100
AcDbEntity
  8
Visible (ANSI)
100
AcDbLine
 10
8.289944414279732
 20
9.050127083529602
 30
0.0
 11
7.83298788393058
 21
8.786303107724583
 31
0.0
  0
ELLIPSE
  5
14B
330
6C
100
AcDbEntity
  8
Visible (ANSI)
100
AcDbEllipse
 10
8.284794345150155
 20
9.353282152500268
 30
0.0
 11
-0.1875000000000011
 21
-0.3247595264191662
 31
0.0
210
0.0
220
0.0
230
0.9999999999999998
 40
0.577350269189626
 41
0.804821511631256
 42
1.691750313142429
  0
SPLINE
  5
14C
330
6C
100
AcDbEntity
  8
Visible (ANSI)
100
AcDbSpline
210
0.0
220
0.0
230
1.0
 70
     8
 71
     3
 72
    12
 73
     8
 74
     0
 42
0.0000000001
 43
0.0000000001
 40
1.545733359115656
 40
1.545733359115656
 40
1.545733359115656
 40
1.545733359115656
 40
1.667968723553914
 40
1.667968723553914
 40
1.790204087992171
 40
1.790204087992171
 40
1.817424699444737
 40
1.817424699444737
 40
1.817424699444737
 40
1.817424699444737
 10
7.98724838548691
 20
6.620450585275512
 30
0.0
 10
7.976638463331946
 20
6.618957091073147
 30
0.0
 10
7.963615439715939
 20
6.619818966258977
 30
0.0
 10
7.935420531805918
 20
6.626616978226832
 30
0.0
 10
7.920215974995611
 20
6.632493795544616
 30
0.0
 10
7.902656903874101
 20
6.640592792515718
 30
0.0
 10
7.89940813804824
 20
6.642144349245548
 30
0.0
 10
7.896130480176196
 20
6.643755592350185
 30
0.0
  0
LINE
  5
14D
330
6C
100
AcDbEntity
  8
Visible Narrow (ANSI)
100
AcDbLine
 10
9.221145522723254
 20
5.660855874545932
 30
0.0
 11
9.158598860902083
 21
5.707418353290029
 31
0.0
  0
SPLINE
  5
14E
330
6C
100
AcDbEntity
  8
Visible Narrow (ANSI)
100
AcDbSpline
210
0.0
220
0.0
230
1.0
 70
     8
 71
     3
 72
    16
 73
    12
 74
     0
 42
0.0000000001
 43
0.0000000001
 40
-0.8526014295714523
 40
-0.8526014295714523
 40
-0.8526014295714523
 40
-0.8526014295714523
 40
-0.7511841478377527
 40
-0.7511841478377527
 40
-0.5309397873149666
 40
-0.5309397873149666
 40
-0.3310603362594514
 40
-0.3310603362594514
 40
-0.1273308985613276
 40
-0.1273308985613276
 40
-0.0000000000000002
 40
-0.0000000000000002
 40
-0.0000000000000002
 40
-0.0000000000000002
 10
9.22867461754266
 20
5.411675531415703
 30
0.0
 10
9.23443664635239
 20
5.423654862167299
 30
0.0
 10
9.23965758413389
 20
5.435852563472753
 30
0.0
 10
9.254058532389715
 20
5.474559773848812
 30
0.0
 10
9.260748593141295
 20
5.501221193810265
 30
0.0
 10
9.266255841266801
 20
5.549161699854838
 30
0.0
 10
9.265744974508201
 20
5.570702966553995
 30
0.0
 10
9.258397428107899
 20
5.609252520392388
 30
0.0
 10
9.251537673540866
 20
5.625926271753608
 30
0.0
 10
9.235952995394685
 20
5.647908979427346
 30
0.0
 10
9.228919163982457
 20
5.655068834992475
 30
0.0
 10
9.221145522723254
 20
5.660855874545932
 30
0.0
  0
SPLINE
  5
14F
330
6C
100
AcDbEntity
  8
Visible (ANSI)
100
AcDbSpline
210
0.0
220
0.0
230
1.0
 70
     8
 71
     3
 72
    10
 73
     6
 74
     0
 42
0.0000000001
 43
0.0000000001
 40
1.210904257623311
 40
1.210904257623311
 40
1.210904257623311
 40
1.210904257623311
 40
1.255105732495443
 40
1.255105732495443
 40
1.306983205061499
 40
1.306983205061499
 40
1.306983205061499
 40
1.306983205061499
 10
9.069146129941568
 20
5.251761772684232
 30
0.0
 10
9.067709477652789
 20
5.252960997475099
 30
0.0
 10
9.066699895909135
 20
5.254019969152472
 30
0.0
 10
9.065415238819459
 20
5.256066798215796
 30
0.0
 10
9.065292974701797
 20
5.257064051343593
 30
0.0
 10
9.065781126245271
 20
5.25797715014015
 30
0.0
  0
ELLIPSE
  5
150
330
6C
100
AcDbEntity
  8
Visible (ANSI)
100
AcDbEllipse
 10
9.172356815781443
 20
5.542978671594733
 30
0.0
 11
-0.1525000000023812
 21
-0.2641377481583781
 31
0.0
210
0.0
220
0.0
230
1.0
 40
0.5773502691896258
 41
0.1208498579151369
 42
0.2871327068963012
  0
ELLIPSE
  5
151
330
6C
100
AcDbEntity
  8
Visible (ANSI)
100
AcDbEllipse
 10
9.172356815781464
 20
6.971847688218303
 30
0.0
 11
-0.1525000000024074
 21
-0.2641377481584235
 31
0.0
210
0.0
220
0.0
230
1.0
 40
0.5773502691896257
 41
0.1208498579151467
 42
0.2871327068962861
  0
ELLIPSE
  5
152
330
6C
100
AcDbEntity
  8
Visible (ANSI)
100
AcDbEllipse
 10
9.528835715187518
 20
4.268891807195776
 30
0.0
 11
-0.0312499999999991
 21
-0.0541265877365265
 31
0.0
210
0.0
220
0.0
230
1.0
 40
0.5773502691896258
 41
5.585053606381777
 42
6.283185307179514
  0
LINE
  5
153
330
6C
100
AcDbEntity
  8
Visible (ANSI)
100
AcDbLine
 10
9.484809713537346
 20
4.239025735419103
 30
0.0
 11
9.455970127536279
 21
4.603008341476607
 31
0.0
  0
ELLIPSE
  5
154
330
6C
100
AcDbEntity
  8
Visible (ANSI)
100
AcDbEllipse
 10
9.411944125886105
 20
4.573142269699948
 30
0.0
 11
0.0312499999999993
 21
0.0541265877365261
 31
0.0
210
0.0
220
0.0
230
1.0
 40
0.5773502691896257
 41
5.585053606381536
 42
6.283185307179136
  0
LINE
  5
155
330
6C
100
AcDbEntity
  8
Visible (ANSI)
100
AcDbLine
 10
9.35479036532755
 20
4.678308792392325
 30
0.0
 11
9.355143665165423
 21
4.973905492196795
 31
0.0
  0
ELLIPSE
  5
156
330
6C
100
AcDbEntity
  8
Visible (ANSI)
100
AcDbEllipse
 10
9.089271768991995
 20
4.820828270593217
 30
0.0
 11
0.1879999999999994
 21
0.3256255518229477
 31
0.0
210
0.0
220
0.0
230
0.9999999999999998
 40
0.5773502691896259
 41
5.496406083169441
 42
6.185237403634447
  0
ELLIPSE
  5
157
330
6C
100
AcDbEntity
  8
Visible (ANSI)
100
AcDbEllipse
 10
9.089271768991993
 20
5.454756216025502
 30
0.0
 11
-0.1870000000000001
 21
-0.3238935010153801
 31
0.0
210
0.0
220
0.0
230
0.9999999999999998
 40
0.5773502691896258
 41
5.497787143782137
 42
6.283185307179584
  0
LINE
  5
158
330
6C
100
AcDbEntity
  8
Visible (ANSI)
100
AcDbLine
 10
8.824813832828226
 20
5.302071355392017
 30
0.0
 11
8.824813832828226
 21
5.382577918271491
 31
0.0
  0
ELLIPSE
  5
159
330
6C
100
AcDbEntity
  8
Visible (ANSI)
100
AcDbEllipse
 10
9.089271768991993
 20
5.535262778904977
 30
0.0
 11
0.1870000000000194
 21
0.3238935010153686
 31
0.0
210
0.0
220
0.0
230
1.0
 40
0.5773502691896263
 41
1.046922768527462
 42
2.356194490192589
  0
LINE
  5
15A
330
6C
100
AcDbEntity
  8
Visible (ANSI)
100
AcDbLine
 10
9.020895213407445
 20
5.790771762920009
 30
0.0
 11
9.158013974606406
 21
5.912315382118941
 31
0.0
  0
ELLIPSE
  5
15B
330
6C
100
AcDbEntity
  8
Visible (ANSI)
100
AcDbEllipse
 10
9.089271768992119
 20
6.169190724337336
 30
0.0
 11
0.1879999999999809
 21
0.3256255518229604
 31
0.0
210
0.0
220
0.0
230
1.0
 40
0.5773502691896262
 41
4.18851542211652
 42
5.497787143781959
  0
LINE
  5
15C
330
6C
100
AcDbEntity
  8
Visible (ANSI)
100
AcDbLine
 10
9.355143918718136
 20
6.322692081551675
 30
0.0
 11
9.355143918718136
 21
6.403198644431149
 31
0.0
  0
ELLIPSE
  5
15D
330
6C
100
AcDbEntity
  8
Visible (ANSI)
100
AcDbEllipse
 10
9.089271768992123
 20
6.24969728721681
 30
0.0
 11
0.188
 21
0.3256255518229488
 31
0.0
210
0.0
220
0.0
230
1.0
 40
0.5773502691896259
 41
5.497787143782131
 42
6.185237403634449
  0
ELLIPSE
  5
15E
330
6C
100
AcDbEntity
  8
Visible (ANSI)
100
AcDbEllipse
 10
9.089271768992036
 20
6.883625232649047
 30
0.0
 11
-0.187
 21
-0.3238935010153798
 31
0.0
210
0.0
220
0.0
230
1.0
 40
0.5773502691896258
 41
5.497787143778429
 42
6.283185307179589
  0
LINE
  5
15F
330
6C
100
AcDbEntity
  8
Visible (ANSI)
100
AcDbLine
 10
8.824813832827256
 20
6.730940372016112
 30
0.0
 11
8.824813832828171
 21
7.015571080128045
 31
0.0
  0
ELLIPSE
  5
160
330
6C
100
AcDbEntity
  8
Visible (ANSI)
100
AcDbEllipse
 10
9.089271768992158
 20
7.168255940760525
 30
0.0
 11
0.1870000000000189
 21
0.3238935010153679
 31
0.0
210
0.0
220
0.0
230
1.0
 40
0.5773502691896261
 41
1.046922768527901
 42
2.35619449018888
  0
LINE
  5
161
330
6C
100
AcDbEntity
  8
Visible (ANSI)
100
AcDbLine
 10
9.020895213407488
 20
7.423764924775485
 30
0.0
 11
9.158013974606451
 21
7.545308543974418
 31
0.0
  0
ELLIPSE
  5
162
330
6C
100
AcDbEntity
  8
Visible (ANSI)
100
AcDbEllipse
 10
9.089271768991995
 20
7.802183886192715
 30
0.0
 11
0.1879999999999797
 21
0.3256255518229582
 31
0.0
210
0.0
220
0.0
230
1.0
 40
0.5773502691896262
 41
4.188515422117125
 42
5.497787143781966
  0
LINE
  5
163
330
6C
100
AcDbEntity
  8
Visible (ANSI)
100
AcDbLine
 10
9.355143918718136
 20
7.955685243407128
 30
0.0
 11
9.355143918718136
 21
8.164906225195695
 31
0.0
  0
LINE
  5
164
330
6C
100
AcDbEntity
  8
Visible (ANSI)
100
AcDbLine
 10
9.355143918718136
 20
8.164906225195695
 30
0.0
 11
9.492752970179408
 21
8.400300410239916
 31
0.0
  0
ELLIPSE
  5
165
330
6C
100
AcDbEntity
  8
Visible (ANSI)
100
AcDbEllipse
 10
9.6784869762792
 20
8.289007471647089
 30
0.0
 11
0.1874999999999907
 21
0.3247595264191483
 31
0.0
210
0.0
220
0.0
230
1.0
 40
0.5773502691896259
 41
1.25476925262995
 42
1.561421498718453
  0
ELLIPSE
  5
166
330
6C
100
AcDbEntity
  8
Visible (ANSI)
100
AcDbEllipse
 10
9.438605166174879
 20
8.696657799272236
 30
0.0
 11
0.1875000000000046
 21
0.3247595264191724
 31
0.0
210
0.0
220
0.0
230
1.0
 40
0.5773502691896259
 41
4.396361906219754
 42
4.787857627750153
  0
ELLIPSE
  5
167
330
6C
100
AcDbEntity
  8
Visible (ANSI)
100
AcDbEllipse
 10
9.213620372644246
 20
5.519155145932315
 30
0.0
 11
-0.1265556735075586
 21
-0.2786963454235181
 31
0.0
210
0.0
220
0.0
230
1.0
 40
0.5007957916305309
 41
6.145829397368203
 42
6.151258180836792
  0
LINE
  5
168
330
6C
100
AcDbEntity
  8
Visible (ANSI)
100
AcDbLine
 10
9.063292077259035
 20
5.238849234018134
 30
0.0
 11
9.069804741380051
 21
5.251217723642469
 31
0.0
  0
ELLIPSE
  5
169
330
6C
100
AcDbEntity
  8
Visible (ANSI)
100
AcDbEllipse
 10
9.09929053074169
 20
5.599691980623244
 30
0.0
 11
0.0587268700417841
 21
0.0780778514241587
 31
0.0
210
0.0
220
0.0
230
1.0
 40
0.5657414540893355
 41
0.9259156141491065
 42
1.437864161592179
  0
LINE
  5
16A
330
6C
100
AcDbEntity
  8
Visible (ANSI)
100
AcDbLine
 10
9.09929053074169
 20
5.673176672906739
 30
0.0
 11
9.158598860902083
 21
5.707418353290029
 31
0.0
  0
ELLIPSE
  5
16B
330
6C
100
AcDbEntity
  8
Visible (ANSI)
100
AcDbEllipse
 10
9.209126368403156
 20
5.521749760490648
 30
0.0
 11
-0.1525000000024001
 21
-0.2641377481584106
 31
0.0
210
0.0
220
0.0
230
0.9999999999999998
 40
0.577350269189626
 41
4.657303344972874
 42
6.366248580056024
  0
LINE
  5
16C
330
6C
100
AcDbEntity
  8
Visible (ANSI)
100
AcDbLine
 10
9.063292077259035
 20
6.667718250641656
 30
0.0
 11
9.069804741380051
 21
6.68008674026599
 31
0.0
  0
ELLIPSE
  5
16D
330
6C
100
AcDbEntity
  8
Visible (ANSI)
100
AcDbEllipse
 10
9.209126368403156
 20
6.950618777114168
 30
0.0
 11
-0.1525000000023999
 21
-0.2641377481584105
 31
0.0
210
0.0
220
0.0
230
0.9999999999999998
 40
0.5773502691896259
 41
4.657303344972868
 42
6.366248580056026
  0
ELLIPSE
  5
16E
330
6C
100
AcDbEntity
  8
Visible (ANSI)
100
AcDbEllipse
 10
9.09929053074169
 20
7.028560997246763
 30
0.0
 11
0.0587268700417841
 21
0.0780778514241587
 31
0.0
210
0.0
220
0.0
230
1.0
 40
0.5657414540893355
 41
0.9259156141491065
 42
1.437864161592179
  0
LINE
  5
16F
330
6C
100
AcDbEntity
  8
Visible (ANSI)
100
AcDbLine
 10
9.09929053074169
 20
7.102045689530259
 30
0.0
 11
9.158598860902081
 21
7.13628736991355
 31
0.0
  0
LINE
  5
170
330
6C
100
AcDbEntity
  8
Visible Narrow (ANSI)
100
AcDbLine
 10
9.221145522723254
 20
7.089724891169452
 30
0.0
 11
9.158598860902081
 21
7.13628736991355
 31
0.0
  0
SPLINE
  5
171
330
6C
100
AcDbEntity
  8
Visible Narrow (ANSI)
100
AcDbSpline
210
0.0
220
0.0
230
1.0
 70
     8
 71
     3
 72
    16
 73
    12
 74
     0
 42
0.0000000001
 43
0.0000000001
 40
-0.8526014239648754
 40
-0.8526014239648754
 40
-0.8526014239648754
 40
-0.8526014239648754
 40
-0.7511814591717223
 40
-0.7511814591717223
 40
-0.5309395569734957
 40
-0.5309395569734957
 40
-0.3310602310302284
 40
-0.3310602310302284
 40
-0.1273308580885495
 40
-0.1273308580885495
 40
-0.0000000000000002
 40
-0.0000000000000002
 40
-0.0000000000000002
 40
-0.0000000000000002
 10
9.22867461742771
 20
6.840544548067066
 30
0.0
 10
9.234436798309568
 20
6.852524195314391
 30
0.0
 10
9.239657859287893
 20
6.864722224141336
 30
0.0
 10
9.254058703446309
 20
6.90342945768478
 30
0.0
 10
9.260748641597034
 20
6.930090570534142
 30
0.0
 10
9.266255841274414
 20
6.978030772545832
 30
0.0
 10
9.26574496990641
 20
6.999572026765193
 30
0.0
 10
9.258397420138361
 20
7.038121559010267
 30
0.0
 10
9.251537665701167
 20
7.054795302247008
 30
0.0
 10
9.235952990896933
 20
7.076778000637761
 30
0.0
 10
9.228919161511564
 20
7.083937853455436
 30
0.0
 10
9.221145522723254
 20
7.089724891169454
 30
0.0
  0
ELLIPSE
  5
172
330
6C
100
AcDbEntity
  8
Visible (ANSI)
100
AcDbEllipse
 10
9.475374718796578
 20
8.675428888168115
 30
0.0
 11
0.1875000000000046
 21
0.3247595264191724
 31
0.0
210
0.0
220
0.0
230
1.0
 40
0.5773502691896259
 41
4.396361906219754
 42
4.787857627750153
  0
ELLIPSE
  5
173
330
6C
100
AcDbEntity
  8
Visible (ANSI)
100
AcDbEllipse
 10
9.715256528900901
 20
8.267778560542966
 30
0.0
 11
0.1874999999999907
 21
0.3247595264191483
 31
0.0
210
0.0
220
0.0
230
1.0
 40
0.5773502691896259
 41
1.25476925262995
 42
1.561421498718453
  0
LINE
  5
174
330
6C
100
AcDbEntity
  8
Visible (ANSI)
100
AcDbLine
 10
9.391913471339837
 20
8.143677314091574
 30
0.0
 11
9.529522522801109
 21
8.379071499135793
 31
0.0
  0
LINE
  5
175
330
6C
100
AcDbEntity
  8
Visible (ANSI)
100
AcDbLine
 10
9.391913471339837
 20
7.934456332303007
 30
0.0
 11
9.391913471339837
 21
8.143677314091574
 31
0.0
  0
ELLIPSE
  5
176
330
6C
100
AcDbEntity
  8
Visible (ANSI)
100
AcDbEllipse
 10
9.126041321613696
 20
7.780954975088594
 30
0.0
 11
0.1879999999999796
 21
0.3256255518229583
 31
0.0
210
0.0
220
0.0
230
1.0
 40
0.5773502691896255
 41
4.188515422117125
 42
5.497787143781965
  0
LINE
  5
177
330
6C
100
AcDbEntity
  8
Visible (ANSI)
100
AcDbLine
 10
9.057664766029189
 20
7.402536013671365
 30
0.0
 11
9.19478352722815
 21
7.524079632870297
 31
0.0
  0
ELLIPSE
  5
178
330
6C
100
AcDbEntity
  8
Visible (ANSI)
100
AcDbEllipse
 10
9.126041321613859
 20
7.147027029656404
 30
0.0
 11
0.1870000000000189
 21
0.3238935010153678
 31
0.0
210
0.0
220
0.0
230
1.0
 40
0.5773502691896259
 41
1.046922768527903
 42
2.35619449018888
  0
LINE
  5
179
330
6C
100
AcDbEntity
  8
Visible (ANSI)
100
AcDbLine
 10
8.861583385448957
 20
6.709711460911992
 30
0.0
 11
8.861583385449872
 21
6.994342169023924
 31
0.0
  0
ELLIPSE
  5
17A
330
6C
100
AcDbEntity
  8
Visible (ANSI)
100
AcDbEllipse
 10
9.126041321613737
 20
6.862396321544928
 30
0.0
 11
-0.187000000000001
 21
-0.3238935010153818
 31
0.0
210
0.0
220
0.0
230
1.0
 40
0.5773502691896258
 41
5.497787143778431
 42
6.807058865447348
  0
LINE
  5
17B
330
6C
100
AcDbEntity
  8
Visible (ANSI)
100
AcDbLine
 10
9.194783527228196
 20
6.56472038016334
 30
0.0
 11
9.057664766029226
 21
6.527932891983908
 31
0.0
  0
ELLIPSE
  5
17C
330
6C
100
AcDbEntity
  8
Visible (ANSI)
100
AcDbEllipse
 10
9.126041321613822
 20
6.228468376112689
 30
0.0
 11
0.188
 21
0.3256255518229488
 31
0.0
210
0.0
220
0.0
230
1.0
 40
0.5773502691896259
 41
5.497787143782133
 42
6.807058865447352
  0
LINE
  5
17D
330
6C
100
AcDbEntity
  8
Visible (ANSI)
100
AcDbLine
 10
9.391913471339837
 20
6.301463170447555
 30
0.0
 11
9.391913471339837
 21
6.381969733327028
 31
0.0
  0
ELLIPSE
  5
17E
330
6C
100
AcDbEntity
  8
Visible (ANSI)
100
AcDbEllipse
 10
9.12604132161382
 20
6.147961813233214
 30
0.0
 11
0.1879999999999807
 21
0.3256255518229605
 31
0.0
210
0.0
220
0.0
230
1.0
 40
0.5773502691896258
 41
4.18851542211652
 42
5.497787143781958
  0
LINE
  5
17F
330
6C
100
AcDbEntity
  8
Visible (ANSI)
100
AcDbLine
 10
9.057664766029144
 20
5.769542851815888
 30
0.0
 11
9.194783527228107
 21
5.89108647101482
 31
0.0
  0
ELLIPSE
  5
180
330
6C
100
AcDbEntity
  8
Visible (ANSI)
100
AcDbEllipse
 10
9.126041321613694
 20
5.514033867800856
 30
0.0
 11
0.187000000000019
 21
0.3238935010153681
 31
0.0
210
0.0
220
0.0
230
1.0
 40
0.5773502691896258
 41
1.046922768527453
 42
2.356194490192585
  0
LINE
  5
181
330
6C
100
AcDbEntity
  8
Visible (ANSI)
100
AcDbLine
 10
8.861583385449925
 20
5.280842444287896
 30
0.0
 11
8.861583385449925
 21
5.361349007167371
 31
0.0
  0
ELLIPSE
  5
182
330
6C
100
AcDbEntity
  8
Visible (ANSI)
100
AcDbEllipse
 10
9.126041321613694
 20
5.433527304921381
 30
0.0
 11
-0.1869999999999999
 21
-0.3238935010153797
 31
0.0
210
0.0
220
0.0
230
0.9999999999999996
 40
0.5773502691896259
 41
5.497787143782138
 42
6.807058865447199
  0
LINE
  5
183
330
6C
100
AcDbEntity
  8
Visible (ANSI)
100
AcDbLine
 10
9.194783527228107
 20
5.135851363539757
 30
0.0
 11
9.057664766029146
 21
5.099063875360353
 31
0.0
  0
ELLIPSE
  5
184
330
6C
100
AcDbEntity
  8
Visible (ANSI)
100
AcDbEllipse
 10
9.126041321613694
 20
4.799599359489095
 30
0.0
 11
0.1880000000000002
 21
0.3256255518229492
 31
0.0
210
0.0
220
0.0
230
1.0
 40
0.5773502691896258
 41
5.496406083169445
 42
6.807058865447196
  0
LINE
  5
185
330
6C
100
AcDbEntity
  8
Visible (ANSI)
100
AcDbLine
 10
9.391559917949251
 20
4.657079881288204
 30
0.0
 11
9.391913217787124
 21
4.952676581092674
 31
0.0
  0
LINE
  5
186
330
6C
100
AcDbEntity
  8
Visible (ANSI)
100
AcDbLine
 10
9.479963678507818
 20
4.606039946332345
 30
0.0
 11
9.391559917949251
 21
4.657079881288204
 31
0.0
  0
ELLIPSE
  5
187
330
6C
100
AcDbEntity
  8
Visible (ANSI)
100
AcDbEllipse
 10
9.448713678507806
 20
4.551913358595827
 30
0.0
 11
0.0312499999999993
 21
0.0541265877365261
 31
0.0
210
0.0
220
0.0
230
1.0
 40
0.5773502691896257
 41
5.585053606381536
 42
6.283185307179136
  0
LINE
  5
188
330
6C
100
AcDbEntity
  8
Visible (ANSI)
100
AcDbLine
 10
9.521579266159047
 20
4.217796824314982
 30
0.0
 11
9.492739680157978
 21
4.581779430372487
 31
0.0
  0
ELLIPSE
  5
189
330
6C
100
AcDbEntity
  8
Visible (ANSI)
100
AcDbEllipse
 10
9.565605267809219
 20
4.247662896091656
 30
0.0
 11
-0.0312499999999999
 21
-0.0541265877365272
 31
0.0
210
0.0
220
0.0
230
1.0
 40
0.5773502691896259
 41
5.585053606381823
 42
7.068583470577034
  0
LINE
  5
18A
330
6C
100
AcDbEntity
  8
Visible (ANSI)
100
AcDbLine
 10
9.656371407503646
 20
4.249035714969554
 30
0.0
 11
9.565605267809219
 21
4.196631859783673
 31
0.0
  0
ELLIPSE
  5
18B
330
6C
100
AcDbEntity
  8
Visible (ANSI)
100
AcDbEllipse
 10
9.656371407503648
 20
4.146973642353602
 30
0.0
 11
-0.0624999999999857
 21
-0.1082531754730449
 31
0.0
210
0.0
220
0.0
230
1.0
 40
0.5773502691896258
 41
3.697502096068816
 42
3.926990816986942
  0
SPLINE
  5
18C
330
6C
100
AcDbEntity
  8
Visible (ANSI)
100
AcDbSpline
210
0.0
220
0.0
230
1.0
 70
     8
 71
     3
 72
    10
 73
     6
 74
     0
 42
0.0000000001
 43
0.0000000001
 40
0.1957794006821893
 40
0.1957794006821893
 40
0.1957794006821893
 40
0.1957794006821893
 40
0.2393194369663745
 40
0.2393194369663745
 40
0.2918578962022389
 40
0.2918578962022389
 40
0.2918578962022389
 40
0.2918578962022389
 10
9.069146129941568
 20
6.680630789307753
 30
0.0
 10
9.067731276779484
 20
6.681811817591814
 30
0.0
 10
9.066730836257592
 20
6.682856591425274
 30
0.0
 10
9.065419350486124
 20
6.68490972385056
 30
0.0
 10
9.065287436153862
 20
6.685921154566251
 30
0.0
 10
9.06578151394769
 20
6.686846072814609
 30
0.0
  0
ELLIPSE
  5
18D
330
6C
100
AcDbEntity
  8
Visible (ANSI)
100
AcDbEllipse
 10
9.213620372644246
 20
6.948024162555835
 30
0.0
 11
-0.1265556735075588
 21
-0.2786963454235182
 31
0.0
210
0.0
220
0.0
230
1.0
 40
0.500795791630531
 41
6.145829397368203
 42
6.151258180836791
  0
LINE
  5
18E
330
6C
100
AcDbEntity
  8
Visible (ANSI)
100
AcDbLine
 10
8.509726684336653
 20
9.275664406137019
 30
0.0
 11
8.493548081183105
 21
9.285005127022833
 31
0.0
  0
LINE
  5
18F
330
6C
100
AcDbEntity
  8
Visible (ANSI)
100
AcDbLine
 10
8.530317633804804
 20
9.263776215918712
 30
0.0
 11
8.509726684336653
 21
9.275664406137019
 31
0.0
  0
LINE
  5
190
330
6C
100
AcDbEntity
  8
Visible Narrow (ANSI)
100
AcDbLine
 10
8.509726684336653
 20
4.886905836402516
 30
0.0
 11
8.493548081183107
 21
4.877565115516703
 31
0.0
  0
LINE
  5
191
330
6C
100
AcDbEntity
  8
Visible (ANSI)
100
AcDbLine
 10
8.530317633804806
 20
4.898794026620824
 30
0.0
 11
8.509726684336653
 21
4.886905836402516
 31
0.0
  0
LINE
  5
192
330
6C
100
AcDbEntity
  8
Visible (ANSI)
100
AcDbLine
 10
8.509728177134947
 20
9.458080824660214
 30
0.0
 11
8.530317633804804
 21
9.469968153011024
 31
0.0
  0
LINE
  5
193
330
6C
100
AcDbEntity
  8
Visible (ANSI)
100
AcDbLine
 10
8.493548081183105
 20
9.448739241906904
 30
0.0
 11
8.509728177134947
 21
9.458080824660214
 31
0.0
  0
LINE
  5
194
330
6C
100
AcDbEntity
  8
Visible Narrow (ANSI)
100
AcDbLine
 10
8.493548081183107
 20
4.877565115516703
 30
0.0
 11
8.493548081183107
 21
4.900334804117139
 31
0.0
  0
LINE
  5
195
330
6C
100
AcDbEntity
  8
Visible Narrow (ANSI)
100
AcDbLine
 10
8.493548081183105
 20
9.285005127022833
 30
0.0
 11
8.493548081183105
 21
9.448739241906904
 31
0.0
  0
ELLIPSE
  5
196
330
6C
100
AcDbEntity
  8
Visible (ANSI)
100
AcDbEllipse
 10
8.090037906459983
 20
9.392147678233301
 30
0.0
 11
-0.0427499999999955
 21
0.0740451720235719
 31
0.0
210
0.0
220
0.0
230
1.0
 40
0.5773502691896259
 41
5.497787143782378
 42
8.639379797372171
  0
LINE
  5
197
330
6C
100
AcDbEntity
  8
Visible (ANSI)
100
AcDbLine
 10
8.090037906459983
 20
9.46195813590263
 30
0.0
 11
8.145899342173727
 21
9.429706520955981
 31
0.0
  0
ELLIPSE
  5
198
330
6C
100
AcDbEntity
  8
Visible (ANSI)
100
AcDbEllipse
 10
8.145899342173727
 20
9.359896063286655
 30
0.0
 11
0.0427499999999955
 21
-0.0740451720235719
 31
0.0
210
0.0
220
0.0
230
1.0
 40
0.5773502691896259
 41
5.497787143782378
 42
8.639379797372171
  0
LINE
  5
199
330
6C
100
AcDbEntity
  8
Visible (ANSI)
100
AcDbLine
 10
8.145899342173727
 20
9.290085605617331
 30
0.0
 11
8.090037906459983
 21
9.322337220563971
 31
0.0
  0
ELLIPSE
  5
19A
330
6C
100
AcDbEntity
  8
Visible (ANSI)
100
AcDbEllipse
 10
8.090150423316254
 20
7.65702748212463
 30
0.0
 11
-0.0427499999999955
 21
0.0740451720235719
 31
0.0
210
0.0
220
0.0
230
1.0
 40
0.5773502691896259
 41
5.497787143782379
 42
8.639379797372171
  0
LINE
  5
19B
330
6C
100
AcDbEntity
  8
Visible (ANSI)
100
AcDbLine
 10
8.090150423316254
 20
7.72683793979395
 30
0.0
 11
8.145915416010316
 21
7.694642006250677
 31
0.0
  0
ELLIPSE
  5
19C
330
6C
100
AcDbEntity
  8
Visible (ANSI)
100
AcDbEllipse
 10
8.145915416010318
 20
7.624831548581359
 30
0.0
 11
0.0427499999999944
 21
-0.07404517202357
 31
0.0
210
0.0
220
0.0
230
1.0
 40
0.5773502691896259
 41
1.182682790191771
 42
2.35619449019261
  0
ELLIPSE
  5
19D
330
6C
100
AcDbEntity
  8
Visible (ANSI)
100
AcDbEllipse
 10
8.145915416010316
 20
7.624831548581359
 30
0.0
 11
0.0427500000000009
 21
-0.074045172023571
 31
0.0
210
0.0
220
0.0
230
1.0
 40
0.5773502691896259
 41
5.497787143782137
 42
6.149814863653331
  0
LINE
  5
19E
330
6C
100
AcDbEntity
  8
Visible (ANSI)
100
AcDbLine
 10
8.145915416010316
 20
7.555021090912036
 30
0.0
 11
8.090150423316254
 21
7.587217024455311
 31
0.0
  0
LINE
  5
19F
330
6C
100
AcDbEntity
  8
Visible (ANSI)
100
AcDbLine
 10
8.383172035478562
 20
9.73321697301559
 30
0.0
 11
8.493548081183105
 21
9.448739241906904
 31
0.0
  0
LINE
  5
1A0
330
6C
100
AcDbEntity
  8
Visible (ANSI)
100
AcDbLine
 10
8.038941804205474
 20
9.931958389704314
 30
0.0
 11
8.383172035478562
 21
9.73321697301559
 31
0.0
  0
LINE
  5
1A1
330
6C
100
AcDbEntity
  8
Visible (ANSI)
100
AcDbLine
 10
7.874939036500728
 20
9.837271347622134
 30
0.0
 11
8.038941804205474
 21
9.931958389704314
 31
0.0
  0
LINE
  5
1A2
330
6C
100
AcDbEntity
  8
Visible (ANSI)
100
AcDbLine
 10
7.874939036500728
 20
9.403507539004277
 30
0.0
 11
7.874939036500728
 21
9.837271347622134
 31
0.0
  0
ELLIPSE
  5
1A3
330
6C
100
AcDbEntity
  8
Visible (ANSI)
100
AcDbEllipse
 10
7.874939036500728
 20
9.250414430080329
 30
0.0
 11
0.0937500000000001
 21
-0.1623797632095823
 31
0.0
210
0.0
220
0.0
230
1.0
 40
0.5773502691896258
 41
5.497787143782137
 42
8.63937979737193
  0
LINE
  5
1A4
330
6C
100
AcDbEntity
  8
Visible (ANSI)
100
AcDbLine
 10
7.874939036500729
 20
5.791069382005169
 30
0.0
 11
7.874939036500729
 21
6.468273223148278
 31
0.0
  0
LINE
  5
1A5
330
6C
100
AcDbEntity
  8
Visible (ANSI)
100
AcDbLine
 10
7.874939036500728
 20
7.166134769254468
 30
0.0
 11
7.874939036500728
 21
8.101266385003793
 31
0.0
  0
LINE
  5
1A6
330
6C
100
AcDbEntity
  8
Visible (ANSI)
100
AcDbLine
 10
7.874939036500728
 20
8.810523616953773
 30
0.0
 11
7.874939036500728
 21
9.097321321156378
 31
0.0
  0
ELLIPSE
  5
1A7
330
6C
100
AcDbEntity
  8
Visible (ANSI)
100
AcDbEllipse
 10
7.874939036500731
 20
5.72125855269178
 30
0.0
 11
-0.042750227584583
 21
0.0740455662116302
 31
0.0
210
0.0
220
0.0
230
1.0
 40
0.5773502691896257
 41
4.975341496248566
 42
5.497787143782184
  0
LINE
  5
1A8
330
6C
100
AcDbEntity
  8
Visible (ANSI)
100
AcDbLine
 10
7.874723891588687
 20
4.386436730098429
 30
0.0
 11
7.874723891588687
 21
5.002335818445592
 31
0.0
  0
LINE
  5
1A9
330
6C
100
AcDbEntity
  8
Visible (ANSI)
100
AcDbLine
 10
8.52791378070977
 20
4.138298366181226
 30
0.0
 11
8.52791378070977
 21
4.009317371782431
 31
0.0
  0
ELLIPSE
  5
1AA
330
6C
100
AcDbEntity
  8
Visible (ANSI)
100
AcDbEllipse
 10
8.351137085413192
 20
4.240360438797053
 30
0.0
 11
0.1249999999999568
 21
-0.2165063509460347
 31
0.0
210
0.0
220
0.0
230
1.0
 40
0.5773502691896258
 41
0.7853981633979581
 42
0.872664625997702
  0
LINE
  5
1AB
330
6C
100
AcDbEntity
  8
Visible (ANSI)
100
AcDbLine
 10
8.494115013822863
 20
4.612810190123878
 30
0.0
 11
8.527241092013813
 21
4.156477334671336
 31
0.0
  0
ELLIPSE
  5
1AC
330
6C
100
AcDbEntity
  8
Visible (ANSI)
100
AcDbEllipse
 10
8.670219020423603
 20
4.528927085997992
 30
0.0
 11
0.125000000000048
 21
-0.216506350946163
 31
0.0
210
0.0
220
0.0
230
1.0
 40
0.5773502691896257
 41
3.926990816987014
 42
4.014257279586722
  0
LINE
  5
1AD
330
6C
100
AcDbEntity
  8
Visible (ANSI)
100
AcDbLine
 10
8.493442325126915
 20
4.872634978653104
 30
0.0
 11
8.493442325126915
 21
4.630989158613983
 31
0.0
  0
ELLIPSE
  5
1AE
330
6C
100
AcDbEntity
  8
Visible (ANSI)
100
AcDbEllipse
 10
8.581830672775121
 20
4.821603942345192
 30
0.0
 11
0.0624999999999254
 21
-0.1082531754729107
 31
0.0
210
0.0
220
0.0
230
0.9999999999999998
 40
0.5773502691896258
 41
3.878067778094983
 42
3.926990816987022
  0
LINE
  5
1AF
330
6C
100
AcDbEntity
  8
Visible (ANSI)
100
AcDbLine
 10
8.419941588100263
 20
9.754445884119711
 30
0.0
 11
8.530317633804804
 21
9.469968153011024
 31
0.0
  0
LINE
  5
1B0
330
6C
100
AcDbEntity
  8
Visible (ANSI)
100
AcDbLine
 10
8.419941588100263
 20
9.754445884119711
 30
0.0
 11
8.383172035478562
 21
9.73321697301559
 31
0.0
  0
LINE
  5
1B1
330
6C
100
AcDbEntity
  8
Visible Narrow (ANSI)
100
AcDbLine
 10
9.558546071227045
 20
8.492832635459656
 30
0.0
 11
9.595315623848746
 21
8.471603724355537
 31
0.0
  0
LINE
  5
1B2
330
6C
100
AcDbEntity
  8
Visible Narrow (ANSI)
100
AcDbLine
 10
9.492752970179408
 20
8.400300410239916
 30
0.0
 11
9.529522522801109
 21
8.379071499135793
 31
0.0
  0
LINE
  5
1B3
330
6C
100
AcDbEntity
  8
Visible (ANSI)
100
AcDbLine
 10
9.355143918718136
 20
8.164906225195695
 30
0.0
 11
9.391913471339837
 21
8.143677314091574
 31
0.0
  0
LINE
  5
1B4
330
6C
100
AcDbEntity
  8
Visible Narrow (ANSI)
100
AcDbLine
 10
9.355143918718136
 20
7.955685243407128
 30
0.0
 11
9.391913471339837
 21
7.934456332303007
 31
0.0
  0
LINE
  5
1B5
330
6C
100
AcDbEntity
  8
Visible Narrow (ANSI)
100
AcDbLine
 10
9.158013974606451
 20
7.545308543974418
 30
0.0
 11
9.19478352722815
 21
7.524079632870297
 31
0.0
  0
LINE
  5
1B6
330
6C
100
AcDbEntity
  8
Visible Narrow (ANSI)
100
AcDbLine
 10
9.020895213407488
 20
7.423764924775485
 30
0.0
 11
9.057664766029189
 21
7.402536013671365
 31
0.0
  0
LINE
  5
1B7
330
6C
100
AcDbEntity
  8
Visible Narrow (ANSI)
100
AcDbLine
 10
8.824813832828171
 20
7.015571080128045
 30
0.0
 11
8.861583385449872
 21
6.994342169023924
 31
0.0
  0
LINE
  5
1B8
330
6C
100
AcDbEntity
  8
Visible Narrow (ANSI)
100
AcDbLine
 10
8.824813832827256
 20
6.730940372016112
 30
0.0
 11
8.861583385448957
 21
6.709711460911992
 31
0.0
  0
LINE
  5
1B9
330
6C
100
AcDbEntity
  8
Visible Narrow (ANSI)
100
AcDbLine
 10
9.355143918718136
 20
6.403198644431149
 30
0.0
 11
9.391913471339837
 21
6.381969733327028
 31
0.0
  0
LINE
  5
1BA
330
6C
100
AcDbEntity
  8
Visible Narrow (ANSI)
100
AcDbLine
 10
9.355143918718136
 20
6.322692081551675
 30
0.0
 11
9.391913471339837
 21
6.301463170447555
 31
0.0
  0
LINE
  5
1BB
330
6C
100
AcDbEntity
  8
Visible Narrow (ANSI)
100
AcDbLine
 10
9.158013974606406
 20
5.912315382118941
 30
0.0
 11
9.194783527228107
 21
5.89108647101482
 31
0.0
  0
LINE
  5
1BC
330
6C
100
AcDbEntity
  8
Visible Narrow (ANSI)
100
AcDbLine
 10
9.020895213407445
 20
5.790771762920009
 30
0.0
 11
9.057664766029144
 21
5.769542851815888
 31
0.0
  0
LINE
  5
1BD
330
6C
100
AcDbEntity
  8
Visible Narrow (ANSI)
100
AcDbLine
 10
8.824813832828226
 20
5.382577918271491
 30
0.0
 11
8.861583385449925
 21
5.361349007167371
 31
0.0
  0
LINE
  5
1BE
330
6C
100
AcDbEntity
  8
Visible Narrow (ANSI)
100
AcDbLine
 10
8.824813832828226
 20
5.302071355392017
 30
0.0
 11
8.861583385449925
 21
5.280842444287896
 31
0.0
  0
LINE
  5
1BF
330
6C
100
AcDbEntity
  8
Visible Narrow (ANSI)
100
AcDbLine
 10
9.355143665165423
 20
4.973905492196795
 30
0.0
 11
9.391913217787124
 21
4.952676581092674
 31
0.0
  0
LINE
  5
1C0
330
6C
100
AcDbEntity
  8
Visible (ANSI)
100
AcDbLine
 10
9.35479036532755
 20
4.678308792392325
 30
0.0
 11
9.391559917949251
 21
4.657079881288204
 31
0.0
  0
LINE
  5
1C1
330
6C
100
AcDbEntity
  8
Visible Narrow (ANSI)
100
AcDbLine
 10
9.455970127536279
 20
4.603008341476607
 30
0.0
 11
9.492739680157978
 21
4.581779430372487
 31
0.0
  0
LINE
  5
1C2
330
6C
100
AcDbEntity
  8
Visible Narrow (ANSI)
100
AcDbLine
 10
9.484809713537346
 20
4.239025735419103
 30
0.0
 11
9.521579266159047
 21
4.217796824314982
 31
0.0
  0
LINE
  5
1C3
330
6C
100
AcDbEntity
  8
Visible (ANSI)
100
AcDbLine
 10
9.730218075779914
 20
8.716611341966782
 30
0.0
 11
9.849662194314916
 21
8.886538485047484
 31
0.0
  0
LINE
  5
1C4
330
6C
100
AcDbEntity
  8
Visible (ANSI)
100
AcDbLine
 10
9.886431746936615
 20
8.907767396151603
 30
0.0
 11
9.849662194314916
 21
8.886538485047484
 31
0.0
  0
LINE
  5
1C5
330
6C
100
AcDbEntity
  8
Visible (ANSI)
100
AcDbLine
 10
9.886431746936615
 20
8.907767396151603
 30
0.0
 11
10.22236764627405
 21
8.713814714238678
 31
0.0
  0
LINE
  5
1C6
330
6C
100
AcDbEntity
  8
Visible (ANSI)
100
AcDbLine
 10
10.22236764627405
 20
8.713814714238678
 30
0.0
 11
10.38636717836326
 21
8.429759192242592
 31
0.0
  0
LINE
  5
1C7
330
6C
100
AcDbEntity
  8
Visible (ANSI)
100
AcDbLine
 10
10.38636717836326
 20
8.429759192242592
 30
0.0
 11
10.38636717836326
 21
7.995991647457786
 31
0.0
  0
ELLIPSE
  5
1C8
330
6C
100
AcDbEntity
  8
Visible (ANSI)
100
AcDbEllipse
 10
10.38636717836326
 20
7.842898538533837
 30
0.0
 11
-0.0937499999999999
 21
0.162379763209582
 31
0.0
210
0.0
220
0.0
230
0.9999999999999998
 40
0.5773502691896258
 41
0.1973834706102359
 42
2.356194490192344
  0
LINE
  5
1C9
330
6C
100
AcDbEntity
  8
Visible (ANSI)
100
AcDbLine
 10
10.38636717836326
 20
7.689805429609888
 30
0.0
 11
10.38636717836326
 21
4.383553490458678
 31
0.0
  0
ELLIPSE
  5
1CA
330
6C
100
AcDbEntity
  8
Visible (ANSI)
100
AcDbEllipse
 10
10.3863671783633
 20
4.313742661145263
 30
0.0
 11
0.0427502275845882
 21
-0.0740455662116291
 31
0.0
210
0.0
220
0.0
230
1.0
 40
0.5773502691896257
 41
3.5861418734425
 42
3.926990816986921
  0
LINE
  5
1CB
330
6C
100
AcDbEntity
  8
Visible (ANSI)
100
AcDbLine
 10
10.32590922671865
 20
4.348648075801957
 30
0.0
 11
10.32590922671865
 21
4.30787134202957
 31
0.0
  0
ELLIPSE
  5
1CC
330
6C
100
AcDbEntity
  8
Visible (ANSI)
100
AcDbEllipse
 10
10.3863671783633
 20
4.272965927372874
 30
0.0
 11
0.0427502275845891
 21
-0.0740455662116306
 31
0.0
210
0.0
220
0.0
230
1.0
 40
0.5773502691896258
 41
3.926990816986993
 42
5.49778714378192
  0
LINE
  5
1CD
330
6C
100
AcDbEntity
  8
Visible (ANSI)
100
AcDbLine
 10
10.3863671783633
 20
4.203155098059482
 30
0.0
 11
10.3863671783633
 21
2.97879662457903
 31
0.0
  0
ELLIPSE
  5
1CE
330
6C
100
AcDbEntity
  8
Visible (ANSI)
100
AcDbEllipse
 10
10.11519172777826
 20
5.815892653769855
 30
0.0
 11
0.0427500000000044
 21
-0.0740451720235669
 31
0.0
210
0.0
220
0.0
230
0.9999999999999996
 40
0.5773502691896258
 41
3.58614440934842
 42
5.497787143781803
  0
LINE
  5
1CF
330
6C
100
AcDbEntity
  8
Visible (ANSI)
100
AcDbLine
 10
10.11519172777826
 20
5.746082196100526
 30
0.0
 11
10.171053163492
 21
5.713830581153896
 31
0.0
  0
ELLIPSE
  5
1D0
330
6C
100
AcDbEntity
  8
Visible (ANSI)
100
AcDbEllipse
 10
10.171053163492
 20
5.783641038823223
 30
0.0
 11
0.0427499999999971
 21
-0.0740451720235645
 31
0.0
210
0.0
220
0.0
230
0.9999999999999998
 40
0.5773502691896257
 41
5.497787143782161
 42
5.838633551420448
  0
ELLIPSE
  5
1D1
330
6C
100
AcDbEntity
  8
Visible (ANSI)
100
AcDbEllipse
 10
10.11519172777826
 20
6.836513379929516
 30
0.0
 11
0.0427500000000044
 21
-0.0740451720235669
 31
0.0
210
0.0
220
0.0
230
0.9999999999999996
 40
0.5773502691896258
 41
3.58614440934842
 42
5.497787143781803
  0
LINE
  5
1D2
330
6C
100
AcDbEntity
  8
Visible (ANSI)
100
AcDbLine
 10
10.11519172777826
 20
6.766702922260193
 30
0.0
 11
10.171053163492
 21
6.734451307313539
 31
0.0
  0
ELLIPSE
  5
1D3
330
6C
100
AcDbEntity
  8
Visible (ANSI)
100
AcDbEllipse
 10
10.171053163492
 20
6.804261764982884
 30
0.0
 11
0.0427500000000086
 21
-0.0740451720235844
 31
0.0
210
0.0
220
0.0
230
1.0
 40
0.5773502691896258
 41
5.497787143782161
 42
5.838633551420501
  0
ELLIPSE
  5
1D4
330
6C
100
AcDbEntity
  8
Visible (ANSI)
100
AcDbEllipse
 10
10.11519172777826
 20
8.520537578092948
 30
0.0
 11
0.0427500000000043
 21
-0.0740451720235668
 31
0.0
210
0.0
220
0.0
230
1.0
 40
0.5773502691896259
 41
3.58614440934842
 42
5.497787143781803
  0
LINE
  5
1D5
330
6C
100
AcDbEntity
  8
Visible (ANSI)
100
AcDbLine
 10
10.11519172777826
 20
8.450727120423632
 30
0.0
 11
10.171053163492
 21
8.418475505476974
 31
0.0
  0
ELLIPSE
  5
1D6
330
6C
100
AcDbEntity
  8
Visible (ANSI)
100
AcDbEllipse
 10
10.17105316349201
 20
8.488285963146273
 30
0.0
 11
0.0427499999999859
 21
-0.074045172023545
 31
0.0
210
0.0
220
0.0
230
0.9999999999999998
 40
0.5773502691896259
 41
5.497787143782067
 42
5.838633551420586
  0
ELLIPSE
  5
1D7
330
6C
100
AcDbEntity
  8
Visible (ANSI)
100
AcDbEllipse
 10
10.07842217515656
 20
8.499308666988826
 30
0.0
 11
-0.0427499999999955
 21
0.0740451720235719
 31
0.0
210
0.0
220
0.0
230
1.0
 40
0.5773502691896259
 41
5.497787143782379
 42
8.639379797372173
  0
LINE
  5
1D8
330
6C
100
AcDbEntity
  8
Visible (ANSI)
100
AcDbLine
 10
10.07842217515656
 20
8.569119124658143
 30
0.0
 11
10.1342836108703
 21
8.536867509711504
 31
0.0
  0
ELLIPSE
  5
1D9
330
6C
100
AcDbEntity
  8
Visible (ANSI)
100
AcDbEllipse
 10
10.1342836108703
 20
8.467057052042179
 30
0.0
 11
0.0427499999999955
 21
-0.0740451720235719
 31
0.0
210
0.0
220
0.0
230
1.0
 40
0.5773502691896259
 41
5.497787143782379
 42
8.639379797372173
  0
LINE
  5
1DA
330
6C
100
AcDbEntity
  8
Visible (ANSI)
100
AcDbLine
 10
10.1342836108703
 20
8.397246594372855
 30
0.0
 11
10.07842217515656
 21
8.429498209319511
 31
0.0
  0
ELLIPSE
  5
1DB
330
6C
100
AcDbEntity
  8
Visible (ANSI)
100
AcDbEllipse
 10
10.07842217515656
 20
6.815284468825395
 30
0.0
 11
-0.0427499999999955
 21
0.0740451720235719
 31
0.0
210
0.0
220
0.0
230
1.0
 40
0.5773502691896258
 41
5.497787143782379
 42
8.639379797372173
  0
LINE
  5
1DC
330
6C
100
AcDbEntity
  8
Visible (ANSI)
100
AcDbLine
 10
10.07842217515656
 20
6.885094926494719
 30
0.0
 11
10.1342836108703
 21
6.852843311548078
 31
0.0
  0
ELLIPSE
  5
1DD
330
6C
100
AcDbEntity
  8
Visible (ANSI)
100
AcDbEllipse
 10
10.1342836108703
 20
6.783032853878748
 30
0.0
 11
0.0427499999999955
 21
-0.0740451720235719
 31
0.0
210
0.0
220
0.0
230
1.0
 40
0.5773502691896258
 41
5.497787143782379
 42
8.639379797372173
  0
LINE
  5
1DE
330
6C
100
AcDbEntity
  8
Visible (ANSI)
100
AcDbLine
 10
10.1342836108703
 20
6.713222396209419
 30
0.0
 11
10.07842217515656
 21
6.745474011156074
 31
0.0
  0
ELLIPSE
  5
1DF
330
6C
100
AcDbEntity
  8
Visible (ANSI)
100
AcDbEllipse
 10
10.07842217515656
 20
5.794663742665734
 30
0.0
 11
-0.0427499999999955
 21
0.0740451720235719
 31
0.0
210
0.0
220
0.0
230
1.0
 40
0.5773502691896258
 41
5.497787143782379
 42
8.639379797372173
  0
LINE
  5
1E0
330
6C
100
AcDbEntity
  8
Visible (ANSI)
100
AcDbLine
 10
10.07842217515656
 20
5.864474200335064
 30
0.0
 11
10.1342836108703
 21
5.83222258538841
 31
0.0
  0
ELLIPSE
  5
1E1
330
6C
100
AcDbEntity
  8
Visible (ANSI)
100
AcDbEllipse
 10
10.1342836108703
 20
5.762412127719092
 30
0.0
 11
0.0427499999999878
 21
-0.0740451720235585
 31
0.0
210
0.0
220
0.0
230
1.0
 40
0.5773502691896258
 41
5.497787143782379
 42
8.639379797372173
  0
LINE
  5
1E2
330
6C
100
AcDbEntity
  8
Visible (ANSI)
100
AcDbLine
 10
10.1342836108703
 20
5.692601670049776
 30
0.0
 11
10.07842217515656
 21
5.724853284996405
 31
0.0
  0
ELLIPSE
  5
1E3
330
6C
100
AcDbEntity
  8
Visible (ANSI)
100
AcDbEllipse
 10
9.642490844555069
 20
4.209231506649319
 30
0.0
 11
-0.0624999999999954
 21
0.1082531754730319
 31
0.0
210
0.0
220
0.0
230
0.9999999999999998
 40
0.5773502691896258
 41
3.926990816986986
 42
4.049375631460168
  0
LINE
  5
1E4
330
6C
100
AcDbEntity
  8
Visible (ANSI)
100
AcDbLine
 10
9.730879192203373
 20
3.916554650302224
 30
0.0
 11
9.730879192203373
 21
4.158200470341345
 31
0.0
  0
ELLIPSE
  5
1E5
330
6C
100
AcDbEntity
  8
Visible (ANSI)
100
AcDbEllipse
 10
9.554102496906731
 20
4.018616722918194
 30
0.0
 11
-0.1250000000000172
 21
0.2165063509461094
 31
0.0
210
0.0
220
0.0
230
1.0
 40
0.5773502691896259
 41
3.839724354387236
 42
3.926990816986966
  0
LINE
  5
1E6
330
6C
100
AcDbEntity
  8
Visible (ANSI)
100
AcDbLine
 10
9.697080425316475
 20
3.481070280680432
 30
0.0
 11
9.730206503507426
 21
3.89915243581149
 31
0.0
  0
ELLIPSE
  5
1E7
330
6C
100
AcDbEntity
  8
Visible (ANSI)
100
AcDbEllipse
 10
9.873184431917158
 20
3.361605993573629
 30
0.0
 11
-0.1250000000000006
 21
0.2165063509461106
 31
0.0
210
0.0
220
0.0
230
1.0
 40
0.5773502691896259
 41
0.6981317007972035
 42
0.7853981633969163
  0
LINE
  5
1E8
330
6C
100
AcDbEntity
  8
Visible (ANSI)
100
AcDbLine
 10
9.696407736620534
 20
3.334687071790901
 30
0.0
 11
9.696407736620519
 21
3.463668066189704
 31
0.0
  0
LINE
  5
1E9
330
6C
100
AcDbEntity
  8
Visible (ANSI)
100
AcDbLine
 10
10.3495976257416
 20
4.181926186955362
 30
0.0
 11
10.3495976257416
 21
2.957567713474909
 31
0.0
  0
ELLIPSE
  5
1EA
330
6C
100
AcDbEntity
  8
Visible (ANSI)
100
AcDbEllipse
 10
10.3495976257416
 20
4.251737016268753
 30
0.0
 11
0.0427502275845891
 21
-0.0740455662116306
 31
0.0
210
0.0
220
0.0
230
1.0
 40
0.5773502691896258
 41
3.926990816986993
 42
5.49778714378192
  0
LINE
  5
1EB
330
6C
100
AcDbEntity
  8
Visible (ANSI)
100
AcDbLine
 10
10.28913967409694
 20
4.327419164697836
 30
0.0
 11
10.28913967409694
 21
4.286642430925449
 31
0.0
  0
ELLIPSE
  5
1EC
330
6C
100
AcDbEntity
  8
Visible (ANSI)
100
AcDbEllipse
 10
10.3495976257416
 20
4.292513750041141
 30
0.0
 11
-0.0427502275845847
 21
0.0740455662116332
 31
0.0
210
0.0
220
0.0
230
1.0
 40
0.5773502691896258
 41
5.497787143782855
 42
7.068583470577048
  0
LINE
  5
1ED
330
6C
100
AcDbEntity
  8
Visible (ANSI)
100
AcDbLine
 10
10.34959762574156
 20
7.668576518505767
 30
0.0
 11
10.34959762574156
 21
4.362324579354557
 31
0.0
  0
ELLIPSE
  5
1EE
330
6C
100
AcDbEntity
  8
Visible (ANSI)
100
AcDbEllipse
 10
10.34959762574156
 20
7.821669627429717
 30
0.0
 11
-0.0937500000000001
 21
0.1623797632095823
 31
0.0
210
0.0
220
0.0
230
1.0
 40
0.5773502691896258
 41
5.497787143782137
 42
8.63937979737193
  0
LINE
  5
1EF
330
6C
100
AcDbEntity
  8
Visible (ANSI)
100
AcDbLine
 10
10.34959762574156
 20
8.408530281138469
 30
0.0
 11
10.34959762574156
 21
7.974762736353664
 31
0.0
  0
LINE
  5
1F0
330
6C
100
AcDbEntity
  8
Visible (ANSI)
100
AcDbLine
 10
10.18559809365235
 20
8.692585803134559
 30
0.0
 11
10.34959762574156
 21
8.408530281138469
 31
0.0
  0
LINE
  5
1F1
330
6C
100
AcDbEntity
  8
Visible (ANSI)
100
AcDbLine
 10
9.849662194314916
 20
8.886538485047484
 30
0.0
 11
10.18559809365235
 21
8.692585803134559
 31
0.0
  0
LINE
  5
1F2
330
6C
100
AcDbEntity
  8
Visible (ANSI)
100
AcDbLine
 10
8.564683333331469
 20
4.159527277285347
 30
0.0
 11
8.564683333331469
 21
4.030546282886552
 31
0.0
  0
LINE
  5
1F3
330
6C
100
AcDbEntity
  8
Visible Narrow (ANSI)
100
AcDbLine
 10
8.564683333331469
 20
4.159527277285347
 30
0.0
 11
8.52791378070977
 21
4.138298366181226
 31
0.0
  0
ELLIPSE
  5
1F4
330
6C
100
AcDbEntity
  8
Visible (ANSI)
100
AcDbEllipse
 10
8.61860022539682
 20
4.842832853449313
 30
0.0
 11
0.0624999999999254
 21
-0.1082531754729107
 31
0.0
210
0.0
220
0.0
230
0.9999999999999998
 40
0.5773502691896258
 41
3.878067778094983
 42
3.926990816987022
  0
LINE
  5
1F5
330
6C
100
AcDbEntity
  8
Visible (ANSI)
100
AcDbLine
 10
8.530211877748616
 20
4.893863889757226
 30
0.0
 11
8.530211877748616
 21
4.652218069718104
 31
0.0
  0
ELLIPSE
  5
1F6
330
6C
100
AcDbEntity
  8
Visible (ANSI)
100
AcDbEllipse
 10
8.706988573045302
 20
4.550155997102112
 30
0.0
 11
0.125000000000048
 21
-0.216506350946163
 31
0.0
210
0.0
220
0.0
230
1.0
 40
0.5773502691896257
 41
3.926990816987014
 42
4.014257279586722
  0
LINE
  5
1F7
330
6C
100
AcDbEntity
  8
Visible (ANSI)
100
AcDbLine
 10
8.530884566444564
 20
4.634039101228
 30
0.0
 11
8.564010644635514
 21
4.177706245775457
 31
0.0
  0
ELLIPSE
  5
1F8
330
6C
100
AcDbEntity
  8
Visible (ANSI)
100
AcDbEllipse
 10
8.387906638034893
 20
4.261589349901174
 30
0.0
 11
0.1249999999999568
 21
-0.2165063509460347
 31
0.0
210
0.0
220
0.0
230
1.0
 40
0.5773502691896258
 41
0.7853981633979581
 42
0.872664625997702
  0
ELLIPSE
  5
1F9
330
6C
100
AcDbEntity
  8
Visible (ANSI)
100
AcDbEllipse
 10
7.911708589122429
 20
9.271643341184443
 30
0.0
 11
0.0937499999999969
 21
-0.1623797632095768
 31
0.0
210
0.0
220
0.0
230
0.9999999999999996
 40
0.5773502691896258
 41
5.497787143782127
 42
6.085801836569366
  0
LINE
  5
1FA
330
6C
100
AcDbEntity
  8
Visible (ANSI)
100
AcDbLine
 10
8.075711356827175
 20
9.953187300808435
 30
0.0
 11
8.419941588100263
 21
9.754445884119711
 31
0.0
  0
ELLIPSE
  5
1FB
330
6C
100
AcDbEntity
  8
Visible (ANSI)
100
AcDbEllipse
 10
8.126919975937955
 20
7.678256393228751
 30
0.0
 11
0.0427500000000045
 21
-0.0740451720235671
 31
0.0
210
0.0
220
0.0
230
1.0
 40
0.5773502691896259
 41
3.58614440934842
 42
5.497787143781803
  0
LINE
  5
1FC
330
6C
100
AcDbEntity
  8
Visible (ANSI)
100
AcDbLine
 10
8.126919975937955
 20
7.608445935559431
 30
0.0
 11
8.182684968632015
 21
7.576250002016156
 31
0.0
  0
ELLIPSE
  5
1FD
330
6C
100
AcDbEntity
  8
Visible (ANSI)
100
AcDbEllipse
 10
8.182684968632026
 20
7.646060459685321
 30
0.0
 11
0.0427499999999072
 21
-0.0740451720234088
 31
0.0
210
0.0
220
0.0
230
0.9999999999999998
 40
0.5773502691896259
 41
5.497787143781975
 42
5.623260034563099
  0
ELLIPSE
  5
1FE
330
6C
100
AcDbEntity
  8
Visible (ANSI)
100
AcDbEllipse
 10
8.126807459081684
 20
9.413376589337421
 30
0.0
 11
0.0427500000000042
 21
-0.0740451720235666
 31
0.0
210
0.0
220
0.0
230
0.9999999999999998
 40
0.5773502691896258
 41
3.586144409348401
 42
5.497787143781827
  0
LINE
  5
1FF
330
6C
100
AcDbEntity
  8
Visible (ANSI)
100
AcDbLine
 10
8.126807459081684
 20
9.34356613166809
 30
0.0
 11
8.182668894795426
 21
9.311314516721452
 31
0.0
  0
ELLIPSE
  5
200
330
6C
100
AcDbEntity
  8
Visible (ANSI)
100
AcDbEllipse
 10
8.182668894795426
 20
9.381124974390791
 30
0.0
 11
0.0427500000000083
 21
-0.0740451720235838
 31
0.0
210
0.0
220
0.0
230
0.9999999999999998
 40
0.5773502691896258
 41
5.497787143782161
 42
5.838633551420501
  0
LINE
  5
201
330
6C
100
AcDbEntity
  8
Visible Narrow (ANSI)
100
AcDbLine
 10
8.564010644635514
 20
4.177706245775457
 30
0.0
 11
8.527241092013813
 21
4.156477334671336
 31
0.0
  0
LINE
  5
202
330
6C
100
AcDbEntity
  8
Visible Narrow (ANSI)
100
AcDbLine
 10
8.530884566444564
 20
4.634039101228
 30
0.0
 11
8.494115013822863
 21
4.612810190123878
 31
0.0
  0
LINE
  5
203
330
6C
100
AcDbEntity
  8
Visible Narrow (ANSI)
100
AcDbLine
 10
8.530211877748616
 20
4.652218069718104
 30
0.0
 11
8.493442325126915
 21
4.630989158613983
 31
0.0
  0
LINE
  5
204
330
6C
100
AcDbEntity
  8
Visible Narrow (ANSI)
100
AcDbLine
 10
8.530211877748616
 20
4.893863889757226
 30
0.0
 11
8.493442325126915
 21
4.872634978653104
 31
0.0
  0
LINE
  5
205
330
6C
100
AcDbEntity
  8
Visible (ANSI)
100
AcDbLine
 10
8.075711356827175
 20
9.953187300808435
 30
0.0
 11
8.038941804205474
 21
9.931958389704314
 31
0.0
  0
LINE
  5
206
330
6C
100
AcDbEntity
  8
Visible (ANSI)
100
AcDbLine
 10
7.911708589122428
 20
9.118550232260501
 30
0.0
 11
7.874939036500728
 21
9.097321321156378
 31
0.0
  0
LINE
  5
207
330
6C
100
AcDbEntity
  8
Visible Narrow (ANSI)
100
AcDbLine
 10
8.182684968632015
 20
7.576250002016156
 30
0.0
 11
8.145915416010316
 21
7.555021090912036
 31
0.0
  0
LINE
  5
208
330
6C
100
AcDbEntity
  8
Visible Narrow (ANSI)
100
AcDbLine
 10
8.126919975937955
 20
7.608445935559431
 30
0.0
 11
8.090150423316254
 21
7.587217024455311
 31
0.0
  0
LINE
  5
209
330
6C
100
AcDbEntity
  8
Visible Narrow (ANSI)
100
AcDbLine
 10
8.182668894795426
 20
9.311314516721452
 30
0.0
 11
8.145899342173727
 21
9.290085605617331
 31
0.0
  0
LINE
  5
20A
330
6C
100
AcDbEntity
  8
Visible Narrow (ANSI)
100
AcDbLine
 10
8.126807459081684
 20
9.34356613166809
 30
0.0
 11
8.090037906459983
 21
9.322337220563971
 31
0.0
  0
LINE
  5
20B
330
6C
100
AcDbEntity
  8
Visible (ANSI)
100
AcDbLine
 10
8.543144228088069
 20
3.958066246680449
 30
0.0
 11
8.526533941024124
 21
3.929296385557395
 31
0.0
  0
ELLIPSE
  5
20C
330
6C
100
AcDbEntity
  8
Visible (ANSI)
100
AcDbEllipse
 10
8.614922288672444
 20
3.878265349249412
 30
0.0
 11
-0.0625
 21
-0.1082531754730548
 31
0.0
210
0.0
220
0.0
230
1.0
 40
0.8164965809277264
 41
4.712388980384698
 42
6.28318530717936
  0
LINE
  5
20D
330
6C
100
AcDbEntity
  8
Visible (ANSI)
100
AcDbLine
 10
10.3648280731199
 20
2.906316588372928
 30
0.0
 11
9.926342786055959
 21
2.146837792806754
 31
0.0
  0
LINE
  5
20E
330
6C
100
AcDbEntity
  8
Visible (ANSI)
100
AcDbLine
 10
9.926342786055959
 20
2.146837792806754
 30
0.0
 11
9.285670861941198
 21
1.903872589911859
 31
0.0
  0
ELLIPSE
  5
20F
330
6C
100
AcDbEntity
  8
Visible (ANSI)
100
AcDbEllipse
 10
8.975708091781491
 20
2.082252328433138
 30
0.0
 11
0.0427500000000003
 21
0.0740451720235696
 31
0.0
210
0.0
220
0.0
230
0.9999999999999998
 40
0.816496580927726
 41
0.2167190909678833
 42
1.576644313343703
  0
ELLIPSE
  5
210
330
6C
100
AcDbEntity
  8
Visible (ANSI)
100
AcDbEllipse
 10
7.870853746177512
 20
2.720140282282923
 30
0.0
 11
0.0427500000000005
 21
0.0740451720235698
 31
0.0
210
0.0
220
0.0
230
1.0
 40
0.8164965809277259
 41
0.2167190909678869
 42
1.564948340246078
  0
ELLIPSE
  5
211
330
6C
100
AcDbEntity
  8
Visible (ANSI)
100
AcDbEllipse
 10
8.2670309189795
 20
2.130563366675394
 30
0.0
 11
0.04275
 21
0.0740451720235695
 31
0.0
210
0.0
220
0.0
230
0.9999999999999998
 40
0.8164965809277262
 41
0.2167190909678805
 42
2.924873562621895
  0
LINE
  5
212
330
6C
100
AcDbEntity
  8
Visible (ANSI)
100
AcDbLine
 10
10.3388280731199
 20
2.921327695371859
 30
0.0
 11
9.90034278605596
 21
2.161848899805684
 31
0.0
  0
LINE
  5
213
330
6C
100
AcDbEntity
  8
Visible (ANSI)
100
AcDbLine
 10
9.926342786055959
 20
2.146837792806754
 30
0.0
 11
9.90034278605596
 21
2.161848899805684
 31
0.0
  0
LINE
  5
214
330
6C
100
AcDbEntity
  8
Visible (ANSI)
100
AcDbLine
 10
8.385495790644334
 20
1.629154939237969
 30
0.0
 11
7.542865907173969
 21
2.115647529286807
 31
0.0
  0
LINE
  5
215
330
6C
100
AcDbEntity
  8
Visible Narrow (ANSI)
100
AcDbLine
 10
7.855704364759316
 20
2.657499632386108
 30
0.0
 11
7.542865907173969
 21
2.115647529286807
 31
0.0
  0
LINE
  5
216
330
6C
100
AcDbEntity
  8
Visible Narrow (ANSI)
100
AcDbLine
 10
7.480096354552268
 20
2.151887547389857
 30
0.0
 11
7.792697901812659
 21
2.693329309769496
 31
0.0
  0
ELLIPSE
  5
217
330
6C
100
AcDbEntity
  8
Visible (ANSI)
100
AcDbEllipse
 10
7.844853746177511
 20
2.735151389281854
 30
0.0
 11
0.0427499999999938
 21
0.0740451720235729
 31
0.0
210
0.0
220
0.0
230
1.0
 40
0.8164965809277251
 41
3.904142495490869
 42
7.848133647425586
  0
LINE
  5
218
330
6C
100
AcDbEntity
  8
Visible (ANSI)
100
AcDbLine
 10
7.810647150176743
 20
2.755477926960147
 30
0.0
 11
7.784647150176743
 21
2.770489033959078
 31
0.0
  0
ELLIPSE
  5
219
330
6C
100
AcDbEntity
  8
Visible (ANSI)
100
AcDbEllipse
 10
8.2410309189795
 20
2.145574473674324
 30
0.0
 11
-0.04275
 21
-0.0740451720235695
 31
0.0
210
0.0
220
0.0
230
0.9999999999999998
 40
0.816496580927726
 41
0.0
 42
6.283185307179586
  0
LINE
  5
21A
330
6C
100
AcDbEntity
  8
Visible (ANSI)
100
AcDbLine
 10
8.517144228088067
 20
3.973077353679379
 30
0.0
 11
8.500533941024125
 21
3.944307492556325
 31
0.0
  0
LINE
  5
21B
330
6C
100
AcDbEntity
  8
Visible Narrow (ANSI)
100
AcDbLine
 10
8.526533941024124
 20
3.929296385557395
 30
0.0
 11
8.500533941024125
 21
3.944307492556325
 31
0.0
  0
ELLIPSE
  5
21C
330
6C
100
AcDbEntity
  8
Visible (ANSI)
100
AcDbEllipse
 10
8.588922288672444
 20
3.893276456248343
 30
0.0
 11
-0.0625
 21
-0.1082531754730549
 31
0.0
210
0.0
220
0.0
230
1.0
 40
0.816496580927726
 41
4.712388980384698
 42
6.28318530717936
  0
LINE
  5
21D
330
6C
100
AcDbEntity
  8
Visible (ANSI)
100
AcDbLine
 10
8.526422288672424
 20
3.785023280775299
 30
0.0
 11
9.518139549286578
 21
3.212455053399719
 31
0.0
  0
ELLIPSE
  5
21E
330
6C
100
AcDbEntity
  8
Visible (ANSI)
100
AcDbEllipse
 10
9.580639549286578
 20
3.320708228872773
 30
0.0
 11
-0.0625
 21
-0.1082531754730548
 31
0.0
210
0.0
220
0.0
230
1.0
 40
0.816496580927726
 41
0.0
 42
1.570796326794895
  0
LINE
  5
21F
330
6C
100
AcDbEntity
  8
Visible (ANSI)
100
AcDbLine
 10
9.669027896934895
 20
3.269677192564791
 30
0.0
 11
9.685638183998838
 21
3.298447053687846
 31
0.0
  0
LINE
  5
220
330
6C
100
AcDbEntity
  8
Visible (ANSI)
100
AcDbLine
 10
9.90034278605596
 20
2.161848899805684
 30
0.0
 11
9.259670861941199
 21
1.918883696910789
 31
0.0
  0
LINE
  5
221
330
6C
100
AcDbEntity
  8
Visible (ANSI)
100
AcDbLine
 10
9.285670861941198
 20
1.903872589911859
 30
0.0
 11
9.259670861941199
 21
1.918883696910789
 31
0.0
  0
LINE
  5
222
330
6C
100
AcDbEntity
  8
Visible (ANSI)
100
AcDbLine
 10
9.259670861941199
 20
1.918883696910789
 30
0.0
 11
9.010414687782258
 21
2.062791816158629
 31
0.0
  0
ELLIPSE
  5
223
330
6C
100
AcDbEntity
  8
Visible (ANSI)
100
AcDbEllipse
 10
8.94970809178149
 20
2.097263435432069
 30
0.0
 11
0.0427500000000001
 21
0.0740451720235696
 31
0.0
210
0.0
220
0.0
230
1.0
 40
0.8164965809277248
 41
4.718236966933501
 42
7.859829620523294
  0
LINE
  5
224
330
6C
100
AcDbEntity
  8
Visible (ANSI)
100
AcDbLine
 10
7.784647150176743
 20
2.770489033959078
 30
0.0
 11
7.535390976017803
 21
2.914397153206918
 31
0.0
  0
LINE
  5
225
330
6C
100
AcDbEntity
  8
Visible (ANSI)
100
AcDbLine
 10
7.535390976017803
 20
2.914397153206918
 30
0.0
 11
7.425469051903043
 21
3.590717916429205
 31
0.0
  0
LINE
  5
226
330
6C
100
AcDbEntity
  8
Visible (ANSI)
100
AcDbLine
 10
7.425469051903043
 20
3.590717916429205
 30
0.0
 11
7.863954338966986
 21
4.350196711995378
 31
0.0
  0
ELLIPSE
  5
227
330
6C
100
AcDbEntity
  8
Visible (ANSI)
100
AcDbEllipse
 10
7.853126661789869
 20
2.730375019226076
 30
0.0
 11
-0.0427499999999999
 21
-0.0740451720235694
 31
0.0
210
0.0
220
0.0
230
1.0
 40
0.5773502691896259
 41
4.718236966933496
 42
5.528692141631154
  0
LINE
  5
228
330
6C
100
AcDbEntity
  8
Visible (ANSI)
100
AcDbLine
 10
7.63387666178987
 20
2.856381715476711
 30
0.0
 11
7.810127392790271
 21
2.754623308488761
 31
0.0
  0
LINE
  5
229
330
6C
100
AcDbEntity
  8
Visible (ANSI)
100
AcDbLine
 10
7.59710710916817
 20
2.877610626580832
 30
0.0
 11
7.63387666178987
 21
2.856381715476711
 31
0.0
  0
LINE
  5
22A
330
6C
100
AcDbEntity
  8
Visible (ANSI)
100
AcDbLine
 10
7.50937666178987
 20
2.784501606962603
 30
0.0
 11
7.63387666178987
 21
2.856381715476711
 31
0.0
  0
LINE
  5
22B
330
6C
100
AcDbEntity
  8
Visible (ANSI)
100
AcDbLine
 10
7.47260710916817
 20
2.805730518066724
 30
0.0
 11
7.59710710916817
 21
2.877610626580832
 31
0.0
  0
LINE
  5
22C
330
6C
100
AcDbEntity
  8
Visible (ANSI)
100
AcDbLine
 10
7.47260710916817
 20
2.805730518066724
 30
0.0
 11
7.50937666178987
 21
2.784501606962603
 31
0.0
  0
LINE
  5
22D
330
6C
100
AcDbEntity
  8
Visible (ANSI)
100
AcDbLine
 10
7.290626661789869
 20
2.405615492806911
 30
0.0
 11
7.50937666178987
 21
2.784501606962603
 31
0.0
  0
LINE
  5
22E
330
6C
100
AcDbEntity
  8
Visible (ANSI)
100
AcDbLine
 10
7.253857109168168
 20
2.426844403911032
 30
0.0
 11
7.47260710916817
 21
2.805730518066724
 31
0.0
  0
LINE
  5
22F
330
6C
100
AcDbEntity
  8
Visible (ANSI)
100
AcDbLine
 10
7.253857109168168
 20
2.426844403911032
 30
0.0
 11
7.290626661789869
 21
2.405615492806911
 31
0.0
  0
LINE
  5
230
330
6C
100
AcDbEntity
  8
Visible (ANSI)
100
AcDbLine
 10
7.29062666178987
 20
2.261277925509505
 30
0.0
 11
7.290626661789869
 21
2.405615492806911
 31
0.0
  0
LINE
  5
231
330
6C
100
AcDbEntity
  8
Visible (ANSI)
100
AcDbLine
 10
7.25385710916817
 20
2.282506836613626
 30
0.0
 11
7.253857109168168
 21
2.426844403911032
 31
0.0
  0
LINE
  5
232
330
6C
100
AcDbEntity
  8
Visible (ANSI)
100
AcDbLine
 10
7.25385710916817
 20
2.282506836613626
 30
0.0
 11
7.29062666178987
 21
2.261277925509505
 31
0.0
  0
LINE
  5
233
330
6C
100
AcDbEntity
  8
Visible (ANSI)
100
AcDbLine
 10
7.480096354552268
 20
2.151887547389857
 30
0.0
 11
7.29062666178987
 21
2.261277925509505
 31
0.0
  0
LINE
  5
234
330
6C
100
AcDbEntity
  8
Visible (ANSI)
100
AcDbLine
 10
8.385495790644334
 20
1.773492506535375
 30
0.0
 11
8.385495790644334
 21
1.629154939237969
 31
0.0
  0
LINE
  5
235
330
6C
100
AcDbEntity
  8
Visible (ANSI)
100
AcDbLine
 10
8.422265343266033
 20
1.607926028133848
 30
0.0
 11
8.385495790644334
 21
1.629154939237969
 31
0.0
  0
LINE
  5
236
330
6C
100
AcDbEntity
  8
Visible (ANSI)
100
AcDbLine
 10
8.422265343266033
 20
1.752263595431254
 30
0.0
 11
8.422265343266033
 21
1.607926028133848
 31
0.0
  0
LINE
  5
237
330
6C
100
AcDbEntity
  8
Visible (ANSI)
100
AcDbLine
 10
8.422265343266033
 20
1.752263595431254
 30
0.0
 11
8.385495790644334
 21
1.773492506535375
 31
0.0
  0
LINE
  5
238
330
6C
100
AcDbEntity
  8
Visible (ANSI)
100
AcDbLine
 10
8.604245790644334
 20
2.152378620691067
 30
0.0
 11
8.385495790644334
 21
1.773492506535375
 31
0.0
  0
LINE
  5
239
330
6C
100
AcDbEntity
  8
Visible (ANSI)
100
AcDbLine
 10
8.641015343266035
 20
2.131149709586946
 30
0.0
 11
8.422265343266033
 21
1.752263595431254
 31
0.0
  0
LINE
  5
23A
330
6C
100
AcDbEntity
  8
Visible (ANSI)
100
AcDbLine
 10
8.641015343266035
 20
2.131149709586946
 30
0.0
 11
8.604245790644334
 21
2.152378620691067
 31
0.0
  0
LINE
  5
23B
330
6C
100
AcDbEntity
  8
Visible (ANSI)
100
AcDbLine
 10
8.728745790644335
 20
2.224258729205176
 30
0.0
 11
8.604245790644334
 21
2.152378620691067
 31
0.0
  0
LINE
  5
23C
330
6C
100
AcDbEntity
  8
Visible (ANSI)
100
AcDbLine
 10
8.765515343266036
 20
2.203029818101055
 30
0.0
 11
8.641015343266035
 21
2.131149709586946
 31
0.0
  0
LINE
  5
23D
330
6C
100
AcDbEntity
  8
Visible (ANSI)
100
AcDbLine
 10
8.765515343266036
 20
2.203029818101055
 30
0.0
 11
8.728745790644335
 21
2.224258729205176
 31
0.0
  0
LINE
  5
23E
330
6C
100
AcDbEntity
  8
Visible (ANSI)
100
AcDbLine
 10
8.941766074266437
 20
2.101271411113105
 30
0.0
 11
8.765515343266036
 21
2.203029818101055
 31
0.0
  0
LINE
  5
23F
330
6C
100
AcDbEntity
  8
Visible (ANSI)
100
AcDbLine
 10
8.422265343266033
 20
1.607926028133848
 30
0.0
 11
8.611735036028434
 21
1.498535650014202
 31
0.0
  0
ELLIPSE
  5
240
330
6C
100
AcDbEntity
  8
Visible (ANSI)
100
AcDbEllipse
 10
8.984765343266035
 20
2.077023121850419
 30
0.0
 11
0.0427500000000047
 21
0.0740451720235675
 31
0.0
210
0.0
220
0.0
230
1.0
 40
0.5773502691896258
 41
1.576644313343818
 42
2.387099488041585
  0
LINE
  5
241
330
6C
100
AcDbEntity
  8
Visible Narrow (ANSI)
100
AcDbLine
 10
10.11519172777826
 20
5.746082196100526
 30
0.0
 11
10.07842217515656
 21
5.724853284996405
 31
0.0
  0
LINE
  5
242
330
6C
100
AcDbEntity
  8
Visible Narrow (ANSI)
100
AcDbLine
 10
10.171053163492
 20
5.713830581153896
 30
0.0
 11
10.1342836108703
 21
5.692601670049776
 31
0.0
  0
LINE
  5
243
330
6C
100
AcDbEntity
  8
Visible Narrow (ANSI)
100
AcDbLine
 10
10.11519172777826
 20
6.766702922260193
 30
0.0
 11
10.07842217515656
 21
6.745474011156074
 31
0.0
  0
LINE
  5
244
330
6C
100
AcDbEntity
  8
Visible Narrow (ANSI)
100
AcDbLine
 10
10.171053163492
 20
6.734451307313539
 30
0.0
 11
10.1342836108703
 21
6.713222396209419
 31
0.0
  0
LINE
  5
245
330
6C
100
AcDbEntity
  8
Visible Narrow (ANSI)
100
AcDbLine
 10
10.11519172777826
 20
8.450727120423632
 30
0.0
 11
10.07842217515656
 21
8.429498209319511
 31
0.0
  0
LINE
  5
246
330
6C
100
AcDbEntity
  8
Visible Narrow (ANSI)
100
AcDbLine
 10
10.171053163492
 20
8.418475505476974
 30
0.0
 11
10.1342836108703
 21
8.397246594372855
 31
0.0
  0
LINE
  5
247
330
6C
100
AcDbEntity
  8
Visible (ANSI)
100
AcDbLine
 10
10.22236764627405
 20
8.713814714238678
 30
0.0
 11
10.18559809365235
 21
8.692585803134559
 31
0.0
  0
LINE
  5
248
330
6C
100
AcDbEntity
  8
Visible (ANSI)
100
AcDbLine
 10
10.38636717836326
 20
8.429759192242592
 30
0.0
 11
10.34959762574156
 21
8.408530281138469
 31
0.0
  0
LINE
  5
249
330
6C
100
AcDbEntity
  8
Visible (ANSI)
100
AcDbLine
 10
10.38636717836326
 20
7.995991647457786
 30
0.0
 11
10.34959762574156
 21
7.974762736353664
 31
0.0
  0
LINE
  5
24A
330
6C
100
AcDbEntity
  8
Visible (ANSI)
100
AcDbLine
 10
10.38636717836326
 20
7.689805429609888
 30
0.0
 11
10.34959762574156
 21
7.668576518505767
 31
0.0
  0
LINE
  5
24B
330
6C
100
AcDbEntity
  8
Visible (ANSI)
100
AcDbLine
 10
10.38636717836326
 20
4.383553490458678
 30
0.0
 11
10.34959762574156
 21
4.362324579354557
 31
0.0
  0
LINE
  5
24C
330
6C
100
AcDbEntity
  8
Visible Narrow (ANSI)
100
AcDbLine
 10
10.32590922671865
 20
4.348648075801957
 30
0.0
 11
10.28913967409694
 21
4.327419164697836
 31
0.0
  0
LINE
  5
24D
330
6C
100
AcDbEntity
  8
Visible Narrow (ANSI)
100
AcDbLine
 10
10.32590922671865
 20
4.30787134202957
 30
0.0
 11
10.28913967409694
 21
4.286642430925449
 31
0.0
  0
LINE
  5
24E
330
6C
100
AcDbEntity
  8
Visible (ANSI)
100
AcDbLine
 10
10.3863671783633
 20
4.203155098059482
 30
0.0
 11
10.3495976257416
 21
4.181926186955362
 31
0.0
  0
LINE
  5
24F
330
6C
100
AcDbEntity
  8
Visible (ANSI)
100
AcDbLine
 10
8.326713966901431
 20
9.028898172425481
 30
0.0
 11
8.289944414279732
 21
9.050127083529602
 31
0.0
  0
LINE
  5
250
330
6C
100
AcDbEntity
  8
Visible (ANSI)
100
AcDbLine
 10
7.869757436552281
 20
8.765074196620462
 30
0.0
 11
7.83298788393058
 21
8.786303107724583
 31
0.0
  0
LINE
  5
251
330
6C
100
AcDbEntity
  8
Visible (ANSI)
100
AcDbLine
 10
7.715978419212349
 20
8.498746221392075
 30
0.0
 11
7.679208866590649
 21
8.519975132496195
 31
0.0
  0
LINE
  5
252
330
6C
100
AcDbEntity
  8
Visible Narrow (ANSI)
100
AcDbLine
 10
7.715978419212349
 20
8.289510228431598
 30
0.0
 11
7.679208866590649
 21
8.310739139535717
 31
0.0
  0
LINE
  5
253
330
6C
100
AcDbEntity
  8
Visible Narrow (ANSI)
100
AcDbLine
 10
8.246308505102094
 20
7.961768500847266
 30
0.0
 11
8.209538952480395
 21
7.982997411951387
 31
0.0
  0
LINE
  5
254
330
6C
100
AcDbEntity
  8
Visible Narrow (ANSI)
100
AcDbLine
 10
8.246308505102218
 20
7.677137792735933
 30
0.0
 11
8.209538952480519
 21
7.698366703840054
 31
0.0
  0
LINE
  5
255
330
6C
100
AcDbEntity
  8
Visible Narrow (ANSI)
100
AcDbLine
 10
8.049178560990448
 20
7.26676109330301
 30
0.0
 11
8.012409008368749
 21
7.287990004407132
 31
0.0
  0
LINE
  5
256
330
6C
100
AcDbEntity
  8
Visible Narrow (ANSI)
100
AcDbLine
 10
7.912059799791482
 20
7.145217474104098
 30
0.0
 11
7.87529024716978
 21
7.166446385208218
 31
0.0
  0
LINE
  5
257
330
6C
100
AcDbEntity
  8
Visible Narrow (ANSI)
100
AcDbLine
 10
7.71597841921235
 20
6.737023629455619
 30
0.0
 11
7.679208866590649
 21
6.758252540559741
 31
0.0
  0
LINE
  5
258
330
6C
100
AcDbEntity
  8
Visible Narrow (ANSI)
100
AcDbLine
 10
7.71597841921235
 20
6.656517066576146
 30
0.0
 11
7.679208866590649
 21
6.677745977680266
 31
0.0
  0
LINE
  5
259
330
6C
100
AcDbEntity
  8
Visible Narrow (ANSI)
100
AcDbLine
 10
8.246308505102259
 20
6.328775338991755
 30
0.0
 11
8.20953895248056
 21
6.350004250095877
 31
0.0
  0
LINE
  5
25A
330
6C
100
AcDbEntity
  8
Visible Narrow (ANSI)
100
AcDbLine
 10
8.246308505102261
 20
6.248268776112282
 30
0.0
 11
8.20953895248056
 21
6.269497687216403
 31
0.0
  0
LINE
  5
25B
330
6C
100
AcDbEntity
  8
Visible Narrow (ANSI)
100
AcDbLine
 10
8.048535632220852
 20
5.837323172449032
 30
0.0
 11
8.011766079599151
 21
5.858552083553152
 31
0.0
  0
LINE
  5
25C
330
6C
100
AcDbEntity
  8
Visible Narrow (ANSI)
100
AcDbLine
 10
7.912608751199932
 20
5.717256681693015
 30
0.0
 11
7.875839198578231
 21
5.738485592797136
 31
0.0
  0
LINE
  5
25D
330
6C
100
AcDbEntity
  8
Visible Narrow (ANSI)
100
AcDbLine
 10
7.715624865821669
 20
5.307950488686773
 30
0.0
 11
7.678855313199969
 21
5.329179399790894
 31
0.0
  0
LINE
  5
25E
330
6C
100
AcDbEntity
  8
Visible (ANSI)
100
AcDbLine
 10
7.715624865821749
 20
5.012133777416706
 30
0.0
 11
7.678855313200049
 21
5.033362688520827
 31
0.0
  0
LINE
  5
25F
330
6C
100
AcDbEntity
  8
Visible Narrow (ANSI)
100
AcDbLine
 10
7.972443929385639
 20
5.036993672213736
 30
0.0
 11
7.961590918281459
 21
5.043259661096253
 31
0.0
  0
LINE
  5
260
330
6C
100
AcDbEntity
  8
Visible Narrow (ANSI)
100
AcDbLine
 10
8.224558338066259
 20
4.76679433987853
 30
0.0
 11
8.18778878544456
 21
4.788023250982651
 31
0.0
  0
LINE
  5
261
330
6C
100
AcDbEntity
  8
Visible (ANSI)
100
AcDbLine
 10
8.902271768992035
 20
6.559731731633668
 30
0.0
 11
8.939041321613736
 21
6.538502820529546
 31
0.0
  0
LINE
  5
262
330
6C
100
AcDbEntity
  8
Visible (ANSI)
100
AcDbLine
 10
8.902271768991994
 20
5.130862715010122
 30
0.0
 11
8.939041321613695
 21
5.109633803906001
 31
0.0
  0
LINE
  5
263
330
6C
100
AcDbEntity
  8
Visible (ANSI)
100
AcDbLine
 10
9.49758571518752
 20
4.214765219459249
 30
0.0
 11
9.534355267809219
 21
4.193536308355128
 31
0.0
  0
LINE
  5
264
330
6C
100
AcDbEntity
  8
Visible (ANSI)
100
AcDbLine
 10
7.793436355376118
 20
8.118301588049703
 30
0.0
 11
7.756666802754417
 21
8.139530499153822
 31
0.0
  0
LINE
  5
265
330
6C
100
AcDbEntity
  8
Visible (ANSI)
100
AcDbLine
 10
7.793436355375993
 20
6.485308426194178
 30
0.0
 11
7.756666802754293
 21
6.506537337298299
 31
0.0
  0
LINE
  5
266
330
6C
100
AcDbEntity
  8
Visible (ANSI)
100
AcDbLine
 10
8.229510085899994
 20
4.762839040947775
 30
0.0
 11
8.192740533278293
 21
4.784067952051897
 31
0.0
  0
ELLIPSE
  5
267
330
6C
100
AcDbEntity
  8
Visible Narrow (ANSI)
100
AcDbEllipse
 10
7.995635671549925
 20
8.488263931784116
 30
0.0
 11
-0.1106037377703269
 21
0.0582392753323144
 31
0.0
210
0.0
220
0.0
230
1.0
 40
0.0549599991522667
 41
1.59972787532615
 42
2.52504217000531
  0
LINE
  5
268
330
6C
100
AcDbEntity
  8
Visible Narrow (ANSI)
100
AcDbLine
 10
7.995635671549925
 20
8.480502976978749
 30
0.0
 11
7.89085583966633
 21
8.281512845608721
 31
0.0
  0
ELLIPSE
  5
269
330
6C
100
AcDbEntity
  8
Visible Narrow (ANSI)
100
AcDbEllipse
 10
7.995635671549833
 20
8.698307613026196
 30
0.0
 11
-0.0746418122175656
 21
-0.1002676411853665
 31
0.0
210
0.0
220
0.0
230
1.0
 40
0.8146447478256749
 41
0.7403895547294841
 42
1.665703849385855
  0
LINE
  5
26A
330
6C
100
AcDbEntity
  8
Visible Narrow (ANSI)
100
AcDbLine
 10
7.922629385428189
 20
8.637618595785188
 30
0.0
 11
7.99563567154988
 21
8.583270837774607
 31
0.0
  0
LINE
  5
26B
330
6C
100
AcDbEntity
  8
Visible Narrow (ANSI)
100
AcDbLine
 10
7.892198607085294
 20
8.58277005280127
 30
0.0
 11
7.993200020988707
 21
8.58277005280127
 31
0.0
  0
LINE
  5
26C
330
6C
100
AcDbEntity
  8
Visible Narrow (ANSI)
100
AcDbLine
 10
7.856740083202543
 20
8.481780544179263
 30
0.0
 11
7.993200020988751
 21
8.481780544179263
 31
0.0
  0
ELLIPSE
  5
26D
330
6C
100
AcDbEntity
  8
Visible Narrow (ANSI)
100
AcDbEllipse
 10
7.944697137002361
 20
8.502477530743497
 30
0.0
 11
0.0478276359922103
 21
0.0828398955444176
 31
0.0
210
0.0
220
0.0
230
1.0
 40
0.5773502691896243
 41
4.779751892062295
 42
6.215822395502994
  0
LINE
  5
26E
330
6C
100
AcDbEntity
  8
Visible Narrow (ANSI)
100
AcDbLine
 10
7.993200020988707
 20
8.58277005280127
 30
0.0
 11
7.99563567154988
 21
8.583270837774607
 31
0.0
  0
ELLIPSE
  5
26F
330
6C
100
AcDbEntity
  8
Visible (ANSI)
100
AcDbEllipse
 10
7.943142955150801
 20
8.503374838053868
 30
0.0
 11
-0.0470000000000048
 21
-0.0814063879557344
 31
0.0
210
0.0
220
0.0
230
1.0
 40
0.5773502691896258
 41
1.638159238472608
 42
3.074229741913571
  0
LINE
  5
270
330
6C
100
AcDbEntity
  8
Visible Narrow (ANSI)
100
AcDbLine
 10
7.993200020988751
 20
8.481780544179263
 30
0.0
 11
7.995635671549925
 21
8.480502976978749
 31
0.0
  0
ELLIPSE
  5
271
330
6C
100
AcDbEntity
  8
Visible Narrow (ANSI)
100
AcDbEllipse
 10
7.944697137002361
 20
6.869484368888047
 30
0.0
 11
0.0478276359922096
 21
0.0828398955444169
 31
0.0
210
0.0
220
0.0
230
0.9999999999999996
 40
0.5773502691896275
 41
4.779751892062293
 42
6.215822395502998
  0
LINE
  5
272
330
6C
100
AcDbEntity
  8
Visible Narrow (ANSI)
100
AcDbLine
 10
7.993200020988751
 20
6.848787382323812
 30
0.0
 11
7.995635671549926
 21
6.847509815123296
 31
0.0
  0
LINE
  5
273
330
6C
100
AcDbEntity
  8
Visible Narrow (ANSI)
100
AcDbLine
 10
7.993200020988707
 20
6.949776890945819
 30
0.0
 11
7.995635671549918
 21
6.950277675919164
 31
0.0
  0
ELLIPSE
  5
274
330
6C
100
AcDbEntity
  8
Visible (ANSI)
100
AcDbEllipse
 10
7.943142955150801
 20
6.870381676198417
 30
0.0
 11
-0.0470000000000048
 21
-0.0814063879557344
 31
0.0
210
0.0
220
0.0
230
1.0
 40
0.5773502691896258
 41
1.638159238472608
 42
3.074229741913571
  0
LINE
  5
275
330
6C
100
AcDbEntity
  8
Visible Narrow (ANSI)
100
AcDbLine
 10
7.922629385428189
 20
7.004625433929739
 30
0.0
 11
7.995635671549918
 21
6.950277675919164
 31
0.0
  0
ELLIPSE
  5
276
330
6C
100
AcDbEntity
  8
Visible Narrow (ANSI)
100
AcDbEllipse
 10
7.995635671549916
 20
7.065314451170686
 30
0.0
 11
0.0746418122178681
 21
0.1002676411851453
 31
0.0
210
0.0
220
0.0
230
1.0
 40
0.8146447478255806
 41
3.881982208322005
 42
4.807296502978066
  0
ELLIPSE
  5
277
330
6C
100
AcDbEntity
  8
Visible Narrow (ANSI)
100
AcDbEllipse
 10
7.995635671549925
 20
6.85527076992866
 30
0.0
 11
0.110603737770326
 21
-0.0582392753323103
 31
0.0
210
0.0
220
0.0
230
1.0
 40
0.0549599991522314
 41
4.741320528893229
 42
5.666634823549597
  0
LINE
  5
278
330
6C
100
AcDbEntity
  8
Visible Narrow (ANSI)
100
AcDbLine
 10
7.995635671549926
 20
6.847509815123296
 30
0.0
 11
7.890855839666331
 21
6.648519683753271
 31
0.0
  0
LINE
  5
279
330
6C
100
AcDbEntity
  8
Visible Narrow (ANSI)
100
AcDbLine
 10
7.856740083202545
 20
6.848787382323812
 30
0.0
 11
7.993200020988751
 21
6.848787382323812
 31
0.0
  0
LINE
  5
27A
330
6C
100
AcDbEntity
  8
Visible Narrow (ANSI)
100
AcDbLine
 10
7.892198607085294
 20
6.949776890945819
 30
0.0
 11
7.993200020988707
 21
6.949776890945819
 31
0.0
  0
SPLINE
  5
27B
330
6C
100
AcDbEntity
  8
Visible (ANSI)
100
AcDbSpline
210
0.0
220
0.0
230
1.0
 70
     8
 71
     3
 72
    12
 73
     8
 74
     0
 42
0.0000000001
 43
0.0000000001
 40
0.2150359196811855
 40
0.2150359196811855
 40
0.2150359196811855
 40
0.2150359196811855
 40
0.2751313054488051
 40
0.2751313054488051
 40
0.3422840281604419
 40
0.3422840281604419
 40
0.3592374510634986
 40
0.3592374510634986
 40
0.3592374510634986
 40
0.3592374510634986
 10
9.114716852519862
 20
5.670790212622449
 30
0.0
 10
9.111335551128002
 20
5.666371275568244
 30
0.0
 10
9.108718226678298
 20
5.660333471423826
 30
0.0
 10
9.106483116331897
 20
5.647422469500511
 30
0.0
 10
9.106895637772819
 20
5.639299191832233
 30
0.0
 10
9.109621497793767
 20
5.628967599006305
 30
0.0
 10
9.110275944382907
 20
5.626876914886028
 30
0.0
 10
9.111023874891845
 20
5.624798116205642
 30
0.0
  0
LINE
  5
27C
330
6C
100
AcDbEntity
  8
Visible Narrow (ANSI)
100
AcDbLine
 10
9.111023874891845
 20
5.624798116205642
 30
0.0
 11
9.203187513654953
 21
5.556187460641716
 31
0.0
  0
ELLIPSE
  5
27D
330
6C
100
AcDbEntity
  8
Visible Narrow (ANSI)
100
AcDbEllipse
 10
9.309533870371575
 20
5.609824838237948
 30
0.0
 11
0.0746429821140376
 21
0.1002667702737241
 31
0.0
210
0.0
220
0.0
230
0.9999999999999998
 40
0.8146443742189852
 41
1.665713354485683
 42
2.591024795534506
  0
ELLIPSE
  5
27E
330
6C
100
AcDbEntity
  8
Visible (ANSI)
100
AcDbEllipse
 10
9.2469872085504
 20
5.656387316982046
 30
0.0
 11
0.1458530312917851
 21
0.0330904291003349
 31
0.0
210
0.0
220
0.0
230
1.0
 40
0.5355197793715803
 41
2.095377654044655
 42
2.570245602443891
  0
SPLINE
  5
27F
330
6C
100
AcDbEntity
  8
Visible Narrow (ANSI)
100
AcDbSpline
210
0.0
220
0.0
230
1.0
 70
     8
 71
     3
 72
    12
 73
     8
 74
     0
 42
0.0000000001
 43
0.0000000001
 40
0.0000000000000002
 40
0.0000000000000002
 40
0.0000000000000002
 40
0.0000000000000002
 40
0.1273308985613276
 40
0.1273308985613276
 40
0.3310603362594514
 40
0.3310603362594514
 40
0.4469856652259569
 40
0.4469856652259569
 40
0.4469856652259569
 40
0.4469856652259569
 10
9.203187513654953
 20
5.556187460641716
 30
0.0
 10
9.207338326418598
 20
5.555189054547211
 30
0.0
 10
9.211266183351783
 20
5.55302892714578
 30
0.0
 10
9.220217195309203
 20
5.544233175568262
 30
0.0
 10
9.224420041114283
 20
5.535760118120069
 30
0.0
 10
9.228005521661216
 20
5.518238211223029
 30
0.0
 10
9.228661249605691
 20
5.511058702834324
 30
0.0
 10
9.228666086766263
 20
5.50328025152658
 30
0.0
  0
SPLINE
  5
280
330
6C
100
AcDbEntity
  8
Visible (ANSI)
100
AcDbSpline
210
0.0
220
0.0
230
1.0
 70
     8
 71
     3
 72
     8
 73
     4
 74
     0
 42
0.0000000001
 43
0.0000000001
 40
2.468104024836119
 40
2.468104024836119
 40
2.468104024836119
 40
2.468104024836119
 40
2.470247092045871
 40
2.470247092045871
 40
2.470247092045871
 40
2.470247092045871
 10
9.110925061714455
 20
5.224112916477511
 30
0.0
 10
9.110830654170641
 20
5.224125308487606
 30
0.0
 10
9.110737729906878
 20
5.224138572927652
 30
0.0
 10
9.110646310862742
 20
5.224152723243673
 30
0.0
  0
LINE
  5
281
330
6C
100
AcDbEntity
  8
Visible (ANSI)
100
AcDbLine
 10
9.203187513654951
 20
5.310143212195702
 30
0.0
 11
9.155501857807477
 21
5.254489588586848
 31
0.0
  0
ELLIPSE
  5
282
330
6C
100
AcDbEntity
  8
Visible (ANSI)
100
AcDbEllipse
 10
9.155501857807477
 20
5.30828411691693
 30
0.0
 11
-0.0486860269923625
 21
-0.0827930051159189
 31
0.0
210
0.0
220
0.0
230
0.9999999999999998
 40
0.3241934785064033
 41
0.1366188010918851
 42
1.066950138547354
  0
LINE
  5
283
330
6C
100
AcDbEntity
  8
Visible Narrow (ANSI)
100
AcDbLine
 10
9.203187513654953
 20
5.466998037004299
 30
0.0
 11
9.203187513654953
 21
5.556187460641716
 31
0.0
  0
ELLIPSE
  5
284
330
6C
100
AcDbEntity
  8
Visible (ANSI)
100
AcDbEllipse
 10
9.125438843327579
 20
5.400598385757918
 30
0.0
 11
0.0428993075561426
 21
-0.1150656282436042
 31
0.0
210
0.0
220
0.0
230
1.0
 40
0.8160763660440364
 41
0.424231898599504
 42
1.860288807140385
  0
ELLIPSE
  5
285
330
6C
100
AcDbEntity
  8
Visible (ANSI)
100
AcDbEllipse
 10
9.155656287411728
 20
5.590972167720236
 30
0.0
 11
-0.0499980362852501
 21
0.0973444133858773
 31
0.0
210
0.0
220
0.0
230
1.0
 40
0.2497289325483518
 41
1.091346643765434
 42
2.023353970557584
  0
LINE
  5
286
330
6C
100
AcDbEntity
  8
Visible (ANSI)
100
AcDbLine
 10
9.15565628741173
 20
5.537177639390152
 30
0.0
 11
9.203187513654953
 21
5.466998037004299
 31
0.0
  0
LINE
  5
287
330
6C
100
AcDbEntity
  8
Visible Narrow (ANSI)
100
AcDbLine
 10
9.069146129941568
 20
5.251761772684232
 30
0.0
 11
9.172419135983362
 21
5.447892124252645
 31
0.0
  0
LINE
  5
288
330
6C
100
AcDbEntity
  8
Visible (ANSI)
100
AcDbLine
 10
9.063292077259037
 20
5.231478435566834
 30
0.0
 11
9.063292077259037
 21
5.231564921853688
 31
0.0
  0
LINE
  5
289
330
6C
100
AcDbEntity
  8
Visible Narrow (ANSI)
100
AcDbLine
 10
9.155501857807477
 20
5.254489588586848
 30
0.0
 11
9.106677871699208
 21
5.262042685523617
 31
0.0
  0
ELLIPSE
  5
28A
330
6C
100
AcDbEntity
  8
Visible (ANSI)
100
AcDbEllipse
 10
9.10667787169921
 20
5.315837213853701
 30
0.0
 11
0.048686026992365
 21
0.0827930051159173
 31
0.0
210
0.0
220
0.0
230
1.0
 40
0.3241934785064023
 41
3.313245465398249
 42
4.208542792137635
  0
LINE
  5
28B
330
6C
100
AcDbEntity
  8
Visible (ANSI)
100
AcDbLine
 10
9.063292077259035
 20
5.238849234018134
 30
0.0
 11
9.063292077259035
 21
5.231564921853688
 31
0.0
  0
LINE
  5
28C
330
6C
100
AcDbEntity
  8
Visible (ANSI)
100
AcDbLine
 10
9.106677871699208
 20
5.262042685523617
 30
0.0
 11
9.175496206415065
 21
5.342360123327451
 31
0.0
  0
LINE
  5
28D
330
6C
100
AcDbEntity
  8
Visible Narrow (ANSI)
100
AcDbLine
 10
9.175496206415065
 20
5.342360123327451
 30
0.0
 11
9.175496206415067
 21
5.443348846149423
 31
0.0
  0
LINE
  5
28E
330
6C
100
AcDbEntity
  8
Visible Narrow (ANSI)
100
AcDbLine
 10
9.106832301303462
 20
5.544730736326922
 30
0.0
 11
9.15565628741173
 21
5.537177639390152
 31
0.0
  0
LINE
  5
28F
330
6C
100
AcDbEntity
  8
Visible (ANSI)
100
AcDbLine
 10
9.175496206415067
 20
5.443348846149423
 30
0.0
 11
9.106832301303462
 21
5.544730736326922
 31
0.0
  0
ELLIPSE
  5
290
330
6C
100
AcDbEntity
  8
Visible (ANSI)
100
AcDbEllipse
 10
9.125438843327579
 20
5.400598385757918
 30
0.0
 11
-0.0276201021251938
 21
0.0740833496910853
 31
0.0
210
0.0
220
0.0
230
1.0
 40
0.8160763660440364
 41
3.565824552189138
 42
5.001881460730062
  0
LINE
  5
291
330
6C
100
AcDbEntity
  8
Visible Narrow (ANSI)
100
AcDbLine
 10
9.114716852519858
 20
5.670790212622445
 30
0.0
 11
9.09929053074169
 21
5.673176672906739
 31
0.0
  0
LINE
  5
292
330
6C
100
AcDbEntity
  8
Visible (ANSI)
100
AcDbLine
 10
9.063292077259035
 20
5.629362514668336
 30
0.0
 11
9.063292077259035
 21
5.642971602369971
 31
0.0
  0
ELLIPSE
  5
293
330
6C
100
AcDbEntity
  8
Visible (ANSI)
100
AcDbEllipse
 10
9.106832301303461
 20
5.598525264657005
 30
0.0
 11
-0.0499980362852499
 21
0.0973444133858773
 31
0.0
210
0.0
220
0.0
230
0.9999999999999998
 40
0.2497289325483515
 41
1.123601839227805
 42
2.023353970557586
  0
LINE
  5
294
330
6C
100
AcDbEntity
  8
Visible (ANSI)
100
AcDbLine
 10
9.228676433380814
 20
5.384627474995704
 30
0.0
 11
9.228676433380815
 21
5.503245768873523
 31
0.0
  0
LINE
  5
295
330
6C
100
AcDbEntity
  8
Visible (ANSI)
100
AcDbLine
 10
9.168660653855981
 20
5.453441503095183
 30
0.0
 11
9.065742002020996
 21
5.257984121335876
 31
0.0
  0
LINE
  5
296
330
6C
100
AcDbEntity
  8
Visible (ANSI)
100
AcDbLine
 10
9.110646289333688
 20
5.224152713464359
 30
0.0
 11
9.063292077259035
 21
5.231478435566834
 31
0.0
  0
LINE
  5
297
330
6C
100
AcDbEntity
  8
Visible Narrow (ANSI)
100
AcDbLine
 10
9.676477960409737
 20
4.257968459777457
 30
0.0
 11
9.676477960409737
 21
8.591969748703675
 31
0.0
  0
SPLINE
  5
298
330
6C
100
AcDbEntity
  8
Visible (ANSI)
100
AcDbSpline
210
0.0
220
0.0
230
1.0
 70
     8
 71
     3
 72
    18
 73
    14
 74
     0
 42
0.0000000001
 43
0.0000000001
 40
0.0
 40
0.0
 40
0.0
 40
0.0
 40
0.0177164848753835
 40
0.0177164848753835
 40
0.0576196370926
 40
0.0576196370926
 40
0.1077238148443354
 40
0.1077238148443354
 40
0.1698257679800971
 40
0.1698257679800971
 40
0.2069807788722149
 40
0.2069807788722149
 40
0.2561959262500117
 40
0.2561959262500117
 40
0.2561959262500117
 40
0.2561959262500117
 10
9.676477960409737
 20
4.257968459777456
 30
0.0
 10
9.678016943479125
 20
4.258189320493548
 30
0.0
 10
9.679629115996904
 20
4.258203476188787
 30
0.0
 10
9.685051459892529
 20
4.257609851666628
 30
0.0
 10
9.688978794828905
 20
4.256221647661037
 30
0.0
 10
9.697555816799949
 20
4.25138868994753
 30
0.0
 10
9.70242951708593
 20
4.247354966030018
 30
0.0
 10
9.712719377620778
 20
4.234985742898453
 30
0.0
 10
9.717648390663457
 20
4.226251690496615
 30
0.0
 10
9.723809323462432
 20
4.209349136197666
 30
0.0
 10
9.725553955224119
 20
4.202870433124275
 30
0.0
 10
9.728649086907928
 20
4.187825500782132
 30
0.0
 10
9.729695101134637
 20
4.179190914760238
 30
0.0
 10
9.730218075779914
 20
4.171041855842831
 30
0.0
  0
SPLINE
  5
299
330
6C
100
AcDbEntity
  8
Visible (ANSI)
100
AcDbSpline
210
0.0
220
0.0
230
1.0
 70
     8
 71
     3
 72
    10
 73
     6
 74
     0
 42
0.0000000001
 43
0.0000000001
 40
0.0
 40
0.0
 40
0.0
 40
0.0
 40
0.0800114825630928
 40
0.0800114825630928
 40
0.1318708840932232
 40
0.1318708840932232
 40
0.1318708840932232
 40
0.1318708840932232
 10
9.692349593994062
 20
8.674501432863243
 30
0.0
 10
9.699115054443382
 20
8.681503555862816
 30
0.0
 10
9.705953373961774
 20
8.688039047001051
 30
0.0
 10
9.717127043019308
 20
8.698110397459942
 30
0.0
 10
9.721473433087137
 20
8.701871920050249
 30
0.0
 10
9.725737665997336
 20
8.705451262082169
 30
0.0
  0
LINE
  5
29A
330
6C
100
AcDbEntity
  8
Visible Narrow (ANSI)
100
AcDbLine
 10
9.698704239030059
 20
8.644704237880793
 30
0.0
 11
9.692349593994062
 21
8.674501432863243
 31
0.0
  0
SPLINE
  5
29B
330
6C
100
AcDbEntity
  8
Visible (ANSI)
100
AcDbSpline
210
0.0
220
0.0
230
1.0
 70
     8
 71
     3
 72
    10
 73
     6
 74
     0
 42
0.0000000001
 43
0.0000000001
 40
0.0
 40
0.0
 40
0.0
 40
0.0
 40
0.1297924688879781
 40
0.1297924688879781
 40
0.2595849389066674
 40
0.2595849389066674
 40
0.2595849389066674
 40
0.2595849389066674
 10
9.730218075779914
 20
8.716611341966782
 30
0.0
 10
9.726134797687398
 20
8.705884958815675
 30
0.0
 10
9.721173939170194
 20
8.694757792055989
 30
0.0
 10
9.710253136051964
 20
8.670759943317746
 30
0.0
 10
9.704435585021071
 20
8.658195531239718
 30
0.0
 10
9.698704239030059
 20
8.644704237880793
 30
0.0
  0
SPLINE
  5
29C
330
6C
100
AcDbEntity
  8
Visible (ANSI)
100
AcDbSpline
210
0.0
220
0.0
230
1.0
 70
     8
 71
     3
 72
    10
 73
     6
 74
     0
 42
0.0000000001
 43
0.0000000001
 40
0.0
 40
0.0
 40
0.0
 40
0.0
 40
0.118743169776269
 40
0.118743169776269
 40
0.2382043529275197
 40
0.2382043529275197
 40
0.2382043529275197
 40
0.2382043529275197
 10
9.639708407788036
 20
8.613198659807798
 30
0.0
 10
9.64836201187904
 20
8.626071497613285
 30
0.0
 10
9.657180000600392
 20
8.63652345347004
 30
0.0
 10
9.672075724566241
 20
8.6533828056286
 30
0.0
 10
9.681130464466276
 20
8.662907231495916
 30
0.0
 10
9.692349617351595
 20
8.674501418097305
 30
0.0
  0
LINE
  5
29D
330
6C
100
AcDbEntity
  8
Visible (ANSI)
100
AcDbLine
 10
9.660299357256189
 20
8.601310469589488
 30
0.0
 11
9.639708407788036
 21
8.613198659807798
 31
0.0
  0
LINE
  5
29E
330
6C
100
AcDbEntity
  8
Visible (ANSI)
100
AcDbLine
 10
9.676477960409737
 20
8.591969748703675
 30
0.0
 11
9.660299357256189
 21
8.601310469589488
 31
0.0
  0
SPLINE
  5
29F
330
6C
100
AcDbEntity
  8
Visible (ANSI)
100
AcDbSpline
210
0.0
220
0.0
230
1.0
 70
     8
 71
     3
 72
    12
 73
     8
 74
     0
 42
0.0000000001
 43
0.0000000001
 40
0.0
 40
0.0
 40
0.0
 40
0.0
 40
0.0441126762235112
 40
0.0441126762235112
 40
0.1059624532797741
 40
0.1059624532797741
 40
0.1626723217437075
 40
0.1626723217437075
 40
0.1626723217437075
 40
0.1626723217437075
 10
9.698704251826798
 20
8.644704229052891
 30
0.0
 10
9.696754959258607
 20
8.640119242253531
 30
0.0
 10
9.694823208772822
 20
8.635692817589047
 30
0.0
 10
9.68997231596246
 20
8.624647563263287
 30
0.0
 10
9.687062875001268
 20
8.618084139756152
 30
0.0
 10
9.681541163037771
 20
8.605065343956425
 30
0.0
 10
9.678927441603256
 20
8.598660886693261
 30
0.0
 10
9.676477960409737
 20
8.591969748703675
 30
0.0
  0
LINE
  5
2A0
330
6C
100
AcDbEntity
  8
Visible Narrow (ANSI)
100
AcDbLine
 10
9.730218075779914
 20
8.716611341966782
 30
0.0
 11
9.730218075779914
 21
4.171041855842831
 31
0.0
  0
SPLINE
  5
2A1
330
6C
100
AcDbEntity
  8
Visible (ANSI)
100
AcDbSpline
210
0.0
220
0.0
230
1.0
 70
     8
 71
     3
 72
    12
 73
     8
 74
     0
 42
0.0000000001
 43
0.0000000001
 40
0.2150359196811853
 40
0.2150359196811853
 40
0.2150359196811853
 40
0.2150359196811853
 40
0.2751313054488036
 40
0.2751313054488036
 40
0.3422840281604408
 40
0.3422840281604408
 40
0.3592374510634964
 40
0.3592374510634964
 40
0.3592374510634964
 40
0.3592374510634964
 10
9.114716852519862
 20
7.099659229245968
 30
0.0
 10
9.111335551128
 20
7.095240292191765
 30
0.0
 10
9.108718226678298
 20
7.089202488047344
 30
0.0
 10
9.106483116331897
 20
7.076291486124031
 30
0.0
 10
9.106895637772819
 20
7.068168208455752
 30
0.0
 10
9.109621497793767
 20
7.057836615629825
 30
0.0
 10
9.110275944382907
 20
7.055745931509549
 30
0.0
 10
9.111023874891845
 20
7.053667132829163
 30
0.0
  0
LINE
  5
2A2
330
6C
100
AcDbEntity
  8
Visible Narrow (ANSI)
100
AcDbLine
 10
9.111023874891845
 20
7.053667132829163
 30
0.0
 11
9.203187513654953
 21
6.985056477265237
 31
0.0
  0
ELLIPSE
  5
2A3
330
6C
100
AcDbEntity
  8
Visible Narrow (ANSI)
100
AcDbEllipse
 10
9.309533870371575
 20
7.038693854861469
 30
0.0
 11
0.0746429821140375
 21
0.100266770273724
 31
0.0
210
0.0
220
0.0
230
1.0
 40
0.8146443742189845
 41
1.665713354485683
 42
2.591024795534501
  0
ELLIPSE
  5
2A4
330
6C
100
AcDbEntity
  8
Visible (ANSI)
100
AcDbEllipse
 10
9.2469872085504
 20
7.085256333605567
 30
0.0
 11
0.1458530312917851
 21
0.0330904291003349
 31
0.0
210
0.0
220
0.0
230
1.0
 40
0.5355197793715803
 41
2.095377654044655
 42
2.570245602443907
  0
SPLINE
  5
2A5
330
6C
100
AcDbEntity
  8
Visible Narrow (ANSI)
100
AcDbSpline
210
0.0
220
0.0
230
1.0
 70
     8
 71
     3
 72
    12
 73
     8
 74
     0
 42
0.0000000001
 43
0.0000000001
 40
0.0000000000000002
 40
0.0000000000000002
 40
0.0000000000000002
 40
0.0000000000000002
 40
0.1273308580885495
 40
0.1273308580885495
 40
0.3310602310302284
 40
0.3310602310302284
 40
0.4469856549877869
 40
0.4469856549877869
 40
0.4469856549877869
 40
0.4469856549877869
 10
9.203187513654953
 20
6.985056477265235
 30
0.0
 10
9.207338325099239
 20
6.98405807148808
 30
0.0
 10
9.211266180838494
 20
6.981897945159333
 30
0.0
 10
9.22021719069453
 20
6.973102198453871
 30
0.0
 10
9.224420036248657
 20
6.964629146268358
 30
0.0
 10
9.228005520394575
 20
6.947107241008716
 30
0.0
 10
9.228661249496026
 20
6.939927726258737
 30
0.0
 10
9.228666086702675
 20
6.932149267987742
 30
0.0
  0
SPLINE
  5
2A6
330
6C
100
AcDbEntity
  8
Visible (ANSI)
100
AcDbSpline
210
0.0
220
0.0
230
1.0
 70
     8
 71
     3
 72
     8
 73
     4
 74
     0
 42
0.0000000001
 43
0.0000000001
 40
2.468104024836124
 40
2.468104024836124
 40
2.468104024836124
 40
2.468104024836124
 40
2.470247092045876
 40
2.470247092045876
 40
2.470247092045876
 40
2.470247092045876
 10
9.110925061714455
 20
6.652981933101032
 30
0.0
 10
9.110830654170639
 20
6.652994325111126
 30
0.0
 10
9.110737729906878
 20
6.653007589551172
 30
0.0
 10
9.11064631086274
 20
6.653021739867194
 30
0.0
  0
LINE
  5
2A7
330
6C
100
AcDbEntity
  8
Visible (ANSI)
100
AcDbLine
 10
9.203187513654951
 20
6.739012228819224
 30
0.0
 11
9.155501857807477
 21
6.683358605210368
 31
0.0
  0
ELLIPSE
  5
2A8
330
6C
100
AcDbEntity
  8
Visible (ANSI)
100
AcDbEllipse
 10
9.125438843327579
 20
6.829467402381438
 30
0.0
 11
0.0428993075561426
 21
-0.1150656282436042
 31
0.0
210
0.0
220
0.0
230
1.0
 40
0.8160763660440364
 41
0.4242318985995084
 42
1.860288807140381
  0
LINE
  5
2A9
330
6C
100
AcDbEntity
  8
Visible (ANSI)
100
AcDbLine
 10
9.155656287411728
 20
6.966046656013672
 30
0.0
 11
9.203187513654953
 21
6.89586705362782
 31
0.0
  0
LINE
  5
2AA
330
6C
100
AcDbEntity
  8
Visible (ANSI)
100
AcDbLine
 10
9.175496206415065
 20
6.872217862772942
 30
0.0
 11
9.106832301303461
 21
6.973599752950441
 31
0.0
  0
LINE
  5
2AB
330
6C
100
AcDbEntity
  8
Visible (ANSI)
100
AcDbLine
 10
9.106677871699208
 20
6.690911702147138
 30
0.0
 11
9.175496206415065
 21
6.77122913995097
 31
0.0
  0
ELLIPSE
  5
2AC
330
6C
100
AcDbEntity
  8
Visible (ANSI)
100
AcDbEllipse
 10
9.125438843327579
 20
6.829467402381438
 30
0.0
 11
-0.0276201021251938
 21
0.0740833496910853
 31
0.0
210
0.0
220
0.0
230
1.0
 40
0.8160763660440364
 41
3.565824552189138
 42
5.001881460730073
  0
ELLIPSE
  5
2AD
330
6C
100
AcDbEntity
  8
Visible (ANSI)
100
AcDbEllipse
 10
9.155501857807477
 20
6.73715313354045
 30
0.0
 11
-0.0486860269923625
 21
-0.0827930051159189
 31
0.0
210
0.0
220
0.0
230
0.9999999999999998
 40
0.3241934785064033
 41
0.1366188010919139
 42
1.066950138547354
  0
ELLIPSE
  5
2AE
330
6C
100
AcDbEntity
  8
Visible (ANSI)
100
AcDbEllipse
 10
9.155656287411728
 20
7.019841184343756
 30
0.0
 11
-0.0499980362852501
 21
0.0973444133858773
 31
0.0
210
0.0
220
0.0
230
1.0
 40
0.2497289325483518
 41
1.091346643765408
 42
2.023353970557584
  0
ELLIPSE
  5
2AF
330
6C
100
AcDbEntity
  8
Visible (ANSI)
100
AcDbEllipse
 10
9.106832301303461
 20
7.027394281280525
 30
0.0
 11
-0.0499980362852499
 21
0.0973444133858773
 31
0.0
210
0.0
220
0.0
230
0.9999999999999998
 40
0.2497289325483515
 41
1.123601839227794
 42
2.023353970557586
  0
ELLIPSE
  5
2B0
330
6C
100
AcDbEntity
  8
Visible (ANSI)
100
AcDbEllipse
 10
9.106677871699208
 20
6.744706230477221
 30
0.0
 11
0.048686026992365
 21
0.0827930051159173
 31
0.0
210
0.0
220
0.0
230
1.0
 40
0.3241934785064023
 41
3.313245465398278
 42
4.208542792137659
  0
LINE
  5
2B1
330
6C
100
AcDbEntity
  8
Visible (ANSI)
100
AcDbLine
 10
9.063292077259035
 20
6.660347452190354
 30
0.0
 11
9.063292077259035
 21
6.660433938477208
 31
0.0
  0
LINE
  5
2B2
330
6C
100
AcDbEntity
  8
Visible Narrow (ANSI)
100
AcDbLine
 10
9.155501857807477
 20
6.683358605210368
 30
0.0
 11
9.106677871699208
 21
6.690911702147138
 31
0.0
  0
LINE
  5
2B3
330
6C
100
AcDbEntity
  8
Visible Narrow (ANSI)
100
AcDbLine
 10
9.106832301303461
 20
6.973599752950441
 30
0.0
 11
9.155656287411728
 21
6.966046656013672
 31
0.0
  0
LINE
  5
2B4
330
6C
100
AcDbEntity
  8
Visible Narrow (ANSI)
100
AcDbLine
 10
9.114716852519856
 20
7.099659229245966
 30
0.0
 11
9.09929053074169
 21
7.102045689530259
 31
0.0
  0
LINE
  5
2B5
330
6C
100
AcDbEntity
  8
Visible (ANSI)
100
AcDbLine
 10
9.063292077259035
 20
7.058231531291856
 30
0.0
 11
9.063292077259035
 21
7.071840618993489
 31
0.0
  0
LINE
  5
2B6
330
6C
100
AcDbEntity
  8
Visible (ANSI)
100
AcDbLine
 10
9.110646289333688
 20
6.653021730087879
 30
0.0
 11
9.063292077259035
 21
6.660347452190354
 31
0.0
  0
LINE
  5
2B7
330
6C
100
AcDbEntity
  8
Visible Narrow (ANSI)
100
AcDbLine
 10
9.203187513654953
 20
6.89586705362782
 30
0.0
 11
9.203187513654953
 21
6.985056477265237
 31
0.0
  0
LINE
  5
2B8
330
6C
100
AcDbEntity
  8
Visible Narrow (ANSI)
100
AcDbLine
 10
9.175496206415065
 20
6.77122913995097
 30
0.0
 11
9.175496206415065
 21
6.872217862772944
 31
0.0
  0
LINE
  5
2B9
330
6C
100
AcDbEntity
  8
Visible (ANSI)
100
AcDbLine
 10
9.228676433380814
 20
6.813496491619225
 30
0.0
 11
9.228676433380815
 21
6.932114785497044
 31
0.0
  0
LINE
  5
2BA
330
6C
100
AcDbEntity
  8
Visible Narrow (ANSI)
100
AcDbLine
 10
9.069146129941568
 20
6.680630789307753
 30
0.0
 11
9.172419135983362
 21
6.876761140876165
 31
0.0
  0
LINE
  5
2BB
330
6C
100
AcDbEntity
  8
Visible (ANSI)
100
AcDbLine
 10
9.065742002020996
 20
6.686853137959396
 30
0.0
 11
9.168660653855981
 21
6.882310519718703
 31
0.0
  0
LINE
  5
2BC
330
6C
100
AcDbEntity
  8
Visible (ANSI)
100
AcDbLine
 10
9.063292077259035
 20
6.667718250641656
 30
0.0
 11
9.063292077259035
 21
6.660433938477209
 31
0.0
  0
SPLINE
  5
2BD
330
6C
100
AcDbEntity
  8
Visible (ANSI)
100
AcDbSpline
210
0.0
220
0.0
230
1.0
 70
     8
 71
     3
 72
    10
 73
     6
 74
     0
 42
0.0000000001
 43
0.0000000001
 40
0.0
 40
0.0
 40
0.0
 40
0.0
 40
0.063294475169348
 40
0.063294475169348
 40
0.1013225842516109
 40
0.1013225842516109
 40
0.1013225842516109
 40
0.1013225842516109
 10
8.555318434570715
 20
9.337416469156394
 30
0.0
 10
8.554354429181255
 20
9.329170995295916
 30
0.0
 10
8.552286115342948
 20
9.314794584214396
 30
0.0
 10
8.543379843871422
 20
9.288439576851816
 30
0.0
 10
8.538376101729731
 20
9.276518967053137
 30
0.0
 10
8.530317633804804
 20
9.26377621591871
 30
0.0
  0
LINE
  5
2BE
330
6C
100
AcDbEntity
  8
Visible (ANSI)
100
AcDbLine
 10
8.50426271008278
 20
9.343111876575594
 30
0.0
 11
8.555318434570715
 21
9.337416469156394
 31
0.0
  0
SPLINE
  5
2BF
330
6C
100
AcDbEntity
  8
Visible (ANSI)
100
AcDbSpline
210
0.0
220
0.0
230
1.0
 70
     8
 71
     3
 72
    10
 73
     6
 74
     0
 42
0.0000000001
 43
0.0000000001
 40
0.0
 40
0.0
 40
0.0
 40
0.0
 40
0.0747173843788453
 40
0.0747173843788453
 40
0.1355437212594887
 40
0.1355437212594887
 40
0.1355437212594887
 40
0.1355437212594887
 10
8.493548081183105
 20
9.285005127022831
 30
0.0
 10
8.496615279145485
 20
9.293956089299772
 30
0.0
 10
8.498892165013408
 20
9.303026087218961
 30
0.0
 10
8.50195176891386
 20
9.319618377199343
 30
0.0
 10
8.503408580707578
 20
9.329459659878441
 30
0.0
 10
8.50426271008278
 20
9.343111876575594
 30
0.0
  0
SPLINE
  5
2C0
330
6C
100
AcDbEntity
  8
Visible (ANSI)
100
AcDbSpline
210
0.0
220
0.0
230
1.0
 70
     8
 71
     3
 72
    12
 73
     8
 74
     0
 42
0.0000000001
 43
0.0000000001
 40
0.0
 40
0.0
 40
0.0
 40
0.0
 40
0.0881869190644331
 40
0.0881869190644331
 40
0.1801127479292162
 40
0.1801127479292162
 40
0.1927566988065811
 40
0.1927566988065811
 40
0.1927566988065811
 40
0.1927566988065811
 10
8.530317633804806
 20
4.919035562252886
 30
0.0
 10
8.538404480908939
 20
4.922257177315925
 30
0.0
 10
8.544756284071956
 20
4.925661857309319
 30
0.0
 10
8.553868970721861
 20
4.932042916446873
 30
0.0
 10
8.556339399677959
 20
4.934914630707738
 30
0.0
 10
8.556935779971297
 20
4.937067231615076
 30
0.0
 10
8.556970721002668
 20
4.937307762201643
 30
0.0
 10
8.556970398464596
 20
4.937527104673277
 30
0.0
  0
SPLINE
  5
2C1
330
6C
100
AcDbEntity
  8
Visible (ANSI)
100
AcDbSpline
210
0.0
220
0.0
230
1.0
 70
     8
 71
     3
 72
    10
 73
     6
 74
     0
 42
0.0000000001
 43
0.0000000001
 40
0.4204249025603938
 40
0.4204249025603938
 40
0.4204249025603938
 40
0.4204249025603938
 40
0.4389668742848999
 40
0.4389668742848999
 40
0.529432663065458
 40
0.529432663065458
 40
0.529432663065458
 40
0.529432663065458
 10
8.536191060124927
 20
4.921542502360471
 30
0.0
 10
8.535531921314515
 20
4.920229550985087
 30
0.0
 10
8.534908752005943
 20
4.918843296074115
 30
0.0
 10
8.531516927136101
 20
4.91026575571136
 30
0.0
 10
8.530607558648219
 20
4.903271475002327
 30
0.0
 10
8.530317633804806
 20
4.898794026620824
 30
0.0
  0
SPLINE
  5
2C2
330
6C
100
AcDbEntity
  8
Visible (ANSI)
100
AcDbSpline
210
0.0
220
0.0
230
1.0
 70
     8
 71
     3
 72
     8
 73
     4
 74
     0
 42
0.0000000001
 43
0.0000000001
 40
0.0
 40
0.0
 40
0.0
 40
0.0
 40
0.0790674281368157
 40
0.0790674281368157
 40
0.0790674281368157
 40
0.0790674281368157
 10
8.493548081183107
 20
4.877565115516703
 30
0.0
 10
8.493774501392117
 20
4.885902572574214
 30
0.0
 10
8.49462240989729
 20
4.89416007830944
 30
0.0
 10
8.495935692739204
 20
4.901713117762749
 30
0.0
  0
SPLINE
  5
2C3
330
6C
100
AcDbEntity
  8
Visible (ANSI)
100
AcDbSpline
210
0.0
220
0.0
230
1.0
 70
     8
 71
     3
 72
    12
 73
     8
 74
     0
 42
0.0000000001
 43
0.0000000001
 40
0.0
 40
0.0
 40
0.0
 40
0.0
 40
0.0872706299210047
 40
0.0872706299210047
 40
0.2183770512103642
 40
0.2183770512103642
 40
0.3494849185567912
 40
0.3494849185567912
 40
0.3494849185567912
 40
0.3494849185567912
 10
8.530317633804804
 20
9.469968153011029
 30
0.0
 10
8.535558997976478
 20
9.4598135291297
 30
0.0
 10
8.540140438863183
 20
9.449327361214574
 30
0.0
 10
8.549698065018247
 20
9.422312131887354
 30
0.0
 10
8.553635884532059
 20
9.405620667713929
 30
0.0
 10
8.557518753660371
 20
9.371540795728718
 30
0.0
 10
8.557430960488973
 20
9.354438229965584
 30
0.0
 10
8.555318434570715
 20
9.337416469156394
 30
0.0
  0
SPLINE
  5
2C4
330
6C
100
AcDbEntity
  8
Visible (ANSI)
100
AcDbSpline
210
0.0
220
0.0
230
1.0
 70
     8
 71
     3
 72
    10
 73
     6
 74
     0
 42
0.0000000001
 43
0.0000000001
 40
0.0
 40
0.0
 40
0.0
 40
0.0
 40
0.1421096872410973
 40
0.1421096872410973
 40
0.284219376790881
 40
0.284219376790881
 40
0.284219376790881
 40
0.284219376790881
 10
8.50426271008278
 20
9.343111876575594
 30
0.0
 10
8.50547246545207
 20
9.361036218922816
 30
0.0
 10
8.505128292597717
 20
9.37886608081939
 30
0.0
 10
8.501392494339366
 20
9.414525558838997
 30
0.0
 10
8.498057291450134
 20
9.431826402756035
 30
0.0
 10
8.493548081183105
 20
9.448739241906904
 30
0.0
  0
LINE
  5
2C5
330
6C
100
AcDbEntity
  8
Visible (ANSI)
100
AcDbLine
 10
8.55697091671683
 20
9.364086161407213
 30
0.0
 11
8.55697091671683
 21
4.937526371188788
 31
0.0
  0
LINE
  5
2C6
330
6C
100
AcDbEntity
  8
Visible (ANSI)
100
AcDbLine
 10
8.382956890566525
 20
4.83648495044465
 30
0.0
 11
8.38295689056652
 21
4.251587266784953
 31
0.0
  0
ELLIPSE
  5
2C7
330
6C
100
AcDbEntity
  8
Visible (ANSI)
100
AcDbEllipse
 10
8.291033009012275
 20
4.304659544545251
 30
0.0
 11
0.0649999999999951
 21
-0.1125833024919686
 31
0.0
210
0.0
220
0.0
230
1.0
 40
0.5773502691896258
 41
0.0
 42
0.7853981633974457
  0
ELLIPSE
  5
2C8
330
6C
100
AcDbEntity
  8
Visible (ANSI)
100
AcDbEllipse
 10
10.10299413580279
 20
3.25852330023161
 30
0.0
 11
0.0650000000000004
 21
-0.1125833024919776
 31
0.0
210
0.0
220
0.0
230
1.0
 40
0.577350269189626
 41
0.0
 42
0.7853981633974634
  0
ELLIPSE
  5
2C9
330
6C
100
AcDbEntity
  8
Visible (ANSI)
100
AcDbEllipse
 10
9.933288508318016
 20
4.317927613985335
 30
0.0
 11
-0.0649999999999955
 21
0.1125833024919693
 31
0.0
210
0.0
220
0.0
230
1.0
 40
0.5773502691896258
 41
5.49778714378214
 42
6.283185307179587
  0
LINE
  5
2CA
330
6C
100
AcDbEntity
  8
Visible (ANSI)
100
AcDbLine
 10
9.933288508318016
 20
4.424072169505935
 30
0.0
 11
10.10299413580279
 21
4.326092579794604
 31
0.0
  0
ELLIPSE
  5
2CB
330
6C
100
AcDbEntity
  8
Visible (ANSI)
100
AcDbEllipse
 10
10.10299413580279
 20
4.219948024274005
 30
0.0
 11
0.0649999999999933
 21
-0.1125833024919809
 31
0.0
210
0.0
220
0.0
230
1.0
 40
0.5773502691896257
 41
0.7853981633977006
 42
2.356194490192592
  0
LINE
  5
2CC
330
6C
100
AcDbEntity
  8
Visible (ANSI)
100
AcDbLine
 10
10.19491801735704
 20
4.166875746513703
 30
0.0
 11
10.19491801735705
 21
3.205451022471302
 31
0.0
  0
ELLIPSE
  5
2CD
330
6C
100
AcDbEntity
  8
Visible Narrow (ANSI)
100
AcDbEllipse
 10
8.254263456390575
 20
4.28343063344113
 30
0.0
 11
0.0389999999999955
 21
-0.0675499814951783
 31
0.0
210
0.0
220
0.0
230
1.0
 40
0.5773502691896259
 41
5.497787143782137
 42
7.06858347057703
  0
LINE
  5
2CE
330
6C
100
AcDbEntity
  8
Visible Narrow (ANSI)
100
AcDbLine
 10
8.309417785323123
 20
4.794027128236405
 30
0.0
 11
8.309417785323118
 21
4.251587266784953
 31
0.0
  0
LINE
  5
2CF
330
6C
100
AcDbEntity
  8
Visible Narrow (ANSI)
100
AcDbLine
 10
8.029403499973234
 20
4.41325358980865
 30
0.0
 11
8.029403499973241
 21
4.957769988624628
 31
0.0
  0
ELLIPSE
  5
2D0
330
6C
100
AcDbEntity
  8
Visible Narrow (ANSI)
100
AcDbEllipse
 10
8.084557828905797
 20
4.381410223152461
 30
0.0
 11
-0.0389999999999962
 21
0.0675499814951889
 31
0.0
210
0.0
220
0.0
230
0.9999999999999998
 40
0.5773502691896258
 41
0.7853981633976686
 42
2.356194490192592
  0
LINE
  5
2D1
330
6C
100
AcDbEntity
  8
Visible Narrow (ANSI)
100
AcDbLine
 10
8.254263456390575
 20
4.219743900128776
 30
0.0
 11
8.084557828905797
 21
4.317723489840099
 31
0.0
  0
ELLIPSE
  5
2D2
330
6C
100
AcDbEntity
  8
Visible Narrow (ANSI)
100
AcDbEllipse
 10
8.121327381527498
 20
4.338952400944219
 30
0.0
 11
-0.0260000000000014
 21
-0.0450333209968097
 31
0.0
210
0.0
220
0.0
230
0.9999999999999998
 40
0.5773502691896258
 41
5.497787143781117
 42
6.283185307178484
  0
ELLIPSE
  5
2D3
330
6C
100
AcDbEntity
  8
Visible Narrow (ANSI)
100
AcDbEllipse
 10
8.291033009012275
 20
4.240972811232897
 30
0.0
 11
-0.0260000000000004
 21
-0.0450333209967915
 31
0.0
210
0.0
220
0.0
230
1.0
 40
0.577350269189626
 41
5.497787143782139
 42
6.283185307179743
  0
ELLIPSE
  5
2D4
330
6C
100
AcDbEntity
  8
Visible Narrow (ANSI)
100
AcDbEllipse
 10
8.066173052594935
 20
4.434482500912772
 30
0.0
 11
-0.0519999999999997
 21
0.0000000000000006
 31
0.0
210
0.0
220
0.0
230
0.9999999999999998
 40
0.5773502691896332
 41
0.0
 42
0.7853981633974368
  0
ELLIPSE
  5
2D5
330
6C
100
AcDbEntity
  8
Visible Narrow (ANSI)
100
AcDbEllipse
 10
8.346187337944821
 20
4.272816177889073
 30
0.0
 11
-0.0519999999999983
 21
0.0000000000000036
 31
0.0
210
0.0
220
0.0
230
1.0
 40
0.5773502691896314
 41
0.7853981633976659
 42
2.356194490192583
  0
ELLIPSE
  5
2D6
330
6C
100
AcDbEntity
  8
Visible Narrow (ANSI)
100
AcDbEllipse
 10
9.617239296117157
 20
2.241005636628699
 30
0.0
 11
-0.0259999999999991
 21
-0.0450333209967918
 31
0.0
210
0.0
220
0.0
230
0.9999999999999998
 40
0.5773502691896257
 41
4.712388980384659
 42
6.283185307179647
  0
ELLIPSE
  5
2D7
330
6C
100
AcDbEntity
  8
Visible (ANSI)
100
AcDbEllipse
 10
9.656239296117151
 20
2.308555618123878
 30
0.0
 11
-0.0649999999999972
 21
-0.1125833024919677
 31
0.0
210
0.0
220
0.0
230
0.9999999999999998
 40
0.816496580927726
 41
0.0
 42
1.570796326794889
  0
LINE
  5
2D8
330
6C
100
AcDbEntity
  8
Visible Narrow (ANSI)
100
AcDbLine
 10
9.685393625049691
 20
2.291723358466632
 30
0.0
 11
9.748163177671401
 21
2.255483340363574
 31
0.0
  0
ELLIPSE
  5
2D9
330
6C
100
AcDbEntity
  8
Visible Narrow (ANSI)
100
AcDbEllipse
 10
9.630239296117151
 20
2.323566725122809
 30
0.0
 11
-0.0389999999999969
 21
-0.0675499814951777
 31
0.0
210
0.0
220
0.0
230
1.0
 40
0.816496580927726
 41
0.0
 42
1.570796326794879
  0
LINE
  5
2DA
330
6C
100
AcDbEntity
  8
Visible (ANSI)
100
AcDbLine
 10
10.08691317767141
 20
2.84221555142752
 30
0.0
 11
9.748163177671401
 21
2.255483340363574
 31
0.0
  0
LINE
  5
2DB
330
6C
100
AcDbEntity
  8
Visible Narrow (ANSI)
100
AcDbLine
 10
10.02414362504971
 20
2.878455569530573
 30
0.0
 11
10.08691317767141
 21
2.84221555142752
 31
0.0
  0
LINE
  5
2DC
330
6C
100
AcDbEntity
  8
Visible Narrow (ANSI)
100
AcDbLine
 10
10.02414362504971
 20
2.878455569530573
 30
0.0
 11
9.685393625049695
 21
2.291723358466629
 31
0.0
  0
ELLIPSE
  5
2DD
330
6C
100
AcDbEntity
  8
Visible (ANSI)
100
AcDbEllipse
 10
9.994989296117164
 20
2.895287829187828
 30
0.0
 11
0.0649999999999857
 21
0.1125833024919747
 31
0.0
210
0.0
220
0.0
230
0.9999999999999998
 40
0.8164965809277259
 41
4.712388980384518
 42
6.283185307179474
  0
ELLIPSE
  5
2DE
330
6C
100
AcDbEntity
  8
Visible Narrow (ANSI)
100
AcDbEllipse
 10
10.03398929611715
 20
2.962837810683009
 30
0.0
 11
0.0260000000000006
 21
0.045033320996801
 31
0.0
210
0.0
220
0.0
230
0.9999999999999998
 40
0.5773502691896283
 41
0.0000000000003203
 42
1.570796326795004
  0
ELLIPSE
  5
2DF
330
6C
100
AcDbEntity
  8
Visible Narrow (ANSI)
100
AcDbEllipse
 10
9.968989296117163
 20
2.910298936186758
 30
0.0
 11
0.0389999999999897
 21
0.0675499814951817
 31
0.0
210
0.0
220
0.0
230
0.9999999999999998
 40
0.8164965809277264
 41
4.712388980384512
 42
6.283185307179487
  0
LINE
  5
2E0
330
6C
100
AcDbEntity
  8
Visible (ANSI)
100
AcDbLine
 10
9.890283668632376
 20
3.105850721391141
 30
0.0
 11
10.05998929611715
 21
3.00787113167981
 31
0.0
  0
ELLIPSE
  5
2E1
330
6C
100
AcDbEntity
  8
Visible Narrow (ANSI)
100
AcDbEllipse
 10
9.864283668632376
 20
3.06081740039435
 30
0.0
 11
0.026
 21
0.0450333209967907
 31
0.0
210
0.0
220
0.0
230
1.0
 40
0.5773502691896259
 41
0.0
 42
1.570796326794893
  0
LINE
  5
2E2
330
6C
100
AcDbEntity
  8
Visible Narrow (ANSI)
100
AcDbLine
 10
9.838283668632376
 20
3.075828507393281
 30
0.0
 11
10.00798929611715
 21
2.97784891768194
 31
0.0
  0
LINE
  5
2E3
330
6C
100
AcDbEntity
  8
Visible Narrow (ANSI)
100
AcDbLine
 10
9.74412933969983
 20
3.040121892554276
 30
0.0
 11
9.725096018703034
 21
3.051110785555349
 31
0.0
  0
ELLIPSE
  5
2E4
330
6C
100
AcDbEntity
  8
Visible Narrow (ANSI)
100
AcDbEllipse
 10
9.799283668632375
 20
3.008278525898094
 30
0.0
 11
0.0389999999999966
 21
0.0675499814951772
 31
0.0
210
0.0
220
0.0
230
0.9999999999999998
 40
0.816496580927726
 41
0.0
 42
1.570796326794886
  0
LINE
  5
2E5
330
6C
100
AcDbEntity
  8
Visible Narrow (ANSI)
100
AcDbLine
 10
9.405379339699821
 20
2.453389681490325
 30
0.0
 11
9.386346018703031
 21
2.464378574491396
 31
0.0
  0
LINE
  5
2E6
330
6C
100
AcDbEntity
  8
Visible Narrow (ANSI)
100
AcDbLine
 10
9.405379339699821
 20
2.453389681490325
 30
0.0
 11
9.744129339699833
 21
3.040121892554273
 31
0.0
  0
ELLIPSE
  5
2E7
330
6C
100
AcDbEntity
  8
Visible Narrow (ANSI)
100
AcDbEllipse
 10
9.447533668632377
 20
2.338985226340031
 30
0.0
 11
-0.026000000000003
 21
-0.0450333209967997
 31
0.0
210
0.0
220
0.0
230
0.9999999999999998
 40
0.5773502691896251
 41
4.71238898038473
 42
6.283185307179708
  0
ELLIPSE
  5
2E8
330
6C
100
AcDbEntity
  8
Visible Narrow (ANSI)
100
AcDbEllipse
 10
9.460533668632368
 20
2.421546314834141
 30
0.0
 11
-0.0389999999999923
 21
-0.0675499814951797
 31
0.0
210
0.0
220
0.0
230
1.0
 40
0.816496580927726
 41
4.712388980384574
 42
6.283185307179535
  0
LINE
  5
2E9
330
6C
100
AcDbEntity
  8
Visible (ANSI)
100
AcDbLine
 10
9.591239296117153
 20
2.195972315631899
 30
0.0
 11
9.421533668632374
 21
2.293951905343232
 31
0.0
  0
LINE
  5
2EA
330
6C
100
AcDbEntity
  8
Visible Narrow (ANSI)
100
AcDbLine
 10
9.591239296117157
 20
2.256016743627629
 30
0.0
 11
9.421533668632376
 21
2.353996333338961
 31
0.0
  0
ELLIPSE
  5
2EB
330
6C
100
AcDbEntity
  8
Visible Narrow (ANSI)
100
AcDbEllipse
 10
7.805278169326635
 20
3.287141880942344
 30
0.0
 11
-0.0260000000000021
 21
-0.04503332099679
 31
0.0
210
0.0
220
0.0
230
1.0
 40
0.5773502691896257
 41
4.712388980384721
 42
6.283185307179589
  0
ELLIPSE
  5
2EC
330
6C
100
AcDbEntity
  8
Visible (ANSI)
100
AcDbEllipse
 10
7.844278169326633
 20
3.354691862437521
 30
0.0
 11
-0.0649999999999924
 21
-0.1125833024919707
 31
0.0
210
0.0
220
0.0
230
1.0
 40
0.8164965809277262
 41
0.0
 42
1.570796326794916
  0
LINE
  5
2ED
330
6C
100
AcDbEntity
  8
Visible Narrow (ANSI)
100
AcDbLine
 10
7.873432498259173
 20
3.337859602780278
 30
0.0
 11
7.936202050880885
 21
3.301619584677222
 31
0.0
  0
ELLIPSE
  5
2EE
330
6C
100
AcDbEntity
  8
Visible Narrow (ANSI)
100
AcDbEllipse
 10
7.818278169326632
 20
3.369702969436451
 30
0.0
 11
-0.0389999999999933
 21
-0.0675499814951791
 31
0.0
210
0.0
220
0.0
230
1.0
 40
0.8164965809277262
 41
0.0
 42
1.57079632679491
  0
LINE
  5
2EF
330
6C
100
AcDbEntity
  8
Visible (ANSI)
100
AcDbLine
 10
8.274952050880878
 20
3.888351795741182
 30
0.0
 11
7.936202050880886
 21
3.301619584677222
 31
0.0
  0
LINE
  5
2F0
330
6C
100
AcDbEntity
  8
Visible Narrow (ANSI)
100
AcDbLine
 10
8.212182498259178
 20
3.924591813844233
 30
0.0
 11
8.274952050880878
 21
3.888351795741182
 31
0.0
  0
LINE
  5
2F1
330
6C
100
AcDbEntity
  8
Visible Narrow (ANSI)
100
AcDbLine
 10
8.21218249825918
 20
3.924591813844233
 30
0.0
 11
7.873432498259179
 21
3.337859602780276
 31
0.0
  0
ELLIPSE
  5
2F2
330
6C
100
AcDbEntity
  8
Visible (ANSI)
100
AcDbEllipse
 10
8.183028169326625
 20
3.941424073501481
 30
0.0
 11
0.0649999999999954
 21
0.112583302491969
 31
0.0
210
0.0
220
0.0
230
1.0
 40
0.816496580927726
 41
4.712388980384716
 42
6.283185307179584
  0
ELLIPSE
  5
2F3
330
6C
100
AcDbEntity
  8
Visible Narrow (ANSI)
100
AcDbEllipse
 10
8.222028169326621
 20
4.00897405499666
 30
0.0
 11
0.0260000000000049
 21
0.0450333209967993
 31
0.0
210
0.0
220
0.0
230
1.0
 40
0.5773502691896259
 41
0.0000000000000083
 42
1.570796326794909
  0
ELLIPSE
  5
2F4
330
6C
100
AcDbEntity
  8
Visible Narrow (ANSI)
100
AcDbEllipse
 10
8.157028169326625
 20
3.956435180500412
 30
0.0
 11
0.038999999999995
 21
0.067549981495178
 31
0.0
210
0.0
220
0.0
230
1.0
 40
0.8164965809277264
 41
4.712388980384709
 42
6.283185307179581
  0
LINE
  5
2F5
330
6C
100
AcDbEntity
  8
Visible (ANSI)
100
AcDbLine
 10
8.078322541841849
 20
4.151986965704789
 30
0.0
 11
8.248028169326627
 21
4.054007375993459
 31
0.0
  0
ELLIPSE
  5
2F6
330
6C
100
AcDbEntity
  8
Visible Narrow (ANSI)
100
AcDbEllipse
 10
8.052322541841849
 20
4.106953644707998
 30
0.0
 11
0.026
 21
0.0450333209967907
 31
0.0
210
0.0
220
0.0
230
1.0
 40
0.5773502691896259
 41
0.0
 42
1.570796326794893
  0
LINE
  5
2F7
330
6C
100
AcDbEntity
  8
Visible Narrow (ANSI)
100
AcDbLine
 10
8.02632254184185
 20
4.121964751706929
 30
0.0
 11
8.19602816932662
 21
4.02398516199559
 31
0.0
  0
LINE
  5
2F8
330
6C
100
AcDbEntity
  8
Visible Narrow (ANSI)
100
AcDbLine
 10
7.932168212909288
 20
4.086258136867925
 30
0.0
 11
7.913134891912494
 21
4.097247029868995
 31
0.0
  0
ELLIPSE
  5
2F9
330
6C
100
AcDbEntity
  8
Visible Narrow (ANSI)
100
AcDbEllipse
 10
7.987322541841838
 20
4.054414770211749
 30
0.0
 11
0.0389999999999923
 21
0.0675499814951795
 31
0.0
210
0.0
220
0.0
230
1.0
 40
0.8164965809277257
 41
0.0
 42
1.57079632679494
  0
LINE
  5
2FA
330
6C
100
AcDbEntity
  8
Visible Narrow (ANSI)
100
AcDbLine
 10
7.593418212909299
 20
3.499525925803964
 30
0.0
 11
7.574384891912509
 21
3.510514818805033
 31
0.0
  0
LINE
  5
2FB
330
6C
100
AcDbEntity
  8
Visible Narrow (ANSI)
100
AcDbLine
 10
7.593418212909299
 20
3.499525925803964
 30
0.0
 11
7.932168212909292
 21
4.086258136867924
 31
0.0
  0
ELLIPSE
  5
2FC
330
6C
100
AcDbEntity
  8
Visible Narrow (ANSI)
100
AcDbEllipse
 10
7.635572541841854
 20
3.385121470653677
 30
0.0
 11
-0.0260000000000058
 21
-0.0450333209967981
 31
0.0
210
0.0
220
0.0
230
0.9999999999999998
 40
0.5773502691896253
 41
4.71238898038467
 42
6.283185307179489
  0
ELLIPSE
  5
2FD
330
6C
100
AcDbEntity
  8
Visible Narrow (ANSI)
100
AcDbEllipse
 10
7.648572541841851
 20
3.467682559147784
 30
0.0
 11
-0.0389999999999974
 21
-0.0675499814951774
 31
0.0
210
0.0
220
0.0
230
1.0
 40
0.8164965809277264
 41
4.712388980384742
 42
6.283185307179596
  0
LINE
  5
2FE
330
6C
100
AcDbEntity
  8
Visible (ANSI)
100
AcDbLine
 10
7.779278169326629
 20
3.242108559945547
 30
0.0
 11
7.609572541841849
 21
3.340088149656879
 31
0.0
  0
LINE
  5
2FF
330
6C
100
AcDbEntity
  8
Visible Narrow (ANSI)
100
AcDbLine
 10
7.779278169326635
 20
3.302152987941275
 30
0.0
 11
7.609572541841854
 21
3.400132577652607
 31
0.0
  0
ELLIPSE
  5
300
330
6C
100
AcDbEntity
  8
Visible Narrow (ANSI)
100
AcDbEllipse
 10
10.10299413580279
 20
3.194836566919246
 30
0.0
 11
-0.0260000000000004
 21
-0.0450333209967914
 31
0.0
210
0.0
220
0.0
230
0.9999999999999998
 40
0.5773502691896258
 41
5.497787143782172
 42
6.283185307179807
  0
ELLIPSE
  5
301
330
6C
100
AcDbEntity
  8
Visible Narrow (ANSI)
100
AcDbEllipse
 10
10.15814846473534
 20
3.226679933575429
 30
0.0
 11
-0.052000000000017
 21
0.0000000000000023
 31
0.0
210
0.0
220
0.0
230
1.0
 40
0.5773502691896161
 41
0.7853981633976775
 42
2.356194490192599
  0
ELLIPSE
  5
302
330
6C
100
AcDbEntity
  8
Visible Narrow (ANSI)
100
AcDbEllipse
 10
10.06622458318109
 20
3.237294389127488
 30
0.0
 11
0.0390000000000002
 21
-0.0675499814951865
 31
0.0
210
0.0
220
0.0
230
1.0
 40
0.5773502691896259
 41
5.497787143782137
 42
7.068583470577049
  0
ELLIPSE
  5
303
330
6C
100
AcDbEntity
  8
Visible Narrow (ANSI)
100
AcDbEllipse
 10
10.15814846473534
 20
4.188104657617824
 30
0.0
 11
-0.0520000000000003
 21
0.0000000000000026
 31
0.0
210
0.0
220
0.0
230
0.9999999999999998
 40
0.5773502691896172
 41
0.7853981633976695
 42
2.356194490192567
  0
LINE
  5
304
330
6C
100
AcDbEntity
  8
Visible Narrow (ANSI)
100
AcDbLine
 10
10.12137891211364
 20
4.166875746513702
 30
0.0
 11
10.12137891211364
 21
3.205451022471307
 31
0.0
  0
ELLIPSE
  5
305
330
6C
100
AcDbEntity
  8
Visible Narrow (ANSI)
100
AcDbEllipse
 10
10.10299413580279
 20
4.283634757586368
 30
0.0
 11
-0.0259999999999941
 21
-0.0450333209967868
 31
0.0
210
0.0
220
0.0
230
1.0
 40
0.5773502691896258
 41
3.92699081698703
 42
5.497787143781875
  0
ELLIPSE
  5
306
330
6C
100
AcDbEntity
  8
Visible Narrow (ANSI)
100
AcDbEllipse
 10
10.06622458318109
 20
4.198719113169883
 30
0.0
 11
0.0389999999999962
 21
-0.0675499814951889
 31
0.0
210
0.0
220
0.0
230
1.0
 40
0.5773502691896257
 41
0.7853981633977245
 42
2.356194490192592
  0
ELLIPSE
  5
307
330
6C
100
AcDbEntity
  8
Visible Narrow (ANSI)
100
AcDbEllipse
 10
9.933288508318016
 20
4.381614347297693
 30
0.0
 11
-0.0259999999999975
 21
-0.0450333209967926
 31
0.0
210
0.0
220
0.0
230
0.9999999999999998
 40
0.5773502691896258
 41
3.926990816986993
 42
5.497787143781884
  0
LINE
  5
308
330
6C
100
AcDbEntity
  8
Visible Narrow (ANSI)
100
AcDbLine
 10
9.896518955696315
 20
4.360385436193571
 30
0.0
 11
10.06622458318109
 21
4.262405846482247
 31
0.0
  0
ELLIPSE
  5
309
330
6C
100
AcDbEntity
  8
Visible Narrow (ANSI)
100
AcDbEllipse
 10
9.878134179385472
 20
4.349770980641512
 30
0.0
 11
-0.0520000000000119
 21
0.000000000000005
 31
0.0
210
0.0
220
0.0
230
1.0
 40
0.5773502691896192
 41
0.0000000000006592
 42
0.7853981633980683
  0
ELLIPSE
  5
30A
330
6C
100
AcDbEntity
  8
Visible Narrow (ANSI)
100
AcDbEllipse
 10
9.896518955696315
 20
4.296698702881213
 30
0.0
 11
-0.0389999999999955
 21
0.0675499814951784
 31
0.0
210
0.0
220
0.0
230
0.9999999999999998
 40
0.5773502691896259
 41
5.497787143782137
 42
7.06858347057704
  0
ELLIPSE
  5
30B
330
6C
100
AcDbEntity
  8
Visible Narrow (ANSI)
100
AcDbEllipse
 10
9.878134179385472
 20
3.388346256599116
 30
0.0
 11
-0.0520000000000001
 21
-0.0000000000000006
 31
0.0
210
0.0
220
0.0
230
1.0
 40
0.5773502691896184
 41
0.0000000000000053
 42
0.7853981633974603
  0
LINE
  5
30C
330
6C
100
AcDbEntity
  8
Visible Narrow (ANSI)
100
AcDbLine
 10
9.841364626763771
 20
3.367117345494994
 30
0.0
 11
9.84136462676377
 21
4.328542069537391
 31
0.0
  0
ELLIPSE
  5
30D
330
6C
100
AcDbEntity
  8
Visible Narrow (ANSI)
100
AcDbEllipse
 10
9.933288508318016
 20
3.292816156630584
 30
0.0
 11
-0.0260000000000021
 21
-0.0450333209967992
 31
0.0
210
0.0
220
0.0
230
0.9999999999999998
 40
0.5773502691896259
 41
5.497787143781865
 42
6.28318530717928
  0
ELLIPSE
  5
30E
330
6C
100
AcDbEntity
  8
Visible Narrow (ANSI)
100
AcDbEllipse
 10
9.896518955696315
 20
3.335273978838818
 30
0.0
 11
-0.0389999999999915
 21
0.0675499814951809
 31
0.0
210
0.0
220
0.0
230
1.0
 40
0.5773502691896258
 41
0.7853981633977059
 42
2.356194490192592
  0
LINE
  5
30F
330
6C
100
AcDbEntity
  8
Visible Narrow (ANSI)
100
AcDbLine
 10
10.06622458318109
 20
3.173607655815125
 30
0.0
 11
9.896518955696315
 21
3.271587245526463
 31
0.0
  0
LINE
  5
310
330
6C
100
AcDbEntity
  8
Visible (ANSI)
100
AcDbLine
 10
8.0953273815275
 20
4.293919079947413
 30
0.0
 11
8.265033009012276
 21
4.195939490236098
 31
0.0
  0
SPLINE
  5
311
330
6C
100
AcDbEntity
  8
Visible (ANSI)
100
AcDbSpline
210
0.0
220
0.0
230
1.0
 70
     8
 71
     3
 72
    16
 73
    12
 74
     0
 42
0.0000000001
 43
0.0000000001
 40
3.141592653589776
 40
3.141592653589776
 40
3.141592653589776
 40
3.141592653589776
 40
3.455751918948759
 40
3.455751918948759
 40
3.769911184307741
 40
3.769911184307741
 40
4.084070449666723
 40
4.084070449666723
 40
4.398229715025706
 40
4.398229715025706
 40
4.712388980384689
 40
4.712388980384689
 40
4.712388980384689
 40
4.712388980384689
 10
8.014173052594946
 20
4.434482500912765
 30
0.0
 10
8.014173052594946
 20
4.423097363448914
 30
0.0
 10
8.015689824026226
 20
4.4119254433166
 30
0.0
 10
8.020974409204894
 20
4.390094012839039
 30
0.0
 10
8.024758493941281
 20
4.379433231293741
 30
0.0
 10
8.034226971326576
 20
4.358918267526488
 30
0.0
 10
8.039913795163299
 20
4.349068399707586
 30
0.0
 10
8.05294603625081
 20
4.330610975873137
 30
0.0
 10
8.060286501525041
 20
4.322003471588704
 30
0.0
 10
8.07655078233023
 20
4.306511171336734
 30
0.0
 10
8.085467563258225
 20
4.299611648679354
 30
0.0
 10
8.095327381527498
 20
4.293919079947428
 30
0.0
  0
LINE
  5
312
330
6C
100
AcDbEntity
  8
Visible (ANSI)
100
AcDbLine
 10
8.014173052594941
 20
4.974092961731635
 30
0.0
 11
8.014173052594935
 21
4.434482500912772
 31
0.0
  0
SPLINE
  5
313
330
6C
100
AcDbEntity
  8
Visible (ANSI)
100
AcDbSpline
210
0.0
220
0.0
230
1.0
 70
     8
 71
     3
 72
    16
 73
    12
 74
     0
 42
0.0000000001
 43
0.0000000001
 40
4.712388980384689
 40
4.712388980384689
 40
4.712388980384689
 40
4.712388980384689
 40
4.869468613064179
 40
4.869468613064179
 40
5.026548245743668
 40
5.026548245743668
 40
5.183627878423158
 40
5.183627878423158
 40
5.340707511102648
 40
5.340707511102648
 40
5.497787143782137
 40
5.497787143782137
 40
5.497787143782137
 40
5.497787143782137
 10
8.265033009012276
 20
4.195939490236106
 30
0.0
 10
8.26996291814691
 20
4.193093205870143
 30
0.0
 10
8.275133206338457
 20
4.190551408875959
 30
0.0
 10
8.286026434243806
 20
4.186254426210905
 30
0.0
 10
8.291752835188766
 20
4.184497826531329
 30
0.0
 10
8.303792160501554
 20
4.18206389246461
 30
0.0
 10
8.310111938850763
 20
4.18138895734696
 30
0.0
 10
8.323176993028514
 20
4.181532660422146
 30
0.0
 10
8.329925899096272
 20
4.182362647924618
 30
0.0
 10
8.343297545153248
 20
4.185860520490598
 30
0.0
 10
8.349906903337771
 20
4.188539333293026
 30
0.0
 10
8.356033009012271
 20
4.192076242053283
 30
0.0
  0
SPLINE
  5
314
330
6C
100
AcDbEntity
  8
Visible (ANSI)
100
AcDbSpline
210
0.0
220
0.0
230
1.0
 70
     8
 71
     3
 72
    18
 73
    14
 74
     0
 42
0.0000000001
 43
0.0000000001
 40
1.570796326794896
 40
1.570796326794896
 40
1.570796326794896
 40
1.570796326794896
 40
1.847924456005915
 40
1.847924456005915
 40
2.133937428360994
 40
2.133937428360994
 40
2.442600953300392
 40
2.442600953300392
 40
2.756760218659366
 40
2.756760218659366
 40
3.07091948401834
 40
3.07091948401834
 40
3.141592653589766
 40
3.141592653589766
 40
3.141592653589766
 40
3.141592653589766
 10
9.89028366863237
 20
3.105850721391132
 30
0.0
 10
9.880093791302394
 20
3.111733849810604
 30
0.0
 10
9.868899993233366
 20
3.115848324542823
 30
0.0
 10
9.845619123345878
 20
3.120286400838149
 30
0.0
 10
9.833537062436247
 20
3.120499658535802
 30
0.0
 10
9.809215421739605
 20
3.117206047583324
 30
0.0
 10
9.797036354535507
 20
3.113424643375844
 30
0.0
 10
9.774243866562761
 20
3.102534899317007
 30
0.0
 10
9.763648366814965
 20
3.095373219776858
 30
0.0
 10
9.744774613199908
 20
3.078556853159621
 30
0.0
 10
9.736490375822773
 20
3.068899261695652
 30
0.0
 10
9.728004634672053
 20
3.055984911606106
 30
0.0
 10
9.726514874718898
 20
3.053568316263429
 30
0.0
 10
9.725096018703043
 20
3.051110785555344
 30
0.0
  0
LINE
  5
315
330
6C
100
AcDbEntity
  8
Visible (ANSI)
100
AcDbLine
 10
9.725096018703036
 20
3.051110785555348
 30
0.0
 11
9.386346018703031
 21
2.464378574491396
 31
0.0
  0
SPLINE
  5
316
330
6C
100
AcDbEntity
  8
Visible (ANSI)
100
AcDbSpline
210
0.0
220
0.0
230
1.0
 70
     8
 71
     3
 72
    18
 73
    14
 74
     0
 42
0.0000000001
 43
0.0000000001
 40
3.141592653589758
 40
3.141592653589758
 40
3.141592653589758
 40
3.141592653589758
 40
3.455751918948754
 40
3.455751918948754
 40
3.76991118430775
 40
3.76991118430775
 40
4.084070449666746
 40
4.084070449666746
 40
4.398229715025742
 40
4.398229715025742
 40
4.686622143810505
 40
4.686622143810505
 40
4.712388980384737
 40
4.712388980384737
 40
4.712388980384737
 40
4.712388980384737
 10
9.386346018703036
 20
2.464378574491392
 30
0.0
 10
9.380038861881088
 20
2.453454258424475
 30
0.0
 10
9.375131423844454
 20
2.44171990281504
 30
0.0
 10
9.368533523287647
 20
2.417337965996714
 30
0.0
 10
9.366842676859898
 20
2.404684904688171
 30
0.0
 10
9.367143097016784
 20
2.379270128952668
 30
0.0
 10
9.369142170870221
 20
2.366498023659965
 30
0.0
 10
9.377264541751056
 20
2.341990449027143
 30
0.0
 10
9.383414456055168
 20
2.330255532115647
 30
0.0
 10
9.399096142658384
 20
2.310399234994909
 30
0.0
 10
9.408313034839936
 20
2.302090656407292
 30
0.0
 10
9.419647431262625
 20
2.295060861221368
 30
0.0
 10
9.420586233579069
 20
2.294498907226308
 30
0.0
 10
9.421533668632379
 20
2.293951905343239
 30
0.0
  0
SPLINE
  5
317
330
6C
100
AcDbEntity
  8
Visible (ANSI)
100
AcDbSpline
210
0.0
220
0.0
230
1.0
 70
     8
 71
     3
 72
    18
 73
    14
 74
     0
 42
0.0000000001
 43
0.0000000001
 40
1.570796326794789
 40
1.570796326794789
 40
1.570796326794789
 40
1.570796326794789
 40
1.847924456005807
 40
1.847924456005807
 40
2.13393742836088
 40
2.13393742836088
 40
2.442600953300268
 40
2.442600953300268
 40
2.756760218659279
 40
2.756760218659279
 40
3.070919484018289
 40
3.070919484018289
 40
3.141592653589841
 40
3.141592653589841
 40
3.141592653589841
 40
3.141592653589841
 10
8.078322541841847
 20
4.15198696570478
 30
0.0
 10
8.068132664511869
 20
4.157870094124254
 30
0.0
 10
8.056938866442841
 20
4.161984568856475
 30
0.0
 10
8.033657996555357
 20
4.166422645151802
 30
0.0
 10
8.021575935645724
 20
4.166635902849457
 30
0.0
 10
7.997254294949081
 20
4.163342291896983
 30
0.0
 10
7.985075227744984
 20
4.159560887689504
 30
0.0
 10
7.962282739772233
 20
4.148671143630669
 30
0.0
 10
7.951687240024437
 20
4.14150946409052
 30
0.0
 10
7.932813486409377
 20
4.124693097473282
 30
0.0
 10
7.924529249032239
 20
4.115035506009313
 30
0.0
 10
7.916043507881516
 20
4.102121155919762
 30
0.0
 10
7.914553747928358
 20
4.09970456057708
 30
0.0
 10
7.9131348919125
 20
4.097247029868991
 30
0.0
  0
LINE
  5
318
330
6C
100
AcDbEntity
  8
Visible (ANSI)
100
AcDbLine
 10
7.913134891912495
 20
4.097247029868994
 30
0.0
 11
7.574384891912509
 21
3.510514818805032
 31
0.0
  0
SPLINE
  5
319
330
6C
100
AcDbEntity
  8
Visible (ANSI)
100
AcDbSpline
210
0.0
220
0.0
230
1.0
 70
     8
 71
     3
 72
    18
 73
    14
 74
     0
 42
0.0000000001
 43
0.0000000001
 40
3.141592653589813
 40
3.141592653589813
 40
3.141592653589813
 40
3.141592653589813
 40
3.455751918948782
 40
3.455751918948782
 40
3.76991118430775
 40
3.76991118430775
 40
4.084070449666719
 40
4.084070449666719
 40
4.398229715025688
 40
4.398229715025688
 40
4.686622143810454
 40
4.686622143810454
 40
4.712388980384657
 40
4.712388980384657
 40
4.712388980384657
 40
4.712388980384657
 10
7.574384891912516
 20
3.51051481880503
 30
0.0
 10
7.56807773509057
 20
3.499590502738113
 30
0.0
 10
7.563170297053935
 20
3.487856147128678
 30
0.0
 10
7.556572396497129
 20
3.463474210310355
 30
0.0
 10
7.554881550069382
 20
3.450821149001813
 30
0.0
 10
7.555181970226264
 20
3.425406373266312
 30
0.0
 10
7.557181044079703
 20
3.41263426797361
 30
0.0
 10
7.565303414960537
 20
3.388126693340791
 30
0.0
 10
7.571453329264648
 20
3.376391776429295
 30
0.0
 10
7.587135015867862
 20
3.356535479308556
 30
0.0
 10
7.596351908049413
 20
3.348226900720939
 30
0.0
 10
7.607686304472101
 20
3.341197105535016
 30
0.0
 10
7.608625106788544
 20
3.340635151539955
 30
0.0
 10
7.609572541841854
 20
3.340088149656887
 30
0.0
  0
SPLINE
  5
31A
330
6C
100
AcDbEntity
  8
Visible (ANSI)
100
AcDbSpline
210
0.0
220
0.0
230
1.0
 70
     8
 71
     3
 72
    16
 73
    12
 74
     0
 42
0.0000000001
 43
0.0000000001
 40
4.712388980384689
 40
4.712388980384689
 40
4.712388980384689
 40
4.712388980384689
 40
4.869468613064179
 40
4.869468613064179
 40
5.026548245743668
 40
5.026548245743668
 40
5.183627878423158
 40
5.183627878423158
 40
5.340707511102648
 40
5.340707511102648
 40
5.497787143782137
 40
5.497787143782137
 40
5.497787143782137
 40
5.497787143782137
 10
10.07699413580279
 20
3.149803245922456
 30
0.0
 10
10.08192404493743
 20
3.146956961556493
 30
0.0
 10
10.08709433312897
 20
3.144415164562307
 30
0.0
 10
10.09798756103432
 20
3.140118181897253
 30
0.0
 10
10.10371396197928
 20
3.138361582217677
 30
0.0
 10
10.11575328729207
 20
3.13592764815096
 30
0.0
 10
10.12207306564128
 20
3.135252713033309
 30
0.0
 10
10.13513811981903
 20
3.135396416108494
 30
0.0
 10
10.14188702588679
 20
3.136226403610966
 30
0.0
 10
10.15525867194377
 20
3.139724276176947
 30
0.0
 10
10.16186803012829
 20
3.142403088979375
 30
0.0
 10
10.16799413580279
 20
3.145939997739632
 30
0.0
  0
SPLINE
  5
31B
330
6C
100
AcDbEntity
  8
Visible (ANSI)
100
AcDbSpline
210
0.0
220
0.0
230
1.0
 70
     8
 71
     3
 72
    16
 73
    12
 74
     0
 42
0.0000000001
 43
0.0000000001
 40
2.356194490192344
 40
2.356194490192344
 40
2.356194490192344
 40
2.356194490192344
 40
2.513274122871836
 40
2.513274122871836
 40
2.670353755551328
 40
2.670353755551328
 40
2.82743338823082
 40
2.82743338823082
 40
2.984513020910312
 40
2.984513020910312
 40
3.141592653589803
 40
3.141592653589803
 40
3.141592653589803
 40
3.141592653589803
 10
9.86828850831802
 20
4.430510916477304
 30
0.0
 10
9.862162402643521
 20
4.426974007717047
 30
0.0
 10
9.856537803612374
 20
4.422589542027753
 30
0.0
 10
9.846822734082545
 20
4.412758293134989
 30
0.0
 10
9.842729490786702
 20
4.407328562783792
 30
0.0
 10
9.836072513184113
 20
4.396085745501631
 30
0.0
 10
9.833497134967302
 20
4.390275189346104
 30
0.0
 10
9.82958532104382
 20
4.378631860747445
 30
0.0
 10
9.828243380518133
 20
4.372794352217066
 30
0.0
 10
9.826518062713017
 20
4.361212048789294
 30
0.0
 10
9.826134179385471
 20
4.355463549373436
 30
0.0
 10
9.826134179385471
 20
4.349770980641512
 30
0.0
  0
LINE
  5
31C
330
6C
100
AcDbEntity
  8
Visible (ANSI)
100
AcDbLine
 10
9.826134179385462
 20
4.349770980641516
 30
0.0
 11
9.826134179385473
 21
3.388346256599115
 31
0.0
  0
SPLINE
  5
31D
330
6C
100
AcDbEntity
  8
Visible (ANSI)
100
AcDbSpline
210
0.0
220
0.0
230
1.0
 70
     8
 71
     3
 72
    16
 73
    12
 74
     0
 42
0.0000000001
 43
0.0000000001
 40
3.141592653589803
 40
3.141592653589803
 40
3.141592653589803
 40
3.141592653589803
 40
3.45575191894878
 40
3.45575191894878
 40
3.769911184307757
 40
3.769911184307757
 40
4.084070449666734
 40
4.084070449666734
 40
4.398229715025712
 40
4.398229715025712
 40
4.712388980384689
 40
4.712388980384689
 40
4.712388980384689
 40
4.712388980384689
 10
9.826134179385471
 20
3.388346256599116
 30
0.0
 10
9.826134179385471
 20
3.376961119135266
 30
0.0
 10
9.827650950816751
 20
3.365789199002952
 30
0.0
 10
9.832935535995419
 20
3.343957768525394
 30
0.0
 10
9.836719620731804
 20
3.333296986980096
 30
0.0
 10
9.846188098117098
 20
3.312782023212845
 30
0.0
 10
9.851874921953822
 20
3.302932155393946
 30
0.0
 10
9.864907163041332
 20
3.284474731559497
 30
0.0
 10
9.872247628315562
 20
3.275867227275067
 30
0.0
 10
9.888511909120747
 20
3.260374927023098
 30
0.0
 10
9.897428690048743
 20
3.253475404365718
 30
0.0
 10
9.907288508318016
 20
3.247782835633794
 30
0.0
  0
LINE
  5
31E
330
6C
100
AcDbEntity
  8
Visible (ANSI)
100
AcDbLine
 10
9.907288508318014
 20
3.247782835633787
 30
0.0
 11
10.07699413580279
 21
3.149803245922441
 31
0.0
  0
LINE
  5
31F
330
6C
100
AcDbEntity
  8
Visible Narrow (ANSI)
100
AcDbLine
 10
7.874723891588687
 20
4.386436730098429
 30
0.0
 11
8.52791378070977
 21
4.009317371782431
 31
0.0
  0
LINE
  5
320
330
6C
100
AcDbEntity
  8
Visible Narrow (ANSI)
100
AcDbLine
 10
9.696407736620534
 20
3.334687071790901
 30
0.0
 11
10.3495976257416
 21
2.957567713474909
 31
0.0
  0
ELLIPSE
  5
321
330
6C
100
AcDbEntity
  8
Visible (ANSI)
100
AcDbEllipse
 10
7.837954338966987
 20
4.365207818994307
 30
0.0
 11
-0.0259999999999997
 21
-0.0450333209967909
 31
0.0
210
0.0
220
0.0
230
0.9999999999999998
 40
0.5773502691896385
 41
1.570796326794974
 42
2.356194490192537
  0
ELLIPSE
  5
322
330
6C
100
AcDbEntity
  8
Visible (ANSI)
100
AcDbEllipse
 10
8.491144228088069
 20
3.98808846067831
 30
0.0
 11
-0.0520000000000045
 21
-0.090066641993579
 31
0.0
210
0.0
220
0.0
230
1.0
 40
0.5773502691896285
 41
1.570796326794992
 42
2.356194490192574
  0
LINE
  5
323
330
6C
100
AcDbEntity
  8
Visible Narrow (ANSI)
100
AcDbLine
 10
8.52791378070977
 20
4.009317371782431
 30
0.0
 11
8.564683333331469
 21
4.030546282886552
 31
0.0
  0
ELLIPSE
  5
324
330
6C
100
AcDbEntity
  8
Visible (ANSI)
100
AcDbEllipse
 10
8.491144228088069
 20
3.98808846067831
 30
0.0
 11
0.0259999999999997
 21
0.045033320996791
 31
0.0
210
0.0
220
0.0
230
0.9999999999999998
 40
0.5773502691896315
 41
4.71238898038468
 42
5.497787143782141
  0
LINE
  5
325
330
6C
100
AcDbEntity
  8
Visible Narrow (ANSI)
100
AcDbLine
 10
8.543144228088069
 20
3.958066246680449
 30
0.0
 11
8.517144228088067
 21
3.973077353679379
 31
0.0
  0
LINE
  5
326
330
6C
100
AcDbEntity
  8
Visible Narrow (ANSI)
100
AcDbLine
 10
8.517144228088067
 20
3.973077353679379
 30
0.0
 11
7.863954338966986
 21
4.350196711995378
 31
0.0
  0
ELLIPSE
  5
327
330
6C
100
AcDbEntity
  8
Visible (ANSI)
100
AcDbEllipse
 10
10.3128280731199
 20
2.936338802370789
 30
0.0
 11
0.0260000000000072
 21
0.0450333209967866
 31
0.0
210
0.0
220
0.0
230
1.0
 40
0.5773502691894777
 41
4.712388980384877
 42
5.497787143782146
  0
ELLIPSE
  5
328
330
6C
100
AcDbEntity
  8
Visible (ANSI)
100
AcDbEllipse
 10
9.65963818399884
 20
3.313458160686777
 30
0.0
 11
-0.0259999999999972
 21
-0.0450333209967925
 31
0.0
210
0.0
220
0.0
230
1.0
 40
0.5773502691896803
 41
1.570796326794942
 42
2.356194490192525
  0
LINE
  5
329
330
6C
100
AcDbEntity
  8
Visible Narrow (ANSI)
100
AcDbLine
 10
10.3388280731199
 20
2.921327695371859
 30
0.0
 11
9.685638183998838
 21
3.298447053687846
 31
0.0
  0
ELLIPSE
  5
32A
330
6C
100
AcDbEntity
  8
Visible (ANSI)
100
AcDbEllipse
 10
10.3128280731199
 20
2.936338802370788
 30
0.0
 11
-0.0520000000000256
 21
-0.0900666419935669
 31
0.0
210
0.0
220
0.0
230
1.0
 40
0.5773502691894686
 41
1.570796326795127
 42
2.356194490192711
  0
LINE
  5
32B
330
6C
100
AcDbEntity
  8
Visible Narrow (ANSI)
100
AcDbLine
 10
10.3495976257416
 20
2.957567713474909
 30
0.0
 11
10.3863671783633
 21
2.97879662457903
 31
0.0
  0
LINE
  5
32C
330
6C
100
AcDbEntity
  8
Visible Narrow (ANSI)
100
AcDbLine
 10
10.3648280731199
 20
2.906316588372928
 30
0.0
 11
10.3388280731199
 21
2.921327695371859
 31
0.0
  0
LINE
  5
32D
330
6C
100
AcDbEntity
  8
Visible (ANSI)
100
AcDbLine
 10
8.628262572778613
 20
1.488993472222443
 30
0.0
 11
8.611735036028433
 21
1.498535650014201
 31
0.0
  0
SPLINE
  5
32E
330
6C
100
AcDbEntity
  8
Visible (ANSI)
100
AcDbSpline
210
0.0
220
0.0
230
1.0
 70
     8
 71
     3
 72
    12
 73
     8
 74
     0
 42
0.0000000001
 43
0.0000000001
 40
0.1421839326158534
 40
0.1421839326158534
 40
0.1421839326158534
 40
0.1421839326158534
 40
0.1658611411721049
 40
0.1658611411721049
 40
0.1979777325167497
 40
0.1979777325167497
 40
0.2418295498390186
 40
0.2418295498390186
 40
0.2418295498390186
 40
0.2418295498390186
 10
8.929714756817915
 20
2.011130594382988
 30
0.0
 10
8.930034723970042
 20
2.011685567608552
 30
0.0
 10
8.930072438253457
 20
2.012798197498184
 30
0.0
 10
8.929553888112351
 20
2.016732462060444
 30
0.0
 10
8.928792117694204
 20
2.019992035990179
 30
0.0
 10
8.9264105591163
 20
2.029973096569402
 30
0.0
 10
8.925045746205901
 20
2.036240540137032
 30
0.0
 10
8.924336583288823
 20
2.039977412393841
 30
0.0
  0
LINE
  5
32F
330
6C
100
AcDbEntity
  8
Visible Narrow (ANSI)
100
AcDbLine
 10
8.611735036028434
 20
1.498535650014202
 30
0.0
 11
8.924336583288823
 21
2.039977412393841
 31
0.0
  0
LINE
  5
330
330
6C
100
AcDbEntity
  8
Visible (ANSI)
100
AcDbLine
 10
8.929719954409355
 20
2.01113297352357
 30
0.0
 11
8.628262572778613
 21
1.488993472222443
 31
0.0
  0
SPLINE
  5
331
330
6C
100
AcDbEntity
  8
Visible (ANSI)
100
AcDbSpline
210
0.0
220
0.0
230
1.0
 70
     8
 71
     3
 72
    20
 73
    16
 74
     0
 42
0.0000000001
 43
0.0000000001
 40
0.0
 40
0.0
 40
0.0
 40
0.0
 40
0.021310576099318
 40
0.021310576099318
 40
0.0505839085943616
 40
0.0505839085943616
 40
0.0743931382979775
 40
0.0743931382979775
 40
0.0962051165753044
 40
0.0962051165753044
 40
0.1188954899765515
 40
0.1188954899765515
 40
0.1412884715855117
 40
0.1412884715855117
 40
0.1732751308050367
 40
0.1732751308050367
 40
0.1732751308050367
 40
0.1732751308050367
 10
7.855704364759316
 20
2.657499632386108
 30
0.0
 10
7.853408197304117
 20
2.656218963028335
 30
0.0
 10
7.850069529158321
 20
2.654527867360492
 30
0.0
 10
7.840291426670428
 20
2.651335495186508
 30
0.0
 10
7.8345660596015
 20
2.650588360705867
 30
0.0
 10
7.824313878670996
 20
2.651194307495402
 30
0.0
 10
7.81975800922391
 20
2.652182962999973
 30
0.0
 10
7.811464090108535
 20
2.655490064387579
 30
0.0
 10
7.807844689000282
 20
2.657628708138072
 30
0.0
 10
7.801437269606049
 20
2.662965795611656
 30
0.0
 10
7.798816040194005
 20
2.666096740688589
 30
0.0
 10
7.794906435995786
 20
2.672898136769837
 30
0.0
 10
7.793649079444921
 20
2.676475145196861
 30
0.0
 10
7.791987920650997
 20
2.685469262941414
 30
0.0
 10
7.792329085560619
 20
2.690222491673126
 30
0.0
 10
7.792697901812659
 20
2.693329309769496
 30
0.0
  0
LINE
  5
332
330
6C
100
AcDbEntity
  8
Visible (ANSI)
100
AcDbLine
 10
7.48009635455227
 20
2.151887547389856
 30
0.0
 11
7.542865907173969
 21
2.115647529286806
 31
0.0
  0
ENDSEC
  0
SECTION
  2
OBJECTS
  0
DICTIONARY
  5
C
330
0
100
AcDbDictionary
281
     1
  3
ACAD_CIP_PREVIOUS_PRODUCT_INFO
350
333
  3
ACAD_COLOR
350
63
  3
ACAD_GROUP
350
D
  3
ACAD_LAYOUT
350
62
  3
ACAD_MATERIAL
350
10
  3
ACAD_MLEADERSTYLE
350
66
  3
ACAD_MLINESTYLE
350
5F
  3
ACAD_PLOTSETTINGS
350
61
  3
ACAD_PLOTSTYLENAME
350
E
  3
ACAD_SCALELIST
350
42
  3
ACAD_TABLESTYLE
350
64
  3
ACAD_VISUALSTYLE
350
29
  3
ACDB_RECOMPOSE_DATA
350
38B
  3
AcDbVariableDictionary
350
76
  3
DWGPROPS
350
38C
  0
DICTIONARY
  5
33A
330
8
100
AcDbDictionary
280
     1
281
     1
  0
XRECORD
  5
333
102
{ACAD_REACTORS
330
C
102
}
330
C
100
AcDbXrecord
280
     1
300
AMECH_PP
300
2012
300
85796PDSU_2012_0F
  0
DICTIONARY
  5
63
102
{ACAD_REACTORS
330
C
102
}
330
C
100
AcDbDictionary
281
     1
  0
DICTIONARY
  5
D
102
{ACAD_REACTORS
330
C
102
}
330
C
100
AcDbDictionary
281
     1
  0
DICTIONARY
  5
62
102
{ACAD_REACTORS
330
C
102
}
330
C
100
AcDbDictionary
281
     1
  3
Layout1
350
6B
  3
Layout2
350
73
  3
Model
350
6F
  0
DICTIONARY
  5
10
102
{ACAD_REACTORS
330
C
102
}
330
C
100
AcDbDictionary
281
     1
  3
ByBlock
350
19
  3
ByLayer
350
11
  3
Global
350
21
  0
DICTIONARY
  5
66
102
{ACAD_REACTORS
330
C
102
}
330
C
100
AcDbDictionary
281
     1
  3
Standard
350
67
  0
DICTIONARY
  5
5F
102
{ACAD_REACTORS
330
C
102
}
330
C
100
AcDbDictionary
281
     1
  3
Standard
350
60
  0
DICTIONARY
  5
61
102
{ACAD_REACTORS
330
C
102
}
330
C
100
AcDbDictionary
281
     1
  0
ACDBDICTIONARYWDFLT
  5
E
102
{ACAD_REACTORS
330
C
102
}
330
C
100
AcDbDictionary
281
     1
  3
Normal
350
F
100
AcDbDictionaryWithDefault
340
F
  0
DICTIONARY
  5
42
102
{ACAD_REACTORS
330
C
102
}
330
C
100
AcDbDictionary
281
     1
  3
A0
350
43
  3
A1
350
44
  3
A2
350
45
  3
A3
350
46
  3
A4
350
47
  3
A5
350
48
  3
A6
350
49
  3
A7
350
4A
  3
A8
350
4B
  3
A9
350
4C
  3
B0
350
4D
  3
B1
350
4E
  3
B2
350
4F
  3
B3
350
50
  3
B4
350
51
  3
B5
350
52
  3
B6
350
53
  0
DICTIONARY
  5
64
102
{ACAD_REACTORS
330
C
102
}
330
C
100
AcDbDictionary
281
     1
  3
Standard
350
65
  0
DICTIONARY
  5
29
102
{ACAD_REACTORS
330
C
102
}
330
C
100
AcDbDictionary
281
     1
  3
2dWireframe
350
2F
  3
Basic
350
2E
  3
Brighten
350
35
  3
ColorChange
350
39
  3
Conceptual
350
32
  3
Dim
350
34
  3
EdgeColorOff
350
41
  3
Facepattern
350
38
  3
Flat
350
2A
  3
FlatWithEdges
350
2B
  3
Gouraud
350
2C
  3
GouraudWithEdges
350
2D
  3
Hidden
350
31
  3
JitterOff
350
3F
  3
Linepattern
350
37
  3
OverhangOff
350
40
  3
Realistic
350
33
  3
Shaded
350
3E
  3
Shaded with edges
350
3D
  3
Shades of Gray
350
3A
  3
Sketchy
350
3B
  3
Thicken
350
36
  3
Wireframe
350
30
  3
X-Ray
350
3C
  0
XRECORD
  5
38B
102
{ACAD_REACTORS
330
C
102
}
330
C
100
AcDbXrecord
280
     1
 90
        1
330
65
  0
DICTIONARY
  5
76
102
{ACAD_REACTORS
330
C
102
}
330
C
100
AcDbDictionary
281
     1
  3
CANNOSCALE
350
79
  3
CMLEADERSTYLE
350
78
  3
CTABLESTYLE
350
77
  3
DIMASSOC
350
37E
  3
HIDETEXT
350
37D
  3
INDEXCTL
350
37C
  3
LAYEREVAL
350
379
  3
LAYERNOTIFY
350
37A
  3
LIGHTINGUNITS
350
378
  3
MSLTSCALE
350
377
  3
SORTENTS
350
37B
  3
XCLIPFRAME
350
386
  0
XRECORD
  5
38C
102
{ACAD_REACTORS
330
C
102
}
330
C
100
AcDbXrecord
280
     1
  1
DWGPROPS COOKIE
  2

  3

  4
JIM WALLS
  6

  7

  8
jwalls
  9

300
Manager=
301
Company=
302
Category=
303
Part Number=
304
Description=
305
Project=
306
Designer=JIM WALLS
307
Engineer=
308
Authority=
309
Cost Center=
 40
0.0015612962962963
 41
2456038.564168403
 42
2456038.590807106
  1

 90
       16
300
Vendor=
300
User Status=
300
Design Status=WorkInProgress
300
Checked by=
300
Engr Approved by=
300
Mfg Approved by=
  0
LAYOUT
  5
6B
102
{ACAD_XDICTIONARY
360
3C1
102
}
102
{ACAD_REACTORS
330
62
102
}
330
62
100
AcDbPlotSettings
  1

  2

  4

  6

 40
0.0
 41
0.0
 42
0.0
 43
0.0
 44
0.0
 45
0.0
 46
0.0
 47
0.0
 48
0.0
 49
0.0
140
0.0
141
0.0
142
1.0
143
1.0
 70
   688
 72
     0
 73
     0
 74
     5
  7

 75
    16
147
1.0
148
0.0
149
0.0
100
AcDbLayout
  1
Layout1
 70
     1
 71
     1
 10
0.0
 20
0.0
 11
17.0
 21
11.0
 12
0.0
 22
0.0
 32
0.0
 14
0.0
 24
0.0
 34
0.0
 15
17.0
 25
11.0
 35
0.0
146
0.0
 13
0.0
 23
0.0
 33
0.0
 16
1.0
 26
0.0
 36
0.0
 17
0.0
 27
1.0
 37
0.0
 76
     0
330
68
  0
LAYOUT
  5
73
102
{ACAD_XDICTIONARY
360
3C5
102
}
102
{ACAD_REACTORS
330
62
102
}
330
62
100
AcDbPlotSettings
  1

  2

  4

  6

 40
0.0
 41
0.0
 42
0.0
 43
0.0
 44
0.0
 45
0.0
 46
0.0
 47
0.0
 48
0.0
 49
0.0
140
0.0
141
0.0
142
1.0
143
1.0
 70
   688
 72
     0
 73
     0
 74
     5
  7

 75
    16
147
1.0
148
0.0
149
0.0
100
AcDbLayout
  1
Layout2
 70
     1
 71
     2
 10
0.0
 20
0.0
 11
12.0
 21
9.0
 12
0.0
 22
0.0
 32
0.0
 14
0.0
 24
0.0
 34
0.0
 15
0.0
 25
0.0
 35
0.0
146
0.0
 13
0.0
 23
0.0
 33
0.0
 16
1.0
 26
0.0
 36
0.0
 17
0.0
 27
1.0
 37
0.0
 76
     0
330
70
  0
LAYOUT
  5
6F
102
{ACAD_XDICTIONARY
360
3C3
102
}
102
{ACAD_REACTORS
330
62
102
}
330
62
100
AcDbPlotSettings
  1

  2

  4

  6

 40
0.0
 41
0.0
 42
0.0
 43
0.0
 44
0.0
 45
0.0
 46
0.0
 47
0.0
 48
0.0
 49
0.0
140
0.0
141
0.0
142
1.0
143
1.0
 70
  1712
 72
     0
 73
     0
 74
     0
  7

 75
     0
147
1.0
148
0.0
149
0.0
100
AcDbLayout
  1
Model
 70
     1
 71
     0
 10
0.0
 20
0.0
 11
12.0
 21
9.0
 12
0.0
 22
0.0
 32
0.0
 14
0.0
 24
0.0
 34
0.0
 15
0.0
 25
0.0
 35
0.0
146
0.0
 13
0.0
 23
0.0
 33
0.0
 16
1.0
 26
0.0
 36
0.0
 17
0.0
 27
1.0
 37
0.0
 76
     0
330
6C
331
57
  0
MATERIAL
  5
19
102
{ACAD_XDICTIONARY
360
1A
102
}
102
{ACAD_REACTORS
330
10
102
}
330
10
100
AcDbMaterial
  1
ByBlock
 72
     0
 43
0.0208333333333333
 43
0.0
 43
0.0
 43
0.0
 43
0.0
 43
0.0208333333333333
 43
0.0
 43
0.0
 43
0.0
 43
0.0
 43
1.0
 43
0.0
 43
0.0
 43
0.0
 43
0.0
 43
1.0
 77
     0
 47
0.0208333333333333
 47
0.0
 47
0.0
 47
0.0
 47
0.0
 47
0.0208333333333333
 47
0.0
 47
0.0
 47
0.0
 47
0.0
 47
1.0
 47
0.0
 47
0.0
 47
0.0
 47
0.0
 47
1.0
171
     0
 49
0.0208333333333333
 49
0.0
 49
0.0
 49
0.0
 49
0.0
 49
0.0208333333333333
 49
0.0
 49
0.0
 49
0.0
 49
0.0
 49
1.0
 49
0.0
 49
0.0
 49
0.0
 49
0.0
 49
1.0
175
     0
142
0.0208333333333333
142
0.0
142
0.0
142
0.0
142
0.0
142
0.0208333333333333
142
0.0
142
0.0
142
0.0
142
0.0
142
1.0
142
0.0
142
0.0
142
0.0
142
0.0
142
1.0
179
     0
144
0.0208333333333333
144
0.0
144
0.0
144
0.0
144
0.0
144
0.0208333333333333
144
0.0
144
0.0
144
0.0
144
0.0
144
1.0
144
0.0
144
0.0
144
0.0
144
0.0
144
1.0
147
0.0208333333333333
147
0.0
147
0.0
147
0.0
147
0.0
147
0.0208333333333333
147
0.0
147
0.0
147
0.0
147
0.0
147
1.0
147
0.0
147
0.0
147
0.0
147
0.0
147
1.0
  0
MATERIAL
  5
11
102
{ACAD_XDICTIONARY
360
12
102
}
102
{ACAD_REACTORS
330
10
102
}
330
10
100
AcDbMaterial
  1
ByLayer
 72
     0
 43
0.0208333333333333
 43
0.0
 43
0.0
 43
0.0
 43
0.0
 43
0.0208333333333333
 43
0.0
 43
0.0
 43
0.0
 43
0.0
 43
1.0
 43
0.0
 43
0.0
 43
0.0
 43
0.0
 43
1.0
 77
     0
 47
0.0208333333333333
 47
0.0
 47
0.0
 47
0.0
 47
0.0
 47
0.0208333333333333
 47
0.0
 47
0.0
 47
0.0
 47
0.0
 47
1.0
 47
0.0
 47
0.0
 47
0.0
 47
0.0
 47
1.0
171
     0
 49
0.0208333333333333
 49
0.0
 49
0.0
 49
0.0
 49
0.0
 49
0.0208333333333333
 49
0.0
 49
0.0
 49
0.0
 49
0.0
 49
1.0
 49
0.0
 49
0.0
 49
0.0
 49
0.0
 49
1.0
175
     0
142
0.0208333333333333
142
0.0
142
0.0
142
0.0
142
0.0
142
0.0208333333333333
142
0.0
142
0.0
142
0.0
142
0.0
142
1.0
142
0.0
142
0.0
142
0.0
142
0.0
142
1.0
179
     0
144
0.0208333333333333
144
0.0
144
0.0
144
0.0
144
0.0
144
0.0208333333333333
144
0.0
144
0.0
144
0.0
144
0.0
144
1.0
144
0.0
144
0.0
144
0.0
144
0.0
144
1.0
147
0.0208333333333333
147
0.0
147
0.0
147
0.0
147
0.0
147
0.0208333333333333
147
0.0
147
0.0
147
0.0
147
0.0
147
1.0
147
0.0
147
0.0
147
0.0
147
0.0
147
1.0
  0
MATERIAL
  5
21
102
{ACAD_XDICTIONARY
360
22
102
}
102
{ACAD_REACTORS
330
10
102
}
330
10
100
AcDbMaterial
  1
Global
 72
     0
 43
0.0208333333333333
 43
0.0
 43
0.0
 43
0.0
 43
0.0
 43
0.0208333333333333
 43
0.0
 43
0.0
 43
0.0
 43
0.0
 43
1.0
 43
0.0
 43
0.0
 43
0.0
 43
0.0
 43
1.0
 77
     0
 47
0.0208333333333333
 47
0.0
 47
0.0
 47
0.0
 47
0.0
 47
0.0208333333333333
 47
0.0
 47
0.0
 47
0.0
 47
0.0
 47
1.0
 47
0.0
 47
0.0
 47
0.0
 47
0.0
 47
1.0
171
     0
 49
0.0208333333333333
 49
0.0
 49
0.0
 49
0.0
 49
0.0
 49
0.0208333333333333
 49
0.0
 49
0.0
 49
0.0
 49
0.0
 49
1.0
 49
0.0
 49
0.0
 49
0.0
 49
0.0
 49
1.0
175
     0
142
0.0208333333333333
142
0.0
142
0.0
142
0.0
142
0.0
142
0.0208333333333333
142
0.0
142
0.0
142
0.0
142
0.0
142
1.0
142
0.0
142
0.0
142
0.0
142
0.0
142
1.0
179
     0
144
0.0208333333333333
144
0.0
144
0.0
144
0.0
144
0.0
144
0.0208333333333333
144
0.0
144
0.0
144
0.0
144
0.0
144
1.0
144
0.0
144
0.0
144
0.0
144
0.0
144
1.0
147
0.0208333333333333
147
0.0
147
0.0
147
0.0
147
0.0
147
0.0208333333333333
147
0.0
147
0.0
147
0.0
147
0.0
147
1.0
147
0.0
147
0.0
147
0.0
147
0.0
147
1.0
  0
MLEADERSTYLE
  5
67
102
{ACAD_XDICTIONARY
360
389
102
}
102
{ACAD_REACTORS
330
66
102
}
330
66
100
AcDbMLeaderStyle
170
     2
171
     1
172
     0
 90
        2
 40
0.0
 41
0.0
173
     1
 91
-1056964608
340
5B
 92
       -2
290
     1
 42
0.09
291
     1
 43
0.36
  3
Standard
 44
0.18
300

342
55
174
     1
178
     6
175
     1
176
     0
 93
-1056964608
 45
0.18
292
     0
297
     0
 46
0.18
 94
-1056964608
 47
1.0
 49
1.0
140
1.0
293
     1
141
0.0
294
     1
177
     0
142
1.0
295
     0
296
     0
143
0.125
1001
ACAD_MLEADERVER
1070
     2
  0
MLINESTYLE
  5
60
102
{ACAD_REACTORS
330
5F
102
}
330
5F
100
AcDbMlineStyle
  2
STANDARD
 70
     0
  3

 62
   256
 51
90.0
 52
90.0
 71
     2
 49
0.5
 62
   256
  6
BYLAYER
 49
-0.5
 62
   256
  6
BYLAYER
  0
ACDBPLACEHOLDER
  5
F
102
{ACAD_REACTORS
330
E
102
}
330
E
  0
SCALE
  5
43
102
{ACAD_REACTORS
330
42
102
}
330
42
100
AcDbScale
 70
     0
300
1:1
140
1.0
141
1.0
290
     1
  0
SCALE
  5
44
102
{ACAD_REACTORS
330
42
102
}
330
42
100
AcDbScale
 70
     0
300
1/128" = 1'-0"
140
0.0078125
141
12.0
290
     0
  0
SCALE
  5
45
102
{ACAD_REACTORS
330
42
102
}
330
42
100
AcDbScale
 70
     0
300
1/64" = 1'-0"
140
0.015625
141
12.0
290
     0
  0
SCALE
  5
46
102
{ACAD_REACTORS
330
42
102
}
330
42
100
AcDbScale
 70
     0
300
1/32" = 1'-0"
140
0.03125
141
12.0
290
     0
  0
SCALE
  5
47
102
{ACAD_REACTORS
330
42
102
}
330
42
100
AcDbScale
 70
     0
300
1/16" = 1'-0"
140
0.0625
141
12.0
290
     0
  0
SCALE
  5
48
102
{ACAD_REACTORS
330
42
102
}
330
42
100
AcDbScale
 70
     0
300
3/32" = 1'-0"
140
0.09375
141
12.0
290
     0
  0
SCALE
  5
49
102
{ACAD_REACTORS
330
42
102
}
330
42
100
AcDbScale
 70
     0
300
1/8" = 1'-0"
140
0.125
141
12.0
290
     0
  0
SCALE
  5
4A
102
{ACAD_REACTORS
330
42
102
}
330
42
100
AcDbScale
 70
     0
300
3/16" = 1'-0"
140
0.1875
141
12.0
290
     0
  0
SCALE
  5
4B
102
{ACAD_REACTORS
330
42
102
}
330
42
100
AcDbScale
 70
     0
300
1/4" = 1'-0"
140
0.25
141
12.0
290
     0
  0
SCALE
  5
4C
102
{ACAD_REACTORS
330
42
102
}
330
42
100
AcDbScale
 70
     0
300
3/8" = 1'-0"
140
0.375
141
12.0
290
     0
  0
SCALE
  5
4D
102
{ACAD_REACTORS
330
42
102
}
330
42
100
AcDbScale
 70
     0
300
1/2" = 1'-0"
140
0.5
141
12.0
290
     0
  0
SCALE
  5
4E
102
{ACAD_REACTORS
330
42
102
}
330
42
100
AcDbScale
 70
     0
300
3/4" = 1'-0"
140
0.75
141
12.0
290
     0
  0
SCALE
  5
4F
102
{ACAD_REACTORS
330
42
102
}
330
42
100
AcDbScale
 70
     0
300
1" = 1'-0"
140
1.0
141
12.0
290
     0
  0
SCALE
  5
50
102
{ACAD_REACTORS
330
42
102
}
330
42
100
AcDbScale
 70
     0
300
1-1/2" = 1'-0"
140
1.5
141
12.0
290
     0
  0
SCALE
  5
51
102
{ACAD_REACTORS
330
42
102
}
330
42
100
AcDbScale
 70
     0
300
3" = 1'-0"
140
3.0
141
12.0
290
     0
  0
SCALE
  5
52
102
{ACAD_REACTORS
330
42
102
}
330
42
100
AcDbScale
 70
     0
300
6" = 1'-0"
140
6.0
141
12.0
290
     0
  0
SCALE
  5
53
102
{ACAD_REACTORS
330
42
102
}
330
42
100
AcDbScale
 70
     0
300
1'-0" = 1'-0"
140
12.0
141
12.0
290
     0
  0
TABLESTYLE
  5
65
102
{ACAD_XDICTIONARY
360
334
102
}
102
{ACAD_REACTORS
330
64
102
}
330
64
100
AcDbTableStyle
  3
Standard
 70
     0
 71
     0
 40
0.06
 41
0.06
280
     0
281
     0
  7
Standard
140
0.18
170
     2
 62
     0
 63
     7
283
     0
274
    -2
284
     1
 64
     0
275
    -2
285
     1
 65
     0
276
    -2
286
     1
 66
     0
277
    -2
287
     1
 67
     0
278
    -2
288
     1
 68
     0
279
    -2
289
     1
 69
     0
  7
Standard
140
0.25
170
     5
 62
     0
 63
     7
283
     0
274
    -2
284
     1
 64
     0
275
    -2
285
     1
 65
     0
276
    -2
286
     1
 66
     0
277
    -2
287
     1
 67
     0
278
    -2
288
     1
 68
     0
279
    -2
289
     1
 69
     0
  7
Standard
140
0.18
170
     5
 62
     0
 63
     7
283
     0
274
    -2
284
     1
 64
     0
275
    -2
285
     1
 65
     0
276
    -2
286
     1
 66
     0
277
    -2
287
     1
 67
     0
278
    -2
288
     1
 68
     0
279
    -2
289
     1
 69
     0
  0
VISUALSTYLE
  5
2F
102
{ACAD_XDICTIONARY
360
39A
102
}
102
{ACAD_REACTORS
330
29
102
}
330
29
100
AcDbVisualStyle
  2
2dWireframe
 70
     4
 71
     0
 72
     2
 73
     0
 90
        0
 40
-0.6
 41
-30.0
 62
     5
 63
     7
 74
     1
 91
        4
 64
     7
 65
   257
 75
     1
175
     1
 42
1.0
 92
        0
 66
   257
 43
1.0
 76
     1
 77
     6
 78
     2
 67
     7
 79
     5
170
     0
171
     0
290
     0
174
     0
 93
        1
 44
0.0
173
     0
291
     0
 45
0.0
1001
ACAD
1000
AcDbSavedByObjectVersion
1070
     0
  0
VISUALSTYLE
  5
2E
102
{ACAD_XDICTIONARY
360
398
102
}
102
{ACAD_REACTORS
330
29
102
}
330
29
100
AcDbVisualStyle
  2
Basic
 70
     7
 71
     1
 72
     0
 73
     1
 90
        0
 40
-0.6
 41
-30.0
 62
     5
 63
     7
 74
     0
 91
        4
 64
     7
 65
   257
 75
     1
175
     1
 42
1.0
 92
        8
 66
     7
 43
1.0
 76
     1
 77
     6
 78
     2
 67
     7
 79
     5
170
     0
171
     0
290
     0
174
     0
 93
        1
 44
0.0
173
     0
291
     1
 45
0.0
1001
ACAD
1000
AcDbSavedByObjectVersion
1070
     0
  0
VISUALSTYLE
  5
35
102
{ACAD_XDICTIONARY
360
3A6
102
}
102
{ACAD_REACTORS
330
29
102
}
330
29
100
AcDbVisualStyle
  2
Brighten
 70
    12
 71
     2
 72
     2
 73
     0
 90
        0
 40
-0.6
 41
-30.0
 62
     5
 63
     7
 74
     1
 91
        4
 64
     7
 65
   257
 75
     1
175
     1
 42
1.0
 92
        8
 66
     7
 43
1.0
 76
     1
 77
     6
 78
     2
 67
     7
 79
     5
170
     0
171
     0
290
     0
174
     0
 93
        1
 44
50.0
173
     0
291
     1
 45
0.0
1001
ACAD
1000
AcDbSavedByObjectVersion
1070
     0
  0
VISUALSTYLE
  5
39
102
{ACAD_XDICTIONARY
360
3AE
102
}
102
{ACAD_REACTORS
330
29
102
}
330
29
100
AcDbVisualStyle
  2
ColorChange
 70
    16
 71
     2
 72
     2
 73
     3
 90
        0
 40
-0.6
 41
-30.0
 62
     5
 63
     8
 74
     1
 91
        4
 64
     7
 65
   257
 75
     1
175
     1
 42
1.0
 92
        8
 66
     8
 43
1.0
 76
     1
 77
     6
 78
     2
 67
     7
 79
     5
170
     0
171
     0
290
     0
174
     0
 93
        1
 44
0.0
173
     0
291
     1
 45
0.0
1001
ACAD
1000
AcDbSavedByObjectVersion
1070
     0
  0
VISUALSTYLE
  5
32
102
{ACAD_XDICTIONARY
360
3A0
102
}
102
{ACAD_REACTORS
330
29
102
}
330
29
100
AcDbVisualStyle
  2
Conceptual
 70
     9
 71
     3
 72
     2
 73
     0
 90
        0
 40
-0.6
 41
-30.0
 62
     5
 63
     7
 74
     2
 91
        2
 64
     7
 65
   257
 75
     1
175
     1
 42
179.0
 92
        8
 66
     7
 43
1.0
 76
     1
 77
     6
 78
     2
 67
     7
 79
     3
170
     0
171
     0
290
     0
174
     0
 93
        1
 44
0.0
173
     0
291
     0
 45
0.0
1001
ACAD
1000
AcDbSavedByObjectVersion
1070
     0
  0
VISUALSTYLE
  5
34
102
{ACAD_XDICTIONARY
360
3A4
102
}
102
{ACAD_REACTORS
330
29
102
}
330
29
100
AcDbVisualStyle
  2
Dim
 70
    11
 71
     2
 72
     2
 73
     0
 90
        0
 40
-0.6
 41
-30.0
 62
     5
 63
     7
 74
     1
 91
        4
 64
     7
 65
   257
 75
     1
175
     1
 42
1.0
 92
        8
 66
     7
 43
1.0
 76
     1
 77
     6
 78
     2
 67
     7
 79
     5
170
     0
171
     0
290
     0
174
     0
 93
        1
 44
-50.0
173
     0
291
     1
 45
0.0
1001
ACAD
1000
AcDbSavedByObjectVersion
1070
     0
  0
VISUALSTYLE
  5
41
102
{ACAD_XDICTIONARY
360
3BE
102
}
102
{ACAD_REACTORS
330
29
102
}
330
29
100
AcDbVisualStyle
  2
EdgeColorOff
 70
    22
 71
     2
 72
     2
 73
     0
 90
        0
 40
-0.6
 41
-30.0
 62
     5
 63
     7
 74
     1
 91
        4
 64
     7
 65
   257
 75
     1
175
     1
 42
1.0
 92
        8
 66
     7
 43
1.0
 76
     1
 77
     6
 78
     2
 67
     7
 79
     5
170
     0
171
     0
290
     0
174
     0
 93
        1
 44
0.0
173
     0
291
     1
 45
0.0
1001
ACAD
1000
AcDbSavedByObjectVersion
1070
     0
  0
VISUALSTYLE
  5
38
102
{ACAD_XDICTIONARY
360
3AC
102
}
102
{ACAD_REACTORS
330
29
102
}
330
29
100
AcDbVisualStyle
  2
Facepattern
 70
    15
 71
     2
 72
     2
 73
     0
 90
        0
 40
-0.6
 41
-30.0
 62
     5
 63
     7
 74
     1
 91
        4
 64
     7
 65
   257
 75
     1
175
     1
 42
1.0
 92
        8
 66
     7
 43
1.0
 76
     1
 77
     6
 78
     2
 67
     7
 79
     5
170
     0
171
     0
290
     0
174
     0
 93
        1
 44
0.0
173
     0
291
     1
 45
0.0
1001
ACAD
1000
AcDbSavedByObjectVersion
1070
     0
  0
VISUALSTYLE
  5
2A
102
{ACAD_XDICTIONARY
360
390
102
}
102
{ACAD_REACTORS
330
29
102
}
330
29
100
AcDbVisualStyle
  2
Flat
 70
     0
 71
     2
 72
     1
 73
     1
 90
        2
 40
-0.6
 41
30.0
 62
     5
 63
     7
 74
     0
 91
        0
 64
     7
 65
   257
 75
     1
175
     1
 42
1.0
 92
        8
 66
     7
 43
1.0
 76
     1
 77
     6
 78
     2
 67
     7
 79
     5
170
     0
171
     0
290
     0
174
     0
 93
       13
 44
0.0
173
     0
291
     1
 45
0.0
1001
ACAD
1000
AcDbSavedByObjectVersion
1070
     0
  0
VISUALSTYLE
  5
2B
102
{ACAD_XDICTIONARY
360
392
102
}
102
{ACAD_REACTORS
330
29
102
}
330
29
100
AcDbVisualStyle
  2
FlatWithEdges
 70
     1
 71
     2
 72
     1
 73
     1
 90
        2
 40
-0.6
 41
30.0
 62
     5
 63
     7
 74
     1
 91
        0
 64
     7
 65
   257
 75
     1
175
     1
 42
1.0
 92
        0
 66
   257
 43
1.0
 76
     1
 77
     6
 78
     2
 67
     7
 79
     5
170
     0
171
     0
290
     0
174
     0
 93
       13
 44
0.0
173
     0
291
     1
 45
0.0
1001
ACAD
1000
AcDbSavedByObjectVersion
1070
     0
  0
VISUALSTYLE
  5
2C
102
{ACAD_XDICTIONARY
360
394
102
}
102
{ACAD_REACTORS
330
29
102
}
330
29
100
AcDbVisualStyle
  2
Gouraud
 70
     2
 71
     2
 72
     2
 73
     1
 90
        2
 40
-0.6
 41
30.0
 62
     5
 63
     7
 74
     0
 91
        0
 64
     7
 65
   257
 75
     1
175
     1
 42
1.0
 92
        0
 66
     7
 43
1.0
 76
     1
 77
     6
 78
     2
 67
     7
 79
     5
170
     0
171
     0
290
     0
174
     0
 93
       13
 44
0.0
173
     0
291
     1
 45
0.0
1001
ACAD
1000
AcDbSavedByObjectVersion
1070
     0
  0
VISUALSTYLE
  5
2D
102
{ACAD_XDICTIONARY
360
396
102
}
102
{ACAD_REACTORS
330
29
102
}
330
29
100
AcDbVisualStyle
  2
GouraudWithEdges
 70
     3
 71
     2
 72
     2
 73
     1
 90
        2
 40
-0.6
 41
30.0
 62
     5
 63
     7
 74
     1
 91
        0
 64
     7
 65
   257
 75
     1
175
     1
 42
1.0
 92
        0
 66
   257
 43
1.0
 76
     1
 77
     6
 78
     2
 67
     7
 79
     5
170
     0
171
     0
290
     0
174
     0
 93
       13
 44
0.0
173
     0
291
     1
 45
0.0
1001
ACAD
1000
AcDbSavedByObjectVersion
1070
     0
  0
VISUALSTYLE
  5
31
102
{ACAD_XDICTIONARY
360
39E
102
}
102
{ACAD_REACTORS
330
29
102
}
330
29
100
AcDbVisualStyle
  2
Hidden
 70
     6
 71
     1
 72
     2
 73
     2
 90
        0
 40
-0.6
 41
-30.0
 62
     5
 63
     7
 74
     2
 91
        2
 64
     7
 65
   257
 75
     2
175
     1
 42
40.0
 92
        0
 66
   257
 43
1.0
 76
     1
 77
     6
 78
     2
 67
     7
 79
     3
170
     0
171
     0
290
     0
174
     0
 93
        1
 44
0.0
173
     0
291
     0
 45
0.0
1001
ACAD
1000
AcDbSavedByObjectVersion
1070
     0
  0
VISUALSTYLE
  5
3F
102
{ACAD_XDICTIONARY
360
3BA
102
}
102
{ACAD_REACTORS
330
29
102
}
330
29
100
AcDbVisualStyle
  2
JitterOff
 70
    20
 71
     2
 72
     2
 73
     0
 90
        0
 40
-0.6
 41
-30.0
 62
     5
 63
     7
 74
     1
 91
        4
 64
     7
 65
   257
 75
     1
175
     1
 42
1.0
 92
       10
 66
     7
 43
1.0
 76
     1
 77
     6
 78
     2
 67
     7
 79
     5
170
     0
171
     0
290
     0
174
     0
 93
        1
 44
0.0
173
     0
291
     1
 45
0.0
1001
ACAD
1000
AcDbSavedByObjectVersion
1070
     0
  0
VISUALSTYLE
  5
37
102
{ACAD_XDICTIONARY
360
3AA
102
}
102
{ACAD_REACTORS
330
29
102
}
330
29
100
AcDbVisualStyle
  2
Linepattern
 70
    14
 71
     2
 72
     2
 73
     0
 90
        0
 40
-0.6
 41
-30.0
 62
     5
 63
     7
 74
     1
 91
        4
 64
     7
 65
   257
 75
     7
175
     7
 42
1.0
 92
        8
 66
     7
 43
1.0
 76
     1
 77
     6
 78
     2
 67
     7
 79
     5
170
     0
171
     0
290
     0
174
     0
 93
        1
 44
0.0
173
     0
291
     1
 45
0.0
1001
ACAD
1000
AcDbSavedByObjectVersion
1070
     0
  0
VISUALSTYLE
  5
40
102
{ACAD_XDICTIONARY
360
3BC
102
}
102
{ACAD_REACTORS
330
29
102
}
330
29
100
AcDbVisualStyle
  2
OverhangOff
 70
    21
 71
     2
 72
     2
 73
     0
 90
        0
 40
-0.6
 41
-30.0
 62
     5
 63
     7
 74
     1
 91
        4
 64
     7
 65
   257
 75
     1
175
     1
 42
1.0
 92
        9
 66
     7
 43
1.0
 76
     1
 77
     6
 78
     2
 67
     7
 79
     5
170
     0
171
     0
290
     0
174
     0
 93
        1
 44
0.0
173
     0
291
     1
 45
0.0
1001
ACAD
1000
AcDbSavedByObjectVersion
1070
     0
  0
VISUALSTYLE
  5
33
102
{ACAD_XDICTIONARY
360
3A2
102
}
102
{ACAD_REACTORS
330
29
102
}
330
29
100
AcDbVisualStyle
  2
Realistic
 70
     8
 71
     2
 72
     2
 73
     0
 90
        2
 40
-0.6
 41
30.0
 62
     5
 63
     7
 74
     0
 91
        0
 64
     7
 65
   257
 75
     1
175
     1
 42
1.0
 92
        8
 66
   257
 43
1.0
 76
     1
 77
     6
 78
     2
 67
     7
 79
     3
170
     0
171
     0
290
     0
174
     0
 93
       13
 44
0.0
173
     0
291
     0
 45
0.0
1001
ACAD
1000
AcDbSavedByObjectVersion
1070
     0
  0
VISUALSTYLE
  5
3E
102
{ACAD_XDICTIONARY
360
3B8
102
}
102
{ACAD_REACTORS
330
29
102
}
330
29
100
AcDbVisualStyle
  2
Shaded
 70
    27
 71
     2
 72
     2
 73
     1
 90
        2
 40
-0.6
 41
30.0
 62
     5
 63
     7
 74
     0
 91
        4
 64
     7
 65
   257
 75
     1
175
     1
 42
1.0
 92
        8
 66
   257
 43
1.0
 76
     1
 77
     6
 78
     2
 67
     8
 79
     3
170
     0
171
     0
290
     0
174
     0
 93
        5
 44
0.0
173
     0
291
     0
 45
0.0
1001
ACAD
1000
AcDbSavedByObjectVersion
1070
     0
  0
VISUALSTYLE
  5
3D
102
{ACAD_XDICTIONARY
360
3B6
102
}
102
{ACAD_REACTORS
330
29
102
}
330
29
100
AcDbVisualStyle
  2
Shaded with edges
 70
    26
 71
     2
 72
     2
 73
     1
 90
        2
 40
-0.6
 41
30.0
 62
     5
 63
     7
 74
     1
 91
       10
 64
     7
 65
   257
 75
     2
175
     1
 42
1.0
 92
        8
 66
   257
 43
1.0
 76
     1
 77
     6
 78
     2
 67
     7
 79
     3
170
     0
171
     0
290
     0
174
     0
 93
        5
 44
0.0
173
     0
291
     0
 45
0.0
1001
ACAD
1000
AcDbSavedByObjectVersion
1070
     0
  0
VISUALSTYLE
  5
3A
102
{ACAD_XDICTIONARY
360
3B0
102
}
102
{ACAD_REACTORS
330
29
102
}
330
29
100
AcDbVisualStyle
  2
Shades of Gray
 70
    23
 71
     2
 72
     2
 73
     3
 90
        0
 40
-0.6
 41
-30.0
 62
     5
 63
     7
 74
     2
 91
        2
 64
     7
 65
     7
 75
     1
175
     1
 42
40.0
 92
        8
 66
     7
 43
1.0
 76
     1
 77
     6
 78
     2
 67
     7
 79
     3
170
     0
171
     0
290
     0
174
     0
 93
        1
 44
0.0
173
     0
291
     0
 45
0.0
1001
ACAD
1000
AcDbSavedByObjectVersion
1070
     0
  0
VISUALSTYLE
  5
3B
102
{ACAD_XDICTIONARY
360
3B2
102
}
102
{ACAD_REACTORS
330
29
102
}
330
29
100
AcDbVisualStyle
  2
Sketchy
 70
    24
 71
     1
 72
     2
 73
     2
 90
        0
 40
-0.6
 41
-30.0
 62
     5
 63
     7
 74
     2
 91
        2
 64
     7
 65
     7
 75
     1
175
     1
 42
40.0
 92
       11
 66
     7
 43
1.0
 76
     1
 77
     6
 78
     2
 67
     7
 79
     6
170
     0
171
     0
290
     0
174
     0
 93
        1
 44
0.0
173
     0
291
     0
 45
0.0
1001
ACAD
1000
AcDbSavedByObjectVersion
1070
     0
  0
VISUALSTYLE
  5
36
102
{ACAD_XDICTIONARY
360
3A8
102
}
102
{ACAD_REACTORS
330
29
102
}
330
29
100
AcDbVisualStyle
  2
Thicken
 70
    13
 71
     2
 72
     2
 73
     0
 90
        0
 40
-0.6
 41
-30.0
 62
     5
 63
     7
 74
     1
 91
        4
 64
     7
 65
   257
 75
     1
175
     1
 42
1.0
 92
       12
 66
     7
 43
1.0
 76
     1
 77
     6
 78
     2
 67
     7
 79
     5
170
     0
171
     0
290
     0
174
     0
 93
        1
 44
0.0
173
     0
291
     1
 45
0.0
1001
ACAD
1000
AcDbSavedByObjectVersion
1070
     0
  0
VISUALSTYLE
  5
30
102
{ACAD_XDICTIONARY
360
39C
102
}
102
{ACAD_REACTORS
330
29
102
}
330
29
100
AcDbVisualStyle
  2
Wireframe
 70
     5
 71
     0
 72
     2
 73
     0
 90
        0
 40
-0.6
 41
-30.0
 62
     5
 63
     7
 74
     1
 91
        4
 64
     7
 65
   257
 75
     1
175
     1
 42
1.0
 92
        0
 66
   257
 43
1.0
 76
     1
 77
     6
 78
     2
 67
     7
 79
     3
170
     0
171
     0
290
     0
174
     0
 93
        1
 44
0.0
173
     0
291
     0
 45
0.0
1001
ACAD
1000
AcDbSavedByObjectVersion
1070
     0
  0
VISUALSTYLE
  5
3C
102
{ACAD_XDICTIONARY
360
3B4
102
}
102
{ACAD_REACTORS
330
29
102
}
330
29
100
AcDbVisualStyle
  2
X-Ray
 70
    25
 71
     2
 72
     2
 73
     1
 90
        1
 40
0.5
 41
-30.0
 62
     5
 63
     7
 74
     1
 91
        0
 64
     7
 65
   257
 75
     1
175
     1
 42
1.0
 92
        8
 66
     7
 43
1.0
 76
     1
 77
     6
 78
     2
 67
     7
 79
     3
170
     0
171
     0
290
     0
174
     0
 93
       13
 44
0.0
173
     0
291
     0
 45
0.0
1001
ACAD
1000
AcDbSavedByObjectVersion
1070
     0
  0
DICTIONARYVAR
  5
79
102
{ACAD_REACTORS
330
76
102
}
330
76
100
DictionaryVariables
280
     0
  1
1:1
  0
DICTIONARYVAR
  5
78
102
{ACAD_REACTORS
330
76
102
}
330
76
100
DictionaryVariables
280
     0
  1
STANDARD
  0
DICTIONARYVAR
  5
77
102
{ACAD_REACTORS
330
76
102
}
330
76
100
DictionaryVariables
280
     0
  1
STANDARD
  0
DICTIONARYVAR
  5
37E
102
{ACAD_REACTORS
330
76
102
}
330
76
100
DictionaryVariables
280
     0
  1
1
  0
DICTIONARYVAR
  5
37D
102
{ACAD_REACTORS
330
76
102
}
330
76
100
DictionaryVariables
280
     0
  1
1
  0
DICTIONARYVAR
  5
37C
102
{ACAD_REACTORS
330
76
102
}
330
76
100
DictionaryVariables
280
     0
  1
0
  0
DICTIONARYVAR
  5
379
102
{ACAD_REACTORS
330
76
102
}
330
76
100
DictionaryVariables
280
     0
  1
0
  0
DICTIONARYVAR
  5
37A
102
{ACAD_REACTORS
330
76
102
}
330
76
100
DictionaryVariables
280
     0
  1
0
  0
DICTIONARYVAR
  5
378
102
{ACAD_REACTORS
330
76
102
}
330
76
100
DictionaryVariables
280
     0
  1
2
  0
DICTIONARYVAR
  5
377
102
{ACAD_REACTORS
330
76
102
}
330
76
100
DictionaryVariables
280
     0
  1
1
  0
DICTIONARYVAR
  5
37B
102
{ACAD_REACTORS
330
76
102
}
330
76
100
DictionaryVariables
280
     0
  1
127
  0
DICTIONARYVAR
  5
386
102
{ACAD_REACTORS
330
76
102
}
330
76
100
DictionaryVariables
280
     0
  1
2
  0
DICTIONARY
  5
3C1
330
6B
100
AcDbDictionary
280
     1
281
     1
  3
ACAD_XREC_ROUNDTRIP
360
3C2
  0
DICTIONARY
  5
3C5
330
73
100
AcDbDictionary
280
     1
281
     1
  3
ACAD_XREC_ROUNDTRIP
360
3C6
  0
DICTIONARY
  5
3C3
330
6F
100
AcDbDictionary
280
     1
281
     1
  3
ACAD_XREC_ROUNDTRIP
360
3C4
  0
DICTIONARY
  5
1A
330
19
100
AcDbDictionary
280
     1
281
     1
  3
ACAD_XREC_ROUNDTRIP
360
38E
  3
BUMPTILE
360
1C
  3
DIFFUSETILE
360
1B
  3
OPACITYTILE
360
1F
  3
REFLECTIONTILE
360
1E
  3
REFRACTIONTILE
360
20
  3
SPECULARTILE
360
1D
  0
DICTIONARY
  5
12
330
11
100
AcDbDictionary
280
     1
281
     1
  3
ACAD_XREC_ROUNDTRIP
360
38D
  3
BUMPTILE
360
14
  3
DIFFUSETILE
360
13
  3
FBXASSET
360
F9
  3
OPACITYTILE
360
17
  3
REFLECTIONTILE
360
16
  3
REFRACTIONTILE
360
18
  3
SPECULARTILE
360
15
  0
DICTIONARY
  5
22
330
21
100
AcDbDictionary
280
     1
281
     1
  3
ACAD_XREC_ROUNDTRIP
360
38F
  3
BUMPTILE
360
24
  3
DIFFUSETILE
360
23
  3
FBXASSET
360
BA
  3
OPACITYTILE
360
27
  3
REFLECTIONTILE
360
26
  3
REFRACTIONTILE
360
28
  3
SPECULARTILE
360
25
  0
DICTIONARY
  5
389
330
67
100
AcDbDictionary
280
     1
281
     1
  3
ACAD_XREC_ROUNDTRIP
360
38A
  0
DICTIONARY
  5
334
330
65
100
AcDbDictionary
280
     1
281
     1
  3
ACAD_ROUNDTRIP_2008_TABLESTYLE_CELLSTYLEMAP
360
388
  3
ACAD_XREC_ROUNDTRIP
360
3C0
  0
DICTIONARY
  5
39A
330
2F
100
AcDbDictionary
280
     1
281
     1
  3
ACAD_XREC_ROUNDTRIP
360
39B
  0
DICTIONARY
  5
398
330
2E
100
AcDbDictionary
280
     1
281
     1
  3
ACAD_XREC_ROUNDTRIP
360
399
  0
DICTIONARY
  5
3A6
330
35
100
AcDbDictionary
280
     1
281
     1
  3
ACAD_XREC_ROUNDTRIP
360
3A7
  0
DICTIONARY
  5
3AE
330
39
100
AcDbDictionary
280
     1
281
     1
  3
ACAD_XREC_ROUNDTRIP
360
3AF
  0
DICTIONARY
  5
3A0
330
32
100
AcDbDictionary
280
     1
281
     1
  3
ACAD_XREC_ROUNDTRIP
360
3A1
  0
DICTIONARY
  5
3A4
330
34
100
AcDbDictionary
280
     1
281
     1
  3
ACAD_XREC_ROUNDTRIP
360
3A5
  0
DICTIONARY
  5
3BE
330
41
100
AcDbDictionary
280
     1
281
     1
  3
ACAD_XREC_ROUNDTRIP
360
3BF
  0
DICTIONARY
  5
3AC
330
38
100
AcDbDictionary
280
     1
281
     1
  3
ACAD_XREC_ROUNDTRIP
360
3AD
  0
DICTIONARY
  5
390
330
2A
100
AcDbDictionary
280
     1
281
     1
  3
ACAD_XREC_ROUNDTRIP
360
391
  0
DICTIONARY
  5
392
330
2B
100
AcDbDictionary
280
     1
281
     1
  3
ACAD_XREC_ROUNDTRIP
360
393
  0
DICTIONARY
  5
394
330
2C
100
AcDbDictionary
280
     1
281
     1
  3
ACAD_XREC_ROUNDTRIP
360
395
  0
DICTIONARY
  5
396
330
2D
100
AcDbDictionary
280
     1
281
     1
  3
ACAD_XREC_ROUNDTRIP
360
397
  0
DICTIONARY
  5
39E
330
31
100
AcDbDictionary
280
     1
281
     1
  3
ACAD_XREC_ROUNDTRIP
360
39F
  0
DICTIONARY
  5
3BA
330
3F
100
AcDbDictionary
280
     1
281
     1
  3
ACAD_XREC_ROUNDTRIP
360
3BB
  0
DICTIONARY
  5
3AA
330
37
100
AcDbDictionary
280
     1
281
     1
  3
ACAD_XREC_ROUNDTRIP
360
3AB
  0
DICTIONARY
  5
3BC
330
40
100
AcDbDictionary
280
     1
281
     1
  3
ACAD_XREC_ROUNDTRIP
360
3BD
  0
DICTIONARY
  5
3A2
330
33
100
AcDbDictionary
280
     1
281
     1
  3
ACAD_XREC_ROUNDTRIP
360
3A3
  0
DICTIONARY
  5
3B8
330
3E
100
AcDbDictionary
280
     1
281
     1
  3
ACAD_XREC_ROUNDTRIP
360
3B9
  0
DICTIONARY
  5
3B6
330
3D
100
AcDbDictionary
280
     1
281
     1
  3
ACAD_XREC_ROUNDTRIP
360
3B7
  0
DICTIONARY
  5
3B0
330
3A
100
AcDbDictionary
280
     1
281
     1
  3
ACAD_XREC_ROUNDTRIP
360
3B1
  0
DICTIONARY
  5
3B2
330
3B
100
AcDbDictionary
280
     1
281
     1
  3
ACAD_XREC_ROUNDTRIP
360
3B3
  0
DICTIONARY
  5
3A8
330
36
100
AcDbDictionary
280
     1
281
     1
  3
ACAD_XREC_ROUNDTRIP
360
3A9
  0
DICTIONARY
  5
39C
330
30
100
AcDbDictionary
280
     1
281
     1
  3
ACAD_XREC_ROUNDTRIP
360
39D
  0
DICTIONARY
  5
3B4
330
3C
100
AcDbDictionary
280
     1
281
     1
  3
ACAD_XREC_ROUNDTRIP
360
3B5
  0
XRECORD
  5
3C2
102
{ACAD_REACTORS
330
3C1
102
}
330
3C1
100
AcDbXrecord
280
     1
102
SHADEPLOT
 70
     0
102
SHADEPLOTRESLEVEL
 70
     2
102
SHADEPLOTCUSTOMDPI
 70
   300
  0
XRECORD
  5
3C6
102
{ACAD_REACTORS
330
3C5
102
}
330
3C5
100
AcDbXrecord
280
     1
102
SHADEPLOT
 70
     0
102
SHADEPLOTRESLEVEL
 70
     2
102
SHADEPLOTCUSTOMDPI
 70
   300
  0
XRECORD
  5
3C4
102
{ACAD_REACTORS
330
3C3
102
}
330
3C3
100
AcDbXrecord
280
     1
102
SHADEPLOT
 70
     0
102
SHADEPLOTRESLEVEL
 70
     2
102
SHADEPLOTCUSTOMDPI
 70
   300
  0
XRECORD
  5
38E
102
{ACAD_REACTORS
330
1A
102
}
330
1A
100
AcDbXrecord
280
     1
102
MATERIAL
148
0.0
149
0.0
149
0.0
 93
        0
 94
      127
282
     0
 72
     0
 77
     0
171
     0
175
     0
179
     0
273
     0
  0
XRECORD
  5
1C
102
{ACAD_REACTORS
330
1A
102
}
330
1A
100
AcDbXrecord
280
     1
270
     1
271
     1
  0
XRECORD
  5
1B
102
{ACAD_REACTORS
330
1A
102
}
330
1A
100
AcDbXrecord
280
     1
270
     1
271
     1
  0
XRECORD
  5
1F
102
{ACAD_REACTORS
330
1A
102
}
330
1A
100
AcDbXrecord
280
     1
270
     1
271
     1
  0
XRECORD
  5
1E
102
{ACAD_REACTORS
330
1A
102
}
330
1A
100
AcDbXrecord
280
     1
270
     1
271
     1
  0
XRECORD
  5
20
102
{ACAD_REACTORS
330
1A
102
}
330
1A
100
AcDbXrecord
280
     1
270
     1
271
     1
  0
XRECORD
  5
1D
102
{ACAD_REACTORS
330
1A
102
}
330
1A
100
AcDbXrecord
280
     1
270
     1
271
     1
  0
XRECORD
  5
38D
102
{ACAD_REACTORS
330
12
102
}
330
12
100
AcDbXrecord
280
     1
102
MATERIAL
148
0.0
149
0.0
149
0.0
 93
        0
 94
      127
282
     0
 72
     0
 77
     0
171
     0
175
     0
179
     0
273
     0
  0
XRECORD
  5
14
102
{ACAD_REACTORS
330
12
102
}
330
12
100
AcDbXrecord
280
     1
270
     1
271
     1
  0
XRECORD
  5
13
102
{ACAD_REACTORS
330
12
102
}
330
12
100
AcDbXrecord
280
     1
270
     1
271
     1
  0
XRECORD
  5
F9
102
{ACAD_REACTORS
330
12
102
}
330
12
100
AcDbXrecord
280
     1
 70
     1
 90
1959938040
 71
     1
  1
4732B3F4-7787-4E9A-A1C9-22DAB4793293
311
504B03040A00000800000C6C94403DEE336E79000000790000001B0000006175746F6465736B2D64657369676E2D7061636B6167652E786D6C3C3F786D6C2076657273696F6E3D22312E302220656E636F64696E673D227574662D3822203F3E3C666F726D6174733E3C666F726D61743E687474703A2F2F736368656D612E
311
6175746F6465736B2E636F6D2F64657369676E2D7061636B6167652F323030393C2F666F726D61743E3C2F666F726D6174733E504B03041400060808000C6C9440D486FD9CA0000000F4000000130000005B436F6E74656E745F54797065735D2E786D6C7D8EC10E82300C865F65E91D8A1E8C310C0EEA1BF002731658846E
311
D98AC1B77784ABF1D8FE5FBFBF75BBCE937A534CCEB38643598122B6FEE978D0B0485F9C41B54DDD7D022595594E1A469170414C76A4D9A4D207E29CF43ECE46F218070CC6BECC4078ACAA135ACF422C856C0E68EA1BF5669944DDD7BCDE7B1F8E415D77AECB980613C2E4AC91FC167A2B244592486606FC29C8FD7F045B9A
311
EF7053A7E60B504B03041400060808000C6C944042E6EB31EA0000007C01000008000000636F72652E786D6C8D90416EC3201045AF82668F03D8AD5D0B13C56D7C825E0001715062B00C44397E71E248EDAEAB19FDF96F66F4F9FE3E5DD1CD2CC17AD7012D0820E394D7D68D1DA478C20DA0BDE08BF7F1970D909393E96095
311
41F071F169DE24E55D342E66D5796D36518660222075CD4D07419DCD240B996276844B314B7591A329E8ABCB704A56A3E711ABF33E7BB26601517DF575D3B31A7F1EDE19AE86F2883F9ABAC7F450F647320CB46F08DFADB0E0D14EAFFB6A31321A0D8211CA30A93023DFB46C4BD6B2374C9A966468B5FF81D2ACFF0925EB62
311
C9B6779F580041F3238F81E0BB358B5C1E41E5BAE6267E00504B03041400060808000C6C944055019EA25F0000007C00000007000000636E782E786D6C4DCB3B0E80201045D1AD90E915ED2CF8AC45050C11660C8261F98AB1B07AC9C97D42D718D865D3E909258CFD00CCE24AC6E326A164D74DC0B4128928FF326038472B
311
A13128B1252AC747C6BAB984FC68F0B87FE8960A5C09FE86CFB69FBA01504B03041400060808000C6C94406132501366010000020300000C0000006662782F636F72652E786D6C8D525B6E833010BC8AE57F8331B4A1917114DAE404BD80030E45011B191BE5F85D1E114D15451192B16676766707F8EEDA366850B6AF8DCE
311
7014508C942E4C59EB2AC3DE9D498AD14E706B8CFB53869196ADCAF00863C12B6B7CB74085D14E6907A836A55A40D9F7CA61543470C9705FFCA85606D23BA8E82F41278B8BAC54100540439DE0BDB36000CD43C6138BF3E9CAC31917DCFBBA5CD8BA8469F5B956168BE42BDFA439DB90CFFD3B23C9313E908F749393681FE7
311
077A3C46794A79388A0577757B735758259D2AB1603462842684D1EF28DEC66CCBDE084DB7144463F99DC877E58B225F6B17B3C5EE2CEBB188C0C844FCDB162272A89703F809050FC710E135257C1F340402213B796A6E7B5C001A54E18C4D80298D5FA941365EC1548AA68787330B9DA706B0D9C33EEC499FE73DE0034A5D
311
8135E9E07AF26E9CCEE7A94B149DB2647057A48D6D65B39A9B2DAEE73AE8A1BC308DB1AFA8C365D57009331CFF5EF10B504B03041400060808000C6C94400084F7937E0000009D0000000B0000006662782F636E782E786D6C4DCCD10A83201886E15B91FFDC6569CD811AD2E67DC4B290990EA76397BF1A1DECE883878F57
311
F49FD5A3B74D2F178384FA4400D9708F930B8B849267CC01F54AA418F3DF0D5018572B6167506249B13C0F9AEC3C169F37F52E3C0E1C2EAC3637DA60429A0E334E5AAC2931F84CB46E39A3DDD50C502951FD4ADBEE61F505504B03041400060808000C6C9440ADBC5BBD2C01000015020000310000006662782F4339343146
311
4533322D303032362D343830352D413330462D3730414135383433364446432F636F72652E786D6C8D51CB6EC32010FC15C4293DD8C6603B6E8489A2B4F982FE0031244589C1E251E5F3BBD4AED4DE7261D1ECCCEC6897EF1FD31D7D691F8CB303AE4B8291B6A353C65E079CE2A5E831DA0BEE9D8B7F68185939E90167180B
311
7EF52ECD2B343A1BB58D805AA7F40ACA1074C468BCC367C061FCD4932C658AC008B77296E34D5E755997D0069EE0217A08809621F9C5E2F8DAD4A777460B426857343D698B0323A7624B0E87B66F58F7763AF26A110A9E9251ABDC2888632E46FB674DB258F068A6DFF8A3D7326A8505253504680A4A3E6AB6637447DB82F4
311
3B427895E9FF4469564F8A92B191D135EE220B58D4BC5A1A822B97CEF7DF30FA313B1F519EB7097A7CC18294846C19ED186B79B570610360DA35AB6988CEC38637B733D06B6065E7AE11BCCA4782F27341A8F9A0E21B504B03041400060808000C6C94409C33E6D44C01000033030000300000006662782F43393431464533
311
322D303032362D343830352D413330462D3730414135383433364446432F636E782E786D6CD593BD6E032110845F05D1DFAF2F966571584A912748919683B54DCCC1899F287EFB2C3676DCB84899069D668799D5278EEDBE6743BEC007EDEC48BBBAA504AC744ADBC34853DC571B4A769C79E7E2838D122B66186996296707
311
EFD25224057B914C44D5687B2AA287E092971050CE37897152180C005B2514619E402950E46EC4AF3D785C05C5E94CE211C8DBEB0771D327C818589353386B720767F92C4D0F264AA411218C34C823CCA216293A05E1542B1145DDD5B7AE273BFD26917CE15699BC26B97CA4F9A4BC6C542347D6E090B3103DD22BA6785E80
311
72B12C464B11117273315E3D9C256DE37A285E8DE03DBABBF56A1830EC32E32CEA198A437A101114E57DDBF5553B547DFBDEADB6AB7EDBBF54ED66DBB6ACC976CE26E74CB98431E0DD42A4B3116CA4BC634D1E3FC3577C44698FAC9D3FFF01240228AD573AF78CFFCCA7B9BC6FC4E5F12FE03F504B03041400060808000C6C
311
9440ED48B693A405000081100000340000006662782F43393431464533322D303032362D343830352D413330462D3730414135383433364446432F6F626A656374732E786D6CAD57D96EDB3814FD1541F332F3E045B6DBC403458597A630DAB4458D14F360C0A0254AE1845A4052A9335F3F8722254B8E9D7A067DD1C2E5F2
311
DE73CF5DE8BFDBA7DC79A242B23CBB71BDFED0756816E611CB921BB75471EFDA75DE05BEC873D55AE63A1949E98DAB87DDC04F445E167628A23129B93A1ABD9DFFE5C89066D475424EA4BC7165F84053D227A5CA232A1FFB1151A49FC4FBBED7370BBB6213418A8723A105113453D014E319A4384629AFFB3B7407813FD0F3
311
81AF9F76D5F8FCAA41654FF77C964945B2F0C5614762C6DE64F97EF466DA7B33998C7B93B723AF37BF9D2F7BDED578B878BB584C67EFA738582A01495613416337F8006C040BFD81990AFC92656A3CB24BAC8306823E31ED293718399E3F306B1AEBAC91A7D40FF32CA3618515D0A8ECB3A2235AD02C82CF1995D0AC85D0B0
311
FBEB691C5BD363FD6F8F6C0F5F86407B474B50AD7BFD6E6B9AEFFE8609F21206094935030D96D650C3D5E101E15D9E733BC7A49312450523DCE16C27887876032CD54B02BF23463359E868D016B801BC60A6BB744118FD9CE7A7B48C4BCE358DDDA08A822D62852A5969C6FEA1E2A07D1B19E8045F69365C5B83D47341DD60
311
6A28727DC42603A4137392C0E53053EF1C8F8E0C5DE8385D2DDDE0E3ED6EBFD6B17BFAF042E405154AD307D4AA1D57BF354A5627EF22CFE90DEE912A0750BE01F9CF08F5832AF09B60FBC97E624F51826432CE450ADF3843A737C463E878D5537FB7BEFC41B3B9EBBD7378C2D91AAA5F8067D786B62F5B7006FE13089F8BB1
311
356D1D128EB471C73200A449E2F01C43C8C3F16EEF062B64396465EC223CF06032D47DC2A73FB0629028AA935AEF0C581EA5C50B123460AB1809350CF9AD82073FBD4867D5C176D93978DFFC12BACE96EB8FEB52C424A47736A69734661953287107DEB415EA60DEB1E8913EFFC84504435FE2BD6EE39DDAA324D0D6986BE0
311
933AA7EB9FC3C99D0342EC4B729D6EFC9F9C002374616DC9BF6332A49C938CE6657DEEABF50365C340AC835D33B9293087C202D29899A31844910E052B34884DB56A9266FF8C75F7ABCF60A41BCC9F3F91E776F6DA1D726F98F35C6C77CF5B93964E42FDBDCB6D8BC1404B01DDAB20A9E3DF82BE8D581C971249F004AEDF57
311
8BB6EF745A408AA8A59A6899C07E04171196B4B55C546B415049F36CCB50371177270F68CB07A4960195C0731A4BCAE32DE3BC4CB731E3A846DB941467E0F8FFFAEFCAB4D892342F3375467647755487AEEE1DF6CA1F44850F6EB0AEDEBD39726F44A33364D0B5E404561DD74EAEC6A3F9F876D2BBBABABEEA4DDE4F67BD99
311
B798F646A3E56C3EB99A8E47D371ED27A349E0D7A5A61DD1F0124A9B5F0A66DD77BF42FCD824E0067744C9CD07139EF5FB7ED5472FEC0FB007F5B2D9388B9ED0F7D1E8E7020E2B4F0A5AA505A729CD14D13174A73FF837823EA3A38C195FA524A11748F9F2617D640C462ED8F755C73BFD71B4D78E2E74409E14A21ECA7497
311
11C68F362606C97E912516BFDA27CDDB149AFA57FF59C7A03395396711F260E424344FA94236BCA00889944A50AFDDD347F6EE71C1EE27D3212AB2E3B4D6E481A049E61261016A95A1EA8E3BBFA1A9D37DD58D8B72DB7FC4C3660AD701676E5C34E98A8554F67728D0BA15AA84834BED4E1E8D3FC9128E5EDB6C6AFE9B5D1A
311
9B4E496E965CD23F59BB4C0AB706208D14E81BD010C13B9532815FE966E7C3FF6478AD8E43143E77A56A6C390C34C654C720448D51F6B68026E6D11EBD47A0BE6E96D7AFD67410B9E896F52A098CD49E2222A96E0A5A3FABD26CF975800EC5597D710A5E26F0E5E5927A8282CCA50E70B008ACB0320BA240D5C59F9BAF22C7
311
4D36756E1928E0FCBEBF7EFBC76691A7699E99A1CDCCDE879DF5036EB7D106C981EA6B89DC8C86DE68535D07EC0D65BB2392F649241F3100CF0AD600DD713F7869EE8CA84366A25937D0AE3862E86AE9D8C23681504B97766ED5E0A0F1C8A88318D2574A1D31ED05C5AB378241B5142A08F4F2C1BF504B0304140006080000
311
0C6C9440000000000000000000000000350000006662782F43393431464533322D303032362D343830352D413330462D3730414135383433364446432F76657274696365732E62696E504B03041400060808000C6C9440F270F1330600000004000000360000006662782F43393431464533322D303032362D343830352D41
311
3330462D3730414135383433364446432F747269616E676C65732E62696E636660600000504B03041400060800000C6C9440000000000000000000000000370000006662782F43393431464533322D303032362D343830352D413330462D3730414135383433364446432F617474726962757465732E62696E504B03041400
311
060808000C6C9440D5987DFC8F00000041010000360000006662782F43393431464533322D303032362D343830352D413330462D3730414135383433364446432F6469726563746F72792E786D6C858F410EC2201045AF4266AF15DDB800BA74E7C21B903225242D6328188F2FA5C4183471359997F9FF81E89FF3C41E1816
311
475E02DF1F80A11FC8386F25A438EECEC07A250251FC3803E6F58C12560C4AD840E95E91C151A72936F496F35732D860FE635F62C8F2DA16B505C545B74125BAA2FA9E05D7CC053D063734D5C7665FD55B6B8D15D5E9BFEAFD8490FFA45E504B03041400060808000C6C9440514DC5A9FD000000A00100003B000000666278
311
2F43393431464533322D303032362D343830352D413330462D3730414135383433364446432F7265736F75726365732F636F72652E786D6C8D504B6EC32010BD8A357B6CC069E25A98286EE313F402084F129418223E558F5F485CA9DD7533337A1FCDD313FBAFE5567DA20FC6D901584DA142ABDD6CEC7980144FA4836A2F
311
85772EFE924165D582031418A4387B97EE2BA49D8D686346AD9B7105550818A1D2B77C0C10F4051755AB14B3225CEBBBD25775C69AD599CE3A2942F43940F57C5226488FC125AF3188E6C94A919299578D99F34F7332E8416EDEC75D37F22D793B6C39D94CED91BC76BB91B0433B1EE934B1B1A3A2296629A2597E326A8F2A
311
E20C9253C609DD104E3F58DBB7BCE72F84763DCDA622FF634AF7F99FA6646C6CF91AF7690B20590EF220A4684A5F793DCACCBB742BBF01504B010214000A00000800000C6C94403DEE336E79000000790000001B00000000000000000000000000000000006175746F6465736B2D64657369676E2D7061636B6167652E786D
311
6C504B010214001400060808000C6C9440D486FD9CA0000000F40000001300000000000000000000000000B20000005B436F6E74656E745F54797065735D2E786D6C504B010214001400060808000C6C944042E6EB31EA0000007C010000080000000000000000000000000083010000636F72652E786D6C504B0102140014
311
00060808000C6C944055019EA25F0000007C000000070000000000000000000000000093020000636E782E786D6C504B010214001400060808000C6C94406132501366010000020300000C00000000000000000000000000170300006662782F636F72652E786D6C504B010214001400060808000C6C94400084F7937E0000
311
009D0000000B00000000000000000000000000A70400006662782F636E782E786D6C504B010214001400060808000C6C9440ADBC5BBD2C0100001502000031000000000000000000000000004E0500006662782F43393431464533322D303032362D343830352D413330462D3730414135383433364446432F636F72652E78
311
6D6C504B010214001400060808000C6C94409C33E6D44C010000330300003000000000000000000000000000C90600006662782F43393431464533322D303032362D343830352D413330462D3730414135383433364446432F636E782E786D6C504B010214001400060808000C6C9440ED48B693A405000081100000340000
311
0000000000000000000000630800006662782F43393431464533322D303032362D343830352D413330462D3730414135383433364446432F6F626A656374732E786D6C504B010214001400060800000C6C94400000000000000000000000003500000000000000000000000000590E00006662782F43393431464533322D30
311
3032362D343830352D413330462D3730414135383433364446432F76657274696365732E62696E504B010214001400060808000C6C9440F270F13306000000040000003600000000000000000000000000AC0E00006662782F43393431464533322D303032362D343830352D413330462D3730414135383433364446432F74
311
7269616E676C65732E62696E504B010214001400060800000C6C94400000000000000000000000003700000000000000000000000000060F00006662782F43393431464533322D303032362D343830352D413330462D3730414135383433364446432F617474726962757465732E62696E504B010214001400060808000C6C
311
9440D5987DFC8F0000004101000036000000000000000000000000005B0F00006662782F43393431464533322D303032362D343830352D413330462D3730414135383433364446432F6469726563746F72792E786D6C504B010214001400060808000C6C9440514DC5A9FD000000A00100003B000000000000000000000000
311
003E1000006662782F43393431464533322D303032362D343830352D413330462D3730414135383433364446432F7265736F75726365732F636F72652E786D6C504B0506000000000E000E0080040000941100000000
310
504B03040A00000800000C6C94403DEE336E79000000790000001B0000006175746F6465736B2D64657369676E2D7061636B6167652E786D6C3C3F786D6C2076657273696F6E3D22312E302220656E636F64696E673D227574662D3822203F3E3C666F726D6174733E3C666F726D61743E687474703A2F2F736368656D612E
310
6175746F6465736B2E636F6D2F64657369676E2D7061636B6167652F323030393C2F666F726D61743E3C2F666F726D6174733E504B03041400060808000C6C9440D486FD9CA0000000F4000000130000005B436F6E74656E745F54797065735D2E786D6C7D8EC10E82300C865F65E91D8A1E8C310C0EEA1BF002731658846E
310
D98AC1B77784ABF1D8FE5FBFBF75BBCE937A534CCEB38643598122B6FEE978D0B0485F9C41B54DDD7D022595594E1A469170414C76A4D9A4D207E29CF43ECE46F218070CC6BECC4078ACAA135ACF422C856C0E68EA1BF5669944DDD7BCDE7B1F8E415D77AECB980613C2E4AC91FC167A2B244592486606FC29C8FD7F045B9A
310
EF7053A7E60B504B03041400060808000C6C9440C236F730EB0000007C01000008000000636F72652E786D6C8D90416EC3201045AF82668F8DB1EB040B13B98E72825E0001715162B00C543D7E71E248EDAEAB19FDF96F66F4F9E97BBEA32FB306EB5D0F55410019A7BCB66EEA21C52B3E023A09BE7A1F7FD90039399B1E36
310
19049F569F965D52DE45E362569DD766176508260252F7DCF410D4A799652153CC8E702B16A96E723245F5EA329C92D5E879C4EABCCF5EAD59418CF57078670DC3C74333E2A6BD34985D863366236987B165E796515E6EB0E0D1CEAFFB6A35321A0D82928A62D2604A3EAABAAB6947DF30397684F072B3FF81D2A2FF0925EB
310
624DF7779F580051E5471E03C1CB2D8B5C1E41E5BAE5267E00504B03041400060808000C6C944055019EA25F0000007C00000007000000636E782E786D6C4DCB3B0E80201045D1AD90E915ED2CF8AC45050C11660C8261F98AB1B07AC9C97D42D718D865D3E909258CFD00CCE24AC6E326A164D74DC0B4128928FF32603847
310
2BA13128B1252AC747C6BAB984FC68F0B87FE8960A5C09FE86CFB69FBA01504B03041400060808000C6C9440005E8A3D67010000020300000C0000006662782F636F72652E786D6C8D52ED8E8320107C15C27F043FCED606697A367D827B01AAD433553008A68F7FEB47D3EBA5692E26486676766747F9FED6B5685476688C
310
CE7118308C942E4DD5E83AC7DE5DC816A3BDE0D618F7AB0C232D3B95E309C682D7D6F87E854AA39DD20E506D2AB582721894C3A86CE192E3A1FC569D0CA47750315C835E965759AB200C80863AC10767C1005A864C271697F38DD30517DCFBA65AD9A68269CDA551168B223E6C3EB32423DB4D5290243D25243B1D8E242B58
310
7A28D2EC986611A7935870D7747777A555D2A90A8B888511610989D85718EFE268177D10B6DD31C6E954FE24F27DF54F916FB48BA3D5EE221BB008C1C84CFCD9162272689023F8A182D3294478CD093F070D8140C84E9EDBFB1E578046553A6313602AE31FD4285BAF602A43F3C3E9C242E7B9016CF6B24FF4A6CFFB1EF001
310
A5AEC19A74703D7B374DE7CBD4358A5E5932BA1BD2C676B27D985B2C3ECEC7A097F2D2B4C6FE474DD755E91A269DFE5EF103504B03041400060808000C6C94406E9DB5C07D0000009D0000000B0000006662782F636E782E786D6C4DCC4B0E83201485E1AD903BA74A9F0E007341D987A96848111A0A4D975F6D1C7474922F
310
273F6F3F8B276F9B5E2E0601EC5003B1E11E47176601254FB401D24A9E62CC7F37206158AC808D41F239C5F2DC69B4D3507C5ED5BBF0D8B1413C1ABC2AAA2F374DCFC81845548C7668B03E29DDF5A6874AF2EA575A770BCB2F504B03041400060808000C6C94406FE8C9B62C01000015020000310000006662782F38414132
310
464136422D433537432D344131312D414142312D4441464130334243444546452F636F72652E786D6C8D51CB6EC32010FC158B537AC006EC3C146122F2FA82FE8063488A1283C5A3CAE777A91DA9BDE5C2A2D999D9D12EDF3D8747F1AD7D30CEB688960415DAF64E197B6B518A57BC41C54E70EF5CFC434385ED06DDA20C23
310
C16FDEA571867A67A3B61150EB949EC12E041D51D13FE0D3A2D07FE9A12BBB148111EEE5D8F5F7EEA64B5A421B788287E82140310DC92F121B29D959AEF6F8B05C1F702329C552EE293ECAB324F5FE703C9D4FBC9A8482A764D42C370AE298ABD1FE5D932C163C9AE115BFF7BA8B5A21C10865983498914F5A6F6BB6654B4C
310
365B427895E9FF4469546F8A92B1B16673DC491690A0BC9A1A822B972E8F5718FD1C9D8F459EB708BAFF40829484AC59BD6E96A099B8B001305D35B36988CEC38617F70BD06B6065E7552378958F04E5F78250F341C50F504B03041400060808000C6C9440FA9429C35401000033030000300000006662782F384141324641
310
36422D433537432D344131312D414142312D4441464130334243444546452F636E782E786D6CBD93CD6EC32010845F0571F7BF1B591126520F7D821E7AC5B04969305880ABE6EDBB2424CD25874A552FC89A1D66569F30DB7DCD867C820FDAD99136654D0958E994B68791AE715F0C94EC38F3CEC53B1B2556CC30D22453CE
310
0EDEAD4B9614ECC56A22AA46DB63163D04B77A0901E57493182785C100B0C58A22CC1328058ADC8CF8B5078FABA0389D487C07F2F2FC46DCF401320656A514CEAAD4C1593A73D39D8912694408230DF21D66518A353A05E1582A1145D994D7AE073BFD249174E15AB97A4D52F948D34979DEA8448EACC22167217AA4974DF1
310
B400E562598C962222E4EA6CBC78385BB58D9B3E7B3582F7E8EEDACD3060D879C659D4336487F4202228CADBBA698BBA2FDAFAB5E9B65DBB6D9F8A7AD8D635AB929DB3C939932F610C78B710E96C041B296F5895C68FF0651F51DA236BE74FBF00890072EB85CE2DE32FF9349BAEEFFF914F757EDF88CBE35FC0BF01504B03
310
041400060808000C6C9440FD6C7AB1630700009A1B0000340000006662782F38414132464136422D433537432D344131312D414142312D4441464130334243444546452F6F626A656374732E786D6CED59DD73A33610FF5718FAD23E181BDBB9C41DC24DE25C6E3CD75C6FEA5EA70F9E616490891A211849E4E2FEF55D7D80
310
819804B7E9DB3DD8809056BBBFFDD412BC7FCAA8F388B92039BB747D6FE23A98C57942587AE9967237BA709DF761C0F35C36A6B90E4319BE74D5B01B0629CFCBC20E2578874A2A3BA3B7D77F3A22C60CBB4E4C911097AE88EF71863C54CA3CC1E2C14B90445EBA7BF27CCF4C6C934D392AEE3B440BC43193C0298C33A0E218
310
A6FCF6E3C41D87C158BD0F03F56F67CD06CD9AF7CF1A6BA9DB5C12262462F133963A646683589AF9F39B0FD3B3C5E86C3E9F8DE6EFA6FEE8FAF6FA66E49FCF26CB77CBE5E2EAC302D8DBE639B53225B8C02C01FDEDDDD00FC6EA4D2DBA45E018D771CE188E3590009516AB4B9060015B35E09BB41F7D2551E3B596B0F13C57
310
EF2D0B8DE1599B4ADFAC6140B4E8822076BB4AE2EADA942FDFFE05828B2146C90596C0AD901CB46BE1E1E0156E3809C666340CB6075D10E16448624E107528D972C4412930554D0903B3C09251CEC18194A324D09A33AFDBB6059EF9BAEB1CE3725752AA3CC30DB56345E07E580ACD19F91BF303F74D64802790B6244C5E58
310
2EE5BEC06EB808C67A300CD46536B52F0D90CE8EA2546844CCDB8EA04BE5FAAB1B37FC74BB7D5AAB70707CF382E705E652199DD2A3E60B0CD95E154A765B7F90E6D40210C6806A571E40F90D90FF0CD1E3C00AE88D93A7F9D3DCCE951C31B1CB7906BA7126CE68027F13C7D7FFEABE71178CEBC56DEDF5E1096EAAA0BAF8EF
310
78B665D05859FE1B7086C123187CCE67F6D53A4614ECF98E300048198943731882D0BEDB3EB9E10A0227047A588568E883C8C0EE23DC06634BE6A095CABDACD73140D4EE311BA224804D5B24B0D1A3A78F903D38890F6A6A8AD807EFD99B98EBD5CDFAD3BAE43B14E33BEBD3377847189190358F33D4C2BC25D103DE7FCB79
310
02823EC77BDDC43BB35B09405B61AE804F2B10D4C361E7D60631AC4B73156E825776002154AE6ED0BF2322C6942286F3B2DAB78E6ECA506B8FB735831B4E0DC4B369C784397E24AAAA00A739CC68310A793FE6A45020BAE14723591D34BD1EE9BEAE3E8345D6F37B66AD18845E86E8EF3A681DC1A165D915D216885AE0ED21
310
9CC739CD79B4DD4726D2B9504B001B6D6FF9A3451462BD5192A2021EA4FDAE0A29A991364AC86E570A88AB4758FC63B56C9AC3C49BF9674EF3BFE38C7388B6E0BB885BBFEBEC11910CA538DAA1A46FBBE66E356DA149F690E67847412EF248E43E42329A24383D059A93882FDE947A4A732108C302F2D551F09B684C3C0824
310
469B15CB4AAB1DA08988322C113D050145A6075C9D76748D1B43E9F03A8FB5F5BEA4B126D1FFC92238825A32671181521472C8AB8CFBDE19C49036BA06E50EBE606D156D2D062DA18488F7D1374CD27B790AEA867C0FEE311C494A19E5058AC1AC07907DE62B4AA91DDEB7287E50F9238A4BFA56062230DD4584D2328BE047
310
189C3C86B8761D985E44A141DCC43E893328CA902CF9904DDE9D4D9EED636A866E086C6CB42314C27694A1A207F55640D4F58853836FA9F728755B664584B2BC64830CC59B75BDC992EFAA55911DC8AF2A15A16CAC085B82614098ACB36A15B3C1D475600537D2816A1F099415D49CC25E493C7EED4D9A72EF06DCFAE9DB6E
310
9041E1D7A3BD66449D5730581E5B8581F886647CEF866B7D1D5D43FD9DE0E490EAAB5AB3590102622A92979C58157D5D4179636B3437BC43526C3E9AAC5B5DBFAE3CE87E04635803B54BBD70A580CE309348552677EA86FE862004B76898F195CAA9A750B94A125D35227A4BFAD4D92A235A9B66C42BEE31CB33F8B10D6131
310
2D13BC41897888EE248DD644B16EA5F4325261FCA280BF7E5C77E0819101227D51051EFED6596B4797AA5C3A4A44DE97D996210241B0255A6A74E3152CB51AA9B45C5FD59902EA2E3030ABE2F9F79345B31DF1FD64915AC3F84F278BEBFD2F68DFEC8B34D279ACECFAA463409D9F1495B73806E8B6434DB5CE2226995BF9AD
310
33451014AB283FB81AAB828621D8C7F1BFCEDA7D59D06CD7E1FFB4ACED3FAB384ECA2AADC9AA4B75A4725DB572D8F96C7A3DBB9D8FCECF2FCE47F30F8BABD195BF5C8CA6D39BABEBF9F962365D1CCA08EDA8615007339DBBE0D904B56A583D590CA02B2B724A1238CD274E8A21E64B38D30F689FF30C0B489ECD6677629BF2
310
03563F9A3EA7445B8A2B4EEE113488A980B40E1895B16C8F3B3F406B52C241FBD285A691F7007FD62A5D0732CFA50BAD0249622CBC2DB49954434F138794AB73BF2506F82096AA946816D5CFF52A854D2BFCD75386A4012B57AB8701855B01DDAF568742F366798A4F12BC62C741126EB7A5846ACDC87218A885D1DB1CD46F
310
64A3843DD8AD9FC0755F16CBF7F49C1622833E19BC680486EA48229EEA7EB762CCB27475F3650C7D3667F5AB53D032055D0EA734E2188CB954051558115885A5592009A6BAFC79F385E7F08927737455E4FCF874F1EEA7CD32CFB29C99A1CD159CCA12F850E4ACEFE1B34FB281E201ABE6BAD84C27FE74A39BDAB6CF1E6D91
310
C09EAA8A60A02A2694201D9303BB7CD6A0B2EDCBB1524567FAEAC6B141149A01C68E9EF578CD472E077C487D4E511EA3FDBC92F6C5BEF6584F059BE0D0910EFF01504B03041400060800000C6C9440000000000000000000000000350000006662782F38414132464136422D433537432D344131312D414142312D44414641
310
30334243444546452F76657274696365732E62696E504B03041400060808000C6C9440F270F1330600000004000000360000006662782F38414132464136422D433537432D344131312D414142312D4441464130334243444546452F747269616E676C65732E62696E636660600000504B03041400060800000C6C94400000
310
00000000000000000000370000006662782F38414132464136422D433537432D344131312D414142312D4441464130334243444546452F617474726962757465732E62696E504B03041400060808000C6C9440D5987DFC8F00000041010000360000006662782F38414132464136422D433537432D344131312D414142312D
310
4441464130334243444546452F6469726563746F72792E786D6C858F410EC2201045AF4266AF15DDB800BA74E7C21B903225242D6328188F2FA5C4183471359997F9FF81E89FF3C41E1816475E02DF1F80A11FC8386F25A438EECEC07A250251FC3803E6F58C12560C4AD840E95E91C151A72936F496F35732D860FE635F62
310
C8F2DA16B505C545B74125BAA2FA9E05D7CC053D063734D5C7665FD55B6B8D15D5E9BFEAFD8490FFA45E504B03041400060808000C6C9440D19DD9A8FD000000A00100003B0000006662782F38414132464136422D433537432D344131312D414142312D4441464130334243444546452F7265736F75726365732F636F7265
310
2E786D6C8D504B6E833010BD0A9ABDC1184A20328E28514ED00B586642AC043BF2A7EAF16B0295DA5D3733A3F7D13C3D7EFA5A1ED9273AAFADE9A1CC296468949DB4997B88E14A5AC84E823B6BC32F1964462ED8C30A83E0B3B3F1B943CA9A802624D4D80977507A8F0132F548470F5EDD7091B98C2129FC3D7F4A759733E6
310
659EE8A413DC07970264DB93758270E86D740A3D2F3656F018F5B46BF4947EEAAB460762AC86C37B57B7A43DD423A99B4B4DBACB7026DD489B616CBA73D3315EAC66C1835E7E322A8732E00482D192115A13463FCAEA58B1237B23B43D52CA8B55FEC7149FD33F4D519B50B13DEE66F320CA14E445085EAC7DA5F52A33EDB5
310
5BF10D504B010214000A00000800000C6C94403DEE336E79000000790000001B00000000000000000000000000000000006175746F6465736B2D64657369676E2D7061636B6167652E786D6C504B010214001400060808000C6C9440D486FD9CA0000000F40000001300000000000000000000000000B20000005B436F6E74
310
656E745F54797065735D2E786D6C504B010214001400060808000C6C9440C236F730EB0000007C010000080000000000000000000000000083010000636F72652E786D6C504B010214001400060808000C6C944055019EA25F0000007C000000070000000000000000000000000094020000636E782E786D6C504B01021400
310
1400060808000C6C9440005E8A3D67010000020300000C00000000000000000000000000180300006662782F636F72652E786D6C504B010214001400060808000C6C94406E9DB5C07D0000009D0000000B00000000000000000000000000A90400006662782F636E782E786D6C504B010214001400060808000C6C94406FE8
310
C9B62C0100001502000031000000000000000000000000004F0500006662782F38414132464136422D433537432D344131312D414142312D4441464130334243444546452F636F72652E786D6C504B010214001400060808000C6C9440FA9429C354010000330300003000000000000000000000000000CA0600006662782F
310
38414132464136422D433537432D344131312D414142312D4441464130334243444546452F636E782E786D6C504B010214001400060808000C6C9440FD6C7AB1630700009A1B000034000000000000000000000000006C0800006662782F38414132464136422D433537432D344131312D414142312D444146413033424344
310
4546452F6F626A656374732E786D6C504B010214001400060800000C6C94400000000000000000000000003500000000000000000000000000211000006662782F38414132464136422D433537432D344131312D414142312D4441464130334243444546452F76657274696365732E62696E504B010214001400060808000C
310
6C9440F270F13306000000040000003600000000000000000000000000741000006662782F38414132464136422D433537432D344131312D414142312D4441464130334243444546452F747269616E676C65732E62696E504B010214001400060800000C6C9440000000000000000000000000370000000000000000000000
310
0000CE1000006662782F38414132464136422D433537432D344131312D414142312D4441464130334243444546452F617474726962757465732E62696E504B010214001400060808000C6C9440D5987DFC8F000000410100003600000000000000000000000000231100006662782F38414132464136422D433537432D3441
310
31312D414142312D4441464130334243444546452F6469726563746F72792E786D6C504B010214001400060808000C6C9440D19DD9A8FD000000A00100003B00000000000000000000000000061200006662782F38414132464136422D433537432D344131312D414142312D4441464130334243444546452F7265736F7572
310
6365732F636F72652E786D6C504B0506000000000E000E00800400005C1300000000
  0
XRECORD
  5
17
102
{ACAD_REACTORS
330
12
102
}
330
12
100
AcDbXrecord
280
     1
270
     1
271
     1
  0
XRECORD
  5
16
102
{ACAD_REACTORS
330
12
102
}
330
12
100
AcDbXrecord
280
     1
270
     1
271
     1
  0
XRECORD
  5
18
102
{ACAD_REACTORS
330
12
102
}
330
12
100
AcDbXrecord
280
     1
270
     1
271
     1
  0
XRECORD
  5
15
102
{ACAD_REACTORS
330
12
102
}
330
12
100
AcDbXrecord
280
     1
270
     1
271
     1
  0
XRECORD
  5
38F
102
{ACAD_REACTORS
330
22
102
}
330
22
100
AcDbXrecord
280
     1
102
MATERIAL
148
0.0
149
0.0
149
0.0
 93
        0
 94
      127
282
     0
 72
     0
 77
     0
171
     0
175
     0
179
     0
273
     0
  0
XRECORD
  5
24
102
{ACAD_REACTORS
330
22
102
}
330
22
100
AcDbXrecord
280
     1
270
     1
271
     1
  0
XRECORD
  5
23
102
{ACAD_REACTORS
330
22
102
}
330
22
100
AcDbXrecord
280
     1
270
     1
271
     1
  0
XRECORD
  5
BA
102
{ACAD_REACTORS
330
22
102
}
330
22
100
AcDbXrecord
280
     1
 70
     1
 90
1959938040
 71
     1
  1
15BAD1D9-3A48-436F-B527-4E472D77B45A
311
504B03040A00000800000C6C94403DEE336E79000000790000001B0000006175746F6465736B2D64657369676E2D7061636B6167652E786D6C3C3F786D6C2076657273696F6E3D22312E302220656E636F64696E673D227574662D3822203F3E3C666F726D6174733E3C666F726D61743E687474703A2F2F736368656D612E
311
6175746F6465736B2E636F6D2F64657369676E2D7061636B6167652F323030393C2F666F726D61743E3C2F666F726D6174733E504B03041400060808000C6C9440D486FD9CA0000000F4000000130000005B436F6E74656E745F54797065735D2E786D6C7D8EC10E82300C865F65E91D8A1E8C310C0EEA1BF002731658846E
311
D98AC1B77784ABF1D8FE5FBFBF75BBCE937A534CCEB38643598122B6FEE978D0B0485F9C41B54DDD7D022595594E1A469170414C76A4D9A4D207E29CF43ECE46F218070CC6BECC4078ACAA135ACF422C856C0E68EA1BF5669944DDD7BCDE7B1F8E415D77AECB980613C2E4AC91FC167A2B244592486606FC29C8FD7F045B9A
311
EF7053A7E60B504B03041400060808000C6C9440476925E1EA0000007C01000008000000636F72652E786D6C8D90416EC3201045AF82668F0D98D68E8589624739412F8030715162B00C543D7E71E248EDAEAB19FDF96F66F4C5F17BBEA32FB306EB5D07B420808CD37EB46EEA20C52B6E001DA558BD8FBF6C809C9A4D079B
311
0C524CAB4FCB2E69EFA27131ABCE8F661755082602D2F7DC7410F4A79955A152CC8E702B16A56F6A32057D75194EC98EE879C48E799FBD5AB382E497437D1EFA1EB3BE21980FEF67DCF013C59C5E0E6FC389D443DD887283A588767EDDD7AB51D18C2019A10C138E19F9A0555BB196714C9A9610516EF63F505AC67F42C9BA
311
58B1FDDD271640D2FCC8632045B96591CB23A85CB7DCE40F504B03041400060808000C6C944055019EA25F0000007C00000007000000636E782E786D6C4DCB3B0E80201045D1AD90E915ED2CF8AC45050C11660C8261F98AB1B07AC9C97D42D718D865D3E909258CFD00CCE24AC6E326A164D74DC0B4128928FF326038472B
311
A13128B1252AC747C6BAB984FC68F0B87FE8960A5C09FE86CFB69FBA01504B03041400060808000C6C9440213200EE66010000020300000C0000006662782F636F72652E786D6C8D52ED8E8230107C95A6FF4B0B7227674A8D627C827B810A956B84969496F8F8B77C18CF8B3186A434333BBBB3037C7B6D1B3428D76B6B72
311
1C470C23654A5B6953E738F833C930DA0AEEACF57FCA3032B255391E612C78ED6CE816A8B4C62BE30135B6520B28FB5E798CCA062E39EECB1FD5CA48060F15FD25EA647991B58AE20868A813BCF70E0CA079C87862713E5D399D71C143D0D5C2EA0AA6E9B3560E8BF4F8B53E14FB3D49F6192369F1792059BA8B491A1FBF3E
311
8A1D5B17EB8CD3512CB8D7EDCD5DE994F4AAC222617142584A12F61DAF36AB6493A484651BC6381DCB1F44A1ABDE14056DFC2A59ECCEB21E8B188C4CC4BF6D21228F7A39801F2A381D4384D794F063D0100884ECE5A9B9ED71016850A5B72E05A6B2E14E0DB2090AA632343D9CCE2C749E1AC0664FFB242FFABCEE011F509A
311
1AAC490FD753F0E3743E4F5DA2E8942383BF22635D2B9BBBB9D9E2FDBC0F7A2A2F6D63DD3B6ABAAC4A9730E9F8F78A5F504B03041400060808000C6C9440BF6DB9957E0000009D0000000B0000006662782F636E782E786D6C4DCCD10A83201886E15B91FFDC65B589821AE9D67DC4B290990EA76397BF1A1DECE883878F57
311
749FD5A3B74D2F178384FA4400D9708F930B8B849267CC00754AA418F3DF0D5018572B6167506249B13C0F9AEC3C169F37F52E3C0E34D7DA0C4DCB30ED758DCF845EB0D69CE0C1B40DA7CCF05BCFA152A2FA95B6DDC3EA0B504B03041400060808000C6C9440B246913A2D01000015020000310000006662782F4344314346
311
3233382D364142312D343036352D424239302D4643333239363843394541392F636F72652E786D6C8D51CB6EC32010FC15C4293D60F3705C3BC24489DB7C417F806292A2C460F1A8F2F9C5B523B5B75C58343B333BDAE5FBFB7803DFDA07E36C07498121D056B9C1D84B07533CA30682BDE0DEB9F887068195A3EEE00C43C1
311
2FDEA5698594B351DB9851EB06BD8232041D2150B7FCE960505F7A94854C3133C2B598A4BACA8B2E4891DB992778883E0700CB90F985A27F23FD89B206D587234115AEB7E8786C313AF58CB675D3B7EF8796978B50F094CCB0CACD90E398B3D1FE5993592C7834E323BEF25A463D404131A1085788E20FC2768CEE688570B3
311
C3989733FD9F284DC393A2646C64748DBBC8021484974B43F0C1A5CFDB238CBE4FCE4730CFDB04AD5EA0C005C6AFAC22AC61BC5CB87903D9B4AE56D3109DCF1BDE5C3F339D6C17E7BA12BC9C8F94CBEF05739D0F2A7E00504B03041400060808000C6C94409D2662A54C01000033030000300000006662782F434431434632
311
33382D364142312D343036352D424239302D4643333239363843394541392F636E782E786D6CD593CD6E022114855F85B09F5F27C6180613177D822EBA65E0AA540626FC34F5ED7B51B46E5C74D90D999C7B38E7E60BC376DFB3215FE0837676A45DDD5202563AA5ED71A4291EAA0D253BCEBC73F1C9468915338C34CB94B3
311
A37769299282834826A26AB43D17D14370C94B0828E79BC438290C0680AD128A304FA01428F230E2D7013CAE82E27421F104E46DFF41DCF4093206D6E414CE9ADCC1593E4BD3938912694408230DF204B3A8458A4E4138D74A445177F5BDEBC54EBF49245FB85726AF492E1F693E292F1BD5C8913538E42C448FF48A295E16
311
A05C2C8BD1524484DC5C8D370F6749DBB81E8A5723788FEE6EBD1A060CBBCE388B7A86E2901E44044579DF767DD50E55DFBE77ABEDAADFF643D56EB66DCB9A6CE76C72CE944B1803DE2D443A1BC146CA3BD6E4F12B7CC54794F6C8DAF9CB1F402280D27AA3F3C8F8CF7C9AEBFB465C1EFF02FE03504B03041400060808000C
311
6C94405BBC0F97A305000080100000340000006662782F43443143463233382D364142312D343036352D424239302D4643333239363843394541392F6F626A656374732E786D6CAD575B8F9B3814FE2B887DD97DC88524735B315499A45345D5B455A356FB1029326018EF188C6C3393D95FBF9FC10448936976D59710CCF1
311
F139DFF9CEC5FEBB5DC69D672A1513F9ADEB0DC7AE43F348C42C4F6FDD5227836BD77917F85208DD11739D9C64F4D635CB6EE0A75294855D8A69424AAE0F56EFEFFE72544473EA3A11274ADDBA2A7AA4191992528B98AAA7614C3419A6C96EE80D6BC1BEDA5492E2F140694124CD352CC57A0E2D4E6D94D77F1DBBA3C01F99
311
EF816F7EADD4F4B4D4A8F2A77F3ECB952679F4C361076AA6DE6CF97E727133B898CDA683D9E5C41BDCDDDF2D07DED574BCB85C2C6EE6EF6F70B0D2129AAC2592266EF001D84816F9A3FA53E0972CD7D38915B1011A49FACC4CA4DC60E278FEA896D97B679D3C667E24F29C46155640A3F2CFAA8E6941F318316754C1B20E42
311
E3FEAB6770EC7C9E9A777B6477F93C04BA3B3A8A1ADB9B67D75211FE0D17D4390C928A1A06D6585A476BAE8E5B844321B8FDC69493114D2523DCE12C9444BEBA01448D48E0F7D418264B930DC603374014EACF7DBA208D7ECEF363562625E786C66E5065C116B942B5AA2C63FF50D95ADF4506362156860DD7D621FD5A5037
311
B8A929727DC0A61A4827E12445C8E1A6D9399D1C38BA3079BA5ABAC1C7FB70B736B97BFCF0428A824A6DE8036A35816B9E06256B937756E4CC06F7C0941694AF40FE1352BD350571936C37DBCDEC295A925C254266888D33760663FC8C1DAFFA35FF3BFFFCD17E733F7AA7F044B00D54BF00CFBE0FDD5876E00CFC67105EC8
311
A9756D1D118EB2F1C072006448E2708125D4E124DCB9C10A550E5519BB080F3CB80C739FF1D71F59352814D5499D670E2C0FCAE219051AB0558C841935F9AD816D9C7E2867D5C156EC14BC17BF84AEF3E5FAE3BA940989E883CDE9254D58CE345A5CCB9BAE413DCC7B1E3DD1D717216338FA23DEEB2EDE993D4A016D83B901
311
3E6D6ABA79694FEE1D10615F2A4CB9F17F72029C308DB5A3FF81A988724E722ACAE6DC37FB07DA460DB14976C3E47D83691B0B48537F39C84134E948B2C280B8EF56FBA2393CE1DDB7D5273012F25C8484B742615B7A23C185DC86AFDBBA2A1D45FA7B9FDA168291D102B65739D2A4BFC57C1BB32429156AE01158BFAF16DD
311
D099AA800AD168AD936506F7915B445ACE367AD1AC25412315F996A16D22ED8E1ED0D50F442D012A85A72C5694275BC679996D13C6D18CB619294EC0F1FFED0FCBACD8924C94B93EA1BB673A9A43DFF61E79D50BD1D1A31BACABE7E00EA537A6711BE69EB0692547B0EA87F6E26EBEF4963783E97C763D984D2FEF07771793
311
ABC1ECFDEC6AB2BCBABA9B5DCC9B38A96A860AFCA6D374131A514267F34BC96CF8BEAD903EB606B8C103D16AF3A1CECEE6F96D35C428EC8FB007ED72BF711E3F63ECA3F1CF15B4924715ADB282D38CE69A98147A307FF8578231A3674CBDBECA484ACFD0F2F9C3FAC019AC9CB1EF8B4977FA72B0D7AE2E4C421E55A21FCB2C
311
CC09E3071BD31AC96191A716BF2626FB67DD679A57F3660383C15409CE6294C1D849A9C8A846313CA307C98C2A50AF3BD2C7F6EA71C6EEE77A40D424E4B4B1E4916046E60A69016A9591EEAF3BBF61A63363D5AD8B6E3B7CC28FAD14AE03CEDCBA98D1358BA81A86E8CF6612AA94834BDD411E9C2579CA316AD79BF6EFFB5D
311
069B5E47DE8B9C333E59BFEA0A6E1D4019293036601E42742A6302BFB2CD7E8FFE93E38D390ED1F81B967AEF4BBBB077A63A06295A3B652F0B98619EECD13B24EADB6E79C34AA687C85997AC3749506B1D6822D3EAA260ECB326CD975F4618509CD567A7E0658A589EAF692029C85C9A04078BC00AABB3201A545DFCB9F922
311
052EB29973CF4001E7F7DDF5E51F9B85C83291D74B9BB9BD0E3BEB475C6EE30D8A0335B712B5998CBDC9A6BA0DD80BCA36248A0E49AC9EB080C84AB607BA177EF0B2BE327A10B2E1B7911899501C3074B5746C639BB5F2DDDA6AC0C1DC91530739646E942663BA02C59B178251250A532546F9E05F504B0304140006080000
311
0C6C9440000000000000000000000000350000006662782F43443143463233382D364142312D343036352D424239302D4643333239363843394541392F76657274696365732E62696E504B03041400060808000C6C9440F270F1330600000004000000360000006662782F43443143463233382D364142312D343036352D42
311
4239302D4643333239363843394541392F747269616E676C65732E62696E636660600000504B03041400060800000C6C9440000000000000000000000000370000006662782F43443143463233382D364142312D343036352D424239302D4643333239363843394541392F617474726962757465732E62696E504B03041400
311
060808000C6C9440D5987DFC8F00000041010000360000006662782F43443143463233382D364142312D343036352D424239302D4643333239363843394541392F6469726563746F72792E786D6C858F410EC2201045AF4266AF15DDB800BA74E7C21B903225242D6328188F2FA5C4183471359997F9FF81E89FF3C41E1816
311
475E02DF1F80A11FC8386F25A438EECEC07A250251FC3803E6F58C12560C4AD840E95E91C151A72936F496F35732D860FE635F62C8F2DA16B505C545B74125BAA2FA9E05D7CC053D063734D5C7665FD55B6B8D15D5E9BFEAFD8490FFA45E504B03041400060808000C6C94402F8378D0FD000000A00100003B000000666278
311
2F43443143463233382D364142312D343036352D424239302D4643333239363843394541392F7265736F75726365732F636F72652E786D6C8D504B6E833010BD0A9ABDC136B490C838224439412F6099496225D8C89FAAC7AF49A8D4EEBA9919BD8FE6E989C3D7FC283ED107E36C0FACA450A0D56E32F6DA438A17D2417190
311
C23B177FC9A0B06AC61E5618A4B87A97960DD2CE46B431A3D64DB8812A048C50E8473E7A08FA86B32A558A5911EEE5A2F45D5DB16465A6B34E8A107D0E50BC9EAC13A4C7E092D71844F562A548C94C9BC64CF9A7B918F4209BF3AE3D8DC781F063474933BE9F48D70C8C34ECBC7B1B07DA8E6D27AAD52C4534F34F46ED5145
311
9C4072CA38A10DE1F483D5FB9AEF794368B7A75454ABFC8F292DD33F4DC9D858F32DEECB1640B21CE4494851AD7DE5F52C33EFB55BF90D504B010214000A00000800000C6C94403DEE336E79000000790000001B00000000000000000000000000000000006175746F6465736B2D64657369676E2D7061636B6167652E786D
311
6C504B010214001400060808000C6C9440D486FD9CA0000000F40000001300000000000000000000000000B20000005B436F6E74656E745F54797065735D2E786D6C504B010214001400060808000C6C9440476925E1EA0000007C010000080000000000000000000000000083010000636F72652E786D6C504B0102140014
311
00060808000C6C944055019EA25F0000007C000000070000000000000000000000000093020000636E782E786D6C504B010214001400060808000C6C9440213200EE66010000020300000C00000000000000000000000000170300006662782F636F72652E786D6C504B010214001400060808000C6C9440BF6DB9957E0000
311
009D0000000B00000000000000000000000000A70400006662782F636E782E786D6C504B010214001400060808000C6C9440B246913A2D0100001502000031000000000000000000000000004E0500006662782F43443143463233382D364142312D343036352D424239302D4643333239363843394541392F636F72652E78
311
6D6C504B010214001400060808000C6C94409D2662A54C010000330300003000000000000000000000000000CA0600006662782F43443143463233382D364142312D343036352D424239302D4643333239363843394541392F636E782E786D6C504B010214001400060808000C6C94405BBC0F97A305000080100000340000
311
0000000000000000000000640800006662782F43443143463233382D364142312D343036352D424239302D4643333239363843394541392F6F626A656374732E786D6C504B010214001400060800000C6C94400000000000000000000000003500000000000000000000000000590E00006662782F43443143463233382D36
311
4142312D343036352D424239302D4643333239363843394541392F76657274696365732E62696E504B010214001400060808000C6C9440F270F13306000000040000003600000000000000000000000000AC0E00006662782F43443143463233382D364142312D343036352D424239302D4643333239363843394541392F74
311
7269616E676C65732E62696E504B010214001400060800000C6C94400000000000000000000000003700000000000000000000000000060F00006662782F43443143463233382D364142312D343036352D424239302D4643333239363843394541392F617474726962757465732E62696E504B010214001400060808000C6C
311
9440D5987DFC8F0000004101000036000000000000000000000000005B0F00006662782F43443143463233382D364142312D343036352D424239302D4643333239363843394541392F6469726563746F72792E786D6C504B010214001400060808000C6C94402F8378D0FD000000A00100003B000000000000000000000000
311
003E1000006662782F43443143463233382D364142312D343036352D424239302D4643333239363843394541392F7265736F75726365732F636F72652E786D6C504B0506000000000E000E0080040000941100000000
310
504B03040A00000800000C6C94403DEE336E79000000790000001B0000006175746F6465736B2D64657369676E2D7061636B6167652E786D6C3C3F786D6C2076657273696F6E3D22312E302220656E636F64696E673D227574662D3822203F3E3C666F726D6174733E3C666F726D61743E687474703A2F2F736368656D612E
310
6175746F6465736B2E636F6D2F64657369676E2D7061636B6167652F323030393C2F666F726D61743E3C2F666F726D6174733E504B03041400060808000C6C9440D486FD9CA0000000F4000000130000005B436F6E74656E745F54797065735D2E786D6C7D8EC10E82300C865F65E91D8A1E8C310C0EEA1BF002731658846E
310
D98AC1B77784ABF1D8FE5FBFBF75BBCE937A534CCEB38643598122B6FEE978D0B0485F9C41B54DDD7D022595594E1A469170414C76A4D9A4D207E29CF43ECE46F218070CC6BECC4078ACAA135ACF422C856C0E68EA1BF5669944DDD7BCDE7B1F8E415D77AECB980613C2E4AC91FC167A2B244592486606FC29C8FD7F045B9A
310
EF7053A7E60B504B03041400060808000C6C9440DCC9BEA2EA0000007C01000008000000636F72652E786D6C8D904D6EC3201085AF82668FCD8FEB500B13B56972825E0061E2A0C46019A87AFCE2C491DA5D57337AF3BE99D193FBEFE986BEEC125DF03DD08A00B2DE84C1F9B1879CCE5800DA2BB984907ED900793DD91E56
310
19941C9790E74D32C127EB53517D18EC26EA186D02646EA5E9219A8B9D74A5732A8E78AD666DAE7AB4157D7605CED90DE871C40D659F3B3BBB80E2E4831D5F5E5BBCA307819B5DDB62D1B4EFF87468283F8A13276F42D62BAC6472D3F3BE59AC4E7600C50865983498914FCA3BCE3AD660223A4264BDDAFF40791EFE0965E7
310
1367DBBB0F2C82A2E591FB40C97ACDA2947B50A5AEB9A91F504B03041400060808000C6C944055019EA25F0000007C00000007000000636E782E786D6C4DCB3B0E80201045D1AD90E915ED2CF8AC45050C11660C8261F98AB1B07AC9C97D42D718D865D3E909258CFD00CCE24AC6E326A164D74DC0B4128928FF326038472B
310
A13128B1252AC747C6BAB984FC68F0B87FE8960A5C09FE86CFB69FBA01504B03041400060808000C6C9440EFEA0C8766010000020300000C0000006662782F636F72652E786D6C8D525B6E833010BC8AE57F63F328A19171D4A6C9097A01071C8A02363236CAF1BB3C229A2A8A222463CDECECCE0EF0DDB56DD0A06C5F1B9D
310
E3306018295D98B2D6558EBD3B930CA39DE0D618F7A70C232D5B95E311C68257D6F86E810AA39DD20E506D4AB580B2EF95C3A868E092E3BEF851AD0CA47750D15F824E161759A9200C80863AC17B67C1009A878C2716E7D395D31917DCFBBA5CD8BA8469F5B956168B987D4587B7F7946CC27D46924D9A922C493FC9719F84
310
F1213BC6EC23E374140BEEEAF6E6AEB04A3A556211B130222C2111FB0EE36D1C6DA384B06CCB18A763F99DC877E58B225F6B17478BDD59D66311829189F8B72D44E4502F07F04305A76388F09A12BE0F1A0281909D3C35B73D2E000DAA70C626C094C6AFD4201BAF602A43D3C3E9CC42E7A9016CF6B04FF4A4CFF31EF001A5
310
AEC09A74703D79374EE7F3D4258A4E5932B82BD2C6B6B259CDCD16D7731DF4505E98C6D857D47459952E61D2F1EF15BF504B03041400060808000C6C944061B9C35F7E0000009D0000000B0000006662782F636E782E786D6C4DCCDF0A83201C86E15B91DFB9B5FC331DA8C16ABB8F581632D3613A76F9ABD1C18E3E78F878
310
55FB593C7ADBB4BA183434D509900D8F38BA306B2879C212506B548A31FFDD008561B11A7606A3E614CBEBA0D14E43F17953EFC2F3404A444F3BC931174460D6108E2FD71BC7928A7B27183F939E416D54FD2B6DBB87CD17504B03041400060808000C6C944041FBAED52B01000015020000310000006662782F3332374433
310
4338352D353732372D343132352D394245352D3833374643373435363244342F636F72652E786D6C8D51CB6EC32010FC158B537AC0C6808D1B61223569BFA03FE000715162B07854F9FCE2DA91DA5B2E2C9A9D991DEDF2C37DBA15DFDA07E36C0FEA1281425BE994B1630F52BCC00E1407C1BD73F10F0D147698740F161808
310
3E7A97E60D92CE466D6346AD537A038710740485BCE54F0F82FCD2D3500E296646B896F320AFC3A8CBBACCEDCC133C449F0314EB90E50582607622C7AE810DC30CD21A37F0F5EDBD811D611F47469B169F28AF56A1E02919B5C98DCA71CCC568FFACC922163C9AE9115F7A3D44AD80C0A8C6105188D1674DF604EF3185A8DB
310
23C4AB85FE4F9466F5A428191B09DEE2AEB20044CDABB521B872E97C7B84D1F7D9F9582CF37641CB17205089106B1922B8E5D5CACD1BC8A62DDD4C43743E6F78773D673AD99C5B2A78B51C2997DF0BE6BA1C54FC00504B03041400060808000C6C9440FB81ADB25301000033030000300000006662782F3332374433433835
310
2D353732372D343132352D394245352D3833374643373435363244342F636E782E786D6CBD93CD6EC32010845F0571F7BF15591126520F7D821E7AC5B04968305880ABE6EDBB2424CD25874A552FC89A1D66569F30DB7DCD867C820FDAD99136654D0958E994B68791AE715F0C94EC38F3CEC5071B2556CC30D22453CE0EDE
310
AD4B9614ECC56A22AA46DB53163D04B77A0901E57493182785C100B0C58A22CC1328058ADC8DF8B5078FABA0389D493C02797D79276EFA001903AB520A6755EAE02C9DB9E9C14489342284910679845994628D4E4138954A445136E5ADEBC94E3F49245DB855AE5E93543ED274529E372A9123AB70C859881EE965533C2F40
310
B95816A3A58808B9BA18AF1ECE566DE3A6CF5E8DE03DBABB76330C1876997116F50CD9213D88088AF2B66EDAA2EE8BB67E6BBA6DD76EDBBEA8876D5DB32AD9399B9C33F912C680770B91CE46B091F2865569FC0C5FF611A53DB276FEFC0B900820B75EE9DC33FE924FB3E9FAFE1FF95497F78DB83CFE05FC1B504B03041400
310
060808000C6C94407D656CA962070000991B0000340000006662782F33323744334338352D353732372D343132352D394245352D3833374643373435363244342F6F626A656374732E786D6CED595B739B3814FE2B0CFBB2FB606C7CC96587B093C44DC7D349DBA9B79D7DF00C23834CB4118291449AECAFDFA30B188849F0
310
36FBD6071B10D2D139DFB9EA10FCF19851E70173417276E1FADEC475308BF384B0F4C22DE56E74E63A7F8401CF73D998E63A0C65F8C255C36E18A43C2F0B3B94E01D2AA9EC8CDE5CFDE5881833EC3A3145425CB822BEC319F25029F3048B7B2F411279E9EED1F33D33B14D36E5A8B8EB102D10C74C02A730CE808A6398F2DB
310
8F13771C0663F53E0CD4BF9D351B346BDE3F6BACA56E7349989088C5CF58EA90990D6269E6CF97EFA68BF3D1623E9F8DE627537F747573B51CF9A7B3C9F5C9F5F5F9E5BB73606F9BE7D4CA94E002B304F4F7E4867E30566F6AD12D0287B88E73C670AC8104A8B4585D82040BD8AA01DFA4FDE82B891AAFB5848DE7B97A6F59
310
680CCFDA54FA660D03A2451704B1DB551257D7A67CF9F66F105C0C314A2EB0046E85E4A05D0B0F07AF70C3493036A361B0DDEB82082743127382A843C996230E4A81A96A4A189805968C720E0EA41C2581D69C79DDB62DF0CCD75DE71097BB9252E5196EA81D2B02F7C35268CEC83F98EFB96F22033C81B42561F2CC72299F
310
0AEC86E7C1580F8681BACCA6F6A501D2D951940A8D8879DB11F45AB9FE6AE9861F6EB68F6B150E0E6F5EF0BCC05C2AA3537AD47C8121DBAB42C96EEB0FD29C5A00C21850EDCA3D285F00F98F103DF6AC80DE38799C3FCEED5CC91113BB9C67A01B67E28C26F037717CFDAFEE1B77C1B85EDCD65E1F9EE0A60AAAB31FC7B32D
310
83C6CAF2DF80330C1EC0E0733EB3AFD631A260CFB7840140CA481C9AC31084F6DDF6D10D57103821D0C32A44431F4406761FE036185B327BAD54EE65BD8E01A2768FD91025016CDA22818D1E3DBD87ECC149BC575353C43E78176F62AE97CBF58775C97728C6B7D6A7977847189190350F33D4C2BC25D13D7EFA9EF304047D
310
8EF7BA897766B71280B6C25C019F5620A887FDCEAD0D625897E62ADC04AFEC0042A85CDDA07F4B448C29450CE765B56F1DDD94A1D61E6F6B06379C1A8867D38E0973FC405455014EB39FD16214F27ECC49A14074C3F746B23A687A3DD27D5D7D048BACE7F7CC5A3108BD0CD13F75D03A8043CBB22BA42D10B5C0DB7D388F73
310
9AF368FB149948E7422D016CB4BDE55B8B28C47AA32445053C48FB5D155252236D9490DDAE1410570FB0F86D75DD34878937F3174EF3BFE38C7388B6E0BB885BBFEBEC11910CA538DAA1A46FBBE66E356DA149F690E67847412EF240E45384643449707A0C3447113F7F53EA29CD85200C0BC85707C16FA231F12090186D56
310
2C2BAD76802622CAB044F4180414991E7075DAD1356E0CA5C3EB3CD6D6FB92C69A44FF278BE0086AC99C45044A51C821AF32EE7B0B88216D740DCA1D7CC1DA2ADA5A0C5A4209113F45DF3149EFE431A81BF23DB8C77024296594172806B31E40F699AF28A57678DFA2F85EE58F282EE95B1988C07417114ACB2C821F6170F2
310
18E2DA75607A1185067113FB24CEA02843B2E4433639594C9EED636A866E086C6CB42314C27694A1A207F55640D4F58853836FA9F728755B664584B2BC64830CC59B75BDC992EFAA55911DC8AF2A15A16CAC085B82614098ACB36A15B3C1D475600537D281EA2912282BA83985BD9278FCDA9B34E5DE0DB8F5D3B7DD2083C2
310
AF477BCD883AAF60B03CB60A03F11DC9F8CE0DD7FA3ABA82FA3BC1C93ED557B566B30204C454242F39B12AFABA82F2C6D6686E788BA4D8BC3759B7BA7E5D79D0FD08C6B0066A977AE14A019D612691AA4C6ED50DFD822004B76898F195CAA9C750B94C125D35227A43FAD4D92A235A9B66C42BEE30CB33F8B10D61312D13BC
310
4189B88F6E258DD644B16EA5F4325261FCA2809FDEAF3BF0C0C800913EAB020F7FEFACB5A3D7AA5C3A4844DE95D996210241B0255A6A74E3152CB51AA9B45C5FD59902EA2E3030ABE2F9CF9345B31DF1F364915AC3F8B19305CDB788EEA34D239BC7CAAC8F3A05D4E94951798B5380EE3AD454EB246272B915DFFA520431B1
310
0AF2838BB12A6618827D1CFFE7A4DD9704CD761DFE8F4BDAFEB382E3A8A4D29AAC9A54070AD7553385F98BABCBA5BF3C1FCD2EE767A3F9ECE46674B5989E8EE6EFE6A7D3E5E9E9D57C7159A3A9FD340CEA58A653173C9B98560DAB278B013465454E490287F9C44931847C0947FA01DD739E6101B9B3D9EB4E6C4F7EC0EA07
310
D3E694684B71C5C91D82FE301590D585E4652CDBE3CE2FD0999470CEBE70A167E4DDC39FB54AD781C473E142A74092180B6F0B5D26D5CFD3C421E3EAD46F89013E88A52A239A45F573BD4A61D38AFEF5942159C0CAD56A6140DD5640F3ABD5A0D0BC599EE2A304AFD8719084DB6D29A15833B2EC076A61F4367BF51BD92861
310
F776EB4770DD97C5F23D3DA785C8A02F062F1A81A13A9288A7BADDAD18B32C5D2E3F8FA1CDE6AC3E39052D53D0E5704A238EC1984B554F81158155589A059260AAD7BF6F3EF31CBEF0648E2E8A9C5F1FCF4E7EDB5CE759963333B4B984435902DF899CF51D7CF54936503B60D55B179BE9C49F6E744FDBB6D9A32D12D85345
310
110C54B58412A463726097CFFA53B67B3956AAE84C5F2D1D1B44A11760ECE8598BD77CE372C087D4D714E531DACF2B695F6C6B8FF554B0090E0DE9F05F504B03041400060800000C6C9440000000000000000000000000350000006662782F33323744334338352D353732372D343132352D394245352D3833374643373435
310
363244342F76657274696365732E62696E504B03041400060808000C6C9440F270F1330600000004000000360000006662782F33323744334338352D353732372D343132352D394245352D3833374643373435363244342F747269616E676C65732E62696E636660600000504B03041400060800000C6C9440000000000000
310
000000000000370000006662782F33323744334338352D353732372D343132352D394245352D3833374643373435363244342F617474726962757465732E62696E504B03041400060808000C6C9440D5987DFC8F00000041010000360000006662782F33323744334338352D353732372D343132352D394245352D38333746
310
43373435363244342F6469726563746F72792E786D6C858F410EC2201045AF4266AF15DDB800BA74E7C21B903225242D6328188F2FA5C4183471359997F9FF81E89FF3C41E1816475E02DF1F80A11FC8386F25A438EECEC07A250251FC3803E6F58C12560C4AD840E95E91C151A72936F496F35732D860FE635F62C8F2DA16
310
B505C545B74125BAA2FA9E05D7CC053D063734D5C7665FD55B6B8D15D5E9BFEAFD8490FFA45E504B03041400060808000C6C9440B423E393FD000000A00100003B0000006662782F33323744334338352D353732372D343132352D394245352D3833374643373435363244342F7265736F75726365732F636F72652E786D6C
310
8D504B6E833010BD0A9ABDC13624A1C8386AD3E404BD806526C44AB0913F558F5F13A8D4EEBA9919BD8FE6E989E3D7F4283ED107E36C0FACA450A0D56E3076EC21C52B69A1384AE19D8BBF64505835610F0B0C528CDEA57983B4B3116DCCA875036EA00A012314FA918F1E82BEE1A44A956256847B392B7D572396ACCC74D6
310
4911A2CF018AF5C932417A0C2E798D41542B2B454A66D83466C83FCDD5A00759D3777EDEBDECC8819D5AD21CF67BD236FB37723935AC3EB7979ABEB6A25ACC524433FD64D41E55C40124A78C13DA104E3F58DDD5BCE30DA16D47A9A816F91F539A877F9A92B1B1E65BDCD51640B21CE44948512D7DE5F52C33EFA55BF90D50
310
4B010214000A00000800000C6C94403DEE336E79000000790000001B00000000000000000000000000000000006175746F6465736B2D64657369676E2D7061636B6167652E786D6C504B010214001400060808000C6C9440D486FD9CA0000000F40000001300000000000000000000000000B20000005B436F6E74656E745F
310
54797065735D2E786D6C504B010214001400060808000C6C9440DCC9BEA2EA0000007C010000080000000000000000000000000083010000636F72652E786D6C504B010214001400060808000C6C944055019EA25F0000007C000000070000000000000000000000000093020000636E782E786D6C504B0102140014000608
310
08000C6C9440EFEA0C8766010000020300000C00000000000000000000000000170300006662782F636F72652E786D6C504B010214001400060808000C6C944061B9C35F7E0000009D0000000B00000000000000000000000000A70400006662782F636E782E786D6C504B010214001400060808000C6C944041FBAED52B01
310
00001502000031000000000000000000000000004E0500006662782F33323744334338352D353732372D343132352D394245352D3833374643373435363244342F636F72652E786D6C504B010214001400060808000C6C9440FB81ADB253010000330300003000000000000000000000000000C80600006662782F33323744
310
334338352D353732372D343132352D394245352D3833374643373435363244342F636E782E786D6C504B010214001400060808000C6C94407D656CA962070000991B00003400000000000000000000000000690800006662782F33323744334338352D353732372D343132352D394245352D3833374643373435363244342F
310
6F626A656374732E786D6C504B010214001400060800000C6C944000000000000000000000000035000000000000000000000000001D1000006662782F33323744334338352D353732372D343132352D394245352D3833374643373435363244342F76657274696365732E62696E504B010214001400060808000C6C9440F2
310
70F13306000000040000003600000000000000000000000000701000006662782F33323744334338352D353732372D343132352D394245352D3833374643373435363244342F747269616E676C65732E62696E504B010214001400060800000C6C94400000000000000000000000003700000000000000000000000000CA10
310
00006662782F33323744334338352D353732372D343132352D394245352D3833374643373435363244342F617474726962757465732E62696E504B010214001400060808000C6C9440D5987DFC8F0000004101000036000000000000000000000000001F1100006662782F33323744334338352D353732372D343132352D39
310
4245352D3833374643373435363244342F6469726563746F72792E786D6C504B010214001400060808000C6C9440B423E393FD000000A00100003B00000000000000000000000000021200006662782F33323744334338352D353732372D343132352D394245352D3833374643373435363244342F7265736F75726365732F
310
636F72652E786D6C504B0506000000000E000E0080040000581300000000
  0
XRECORD
  5
27
102
{ACAD_REACTORS
330
22
102
}
330
22
100
AcDbXrecord
280
     1
270
     1
271
     1
  0
XRECORD
  5
26
102
{ACAD_REACTORS
330
22
102
}
330
22
100
AcDbXrecord
280
     1
270
     1
271
     1
  0
XRECORD
  5
28
102
{ACAD_REACTORS
330
22
102
}
330
22
100
AcDbXrecord
280
     1
270
     1
271
     1
  0
XRECORD
  5
25
102
{ACAD_REACTORS
330
22
102
}
330
22
100
AcDbXrecord
280
     1
270
     1
271
     1
  0
XRECORD
  5
38A
102
{ACAD_REACTORS
330
389
102
}
330
389
100
AcDbXrecord
280
     1
102
ACAD_ROUNDTRIP_2012_MLEADER_STYLE
298
     1
  0
CELLSTYLEMAP
  5
388
102
{ACAD_REACTORS
330
334
102
}
330
334
100
AcDbCellStyleMap
 90
        3
300
CELLSTYLE
  1
TABLEFORMAT_BEGIN
 90
        5
170
     1
 91
        0
 92
    32768
 62
   257
 93
        1
300
CONTENTFORMAT
  1
CONTENTFORMAT_BEGIN
 90
        0
 91
        0
 92
      512
 93
        0
300

 40
0.0
140
1.0
 94
        5
 62
     0
340
55
144
0.25
309
CONTENTFORMAT_END
171
     0
 94
        0
309
TABLEFORMAT_END
  1
CELLSTYLE_BEGIN
 90
        1
 91
        1
300
_TITLE
309
CELLSTYLE_END
300
CELLSTYLE
  1
TABLEFORMAT_BEGIN
 90
        5
170
     1
 91
        0
 92
        0
 62
   257
 93
        1
300
CONTENTFORMAT
  1
CONTENTFORMAT_BEGIN
 90
        0
 91
        0
 92
      512
 93
        0
300

 40
0.0
140
1.0
 94
        5
 62
     0
340
55
144
0.18
309
CONTENTFORMAT_END
171
     0
 94
        0
309
TABLEFORMAT_END
  1
CELLSTYLE_BEGIN
 90
        2
 91
        1
300
_HEADER
309
CELLSTYLE_END
300
CELLSTYLE
  1
TABLEFORMAT_BEGIN
 90
        5
170
     1
 91
        0
 92
        0
 62
   257
 93
        1
300
CONTENTFORMAT
  1
CONTENTFORMAT_BEGIN
 90
        0
 91
        0
 92
      512
 93
        0
300

 40
0.0
140
1.0
 94
        2
 62
     0
340
55
144
0.18
309
CONTENTFORMAT_END
171
     0
 94
        0
309
TABLEFORMAT_END
  1
CELLSTYLE_BEGIN
 90
        3
 91
        2
300
_DATA
309
CELLSTYLE_END
  0
XRECORD
  5
3C0
102
{ACAD_REACTORS
330
334
102
}
330
334
100
AcDbXrecord
280
     1
102
ACAD_ROUNDTRIP_PRE2007_TABLESTYLE
 90
      512
 91
        0
  1

 92
      512
 93
        0
  2

 94
      512
 95
        0
  3

  0
XRECORD
  5
39B
102
{ACAD_REACTORS
330
39A
102
}
330
39A
100
AcDbXrecord
280
     1
102
RTVSPropertyOp0
 70
     1
102
RTVSPropertyOp1
 70
     1
102
RTVSPropertyOp2
 70
     1
102
RTVSPropertyOp3
 70
     1
102
RTVSPropertyOp4
 70
     1
102
RTVSPropertyOp5
 70
     1
102
RTVSPropertyOp6
 70
     1
102
RTVSPropertyOp7
 70
     1
102
RTVSPropertyOp8
 70
     1
102
RTVSPropertyOp9
 70
     1
102
RTVSPropertyOp10
 70
     1
102
RTVSPropertyOp11
 70
     1
102
RTVSPropertyOp12
 70
     1
102
RTVSPropertyOp13
 70
     1
102
RTVSPropertyOp14
 70
     1
102
RTVSPropertyOp15
 70
     1
102
RTVSPropertyOp16
 70
     1
102
RTVSPropertyOp17
 70
     1
102
RTVSPropertyOp18
 70
     1
102
RTVSPropertyOp19
 70
     1
102
RTVSPropertyOp20
 70
     1
102
RTVSPropertyOp21
 70
     1
102
RTVSPropertyOp22
 70
     1
102
RTVSPropertyOp23
 70
     1
102
RTVSPropertyOp24
 70
     1
102
RTVSPropertyOp25
 70
     1
102
RTVSPropertyOp26
 70
     1
102
RTVSPropertyOp27
 70
     1
102
RTVSPropertyOp28
 70
     1
102
RTVSPropertyOp29
 70
     1
102
RTVSPropertyOp30
 70
     1
102
RTVSPropertyOp31
 70
     1
102
RTVSPropertyOp32
 70
     1
  0
XRECORD
  5
399
102
{ACAD_REACTORS
330
398
102
}
330
398
100
AcDbXrecord
280
     1
102
RTVSPropertyOp0
 70
     1
102
RTVSPropertyOp1
 70
     1
102
RTVSPropertyOp2
 70
     1
102
RTVSPropertyOp3
 70
     1
102
RTVSPropertyOp4
 70
     1
102
RTVSPropertyOp5
 70
     1
102
RTVSPropertyOp6
 70
     1
102
RTVSPropertyOp7
 70
     1
102
RTVSPropertyOp8
 70
     1
102
RTVSPropertyOp9
 70
     1
102
RTVSPropertyOp10
 70
     1
102
RTVSPropertyOp11
 70
     1
102
RTVSPropertyOp12
 70
     1
102
RTVSPropertyOp13
 70
     1
102
RTVSPropertyOp14
 70
     1
102
RTVSPropertyOp15
 70
     1
102
RTVSPropertyOp16
 70
     1
102
RTVSPropertyOp17
 70
     1
102
RTVSPropertyOp18
 70
     1
102
RTVSPropertyOp19
 70
     1
102
RTVSPropertyOp20
 70
     1
102
RTVSPropertyOp21
 70
     1
102
RTVSPropertyOp22
 70
     1
102
RTVSPropertyOp23
 70
     1
102
RTVSPropertyOp24
 70
     1
102
RTVSPropertyOp25
 70
     1
102
RTVSPropertyOp26
 70
     1
102
RTVSPropertyOp27
 70
     1
102
RTVSPropertyOp28
 70
     1
102
RTVSPropertyOp29
 70
     1
102
RTVSPropertyOp30
 70
     1
102
RTVSPropertyOp31
 70
     1
102
RTVSPropertyOp32
 70
     1
  0
XRECORD
  5
3A7
102
{ACAD_REACTORS
330
3A6
102
}
330
3A6
100
AcDbXrecord
280
     1
102
RTVSPropertyOp0
 70
     1
102
RTVSPropertyOp1
 70
     1
102
RTVSPropertyOp2
 70
     1
102
RTVSPropertyOp3
 70
     1
102
RTVSPropertyOp4
 70
     1
102
RTVSPropertyOp5
 70
     1
102
RTVSPropertyOp6
 70
     1
102
RTVSPropertyOp7
 70
     1
102
RTVSPropertyOp8
 70
     1
102
RTVSPropertyOp9
 70
     1
102
RTVSPropertyOp10
 70
     1
102
RTVSPropertyOp11
 70
     1
102
RTVSPropertyOp12
 70
     1
102
RTVSPropertyOp13
 70
     1
102
RTVSPropertyOp14
 70
     1
102
RTVSPropertyOp15
 70
     1
102
RTVSPropertyOp16
 70
     1
102
RTVSPropertyOp17
 70
     1
102
RTVSPropertyOp18
 70
     1
102
RTVSPropertyOp19
 70
     1
102
RTVSPropertyOp20
 70
     1
102
RTVSPropertyOp21
 70
     1
102
RTVSPropertyOp22
 70
     1
102
RTVSPropertyOp23
 70
     1
102
RTVSPropertyOp24
 70
     1
102
RTVSPropertyOp25
 70
     1
102
RTVSPropertyOp26
 70
     1
102
RTVSPropertyOp27
 70
     1
102
RTVSPropertyOp28
 70
     1
102
RTVSPropertyOp29
 70
     1
102
RTVSPropertyOp30
 70
     1
102
RTVSPropertyOp31
 70
     1
102
RTVSPropertyOp32
 70
     1
  0
XRECORD
  5
3AF
102
{ACAD_REACTORS
330
3AE
102
}
330
3AE
100
AcDbXrecord
280
     1
102
RTVSPropertyOp0
 70
     1
102
RTVSPropertyOp1
 70
     1
102
RTVSPropertyOp2
 70
     1
102
RTVSPropertyOp3
 70
     1
102
RTVSPropertyOp4
 70
     1
102
RTVSPropertyOp5
 70
     1
102
RTVSPropertyOp6
 70
     1
102
RTVSPropertyOp7
 70
     1
102
RTVSPropertyOp8
 70
     1
102
RTVSPropertyOp9
 70
     1
102
RTVSPropertyOp10
 70
     1
102
RTVSPropertyOp11
 70
     1
102
RTVSPropertyOp12
 70
     1
102
RTVSPropertyOp13
 70
     1
102
RTVSPropertyOp14
 70
     1
102
RTVSPropertyOp15
 70
     1
102
RTVSPropertyOp16
 70
     1
102
RTVSPropertyOp17
 70
     1
102
RTVSPropertyOp18
 70
     1
102
RTVSPropertyOp19
 70
     1
102
RTVSPropertyOp20
 70
     1
102
RTVSPropertyOp21
 70
     1
102
RTVSPropertyOp22
 70
     1
102
RTVSPropertyOp23
 70
     1
102
RTVSPropertyOp24
 70
     1
102
RTVSPropertyOp25
 70
     1
102
RTVSPropertyOp26
 70
     1
102
RTVSPropertyOp27
 70
     1
102
RTVSPropertyOp28
 70
     1
102
RTVSPropertyOp29
 70
     1
102
RTVSPropertyOp30
 70
     1
102
RTVSPropertyOp31
 70
     1
102
RTVSPropertyOp32
 70
     1
  0
XRECORD
  5
3A1
102
{ACAD_REACTORS
330
3A0
102
}
330
3A0
100
AcDbXrecord
280
     1
102
RTVSPropertyOp0
 70
     1
102
RTVSPropertyOp1
 70
     1
102
RTVSPropertyOp2
 70
     1
102
RTVSPropertyOp3
 70
     1
102
RTVSPropertyOp4
 70
     1
102
RTVSPropertyOp5
 70
     1
102
RTVSPropertyOp6
 70
     1
102
RTVSPropertyOp7
 70
     1
102
RTVSPropertyOp8
 70
     1
102
RTVSPropertyOp9
 70
     1
102
RTVSPropertyOp10
 70
     1
102
RTVSPropertyOp11
 70
     1
102
RTVSPropertyOp12
 70
     1
102
RTVSPropertyOp13
 70
     1
102
RTVSPropertyOp14
 70
     1
102
RTVSPropertyOp15
 70
     1
102
RTVSPropertyOp16
 70
     1
102
RTVSPropertyOp17
 70
     1
102
RTVSPropertyOp18
 70
     1
102
RTVSPropertyOp19
 70
     1
102
RTVSPropertyOp20
 70
     1
102
RTVSPropertyOp21
 70
     1
102
RTVSPropertyOp22
 70
     1
102
RTVSPropertyOp23
 70
     1
102
RTVSPropertyOp24
 70
     1
102
RTVSPropertyOp25
 70
     1
102
RTVSPropertyOp26
 70
     1
102
RTVSPropertyOp27
 70
     1
102
RTVSPropertyOp28
 70
     1
102
RTVSPropertyOp29
 70
     1
102
RTVSPropertyOp30
 70
     1
102
RTVSPropertyOp31
 70
     1
102
RTVSPropertyOp32
 70
     1
  0
XRECORD
  5
3A5
102
{ACAD_REACTORS
330
3A4
102
}
330
3A4
100
AcDbXrecord
280
     1
102
RTVSPropertyOp0
 70
     1
102
RTVSPropertyOp1
 70
     1
102
RTVSPropertyOp2
 70
     1
102
RTVSPropertyOp3
 70
     1
102
RTVSPropertyOp4
 70
     1
102
RTVSPropertyOp5
 70
     1
102
RTVSPropertyOp6
 70
     1
102
RTVSPropertyOp7
 70
     1
102
RTVSPropertyOp8
 70
     1
102
RTVSPropertyOp9
 70
     1
102
RTVSPropertyOp10
 70
     1
102
RTVSPropertyOp11
 70
     1
102
RTVSPropertyOp12
 70
     1
102
RTVSPropertyOp13
 70
     1
102
RTVSPropertyOp14
 70
     1
102
RTVSPropertyOp15
 70
     1
102
RTVSPropertyOp16
 70
     1
102
RTVSPropertyOp17
 70
     1
102
RTVSPropertyOp18
 70
     1
102
RTVSPropertyOp19
 70
     1
102
RTVSPropertyOp20
 70
     1
102
RTVSPropertyOp21
 70
     1
102
RTVSPropertyOp22
 70
     1
102
RTVSPropertyOp23
 70
     1
102
RTVSPropertyOp24
 70
     1
102
RTVSPropertyOp25
 70
     1
102
RTVSPropertyOp26
 70
     1
102
RTVSPropertyOp27
 70
     1
102
RTVSPropertyOp28
 70
     1
102
RTVSPropertyOp29
 70
     1
102
RTVSPropertyOp30
 70
     1
102
RTVSPropertyOp31
 70
     1
102
RTVSPropertyOp32
 70
     1
  0
XRECORD
  5
3BF
102
{ACAD_REACTORS
330
3BE
102
}
330
3BE
100
AcDbXrecord
280
     1
102
RTVSPropertyOp0
 70
     0
102
RTVSPropertyOp1
 70
     0
102
RTVSPropertyOp2
 70
     0
102
RTVSPropertyOp3
 70
     0
102
RTVSPropertyOp4
 70
     0
102
RTVSPropertyOp5
 70
     0
102
RTVSPropertyOp6
 70
     0
102
RTVSPropertyOp7
 70
     0
102
RTVSPropertyOp8
 70
     0
102
RTVSPropertyOp9
 70
     0
102
RTVSPropertyOp10
 70
     0
102
RTVSPropertyOp11
 70
     0
102
RTVSPropertyOp12
 70
     0
102
RTVSPropertyOp13
 70
     0
102
RTVSPropertyOp14
 70
     2
102
RTVSPropertyOp15
 70
     0
102
RTVSPropertyOp16
 70
     0
102
RTVSPropertyOp17
 70
     0
102
RTVSPropertyOp18
 70
     0
102
RTVSPropertyOp19
 70
     0
102
RTVSPropertyOp20
 70
     0
102
RTVSPropertyOp21
 70
     0
102
RTVSPropertyOp22
 70
     0
102
RTVSPropertyOp23
 70
     0
102
RTVSPropertyOp24
 70
     0
102
RTVSPropertyOp25
 70
     0
102
RTVSPropertyOp26
 70
     0
102
RTVSPropertyOp27
 70
     0
102
RTVSPropertyOp28
 70
     1
102
RTVSPropertyOp29
 70
     1
102
RTVSPropertyOp30
 70
     1
102
RTVSPropertyOp31
 70
     1
102
RTVSPropertyOp32
 70
     1
  0
XRECORD
  5
3AD
102
{ACAD_REACTORS
330
3AC
102
}
330
3AC
100
AcDbXrecord
280
     1
102
RTVSPropertyOp0
 70
     1
102
RTVSPropertyOp1
 70
     1
102
RTVSPropertyOp2
 70
     1
102
RTVSPropertyOp3
 70
     1
102
RTVSPropertyOp4
 70
     1
102
RTVSPropertyOp5
 70
     1
102
RTVSPropertyOp6
 70
     1
102
RTVSPropertyOp7
 70
     1
102
RTVSPropertyOp8
 70
     1
102
RTVSPropertyOp9
 70
     1
102
RTVSPropertyOp10
 70
     1
102
RTVSPropertyOp11
 70
     1
102
RTVSPropertyOp12
 70
     1
102
RTVSPropertyOp13
 70
     1
102
RTVSPropertyOp14
 70
     1
102
RTVSPropertyOp15
 70
     1
102
RTVSPropertyOp16
 70
     1
102
RTVSPropertyOp17
 70
     1
102
RTVSPropertyOp18
 70
     1
102
RTVSPropertyOp19
 70
     1
102
RTVSPropertyOp20
 70
     1
102
RTVSPropertyOp21
 70
     1
102
RTVSPropertyOp22
 70
     1
102
RTVSPropertyOp23
 70
     1
102
RTVSPropertyOp24
 70
     1
102
RTVSPropertyOp25
 70
     1
102
RTVSPropertyOp26
 70
     1
102
RTVSPropertyOp27
 70
     1
102
RTVSPropertyOp28
 70
     1
102
RTVSPropertyOp29
 70
     1
102
RTVSPropertyOp30
 70
     1
102
RTVSPropertyOp31
 70
     1
102
RTVSPropertyOp32
 70
     1
  0
XRECORD
  5
391
102
{ACAD_REACTORS
330
390
102
}
330
390
100
AcDbXrecord
280
     1
102
RTVSPropertyOp0
 70
     1
102
RTVSPropertyOp1
 70
     1
102
RTVSPropertyOp2
 70
     1
102
RTVSPropertyOp3
 70
     1
102
RTVSPropertyOp4
 70
     1
102
RTVSPropertyOp5
 70
     1
102
RTVSPropertyOp6
 70
     1
102
RTVSPropertyOp7
 70
     1
102
RTVSPropertyOp8
 70
     1
102
RTVSPropertyOp9
 70
     1
102
RTVSPropertyOp10
 70
     1
102
RTVSPropertyOp11
 70
     1
102
RTVSPropertyOp12
 70
     1
102
RTVSPropertyOp13
 70
     1
102
RTVSPropertyOp14
 70
     1
102
RTVSPropertyOp15
 70
     1
102
RTVSPropertyOp16
 70
     1
102
RTVSPropertyOp17
 70
     1
102
RTVSPropertyOp18
 70
     1
102
RTVSPropertyOp19
 70
     1
102
RTVSPropertyOp20
 70
     1
102
RTVSPropertyOp21
 70
     1
102
RTVSPropertyOp22
 70
     1
102
RTVSPropertyOp23
 70
     1
102
RTVSPropertyOp24
 70
     1
102
RTVSPropertyOp25
 70
     1
102
RTVSPropertyOp26
 70
     1
102
RTVSPropertyOp27
 70
     1
102
RTVSPropertyOp28
 70
     1
102
RTVSPropertyOp29
 70
     1
102
RTVSPropertyOp30
 70
     1
102
RTVSPropertyOp31
 70
     1
102
RTVSPropertyOp32
 70
     1
  0
XRECORD
  5
393
102
{ACAD_REACTORS
330
392
102
}
330
392
100
AcDbXrecord
280
     1
102
RTVSPropertyOp0
 70
     1
102
RTVSPropertyOp1
 70
     1
102
RTVSPropertyOp2
 70
     1
102
RTVSPropertyOp3
 70
     1
102
RTVSPropertyOp4
 70
     1
102
RTVSPropertyOp5
 70
     1
102
RTVSPropertyOp6
 70
     1
102
RTVSPropertyOp7
 70
     1
102
RTVSPropertyOp8
 70
     1
102
RTVSPropertyOp9
 70
     1
102
RTVSPropertyOp10
 70
     1
102
RTVSPropertyOp11
 70
     1
102
RTVSPropertyOp12
 70
     1
102
RTVSPropertyOp13
 70
     1
102
RTVSPropertyOp14
 70
     1
102
RTVSPropertyOp15
 70
     1
102
RTVSPropertyOp16
 70
     1
102
RTVSPropertyOp17
 70
     1
102
RTVSPropertyOp18
 70
     1
102
RTVSPropertyOp19
 70
     1
102
RTVSPropertyOp20
 70
     1
102
RTVSPropertyOp21
 70
     1
102
RTVSPropertyOp22
 70
     1
102
RTVSPropertyOp23
 70
     1
102
RTVSPropertyOp24
 70
     1
102
RTVSPropertyOp25
 70
     1
102
RTVSPropertyOp26
 70
     1
102
RTVSPropertyOp27
 70
     1
102
RTVSPropertyOp28
 70
     1
102
RTVSPropertyOp29
 70
     1
102
RTVSPropertyOp30
 70
     1
102
RTVSPropertyOp31
 70
     1
102
RTVSPropertyOp32
 70
     1
  0
XRECORD
  5
395
102
{ACAD_REACTORS
330
394
102
}
330
394
100
AcDbXrecord
280
     1
102
RTVSPropertyOp0
 70
     1
102
RTVSPropertyOp1
 70
     1
102
RTVSPropertyOp2
 70
     1
102
RTVSPropertyOp3
 70
     1
102
RTVSPropertyOp4
 70
     1
102
RTVSPropertyOp5
 70
     1
102
RTVSPropertyOp6
 70
     1
102
RTVSPropertyOp7
 70
     1
102
RTVSPropertyOp8
 70
     1
102
RTVSPropertyOp9
 70
     1
102
RTVSPropertyOp10
 70
     1
102
RTVSPropertyOp11
 70
     1
102
RTVSPropertyOp12
 70
     1
102
RTVSPropertyOp13
 70
     1
102
RTVSPropertyOp14
 70
     1
102
RTVSPropertyOp15
 70
     1
102
RTVSPropertyOp16
 70
     1
102
RTVSPropertyOp17
 70
     1
102
RTVSPropertyOp18
 70
     1
102
RTVSPropertyOp19
 70
     1
102
RTVSPropertyOp20
 70
     1
102
RTVSPropertyOp21
 70
     1
102
RTVSPropertyOp22
 70
     1
102
RTVSPropertyOp23
 70
     1
102
RTVSPropertyOp24
 70
     1
102
RTVSPropertyOp25
 70
     1
102
RTVSPropertyOp26
 70
     1
102
RTVSPropertyOp27
 70
     1
102
RTVSPropertyOp28
 70
     1
102
RTVSPropertyOp29
 70
     1
102
RTVSPropertyOp30
 70
     1
102
RTVSPropertyOp31
 70
     1
102
RTVSPropertyOp32
 70
     1
  0
XRECORD
  5
397
102
{ACAD_REACTORS
330
396
102
}
330
396
100
AcDbXrecord
280
     1
102
RTVSPropertyOp0
 70
     1
102
RTVSPropertyOp1
 70
     1
102
RTVSPropertyOp2
 70
     1
102
RTVSPropertyOp3
 70
     1
102
RTVSPropertyOp4
 70
     1
102
RTVSPropertyOp5
 70
     1
102
RTVSPropertyOp6
 70
     1
102
RTVSPropertyOp7
 70
     1
102
RTVSPropertyOp8
 70
     1
102
RTVSPropertyOp9
 70
     1
102
RTVSPropertyOp10
 70
     1
102
RTVSPropertyOp11
 70
     1
102
RTVSPropertyOp12
 70
     1
102
RTVSPropertyOp13
 70
     1
102
RTVSPropertyOp14
 70
     1
102
RTVSPropertyOp15
 70
     1
102
RTVSPropertyOp16
 70
     1
102
RTVSPropertyOp17
 70
     1
102
RTVSPropertyOp18
 70
     1
102
RTVSPropertyOp19
 70
     1
102
RTVSPropertyOp20
 70
     1
102
RTVSPropertyOp21
 70
     1
102
RTVSPropertyOp22
 70
     1
102
RTVSPropertyOp23
 70
     1
102
RTVSPropertyOp24
 70
     1
102
RTVSPropertyOp25
 70
     1
102
RTVSPropertyOp26
 70
     1
102
RTVSPropertyOp27
 70
     1
102
RTVSPropertyOp28
 70
     1
102
RTVSPropertyOp29
 70
     1
102
RTVSPropertyOp30
 70
     1
102
RTVSPropertyOp31
 70
     1
102
RTVSPropertyOp32
 70
     1
  0
XRECORD
  5
39F
102
{ACAD_REACTORS
330
39E
102
}
330
39E
100
AcDbXrecord
280
     1
102
RTVSPropertyOp0
 70
     1
102
RTVSPropertyOp1
 70
     1
102
RTVSPropertyOp2
 70
     1
102
RTVSPropertyOp3
 70
     1
102
RTVSPropertyOp4
 70
     1
102
RTVSPropertyOp5
 70
     1
102
RTVSPropertyOp6
 70
     1
102
RTVSPropertyOp7
 70
     1
102
RTVSPropertyOp8
 70
     1
102
RTVSPropertyOp9
 70
     1
102
RTVSPropertyOp10
 70
     1
102
RTVSPropertyOp11
 70
     1
102
RTVSPropertyOp12
 70
     1
102
RTVSPropertyOp13
 70
     1
102
RTVSPropertyOp14
 70
     1
102
RTVSPropertyOp15
 70
     1
102
RTVSPropertyOp16
 70
     1
102
RTVSPropertyOp17
 70
     1
102
RTVSPropertyOp18
 70
     1
102
RTVSPropertyOp19
 70
     1
102
RTVSPropertyOp20
 70
     1
102
RTVSPropertyOp21
 70
     1
102
RTVSPropertyOp22
 70
     1
102
RTVSPropertyOp23
 70
     1
102
RTVSPropertyOp24
 70
     1
102
RTVSPropertyOp25
 70
     1
102
RTVSPropertyOp26
 70
     1
102
RTVSPropertyOp27
 70
     1
102
RTVSPropertyOp28
 70
     1
102
RTVSPropertyOp29
 70
     1
102
RTVSPropertyOp30
 70
     1
102
RTVSPropertyOp31
 70
     1
102
RTVSPropertyOp32
 70
     1
  0
XRECORD
  5
3BB
102
{ACAD_REACTORS
330
3BA
102
}
330
3BA
100
AcDbXrecord
280
     1
102
RTVSPropertyOp0
 70
     0
102
RTVSPropertyOp1
 70
     0
102
RTVSPropertyOp2
 70
     0
102
RTVSPropertyOp3
 70
     0
102
RTVSPropertyOp4
 70
     0
102
RTVSPropertyOp5
 70
     0
102
RTVSPropertyOp6
 70
     0
102
RTVSPropertyOp7
 70
     0
102
RTVSPropertyOp8
 70
     0
102
RTVSPropertyOp9
 70
     0
102
RTVSPropertyOp10
 70
     0
102
RTVSPropertyOp11
 70
     0
102
RTVSPropertyOp12
 70
     0
102
RTVSPropertyOp13
 70
     0
102
RTVSPropertyOp14
 70
     2
102
RTVSPropertyOp15
 70
     0
102
RTVSPropertyOp16
 70
     0
102
RTVSPropertyOp17
 70
     0
102
RTVSPropertyOp18
 70
     0
102
RTVSPropertyOp19
 70
     0
102
RTVSPropertyOp20
 70
     0
102
RTVSPropertyOp21
 70
     0
102
RTVSPropertyOp22
 70
     0
102
RTVSPropertyOp23
 70
     0
102
RTVSPropertyOp24
 70
     0
102
RTVSPropertyOp25
 70
     0
102
RTVSPropertyOp26
 70
     0
102
RTVSPropertyOp27
 70
     0
102
RTVSPropertyOp28
 70
     1
102
RTVSPropertyOp29
 70
     1
102
RTVSPropertyOp30
 70
     1
102
RTVSPropertyOp31
 70
     1
102
RTVSPropertyOp32
 70
     1
  0
XRECORD
  5
3AB
102
{ACAD_REACTORS
330
3AA
102
}
330
3AA
100
AcDbXrecord
280
     1
102
RTVSPropertyOp0
 70
     1
102
RTVSPropertyOp1
 70
     1
102
RTVSPropertyOp2
 70
     1
102
RTVSPropertyOp3
 70
     1
102
RTVSPropertyOp4
 70
     1
102
RTVSPropertyOp5
 70
     1
102
RTVSPropertyOp6
 70
     1
102
RTVSPropertyOp7
 70
     1
102
RTVSPropertyOp8
 70
     1
102
RTVSPropertyOp9
 70
     1
102
RTVSPropertyOp10
 70
     1
102
RTVSPropertyOp11
 70
     1
102
RTVSPropertyOp12
 70
     1
102
RTVSPropertyOp13
 70
     1
102
RTVSPropertyOp14
 70
     1
102
RTVSPropertyOp15
 70
     1
102
RTVSPropertyOp16
 70
     1
102
RTVSPropertyOp17
 70
     1
102
RTVSPropertyOp18
 70
     1
102
RTVSPropertyOp19
 70
     1
102
RTVSPropertyOp20
 70
     1
102
RTVSPropertyOp21
 70
     1
102
RTVSPropertyOp22
 70
     1
102
RTVSPropertyOp23
 70
     1
102
RTVSPropertyOp24
 70
     1
102
RTVSPropertyOp25
 70
     1
102
RTVSPropertyOp26
 70
     1
102
RTVSPropertyOp27
 70
     1
102
RTVSPropertyOp28
 70
     1
102
RTVSPropertyOp29
 70
     1
102
RTVSPropertyOp30
 70
     1
102
RTVSPropertyOp31
 70
     1
102
RTVSPropertyOp32
 70
     1
  0
XRECORD
  5
3BD
102
{ACAD_REACTORS
330
3BC
102
}
330
3BC
100
AcDbXrecord
280
     1
102
RTVSPropertyOp0
 70
     0
102
RTVSPropertyOp1
 70
     0
102
RTVSPropertyOp2
 70
     0
102
RTVSPropertyOp3
 70
     0
102
RTVSPropertyOp4
 70
     0
102
RTVSPropertyOp5
 70
     0
102
RTVSPropertyOp6
 70
     0
102
RTVSPropertyOp7
 70
     0
102
RTVSPropertyOp8
 70
     0
102
RTVSPropertyOp9
 70
     0
102
RTVSPropertyOp10
 70
     0
102
RTVSPropertyOp11
 70
     0
102
RTVSPropertyOp12
 70
     0
102
RTVSPropertyOp13
 70
     0
102
RTVSPropertyOp14
 70
     2
102
RTVSPropertyOp15
 70
     0
102
RTVSPropertyOp16
 70
     0
102
RTVSPropertyOp17
 70
     0
102
RTVSPropertyOp18
 70
     0
102
RTVSPropertyOp19
 70
     0
102
RTVSPropertyOp20
 70
     0
102
RTVSPropertyOp21
 70
     0
102
RTVSPropertyOp22
 70
     0
102
RTVSPropertyOp23
 70
     0
102
RTVSPropertyOp24
 70
     0
102
RTVSPropertyOp25
 70
     0
102
RTVSPropertyOp26
 70
     0
102
RTVSPropertyOp27
 70
     0
102
RTVSPropertyOp28
 70
     1
102
RTVSPropertyOp29
 70
     1
102
RTVSPropertyOp30
 70
     1
102
RTVSPropertyOp31
 70
     1
102
RTVSPropertyOp32
 70
     1
  0
XRECORD
  5
3A3
102
{ACAD_REACTORS
330
3A2
102
}
330
3A2
100
AcDbXrecord
280
     1
102
RTVSPropertyOp0
 70
     1
102
RTVSPropertyOp1
 70
     1
102
RTVSPropertyOp2
 70
     1
102
RTVSPropertyOp3
 70
     1
102
RTVSPropertyOp4
 70
     1
102
RTVSPropertyOp5
 70
     1
102
RTVSPropertyOp6
 70
     1
102
RTVSPropertyOp7
 70
     1
102
RTVSPropertyOp8
 70
     1
102
RTVSPropertyOp9
 70
     1
102
RTVSPropertyOp10
 70
     1
102
RTVSPropertyOp11
 70
     1
102
RTVSPropertyOp12
 70
     1
102
RTVSPropertyOp13
 70
     1
102
RTVSPropertyOp14
 70
     1
102
RTVSPropertyOp15
 70
     1
102
RTVSPropertyOp16
 70
     1
102
RTVSPropertyOp17
 70
     1
102
RTVSPropertyOp18
 70
     1
102
RTVSPropertyOp19
 70
     1
102
RTVSPropertyOp20
 70
     1
102
RTVSPropertyOp21
 70
     1
102
RTVSPropertyOp22
 70
     1
102
RTVSPropertyOp23
 70
     1
102
RTVSPropertyOp24
 70
     1
102
RTVSPropertyOp25
 70
     1
102
RTVSPropertyOp26
 70
     1
102
RTVSPropertyOp27
 70
     1
102
RTVSPropertyOp28
 70
     1
102
RTVSPropertyOp29
 70
     1
102
RTVSPropertyOp30
 70
     1
102
RTVSPropertyOp31
 70
     1
102
RTVSPropertyOp32
 70
     1
  0
XRECORD
  5
3B9
102
{ACAD_REACTORS
330
3B8
102
}
330
3B8
100
AcDbXrecord
280
     1
102
RTVSPropertyOp0
 70
     1
102
RTVSPropertyOp1
 70
     1
102
RTVSPropertyOp2
 70
     1
102
RTVSPropertyOp3
 70
     1
102
RTVSPropertyOp4
 70
     1
102
RTVSPropertyOp5
 70
     1
102
RTVSPropertyOp6
 70
     1
102
RTVSPropertyOp7
 70
     1
102
RTVSPropertyOp8
 70
     1
102
RTVSPropertyOp9
 70
     1
102
RTVSPropertyOp10
 70
     1
102
RTVSPropertyOp11
 70
     1
102
RTVSPropertyOp12
 70
     1
102
RTVSPropertyOp13
 70
     1
102
RTVSPropertyOp14
 70
     1
102
RTVSPropertyOp15
 70
     1
102
RTVSPropertyOp16
 70
     1
102
RTVSPropertyOp17
 70
     1
102
RTVSPropertyOp18
 70
     1
102
RTVSPropertyOp19
 70
     1
102
RTVSPropertyOp20
 70
     1
102
RTVSPropertyOp21
 70
     1
102
RTVSPropertyOp22
 70
     1
102
RTVSPropertyOp23
 70
     1
102
RTVSPropertyOp24
 70
     1
102
RTVSPropertyOp25
 70
     1
102
RTVSPropertyOp26
 70
     1
102
RTVSPropertyOp27
 70
     1
102
RTVSPropertyOp28
 70
     1
102
RTVSPropertyOp29
 70
     1
102
RTVSPropertyOp30
 70
     1
102
RTVSPropertyOp31
 70
     1
102
RTVSPropertyOp32
 70
     1
  0
XRECORD
  5
3B7
102
{ACAD_REACTORS
330
3B6
102
}
330
3B6
100
AcDbXrecord
280
     1
102
RTVSPropertyOp0
 70
     1
102
RTVSPropertyOp1
 70
     1
102
RTVSPropertyOp2
 70
     1
102
RTVSPropertyOp3
 70
     1
102
RTVSPropertyOp4
 70
     1
102
RTVSPropertyOp5
 70
     1
102
RTVSPropertyOp6
 70
     1
102
RTVSPropertyOp7
 70
     1
102
RTVSPropertyOp8
 70
     1
102
RTVSPropertyOp9
 70
     1
102
RTVSPropertyOp10
 70
     1
102
RTVSPropertyOp11
 70
     1
102
RTVSPropertyOp12
 70
     1
102
RTVSPropertyOp13
 70
     1
102
RTVSPropertyOp14
 70
     1
102
RTVSPropertyOp15
 70
     1
102
RTVSPropertyOp16
 70
     1
102
RTVSPropertyOp17
 70
     1
102
RTVSPropertyOp18
 70
     1
102
RTVSPropertyOp19
 70
     1
102
RTVSPropertyOp20
 70
     1
102
RTVSPropertyOp21
 70
     1
102
RTVSPropertyOp22
 70
     1
102
RTVSPropertyOp23
 70
     1
102
RTVSPropertyOp24
 70
     1
102
RTVSPropertyOp25
 70
     1
102
RTVSPropertyOp26
 70
     1
102
RTVSPropertyOp27
 70
     1
102
RTVSPropertyOp28
 70
     1
102
RTVSPropertyOp29
 70
     1
102
RTVSPropertyOp30
 70
     1
102
RTVSPropertyOp31
 70
     1
102
RTVSPropertyOp32
 70
     1
  0
XRECORD
  5
3B1
102
{ACAD_REACTORS
330
3B0
102
}
330
3B0
100
AcDbXrecord
280
     1
102
RTVSPropertyOp0
 70
     1
102
RTVSPropertyOp1
 70
     1
102
RTVSPropertyOp2
 70
     1
102
RTVSPropertyOp3
 70
     1
102
RTVSPropertyOp4
 70
     1
102
RTVSPropertyOp5
 70
     1
102
RTVSPropertyOp6
 70
     1
102
RTVSPropertyOp7
 70
     1
102
RTVSPropertyOp8
 70
     1
102
RTVSPropertyOp9
 70
     1
102
RTVSPropertyOp10
 70
     1
102
RTVSPropertyOp11
 70
     1
102
RTVSPropertyOp12
 70
     1
102
RTVSPropertyOp13
 70
     1
102
RTVSPropertyOp14
 70
     1
102
RTVSPropertyOp15
 70
     1
102
RTVSPropertyOp16
 70
     1
102
RTVSPropertyOp17
 70
     1
102
RTVSPropertyOp18
 70
     1
102
RTVSPropertyOp19
 70
     1
102
RTVSPropertyOp20
 70
     1
102
RTVSPropertyOp21
 70
     1
102
RTVSPropertyOp22
 70
     1
102
RTVSPropertyOp23
 70
     1
102
RTVSPropertyOp24
 70
     1
102
RTVSPropertyOp25
 70
     1
102
RTVSPropertyOp26
 70
     1
102
RTVSPropertyOp27
 70
     1
102
RTVSPropertyOp28
 70
     1
102
RTVSPropertyOp29
 70
     1
102
RTVSPropertyOp30
 70
     1
102
RTVSPropertyOp31
 70
     1
102
RTVSPropertyOp32
 70
     1
  0
XRECORD
  5
3B3
102
{ACAD_REACTORS
330
3B2
102
}
330
3B2
100
AcDbXrecord
280
     1
102
RTVSPropertyOp0
 70
     1
102
RTVSPropertyOp1
 70
     1
102
RTVSPropertyOp2
 70
     1
102
RTVSPropertyOp3
 70
     1
102
RTVSPropertyOp4
 70
     1
102
RTVSPropertyOp5
 70
     1
102
RTVSPropertyOp6
 70
     1
102
RTVSPropertyOp7
 70
     1
102
RTVSPropertyOp8
 70
     1
102
RTVSPropertyOp9
 70
     1
102
RTVSPropertyOp10
 70
     1
102
RTVSPropertyOp11
 70
     1
102
RTVSPropertyOp12
 70
     1
102
RTVSPropertyOp13
 70
     1
102
RTVSPropertyOp14
 70
     1
102
RTVSPropertyOp15
 70
     1
102
RTVSPropertyOp16
 70
     1
102
RTVSPropertyOp17
 70
     1
102
RTVSPropertyOp18
 70
     1
102
RTVSPropertyOp19
 70
     1
102
RTVSPropertyOp20
 70
     1
102
RTVSPropertyOp21
 70
     1
102
RTVSPropertyOp22
 70
     1
102
RTVSPropertyOp23
 70
     1
102
RTVSPropertyOp24
 70
     1
102
RTVSPropertyOp25
 70
     1
102
RTVSPropertyOp26
 70
     1
102
RTVSPropertyOp27
 70
     1
102
RTVSPropertyOp28
 70
     1
102
RTVSPropertyOp29
 70
     1
102
RTVSPropertyOp30
 70
     1
102
RTVSPropertyOp31
 70
     1
102
RTVSPropertyOp32
 70
     1
  0
XRECORD
  5
3A9
102
{ACAD_REACTORS
330
3A8
102
}
330
3A8
100
AcDbXrecord
280
     1
102
RTVSPropertyOp0
 70
     1
102
RTVSPropertyOp1
 70
     1
102
RTVSPropertyOp2
 70
     1
102
RTVSPropertyOp3
 70
     1
102
RTVSPropertyOp4
 70
     1
102
RTVSPropertyOp5
 70
     1
102
RTVSPropertyOp6
 70
     1
102
RTVSPropertyOp7
 70
     1
102
RTVSPropertyOp8
 70
     1
102
RTVSPropertyOp9
 70
     1
102
RTVSPropertyOp10
 70
     1
102
RTVSPropertyOp11
 70
     1
102
RTVSPropertyOp12
 70
     1
102
RTVSPropertyOp13
 70
     1
102
RTVSPropertyOp14
 70
     1
102
RTVSPropertyOp15
 70
     1
102
RTVSPropertyOp16
 70
     1
102
RTVSPropertyOp17
 70
     1
102
RTVSPropertyOp18
 70
     1
102
RTVSPropertyOp19
 70
     1
102
RTVSPropertyOp20
 70
     1
102
RTVSPropertyOp21
 70
     1
102
RTVSPropertyOp22
 70
     1
102
RTVSPropertyOp23
 70
     1
102
RTVSPropertyOp24
 70
     1
102
RTVSPropertyOp25
 70
     1
102
RTVSPropertyOp26
 70
     1
102
RTVSPropertyOp27
 70
     1
102
RTVSPropertyOp28
 70
     1
102
RTVSPropertyOp29
 70
     1
102
RTVSPropertyOp30
 70
     1
102
RTVSPropertyOp31
 70
     1
102
RTVSPropertyOp32
 70
     1
  0
XRECORD
  5
39D
102
{ACAD_REACTORS
330
39C
102
}
330
39C
100
AcDbXrecord
280
     1
102
RTVSPropertyOp0
 70
     1
102
RTVSPropertyOp1
 70
     1
102
RTVSPropertyOp2
 70
     1
102
RTVSPropertyOp3
 70
     1
102
RTVSPropertyOp4
 70
     1
102
RTVSPropertyOp5
 70
     1
102
RTVSPropertyOp6
 70
     1
102
RTVSPropertyOp7
 70
     1
102
RTVSPropertyOp8
 70
     1
102
RTVSPropertyOp9
 70
     1
102
RTVSPropertyOp10
 70
     1
102
RTVSPropertyOp11
 70
     1
102
RTVSPropertyOp12
 70
     1
102
RTVSPropertyOp13
 70
     1
102
RTVSPropertyOp14
 70
     1
102
RTVSPropertyOp15
 70
     1
102
RTVSPropertyOp16
 70
     1
102
RTVSPropertyOp17
 70
     1
102
RTVSPropertyOp18
 70
     1
102
RTVSPropertyOp19
 70
     1
102
RTVSPropertyOp20
 70
     1
102
RTVSPropertyOp21
 70
     1
102
RTVSPropertyOp22
 70
     1
102
RTVSPropertyOp23
 70
     1
102
RTVSPropertyOp24
 70
     1
102
RTVSPropertyOp25
 70
     1
102
RTVSPropertyOp26
 70
     1
102
RTVSPropertyOp27
 70
     1
102
RTVSPropertyOp28
 70
     1
102
RTVSPropertyOp29
 70
     1
102
RTVSPropertyOp30
 70
     1
102
RTVSPropertyOp31
 70
     1
102
RTVSPropertyOp32
 70
     1
  0
XRECORD
  5
3B5
102
{ACAD_REACTORS
330
3B4
102
}
330
3B4
100
AcDbXrecord
280
     1
102
RTVSPropertyOp0
 70
     1
102
RTVSPropertyOp1
 70
     1
102
RTVSPropertyOp2
 70
     1
102
RTVSPropertyOp3
 70
     1
102
RTVSPropertyOp4
 70
     1
102
RTVSPropertyOp5
 70
     1
102
RTVSPropertyOp6
 70
     1
102
RTVSPropertyOp7
 70
     1
102
RTVSPropertyOp8
 70
     1
102
RTVSPropertyOp9
 70
     1
102
RTVSPropertyOp10
 70
     1
102
RTVSPropertyOp11
 70
     1
102
RTVSPropertyOp12
 70
     1
102
RTVSPropertyOp13
 70
     1
102
RTVSPropertyOp14
 70
     1
102
RTVSPropertyOp15
 70
     1
102
RTVSPropertyOp16
 70
     1
102
RTVSPropertyOp17
 70
     1
102
RTVSPropertyOp18
 70
     1
102
RTVSPropertyOp19
 70
     1
102
RTVSPropertyOp20
 70
     1
102
RTVSPropertyOp21
 70
     1
102
RTVSPropertyOp22
 70
     1
102
RTVSPropertyOp23
 70
     1
102
RTVSPropertyOp24
 70
     1
102
RTVSPropertyOp25
 70
     1
102
RTVSPropertyOp26
 70
     1
102
RTVSPropertyOp27
 70
     1
102
RTVSPropertyOp28
 70
     1
102
RTVSPropertyOp29
 70
     1
102
RTVSPropertyOp30
 70
     1
102
RTVSPropertyOp31
 70
     1
102
RTVSPropertyOp32
 70
     1
  0
ENDSEC
  0
EOF
