  0
SECTION
  2
HEADER
  9
$ACADVER
  1
AC1015
  9
$ACADMAINTVER
 70
     6
  9
$DWGCODEPAGE
  3
ANSI_1252
  9
$INSBASE
 10
0.0
 20
0.0
 30
0.0
  9
$EXTMIN
 10
14.27493924421368
 20
11.64585862260973
 30
-0.0015258207003612
  9
$EXTMAX
 10
120.9500814701893
 20
122.4282981896087
 30
0.0000000349246008
  9
$LIMMIN
 10
14.2781982421875
 20
11.51385362413194
  9
$LIMMAX
 10
121.0771918402778
 20
122.4249131944444
  9
$ORTHOMODE
 70
     0
  9
$REGENMODE
 70
     1
  9
$FILLMODE
 70
     1
  9
$QTEXTMODE
 70
     0
  9
$MIRRTEXT
 70
     1
  9
$LTSCALE
 40
1.0
  9
$ATTMODE
 70
     1
  9
$TEXTSIZE
 40
0.2
  9
$TRACEWID
 40
0.05
  9
$TEXTSTYLE
  7
STANDARD
  9
$CLAYER
  8
0
  9
$CELTYPE
  6
CONTINUOUS
  9
$CECOLOR
 62
   256
  9
$CELTSCALE
 40
1.0
  9
$DISPSILH
 70
     0
  9
$DIMSCALE
 40
1.0
  9
$DIMASZ
 40
0.18
  9
$DIMEXO
 40
0.0625
  9
$DIMDLI
 40
0.38
  9
$DIMRND
 40
0.0
  9
$DIMDLE
 40
0.0
  9
$DIMEXE
 40
0.18
  9
$DIMTP
 40
0.0
  9
$DIMTM
 40
0.0
  9
$DIMTXT
 40
0.18
  9
$DIMCEN
 40
0.09
  9
$DIMTSZ
 40
0.0
  9
$DIMTOL
 70
     0
  9
$DIMLIM
 70
     0
  9
$DIMTIH
 70
     1
  9
$DIMTOH
 70
     1
  9
$DIMSE1
 70
     0
  9
$DIMSE2
 70
     0
  9
$DIMTAD
 70
     0
  9
$DIMZIN
 70
     0
  9
$DIMBLK
  1

  9
$DIMASO
 70
     1
  9
$DIMSHO
 70
     1
  9
$DIMPOST
  1

  9
$DIMAPOST
  1

  9
$DIMALT
 70
     0
  9
$DIMALTD
 70
     2
  9
$DIMALTF
 40
25.4
  9
$DIMLFAC
 40
1.0
  9
$DIMTOFL
 70
     0
  9
$DIMTVP
 40
0.0
  9
$DIMTIX
 70
     0
  9
$DIMSOXD
 70
     0
  9
$DIMSAH
 70
     0
  9
$DIMBLK1
  1

  9
$DIMBLK2
  1

  9
$DIMSTYLE
  2
STANDARD
  9
$DIMCLRD
 70
     0
  9
$DIMCLRE
 70
     0
  9
$DIMCLRT
 70
     0
  9
$DIMTFAC
 40
1.0
  9
$DIMGAP
 40
0.09
  9
$DIMJUST
 70
     0
  9
$DIMSD1
 70
     0
  9
$DIMSD2
 70
     0
  9
$DIMTOLJ
 70
     1
  9
$DIMTZIN
 70
     0
  9
$DIMALTZ
 70
     0
  9
$DIMALTTZ
 70
     0
  9
$DIMUPT
 70
     0
  9
$DIMDEC
 70
     4
  9
$DIMTDEC
 70
     4
  9
$DIMALTU
 70
     2
  9
$DIMALTTD
 70
     2
  9
$DIMTXSTY
  7
STANDARD
  9
$DIMAUNIT
 70
     0
  9
$DIMADEC
 70
     0
  9
$DIMALTRND
 40
0.0
  9
$DIMAZIN
 70
     0
  9
$DIMDSEP
 70
    46
  9
$DIMATFIT
 70
     3
  9
$DIMFRAC
 70
     0
  9
$DIMLDRBLK
  1

  9
$DIMLUNIT
 70
     2
  9
$DIMLWD
 70
    -2
  9
$DIMLWE
 70
    -2
  9
$DIMTMOVE
 70
     0
  9
$LUNITS
 70
     2
  9
$LUPREC
 70
     4
  9
$SKETCHINC
 40
0.1
  9
$FILLETRAD
 40
0.0
  9
$AUNITS
 70
     0
  9
$AUPREC
 70
     0
  9
$MENU
  1
acad
  9
$ELEVATION
 40
0.0
  9
$PELEVATION
 40
0.0
  9
$THICKNESS
 40
0.0
  9
$LIMCHECK
 70
     0
  9
$CHAMFERA
 40
0.0
  9
$CHAMFERB
 40
0.0
  9
$CHAMFERC
 40
0.0
  9
$CHAMFERD
 40
0.0
  9
$SKPOLY
 70
     0
  9
$TDCREATE
 40
2444971.666666667
  9
$TDUCREATE
 40
2444972.0
  9
$TDUPDATE
 40
2452219.356437153
  9
$TDUUPDATE
 40
2452219.689770486
  9
$TDINDWG
 40
0.0031334491
  9
$TDUSRTIMER
 40
0.0031334491
  9
$USRTIMER
 70
     1
  9
$ANGBASE
 50
0.0
  9
$ANGDIR
 70
     0
  9
$PDMODE
 70
     0
  9
$PDSIZE
 40
0.0
  9
$PLINEWID
 40
0.0
  9
$SPLFRAME
 70
     0
  9
$SPLINETYPE
 70
     6
  9
$SPLINESEGS
 70
     8
  9
$HANDSEED
  5
12B
  9
$SURFTAB1
 70
     6
  9
$SURFTAB2
 70
     6
  9
$SURFTYPE
 70
     6
  9
$SURFU
 70
     6
  9
$SURFV
 70
     6
  9
$UCSBASE
  2

  9
$UCSNAME
  2

  9
$UCSORG
 10
0.0
 20
0.0
 30
0.0
  9
$UCSXDIR
 10
1.0
 20
0.0
 30
0.0
  9
$UCSYDIR
 10
0.0
 20
1.0
 30
0.0
  9
$UCSORTHOREF
  2

  9
$UCSORTHOVIEW
 70
     0
  9
$UCSORGTOP
 10
0.0
 20
0.0
 30
0.0
  9
$UCSORGBOTTOM
 10
0.0
 20
0.0
 30
0.0
  9
$UCSORGLEFT
 10
0.0
 20
0.0
 30
0.0
  9
$UCSORGRIGHT
 10
0.0
 20
0.0
 30
0.0
  9
$UCSORGFRONT
 10
0.0
 20
0.0
 30
0.0
  9
$UCSORGBACK
 10
0.0
 20
0.0
 30
0.0
  9
$PUCSBASE
  2

  9
$PUCSNAME
  2

  9
$PUCSORG
 10
0.0
 20
0.0
 30
0.0
  9
$PUCSXDIR
 10
1.0
 20
0.0
 30
0.0
  9
$PUCSYDIR
 10
0.0
 20
1.0
 30
0.0
  9
$PUCSORTHOREF
  2

  9
$PUCSORTHOVIEW
 70
     0
  9
$PUCSORGTOP
 10
0.0
 20
0.0
 30
0.0
  9
$PUCSORGBOTTOM
 10
0.0
 20
0.0
 30
0.0
  9
$PUCSORGLEFT
 10
0.0
 20
0.0
 30
0.0
  9
$PUCSORGRIGHT
 10
0.0
 20
0.0
 30
0.0
  9
$PUCSORGFRONT
 10
0.0
 20
0.0
 30
0.0
  9
$PUCSORGBACK
 10
0.0
 20
0.0
 30
0.0
  9
$USERI1
 70
     0
  9
$USERI2
 70
     0
  9
$USERI3
 70
     0
  9
$USERI4
 70
     0
  9
$USERI5
 70
     0
  9
$USERR1
 40
0.0
  9
$USERR2
 40
0.0
  9
$USERR3
 40
0.0
  9
$USERR4
 40
0.0
  9
$USERR5
 40
0.0
  9
$WORLDVIEW
 70
     1
  9
$SHADEDGE
 70
     3
  9
$SHADEDIF
 70
    70
  9
$TILEMODE
 70
     1
  9
$MAXACTVP
 70
    16
  9
$PINSBASE
 10
0.0
 20
0.0
 30
0.0
  9
$PLIMCHECK
 70
     0
  9
$PEXTMIN
 10
1.000000000000000E+20
 20
1.000000000000000E+20
 30
1.000000000000000E+20
  9
$PEXTMAX
 10
-1.000000000000000E+20
 20
-1.000000000000000E+20
 30
-1.000000000000000E+20
  9
$PLIMMIN
 10
0.0
 20
0.0
  9
$PLIMMAX
 10
12.0
 20
9.0
  9
$UNITMODE
 70
     0
  9
$VISRETAIN
 70
     0
  9
$PLINEGEN
 70
     1
  9
$PSLTSCALE
 70
     0
  9
$TREEDEPTH
 70
  3020
  9
$CMLSTYLE
  2
STANDARD
  9
$CMLJUST
 70
     0
  9
$CMLSCALE
 40
1.0
  9
$PROXYGRAPHICS
 70
     0
  9
$MEASUREMENT
 70
     0
  9
$CELWEIGHT
370
    -1
  9
$ENDCAPS
280
     0
  9
$JOINSTYLE
280
     0
  9
$LWDISPLAY
290
     0
  9
$INSUNITS
 70
     0
  9
$HYPERLINKBASE
  1

  9
$STYLESHEET
  1

  9
$XEDIT
290
     1
  9
$CEPSNTYPE
380
     0
  9
$PSTYLEMODE
290
     1
  9
$FINGERPRINTGUID
  2
{0AE0CF24-D1C7-11D5-923F-00805F198AD5}
  9
$VERSIONGUID
  2
{0AE0CF26-D1C7-11D5-923F-00805F198AD5}
  9
$EXTNAMES
290
     1
  9
$PSVPSCALE
 40
0.0
  9
$OLESTARTUP
290
     0
  0
ENDSEC
  0
SECTION
  2
CLASSES
  0
CLASS
  1
LWPOLYLINE
  2
AcDbPolyline
  3
AutoCAD 2000
 90
        0
280
     0
281
     1
  0
CLASS
  1
IMAGE
  2
AcDbRasterImage
  3
ISM
 90
      127
280
     0
281
     1
  0
CLASS
  1
OLE2FRAME
  2
AcDbOle2Frame
  3
AutoCAD 2000
 90
        0
280
     0
281
     1
  0
CLASS
  1
HATCH
  2
AcDbHatch
  3
AutoCAD 2000
 90
        0
280
     0
281
     1
  0
CLASS
  1
DICTIONARYVAR
  2
AcDbDictionaryVar
  3
AutoCAD 2000
 90
        0
280
     0
281
     0
  0
CLASS
  1
RASTERVARIABLES
  2
AcDbRasterVariables
  3
ISM
 90
        0
280
     0
281
     0
  0
CLASS
  1
IMAGEDEF
  2
AcDbRasterImageDef
  3
ISM
 90
        0
280
     0
281
     0
  0
CLASS
  1
IMAGEDEF_REACTOR
  2
AcDbRasterImageDefReactor
  3
ISM
 90
        1
280
     0
281
     0
  0
CLASS
  1
IDBUFFER
  2
AcDbIdBuffer
  3
AutoCAD 2000
 90
        0
280
     0
281
     0
  0
CLASS
  1
SPATIAL_FILTER
  2
AcDbSpatialFilter
  3
AutoCAD 2000
 90
        0
280
     0
281
     0
  0
CLASS
  1
XRECORD
  2
AcDbXrecord
  3
AutoCAD 2000
 90
        0
280
     0
281
     0
  0
CLASS
  1
SORTENTSTABLE
  2
AcDbSortentsTable
  3
AutoCAD 2000
 90
        0
280
     0
281
     0
  0
CLASS
  1
LAYER_INDEX
  2
AcDbLayerIndex
  3
AutoCAD 2000
 90
        0
280
     0
281
     0
  0
CLASS
  1
SPATIAL_INDEX
  2
AcDbSpatialIndex
  3
AutoCAD 2000
 90
        0
280
     0
281
     0
  0
CLASS
  1
OBJECT_PTR
  2
CAseDLPNTableRecord
  3
ASE-LPNTableRecord
 90
        1
280
     1
281
     0
  0
CLASS
  1
LAYOUT
  2
AcDbLayout
  3
ObjectDBX Classes
 90
        0
280
     0
281
     0
  0
CLASS
  1
PLOTSETTINGS
  2
AcDbPlotSettings
  3
AutoCAD 2000
 90
        0
280
     0
281
     0
  0
CLASS
  1
ACDBDICTIONARYWDFLT
  2
AcDbDictionaryWithDefault
  3
AutoCAD 2000
 90
        0
280
     0
281
     0
  0
CLASS
  1
ACDBPLACEHOLDER
  2
AcDbPlaceHolder
  3
ObjectDBX Classes
 90
        0
280
     0
281
     0
  0
CLASS
  1
VBAPROJECT
  2
AcDbVbaProject
  3
ObjectDBX Classes
 90
        0
280
     0
281
     0
  0
CLASS
  1
WIPEOUT
  2
AcDbWipeout
  3
WipeOut|AutoCAD Express Tool|expresstools@autodesk.com
 90
      127
280
     0
281
     1
  0
CLASS
  1
WIPEOUTVARIABLES
  2
AcDbWipeoutVariables
  3
WipeOut|AutoCAD Express Tool|expresstools@autodesk.com
 90
        0
280
     0
281
     0
  0
CLASS
  1
RTEXT
  2
RText
  3
RText|AutoCAD Express Tool|expresstools@autodesk.com
 90
        0
280
     0
281
     1
  0
CLASS
  1
ARCALIGNEDTEXT
  2
AcDbArcAlignedText
  3
ATEXT|AutoCAD Express Tool|expresstools@autodesk.com
 90
        0
280
     0
281
     1
  0
CLASS
  1
LONG_TRANSACTION
  2
AcDbLongTransaction
  3
AutoCAD 2000
 90
        0
280
     1
281
     0
  0
CLASS
  1
LWPOLYLINE
  2
AcDbPolyline
  3
AutoCAD 2000
 90
        0
280
     0
281
     1
  0
CLASS
  1
HATCH
  2
AcDbHatch
  3
AutoCAD 2000
 90
        0
280
     0
281
     1
  0
CLASS
  1
XRECORD
  2
AcDbXrecord
  3
AutoCAD 2000
 90
        0
280
     0
281
     0
  0
ENDSEC
  0
SECTION
  2
TABLES
  0
TABLE
  2
VPORT
  5
7
330
0
100
AcDbSymbolTable
 70
     2
  0
VPORT
  5
F7
330
7
100
AcDbSymbolTableRecord
100
AcDbViewportTableRecord
  2
*Active
 70
     0
 10
0.0
 20
0.0
 11
1.0
 21
1.0
 12
67.6125103572015
 22
67.0370784061092
 13
0.0
 23
0.0
 14
1.0
 24
1.0
 15
0.0
 25
0.0
 16
0.0
 26
0.0
 36
1.0
 17
0.0
 27
0.0
 37
0.0
 40
112.5270449145107
 41
1.836842105263158
 42
50.0
 43
0.0
 44
0.0
 50
0.0
 51
0.0
 71
     0
 72
   100
 73
     1
 74
     1
 75
     0
 76
     0
 77
     0
 78
     0
281
     0
 65
     1
110
0.0
120
0.0
130
0.0
111
1.0
121
0.0
131
0.0
112
0.0
122
1.0
132
0.0
 79
     0
146
0.0
  0
ENDTAB
  0
TABLE
  2
LTYPE
  5
4
330
0
100
AcDbSymbolTable
 70
     2
  0
LTYPE
  5
11
330
4
100
AcDbSymbolTableRecord
100
AcDbLinetypeTableRecord
  2
BYBLOCK
 70
     0
  3

 72
    65
 73
     0
 40
0.0
  0
LTYPE
  5
12
330
4
100
AcDbSymbolTableRecord
100
AcDbLinetypeTableRecord
  2
BYLAYER
 70
     0
  3

 72
    65
 73
     0
 40
0.0
  0
LTYPE
  5
13
330
4
100
AcDbSymbolTableRecord
100
AcDbLinetypeTableRecord
  2
CONTINUOUS
 70
     0
  3
Solid line
 72
    65
 73
     0
 40
0.0
  0
LTYPE
  5
B4
330
4
100
AcDbSymbolTableRecord
100
AcDbLinetypeTableRecord
  2
AI9-LTYPE1
 70
     0
  3
Illustrator Dash Style No.1
 72
    65
 73
     2
 40
1.693333400620354
 49
0.8466667003101772
 74
     0
 49
-0.8466667003101772
 74
     0
  0
ENDTAB
  0
TABLE
  2
LAYER
  5
2
330
0
100
AcDbSymbolTable
 70
     2
  0
LAYER
  5
14
330
2
100
AcDbSymbolTableRecord
100
AcDbLayerTableRecord
  2
0
 70
     0
 62
     7
  6
CONTINUOUS
370
    -3
390
0
  0
LAYER
  5
21
330
2
100
AcDbSymbolTableRecord
100
AcDbLayerTableRecord
  2
LAYER_1
 70
     0
 62
     5
  6
CONTINUOUS
370
    -3
390
0
  0
ENDTAB
  0
TABLE
  2
STYLE
  5
3
330
0
100
AcDbSymbolTable
 70
     5
  0
STYLE
  5
17
330
3
100
AcDbSymbolTableRecord
100
AcDbTextStyleTableRecord
  2
STANDARD
 70
     0
 40
0.0
 41
1.0
 50
0.0
 71
     0
 42
0.2
  3
txt
  4

  0
STYLE
  5
1D
330
3
100
AcDbSymbolTableRecord
100
AcDbTextStyleTableRecord
  2
STD
 70
     0
 40
0.0
 41
1.0
 50
0.0
 71
     0
 42
0.2
  3
txt
  4

  0
STYLE
  5
1E
330
3
100
AcDbSymbolTableRecord
100
AcDbTextStyleTableRecord
  2
TATESTD
 70
     4
 40
0.0
 41
1.0
 50
0.0
 71
     0
 42
0.2
  3
txt
  4

  0
STYLE
  5
1F
330
3
100
AcDbSymbolTableRecord
100
AcDbTextStyleTableRecord
  2
KANJISTD
 70
     0
 40
0.0
 41
1.0
 50
0.0
 71
     0
 42
0.2
  3
txt
  4
extfont
  0
STYLE
  5
20
330
3
100
AcDbSymbolTableRecord
100
AcDbTextStyleTableRecord
  2
KANJITATE
 70
     4
 40
0.0
 41
1.0
 50
0.0
 71
     0
 42
0.2
  3
txt
  4
extfont
  0
ENDTAB
  0
TABLE
  2
VIEW
  5
5
330
0
100
AcDbSymbolTable
 70
     0
  0
ENDTAB
  0
TABLE
  2
UCS
  5
6
330
0
100
AcDbSymbolTable
 70
     0
  0
ENDTAB
  0
TABLE
  2
APPID
  5
8
330
0
100
AcDbSymbolTable
 70
     1
  0
APPID
  5
16
330
8
100
AcDbSymbolTableRecord
100
AcDbRegAppTableRecord
  2
ACAD
 70
     0
  0
ENDTAB
  0
TABLE
  2
DIMSTYLE
  5
9
330
0
100
AcDbSymbolTable
 70
     1
100
AcDbDimStyleTable
  0
DIMSTYLE
105
18
330
9
100
AcDbSymbolTableRecord
100
AcDbDimStyleTableRecord
  2
STANDARD
 70
     0
  3

  4

289
     0
340
17
  0
ENDTAB
  0
TABLE
  2
BLOCK_RECORD
  5
1
330
0
100
AcDbSymbolTable
 70
     0
  0
BLOCK_RECORD
  5
A
330
1
100
AcDbSymbolTableRecord
100
AcDbBlockTableRecord
  2
*MODEL_SPACE
340
F2
  0
BLOCK_RECORD
  5
B
330
1
100
AcDbSymbolTableRecord
100
AcDbBlockTableRecord
  2
*PAPER_SPACE
340
F3
  0
ENDTAB
  0
ENDSEC
  0
SECTION
  2
BLOCKS
  0
BLOCK
  5
D
330
A
100
AcDbEntity
  8
0
100
AcDbBlockBegin
  2
*MODEL_SPACE
 70
     0
 10
0.0
 20
0.0
 30
0.0
  3
*MODEL_SPACE
  1

  4

  0
ENDBLK
  5
E
330
A
100
AcDbEntity
  8
0
100
AcDbBlockEnd
  0
BLOCK
  5
F
330
B
100
AcDbEntity
 67
     1
  8
0
100
AcDbBlockBegin
  2
*PAPER_SPACE
 70
     0
 10
0.0
 20
0.0
 30
0.0
  3
*PAPER_SPACE
  1

  4

  0
ENDBLK
  5
10
330
B
100
AcDbEntity
 67
     1
  8
0
100
AcDbBlockEnd
  0
ENDSEC
  0
SECTION
  2
ENTITIES
  0
LWPOLYLINE
  5
D5
330
A
100
AcDbEntity
  8
LAYER_1
 62
     7
100
AcDbPolyline
 90
       22
 70
     0
 43
0.0
 10
95.35800374348958
 20
94.83882785373262
 10
120.9449001736111
 20
77.95837673611111
 10
120.9449001736111
 20
21.49395073784722
 10
109.2780843098958
 20
13.78727213541667
 10
79.84387749565971
 20
37.92464463975694
 10
56.67113172743055
 20
11.64614529079861
 10
47.89440646701389
 20
19.40691189236111
 10
45.96825358072916
 20
22.29734700520833
 10
46.60938585069444
 20
23.099365234375
 10
42.23170301649305
 20
29.19270562065972
 10
42.23170301649305
 20
29.19270562065972
 10
39.89765082465277
 20
30.94832628038194
 10
40.27764485677083
 20
31.91295301649305
 10
34.72862955729166
 20
39.63685709635416
 10
33.12321506076388
 20
40.97596571180555
 10
29.59164767795139
 20
46.59560546874999
 10
56.18950737847221
 20
73.6764675564236
 10
56.08236490885416
 20
84.38037923177083
 10
53.78069661458333
 20
86.84327799479166
 10
57.63403591579861
 20
88.98406032986111
 10
55.97556694878472
 20
90.32179090711804
 10
55.98349066840277
 20
92.54112141927082
  0
LWPOLYLINE
  5
CF
330
A
100
AcDbEntity
  8
LAYER_1
 62
     7
100
AcDbPolyline
 90
        4
 70
     0
 43
0.0
 10
55.98486870659722
 20
93.49679090711804
 10
56.02862141927083
 20
108.5718397352431
 10
67.16006944444443
 20
113.4421712239583
 10
88.55841878255208
 20
99.32485894097222
  0
SPLINE
  5
CE
330
A
100
AcDbEntity
  8
LAYER_1
  6
AI9-LTYPE1
 62
     7
100
AcDbSpline
210
0.0
220
0.0
230
1.0
 70
    11
 71
     3
 72
    29
 73
    25
 74
     0
 42
0.0000000001
 43
0.0000000001
 40
0.0
 40
0.0
 40
0.0
 40
0.0
 40
1.0
 40
1.0
 40
1.0
 40
2.0
 40
2.0
 40
2.0
 40
3.0
 40
3.0
 40
3.0
 40
4.0
 40
4.0
 40
4.0
 40
5.0
 40
5.0
 40
5.0
 40
6.0
 40
6.0
 40
6.0
 40
7.0
 40
7.0
 40
7.0
 40
8.0
 40
8.0
 40
8.0
 40
8.0
 10
88.68089192708332
 20
91.63747287326387
 30
0.0
 10
88.68089192708332
 20
91.63747287326387
 30
0.0
 10
88.52345106336804
 20
49.77473958333333
 30
0.0
 10
88.52345106336804
 20
49.77473958333333
 30
0.0
 10
88.52345106336804
 20
49.77473958333333
 30
0.0
 10
89.93869628906249
 20
47.41622721354166
 30
0.0
 10
89.93869628906249
 20
47.41622721354166
 30
0.0
 10
89.93869628906249
 20
47.41622721354166
 30
0.0
 10
93.67283528645832
 20
44.54680718315972
 30
0.0
 10
93.67283528645832
 20
44.54680718315972
 30
0.0
 10
93.67283528645832
 20
44.54680718315972
 30
0.0
 10
94.89136555989583
 20
45.01844075520833
 30
0.0
 10
94.89136555989583
 20
45.01844075520833
 30
0.0
 10
94.89136555989583
 20
45.01844075520833
 30
0.0
 10
96.07062174479165
 20
45.9227783203125
 30
0.0
 10
96.07062174479165
 20
45.9227783203125
 30
0.0
 10
96.07062174479165
 20
45.9227783203125
 30
0.0
 10
96.07062174479165
 20
94.34979654947915
 30
0.0
 10
96.07062174479165
 20
94.34979654947915
 30
0.0
 10
96.07062174479165
 20
94.34979654947915
 30
0.0
 10
95.48116590711804
 20
94.8999782986111
 30
0.0
 10
95.04846191406249
 20
94.74288194444443
 30
0.0
 10
94.61610243055554
 20
94.58544108072915
 30
0.0
 10
88.68089192708332
 20
91.63747287326387
 30
0.0
 10
88.68089192708332
 20
91.63747287326387
 30
0.0
  0
SPLINE
  5
CD
330
A
100
AcDbEntity
  8
LAYER_1
 62
     7
100
AcDbSpline
210
0.0
220
0.0
230
1.0
 70
    11
 71
     3
 72
    50
 73
    46
 74
     0
 42
0.0000000001
 43
0.0000000001
 40
0.0
 40
0.0
 40
0.0
 40
0.0
 40
1.0
 40
1.0
 40
1.0
 40
2.0
 40
2.0
 40
2.0
 40
3.0
 40
3.0
 40
3.0
 40
4.0
 40
4.0
 40
4.0
 40
5.0
 40
5.0
 40
5.0
 40
6.0
 40
6.0
 40
6.0
 40
7.0
 40
7.0
 40
7.0
 40
8.0
 40
8.0
 40
8.0
 40
9.0
 40
9.0
 40
9.0
 40
10.0
 40
10.0
 40
10.0
 40
11.0
 40
11.0
 40
11.0
 40
12.0
 40
12.0
 40
12.0
 40
13.0
 40
13.0
 40
13.0
 40
14.0
 40
14.0
 40
14.0
 40
15.0
 40
15.0
 40
15.0
 40
15.0
 10
96.11230740017361
 20
94.33636067708332
 30
0.0
 10
96.11230740017361
 20
95.24517686631944
 30
0.0
 10
95.84600151909721
 20
95.45877278645833
 30
0.0
 10
95.47117513020832
 20
95.72680121527777
 30
0.0
 10
95.09634874131943
 20
95.9944851345486
 30
0.0
 10
94.82866482204861
 20
96.10128309461804
 30
0.0
 10
94.56098090277777
 20
96.26216905381943
 30
0.0
 10
94.29329698350693
 20
96.42305501302083
 30
0.0
 10
93.86438259548611
 20
96.26216905381943
 30
0.0
 10
93.54398871527776
 20
96.53019748263888
 30
0.0
 10
93.22325032552082
 20
96.79788140190972
 30
0.0
 10
93.32901475694443
 20
97.17236328124999
 30
0.0
 10
93.00827636718749
 20
97.3863037109375
 30
0.0
 10
92.68788248697916
 20
97.59989963107638
 30
0.0
 10
90.60084364149304
 20
98.93900824652776
 30
0.0
 10
90.22601725260415
 20
99.2066921657986
 30
0.0
 10
89.85153537326389
 20
99.47437608506944
 30
0.0
 10
89.58488498263888
 20
99.68693847656249
 30
0.0
 10
88.88828667534722
 20
99.36654459635416
 30
0.0
 10
88.19203287760416
 20
99.04580620659722
 30
0.0
 10
77.59733072916666
 20
93.85473632812499
 30
0.0
 10
77.32964680989582
 20
93.80064832899305
 30
0.0
 10
77.32964680989582
 20
93.80064832899305
 30
0.0
 10
39.11768120659722
 20
54.836962890625
 30
0.0
 10
39.11768120659722
 20
54.836962890625
 30
0.0
 10
39.11768120659722
 20
54.836962890625
 30
0.0
 10
39.17176920572916
 20
52.26829969618055
 30
0.0
 10
39.17176920572916
 20
52.26829969618055
 30
0.0
 10
39.17176920572916
 20
52.26829969618055
 30
0.0
 10
42.54245062934027
 20
49.27106662326388
 30
0.0
 10
42.54245062934027
 20
49.27106662326388
 30
0.0
 10
42.54245062934027
 20
49.27106662326388
 30
0.0
 10
45.70056966145833
 20
49.69998101128472
 30
0.0
 10
45.70056966145833
 20
49.69998101128472
 30
0.0
 10
45.70056966145833
 20
49.69998101128472
 30
0.0
 10
83.10879448784722
 20
88.55549045138888
 30
0.0
 10
83.32273491753472
 20
88.82351888020833
 30
0.0
 10
83.5363308376736
 20
89.09120279947916
 30
0.0
 10
83.80298122829861
 20
89.30617675781249
 30
0.0
 10
84.23155110677082
 20
89.46568467881944
 30
0.0
 10
84.66046549479167
 20
89.62553710937499
 30
0.0
 10
95.04260525173611
 20
94.76355251736111
 30
0.0
 10
95.04260525173611
 20
94.76355251736111
 30
0.0
 10
95.04260525173611
 20
94.76355251736111
 30
0.0
 10
95.52388509114583
 20
94.76493055555555
 30
0.0
 10
96.11230740017361
 20
94.33636067708332
 30
0.0
  0
HATCH
  5
CC
330
A
100
AcDbEntity
  8
LAYER_1
 62
     7
100
AcDbHatch
 10
0.0
 20
0.0
 30
0.0
210
0.0
220
0.0
230
1.0
  2
SOLID
 70
     1
 71
     0
 91
        1
 92
        3
 72
     0
 73
     1
 93
        3
 10
61.41743977864583
 20
116.8779649522569
 10
60.65090603298611
 20
118.6528781467014
 10
57.51724717881944
 20
116.5992567274305
 97
        0
 75
     0
 76
     1
 98
        1
 10
0.0
 20
0.0
  0
SPLINE
  5
CB
330
A
100
AcDbEntity
  8
LAYER_1
 62
     7
100
AcDbSpline
210
0.0
220
0.0
230
1.0
 70
     8
 71
     3
 72
     8
 73
     4
 74
     0
 42
0.0000000001
 43
0.0000000001
 40
0.0
 40
0.0
 40
0.0
 40
0.0
 40
1.0
 40
1.0
 40
1.0
 40
1.0
 10
60.47623969184027
 20
117.7475070529514
 30
0.0
 10
63.92443576388888
 20
118.5829427083333
 30
0.0
 10
69.14616699218749
 20
118.4454833984375
 30
0.0
 10
71.82782931857638
 20
117.6789496527778
 30
0.0
  0
SPLINE
  5
CA
330
A
100
AcDbEntity
  8
LAYER_1
 62
     7
100
AcDbSpline
210
0.0
220
0.0
230
1.0
 70
     8
 71
     3
 72
    29
 73
    25
 74
     0
 42
0.0000000001
 43
0.0000000001
 40
0.0
 40
0.0
 40
0.0
 40
0.0
 40
1.0
 40
1.0
 40
1.0
 40
2.0
 40
2.0
 40
2.0
 40
3.0
 40
3.0
 40
3.0
 40
4.0
 40
4.0
 40
4.0
 40
5.0
 40
5.0
 40
5.0
 40
6.0
 40
6.0
 40
6.0
 40
7.0
 40
7.0
 40
7.0
 40
8.0
 40
8.0
 40
8.0
 40
8.0
 10
109.4365587022569
 20
45.08493109809027
 30
0.0
 10
109.9068142361111
 20
46.2824462890625
 30
0.0
 10
109.6918402777778
 20
49.15083279079861
 30
0.0
 10
110.0346272786458
 20
50.43309733072916
 30
0.0
 10
110.3774142795139
 20
51.71570638020833
 30
0.0
 10
110.4635416666667
 20
54.88209364149305
 30
0.0
 10
110.3774142795139
 20
55.6093532986111
 30
0.0
 10
110.2912868923611
 20
56.33661295572916
 30
0.0
 10
110.6354519314236
 20
57.49003092447916
 30
0.0
 10
110.7629204644097
 20
57.7050048828125
 30
0.0
 10
110.8907335069444
 20
57.91997884114583
 30
0.0
 10
111.1057074652778
 20
58.6041748046875
 30
0.0
 10
111.2765842013889
 20
59.54537489149305
 30
0.0
 10
111.4471164279514
 20
60.48623046874999
 30
0.0
 10
111.91875
 20
60.74289008246527
 30
0.0
 10
111.4901801215278
 20
61.25620930989583
 30
0.0
 10
111.0616102430555
 20
61.76987304687499
 30
0.0
 10
110.8049506293403
 20
63.053515625
 30
0.0
 10
110.8907335069444
 20
63.99437120225694
 30
0.0
 10
110.9768608940972
 20
64.93522677951388
 30
0.0
 10
111.2348985460069
 20
68.48539767795138
 30
0.0
 10
111.2765842013889
 20
69.17062717013889
 30
0.0
 10
111.3182698567708
 20
69.856201171875
 30
0.0
 10
111.1463595920139
 20
71.78097601996527
 30
0.0
 10
111.0616102430555
 20
72.29429524739582
 30
0.0
  0
SPLINE
  5
C9
330
A
100
AcDbEntity
  8
LAYER_1
 62
     7
100
AcDbSpline
210
0.0
220
0.0
230
1.0
 70
     8
 71
     3
 72
    29
 73
    25
 74
     0
 42
0.0000000001
 43
0.0000000001
 40
0.0
 40
0.0
 40
0.0
 40
0.0
 40
1.0
 40
1.0
 40
1.0
 40
2.0
 40
2.0
 40
2.0
 40
3.0
 40
3.0
 40
3.0
 40
4.0
 40
4.0
 40
4.0
 40
5.0
 40
5.0
 40
5.0
 40
6.0
 40
6.0
 40
6.0
 40
7.0
 40
7.0
 40
7.0
 40
8.0
 40
8.0
 40
8.0
 40
8.0
 10
113.030482313368
 20
73.44909125434027
 30
0.0
 10
112.9446994357639
 20
72.03763563368055
 30
0.0
 10
113.3722357855903
 20
67.75917154947916
 30
0.0
 10
112.9446994357639
 20
65.7913330078125
 30
0.0
 10
112.5171630859375
 20
63.82349446614582
 30
0.0
 10
112.646009657118
 20
62.24012858072916
 30
0.0
 10
112.7738226996528
 20
61.29927300347222
 30
0.0
 10
112.9016357421875
 20
60.35841742621528
 30
0.0
 10
113.8424913194444
 20
58.13254123263889
 30
0.0
 10
113.4152994791667
 20
57.4914089626736
 30
0.0
 10
112.9877631293403
 20
56.85027669270833
 30
0.0
 10
112.3021891276042
 20
55.13771972656249
 30
0.0
 10
112.3879720052083
 20
54.28299153645833
 30
0.0
 10
112.4740993923611
 20
53.42791883680555
 30
0.0
 10
113.0735460069444
 20
51.80286729600694
 30
0.0
 10
112.7307590060764
 20
51.16035698784722
 30
0.0
 10
112.3879720052083
 20
50.51784667968749
 30
0.0
 10
112.1743760850694
 20
50.34731445312499
 30
0.0
 10
112.1743760850694
 20
49.40645887586805
 30
0.0
 10
112.1743760850694
 20
48.4652587890625
 30
0.0
 10
111.7458062065972
 20
45.00018174913194
 30
0.0
 10
111.3613335503472
 20
43.88707139756944
 30
0.0
 10
110.9768608940972
 20
42.77430555555555
 30
0.0
 10
110.1207546657986
 20
38.53993869357639
 30
0.0
 10
109.3504313151042
 20
37.68383246527777
 30
0.0
  0
SPLINE
  5
C8
330
A
100
AcDbEntity
  8
LAYER_1
 62
     7
100
AcDbSpline
210
0.0
220
0.0
230
1.0
 70
     8
 71
     3
 72
    44
 73
    40
 74
     0
 42
0.0000000001
 43
0.0000000001
 40
0.0
 40
0.0
 40
0.0
 40
0.0
 40
1.0
 40
1.0
 40
1.0
 40
2.0
 40
2.0
 40
2.0
 40
3.0
 40
3.0
 40
3.0
 40
4.0
 40
4.0
 40
4.0
 40
5.0
 40
5.0
 40
5.0
 40
6.0
 40
6.0
 40
6.0
 40
7.0
 40
7.0
 40
7.0
 40
8.0
 40
8.0
 40
8.0
 40
9.0
 40
9.0
 40
9.0
 40
10.0
 40
10.0
 40
10.0
 40
11.0
 40
11.0
 40
11.0
 40
12.0
 40
12.0
 40
12.0
 40
13.0
 40
13.0
 40
13.0
 40
13.0
 10
111.3182698567708
 20
15.13740505642361
 30
0.0
 10
111.0199245876736
 20
16.80655381944444
 30
0.0
 10
111.4030192057292
 20
19.67356228298611
 30
0.0
 10
111.3182698567708
 20
21.51255425347222
 30
0.0
 10
111.2335205078125
 20
23.35154622395833
 30
0.0
 10
111.6610568576389
 20
24.42124837239583
 30
0.0
 10
111.9607801649305
 20
25.91848687065972
 30
0.0
 10
112.2605034722222
 20
27.41606987847222
 30
0.0
 10
113.7146782769097
 20
30.83808322482638
 30
0.0
 10
113.7577419704861
 20
31.56534288194444
 30
0.0
 10
113.8008056640625
 20
32.2926025390625
 30
0.0
 10
114.1005289713542
 20
33.49046223958333
 30
0.0
 10
113.9716824001736
 20
34.34656846788194
 30
0.0
 10
113.8424913194444
 20
35.20267469618055
 30
0.0
 10
114.01474609375
 20
36.357470703125
 30
0.0
 10
114.1852783203125
 20
37.08438585069444
 30
0.0
 10
114.3561550564236
 20
37.8116455078125
 30
0.0
 10
114.8264105902778
 20
39.86664496527777
 30
0.0
 10
114.6128146701389
 20
41.23503689236111
 30
0.0
 10
114.3988742404514
 20
42.60342881944444
 30
0.0
 10
114.5697509765625
 20
45.3832763671875
 30
0.0
 10
114.4419379340278
 20
47.00970594618055
 30
0.0
 10
114.3144694010417
 20
48.63613552517361
 30
0.0
 10
114.3988742404514
 20
51.20204264322916
 30
0.0
 10
114.6558783637153
 20
53.0420681423611
 30
0.0
 10
114.9125379774306
 20
54.88209364149305
 30
0.0
 10
114.8264105902778
 20
56.72108561197916
 30
0.0
 10
115.0830702039931
 20
57.32053222656249
 30
0.0
 10
115.3400743272569
 20
57.91997884114583
 30
0.0
 10
115.6814832899305
 20
58.64723849826388
 30
0.0
 10
115.3827935112847
 20
59.63115776909721
 30
0.0
 10
115.231898328993
 20
60.12862955729166
 30
0.0
 10
114.8694742838542
 20
63.09520128038194
 30
0.0
 10
114.6558783637153
 20
63.99437120225694
 30
0.0
 10
114.4419379340278
 20
64.89354112413194
 30
0.0
 10
114.1852783203125
 20
65.74964735243054
 30
0.0
 10
114.2283420138889
 20
66.39077962239583
 30
0.0
 10
114.2714057074653
 20
67.03225640190972
 30
0.0
 10
114.1852783203125
 20
72.42210828993055
 30
0.0
 10
114.4850016276042
 20
74.26213378906249
 30
0.0
  0
SPLINE
  5
C7
330
A
100
AcDbEntity
  8
LAYER_1
 62
     7
100
AcDbSpline
210
0.0
220
0.0
230
1.0
 70
     8
 71
     3
 72
    38
 73
    34
 74
     0
 42
0.0000000001
 43
0.0000000001
 40
0.0
 40
0.0
 40
0.0
 40
0.0
 40
1.0
 40
1.0
 40
1.0
 40
2.0
 40
2.0
 40
2.0
 40
3.0
 40
3.0
 40
3.0
 40
4.0
 40
4.0
 40
4.0
 40
5.0
 40
5.0
 40
5.0
 40
6.0
 40
6.0
 40
6.0
 40
7.0
 40
7.0
 40
7.0
 40
8.0
 40
8.0
 40
8.0
 40
9.0
 40
9.0
 40
9.0
 40
10.0
 40
10.0
 40
10.0
 40
11.0
 40
11.0
 40
11.0
 40
11.0
 10
115.5119845920139
 20
74.81886121961804
 30
0.0
 10
115.6825168185764
 20
73.27821451822916
 30
0.0
 10
115.6825168185764
 20
70.58208279079861
 30
0.0
 10
115.6825168185764
 20
69.17062717013889
 30
0.0
 10
115.6825168185764
 20
67.75917154947916
 30
0.0
 10
115.6397976345486
 20
66.7311550564236
 30
0.0
 10
115.8964572482639
 20
65.19188639322915
 30
0.0
 10
116.1531168619792
 20
63.65296223958332
 30
0.0
 10
117.0522867838542
 20
58.38920084635416
 30
0.0
 10
117.3089463975694
 20
57.53447265625
 30
0.0
 10
116.9244737413194
 20
56.63771430121528
 30
0.0
 10
116.3250271267361
 20
55.26553276909722
 30
0.0
 10
116.2392442491319
 20
53.72626410590277
 30
0.0
 10
116.1531168619792
 20
52.18733995225694
 30
0.0
 10
115.8117078993056
 20
50.47616102430555
 30
0.0
 10
115.9822401258681
 20
48.72191840277777
 30
0.0
 10
116.1531168619792
 20
46.96802029079861
 30
0.0
 10
116.1520833333333
 20
42.85905490451388
 30
0.0
 10
116.1100531684028
 20
41.74732259114583
 30
0.0
 10
116.0683675130208
 20
40.63559027777777
 30
0.0
 10
116.1531168619792
 20
35.11654730902777
 30
0.0
 10
116.4528401692708
 20
34.08956434461805
 30
0.0
 10
116.7525634765625
 20
33.06292588975694
 30
0.0
 10
116.751185438368
 20
31.43752983940972
 30
0.0
 10
116.366712782118
 20
30.6244873046875
 30
0.0
 10
115.9822401258681
 20
29.81144476996527
 30
0.0
 10
115.8964572482639
 20
28.0572021484375
 30
0.0
 10
115.6397976345486
 20
26.81662326388889
 30
0.0
 10
115.3827935112847
 20
25.57604437934027
 30
0.0
 10
115.2122612847222
 20
24.29240180121528
 30
0.0
 10
115.2553249782986
 20
23.13760579427083
 30
0.0
 10
115.2980441623264
 20
21.98280978732639
 30
0.0
 10
114.9556016710069
 20
18.51773274739583
 30
0.0
 10
115.2122612847222
 20
17.74740939670139
 30
0.0
  0
SPLINE
  5
C6
330
A
100
AcDbEntity
  8
LAYER_1
 62
     7
100
AcDbSpline
210
0.0
220
0.0
230
1.0
 70
     8
 71
     3
 72
    14
 73
    10
 74
     0
 42
0.0000000001
 43
0.0000000001
 40
0.0
 40
0.0
 40
0.0
 40
0.0
 40
1.0
 40
1.0
 40
1.0
 40
2.0
 40
2.0
 40
2.0
 40
3.0
 40
3.0
 40
3.0
 40
3.0
 10
120.9032145182292
 20
64.2940945095486
 30
0.0
 10
120.7313042534722
 20
65.49160970052083
 30
0.0
 10
120.5628390842014
 20
65.96944444444443
 30
0.0
 10
120.2607042100694
 20
66.77525227864582
 30
0.0
 10
119.7473849826389
 20
68.14502224392361
 30
0.0
 10
119.9179172092014
 20
69.55751139322916
 30
0.0
 10
119.9179172092014
 20
70.36952039930554
 30
0.0
 10
119.9179172092014
 20
71.18152940538194
 30
0.0
 10
119.9609809027778
 20
75.759716796875
 30
0.0
 10
119.7473849826389
 20
77.25695529513888
 30
0.0
  0
SPLINE
  5
C5
330
A
100
AcDbEntity
  8
LAYER_1
 62
     7
100
AcDbSpline
210
0.0
220
0.0
230
1.0
 70
     8
 71
     3
 72
    17
 73
    13
 74
     0
 42
0.0000000001
 43
0.0000000001
 40
0.0
 40
0.0
 40
0.0
 40
0.0
 40
1.0
 40
1.0
 40
1.0
 40
2.0
 40
2.0
 40
2.0
 40
3.0
 40
3.0
 40
3.0
 40
4.0
 40
4.0
 40
4.0
 40
4.0
 10
118.2498019748264
 20
76.40084906684027
 30
0.0
 10
118.3359293619792
 20
75.28911675347221
 30
0.0
 10
118.5925889756944
 20
73.23652886284721
 30
0.0
 10
118.549525282118
 20
71.86710340711805
 30
0.0
 10
118.5068060980903
 20
70.49733344184027
 30
0.0
 10
118.7634657118056
 20
67.24585232204861
 30
0.0
 10
119.0201253255208
 20
65.83439670138888
 30
0.0
 10
119.2767849392361
 20
64.42294108072916
 30
0.0
 10
119.7904486762153
 20
61.94040527343749
 30
0.0
 10
120.0471082899306
 20
60.95648600260416
 30
0.0
 10
120.3037679036458
 20
59.97256673177083
 30
0.0
 10
120.7323377821181
 20
57.70638292100694
 30
0.0
 10
120.9032145182292
 20
56.59327256944444
 30
0.0
  0
SPLINE
  5
C4
330
A
100
AcDbEntity
  8
LAYER_1
 62
     7
100
AcDbSpline
210
0.0
220
0.0
230
1.0
 70
     8
 71
     3
 72
    41
 73
    37
 74
     0
 42
0.0000000001
 43
0.0000000001
 40
0.0
 40
0.0
 40
0.0
 40
0.0
 40
1.0
 40
1.0
 40
1.0
 40
2.0
 40
2.0
 40
2.0
 40
3.0
 40
3.0
 40
3.0
 40
4.0
 40
4.0
 40
4.0
 40
5.0
 40
5.0
 40
5.0
 40
6.0
 40
6.0
 40
6.0
 40
7.0
 40
7.0
 40
7.0
 40
8.0
 40
8.0
 40
8.0
 40
9.0
 40
9.0
 40
9.0
 40
10.0
 40
10.0
 40
10.0
 40
11.0
 40
11.0
 40
11.0
 40
12.0
 40
12.0
 40
12.0
 40
12.0
 10
118.8061848958333
 20
20.10006510416666
 30
0.0
 10
118.5925889756944
 20
21.55423990885416
 30
0.0
 10
118.4206787109375
 20
24.20765245225694
 30
0.0
 10
118.5068060980903
 20
25.66182725694444
 30
0.0
 10
118.5925889756944
 20
27.11634657118055
 30
0.0
 10
118.4637424045139
 20
30.2400146484375
 30
0.0
 10
118.4637424045139
 20
31.65147026909722
 30
0.0
 10
118.4637424045139
 20
33.06292588975694
 30
0.0
 10
118.5915554470486
 20
33.31958550347222
 30
0.0
 10
118.20673828125
 20
34.38928765190972
 30
0.0
 10
117.8226101345486
 20
35.45933430989583
 30
0.0
 10
117.7378607855903
 20
37.85470920138889
 30
0.0
 10
118.1219889322917
 20
38.8816921657986
 30
0.0
 10
118.5068060980903
 20
39.90867513020833
 30
0.0
 10
118.9329644097222
 20
40.84953070746528
 30
0.0
 10
118.634619140625
 20
41.87616916232638
 30
0.0
 10
118.3359293619792
 20
42.90315212673611
 30
0.0
 10
118.6773383246528
 20
46.06988389756944
 30
0.0
 10
118.9770616319444
 20
46.71136067708333
 30
0.0
 10
119.2767849392361
 20
47.35249294704861
 30
0.0
 10
119.8762315538194
 20
48.89279513888889
 30
0.0
 10
119.7904486762153
 20
49.66311848958333
 30
0.0
 10
119.7043212890625
 20
50.43309733072916
 30
0.0
 10
119.8762315538194
 20
52.52874891493055
 30
0.0
 10
119.5765082465278
 20
53.85545518663194
 30
0.0
 10
119.2767849392361
 20
55.18216145833333
 30
0.0
 10
118.8912787543403
 20
58.3905788845486
 30
0.0
 10
118.6773383246528
 20
59.33143446180555
 30
0.0
 10
118.4637424045139
 20
60.2722900390625
 30
0.0
 10
117.9945203993055
 20
63.78043077256944
 30
0.0
 10
117.6086697048611
 20
64.59381781684027
 30
0.0
 10
117.2231635199653
 20
65.4068603515625
 30
0.0
 10
117.0092230902778
 20
67.45944824218749
 30
0.0
 10
117.0092230902778
 20
68.27283528645833
 30
0.0
 10
117.0092230902778
 20
69.08587782118055
 30
0.0
 10
116.8386908637153
 20
73.10768229166666
 30
0.0
 10
116.7956271701389
 20
75.58884006076389
 30
0.0
  0
LINE
  5
C3
330
A
100
AcDbEntity
  8
LAYER_1
 62
     7
100
AcDbLine
 10
109.5213080512153
 20
71.43818901909721
 30
0.0
 11
109.2646484375
 21
13.85376247829861
 31
0.0
  0
SPLINE
  5
C2
330
A
100
AcDbEntity
  8
LAYER_1
  6
AI9-LTYPE1
 62
     7
100
AcDbSpline
210
0.0
220
0.0
230
1.0
 70
    11
 71
     3
 72
    11
 73
     7
 74
     0
 42
0.0000000001
 43
0.0000000001
 40
0.0
 40
0.0
 40
0.0
 40
0.0
 40
1.0
 40
1.0
 40
1.0
 40
2.0
 40
2.0
 40
2.0
 40
2.0
 10
91.15722656249999
 20
90.61531304253471
 30
0.0
 10
91.15722656249999
 20
89.94730902777776
 30
0.0
 10
90.5281521267361
 20
89.9080349392361
 30
0.0
 10
90.5281521267361
 20
90.65493164062499
 30
0.0
 10
90.5281521267361
 20
91.16583930121527
 30
0.0
 10
91.15722656249999
 20
91.04767252604165
 30
0.0
 10
91.15722656249999
 20
90.61531304253471
 30
0.0
  0
SPLINE
  5
C1
330
A
100
AcDbEntity
  8
LAYER_1
  6
AI9-LTYPE1
 62
     7
100
AcDbSpline
210
0.0
220
0.0
230
1.0
 70
    11
 71
     3
 72
    11
 73
     7
 74
     0
 42
0.0000000001
 43
0.0000000001
 40
0.0
 40
0.0
 40
0.0
 40
0.0
 40
1.0
 40
1.0
 40
1.0
 40
2.0
 40
2.0
 40
2.0
 40
2.0
 10
93.98737250434027
 20
82.12487521701388
 30
0.0
 10
93.98737250434027
 20
81.14233398437499
 30
0.0
 10
92.80811631944444
 20
81.41759711371527
 30
0.0
 10
92.80811631944444
 20
82.55723470052082
 30
0.0
 10
92.80811631944444
 20
83.46157226562499
 30
0.0
 10
93.98737250434027
 20
83.26485731336805
 30
0.0
 10
93.98737250434027
 20
82.12487521701388
 30
0.0
  0
SPLINE
  5
C0
330
A
100
AcDbEntity
  8
LAYER_1
  6
AI9-LTYPE1
 62
     7
100
AcDbSpline
210
0.0
220
0.0
230
1.0
 70
    11
 71
     3
 72
    11
 73
     7
 74
     0
 42
0.0000000001
 43
0.0000000001
 40
0.0
 40
0.0
 40
0.0
 40
0.0
 40
1.0
 40
1.0
 40
1.0
 40
2.0
 40
2.0
 40
2.0
 40
2.0
 10
91.86484917534722
 20
75.20677897135415
 30
0.0
 10
91.86484917534722
 20
74.22423773871527
 30
0.0
 10
90.68559299045138
 20
74.49915635850694
 30
0.0
 10
90.68559299045138
 20
75.6391384548611
 30
0.0
 10
90.68559299045138
 20
76.54347601996527
 30
0.0
 10
91.86484917534722
 20
76.34676106770833
 30
0.0
 10
91.86484917534722
 20
75.20677897135415
 30
0.0
  0
SPLINE
  5
BF
330
A
100
AcDbEntity
  8
LAYER_1
  6
AI9-LTYPE1
 62
     7
100
AcDbSpline
210
0.0
220
0.0
230
1.0
 70
    11
 71
     3
 72
    11
 73
     7
 74
     0
 42
0.0000000001
 43
0.0000000001
 40
0.0
 40
0.0
 40
0.0
 40
0.0
 40
1.0
 40
1.0
 40
1.0
 40
2.0
 40
2.0
 40
2.0
 40
2.0
 10
93.86955023871526
 20
66.40180392795138
 30
0.0
 10
93.86955023871526
 20
65.4192626953125
 30
0.0
 10
92.69029405381944
 20
65.69452582465277
 30
0.0
 10
92.69029405381944
 20
66.83416341145833
 30
0.0
 10
92.69029405381944
 20
67.73850097656249
 30
0.0
 10
93.86955023871526
 20
67.54178602430555
 30
0.0
 10
93.86955023871526
 20
66.40180392795138
 30
0.0
  0
SPLINE
  5
BE
330
A
100
AcDbEntity
  8
LAYER_1
  6
AI9-LTYPE1
 62
     7
100
AcDbSpline
210
0.0
220
0.0
230
1.0
 70
    11
 71
     3
 72
    11
 73
     7
 74
     0
 42
0.0000000001
 43
0.0000000001
 40
0.0
 40
0.0
 40
0.0
 40
0.0
 40
1.0
 40
1.0
 40
1.0
 40
2.0
 40
2.0
 40
2.0
 40
2.0
 10
91.6288601345486
 20
60.66296386718749
 30
0.0
 10
91.6288601345486
 20
59.68042263454861
 30
0.0
 10
90.44960394965277
 20
59.95534125434028
 30
0.0
 10
90.44960394965277
 20
61.09532335069444
 30
0.0
 10
90.44960394965277
 20
61.99931640625
 30
0.0
 10
91.6288601345486
 20
61.80294596354166
 30
0.0
 10
91.6288601345486
 20
60.66296386718749
 30
0.0
  0
SPLINE
  5
BD
330
A
100
AcDbEntity
  8
LAYER_1
  6
AI9-LTYPE1
 62
     7
100
AcDbSpline
210
0.0
220
0.0
230
1.0
 70
    11
 71
     3
 72
    11
 73
     7
 74
     0
 42
0.0000000001
 43
0.0000000001
 40
0.0
 40
0.0
 40
0.0
 40
0.0
 40
1.0
 40
1.0
 40
1.0
 40
2.0
 40
2.0
 40
2.0
 40
2.0
 10
94.02664659288193
 20
52.72305230034722
 30
0.0
 10
94.02664659288193
 20
51.74016655815971
 30
0.0
 10
92.8473904079861
 20
52.0154296875
 30
0.0
 10
92.8473904079861
 20
53.15506727430555
 30
0.0
 10
92.8473904079861
 20
54.05940483940972
 30
0.0
 10
94.02664659288193
 20
53.86268988715278
 30
0.0
 10
94.02664659288193
 20
52.72305230034722
 30
0.0
  0
SPLINE
  5
BC
330
A
100
AcDbEntity
  8
LAYER_1
  6
AI9-LTYPE1
 62
     7
100
AcDbSpline
210
0.0
220
0.0
230
1.0
 70
    11
 71
     3
 72
    11
 73
     7
 74
     0
 42
0.0000000001
 43
0.0000000001
 40
0.0
 40
0.0
 40
0.0
 40
0.0
 40
1.0
 40
1.0
 40
1.0
 40
2.0
 40
2.0
 40
2.0
 40
2.0
 10
92.7295681423611
 20
50.79689941406249
 30
0.0
 10
92.7295681423611
 20
49.814013671875
 30
0.0
 10
91.55031195746527
 20
50.08927680121527
 30
0.0
 10
91.55031195746527
 20
51.22925889756944
 30
0.0
 10
91.55031195746527
 20
52.133251953125
 30
0.0
 10
92.7295681423611
 20
51.93653700086805
 30
0.0
 10
92.7295681423611
 20
50.79689941406249
 30
0.0
  0
SPLINE
  5
BB
330
A
100
AcDbEntity
  8
LAYER_1
  6
AI9-LTYPE1
 62
     7
100
AcDbSpline
210
0.0
220
0.0
230
1.0
 70
    11
 71
     3
 72
    11
 73
     7
 74
     0
 42
0.0000000001
 43
0.0000000001
 40
0.0
 40
0.0
 40
0.0
 40
0.0
 40
1.0
 40
1.0
 40
1.0
 40
2.0
 40
2.0
 40
2.0
 40
2.0
 10
91.35359700520833
 20
49.18528374565972
 30
0.0
 10
91.35359700520833
 20
48.20239800347222
 30
0.0
 10
90.17434082031249
 20
48.47766113281249
 30
0.0
 10
90.17434082031249
 20
49.61764322916666
 30
0.0
 10
90.17434082031249
 20
50.52163628472222
 30
0.0
 10
91.35359700520833
 20
50.32492133246527
 30
0.0
 10
91.35359700520833
 20
49.18528374565972
 30
0.0
  0
LINE
  5
BA
330
A
100
AcDbEntity
  8
LAYER_1
  6
AI9-LTYPE1
 62
     7
100
AcDbLine
 10
95.08808051215277
 20
45.68678927951388
 30
0.0
 11
96.03134765624999
 21
45.9227783203125
 31
0.0
  0
LWPOLYLINE
  5
B5
330
A
100
AcDbEntity
  8
LAYER_1
  6
AI9-LTYPE1
 62
     7
100
AcDbPolyline
 90
        3
 70
     0
 43
0.0
 10
95.00918782552083
 20
94.70360785590277
 10
95.08808051215277
 20
45.72606336805555
 10
93.712109375
 20
44.54680718315972
  0
SPLINE
  5
B3
330
A
100
AcDbEntity
  8
LAYER_1
 62
     7
100
AcDbSpline
210
0.0
220
0.0
230
1.0
 70
     8
 71
     3
 72
    26
 73
    22
 74
     0
 42
0.0000000001
 43
0.0000000001
 40
0.0
 40
0.0
 40
0.0
 40
0.0
 40
1.0
 40
1.0
 40
1.0
 40
2.0
 40
2.0
 40
2.0
 40
3.0
 40
3.0
 40
3.0
 40
4.0
 40
4.0
 40
4.0
 40
5.0
 40
5.0
 40
5.0
 40
6.0
 40
6.0
 40
6.0
 40
7.0
 40
7.0
 40
7.0
 40
7.0
 10
84.98602701822917
 20
68.17086046006943
 30
0.0
 10
84.35695258246527
 20
67.58106011284721
 30
0.0
 10
84.23913031684027
 20
67.30614149305555
 30
0.0
 10
83.84604492187499
 20
66.67706705729167
 30
0.0
 10
83.45295952690971
 20
66.04833713107638
 30
0.0
 10
83.02060004340277
 20
65.73379991319443
 30
0.0
 10
83.13842230902777
 20
65.18327365451388
 30
0.0
 10
83.25624457465277
 20
64.63309190538193
 30
0.0
 10
83.76749674479166
 20
64.51526963975694
 30
0.0
 10
83.41368543836805
 20
63.80764702690971
 30
0.0
 10
83.05987413194444
 20
63.1000244140625
 30
0.0
 10
83.25624457465277
 20
62.62839084201389
 30
0.0
 10
82.74533691406249
 20
61.72439778645833
 30
0.0
 10
82.23442925347221
 20
60.82006022135416
 30
0.0
 10
82.58789605034721
 20
60.54514160156249
 30
0.0
 10
83.05987413194444
 20
60.54514160156249
 30
0.0
 10
83.53150770399304
 20
60.54514160156249
 30
0.0
 10
84.1998562282986
 20
60.70223795572916
 30
0.0
 10
84.47477484809028
 20
60.97750108506944
 30
0.0
 10
84.75003797743055
 20
61.25276421440972
 30
0.0
 10
84.75003797743055
 20
61.25276421440972
 30
0.0
 10
84.98602701822917
 20
61.37058648003472
 30
0.0
  0
SPLINE
  5
B2
330
A
100
AcDbEntity
  8
LAYER_1
 62
     7
100
AcDbSpline
210
0.0
220
0.0
230
1.0
 70
     8
 71
     3
 72
    41
 73
    37
 74
     0
 42
0.0000000001
 43
0.0000000001
 40
0.0
 40
0.0
 40
0.0
 40
0.0
 40
1.0
 40
1.0
 40
1.0
 40
2.0
 40
2.0
 40
2.0
 40
3.0
 40
3.0
 40
3.0
 40
4.0
 40
4.0
 40
4.0
 40
5.0
 40
5.0
 40
5.0
 40
6.0
 40
6.0
 40
6.0
 40
7.0
 40
7.0
 40
7.0
 40
8.0
 40
8.0
 40
8.0
 40
9.0
 40
9.0
 40
9.0
 40
10.0
 40
10.0
 40
10.0
 40
11.0
 40
11.0
 40
11.0
 40
12.0
 40
12.0
 40
12.0
 40
12.0
 10
84.98602701822917
 20
71.23665093315971
 30
0.0
 10
84.4355007595486
 20
70.76501736111111
 30
0.0
 10
84.23913031684027
 20
70.4112060546875
 30
0.0
 10
83.45295952690971
 20
69.23194986979166
 30
0.0
 10
82.66678873697916
 20
68.05269368489583
 30
0.0
 10
81.95916612413194
 20
67.26652289496528
 30
0.0
 10
81.25154351128471
 20
66.67706705729167
 30
0.0
 10
80.5442654079861
 20
66.08761121961805
 30
0.0
 10
79.48283148871528
 20
64.7901882595486
 30
0.0
 10
79.91519097222222
 20
63.96474338107638
 30
0.0
 10
79.32573513454861
 20
62.98220214843749
 30
0.0
 10
79.24684244791666
 20
62.27457953559027
 30
0.0
 10
79.20756835937499
 20
61.92076822916666
 30
0.0
 10
79.16829427083333
 20
61.56695692274305
 30
0.0
 10
79.28611653645832
 20
61.29203830295138
 30
0.0
 10
78.77520887586805
 20
60.70223795572916
 30
0.0
 10
78.26430121527777
 20
60.11278211805555
 30
0.0
 10
78.53956434461804
 20
59.75897081163194
 30
0.0
 10
77.75339355468749
 20
58.69753689236111
 30
0.0
 10
76.96722276475694
 20
57.63644748263889
 30
0.0
 10
75.94506293402777
 20
55.55285373263889
 30
0.0
 10
75.4341552734375
 20
54.68813476562499
 30
0.0
 10
74.92324761284722
 20
53.82341579861111
 30
0.0
 10
74.37272135416666
 20
52.64415961371527
 30
0.0
 10
75.15889214409721
 20
52.44778917100694
 30
0.0
 10
75.94506293402777
 20
52.25107421875
 30
0.0
 10
76.61341145833333
 20
52.48706325954861
 30
0.0
 10
77.12431911892361
 20
52.80125596788194
 30
0.0
 10
77.6355712890625
 20
53.1161376953125
 30
0.0
 10
78.18575303819443
 20
53.43033040364583
 30
0.0
 10
78.38212348090278
 20
53.3517822265625
 30
0.0
 10
78.57883843315972
 20
53.27323404947916
 30
0.0
 10
79.24684244791666
 20
53.1161376953125
 30
0.0
 10
79.99373914930555
 20
53.58777126736111
 30
0.0
 10
80.74063585069443
 20
54.05940483940972
 30
0.0
 10
84.59294162326388
 20
56.57501356336805
 30
0.0
 10
84.98602701822917
 20
57.04664713541666
 30
0.0
  0
SPLINE
  5
B1
330
A
100
AcDbEntity
  8
LAYER_1
 62
     7
100
AcDbSpline
210
0.0
220
0.0
230
1.0
 70
     8
 71
     3
 72
    11
 73
     7
 74
     0
 42
0.0000000001
 43
0.0000000001
 40
0.0
 40
0.0
 40
0.0
 40
0.0
 40
1.0
 40
1.0
 40
1.0
 40
2.0
 40
2.0
 40
2.0
 40
2.0
 10
72.03539632161457
 20
58.11066487630208
 30
0.0
 10
71.72189263237847
 20
58.02367621527777
 30
0.0
 10
71.38547905815972
 20
58.29049886067708
 30
0.0
 10
71.38547905815972
 20
58.81535915798611
 30
0.0
 10
71.38547905815972
 20
59.68886311848958
 30
0.0
 10
71.81094835069443
 20
60.00942925347222
 30
0.0
 10
72.150634765625
 20
59.91331108940972
 30
0.0
  0
SPLINE
  5
B0
330
A
100
AcDbEntity
  8
LAYER_1
 62
     7
100
AcDbSpline
210
0.0
220
0.0
230
1.0
 70
     8
 71
     3
 72
    11
 73
     7
 74
     0
 42
0.0000000001
 43
0.0000000001
 40
0.0
 40
0.0
 40
0.0
 40
0.0
 40
1.0
 40
1.0
 40
1.0
 40
2.0
 40
2.0
 40
2.0
 40
2.0
 10
74.62025146484375
 20
47.05087483723958
 30
0.0
 10
74.28935004340278
 20
46.90066867404514
 30
0.0
 10
73.90108778211805
 20
47.16680230034722
 30
0.0
 10
73.90108778211805
 20
47.73076443142361
 30
0.0
 10
73.90108778211805
 20
48.63975287543402
 30
0.0
 10
74.36169704861111
 20
48.94998372395833
 30
0.0
 10
74.70724012586805
 20
48.81493598090277
 30
0.0
  0
SPLINE
  5
AF
330
A
100
AcDbEntity
  8
LAYER_1
 62
     7
100
AcDbSpline
210
0.0
220
0.0
230
1.0
 70
     8
 71
     3
 72
    11
 73
     7
 74
     0
 42
0.0000000001
 43
0.0000000001
 40
0.0
 40
0.0
 40
0.0
 40
0.0
 40
1.0
 40
1.0
 40
1.0
 40
2.0
 40
2.0
 40
2.0
 40
2.0
 10
72.0145534939236
 20
39.82978244357638
 30
0.0
 10
72.21092393663194
 20
39.82978244357638
 30
0.0
 10
73.11491699218749
 20
39.86905653211805
 30
0.0
 10
73.74399142795139
 20
40.065771484375
 30
0.0
 10
74.37272135416666
 20
40.26214192708333
 30
0.0
 10
77.47813042534722
 20
41.44139811197916
 30
0.0
 10
77.8712158203125
 20
41.79520941840278
 30
0.0
  0
SPLINE
  5
AE
330
A
100
AcDbEntity
  8
LAYER_1
 62
     7
100
AcDbSpline
210
0.0
220
0.0
230
1.0
 70
     8
 71
     3
 72
    20
 73
    16
 74
     0
 42
0.0000000001
 43
0.0000000001
 40
0.0
 40
0.0
 40
0.0
 40
0.0
 40
1.0
 40
1.0
 40
1.0
 40
2.0
 40
2.0
 40
2.0
 40
3.0
 40
3.0
 40
3.0
 40
4.0
 40
4.0
 40
4.0
 40
5.0
 40
5.0
 40
5.0
 40
5.0
 10
70.32404513888888
 20
45.68678927951388
 30
0.0
 10
70.6778564453125
 20
45.64751519097222
 30
0.0
 10
71.81783854166666
 20
45.60824110243055
 30
0.0
 10
72.56473524305555
 20
45.68678927951388
 30
0.0
 10
73.31163194444444
 20
45.76533745659722
 30
0.0
 10
74.05852864583332
 20
46.27624511718749
 30
0.0
 10
74.49088812934028
 20
46.19769694010417
 30
0.0
 10
74.92324761284722
 20
46.11914876302083
 30
0.0
 10
75.70941840277777
 20
45.80461154513888
 30
0.0
 10
76.53486328125
 20
46.43368598090277
 30
0.0
 10
77.36030815972221
 20
47.06241590711805
 30
0.0
 10
80.22972819010415
 20
48.39911295572917
 30
0.0
 10
80.70136176215277
 20
48.94929470486111
 30
0.0
 10
81.17299533420139
 20
49.49947645399305
 30
0.0
 10
84.59294162326388
 20
51.89726291232638
 30
0.0
 10
85.02530110677083
 20
52.48706325954861
 30
0.0
  0
SPLINE
  5
AD
330
A
100
AcDbEntity
  8
LAYER_1
 62
     7
100
AcDbSpline
210
0.0
220
0.0
230
1.0
 70
     8
 71
     3
 72
    38
 73
    34
 74
     0
 42
0.0000000001
 43
0.0000000001
 40
0.0
 40
0.0
 40
0.0
 40
0.0
 40
1.0
 40
1.0
 40
1.0
 40
2.0
 40
2.0
 40
2.0
 40
3.0
 40
3.0
 40
3.0
 40
4.0
 40
4.0
 40
4.0
 40
5.0
 40
5.0
 40
5.0
 40
6.0
 40
6.0
 40
6.0
 40
7.0
 40
7.0
 40
7.0
 40
8.0
 40
8.0
 40
8.0
 40
9.0
 40
9.0
 40
9.0
 40
10.0
 40
10.0
 40
10.0
 40
11.0
 40
11.0
 40
11.0
 40
11.0
 10
84.94675292968749
 20
75.44276801215277
 30
0.0
 10
84.4355007595486
 20
74.85331217447916
 30
0.0
 10
83.92459309895833
 20
73.59516330295138
 30
0.0
 10
83.13842230902777
 20
72.69117024739583
 30
0.0
 10
82.35225151909721
 20
71.78717719184027
 30
0.0
 10
80.97662489149305
 20
69.90029839409722
 30
0.0
 10
80.4260986328125
 20
69.4286648220486
 30
0.0
 10
79.87591688368055
 20
68.95703125
 30
0.0
 10
79.32573513454861
 20
68.52467176649304
 30
0.0
 10
78.85375705295138
 20
67.97414550781249
 30
0.0
 10
78.38212348090278
 20
67.42396375868054
 30
0.0
 10
78.3428493923611
 20
66.9916042751736
 30
0.0
 10
77.6355712890625
 20
66.28398166232638
 30
0.0
 10
76.92794867621527
 20
65.57635904947917
 30
0.0
 10
76.65268554687499
 20
65.06545138888889
 30
0.0
 10
76.18105197482639
 20
64.55454372829861
 30
0.0
 10
75.70941840277777
 20
64.04329155815972
 30
0.0
 10
75.19816623263888
 20
63.3360134548611
 30
0.0
 10
75.19816623263888
 20
62.94292805989583
 30
0.0
 10
75.19816623263888
 20
62.54984266493055
 30
0.0
 10
75.27671440972222
 20
61.52768283420139
 30
0.0
 10
75.08034396701389
 20
61.33131239149305
 30
0.0
 10
74.88397352430555
 20
61.1345974392361
 30
0.0
 10
74.49088812934028
 20
60.34842664930555
 30
0.0
 10
74.60871039496527
 20
60.15205620659722
 30
0.0
 10
74.72653266059027
 20
59.95534125434028
 30
0.0
 10
74.68725857204861
 20
59.44443359374999
 30
0.0
 10
74.41199544270833
 20
58.89425184461805
 30
0.0
 10
74.13707682291665
 20
58.34372558593749
 30
0.0
 10
73.58689507378472
 20
56.37829861111111
 30
0.0
 10
73.11491699218749
 20
55.71029459635416
 30
0.0
 10
72.64328342013889
 20
55.0419460720486
 30
0.0
 10
69.8131374782986
 20
49.18528374565972
 30
0.0
 10
69.53787434895833
 20
48.28094618055555
 30
0.0
  0
SPLINE
  5
AC
330
A
100
AcDbEntity
  8
LAYER_1
 62
     7
100
AcDbSpline
210
0.0
220
0.0
230
1.0
 70
     8
 71
     3
 72
    41
 73
    37
 74
     0
 42
0.0000000001
 43
0.0000000001
 40
0.0
 40
0.0
 40
0.0
 40
0.0
 40
1.0
 40
1.0
 40
1.0
 40
2.0
 40
2.0
 40
2.0
 40
3.0
 40
3.0
 40
3.0
 40
4.0
 40
4.0
 40
4.0
 40
5.0
 40
5.0
 40
5.0
 40
6.0
 40
6.0
 40
6.0
 40
7.0
 40
7.0
 40
7.0
 40
8.0
 40
8.0
 40
8.0
 40
9.0
 40
9.0
 40
9.0
 40
10.0
 40
10.0
 40
10.0
 40
11.0
 40
11.0
 40
11.0
 40
12.0
 40
12.0
 40
12.0
 40
12.0
 10
84.96983506944444
 20
79.03806966145832
 30
0.0
 10
84.13577745225693
 20
78.51131456163193
 30
0.0
 10
82.55378960503471
 20
76.31747775607639
 30
0.0
 10
81.76382921006943
 20
75.43897840711804
 30
0.0
 10
80.97421332465277
 20
74.56082356770833
 30
0.0
 10
80.00751953125
 20
73.06703016493054
 30
0.0
 10
79.480419921875
 20
72.62846950954861
 30
0.0
 10
78.9533203125
 20
72.18990885416666
 30
0.0
 10
78.64636230468749
 20
71.57599283854167
 30
0.0
 10
78.29496256510416
 20
71.00479600694443
 30
0.0
 10
77.94356282552083
 20
70.43359917534721
 30
0.0
 10
77.90084364149305
 20
70.0391357421875
 30
0.0
 10
77.32964680989582
 20
69.68773600260415
 30
0.0
 10
76.7584499782986
 20
69.33633626302083
 30
0.0
 10
76.09871419270833
 20
68.41408420138889
 30
0.0
 10
75.66015353732638
 20
67.93142632378472
 30
0.0
 10
75.22159288194443
 20
67.44842393663194
 30
0.0
 10
73.64063856336804
 20
65.51744791666665
 30
0.0
 10
73.15798068576389
 20
64.99069281684027
 30
0.0
 10
72.67532280815972
 20
64.46359320746527
 30
0.0
 10
72.18990885416666
 20
63.40973849826388
 30
0.0
 10
71.66453179253472
 20
63.05833875868055
 30
0.0
 10
71.13846571180555
 20
62.70693901909722
 30
0.0
 10
70.6999050564236
 20
62.3128200954861
 30
0.0
 10
70.61171061197916
 20
61.96142035590277
 30
0.0
 10
70.52317165798611
 20
61.61002061631944
 30
0.0
 10
70.17314995659721
 20
60.60164116753472
 30
0.0
 10
70.08461100260416
 20
60.29330512152777
 30
0.0
 10
69.99607204861111
 20
59.98496907552083
 30
0.0
 10
70.04051378038194
 20
60.02906629774305
 30
0.0
 10
69.6891140407986
 20
59.50231119791666
 30
0.0
 10
69.33771430121527
 20
58.97521158854166
 30
0.0
 10
69.11791720920138
 20
58.31547580295138
 30
0.0
 10
68.98631456163194
 20
57.78975423177083
 30
0.0
 10
68.8550564236111
 20
57.26403266059027
 30
0.0
 10
67.97690158420139
 20
55.333056640625
 30
0.0
 10
67.44980197482639
 20
55.06916232638888
 30
0.0
  0
LINE
  5
AB
330
A
100
AcDbEntity
  8
LAYER_1
 62
     7
100
AcDbLine
 10
65.9560085720486
 20
60.11760525173611
 30
0.0
 11
84.96983506944444
 21
80.39922688802082
 31
0.0
  0
LINE
  5
AA
330
A
100
AcDbEntity
  8
LAYER_1
 62
     7
100
AcDbLine
 10
70.65477430555555
 20
38.16649034288194
 30
0.0
 11
64.15663519965277
 21
59.37070855034722
 31
0.0
  0
LINE
  5
A9
330
A
100
AcDbEntity
  8
LAYER_1
 62
     7
100
AcDbLine
 10
64.59519585503472
 20
59.80926920572916
 30
0.0
 11
71.40132649739583
 21
37.63973524305555
 31
0.0
  0
LINE
  5
A8
330
A
100
AcDbEntity
  8
LAYER_1
 62
     7
100
AcDbLine
 10
72.14822319878472
 20
37.11263563368055
 30
0.0
 11
65.07785373263889
 21
60.16170247395833
 31
0.0
  0
LWPOLYLINE
  5
9F
330
A
100
AcDbEntity
  8
LAYER_1
 62
     7
100
AcDbPolyline
 90
        7
 70
     0
 43
0.0
 10
56.66837565104166
 20
11.69403211805556
 10
54.48797471788194
 20
15.28106553819444
 10
51.39393446180555
 20
17.84697265625
 10
69.95955403645833
 20
38.80314398871528
 10
73.01776529947917
 20
36.34127875434027
 10
66.00045030381943
 20
60.07350802951388
 10
65.12195095486111
 20
60.42456325954861
  0
LINE
  5
9E
330
A
100
AcDbEntity
  8
LAYER_1
 62
     7
100
AcDbLine
 10
63.67397732204861
 20
58.79951171875
 30
0.0
 11
69.95197482638888
 21
38.78075086805555
 31
0.0
  0
LWPOLYLINE
  5
98
330
A
100
AcDbEntity
  8
LAYER_1
 62
     7
100
AcDbPolyline
 90
        4
 70
     0
 43
0.0
 10
84.25256618923611
 20
80.77749837239583
 10
84.97121310763887
 20
80.50361328125
 10
85.04734971788194
 20
43.8453857421875
 10
79.84525553385416
 20
37.92464463975694
  0
LWPOLYLINE
  5
92
330
A
100
AcDbEntity
  8
LAYER_1
 62
     7
100
AcDbPolyline
 90
        4
 70
     0
 43
0.0
 10
38.02455240885416
 20
39.18623860677083
 10
85.1641384548611
 20
88.25473361545139
 10
84.96397840711805
 20
81.53059624565971
 10
40.87054578993055
 20
34.48402777777778
  0
LINE
  5
91
330
A
100
AcDbEntity
  8
LAYER_1
 62
     7
100
AcDbLine
 10
37.52673611111111
 20
37.69141167534722
 30
0.0
 11
40.26386447482638
 21
35.439697265625
 31
0.0
  0
LINE
  5
90
330
A
100
AcDbEntity
  8
LAYER_1
 62
     7
100
AcDbLine
 10
32.74873318142361
 20
41.622265625
 30
0.0
 11
34.05924750434028
 21
40.54360622829861
 31
0.0
  0
LINE
  5
8F
330
A
100
AcDbEntity
  8
LAYER_1
 62
     7
100
AcDbLine
 10
31.48472764756944
 20
43.57529025607639
 30
0.0
 11
39.64202473958333
 21
36.42981770833333
 31
0.0
  0
LINE
  5
8E
330
A
100
AcDbEntity
  8
LAYER_1
 62
     7
100
AcDbLine
 10
30.31270616319444
 20
45.435986328125
 30
0.0
 11
38.49239637586805
 21
38.19749620225694
 31
0.0
  0
SPLINE
  5
8D
330
A
100
AcDbEntity
  8
LAYER_1
 62
     7
100
AcDbSpline
210
0.0
220
0.0
230
1.0
 70
     8
 71
     3
 72
     8
 73
     4
 74
     0
 42
0.0000000001
 43
0.0000000001
 40
0.0
 40
0.0
 40
0.0
 40
0.0
 40
1.0
 40
1.0
 40
1.0
 40
1.0
 10
54.41700575086805
 20
13.62741970486111
 30
0.0
 10
55.04952528211805
 20
13.27636447482639
 30
0.0
 10
55.57765842013888
 20
12.85365125868055
 30
0.0
 10
55.8946072048611
 20
12.99490017361111
 30
0.0
  0
SPLINE
  5
8C
330
A
100
AcDbEntity
  8
LAYER_1
 62
     7
100
AcDbSpline
210
0.0
220
0.0
230
1.0
 70
     8
 71
     3
 72
     8
 73
     4
 74
     0
 42
0.0000000001
 43
0.0000000001
 40
0.0
 40
0.0
 40
0.0
 40
0.0
 40
1.0
 40
1.0
 40
1.0
 40
1.0
 10
53.01175130208333
 20
14.85835232204861
 30
0.0
 10
53.60878634982638
 20
14.61271701388889
 30
0.0
 10
54.6292236328125
 20
13.94574652777778
 30
0.0
 10
55.05055881076388
 20
14.26131727430555
 30
0.0
  0
SPLINE
  5
8B
330
A
100
AcDbEntity
  8
LAYER_1
 62
     7
100
AcDbSpline
210
0.0
220
0.0
230
1.0
 70
     8
 71
     3
 72
    11
 73
     7
 74
     0
 42
0.0000000001
 43
0.0000000001
 40
0.0
 40
0.0
 40
0.0
 40
0.0
 40
1.0
 40
1.0
 40
1.0
 40
2.0
 40
2.0
 40
2.0
 40
2.0
 10
51.4294189453125
 20
16.37040473090278
 30
0.0
 10
51.78081868489583
 20
16.26498480902778
 30
0.0
 10
52.4836181640625
 20
15.73788519965278
 30
0.0
 10
52.87050238715278
 20
15.56218532986111
 30
0.0
 10
53.25738661024305
 20
15.38682996961805
 30
0.0
 10
53.64289279513888
 20
15.10433213975694
 30
0.0
 10
54.06560601128471
 20
15.59663628472222
 30
0.0
  0
SPLINE
  5
8A
330
A
100
AcDbEntity
  8
LAYER_1
 62
     7
100
AcDbSpline
210
0.0
220
0.0
230
1.0
 70
     8
 71
     3
 72
     8
 73
     4
 74
     0
 42
0.0000000001
 43
0.0000000001
 40
0.0
 40
0.0
 40
0.0
 40
0.0
 40
1.0
 40
1.0
 40
1.0
 40
1.0
 10
48.8621337890625
 20
18.5508056640625
 30
0.0
 10
49.24901801215277
 20
18.4453857421875
 30
0.0
 10
50.30321723090277
 20
17.67127278645833
 30
0.0
 10
50.44446614583333
 20
17.60133734809028
 30
0.0
  0
SPLINE
  5
89
330
A
100
AcDbEntity
  8
LAYER_1
 62
     7
100
AcDbSpline
210
0.0
220
0.0
230
1.0
 70
     8
 71
     3
 72
    11
 73
     7
 74
     0
 42
0.0000000001
 43
0.0000000001
 40
0.0
 40
0.0
 40
0.0
 40
0.0
 40
1.0
 40
1.0
 40
1.0
 40
2.0
 40
2.0
 40
2.0
 40
2.0
 10
47.38591037326388
 20
20.16758897569444
 30
0.0
 10
47.63154568142361
 20
20.13313802083333
 30
0.0
 10
48.19412977430555
 20
19.57055392795139
 30
0.0
 10
48.40531412760416
 20
19.39485405815972
 30
0.0
 10
48.61649848090277
 20
19.21915418836806
 30
0.0
 10
49.60179578993055
 20
18.33824327256944
 30
0.0
 10
49.91736653645833
 20
18.40955674913194
 30
0.0
  0
SPLINE
  5
88
330
A
100
AcDbEntity
  8
LAYER_1
 62
     7
100
AcDbSpline
210
0.0
220
0.0
230
1.0
 70
     8
 71
     3
 72
    11
 73
     7
 74
     0
 42
0.0000000001
 43
0.0000000001
 40
0.0
 40
0.0
 40
0.0
 40
0.0
 40
1.0
 40
1.0
 40
1.0
 40
2.0
 40
2.0
 40
2.0
 40
2.0
 10
46.71756184895833
 20
21.18837076822917
 30
0.0
 10
47.06861707899305
 20
21.15254177517361
 30
0.0
 10
47.52578124999999
 20
20.80114203559027
 30
0.0
 10
47.80690104166666
 20
20.48453776041666
 30
0.0
 10
48.08836534288194
 20
20.16758897569444
 30
0.0
 10
49.14497612847222
 20
19.11338975694444
 30
0.0
 10
49.35478244357638
 20
19.1833251953125
 30
0.0
  0
LINE
  5
87
330
A
100
AcDbEntity
  8
LAYER_1
 62
     7
100
AcDbLine
 10
45.97927788628472
 20
22.31216091579861
 30
0.0
 11
48.6916015625
 21
20.06905924479166
 31
0.0
  0
LINE
  5
86
330
A
100
AcDbEntity
  8
LAYER_1
 62
     7
100
AcDbLine
 10
85.00807562934027
 20
49.87809244791666
 30
0.0
 11
54.48797471788194
 21
15.31551649305555
 31
0.0
  0
LWPOLYLINE
  5
7A
330
A
100
AcDbEntity
  8
LAYER_1
 62
     7
100
AcDbPolyline
 90
       10
 70
     0
 43
0.0
 10
34.72759602864583
 20
39.61136338975694
 10
33.11081271701389
 20
42.10836859809027
 10
36.34541286892361
 20
39.32989908854167
 10
42.80806749131944
 20
30.33096516927083
 10
42.23170301649305
 20
29.19270562065972
 10
44.83653971354166
 20
28.30249294704861
 10
45.0701171875
 20
26.84315049913194
 10
52.65897352430555
 20
15.9835205078125
 10
50.72558593749999
 20
17.39015299479167
 10
46.54186197916666
 20
23.12175835503472
  0
LWPOLYLINE
  5
74
330
A
100
AcDbEntity
  8
LAYER_1
 62
     7
100
AcDbPolyline
 90
        4
 70
     0
 43
0.0
 10
29.62851019965278
 20
46.6080078125
 10
37.96185167100694
 20
39.15419921874999
 10
40.87915852864583
 20
34.47782660590278
 10
37.9728759765625
 20
36.91144205729167
  0
SPLINE
  5
73
330
A
100
AcDbEntity
  8
LAYER_1
 62
     7
100
AcDbSpline
210
0.0
220
0.0
230
1.0
 70
     8
 71
     3
 72
    11
 73
     7
 74
     0
 42
0.0000000001
 43
0.0000000001
 40
0.0
 40
0.0
 40
0.0
 40
0.0
 40
1.0
 40
1.0
 40
1.0
 40
2.0
 40
2.0
 40
2.0
 40
2.0
 10
40.44180365668402
 20
53.54660237630208
 30
0.0
 10
40.50433213975694
 20
53.33093939887152
 30
0.0
 10
40.69157307942708
 20
53.17608235677083
 30
0.0
 10
41.03143174913194
 20
53.17608235677083
 30
0.0
 10
41.91337619357638
 20
53.17608235677083
 30
0.0
 10
42.85095893012152
 20
54.4369873046875
 30
0.0
 10
42.10699055989583
 20
54.77185058593749
 30
0.0
  0
SPLINE
  5
72
330
A
100
AcDbEntity
  8
LAYER_1
 62
     7
100
AcDbSpline
210
0.0
220
0.0
230
1.0
 70
     8
 71
     3
 72
    11
 73
     7
 74
     0
 42
0.0000000001
 43
0.0000000001
 40
0.0
 40
0.0
 40
0.0
 40
0.0
 40
1.0
 40
1.0
 40
1.0
 40
2.0
 40
2.0
 40
2.0
 40
2.0
 10
44.58625352647569
 20
55.5874769422743
 30
0.0
 10
44.67169189453124
 20
55.42159559461805
 30
0.0
 10
44.8503200954861
 20
55.30962999131944
 30
0.0
 10
45.13901909722222
 20
55.30962999131944
 30
0.0
 10
46.02888726128472
 20
55.30962999131944
 30
0.0
 10
46.97542724609374
 20
56.59361707899305
 30
0.0
 10
46.19425184461805
 20
56.91469997829861
 30
0.0
  0
SPLINE
  5
71
330
A
100
AcDbEntity
  8
LAYER_1
 62
     7
100
AcDbSpline
210
0.0
220
0.0
230
1.0
 70
     8
 71
     3
 72
    11
 73
     7
 74
     0
 42
0.0000000001
 43
0.0000000001
 40
0.0
 40
0.0
 40
0.0
 40
0.0
 40
1.0
 40
1.0
 40
1.0
 40
2.0
 40
2.0
 40
2.0
 40
2.0
 10
49.08106960720486
 20
57.2216579861111
 30
0.0
 10
49.15772298177083
 20
57.03424479166666
 30
0.0
 10
49.34100206163194
 20
56.90436469184027
 30
0.0
 10
49.65209418402777
 20
56.90436469184027
 30
0.0
 10
50.54196234809027
 20
56.90436469184027
 30
0.0
 10
51.4885023328993
 20
58.18783501519097
 30
0.0
 10
50.7071546766493
 20
58.50874565972222
 30
0.0
  0
SPLINE
  5
70
330
A
100
AcDbEntity
  8
LAYER_1
 62
     7
100
AcDbSpline
210
0.0
220
0.0
230
1.0
 70
     8
 71
     3
 72
    11
 73
     7
 74
     0
 42
0.0000000001
 43
0.0000000001
 40
0.0
 40
0.0
 40
0.0
 40
0.0
 40
1.0
 40
1.0
 40
1.0
 40
2.0
 40
2.0
 40
2.0
 40
2.0
 10
52.13514675564235
 20
65.00343967013889
 30
0.0
 10
52.21214463975694
 20
64.81654324001735
 30
0.0
 10
52.39525146484375
 20
64.68717990451388
 30
0.0
 10
52.70582682291666
 20
64.68717990451388
 30
0.0
 10
53.59569498697916
 20
64.68717990451388
 30
0.0
 10
54.54189046223958
 20
65.97099473741319
 30
0.0
 10
53.76071506076389
 20
66.29190538194443
 30
0.0
  0
SPLINE
  5
6F
330
A
100
AcDbEntity
  8
LAYER_1
 62
     7
100
AcDbSpline
210
0.0
220
0.0
230
1.0
 70
     8
 71
     3
 72
    11
 73
     7
 74
     0
 42
0.0000000001
 43
0.0000000001
 40
0.0
 40
0.0
 40
0.0
 40
0.0
 40
1.0
 40
1.0
 40
1.0
 40
2.0
 40
2.0
 40
2.0
 40
2.0
 10
60.34480929904513
 20
69.03006727430555
 30
0.0
 10
60.42042914496528
 20
68.84041476779514
 30
0.0
 10
60.604052734375
 20
68.70863986545139
 30
0.0
 10
60.91721191406249
 20
68.70863986545139
 30
0.0
 10
61.80742458767361
 20
68.70863986545139
 30
0.0
 10
62.75362006293402
 20
69.99245469835068
 30
0.0
 10
61.97244466145833
 20
70.31336534288194
 30
0.0
  0
SPLINE
  5
6E
330
A
100
AcDbEntity
  8
LAYER_1
 62
     7
100
AcDbSpline
210
0.0
220
0.0
230
1.0
 70
     8
 71
     3
 72
    11
 73
     7
 74
     0
 42
0.0000000001
 43
0.0000000001
 40
0.0
 40
0.0
 40
0.0
 40
0.0
 40
1.0
 40
1.0
 40
1.0
 40
2.0
 40
2.0
 40
2.0
 40
2.0
 10
63.02629937065971
 20
76.27045220269096
 30
0.0
 10
63.11397705078124
 20
76.11077202690971
 30
0.0
 10
63.29088270399305
 20
76.00397406684027
 30
0.0
 10
63.57303602430555
 20
76.00397406684027
 30
0.0
 10
64.46290418836804
 20
76.00397406684027
 30
0.0
 10
65.40909966362847
 20
77.28761664496527
 30
0.0
 10
64.62809651692707
 20
77.60869954427082
 30
0.0
  0
SPLINE
  5
6D
330
A
100
AcDbEntity
  8
LAYER_1
 62
     7
100
AcDbSpline
210
0.0
220
0.0
230
1.0
 70
     8
 71
     3
 72
    11
 73
     7
 74
     0
 42
0.0000000001
 43
0.0000000001
 40
0.0
 40
0.0
 40
0.0
 40
0.0
 40
1.0
 40
1.0
 40
1.0
 40
2.0
 40
2.0
 40
2.0
 40
2.0
 10
70.67251654730902
 20
79.60943874782986
 30
0.0
 10
70.77052951388889
 20
79.49127197265624
 30
0.0
 10
70.93296576605903
 20
79.41634114583333
 30
0.0
 10
71.16912706163194
 20
79.41634114583333
 30
0.0
 10
72.05916748046874
 20
79.41634114583333
 30
0.0
 10
73.00553521050347
 20
80.69998372395833
 30
0.0
 10
72.22453206380207
 20
81.02106662326388
 30
0.0
  0
SPLINE
  5
6C
330
A
100
AcDbEntity
  8
LAYER_1
 62
     7
100
AcDbSpline
210
0.0
220
0.0
230
1.0
 70
    11
 71
     3
 72
    11
 73
     7
 74
     0
 42
0.0000000001
 43
0.0000000001
 40
0.0
 40
0.0
 40
0.0
 40
0.0
 40
1.0
 40
1.0
 40
1.0
 40
2.0
 40
2.0
 40
2.0
 40
2.0
 10
73.96275499131944
 20
87.13059895833332
 30
0.0
 10
74.55324435763889
 20
87.13059895833332
 30
0.0
 10
74.67003309461805
 20
87.82719726562499
 30
0.0
 10
74.12846408420138
 20
87.82719726562499
 30
0.0
 10
73.62479112413193
 20
87.82719726562499
 30
0.0
 10
73.37777777777777
 20
87.13059895833332
 30
0.0
 10
73.96275499131944
 20
87.13059895833332
 30
0.0
  0
SPLINE
  5
6B
330
A
100
AcDbEntity
  8
LAYER_1
 62
     7
100
AcDbSpline
210
0.0
220
0.0
230
1.0
 70
    11
 71
     3
 72
    11
 73
     7
 74
     0
 42
0.0000000001
 43
0.0000000001
 40
0.0
 40
0.0
 40
0.0
 40
0.0
 40
1.0
 40
1.0
 40
1.0
 40
2.0
 40
2.0
 40
2.0
 40
2.0
 10
81.12166341145833
 20
90.69523925781249
 30
0.0
 10
81.86821560329861
 20
90.69523925781249
 30
0.0
 10
81.82274034288194
 20
91.46935221354165
 30
0.0
 10
81.33870442708333
 20
91.46935221354165
 30
0.0
 10
80.71238606770832
 20
91.46935221354165
 30
0.0
 10
80.72857801649305
 20
90.69523925781249
 30
0.0
 10
81.12166341145833
 20
90.69523925781249
 30
0.0
  0
LINE
  5
6A
330
A
100
AcDbEntity
  8
LAYER_1
 62
     7
100
AcDbLine
 10
78.92162543402777
 20
92.76505262586805
 30
0.0
 11
80.64348415798611
 21
91.60302191840277
 31
0.0
  0
LINE
  5
69
330
A
100
AcDbEntity
  8
LAYER_1
 62
     7
100
AcDbLine
 10
77.86398111979166
 20
93.47887641059027
 30
0.0
 11
78.31838921440972
 21
93.1729519314236
 31
0.0
  0
LINE
  5
68
330
A
100
AcDbEntity
  8
LAYER_1
 62
     7
100
AcDbLine
 10
81.78863389756944
 20
90.83028700086805
 30
0.0
 11
82.30574273003471
 21
90.4816433376736
 31
0.0
  0
LWPOLYLINE
  5
63
330
A
100
AcDbEntity
  8
LAYER_1
 62
     7
100
AcDbPolyline
 90
        3
 70
     0
 43
0.0
 10
83.79057888454861
 20
89.28516167534721
 10
109.5457682291667
 20
71.37583279079861
 10
120.9449001736111
 20
77.95837673611111
  0
LINE
  5
62
330
A
100
AcDbEntity
  8
LAYER_1
 62
     7
100
AcDbLine
 10
55.97556694878472
 20
108.625927734375
 30
0.0
 11
77.30725368923611
 21
93.79203559027776
 31
0.0
  0
LINE
  5
61
330
A
100
AcDbEntity
  8
LAYER_1
 62
     7
100
AcDbLine
 10
58.75782606336805
 20
112.7469509548611
 30
0.0
 11
63.39010145399305
 21
109.6060574001736
 31
0.0
  0
HATCH
  5
60
330
A
100
AcDbEntity
  8
LAYER_1
 62
     7
100
AcDbHatch
 10
0.0
 20
0.0
 30
0.0
210
0.0
220
0.0
230
1.0
  2
SOLID
 70
     1
 71
     0
 91
        1
 92
        3
 72
     0
 73
     1
 93
        3
 10
42.70333658854166
 20
103.1668294270833
 10
43.8271267361111
 20
105.2538682725694
 10
45.2716552734375
 20
104.1841661241319
 97
        0
 75
     0
 76
     1
 98
        1
 10
0.0
 20
0.0
  0
HATCH
  5
5F
330
A
100
AcDbEntity
  8
LAYER_1
 62
     7
100
AcDbHatch
 10
0.0
 20
0.0
 30
0.0
210
0.0
220
0.0
230
1.0
  2
SOLID
 70
     1
 71
     0
 91
        1
 92
        3
 72
     0
 73
     1
 93
        3
 10
49.33893500434027
 20
109.642919921875
 10
52.22937011718749
 20
110.8738525390625
 10
51.05114746093749
 20
108.3578993055556
 97
        0
 75
     0
 76
     1
 98
        1
 10
0.0
 20
0.0
  0
LINE
  5
5E
330
A
100
AcDbEntity
  8
LAYER_1
 62
     7
100
AcDbLine
 10
50.19504123263889
 20
112.3724690755208
 30
0.0
 11
55.01128472222221
 21
109.1072075737847
 31
0.0
  0
LINE
  5
5D
330
A
100
AcDbEntity
  8
LAYER_1
 62
     7
100
AcDbLine
 10
43.9880126953125
 20
104.2368760850694
 30
0.0
 11
50.56952311197916
 21
109.4279459635417
 31
0.0
  0
SPLINE
  5
5C
330
A
100
AcDbEntity
  8
LAYER_1
 62
     7
100
AcDbSpline
210
0.0
220
0.0
230
1.0
 70
     8
 71
     3
 72
     8
 73
     4
 74
     0
 42
0.0000000001
 43
0.0000000001
 40
0.0
 40
0.0
 40
0.0
 40
0.0
 40
1.0
 40
1.0
 40
1.0
 40
1.0
 10
35.37113986545138
 20
106.0572645399305
 30
0.0
 10
38.10068901909722
 20
111.7840467664931
 30
0.0
 10
46.39682345920139
 20
109.6439534505208
 30
0.0
 10
47.67943250868055
 20
107.0201687282986
 30
0.0
  0
LINE
  5
5B
330
A
100
AcDbEntity
  8
LAYER_1
 62
     7
100
AcDbLine
 10
65.98322482638888
 20
86.09396972656249
 30
0.0
 11
37.67315266927083
 21
106.6983968098958
 31
0.0
  0
SPLINE
  5
5A
330
A
100
AcDbEntity
  8
LAYER_1
 62
     7
100
AcDbSpline
210
0.0
220
0.0
230
1.0
 70
    11
 71
     3
 72
    11
 73
     7
 74
     0
 42
0.0000000001
 43
0.0000000001
 40
0.0
 40
0.0
 40
0.0
 40
0.0
 40
1.0
 40
1.0
 40
1.0
 40
2.0
 40
2.0
 40
2.0
 40
2.0
 10
40.75272352430555
 20
53.38003200954861
 30
0.0
 10
41.76971571180555
 20
53.38003200954861
 30
0.0
 10
42.86043294270833
 20
55.05675998263889
 30
0.0
 10
41.36181640624999
 20
55.05675998263889
 30
0.0
 10
40.16774631076389
 20
55.05675998263889
 30
0.0
 10
39.63479003906249
 20
53.38003200954861
 30
0.0
 10
40.75272352430555
 20
53.38003200954861
 30
0.0
  0
SPLINE
  5
59
330
A
100
AcDbEntity
  8
LAYER_1
 62
     7
100
AcDbSpline
210
0.0
220
0.0
230
1.0
 70
    11
 71
     3
 72
    11
 73
     7
 74
     0
 42
0.0000000001
 43
0.0000000001
 40
0.0
 40
0.0
 40
0.0
 40
0.0
 40
1.0
 40
1.0
 40
1.0
 40
2.0
 40
2.0
 40
2.0
 40
2.0
 10
44.86031087239583
 20
55.51357964409722
 30
0.0
 10
45.87730305989583
 20
55.51357964409722
 30
0.0
 10
46.96802029079861
 20
57.19030761718749
 30
0.0
 10
45.46940375434028
 20
57.19030761718749
 30
0.0
 10
44.27533365885417
 20
57.19030761718749
 30
0.0
 10
43.74237738715277
 20
55.51357964409722
 30
0.0
 10
44.86031087239583
 20
55.51357964409722
 30
0.0
  0
SPLINE
  5
58
330
A
100
AcDbEntity
  8
LAYER_1
 62
     7
100
AcDbSpline
210
0.0
220
0.0
230
1.0
 70
    11
 71
     3
 72
    11
 73
     7
 74
     0
 42
0.0000000001
 43
0.0000000001
 40
0.0
 40
0.0
 40
0.0
 40
0.0
 40
1.0
 40
1.0
 40
1.0
 40
2.0
 40
2.0
 40
2.0
 40
2.0
 10
49.37338595920139
 20
57.10831434461805
 30
0.0
 10
50.39037814670139
 20
57.10831434461805
 30
0.0
 10
51.48109537760416
 20
58.78469780815972
 30
0.0
 10
49.98247884114583
 20
58.78469780815972
 30
0.0
 10
48.78840874565972
 20
58.78469780815972
 30
0.0
 10
48.25545247395833
 20
57.10831434461805
 30
0.0
 10
49.37338595920139
 20
57.10831434461805
 30
0.0
  0
SPLINE
  5
57
330
A
100
AcDbEntity
  8
LAYER_1
 62
     7
100
AcDbSpline
210
0.0
220
0.0
230
1.0
 70
    11
 71
     3
 72
    11
 73
     7
 74
     0
 42
0.0000000001
 43
0.0000000001
 40
0.0
 40
0.0
 40
0.0
 40
0.0
 40
1.0
 40
1.0
 40
1.0
 40
2.0
 40
2.0
 40
2.0
 40
2.0
 10
52.42711859809027
 20
64.89112955729166
 30
0.0
 10
53.44411078559028
 20
64.89112955729166
 30
0.0
 10
54.53482801649305
 20
66.56785753038194
 30
0.0
 10
53.03621148003472
 20
66.56785753038194
 30
0.0
 10
51.8421413845486
 20
66.56785753038194
 30
0.0
 10
51.30918511284722
 20
64.89112955729166
 30
0.0
 10
52.42711859809027
 20
64.89112955729166
 30
0.0
  0
SPLINE
  5
56
330
A
100
AcDbEntity
  8
LAYER_1
 62
     7
100
AcDbSpline
210
0.0
220
0.0
230
1.0
 70
    11
 71
     3
 72
    11
 73
     7
 74
     0
 42
0.0000000001
 43
0.0000000001
 40
0.0
 40
0.0
 40
0.0
 40
0.0
 40
1.0
 40
1.0
 40
1.0
 40
2.0
 40
2.0
 40
2.0
 40
2.0
 10
60.6385036892361
 20
68.91258951822915
 30
0.0
 10
61.6554958767361
 20
68.91258951822915
 30
0.0
 10
62.74655761718749
 20
70.58931749131943
 30
0.0
 10
61.24794108072916
 20
70.58931749131943
 30
0.0
 10
60.05387098524305
 20
70.58931749131943
 30
0.0
 10
59.52091471354166
 20
68.91258951822915
 30
0.0
 10
60.6385036892361
 20
68.91258951822915
 30
0.0
  0
SPLINE
  5
55
330
A
100
AcDbEntity
  8
LAYER_1
 62
     7
100
AcDbSpline
210
0.0
220
0.0
230
1.0
 70
    11
 71
     3
 72
    11
 73
     7
 74
     0
 42
0.0000000001
 43
0.0000000001
 40
0.0
 40
0.0
 40
0.0
 40
0.0
 40
1.0
 40
1.0
 40
1.0
 40
2.0
 40
2.0
 40
2.0
 40
2.0
 10
63.29432779947916
 20
76.20792371961805
 30
0.0
 10
64.31131998697916
 20
76.20792371961805
 30
0.0
 10
65.40203721788194
 20
77.88465169270833
 30
0.0
 10
63.9034206814236
 20
77.88465169270833
 30
0.0
 10
62.7096950954861
 20
77.88465169270833
 30
0.0
 10
62.17639431423611
 20
76.20792371961805
 30
0.0
 10
63.29432779947916
 20
76.20792371961805
 30
0.0
  0
SPLINE
  5
54
330
A
100
AcDbEntity
  8
LAYER_1
 62
     7
100
AcDbSpline
210
0.0
220
0.0
230
1.0
 70
    11
 71
     3
 72
    11
 73
     7
 74
     0
 42
0.0000000001
 43
0.0000000001
 40
0.0
 40
0.0
 40
0.0
 40
0.0
 40
1.0
 40
1.0
 40
1.0
 40
2.0
 40
2.0
 40
2.0
 40
2.0
 10
70.89041883680555
 20
79.62029079861111
 30
0.0
 10
71.90741102430555
 20
79.62029079861111
 30
0.0
 10
72.99847276475694
 20
81.29701877170139
 30
0.0
 10
71.49985622829861
 20
81.29701877170139
 30
0.0
 10
70.3057861328125
 20
81.29701877170139
 30
0.0
 10
69.77282986111111
 20
79.62029079861111
 30
0.0
 10
70.89041883680555
 20
79.62029079861111
 30
0.0
  0
SPLINE
  5
53
330
A
100
AcDbEntity
  8
LAYER_1
 62
     7
100
AcDbSpline
210
0.0
220
0.0
230
1.0
 70
    11
 71
     3
 72
    11
 73
     7
 74
     0
 42
0.0000000001
 43
0.0000000001
 40
0.0
 40
0.0
 40
0.0
 40
0.0
 40
1.0
 40
1.0
 40
1.0
 40
2.0
 40
2.0
 40
2.0
 40
2.0
 10
72.91854654947916
 20
59.2087890625
 30
0.0
 10
72.91854654947916
 20
57.75426974826389
 30
0.0
 10
71.73929036458333
 20
57.83281792534721
 30
0.0
 10
71.73929036458333
 20
58.81535915798611
 30
0.0
 10
71.73929036458333
 20
60.26987847222222
 30
0.0
 10
72.91854654947916
 20
60.19133029513888
 30
0.0
 10
72.91854654947916
 20
59.2087890625
 30
0.0
  0
SPLINE
  5
52
330
A
100
AcDbEntity
  8
LAYER_1
 62
     7
100
AcDbSpline
210
0.0
220
0.0
230
1.0
 70
    11
 71
     3
 72
    11
 73
     7
 74
     0
 42
0.0000000001
 43
0.0000000001
 40
0.0
 40
0.0
 40
0.0
 40
0.0
 40
1.0
 40
1.0
 40
1.0
 40
2.0
 40
2.0
 40
2.0
 40
2.0
 10
75.4341552734375
 20
48.12384982638888
 30
0.0
 10
75.4341552734375
 20
46.66933051215278
 30
0.0
 10
74.25489908854166
 20
46.74787868923611
 30
0.0
 10
74.25489908854166
 20
47.73076443142361
 30
0.0
 10
74.25489908854166
 20
49.18528374565972
 30
0.0
 10
75.4341552734375
 20
49.10673556857638
 30
0.0
 10
75.4341552734375
 20
48.12384982638888
 30
0.0
  0
LINE
  5
51
330
A
100
AcDbEntity
  8
LAYER_1
 62
     7
100
AcDbLine
 10
45.29267035590277
 20
50.09168836805555
 30
0.0
 11
45.67094184027778
 21
49.74028862847221
 31
0.0
  0
SPLINE
  5
50
330
A
100
AcDbEntity
  8
LAYER_1
 62
     7
100
AcDbSpline
210
0.0
220
0.0
230
1.0
 70
     8
 71
     3
 72
    23
 73
    19
 74
     0
 42
0.0000000001
 43
0.0000000001
 40
0.0
 40
0.0
 40
0.0
 40
0.0
 40
1.0
 40
1.0
 40
1.0
 40
2.0
 40
2.0
 40
2.0
 40
3.0
 40
3.0
 40
3.0
 40
4.0
 40
4.0
 40
4.0
 40
5.0
 40
5.0
 40
5.0
 40
6.0
 40
6.0
 40
6.0
 40
6.0
 10
39.13972981770833
 20
52.65897352430555
 30
0.0
 10
39.13972981770833
 20
52.65897352430555
 30
0.0
 10
42.44667697482639
 20
49.73167588975694
 30
0.0
 10
42.44667697482639
 20
49.73167588975694
 30
0.0
 10
42.44667697482639
 20
49.73167588975694
 30
0.0
 10
45.27062174479166
 20
50.10994737413194
 30
0.0
 10
45.27062174479166
 20
50.10994737413194
 30
0.0
 10
45.27062174479166
 20
50.10994737413194
 30
0.0
 10
83.09191351996527
 20
89.4398464626736
 30
0.0
 10
83.22937282986111
 20
89.57765028211804
 30
0.0
 10
83.36683213975694
 20
89.71510959201387
 30
0.0
 10
83.46880696614582
 20
89.85256890190972
 30
0.0
 10
83.71099717881944
 20
89.99037272135416
 30
0.0
 10
83.95284288194443
 20
90.12783203124999
 30
0.0
 10
94.56235894097222
 20
95.29444173177083
 30
0.0
 10
94.83727756076388
 20
95.43190104166666
 30
0.0
 10
95.11254069010415
 20
95.56936035156249
 30
0.0
 10
95.49219021267361
 20
95.74127061631944
 30
0.0
 10
95.69855143229165
 20
95.50080295138888
 30
0.0
  0
LINE
  5
4F
330
A
100
AcDbEntity
  8
LAYER_1
 62
     7
100
AcDbLine
 10
42.44667697482639
 20
49.73167588975694
 30
0.0
 11
42.54555121527778
 21
49.26245388454861
 31
0.0
  0
HATCH
  5
4E
330
A
100
AcDbEntity
  8
LAYER_1
 62
     7
100
AcDbHatch
 10
0.0
 20
0.0
 30
0.0
210
0.0
220
0.0
230
1.0
  2
SOLID
 70
     1
 71
     0
 91
        3
 92
       16
 93
        1
 72
     4
 94
        3
 73
     0
 74
     0
 95
       20
 96
       16
 40
0.0
 40
0.0
 40
0.0
 40
0.0
 40
1.0
 40
1.0
 40
1.0
 40
2.0
 40
2.0
 40
2.0
 40
3.0
 40
3.0
 40
3.0
 40
4.0
 40
4.0
 40
4.0
 40
5.0
 40
5.0
 40
5.0
 40
5.0
 10
74.04337022569443
 20
118.9574245876736
 10
74.04337022569443
 20
118.9574245876736
 10
75.1737060546875
 20
118.9574245876736
 10
75.1737060546875
 20
118.9574245876736
 10
75.72526584201388
 20
118.9574245876736
 10
76.00362955729166
 20
119.2361328125
 10
76.00362955729166
 20
119.6726264105903
 10
76.00362955729166
 20
120.2241861979167
 10
75.51752658420138
 20
120.3333957248264
 10
75.08620062934027
 20
120.3333957248264
 10
75.08620062934027
 20
120.3333957248264
 10
74.04337022569443
 20
120.3333957248264
 10
74.04337022569443
 20
120.3333957248264
 10
74.04337022569443
 20
120.3333957248264
 10
74.04337022569443
 20
118.9574245876736
 10
74.04337022569443
 20
118.9574245876736
 97
        0
 92
       16
 93
        1
 72
     4
 94
        3
 73
     0
 74
     0
 95
       20
 96
       16
 40
0.0
 40
0.0
 40
0.0
 40
0.0
 40
1.0
 40
1.0
 40
1.0
 40
2.0
 40
2.0
 40
2.0
 40
3.0
 40
3.0
 40
3.0
 40
4.0
 40
4.0
 40
4.0
 40
5.0
 40
5.0
 40
5.0
 40
5.0
 10
74.04337022569443
 20
120.7647216796875
 10
74.04337022569443
 20
120.7647216796875
 10
74.99903971354166
 20
120.7647216796875
 10
74.99903971354166
 20
120.7647216796875
 10
75.50684678819444
 20
120.7647216796875
 10
75.81793891059027
 20
120.9176839192708
 10
75.81793891059027
 20
121.3982747395833
 10
75.81793891059027
 20
121.7641438802083
 10
75.59400770399304
 20
121.9715386284722
 10
75.00420735677082
 20
121.9715386284722
 10
75.00420735677082
 20
121.9715386284722
 10
74.04337022569443
 20
121.9715386284722
 10
74.04337022569443
 20
121.9715386284722
 10
74.04337022569443
 20
121.9715386284722
 10
74.04337022569443
 20
120.7647216796875
 10
74.04337022569443
 20
120.7647216796875
 97
        0
 92
        1
 93
        1
 72
     4
 94
        3
 73
     0
 74
     0
 95
       26
 96
       22
 40
0.0
 40
0.0
 40
0.0
 40
0.0
 40
1.0
 40
1.0
 40
1.0
 40
2.0
 40
2.0
 40
2.0
 40
3.0
 40
3.0
 40
3.0
 40
4.0
 40
4.0
 40
4.0
 40
5.0
 40
5.0
 40
5.0
 40
6.0
 40
6.0
 40
6.0
 40
7.0
 40
7.0
 40
7.0
 40
7.0
 10
73.51385904947917
 20
122.4249131944444
 10
73.51385904947917
 20
122.4249131944444
 10
75.2391628689236
 20
122.4249131944444
 10
75.2391628689236
 20
122.4249131944444
 10
75.9709011501736
 20
122.4249131944444
 10
76.34745008680555
 20
121.9715386284722
 10
76.34745008680555
 20
121.4365152994792
 10
76.34745008680555
 20
121.1798556857639
 10
76.25477701822916
 20
120.8194986979167
 10
75.82345106336805
 20
120.6172715928819
 10
76.08011067708333
 20
120.51357421875
 10
76.53314073350694
 20
120.3333957248264
 10
76.53314073350694
 20
119.6619466145833
 10
76.53314073350694
 20
119.0339057074653
 10
76.06908637152777
 20
118.50439453125
 10
75.20092230902777
 20
118.50439453125
 10
75.20092230902777
 20
118.50439453125
 10
73.51385904947917
 20
118.50439453125
 10
73.51385904947917
 20
118.50439453125
 10
73.51385904947917
 20
118.50439453125
 10
73.51385904947917
 20
122.4249131944444
 10
73.51385904947917
 20
122.4249131944444
 97
        0
 75
     0
 76
     1
 98
        1
 10
0.0
 20
0.0
  0
HATCH
  5
4D
330
A
100
AcDbEntity
  8
LAYER_1
 62
     7
100
AcDbHatch
 10
0.0
 20
0.0
 30
0.0
210
0.0
220
0.0
230
1.0
  2
SOLID
 70
     1
 71
     0
 91
        1
 92
        1
 93
        1
 72
     4
 94
        3
 73
     0
 74
     0
 95
       41
 96
       37
 40
0.0
 40
0.0
 40
0.0
 40
0.0
 40
1.0
 40
1.0
 40
1.0
 40
2.0
 40
2.0
 40
2.0
 40
3.0
 40
3.0
 40
3.0
 40
4.0
 40
4.0
 40
4.0
 40
5.0
 40
5.0
 40
5.0
 40
6.0
 40
6.0
 40
6.0
 40
7.0
 40
7.0
 40
7.0
 40
8.0
 40
8.0
 40
8.0
 40
9.0
 40
9.0
 40
9.0
 40
10.0
 40
10.0
 40
10.0
 40
11.0
 40
11.0
 40
11.0
 40
12.0
 40
12.0
 40
12.0
 40
12.0
 10
80.11466200086805
 20
118.50439453125
 10
80.11466200086805
 20
118.50439453125
 10
77.2204372829861
 20
118.50439453125
 10
77.2204372829861
 20
118.50439453125
 10
77.2204372829861
 20
118.50439453125
 10
77.2204372829861
 20
122.4249131944444
 10
77.2204372829861
 20
122.4249131944444
 10
77.2204372829861
 20
122.4249131944444
 10
80.07642144097221
 20
122.4249131944444
 10
80.07642144097221
 20
122.4249131944444
 10
80.07642144097221
 20
122.4249131944444
 10
80.07642144097221
 20
121.9553466796875
 10
80.07642144097221
 20
121.9553466796875
 10
80.07642144097221
 20
121.9553466796875
 10
77.75029296874999
 20
121.9553466796875
 10
77.75029296874999
 20
121.9553466796875
 10
77.75029296874999
 20
121.9553466796875
 10
77.75029296874999
 20
120.7540418836805
 10
77.75029296874999
 20
120.7540418836805
 10
77.75029296874999
 20
120.7540418836805
 10
79.89624294704861
 20
120.7540418836805
 10
79.89624294704861
 20
120.7540418836805
 10
79.89624294704861
 20
120.7540418836805
 10
79.89624294704861
 20
120.2844753689236
 10
79.89624294704861
 20
120.2844753689236
 10
79.89624294704861
 20
120.2844753689236
 10
77.75029296874999
 20
120.2844753689236
 10
77.75029296874999
 20
120.2844753689236
 10
77.75029296874999
 20
120.2844753689236
 10
77.75029296874999
 20
118.9739610460069
 10
77.75029296874999
 20
118.9739610460069
 10
77.75029296874999
 20
118.9739610460069
 10
80.11466200086805
 20
118.9739610460069
 10
80.11466200086805
 20
118.9739610460069
 10
80.11466200086805
 20
118.9739610460069
 10
80.11466200086805
 20
118.50439453125
 10
80.11466200086805
 20
118.50439453125
 97
        0
 75
     0
 76
     1
 98
        1
 10
0.0
 20
0.0
  0
HATCH
  5
4C
330
A
100
AcDbEntity
  8
LAYER_1
 62
     7
100
AcDbHatch
 10
0.0
 20
0.0
 30
0.0
210
0.0
220
0.0
230
1.0
  2
SOLID
 70
     1
 71
     0
 91
        2
 92
       16
 93
        1
 72
     4
 94
        3
 73
     0
 74
     0
 95
       17
 96
       13
 40
0.0
 40
0.0
 40
0.0
 40
0.0
 40
1.0
 40
1.0
 40
1.0
 40
2.0
 40
2.0
 40
2.0
 40
3.0
 40
3.0
 40
3.0
 40
4.0
 40
4.0
 40
4.0
 40
4.0
 10
82.80562608506943
 20
120.1149766710069
 10
82.80562608506943
 20
120.1149766710069
 10
82.22719455295137
 20
121.840625
 10
82.22719455295137
 20
121.840625
 10
82.22719455295137
 20
121.840625
 10
82.21617024739582
 20
121.840625
 10
82.21617024739582
 20
121.840625
 10
82.21617024739582
 20
121.840625
 10
81.58812934027777
 20
120.1149766710069
 10
81.58812934027777
 20
120.1149766710069
 10
81.58812934027777
 20
120.1149766710069
 10
82.80562608506943
 20
120.1149766710069
 10
82.80562608506943
 20
120.1149766710069
 97
        0
 92
        1
 93
        1
 72
     4
 94
        3
 73
     0
 74
     0
 95
       29
 96
       25
 40
0.0
 40
0.0
 40
0.0
 40
0.0
 40
1.0
 40
1.0
 40
1.0
 40
2.0
 40
2.0
 40
2.0
 40
3.0
 40
3.0
 40
3.0
 40
4.0
 40
4.0
 40
4.0
 40
5.0
 40
5.0
 40
5.0
 40
6.0
 40
6.0
 40
6.0
 40
7.0
 40
7.0
 40
7.0
 40
8.0
 40
8.0
 40
8.0
 40
8.0
 10
81.42448730468749
 20
119.64541015625
 10
81.42448730468749
 20
119.64541015625
 10
81.01486545138889
 20
118.50439453125
 10
81.01486545138889
 20
118.50439453125
 10
81.01486545138889
 20
118.50439453125
 10
80.46881781684027
 20
118.50439453125
 10
80.46881781684027
 20
118.50439453125
 10
80.46881781684027
 20
118.50439453125
 10
81.94297417534722
 20
122.4249131944444
 10
81.94297417534722
 20
122.4249131944444
 10
81.94297417534722
 20
122.4249131944444
 10
82.54379882812499
 20
122.4249131944444
 10
82.54379882812499
 20
122.4249131944444
 10
82.54379882812499
 20
122.4249131944444
 10
83.96352267795137
 20
118.50439453125
 10
83.96352267795137
 20
118.50439453125
 10
83.96352267795137
 20
118.50439453125
 10
83.38474663628472
 20
118.50439453125
 10
83.38474663628472
 20
118.50439453125
 10
83.38474663628472
 20
118.50439453125
 10
82.99682888454861
 20
119.64541015625
 10
82.99682888454861
 20
119.64541015625
 10
82.99682888454861
 20
119.64541015625
 10
81.42448730468749
 20
119.64541015625
 10
81.42448730468749
 20
119.64541015625
 97
        0
 75
     0
 76
     1
 98
        1
 10
0.0
 20
0.0
  0
HATCH
  5
4B
330
A
100
AcDbEntity
  8
LAYER_1
 62
     7
100
AcDbHatch
 10
0.0
 20
0.0
 30
0.0
210
0.0
220
0.0
230
1.0
  2
SOLID
 70
     1
 71
     0
 91
        1
 92
        1
 93
        1
 72
     4
 94
        3
 73
     0
 74
     0
 95
       59
 96
       55
 40
0.0
 40
0.0
 40
0.0
 40
0.0
 40
1.0
 40
1.0
 40
1.0
 40
2.0
 40
2.0
 40
2.0
 40
3.0
 40
3.0
 40
3.0
 40
4.0
 40
4.0
 40
4.0
 40
5.0
 40
5.0
 40
5.0
 40
6.0
 40
6.0
 40
6.0
 40
7.0
 40
7.0
 40
7.0
 40
8.0
 40
8.0
 40
8.0
 40
9.0
 40
9.0
 40
9.0
 40
10.0
 40
10.0
 40
10.0
 40
11.0
 40
11.0
 40
11.0
 40
12.0
 40
12.0
 40
12.0
 40
13.0
 40
13.0
 40
13.0
 40
14.0
 40
14.0
 40
14.0
 40
15.0
 40
15.0
 40
15.0
 40
16.0
 40
16.0
 40
16.0
 40
17.0
 40
17.0
 40
17.0
 40
18.0
 40
18.0
 40
18.0
 40
18.0
 10
87.6756130642361
 20
118.50439453125
 10
87.6756130642361
 20
118.50439453125
 10
87.6756130642361
 20
120.8194986979167
 10
87.6756130642361
 20
120.8194986979167
 10
87.6756130642361
 20
120.9342203776042
 10
87.68663736979165
 20
121.4310031467014
 10
87.68663736979165
 20
121.7968722873264
 10
87.68663736979165
 20
121.7968722873264
 10
87.6756130642361
 20
121.7968722873264
 10
87.6756130642361
 20
121.7968722873264
 10
87.6756130642361
 20
121.7968722873264
 10
86.57283799913193
 20
118.50439453125
 10
86.57283799913193
 20
118.50439453125
 10
86.57283799913193
 20
118.50439453125
 10
86.04849446614583
 20
118.50439453125
 10
86.04849446614583
 20
118.50439453125
 10
86.04849446614583
 20
118.50439453125
 10
84.94571940104166
 20
121.7913601345486
 10
84.94571940104166
 20
121.7913601345486
 10
84.94571940104166
 20
121.7913601345486
 10
84.93469509548611
 20
121.7913601345486
 10
84.93469509548611
 20
121.7913601345486
 10
84.93469509548611
 20
121.4310031467014
 10
84.94571940104166
 20
120.9342203776042
 10
84.94571940104166
 20
120.8194986979167
 10
84.94571940104166
 20
120.8194986979167
 10
84.94571940104166
 20
118.50439453125
 10
84.94571940104166
 20
118.50439453125
 10
84.94571940104166
 20
118.50439453125
 10
84.4324001736111
 20
118.50439453125
 10
84.4324001736111
 20
118.50439453125
 10
84.4324001736111
 20
118.50439453125
 10
84.4324001736111
 20
122.4249131944444
 10
84.4324001736111
 20
122.4249131944444
 10
84.4324001736111
 20
122.4249131944444
 10
85.19135470920138
 20
122.4249131944444
 10
85.19135470920138
 20
122.4249131944444
 10
85.19135470920138
 20
122.4249131944444
 10
86.31066623263888
 20
119.1103868272569
 10
86.31066623263888
 20
119.1103868272569
 10
86.31066623263888
 20
119.1103868272569
 10
86.32169053819443
 20
119.1103868272569
 10
86.32169053819443
 20
119.1103868272569
 10
86.32169053819443
 20
119.1103868272569
 10
87.43548990885417
 20
122.4249131944444
 10
87.43548990885417
 20
122.4249131944444
 10
87.43548990885417
 20
122.4249131944444
 10
88.18893229166666
 20
122.4249131944444
 10
88.18893229166666
 20
122.4249131944444
 10
88.18893229166666
 20
122.4249131944444
 10
88.18893229166666
 20
118.50439453125
 10
88.18893229166666
 20
118.50439453125
 10
88.18893229166666
 20
118.50439453125
 10
87.6756130642361
 20
118.50439453125
 10
87.6756130642361
 20
118.50439453125
 97
        0
 75
     0
 76
     1
 98
        1
 10
0.0
 20
0.0
  0
HATCH
  5
4A
330
A
100
AcDbEntity
  8
LAYER_1
 62
     7
100
AcDbHatch
 10
0.0
 20
0.0
 30
0.0
210
0.0
220
0.0
230
1.0
  2
SOLID
 70
     1
 71
     0
 91
        2
 92
       16
 93
        1
 72
     4
 94
        3
 73
     0
 74
     0
 95
       20
 96
       16
 40
0.0
 40
0.0
 40
0.0
 40
0.0
 40
1.0
 40
1.0
 40
1.0
 40
2.0
 40
2.0
 40
2.0
 40
3.0
 40
3.0
 40
3.0
 40
4.0
 40
4.0
 40
4.0
 40
5.0
 40
5.0
 40
5.0
 40
5.0
 10
92.19351128472222
 20
119.9623589409722
 10
92.11703016493054
 20
119.9020697699653
 10
91.99714084201388
 20
119.8586615668403
 10
91.40182834201389
 20
119.7821804470486
 10
91.16721733940972
 20
119.7491075303819
 10
90.79032389322916
 20
119.6781385633681
 10
90.79032389322916
 20
119.3177815755208
 10
90.79032389322916
 20
119.006689453125
 10
90.94879828559027
 20
118.8209988064236
 10
91.3091552734375
 20
118.8209988064236
 10
91.75667317708333
 20
118.8209988064236
 10
92.19351128472222
 20
119.1103868272569
 10
92.19351128472222
 20
119.4924479166667
 10
92.19351128472222
 20
119.4924479166667
 10
92.19351128472222
 20
119.9623589409722
 10
92.19351128472222
 20
119.9623589409722
 97
        0
 92
        1
 93
        1
 72
     4
 94
        3
 73
     0
 74
     0
 95
       53
 96
       49
 40
0.0
 40
0.0
 40
0.0
 40
0.0
 40
1.0
 40
1.0
 40
1.0
 40
2.0
 40
2.0
 40
2.0
 40
3.0
 40
3.0
 40
3.0
 40
4.0
 40
4.0
 40
4.0
 40
5.0
 40
5.0
 40
5.0
 40
6.0
 40
6.0
 40
6.0
 40
7.0
 40
7.0
 40
7.0
 40
8.0
 40
8.0
 40
8.0
 40
9.0
 40
9.0
 40
9.0
 40
10.0
 40
10.0
 40
10.0
 40
11.0
 40
11.0
 40
11.0
 40
12.0
 40
12.0
 40
12.0
 40
13.0
 40
13.0
 40
13.0
 40
14.0
 40
14.0
 40
14.0
 40
15.0
 40
15.0
 40
15.0
 40
16.0
 40
16.0
 40
16.0
 40
16.0
 10
90.43547905815971
 20
120.4918701171875
 10
90.45718315972222
 20
121.1743435329861
 10
90.91055772569443
 20
121.4420274522569
 10
91.61473524305555
 20
121.4420274522569
 10
91.84417860243055
 20
121.4420274522569
 10
92.67410210503472
 20
121.3765706380208
 10
92.67410210503472
 20
120.6448323567708
 10
92.67410210503472
 20
120.6448323567708
 10
92.67410210503472
 20
119.0011773003472
 10
92.67410210503472
 20
119.0011773003472
 10
92.67410210503472
 20
118.8809434678819
 10
92.73404676649305
 20
118.8320231119792
 10
92.83257649739582
 20
118.8320231119792
 10
92.87598470052083
 20
118.8320231119792
 10
92.93627387152777
 20
118.8427029079861
 10
92.99070638020832
 20
118.8537272135417
 10
92.99070638020832
 20
118.8537272135417
 10
92.99070638020832
 20
118.50439453125
 10
92.99070638020832
 20
118.50439453125
 10
92.90905761718749
 20
118.4823459201389
 10
92.8380886501736
 20
118.4496175130208
 10
92.72887912326388
 20
118.4496175130208
 10
92.30272081163194
 20
118.4496175130208
 10
92.23726399739583
 20
118.6680365668403
 10
92.22107204861111
 20
118.8864556206597
 10
92.03538140190972
 20
118.6845730251736
 10
91.74599338107637
 20
118.4224012586806
 10
91.18892144097221
 20
118.4224012586806
 10
90.6645779079861
 20
118.4224012586806
 10
90.29354112413193
 20
118.7555419921875
 10
90.29354112413193
 20
119.2468126085069
 10
90.29354112413193
 20
119.4872802734375
 10
90.36451009114583
 20
120.0440077039931
 10
91.16170518663193
 20
120.1425374348958
 10
91.16170518663193
 20
120.1425374348958
 10
91.95338812934027
 20
120.24072265625
 10
91.95338812934027
 20
120.24072265625
 10
92.06810980902777
 20
120.2517469618056
 10
92.20453559027777
 20
120.2951551649306
 10
92.20453559027777
 20
120.5793755425347
 10
92.20453559027777
 20
120.879443359375
 10
91.98611653645833
 20
121.0434299045139
 10
91.5327419704861
 20
121.0434299045139
 10
90.98669433593749
 20
121.0434299045139
 10
90.91055772569443
 20
120.7102891710069
 10
90.87782931857637
 20
120.4918701171875
 10
90.87782931857637
 20
120.4918701171875
 10
90.43547905815971
 20
120.4918701171875
 10
90.43547905815971
 20
120.4918701171875
 97
        0
 75
     0
 76
     1
 98
        1
 10
0.0
 20
0.0
  0
HATCH
  5
49
330
A
100
AcDbEntity
  8
LAYER_1
 62
     7
100
AcDbHatch
 10
0.0
 20
0.0
 30
0.0
210
0.0
220
0.0
230
1.0
  2
SOLID
 70
     1
 71
     0
 91
        1
 92
        1
 93
        1
 72
     4
 94
        3
 73
     0
 74
     0
 95
       44
 96
       40
 40
0.0
 40
0.0
 40
0.0
 40
0.0
 40
1.0
 40
1.0
 40
1.0
 40
2.0
 40
2.0
 40
2.0
 40
3.0
 40
3.0
 40
3.0
 40
4.0
 40
4.0
 40
4.0
 40
5.0
 40
5.0
 40
5.0
 40
6.0
 40
6.0
 40
6.0
 40
7.0
 40
7.0
 40
7.0
 40
8.0
 40
8.0
 40
8.0
 40
9.0
 40
9.0
 40
9.0
 40
10.0
 40
10.0
 40
10.0
 40
11.0
 40
11.0
 40
11.0
 40
12.0
 40
12.0
 40
12.0
 40
13.0
 40
13.0
 40
13.0
 40
13.0
 10
95.81292860243055
 20
118.50439453125
 10
95.81292860243055
 20
118.50439453125
 10
95.33233778211805
 20
118.50439453125
 10
95.33233778211805
 20
118.50439453125
 10
95.33233778211805
 20
118.50439453125
 10
95.33233778211805
 20
120.2624267578125
 10
95.33233778211805
 20
120.2624267578125
 10
95.33233778211805
 20
120.7595540364583
 10
95.19039984809027
 20
121.0107014973958
 10
94.72083333333333
 20
121.0107014973958
 10
94.44763726128471
 20
121.0107014973958
 10
93.96704644097221
 20
120.8356906467014
 10
93.96704644097221
 20
120.0605441623264
 10
93.96704644097221
 20
120.0605441623264
 10
93.96704644097221
 20
118.50439453125
 10
93.96704644097221
 20
118.50439453125
 10
93.96704644097221
 20
118.50439453125
 10
93.48680013020832
 20
118.50439453125
 10
93.48680013020832
 20
118.50439453125
 10
93.48680013020832
 20
118.50439453125
 10
93.48680013020832
 20
121.3600341796875
 10
93.48680013020832
 20
121.3600341796875
 10
93.48680013020832
 20
121.3600341796875
 10
93.93983018663194
 20
121.3600341796875
 10
93.93983018663194
 20
121.3600341796875
 10
93.93983018663194
 20
121.3600341796875
 10
93.93983018663194
 20
120.9559244791667
 10
93.93983018663194
 20
120.9559244791667
 10
93.93983018663194
 20
120.9559244791667
 10
93.95085449218749
 20
120.9559244791667
 10
93.95085449218749
 20
120.9559244791667
 10
94.05455186631944
 20
121.10888671875
 10
94.32223578559027
 20
121.4420274522569
 10
94.81350640190972
 20
121.4420274522569
 10
95.25585666232638
 20
121.4420274522569
 10
95.81292860243055
 20
121.2618489583333
 10
95.81292860243055
 20
120.4481174045139
 10
95.81292860243055
 20
120.4481174045139
 10
95.81292860243055
 20
118.50439453125
 10
95.81292860243055
 20
118.50439453125
 97
        0
 75
     0
 76
     1
 98
        1
 10
0.0
 20
0.0
  0
HATCH
  5
48
330
A
100
AcDbEntity
  8
LAYER_1
 62
     7
100
AcDbHatch
 10
0.0
 20
0.0
 30
0.0
210
0.0
220
0.0
230
1.0
  2
SOLID
 70
     1
 71
     0
 91
        2
 92
       16
 93
        1
 72
     4
 94
        3
 73
     0
 74
     0
 95
       17
 96
       13
 40
0.0
 40
0.0
 40
0.0
 40
0.0
 40
1.0
 40
1.0
 40
1.0
 40
2.0
 40
2.0
 40
2.0
 40
3.0
 40
3.0
 40
3.0
 40
4.0
 40
4.0
 40
4.0
 40
4.0
 10
97.62470431857638
 20
118.8375352647569
 10
97.93028428819443
 20
118.8375352647569
 10
98.40536295572916
 20
119.0394178602431
 10
98.40536295572916
 20
119.7983723958333
 10
98.40536295572916
 20
120.2624267578125
 10
98.32888183593749
 20
121.0107014973958
 10
97.63538411458333
 20
121.0107014973958
 10
96.89296603732637
 20
121.0107014973958
 10
96.85472547743055
 20
120.3061794704861
 10
96.85472547743055
 20
119.9403103298611
 10
96.85472547743055
 20
119.3126139322917
 10
97.10036078559027
 20
118.8375352647569
 10
97.62470431857638
 20
118.8375352647569
 97
        0
 92
        1
 93
        1
 72
     4
 94
        3
 73
     0
 74
     0
 95
       38
 96
       34
 40
0.0
 40
0.0
 40
0.0
 40
0.0
 40
1.0
 40
1.0
 40
1.0
 40
2.0
 40
2.0
 40
2.0
 40
3.0
 40
3.0
 40
3.0
 40
4.0
 40
4.0
 40
4.0
 40
5.0
 40
5.0
 40
5.0
 40
6.0
 40
6.0
 40
6.0
 40
7.0
 40
7.0
 40
7.0
 40
8.0
 40
8.0
 40
8.0
 40
9.0
 40
9.0
 40
9.0
 40
10.0
 40
10.0
 40
10.0
 40
11.0
 40
11.0
 40
11.0
 40
11.0
 10
98.89146592881943
 20
118.50439453125
 10
98.89146592881943
 20
118.50439453125
 10
98.43809136284722
 20
118.50439453125
 10
98.43809136284722
 20
118.50439453125
 10
98.43809136284722
 20
118.50439453125
 10
98.43809136284722
 20
118.8974799262153
 10
98.43809136284722
 20
118.8974799262153
 10
98.43809136284722
 20
118.8974799262153
 10
98.42706705729165
 20
118.8974799262153
 10
98.42706705729165
 20
118.8974799262153
 10
98.21967230902777
 20
118.5099066840278
 10
97.8920437282986
 20
118.4224012586806
 10
97.61368001302083
 20
118.4224012586806
 10
96.64181857638889
 20
118.4224012586806
 10
96.35759819878471
 20
119.3343180338542
 10
96.35759819878471
 20
120.0167914496528
 10
96.35759819878471
 20
120.8194986979167
 10
96.78926866319443
 20
121.4420274522569
 10
97.54822319878471
 20
121.4420274522569
 10
98.06671006944444
 20
121.4420274522569
 10
98.28512912326389
 20
121.1199110243056
 10
98.39985080295138
 20
120.9559244791667
 10
98.39985080295138
 20
120.9559244791667
 10
98.41087510850693
 20
120.9941650390625
 10
98.41087510850693
 20
120.9941650390625
 10
98.41087510850693
 20
120.9941650390625
 10
98.41087510850693
 20
122.4249131944444
 10
98.41087510850693
 20
122.4249131944444
 10
98.41087510850693
 20
122.4249131944444
 10
98.89146592881943
 20
122.4249131944444
 10
98.89146592881943
 20
122.4249131944444
 10
98.89146592881943
 20
122.4249131944444
 10
98.89146592881943
 20
118.50439453125
 10
98.89146592881943
 20
118.50439453125
 97
        0
 75
     0
 76
     1
 98
        1
 10
0.0
 20
0.0
  0
HATCH
  5
47
330
A
100
AcDbEntity
  8
LAYER_1
 62
     7
100
AcDbHatch
 10
0.0
 20
0.0
 30
0.0
210
0.0
220
0.0
230
1.0
  2
SOLID
 70
     1
 71
     0
 91
        1
 92
        1
 93
        1
 72
     4
 94
        3
 73
     0
 74
     0
 95
       56
 96
       52
 40
0.0
 40
0.0
 40
0.0
 40
0.0
 40
1.0
 40
1.0
 40
1.0
 40
2.0
 40
2.0
 40
2.0
 40
3.0
 40
3.0
 40
3.0
 40
4.0
 40
4.0
 40
4.0
 40
5.0
 40
5.0
 40
5.0
 40
6.0
 40
6.0
 40
6.0
 40
7.0
 40
7.0
 40
7.0
 40
8.0
 40
8.0
 40
8.0
 40
9.0
 40
9.0
 40
9.0
 40
10.0
 40
10.0
 40
10.0
 40
11.0
 40
11.0
 40
11.0
 40
12.0
 40
12.0
 40
12.0
 40
13.0
 40
13.0
 40
13.0
 40
14.0
 40
14.0
 40
14.0
 40
15.0
 40
15.0
 40
15.0
 40
16.0
 40
16.0
 40
16.0
 40
17.0
 40
17.0
 40
17.0
 40
17.0
 10
75.88890787760415
 20
115.8185980902778
 10
75.86169162326388
 20
116.4249348958333
 10
75.35939670138889
 20
116.6161376953125
 10
74.91704644097221
 20
116.6161376953125
 10
74.58390570746528
 20
116.6161376953125
 10
74.02132161458333
 20
116.5231201171875
 10
74.02132161458333
 20
115.9278076171875
 10
74.02132161458333
 20
115.5950113932292
 10
74.25627712673611
 20
115.4858018663194
 10
74.48572048611111
 20
115.4310248480903
 10
74.48572048611111
 20
115.4310248480903
 10
75.60503200954861
 20
115.174365234375
 10
75.60503200954861
 20
115.174365234375
 10
76.11283908420138
 20
115.0541314019097
 10
76.4949001736111
 20
114.7485514322917
 10
76.4949001736111
 20
114.1260226779514
 10
76.4949001736111
 20
113.1979139539931
 10
75.63224826388888
 20
112.9412543402778
 10
74.96079915364582
 20
112.9412543402778
 10
74.2345730251736
 20
112.9412543402778
 10
73.95035264756943
 20
113.1596733940972
 10
73.77568630642361
 20
113.3178032769097
 10
73.44289008246527
 20
113.6182156032986
 10
73.37708875868054
 20
113.9458441840278
 10
73.37708875868054
 20
114.3117133246528
 10
73.37708875868054
 20
114.3117133246528
 10
73.87421603732638
 20
114.3117133246528
 10
73.87421603732638
 20
114.3117133246528
 10
73.87421603732638
 20
113.6020236545139
 10
74.45299207899305
 20
113.3942843967014
 10
74.95528700086805
 20
113.3942843967014
 10
75.33734809027777
 20
113.3942843967014
 10
75.98158094618054
 20
113.4928141276042
 10
75.98158094618054
 20
114.0550537109375
 10
75.98158094618054
 20
114.4646755642361
 10
75.79072265625
 20
114.5955891927083
 10
75.14648980034721
 20
114.7485514322917
 10
75.14648980034721
 20
114.7485514322917
 10
74.34378255208333
 20
114.9342420789931
 10
74.34378255208333
 20
114.9342420789931
 10
74.08712293836805
 20
114.9941867404514
 10
73.50834689670138
 20
115.174365234375
 10
73.50834689670138
 20
115.8568386501736
 10
73.50834689670138
 20
116.4686876085069
 10
73.90694444444443
 20
117.0691677517361
 10
74.85710177951388
 20
117.0691677517361
 10
76.22756076388889
 20
117.0691677517361
 10
76.36398654513889
 20
116.2502685546875
 10
76.38569064670138
 20
115.8185980902778
 10
76.38569064670138
 20
115.8185980902778
 10
75.88890787760415
 20
115.8185980902778
 10
75.88890787760415
 20
115.8185980902778
 97
        0
 75
     0
 76
     1
 98
        1
 10
0.0
 20
0.0
  0
HATCH
  5
46
330
A
100
AcDbEntity
  8
LAYER_1
 62
     7
100
AcDbHatch
 10
0.0
 20
0.0
 30
0.0
210
0.0
220
0.0
230
1.0
  2
SOLID
 70
     1
 71
     0
 91
        1
 92
        1
 93
        1
 72
     4
 94
        3
 73
     0
 74
     0
 95
       29
 96
       25
 40
0.0
 40
0.0
 40
0.0
 40
0.0
 40
1.0
 40
1.0
 40
1.0
 40
2.0
 40
2.0
 40
2.0
 40
3.0
 40
3.0
 40
3.0
 40
4.0
 40
4.0
 40
4.0
 40
5.0
 40
5.0
 40
5.0
 40
6.0
 40
6.0
 40
6.0
 40
7.0
 40
7.0
 40
7.0
 40
8.0
 40
8.0
 40
8.0
 40
8.0
 10
76.82735188802083
 20
116.9654703776042
 10
76.82735188802083
 20
116.9654703776042
 10
80.0109646267361
 20
116.9654703776042
 10
80.0109646267361
 20
116.9654703776042
 10
80.0109646267361
 20
116.9654703776042
 10
80.0109646267361
 20
116.4959038628472
 10
80.0109646267361
 20
116.4959038628472
 10
80.0109646267361
 20
116.4959038628472
 10
78.6839138454861
 20
116.4959038628472
 10
78.6839138454861
 20
116.4959038628472
 10
78.6839138454861
 20
116.4959038628472
 10
78.6839138454861
 20
113.0449517144097
 10
78.6839138454861
 20
113.0449517144097
 10
78.6839138454861
 20
113.0449517144097
 10
78.15440266927082
 20
113.0449517144097
 10
78.15440266927082
 20
113.0449517144097
 10
78.15440266927082
 20
113.0449517144097
 10
78.15440266927082
 20
116.4959038628472
 10
78.15440266927082
 20
116.4959038628472
 10
78.15440266927082
 20
116.4959038628472
 10
76.82735188802083
 20
116.4959038628472
 10
76.82735188802083
 20
116.4959038628472
 10
76.82735188802083
 20
116.4959038628472
 10
76.82735188802083
 20
116.9654703776042
 10
76.82735188802083
 20
116.9654703776042
 97
        0
 75
     0
 76
     1
 98
        1
 10
0.0
 20
0.0
  0
HATCH
  5
45
330
A
100
AcDbEntity
  8
LAYER_1
 62
     7
100
AcDbHatch
 10
0.0
 20
0.0
 30
0.0
210
0.0
220
0.0
230
1.0
  2
SOLID
 70
     1
 71
     0
 91
        2
 92
       16
 93
        1
 72
     4
 94
        3
 73
     0
 74
     0
 95
       20
 96
       16
 40
0.0
 40
0.0
 40
0.0
 40
0.0
 40
1.0
 40
1.0
 40
1.0
 40
2.0
 40
2.0
 40
2.0
 40
3.0
 40
3.0
 40
3.0
 40
4.0
 40
4.0
 40
4.0
 40
5.0
 40
5.0
 40
5.0
 40
5.0
 10
81.09582519531249
 20
115.1798773871528
 10
81.09582519531249
 20
115.1798773871528
 10
82.32469075520832
 20
115.1798773871528
 10
82.32469075520832
 20
115.1798773871528
 10
82.71226399739582
 20
115.1798773871528
 10
83.12188585069444
 20
115.2780626085069
 10
83.12188585069444
 20
115.8568386501736
 10
83.12188585069444
 20
116.4631754557292
 10
82.67953559027777
 20
116.5120958116319
 10
82.41736382378471
 20
116.5120958116319
 10
82.41736382378471
 20
116.5120958116319
 10
81.09582519531249
 20
116.5120958116319
 10
81.09582519531249
 20
116.5120958116319
 10
81.09582519531249
 20
116.5120958116319
 10
81.09582519531249
 20
115.1798773871528
 10
81.09582519531249
 20
115.1798773871528
 97
        0
 92
        1
 93
        1
 72
     4
 94
        3
 73
     0
 74
     0
 95
       47
 96
       43
 40
0.0
 40
0.0
 40
0.0
 40
0.0
 40
1.0
 40
1.0
 40
1.0
 40
2.0
 40
2.0
 40
2.0
 40
3.0
 40
3.0
 40
3.0
 40
4.0
 40
4.0
 40
4.0
 40
5.0
 40
5.0
 40
5.0
 40
6.0
 40
6.0
 40
6.0
 40
7.0
 40
7.0
 40
7.0
 40
8.0
 40
8.0
 40
8.0
 40
9.0
 40
9.0
 40
9.0
 40
10.0
 40
10.0
 40
10.0
 40
11.0
 40
11.0
 40
11.0
 40
12.0
 40
12.0
 40
12.0
 40
13.0
 40
13.0
 40
13.0
 40
14.0
 40
14.0
 40
14.0
 40
14.0
 10
81.09582519531249
 20
113.0449517144097
 10
81.09582519531249
 20
113.0449517144097
 10
80.56631401909722
 20
113.0449517144097
 10
80.56631401909722
 20
113.0449517144097
 10
80.56631401909722
 20
113.0449517144097
 10
80.56631401909722
 20
116.9654703776042
 10
80.56631401909722
 20
116.9654703776042
 10
80.56631401909722
 20
116.9654703776042
 10
82.37912326388889
 20
116.9654703776042
 10
82.37912326388889
 20
116.9654703776042
 10
83.02335611979166
 20
116.9654703776042
 10
83.66793348524305
 20
116.7415391710069
 10
83.66793348524305
 20
115.9116156684028
 10
83.66793348524305
 20
115.3328396267361
 10
83.37303331163194
 20
115.1199327256944
 10
83.12188585069444
 20
114.9724826388889
 10
83.34547254774304
 20
114.8794650607639
 10
83.56940375434027
 20
114.7812798394097
 10
83.59145236545137
 20
114.2352322048611
 10
83.59145236545137
 20
114.2352322048611
 10
83.62418077256943
 20
113.5255425347222
 10
83.62418077256943
 20
113.5255425347222
 10
83.62969292534721
 20
113.3071234809028
 10
83.65690917968749
 20
113.2251302083333
 10
83.82055121527777
 20
113.1324571397569
 10
83.82055121527777
 20
113.1324571397569
 10
83.82055121527777
 20
113.0449517144097
 10
83.82055121527777
 20
113.0449517144097
 10
83.82055121527777
 20
113.0449517144097
 10
83.17080620659722
 20
113.0449517144097
 10
83.17080620659722
 20
113.0449517144097
 10
83.09432508680555
 20
113.2850748697917
 10
83.07813313802083
 20
113.8803873697917
 10
83.07813313802083
 20
114.0278374565972
 10
83.07813313802083
 20
114.3499538845486
 10
83.01267632378472
 20
114.7268473307292
 10
82.37912326388889
 20
114.7268473307292
 10
82.37912326388889
 20
114.7268473307292
 10
81.09582519531249
 20
114.7268473307292
 10
81.09582519531249
 20
114.7268473307292
 10
81.09582519531249
 20
114.7268473307292
 10
81.09582519531249
 20
113.0449517144097
 10
81.09582519531249
 20
113.0449517144097
 97
        0
 75
     0
 76
     1
 98
        1
 10
0.0
 20
0.0
  0
HATCH
  5
44
330
A
100
AcDbEntity
  8
LAYER_1
 62
     7
100
AcDbHatch
 10
0.0
 20
0.0
 30
0.0
210
0.0
220
0.0
230
1.0
  2
SOLID
 70
     1
 71
     0
 91
        2
 92
       16
 93
        1
 72
     4
 94
        3
 73
     0
 74
     0
 95
       17
 96
       13
 40
0.0
 40
0.0
 40
0.0
 40
0.0
 40
1.0
 40
1.0
 40
1.0
 40
2.0
 40
2.0
 40
2.0
 40
3.0
 40
3.0
 40
3.0
 40
4.0
 40
4.0
 40
4.0
 40
4.0
 10
86.44054633246527
 20
114.6558783637153
 10
86.44054633246527
 20
114.6558783637153
 10
85.8617702907986
 20
116.3811821831597
 10
85.8617702907986
 20
116.3811821831597
 10
85.8617702907986
 20
116.3811821831597
 10
85.85074598524305
 20
116.3811821831597
 10
85.85074598524305
 20
116.3811821831597
 10
85.85074598524305
 20
116.3811821831597
 10
85.22270507812499
 20
114.6558783637153
 10
85.22270507812499
 20
114.6558783637153
 10
85.22270507812499
 20
114.6558783637153
 10
86.44054633246527
 20
114.6558783637153
 10
86.44054633246527
 20
114.6558783637153
 97
        0
 92
        1
 93
        1
 72
     4
 94
        3
 73
     0
 74
     0
 95
       29
 96
       25
 40
0.0
 40
0.0
 40
0.0
 40
0.0
 40
1.0
 40
1.0
 40
1.0
 40
2.0
 40
2.0
 40
2.0
 40
3.0
 40
3.0
 40
3.0
 40
4.0
 40
4.0
 40
4.0
 40
5.0
 40
5.0
 40
5.0
 40
6.0
 40
6.0
 40
6.0
 40
7.0
 40
7.0
 40
7.0
 40
8.0
 40
8.0
 40
8.0
 40
8.0
 10
85.05906304253472
 20
114.1859673394097
 10
85.05906304253472
 20
114.1859673394097
 10
84.6494411892361
 20
113.0449517144097
 10
84.6494411892361
 20
113.0449517144097
 10
84.6494411892361
 20
113.0449517144097
 10
84.10339355468749
 20
113.0449517144097
 10
84.10339355468749
 20
113.0449517144097
 10
84.10339355468749
 20
113.0449517144097
 10
85.57789442274304
 20
116.9654703776042
 10
85.57789442274304
 20
116.9654703776042
 10
85.57789442274304
 20
116.9654703776042
 10
86.17837456597222
 20
116.9654703776042
 10
86.17837456597222
 20
116.9654703776042
 10
86.17837456597222
 20
116.9654703776042
 10
87.5980984157986
 20
113.0449517144097
 10
87.5980984157986
 20
113.0449517144097
 10
87.5980984157986
 20
113.0449517144097
 10
87.01932237413193
 20
113.0449517144097
 10
87.01932237413193
 20
113.0449517144097
 10
87.01932237413193
 20
113.0449517144097
 10
86.63174913194443
 20
114.1859673394097
 10
86.63174913194443
 20
114.1859673394097
 10
86.63174913194443
 20
114.1859673394097
 10
85.05906304253472
 20
114.1859673394097
 10
85.05906304253472
 20
114.1859673394097
 97
        0
 75
     0
 76
     1
 98
        1
 10
0.0
 20
0.0
  0
HATCH
  5
43
330
A
100
AcDbEntity
  8
LAYER_1
 62
     7
100
AcDbHatch
 10
0.0
 20
0.0
 30
0.0
210
0.0
220
0.0
230
1.0
  2
SOLID
 70
     1
 71
     0
 91
        2
 92
       16
 93
        1
 72
     4
 94
        3
 73
     0
 74
     0
 95
       20
 96
       16
 40
0.0
 40
0.0
 40
0.0
 40
0.0
 40
1.0
 40
1.0
 40
1.0
 40
2.0
 40
2.0
 40
2.0
 40
3.0
 40
3.0
 40
3.0
 40
4.0
 40
4.0
 40
4.0
 40
5.0
 40
5.0
 40
5.0
 40
5.0
 10
88.6678005642361
 20
115.1526611328125
 10
88.6678005642361
 20
115.1526611328125
 10
89.72165527343749
 20
115.1526611328125
 10
89.72165527343749
 20
115.1526611328125
 10
90.1963894314236
 20
115.1526611328125
 10
90.518505859375
 20
115.3273274739583
 10
90.518505859375
 20
115.8568386501736
 10
90.518505859375
 20
116.3539659288194
 10
90.18019748263887
 20
116.5120958116319
 10
89.743359375
 20
116.5120958116319
 10
89.743359375
 20
116.5120958116319
 10
88.6678005642361
 20
116.5120958116319
 10
88.6678005642361
 20
116.5120958116319
 10
88.6678005642361
 20
116.5120958116319
 10
88.6678005642361
 20
115.1526611328125
 10
88.6678005642361
 20
115.1526611328125
 97
        0
 92
        1
 93
        1
 72
     4
 94
        3
 73
     0
 74
     0
 95
       26
 96
       22
 40
0.0
 40
0.0
 40
0.0
 40
0.0
 40
1.0
 40
1.0
 40
1.0
 40
2.0
 40
2.0
 40
2.0
 40
3.0
 40
3.0
 40
3.0
 40
4.0
 40
4.0
 40
4.0
 40
5.0
 40
5.0
 40
5.0
 40
6.0
 40
6.0
 40
6.0
 40
7.0
 40
7.0
 40
7.0
 40
7.0
 10
88.6678005642361
 20
113.0449517144097
 10
88.6678005642361
 20
113.0449517144097
 10
88.13794487847221
 20
113.0449517144097
 10
88.13794487847221
 20
113.0449517144097
 10
88.13794487847221
 20
113.0449517144097
 10
88.13794487847221
 20
116.9654703776042
 10
88.13794487847221
 20
116.9654703776042
 10
88.13794487847221
 20
116.9654703776042
 10
89.90148925781249
 20
116.9654703776042
 10
89.90148925781249
 20
116.9654703776042
 10
90.62771538628472
 20
116.9654703776042
 10
91.0645534939236
 20
116.4959038628472
 10
91.0645534939236
 20
115.8623508029514
 10
91.0645534939236
 20
115.3163031684028
 10
90.75346137152776
 20
114.6992865668403
 10
89.90148925781249
 20
114.6992865668403
 10
89.90148925781249
 20
114.6992865668403
 10
88.6678005642361
 20
114.6992865668403
 10
88.6678005642361
 20
114.6992865668403
 10
88.6678005642361
 20
114.6992865668403
 10
88.6678005642361
 20
113.0449517144097
 10
88.6678005642361
 20
113.0449517144097
 97
        0
 75
     0
 76
     1
 98
        1
 10
0.0
 20
0.0
  0
HATCH
  5
42
330
A
100
AcDbEntity
  8
LAYER_1
 62
     7
100
AcDbHatch
 10
0.0
 20
0.0
 30
0.0
210
0.0
220
0.0
230
1.0
  2
SOLID
 70
     1
 71
     0
 91
        1
 92
        1
 93
        1
 72
     4
 94
        3
 73
     0
 74
     0
 95
       35
 96
       31
 40
0.0
 40
0.0
 40
0.0
 40
0.0
 40
1.0
 40
1.0
 40
1.0
 40
2.0
 40
2.0
 40
2.0
 40
3.0
 40
3.0
 40
3.0
 40
4.0
 40
4.0
 40
4.0
 40
5.0
 40
5.0
 40
5.0
 40
6.0
 40
6.0
 40
6.0
 40
7.0
 40
7.0
 40
7.0
 40
8.0
 40
8.0
 40
8.0
 40
9.0
 40
9.0
 40
9.0
 40
10.0
 40
10.0
 40
10.0
 40
10.0
 10
53.28701443142361
 20
116.1538058810764
 10
52.36820746527777
 20
116.5396565755208
 10
51.57755805121527
 20
116.278173828125
 10
51.14829915364583
 20
116.0494194878472
 10
50.33939073350694
 20
115.6177490234375
 10
50.25808648003472
 20
114.9073703342014
 10
51.38428819444444
 20
114.1938910590278
 10
52.39128960503471
 20
113.5562038845486
 10
53.53919542100694
 20
113.2647488064236
 10
54.64679361979166
 20
113.855238172743
 10
55.03884548611111
 20
114.06435546875
 10
55.53838433159721
 20
114.5394341362847
 10
54.74876844618055
 20
115.2790961371528
 10
54.74876844618055
 20
115.2790961371528
 10
55.33374565972222
 20
115.5908772786458
 10
55.33374565972222
 20
115.5908772786458
 10
56.69938151041666
 20
114.4353922526042
 10
55.40195855034722
 20
113.6602457682292
 10
55.06606174045138
 20
113.4811008029514
 10
54.05148111979166
 20
112.9402208116319
 10
52.42436252170138
 20
112.8093071831597
 10
50.77967393663194
 20
113.8507595486111
 10
49.46295844184027
 20
114.6848171657986
 10
49.33514539930555
 20
115.6804497612847
 10
50.63601345486111
 20
116.3736029730903
 10
51.78701985677083
 20
116.9875189887153
 10
53.06962890625
 20
116.8721082899306
 10
53.87164713541666
 20
116.4659315321181
 10
53.87164713541666
 20
116.4659315321181
 10
53.28701443142361
 20
116.1538058810764
 10
53.28701443142361
 20
116.1538058810764
 97
        0
 75
     0
 76
     1
 98
        1
 10
0.0
 20
0.0
  0
HATCH
  5
41
330
A
100
AcDbEntity
  8
LAYER_1
 62
     7
100
AcDbHatch
 10
0.0
 20
0.0
 30
0.0
210
0.0
220
0.0
230
1.0
  2
SOLID
 70
     1
 71
     0
 91
        1
 92
        1
 93
        1
 72
     4
 94
        3
 73
     0
 74
     0
 95
       23
 96
       19
 40
0.0
 40
0.0
 40
0.0
 40
0.0
 40
1.0
 40
1.0
 40
1.0
 40
2.0
 40
2.0
 40
2.0
 40
3.0
 40
3.0
 40
3.0
 40
4.0
 40
4.0
 40
4.0
 40
5.0
 40
5.0
 40
5.0
 40
6.0
 40
6.0
 40
6.0
 40
6.0
 10
55.60866427951388
 20
113.6971082899305
 10
55.60866427951388
 20
113.6971082899305
 10
58.77918565538194
 20
115.3886501736111
 10
58.77918565538194
 20
115.3886501736111
 10
58.77918565538194
 20
115.3886501736111
 10
59.49611002604166
 20
114.9345865885417
 10
59.49611002604166
 20
114.9345865885417
 10
59.49611002604166
 20
114.9345865885417
 10
55.48085123697916
 20
112.7924262152778
 10
55.48085123697916
 20
112.7924262152778
 10
55.48085123697916
 20
112.7924262152778
 10
49.49293077256944
 20
116.5844428168403
 10
49.49293077256944
 20
116.5844428168403
 10
49.49293077256944
 20
116.5844428168403
 10
50.33801269531249
 20
117.0350613064236
 10
50.33801269531249
 20
117.0350613064236
 10
50.33801269531249
 20
117.0350613064236
 10
55.60866427951388
 20
113.6971082899305
 10
55.60866427951388
 20
113.6971082899305
 97
        0
 75
     0
 76
     1
 98
        1
 10
0.0
 20
0.0
  0
HATCH
  5
40
330
A
100
AcDbEntity
  8
LAYER_1
 62
     7
100
AcDbHatch
 10
0.0
 20
0.0
 30
0.0
210
0.0
220
0.0
230
1.0
  2
SOLID
 70
     1
 71
     0
 91
        1
 92
        1
 93
        1
 72
     4
 94
        3
 73
     0
 74
     0
 95
       41
 96
       37
 40
0.0
 40
0.0
 40
0.0
 40
0.0
 40
1.0
 40
1.0
 40
1.0
 40
2.0
 40
2.0
 40
2.0
 40
3.0
 40
3.0
 40
3.0
 40
4.0
 40
4.0
 40
4.0
 40
5.0
 40
5.0
 40
5.0
 40
6.0
 40
6.0
 40
6.0
 40
7.0
 40
7.0
 40
7.0
 40
8.0
 40
8.0
 40
8.0
 40
9.0
 40
9.0
 40
9.0
 40
10.0
 40
10.0
 40
10.0
 40
11.0
 40
11.0
 40
11.0
 40
12.0
 40
12.0
 40
12.0
 40
12.0
 10
27.54801703559027
 20
102.6366292317708
 10
27.50977647569444
 20
103.4228000217014
 10
27.97417534722222
 20
104.0070882161458
 10
28.79307454427083
 20
104.0070882161458
 10
29.47003580729167
 20
104.0070882161458
 10
30.00540364583333
 20
103.6140028211806
 10
30.00540364583333
 20
102.8932888454861
 10
30.00540364583333
 20
102.2104709201389
 10
29.54651692708333
 20
101.866650390625
 10
29.06627061631944
 20
101.5662380642361
 10
28.58016764322916
 20
101.271337890625
 10
28.07236056857639
 20
101.0257025824653
 10
27.97934299045139
 20
100.5451117621528
 10
27.97934299045139
 20
100.5451117621528
 10
29.9671630859375
 20
100.5451117621528
 10
29.9671630859375
 20
100.5451117621528
 10
29.9671630859375
 20
100.5451117621528
 10
29.9671630859375
 20
100.1358344184028
 10
29.9671630859375
 20
100.1358344184028
 10
29.9671630859375
 20
100.1358344184028
 10
27.43880750868055
 20
100.1358344184028
 10
27.43880750868055
 20
100.1358344184028
 10
27.51528862847222
 20
101.0529188368056
 10
27.97934299045139
 20
101.3805474175347
 10
28.525390625
 20
101.7192003038194
 10
29.18064778645833
 20
102.1233100043403
 10
29.51378851996527
 20
102.3634331597222
 10
29.51378851996527
 20
102.8984564887153
 10
29.51378851996527
 20
103.3191026475694
 10
29.17513563368055
 20
103.5974663628472
 10
28.76585828993055
 20
103.5974663628472
 10
28.22497829861111
 20
103.5974663628472
 10
27.99587944878472
 20
103.10068359375
 10
28.01207139756944
 20
102.6366292317708
 10
28.01207139756944
 20
102.6366292317708
 10
27.54801703559027
 20
102.6366292317708
 10
27.54801703559027
 20
102.6366292317708
 97
        0
 75
     0
 76
     1
 98
        1
 10
0.0
 20
0.0
  0
HATCH
  5
3F
330
A
100
AcDbEntity
  8
LAYER_1
 62
     7
100
AcDbHatch
 10
0.0
 20
0.0
 30
0.0
210
0.0
220
0.0
230
1.0
  2
SOLID
 70
     1
 71
     0
 91
        1
 92
        1
 93
        1
 72
     4
 94
        3
 73
     0
 74
     0
 95
       59
 96
       55
 40
0.0
 40
0.0
 40
0.0
 40
0.0
 40
1.0
 40
1.0
 40
1.0
 40
2.0
 40
2.0
 40
2.0
 40
3.0
 40
3.0
 40
3.0
 40
4.0
 40
4.0
 40
4.0
 40
5.0
 40
5.0
 40
5.0
 40
6.0
 40
6.0
 40
6.0
 40
7.0
 40
7.0
 40
7.0
 40
8.0
 40
8.0
 40
8.0
 40
9.0
 40
9.0
 40
9.0
 40
10.0
 40
10.0
 40
10.0
 40
11.0
 40
11.0
 40
11.0
 40
12.0
 40
12.0
 40
12.0
 40
13.0
 40
13.0
 40
13.0
 40
14.0
 40
14.0
 40
14.0
 40
15.0
 40
15.0
 40
15.0
 40
16.0
 40
16.0
 40
16.0
 40
17.0
 40
17.0
 40
17.0
 40
18.0
 40
18.0
 40
18.0
 40
18.0
 10
31.55500759548611
 20
103.0407389322917
 10
31.59876030815972
 20
103.0352267795139
 10
31.64216851128472
 20
103.0352267795139
 10
31.68592122395833
 20
103.0352267795139
 10
31.96428493923611
 20
103.0352267795139
 10
32.128271484375
 20
103.1826768663194
 10
32.128271484375
 20
103.3845594618056
 10
32.128271484375
 20
103.5812744140625
 10
32.0135498046875
 20
103.7121880425347
 10
31.7406982421875
 20
103.7121880425347
 10
31.41858181423611
 20
103.7121880425347
 10
31.27113172743055
 20
103.5320095486111
 10
31.27113172743055
 20
103.2591579861111
 10
31.27113172743055
 20
103.2591579861111
 10
30.93247884114583
 20
103.2591579861111
 10
30.93247884114583
 20
103.2591579861111
 10
30.94867078993055
 20
103.7011637369792
 10
31.21084255642361
 20
104.0070882161458
 10
31.73518608940972
 20
104.0070882161458
 10
32.16651204427083
 20
104.0070882161458
 10
32.49965277777778
 20
103.8052056206597
 10
32.49965277777778
 20
103.4066080729167
 10
32.49965277777778
 20
103.1933566623264
 10
32.37941894531249
 20
103.0186903211805
 10
32.14480794270833
 20
102.9260172526042
 10
32.14480794270833
 20
102.9260172526042
 10
32.14480794270833
 20
102.9149929470486
 10
32.14480794270833
 20
102.9149929470486
 10
32.45590006510417
 20
102.8550482855903
 10
32.6088623046875
 20
102.631117078993
 10
32.6088623046875
 20
102.3527533637153
 10
32.6088623046875
 20
101.8883544921875
 10
32.20475260416666
 20
101.6482313368056
 10
31.72967393663194
 20
101.6482313368056
 10
31.21084255642361
 20
101.6482313368056
 10
30.86702202690972
 20
101.9265950520833
 10
30.87770182291666
 20
102.4016737196181
 10
30.87770182291666
 20
102.4016737196181
 10
31.21635470920139
 20
102.4016737196181
 10
31.21635470920139
 20
102.4016737196181
 10
31.23805881076389
 20
102.1012613932292
 10
31.41306966145833
 20
101.9431315104167
 10
31.72967393663194
 20
101.9431315104167
 10
32.09003092447917
 20
101.9431315104167
 10
32.23748101128472
 20
102.139501953125
 10
32.23748101128472
 20
102.3527533637153
 10
32.23748101128472
 20
102.6094129774306
 10
32.04627821180555
 20
102.7620307074653
 10
31.7406982421875
 20
102.7620307074653
 10
31.67489691840278
 20
102.7620307074653
 10
31.60944010416666
 20
102.7565185546875
 10
31.55500759548611
 20
102.7513509114583
 10
31.55500759548611
 20
102.7513509114583
 10
31.55500759548611
 20
103.0407389322917
 10
31.55500759548611
 20
103.0407389322917
 97
        0
 75
     0
 76
     1
 98
        1
 10
0.0
 20
0.0
  0
HATCH
  5
3E
330
A
100
AcDbEntity
  8
LAYER_1
 62
     7
100
AcDbHatch
 10
0.0
 20
0.0
 30
0.0
210
0.0
220
0.0
230
1.0
  2
SOLID
 70
     1
 71
     0
 91
        1
 92
        1
 93
        1
 72
     4
 94
        3
 73
     0
 74
     0
 95
       17
 96
       13
 40
0.0
 40
0.0
 40
0.0
 40
0.0
 40
1.0
 40
1.0
 40
1.0
 40
2.0
 40
2.0
 40
2.0
 40
3.0
 40
3.0
 40
3.0
 40
4.0
 40
4.0
 40
4.0
 40
4.0
 10
34.14709743923611
 20
104.0070882161458
 10
34.14709743923611
 20
104.0070882161458
 10
34.47472601996527
 20
104.0070882161458
 10
34.47472601996527
 20
104.0070882161458
 10
34.47472601996527
 20
104.0070882161458
 10
32.06660427517361
 20
100.070033094618
 10
32.06660427517361
 20
100.070033094618
 10
32.06660427517361
 20
100.070033094618
 10
31.73897569444444
 20
100.070033094618
 10
31.73897569444444
 20
100.070033094618
 10
31.73897569444444
 20
100.070033094618
 10
34.14709743923611
 20
104.0070882161458
 10
34.14709743923611
 20
104.0070882161458
 97
        0
 75
     0
 76
     1
 98
        1
 10
0.0
 20
0.0
  0
HATCH
  5
3D
330
A
100
AcDbEntity
  8
LAYER_1
 62
     7
100
AcDbHatch
 10
0.0
 20
0.0
 30
0.0
210
0.0
220
0.0
230
1.0
  2
SOLID
 70
     1
 71
     0
 91
        3
 92
       16
 93
        1
 72
     4
 94
        3
 73
     0
 74
     0
 95
       17
 96
       13
 40
0.0
 40
0.0
 40
0.0
 40
0.0
 40
1.0
 40
1.0
 40
1.0
 40
2.0
 40
2.0
 40
2.0
 40
3.0
 40
3.0
 40
3.0
 40
4.0
 40
4.0
 40
4.0
 40
4.0
 10
34.08129611545139
 20
101.8339219835069
 10
34.08129611545139
 20
101.6155029296875
 10
34.23425835503472
 20
101.5118055555555
 10
34.47438151041666
 20
101.5118055555555
 10
34.70933702256944
 20
101.5118055555555
 10
34.86195475260416
 20
101.6155029296875
 10
34.86195475260416
 20
101.8339219835069
 10
34.86195475260416
 20
102.0578531901042
 10
34.70933702256944
 20
102.1615505642361
 10
34.47438151041666
 20
102.1615505642361
 10
34.23425835503472
 20
102.1615505642361
 10
34.08129611545139
 20
102.0578531901042
 10
34.08129611545139
 20
101.8339219835069
 97
        0
 92
       16
 93
        1
 72
     4
 94
        3
 73
     0
 74
     0
 95
       17
 96
       13
 40
0.0
 40
0.0
 40
0.0
 40
0.0
 40
1.0
 40
1.0
 40
1.0
 40
2.0
 40
2.0
 40
2.0
 40
3.0
 40
3.0
 40
3.0
 40
4.0
 40
4.0
 40
4.0
 40
4.0
 10
34.47438151041666
 20
101.2169053819444
 10
34.17396918402778
 20
101.2169053819444
 10
33.97759874131944
 20
101.0529188368056
 10
33.97759874131944
 20
100.801771375868
 10
33.97759874131944
 20
100.5561360677083
 10
34.17396918402778
 20
100.3924940321181
 10
34.47438151041666
 20
100.3924940321181
 10
34.77479383680555
 20
100.3924940321181
 10
34.96565212673611
 20
100.5561360677083
 10
34.96565212673611
 20
100.801771375868
 10
34.96565212673611
 20
101.0529188368056
 10
34.77479383680555
 20
101.2169053819444
 10
34.47438151041666
 20
101.2169053819444
 97
        0
 92
        1
 93
        1
 72
     4
 94
        3
 73
     0
 74
     0
 95
       35
 96
       31
 40
0.0
 40
0.0
 40
0.0
 40
0.0
 40
1.0
 40
1.0
 40
1.0
 40
2.0
 40
2.0
 40
2.0
 40
3.0
 40
3.0
 40
3.0
 40
4.0
 40
4.0
 40
4.0
 40
5.0
 40
5.0
 40
5.0
 40
6.0
 40
6.0
 40
6.0
 40
7.0
 40
7.0
 40
7.0
 40
8.0
 40
8.0
 40
8.0
 40
9.0
 40
9.0
 40
9.0
 40
10.0
 40
10.0
 40
10.0
 40
10.0
 10
34.8784912109375
 20
101.3805474175347
 10
35.18958333333333
 20
101.2933865017361
 10
35.33703342013889
 20
101.0911593967014
 10
35.33703342013889
 20
100.801771375868
 10
35.33703342013889
 20
100.3542534722222
 10
34.96048448350694
 20
100.0975938585069
 10
34.47438151041666
 20
100.0975938585069
 10
33.98827853732639
 20
100.0975938585069
 10
33.60621744791666
 20
100.3542534722222
 10
33.60621744791666
 20
100.801771375868
 10
33.60621744791666
 20
101.0911593967014
 10
33.75917968749999
 20
101.2933865017361
 10
34.07027180989583
 20
101.3805474175347
 10
34.07027180989583
 20
101.3805474175347
 10
34.07027180989583
 20
101.3915717230903
 10
34.07027180989583
 20
101.3915717230903
 10
33.85736490885417
 20
101.4680528428819
 10
33.70991482204861
 20
101.6592556423611
 10
33.70991482204861
 20
101.866650390625
 10
33.70991482204861
 20
102.1615505642361
 10
33.93384602864583
 20
102.4564507378472
 10
34.47438151041666
 20
102.4564507378472
 10
35.01491699218749
 20
102.4564507378472
 10
35.23333604600694
 20
102.1615505642361
 10
35.23333604600694
 20
101.866650390625
 10
35.23333604600694
 20
101.6592556423611
 10
35.09139811197916
 20
101.4680528428819
 10
34.8784912109375
 20
101.3915717230903
 10
34.8784912109375
 20
101.3915717230903
 10
34.8784912109375
 20
101.3805474175347
 10
34.8784912109375
 20
101.3805474175347
 97
        0
 75
     0
 76
     1
 98
        1
 10
0.0
 20
0.0
  0
HATCH
  5
3C
330
A
100
AcDbEntity
  8
LAYER_1
 62
     7
100
AcDbHatch
 10
0.0
 20
0.0
 30
0.0
210
0.0
220
0.0
230
1.0
  2
SOLID
 70
     1
 71
     0
 91
        2
 92
        1
 93
        1
 72
     4
 94
        3
 73
     0
 74
     0
 95
       17
 96
       13
 40
0.0
 40
0.0
 40
0.0
 40
0.0
 40
1.0
 40
1.0
 40
1.0
 40
2.0
 40
2.0
 40
2.0
 40
3.0
 40
3.0
 40
3.0
 40
4.0
 40
4.0
 40
4.0
 40
4.0
 10
36.93176812065972
 20
104.0563530815972
 10
36.93176812065972
 20
104.0563530815972
 10
37.33036566840278
 20
104.0563530815972
 10
37.33036566840278
 20
104.0563530815972
 10
37.33036566840278
 20
104.0563530815972
 10
37.03512098524305
 20
102.6638454861111
 10
37.03512098524305
 20
102.6638454861111
 10
37.03512098524305
 20
102.6638454861111
 10
36.6365234375
 20
102.6638454861111
 10
36.6365234375
 20
102.6638454861111
 10
36.6365234375
 20
102.6638454861111
 10
36.93176812065972
 20
104.0563530815972
 10
36.93176812065972
 20
104.0563530815972
 97
        0
 92
        1
 93
        1
 72
     4
 94
        3
 73
     0
 74
     0
 95
       17
 96
       13
 40
0.0
 40
0.0
 40
0.0
 40
0.0
 40
1.0
 40
1.0
 40
1.0
 40
2.0
 40
2.0
 40
2.0
 40
3.0
 40
3.0
 40
3.0
 40
4.0
 40
4.0
 40
4.0
 40
4.0
 10
36.15662163628472
 20
104.0563530815972
 10
36.15662163628472
 20
104.0563530815972
 10
36.55521918402778
 20
104.0563530815972
 10
36.55521918402778
 20
104.0563530815972
 10
36.55521918402778
 20
104.0563530815972
 10
36.25962999131944
 20
102.6638454861111
 10
36.25962999131944
 20
102.6638454861111
 10
36.25962999131944
 20
102.6638454861111
 10
35.86103244357638
 20
102.6638454861111
 10
35.86103244357638
 20
102.6638454861111
 10
35.86103244357638
 20
102.6638454861111
 10
36.15662163628472
 20
104.0563530815972
 10
36.15662163628472
 20
104.0563530815972
 97
        0
 75
     0
 76
     1
 98
        1
 10
0.0
 20
0.0
  0
HATCH
  5
3B
330
A
100
AcDbEntity
  8
LAYER_1
 62
     7
100
AcDbHatch
 10
0.0
 20
0.0
 30
0.0
210
0.0
220
0.0
230
1.0
  2
SOLID
 70
     1
 71
     0
 91
        1
 92
        1
 93
        1
 72
     4
 94
        3
 73
     0
 74
     0
 95
       41
 96
       37
 40
0.0
 40
0.0
 40
0.0
 40
0.0
 40
1.0
 40
1.0
 40
1.0
 40
2.0
 40
2.0
 40
2.0
 40
3.0
 40
3.0
 40
3.0
 40
4.0
 40
4.0
 40
4.0
 40
5.0
 40
5.0
 40
5.0
 40
6.0
 40
6.0
 40
6.0
 40
7.0
 40
7.0
 40
7.0
 40
8.0
 40
8.0
 40
8.0
 40
9.0
 40
9.0
 40
9.0
 40
10.0
 40
10.0
 40
10.0
 40
11.0
 40
11.0
 40
11.0
 40
12.0
 40
12.0
 40
12.0
 40
12.0
 10
24.90941840277777
 20
94.17581922743055
 10
24.90941840277777
 20
94.17581922743055
 10
22.01553819444444
 20
94.17581922743055
 10
22.01553819444444
 20
94.17581922743055
 10
22.01553819444444
 20
94.17581922743055
 10
22.01553819444444
 20
98.09633789062499
 10
22.01553819444444
 20
98.09633789062499
 10
22.01553819444444
 20
98.09633789062499
 10
24.87117784288194
 20
98.09633789062499
 10
24.87117784288194
 20
98.09633789062499
 10
24.87117784288194
 20
98.09633789062499
 10
24.87117784288194
 20
97.62677137586805
 10
24.87117784288194
 20
97.62677137586805
 10
24.87117784288194
 20
97.62677137586805
 10
22.54504937065972
 20
97.62677137586805
 10
22.54504937065972
 20
97.62677137586805
 10
22.54504937065972
 20
97.62677137586805
 10
22.54504937065972
 20
96.42546657986111
 10
22.54504937065972
 20
96.42546657986111
 10
22.54504937065972
 20
96.42546657986111
 10
24.69099934895833
 20
96.42546657986111
 10
24.69099934895833
 20
96.42546657986111
 10
24.69099934895833
 20
96.42546657986111
 10
24.69099934895833
 20
95.95590006510416
 10
24.69099934895833
 20
95.95590006510416
 10
24.69099934895833
 20
95.95590006510416
 10
22.54504937065972
 20
95.95590006510416
 10
22.54504937065972
 20
95.95590006510416
 10
22.54504937065972
 20
95.95590006510416
 10
22.54504937065972
 20
94.64538574218749
 10
22.54504937065972
 20
94.64538574218749
 10
22.54504937065972
 20
94.64538574218749
 10
24.90941840277777
 20
94.64538574218749
 10
24.90941840277777
 20
94.64538574218749
 10
24.90941840277777
 20
94.64538574218749
 10
24.90941840277777
 20
94.17581922743055
 10
24.90941840277777
 20
94.17581922743055
 97
        0
 75
     0
 76
     1
 98
        1
 10
0.0
 20
0.0
  0
HATCH
  5
3A
330
A
100
AcDbEntity
  8
LAYER_1
 62
     7
100
AcDbHatch
 10
0.0
 20
0.0
 30
0.0
210
0.0
220
0.0
230
1.0
  2
SOLID
 70
     1
 71
     0
 91
        1
 92
        1
 93
        1
 72
     4
 94
        3
 73
     0
 74
     0
 95
       41
 96
       37
 40
0.0
 40
0.0
 40
0.0
 40
0.0
 40
1.0
 40
1.0
 40
1.0
 40
2.0
 40
2.0
 40
2.0
 40
3.0
 40
3.0
 40
3.0
 40
4.0
 40
4.0
 40
4.0
 40
5.0
 40
5.0
 40
5.0
 40
6.0
 40
6.0
 40
6.0
 40
7.0
 40
7.0
 40
7.0
 40
8.0
 40
8.0
 40
8.0
 40
9.0
 40
9.0
 40
9.0
 40
10.0
 40
10.0
 40
10.0
 40
11.0
 40
11.0
 40
11.0
 40
12.0
 40
12.0
 40
12.0
 40
12.0
 10
28.20155164930555
 20
98.09633789062499
 10
28.20155164930555
 20
98.09633789062499
 10
28.7145263671875
 20
98.09633789062499
 10
28.7145263671875
 20
98.09633789062499
 10
28.7145263671875
 20
98.09633789062499
 10
28.7145263671875
 20
94.17581922743055
 10
28.7145263671875
 20
94.17581922743055
 10
28.7145263671875
 20
94.17581922743055
 10
28.11955837673611
 20
94.17581922743055
 10
28.11955837673611
 20
94.17581922743055
 10
28.11955837673611
 20
94.17581922743055
 10
26.12657063802083
 20
97.34289550781249
 10
26.12657063802083
 20
97.34289550781249
 10
26.12657063802083
 20
97.34289550781249
 10
26.11554633246528
 20
97.34289550781249
 10
26.11554633246528
 20
97.34289550781249
 10
26.11554633246528
 20
97.34289550781249
 10
26.11554633246528
 20
94.17581922743055
 10
26.11554633246528
 20
94.17581922743055
 10
26.11554633246528
 20
94.17581922743055
 10
25.60222710503472
 20
94.17581922743055
 10
25.60222710503472
 20
94.17581922743055
 10
25.60222710503472
 20
94.17581922743055
 10
25.60222710503472
 20
98.09633789062499
 10
25.60222710503472
 20
98.09633789062499
 10
25.60222710503472
 20
98.09633789062499
 10
26.23026801215278
 20
98.09633789062499
 10
26.23026801215278
 20
98.09633789062499
 10
26.23026801215278
 20
98.09633789062499
 10
28.19052734375
 20
94.92926161024305
 10
28.19052734375
 20
94.92926161024305
 10
28.19052734375
 20
94.92926161024305
 10
28.20155164930555
 20
94.92926161024305
 10
28.20155164930555
 20
94.92926161024305
 10
28.20155164930555
 20
94.92926161024305
 10
28.20155164930555
 20
98.09633789062499
 10
28.20155164930555
 20
98.09633789062499
 97
        0
 75
     0
 76
     1
 98
        1
 10
0.0
 20
0.0
  0
HATCH
  5
39
330
A
100
AcDbEntity
  8
LAYER_1
 62
     7
100
AcDbHatch
 10
0.0
 20
0.0
 30
0.0
210
0.0
220
0.0
230
1.0
  2
SOLID
 70
     1
 71
     0
 91
        2
 92
       16
 93
        1
 72
     4
 94
        3
 73
     0
 74
     0
 95
       20
 96
       16
 40
0.0
 40
0.0
 40
0.0
 40
0.0
 40
1.0
 40
1.0
 40
1.0
 40
2.0
 40
2.0
 40
2.0
 40
3.0
 40
3.0
 40
3.0
 40
4.0
 40
4.0
 40
4.0
 40
5.0
 40
5.0
 40
5.0
 40
5.0
 10
30.10048828125
 20
94.62884928385415
 10
30.10048828125
 20
94.62884928385415
 10
31.12712673611111
 20
94.62884928385415
 10
31.12712673611111
 20
94.62884928385415
 10
31.8151123046875
 20
94.62884928385415
 10
32.26263020833333
 20
95.169384765625
 10
32.26263020833333
 20
96.15778266059027
 10
32.26263020833333
 20
97.14618055555555
 10
31.80960015190972
 20
97.64296332465277
 10
31.08888617621528
 20
97.64296332465277
 10
31.08888617621528
 20
97.64296332465277
 10
30.10048828125
 20
97.64296332465277
 10
30.10048828125
 20
97.64296332465277
 10
30.10048828125
 20
97.64296332465277
 10
30.10048828125
 20
94.62884928385415
 10
30.10048828125
 20
94.62884928385415
 97
        0
 92
        1
 93
        1
 72
     4
 94
        3
 73
     0
 74
     0
 95
       20
 96
       16
 40
0.0
 40
0.0
 40
0.0
 40
0.0
 40
1.0
 40
1.0
 40
1.0
 40
2.0
 40
2.0
 40
2.0
 40
3.0
 40
3.0
 40
3.0
 40
4.0
 40
4.0
 40
4.0
 40
5.0
 40
5.0
 40
5.0
 40
5.0
 10
29.57097710503472
 20
98.09633789062499
 10
29.57097710503472
 20
98.09633789062499
 10
31.15985514322916
 20
98.09633789062499
 10
31.15985514322916
 20
98.09633789062499
 10
32.1809814453125
 20
98.09633789062499
 10
32.80867784288194
 20
97.32084689670138
 10
32.80867784288194
 20
96.19051106770833
 10
32.80867784288194
 20
95.31166720920137
 10
32.42661675347222
 20
94.17581922743055
 10
31.13780653211805
 20
94.17581922743055
 10
31.13780653211805
 20
94.17581922743055
 10
29.57097710503472
 20
94.17581922743055
 10
29.57097710503472
 20
94.17581922743055
 10
29.57097710503472
 20
94.17581922743055
 10
29.57097710503472
 20
98.09633789062499
 10
29.57097710503472
 20
98.09633789062499
 97
        0
 75
     0
 76
     1
 98
        1
 10
0.0
 20
0.0
  0
HATCH
  5
38
330
A
100
AcDbEntity
  8
LAYER_1
 62
     7
100
AcDbHatch
 10
0.0
 20
0.0
 30
0.0
210
0.0
220
0.0
230
1.0
  2
SOLID
 70
     1
 71
     0
 91
        2
 92
       16
 93
        1
 72
     4
 94
        3
 73
     0
 74
     0
 95
       20
 96
       16
 40
0.0
 40
0.0
 40
0.0
 40
0.0
 40
1.0
 40
1.0
 40
1.0
 40
2.0
 40
2.0
 40
2.0
 40
3.0
 40
3.0
 40
3.0
 40
4.0
 40
4.0
 40
4.0
 40
5.0
 40
5.0
 40
5.0
 40
5.0
 10
14.80805392795139
 20
88.66883409288194
 10
14.80805392795139
 20
88.66883409288194
 10
15.8346923828125
 20
88.66883409288194
 10
15.8346923828125
 20
88.66883409288194
 10
16.52267795138889
 20
88.66883409288194
 10
16.97019585503472
 20
89.20971408420138
 10
16.97019585503472
 20
90.19776746961804
 10
16.97019585503472
 20
91.18616536458333
 10
16.51716579861111
 20
91.68294813368055
 10
15.79645182291667
 20
91.68294813368055
 10
15.79645182291667
 20
91.68294813368055
 10
14.80805392795139
 20
91.68294813368055
 10
14.80805392795139
 20
91.68294813368055
 10
14.80805392795139
 20
91.68294813368055
 10
14.80805392795139
 20
88.66883409288194
 10
14.80805392795139
 20
88.66883409288194
 97
        0
 92
        1
 93
        1
 72
     4
 94
        3
 73
     0
 74
     0
 95
       20
 96
       16
 40
0.0
 40
0.0
 40
0.0
 40
0.0
 40
1.0
 40
1.0
 40
1.0
 40
2.0
 40
2.0
 40
2.0
 40
3.0
 40
3.0
 40
3.0
 40
4.0
 40
4.0
 40
4.0
 40
5.0
 40
5.0
 40
5.0
 40
5.0
 10
14.2781982421875
 20
92.13632269965277
 10
14.2781982421875
 20
92.13632269965277
 10
15.86742078993055
 20
92.13632269965277
 10
15.86742078993055
 20
92.13632269965277
 10
16.88820258246528
 20
92.13632269965277
 10
17.51624348958333
 20
91.36083170572915
 10
17.51624348958333
 20
90.2304958767361
 10
17.51624348958333
 20
89.35165201822916
 10
17.13418240017361
 20
88.21580403645832
 10
15.84537217881944
 20
88.21580403645832
 10
15.84537217881944
 20
88.21580403645832
 10
14.2781982421875
 20
88.21580403645832
 10
14.2781982421875
 20
88.21580403645832
 10
14.2781982421875
 20
88.21580403645832
 10
14.2781982421875
 20
92.13632269965277
 10
14.2781982421875
 20
92.13632269965277
 97
        0
 75
     0
 76
     1
 98
        1
 10
0.0
 20
0.0
  0
HATCH
  5
37
330
A
100
AcDbEntity
  8
LAYER_1
 62
     7
100
AcDbHatch
 10
0.0
 20
0.0
 30
0.0
210
0.0
220
0.0
230
1.0
  2
SOLID
 70
     1
 71
     0
 91
        1
 92
        1
 93
        1
 72
     4
 94
        3
 73
     0
 74
     0
 95
       17
 96
       13
 40
0.0
 40
0.0
 40
0.0
 40
0.0
 40
1.0
 40
1.0
 40
1.0
 40
2.0
 40
2.0
 40
2.0
 40
3.0
 40
3.0
 40
3.0
 40
4.0
 40
4.0
 40
4.0
 40
4.0
 10
18.80367567274305
 20
88.21580403645832
 10
18.80367567274305
 20
88.21580403645832
 10
18.27416449652778
 20
88.21580403645832
 10
18.27416449652778
 20
88.21580403645832
 10
18.27416449652778
 20
88.21580403645832
 10
18.27416449652778
 20
92.13632269965277
 10
18.27416449652778
 20
92.13632269965277
 10
18.27416449652778
 20
92.13632269965277
 10
18.80367567274305
 20
92.13632269965277
 10
18.80367567274305
 20
92.13632269965277
 10
18.80367567274305
 20
92.13632269965277
 10
18.80367567274305
 20
88.21580403645832
 10
18.80367567274305
 20
88.21580403645832
 97
        0
 75
     0
 76
     1
 98
        1
 10
0.0
 20
0.0
  0
HATCH
  5
36
330
A
100
AcDbEntity
  8
LAYER_1
 62
     7
100
AcDbHatch
 10
0.0
 20
0.0
 30
0.0
210
0.0
220
0.0
230
1.0
  2
SOLID
 70
     1
 71
     0
 91
        1
 92
        1
 93
        1
 72
     4
 94
        3
 73
     0
 74
     0
 95
       56
 96
       52
 40
0.0
 40
0.0
 40
0.0
 40
0.0
 40
1.0
 40
1.0
 40
1.0
 40
2.0
 40
2.0
 40
2.0
 40
3.0
 40
3.0
 40
3.0
 40
4.0
 40
4.0
 40
4.0
 40
5.0
 40
5.0
 40
5.0
 40
6.0
 40
6.0
 40
6.0
 40
7.0
 40
7.0
 40
7.0
 40
8.0
 40
8.0
 40
8.0
 40
9.0
 40
9.0
 40
9.0
 40
10.0
 40
10.0
 40
10.0
 40
11.0
 40
11.0
 40
11.0
 40
12.0
 40
12.0
 40
12.0
 40
13.0
 40
13.0
 40
13.0
 40
14.0
 40
14.0
 40
14.0
 40
15.0
 40
15.0
 40
15.0
 40
16.0
 40
16.0
 40
16.0
 40
17.0
 40
17.0
 40
17.0
 40
17.0
 10
22.07341579861111
 20
90.98945041232638
 10
22.04619954427083
 20
91.59578721788193
 10
21.54390462239583
 20
91.78699001736111
 10
21.10155436197917
 20
91.78699001736111
 10
20.76841362847222
 20
91.78699001736111
 10
20.20582953559028
 20
91.69397243923611
 10
20.20582953559028
 20
91.09900444878471
 10
20.20582953559028
 20
90.76586371527777
 10
20.44078504774305
 20
90.65665418836805
 10
20.67022840711805
 20
90.60187717013888
 10
20.67022840711805
 20
90.60187717013888
 10
21.78953993055555
 20
90.34521755642361
 10
21.78953993055555
 20
90.34521755642361
 10
22.29734700520833
 20
90.22532823350694
 10
22.67940809461805
 20
89.91940375434027
 10
22.67940809461805
 20
89.29687499999999
 10
22.67940809461805
 20
88.36876627604165
 10
21.81675618489583
 20
88.11210666232638
 10
21.14496256510417
 20
88.11210666232638
 10
20.41873643663194
 20
88.11210666232638
 10
20.13486056857639
 20
88.33052571614583
 10
19.96019422743055
 20
88.48900010850694
 10
19.62705349392361
 20
88.78906792534721
 10
19.5615966796875
 20
89.11669650607638
 10
19.5615966796875
 20
89.48256564670137
 10
19.5615966796875
 20
89.48256564670137
 10
20.05837944878472
 20
89.48256564670137
 10
20.05837944878472
 20
89.48256564670137
 10
20.05837944878472
 20
88.77287597656249
 10
20.63715549045139
 20
88.56513671875
 10
21.139794921875
 20
88.56513671875
 10
21.52185601128472
 20
88.56513671875
 10
22.1660888671875
 20
88.66366644965277
 10
22.1660888671875
 20
89.2259060329861
 10
22.1660888671875
 20
89.63552788628472
 10
21.97488606770833
 20
89.76644151475693
 10
21.33065321180555
 20
89.91940375434027
 10
21.33065321180555
 20
89.91940375434027
 10
20.52794596354167
 20
90.10509440104165
 10
20.52794596354167
 20
90.10509440104165
 10
20.271630859375
 20
90.16503906249999
 10
19.69251030815972
 20
90.34521755642361
 10
19.69251030815972
 20
91.02803548177083
 10
19.69251030815972
 20
91.63953993055554
 10
20.09145236545139
 20
92.24002007378472
 10
21.04126519097222
 20
92.24002007378472
 10
22.41206868489583
 20
92.24002007378472
 10
22.54849446614583
 20
91.4211208767361
 10
22.57019856770833
 20
90.98945041232638
 10
22.57019856770833
 20
90.98945041232638
 10
22.07341579861111
 20
90.98945041232638
 10
22.07341579861111
 20
90.98945041232638
 97
        0
 75
     0
 76
     1
 98
        1
 10
0.0
 20
0.0
  0
HATCH
  5
35
330
A
100
AcDbEntity
  8
LAYER_1
 62
     7
100
AcDbHatch
 10
0.0
 20
0.0
 30
0.0
210
0.0
220
0.0
230
1.0
  2
SOLID
 70
     1
 71
     0
 91
        1
 92
        1
 93
        1
 72
     4
 94
        3
 73
     0
 74
     0
 95
       29
 96
       25
 40
0.0
 40
0.0
 40
0.0
 40
0.0
 40
1.0
 40
1.0
 40
1.0
 40
2.0
 40
2.0
 40
2.0
 40
3.0
 40
3.0
 40
3.0
 40
4.0
 40
4.0
 40
4.0
 40
5.0
 40
5.0
 40
5.0
 40
6.0
 40
6.0
 40
6.0
 40
7.0
 40
7.0
 40
7.0
 40
8.0
 40
8.0
 40
8.0
 40
8.0
 10
23.01185980902778
 20
92.13632269965277
 10
23.01185980902778
 20
92.13632269965277
 10
26.19512803819444
 20
92.13632269965277
 10
26.19512803819444
 20
92.13632269965277
 10
26.19512803819444
 20
92.13632269965277
 10
26.19512803819444
 20
91.66675618489583
 10
26.19512803819444
 20
91.66675618489583
 10
26.19512803819444
 20
91.66675618489583
 10
24.86842176649305
 20
91.66675618489583
 10
24.86842176649305
 20
91.66675618489583
 10
24.86842176649305
 20
91.66675618489583
 10
24.86842176649305
 20
88.21580403645832
 10
24.86842176649305
 20
88.21580403645832
 10
24.86842176649305
 20
88.21580403645832
 10
24.33891059027778
 20
88.21580403645832
 10
24.33891059027778
 20
88.21580403645832
 10
24.33891059027778
 20
88.21580403645832
 10
24.33891059027778
 20
91.66675618489583
 10
24.33891059027778
 20
91.66675618489583
 10
24.33891059027778
 20
91.66675618489583
 10
23.01185980902778
 20
91.66675618489583
 10
23.01185980902778
 20
91.66675618489583
 10
23.01185980902778
 20
91.66675618489583
 10
23.01185980902778
 20
92.13632269965277
 10
23.01185980902778
 20
92.13632269965277
 97
        0
 75
     0
 76
     1
 98
        1
 10
0.0
 20
0.0
  0
HATCH
  5
34
330
A
100
AcDbEntity
  8
LAYER_1
 62
     7
100
AcDbHatch
 10
0.0
 20
0.0
 30
0.0
210
0.0
220
0.0
230
1.0
  2
SOLID
 70
     1
 71
     0
 91
        2
 92
       16
 93
        1
 72
     4
 94
        3
 73
     0
 74
     0
 95
       17
 96
       13
 40
0.0
 40
0.0
 40
0.0
 40
0.0
 40
1.0
 40
1.0
 40
1.0
 40
2.0
 40
2.0
 40
2.0
 40
3.0
 40
3.0
 40
3.0
 40
4.0
 40
4.0
 40
4.0
 40
4.0
 10
28.02791883680555
 20
89.82673068576388
 10
28.02791883680555
 20
89.82673068576388
 10
27.44914279513889
 20
91.55203450520833
 10
27.44914279513889
 20
91.55203450520833
 10
27.44914279513889
 20
91.55203450520833
 10
27.43811848958333
 20
91.55203450520833
 10
27.43811848958333
 20
91.55203450520833
 10
27.43811848958333
 20
91.55203450520833
 10
26.81042209201389
 20
89.82673068576388
 10
26.81042209201389
 20
89.82673068576388
 10
26.81042209201389
 20
89.82673068576388
 10
28.02791883680555
 20
89.82673068576388
 10
28.02791883680555
 20
89.82673068576388
 97
        0
 92
        1
 93
        1
 72
     4
 94
        3
 73
     0
 74
     0
 95
       29
 96
       25
 40
0.0
 40
0.0
 40
0.0
 40
0.0
 40
1.0
 40
1.0
 40
1.0
 40
2.0
 40
2.0
 40
2.0
 40
3.0
 40
3.0
 40
3.0
 40
4.0
 40
4.0
 40
4.0
 40
5.0
 40
5.0
 40
5.0
 40
6.0
 40
6.0
 40
6.0
 40
7.0
 40
7.0
 40
7.0
 40
8.0
 40
8.0
 40
8.0
 40
8.0
 10
26.646435546875
 20
89.35716417100694
 10
26.646435546875
 20
89.35716417100694
 10
26.23681369357639
 20
88.21580403645832
 10
26.23681369357639
 20
88.21580403645832
 10
26.23681369357639
 20
88.21580403645832
 10
25.69076605902778
 20
88.21580403645832
 10
25.69076605902778
 20
88.21580403645832
 10
25.69076605902778
 20
88.21580403645832
 10
27.16526692708333
 20
92.13632269965277
 10
27.16526692708333
 20
92.13632269965277
 10
27.16526692708333
 20
92.13632269965277
 10
27.7657470703125
 20
92.13632269965277
 10
27.7657470703125
 20
92.13632269965277
 10
27.7657470703125
 20
92.13632269965277
 10
29.18547092013889
 20
88.21580403645832
 10
29.18547092013889
 20
88.21580403645832
 10
29.18547092013889
 20
88.21580403645832
 10
28.60669487847222
 20
88.21580403645832
 10
28.60669487847222
 20
88.21580403645832
 10
28.60669487847222
 20
88.21580403645832
 10
28.21912163628472
 20
89.35716417100694
 10
28.21912163628472
 20
89.35716417100694
 10
28.21912163628472
 20
89.35716417100694
 10
26.646435546875
 20
89.35716417100694
 10
26.646435546875
 20
89.35716417100694
 97
        0
 75
     0
 76
     1
 98
        1
 10
0.0
 20
0.0
  0
HATCH
  5
33
330
A
100
AcDbEntity
  8
LAYER_1
 62
     7
100
AcDbHatch
 10
0.0
 20
0.0
 30
0.0
210
0.0
220
0.0
230
1.0
  2
SOLID
 70
     1
 71
     0
 91
        1
 92
        1
 93
        1
 72
     4
 94
        3
 73
     0
 74
     0
 95
       41
 96
       37
 40
0.0
 40
0.0
 40
0.0
 40
0.0
 40
1.0
 40
1.0
 40
1.0
 40
2.0
 40
2.0
 40
2.0
 40
3.0
 40
3.0
 40
3.0
 40
4.0
 40
4.0
 40
4.0
 40
5.0
 40
5.0
 40
5.0
 40
6.0
 40
6.0
 40
6.0
 40
7.0
 40
7.0
 40
7.0
 40
8.0
 40
8.0
 40
8.0
 40
9.0
 40
9.0
 40
9.0
 40
10.0
 40
10.0
 40
10.0
 40
11.0
 40
11.0
 40
11.0
 40
12.0
 40
12.0
 40
12.0
 40
12.0
 10
32.26986490885417
 20
92.13632269965277
 10
32.26986490885417
 20
92.13632269965277
 10
32.78318413628472
 20
92.13632269965277
 10
32.78318413628472
 20
92.13632269965277
 10
32.78318413628472
 20
92.13632269965277
 10
32.78318413628472
 20
88.21580403645832
 10
32.78318413628472
 20
88.21580403645832
 10
32.78318413628472
 20
88.21580403645832
 10
32.18787163628472
 20
88.21580403645832
 10
32.18787163628472
 20
88.21580403645832
 10
32.18787163628472
 20
88.21580403645832
 10
30.19488389756944
 20
91.38288031684027
 10
30.19488389756944
 20
91.38288031684027
 10
30.19488389756944
 20
91.38288031684027
 10
30.1842041015625
 20
91.38288031684027
 10
30.1842041015625
 20
91.38288031684027
 10
30.1842041015625
 20
91.38288031684027
 10
30.1842041015625
 20
88.21580403645832
 10
30.1842041015625
 20
88.21580403645832
 10
30.1842041015625
 20
88.21580403645832
 10
29.67088487413194
 20
88.21580403645832
 10
29.67088487413194
 20
88.21580403645832
 10
29.67088487413194
 20
88.21580403645832
 10
29.67088487413194
 20
92.13632269965277
 10
29.67088487413194
 20
92.13632269965277
 10
29.67088487413194
 20
92.13632269965277
 10
30.29858127170139
 20
92.13632269965277
 10
30.29858127170139
 20
92.13632269965277
 10
30.29858127170139
 20
92.13632269965277
 10
32.25884060329861
 20
88.96924641927083
 10
32.25884060329861
 20
88.96924641927083
 10
32.25884060329861
 20
88.96924641927083
 10
32.26986490885417
 20
88.96924641927083
 10
32.26986490885417
 20
88.96924641927083
 10
32.26986490885417
 20
88.96924641927083
 10
32.26986490885417
 20
92.13632269965277
 10
32.26986490885417
 20
92.13632269965277
 97
        0
 75
     0
 76
     1
 98
        1
 10
0.0
 20
0.0
  0
HATCH
  5
32
330
A
100
AcDbEntity
  8
LAYER_1
 62
     7
100
AcDbHatch
 10
0.0
 20
0.0
 30
0.0
210
0.0
220
0.0
230
1.0
  2
SOLID
 70
     1
 71
     0
 91
        1
 92
        1
 93
        1
 72
     4
 94
        3
 73
     0
 74
     0
 95
       35
 96
       31
 40
0.0
 40
0.0
 40
0.0
 40
0.0
 40
1.0
 40
1.0
 40
1.0
 40
2.0
 40
2.0
 40
2.0
 40
3.0
 40
3.0
 40
3.0
 40
4.0
 40
4.0
 40
4.0
 40
5.0
 40
5.0
 40
5.0
 40
6.0
 40
6.0
 40
6.0
 40
7.0
 40
7.0
 40
7.0
 40
8.0
 40
8.0
 40
8.0
 40
9.0
 40
9.0
 40
9.0
 40
10.0
 40
10.0
 40
10.0
 40
10.0
 10
36.36401638454861
 20
90.95672200520832
 10
36.21656629774305
 20
91.64470757378471
 10
35.64330240885416
 20
91.77045355902777
 10
35.26640896267361
 20
91.77045355902777
 10
34.55671929253472
 20
91.77045355902777
 10
33.98345540364583
 20
91.24645453559027
 10
33.98345540364583
 20
90.21430392795138
 10
33.98345540364583
 20
89.29136284722222
 10
34.311083984375
 20
88.58167317708333
 10
35.28294542100694
 20
88.58167317708333
 10
35.62676595052083
 20
88.58167317708333
 10
36.22207845052083
 20
88.7453152126736
 10
36.40225694444444
 20
89.65723198784721
 10
36.40225694444444
 20
89.65723198784721
 10
36.915576171875
 20
89.65723198784721
 10
36.915576171875
 20
89.65723198784721
 10
36.69715711805555
 20
88.1775634765625
 10
35.49585232204861
 20
88.11210666232638
 10
35.20095214843749
 20
88.11210666232638
 10
34.311083984375
 20
88.11210666232638
 10
33.43740776909722
 20
88.69088270399305
 10
33.43740776909722
 20
90.19776746961804
 10
33.43740776909722
 20
91.40458441840276
 10
34.12539333767361
 20
92.24002007378472
 10
35.26640896267361
 20
92.24002007378472
 10
36.27651095920139
 20
92.24002007378472
 10
36.8008544921875
 20
91.61197916666666
 10
36.87733561197916
 20
90.95672200520832
 10
36.87733561197916
 20
90.95672200520832
 10
36.36401638454861
 20
90.95672200520832
 10
36.36401638454861
 20
90.95672200520832
 97
        0
 75
     0
 76
     1
 98
        1
 10
0.0
 20
0.0
  0
HATCH
  5
31
330
A
100
AcDbEntity
  8
LAYER_1
 62
     7
100
AcDbHatch
 10
0.0
 20
0.0
 30
0.0
210
0.0
220
0.0
230
1.0
  2
SOLID
 70
     1
 71
     0
 91
        1
 92
        1
 93
        1
 72
     4
 94
        3
 73
     0
 74
     0
 95
       41
 96
       37
 40
0.0
 40
0.0
 40
0.0
 40
0.0
 40
1.0
 40
1.0
 40
1.0
 40
2.0
 40
2.0
 40
2.0
 40
3.0
 40
3.0
 40
3.0
 40
4.0
 40
4.0
 40
4.0
 40
5.0
 40
5.0
 40
5.0
 40
6.0
 40
6.0
 40
6.0
 40
7.0
 40
7.0
 40
7.0
 40
8.0
 40
8.0
 40
8.0
 40
9.0
 40
9.0
 40
9.0
 40
10.0
 40
10.0
 40
10.0
 40
11.0
 40
11.0
 40
11.0
 40
12.0
 40
12.0
 40
12.0
 40
12.0
 10
40.50192057291666
 20
88.21580403645832
 10
40.50192057291666
 20
88.21580403645832
 10
37.60804036458333
 20
88.21580403645832
 10
37.60804036458333
 20
88.21580403645832
 10
37.60804036458333
 20
88.21580403645832
 10
37.60804036458333
 20
92.13632269965277
 10
37.60804036458333
 20
92.13632269965277
 10
37.60804036458333
 20
92.13632269965277
 10
40.46368001302083
 20
92.13632269965277
 10
40.46368001302083
 20
92.13632269965277
 10
40.46368001302083
 20
92.13632269965277
 10
40.46368001302083
 20
91.66675618489583
 10
40.46368001302083
 20
91.66675618489583
 10
40.46368001302083
 20
91.66675618489583
 10
38.1375515407986
 20
91.66675618489583
 10
38.1375515407986
 20
91.66675618489583
 10
38.1375515407986
 20
91.66675618489583
 10
38.1375515407986
 20
90.46545138888888
 10
38.1375515407986
 20
90.46545138888888
 10
38.1375515407986
 20
90.46545138888888
 10
40.28350151909722
 20
90.46545138888888
 10
40.28350151909722
 20
90.46545138888888
 10
40.28350151909722
 20
90.46545138888888
 10
40.28350151909722
 20
89.99588487413193
 10
40.28350151909722
 20
89.99588487413193
 10
40.28350151909722
 20
89.99588487413193
 10
38.1375515407986
 20
89.99588487413193
 10
38.1375515407986
 20
89.99588487413193
 10
38.1375515407986
 20
89.99588487413193
 10
38.1375515407986
 20
88.68537055121527
 10
38.1375515407986
 20
88.68537055121527
 10
38.1375515407986
 20
88.68537055121527
 10
40.50192057291666
 20
88.68537055121527
 10
40.50192057291666
 20
88.68537055121527
 10
40.50192057291666
 20
88.68537055121527
 10
40.50192057291666
 20
88.21580403645832
 10
40.50192057291666
 20
88.21580403645832
 97
        0
 75
     0
 76
     1
 98
        1
 10
0.0
 20
0.0
  0
SPLINE
  5
30
330
A
100
AcDbEntity
  8
LAYER_1
 62
     7
100
AcDbSpline
210
0.0
220
0.0
230
1.0
 70
     8
 71
     3
 72
    14
 73
    10
 74
     0
 42
0.0000000001
 43
0.0000000001
 40
0.0
 40
0.0
 40
0.0
 40
0.0
 40
1.0
 40
1.0
 40
1.0
 40
2.0
 40
2.0
 40
2.0
 40
3.0
 40
3.0
 40
3.0
 40
3.0
 10
64.56281195746527
 20
55.73096516927083
 30
0.0
 10
63.94613986545139
 20
53.5130126953125
 30
0.0
 10
64.20693359374999
 20
50.97466634114583
 30
0.0
 10
64.32992350260416
 20
48.72536349826388
 30
0.0
 10
64.41363932291667
 20
47.19091796874999
 30
0.0
 10
63.48277452256944
 20
44.25052897135416
 30
0.0
 10
65.20704481336804
 20
43.51913519965277
 30
0.0
 10
66.09071180555554
 20
43.14430881076388
 30
0.0
 10
67.54798719618054
 20
43.389599609375
 30
0.0
 10
68.56084526909721
 20
43.38374294704861
 30
0.0
  0
SPLINE
  5
2F
330
A
100
AcDbEntity
  8
LAYER_1
 62
     7
100
AcDbSpline
210
0.0
220
0.0
230
1.0
 70
     8
 71
     3
 72
    26
 73
    22
 74
     0
 42
0.0000000001
 43
0.0000000001
 40
0.0
 40
0.0
 40
0.0
 40
0.0
 40
1.0
 40
1.0
 40
1.0
 40
2.0
 40
2.0
 40
2.0
 40
3.0
 40
3.0
 40
3.0
 40
4.0
 40
4.0
 40
4.0
 40
5.0
 40
5.0
 40
5.0
 40
6.0
 40
6.0
 40
6.0
 40
7.0
 40
7.0
 40
7.0
 40
7.0
 10
63.85725640190972
 20
58.08293185763888
 30
0.0
 10
63.27537977430555
 20
57.40355902777777
 30
0.0
 10
63.27331271701388
 20
56.50921223958333
 30
0.0
 10
63.15170084635416
 20
55.6093532986111
 30
0.0
 10
63.00872938368055
 20
54.551708984375
 30
0.0
 10
62.63183593749999
 20
53.6742431640625
 30
0.0
 10
62.29903971354166
 20
52.66448567708333
 30
0.0
 10
61.06328396267361
 20
48.91484375
 30
0.0
 10
60.50517849392361
 20
45.10215657552083
 30
0.0
 10
59.74174533420138
 20
41.17509223090278
 30
0.0
 10
59.5343505859375
 20
40.10711263020833
 30
0.0
 10
59.46165907118055
 20
38.99744737413194
 30
0.0
 10
59.24220648871528
 20
37.93704698350694
 30
0.0
 10
59.17606065538194
 20
37.61734212239583
 30
0.0
 10
59.40274793836805
 20
36.57588975694444
 30
0.0
 10
59.74140082465277
 20
36.44566514756944
 30
0.0
 10
61.26998969184027
 20
35.85793185763889
 30
0.0
 10
63.2860595703125
 20
35.76319173177083
 30
0.0
 10
64.20693359374999
 20
35.87584635416666
 30
0.0
 10
65.28455946180554
 20
36.00744900173611
 30
0.0
 10
70.36228569878472
 20
39.43152940538194
 30
0.0
 10
69.61917860243055
 20
38.56233181423611
 30
0.0
  0
SPLINE
  5
2E
330
A
100
AcDbEntity
  8
LAYER_1
 62
     7
100
AcDbSpline
210
0.0
220
0.0
230
1.0
 70
     8
 71
     3
 72
    26
 73
    22
 74
     0
 42
0.0000000001
 43
0.0000000001
 40
0.0
 40
0.0
 40
0.0
 40
0.0
 40
1.0
 40
1.0
 40
1.0
 40
2.0
 40
2.0
 40
2.0
 40
3.0
 40
3.0
 40
3.0
 40
4.0
 40
4.0
 40
4.0
 40
5.0
 40
5.0
 40
5.0
 40
6.0
 40
6.0
 40
6.0
 40
7.0
 40
7.0
 40
7.0
 40
7.0
 10
58.68306749131944
 20
53.61429850260416
 30
0.0
 10
58.07466362847222
 20
51.33605685763889
 30
0.0
 10
56.02035319010416
 20
49.94699435763889
 30
0.0
 10
55.85843370225694
 20
47.48409559461805
 30
0.0
 10
55.71925184461805
 20
45.36501736111111
 30
0.0
 10
55.99003634982638
 20
43.27039930555555
 30
0.0
 10
55.63071289062499
 20
41.16958007812499
 30
0.0
 10
55.23314887152777
 20
38.84586317274305
 30
0.0
 10
54.22476942274305
 20
37.35861545138889
 30
0.0
 10
53.39484592013888
 20
35.34771321614583
 30
0.0
 10
52.83329535590277
 20
33.98724500868055
 30
0.0
 10
52.11223687065971
 20
32.67259657118056
 30
0.0
 10
51.97512207031249
 20
31.17087944878472
 30
0.0
 10
51.78564181857639
 20
29.09658745659722
 30
0.0
 10
52.06813964843749
 20
28.32523057725694
 30
0.0
 10
54.03287760416666
 20
28.33177625868055
 30
0.0
 10
55.04366861979166
 20
28.33522135416666
 30
0.0
 10
57.31949869791666
 20
29.74288736979166
 30
0.0
 10
58.33028971354166
 20
29.74288736979166
 30
0.0
 10
59.58154839409722
 20
29.74288736979166
 30
0.0
 10
62.36725260416666
 20
30.63275553385416
 30
0.0
 10
63.38665635850694
 20
31.50677625868055
 30
0.0
  0
LINE
  5
2D
330
A
100
AcDbEntity
  8
LAYER_1
 62
     7
100
AcDbLine
 10
40.27764485677083
 20
31.91295301649305
 30
0.0
 11
42.80806749131944
 21
30.33096516927083
 31
0.0
  0
LINE
  5
2C
330
A
100
AcDbEntity
  8
LAYER_1
 62
     7
100
AcDbLine
 10
42.45528971354166
 20
28.83165961371527
 30
0.0
 11
44.98364529079861
 21
27.03848741319444
 31
0.0
  0
LINE
  5
2B
330
A
100
AcDbEntity
  8
LAYER_1
 62
     7
100
AcDbLine
 10
34.92947862413194
 20
40.38513183593749
 30
0.0
 11
41.45586751302083
 21
31.21290961371528
 31
0.0
  0
LINE
  5
2A
330
A
100
AcDbEntity
  8
LAYER_1
 62
     7
100
AcDbLine
 10
40.86778971354166
 20
31.38929850260416
 30
0.0
 11
40.57392306857638
 21
30.50735405815972
 31
0.0
  0
LINE
  5
29
330
A
100
AcDbEntity
  8
LAYER_1
 62
     7
100
AcDbLine
 10
41.86721191406249
 20
30.8601318359375
 30
0.0
 11
41.45586751302083
 21
29.91927625868055
 31
0.0
  0
LWPOLYLINE
  5
24
330
A
100
AcDbEntity
  8
LAYER_1
 62
     7
100
AcDbPolyline
 90
        3
 70
     0
 43
0.0
 10
43.86640082465277
 20
28.50816514756944
 10
43.80748969184027
 20
27.97899848090277
 10
51.39221191406249
 20
16.98432074652778
  0
SPLINE
  5
23
330
A
100
AcDbEntity
  8
LAYER_1
 62
     7
100
AcDbSpline
210
0.0
220
0.0
230
1.0
 70
     8
 71
     3
 72
    26
 73
    22
 74
     0
 42
0.0000000001
 43
0.0000000001
 40
0.0
 40
0.0
 40
0.0
 40
0.0
 40
1.0
 40
1.0
 40
1.0
 40
2.0
 40
2.0
 40
2.0
 40
3.0
 40
3.0
 40
3.0
 40
4.0
 40
4.0
 40
4.0
 40
5.0
 40
5.0
 40
5.0
 40
6.0
 40
6.0
 40
6.0
 40
7.0
 40
7.0
 40
7.0
 40
7.0
 10
50.62808973524305
 20
44.79485405815972
 30
0.0
 10
50.17712673611111
 20
42.64304741753472
 30
0.0
 10
50.52611490885416
 20
40.04268934461805
 30
0.0
 10
49.58594835069444
 20
38.044189453125
 30
0.0
 10
49.37579752604167
 20
37.597705078125
 30
0.0
 10
48.96376410590278
 20
37.21495496961806
 30
0.0
 10
48.71916232638888
 20
36.79051920572916
 30
0.0
 10
48.53278266059027
 20
36.46702473958333
 30
0.0
 10
48.49213053385417
 20
36.06877170138888
 30
0.0
 10
48.24167209201389
 20
35.77731662326389
 30
0.0
 10
47.99707031249999
 20
35.49275173611111
 30
0.0
 10
47.51579047309027
 20
35.36459418402777
 30
0.0
 10
47.25086263020833
 20
35.080029296875
 30
0.0
 10
47.04898003472222
 20
34.86298828125
 30
0.0
 10
46.88430447048611
 20
34.51572265625
 30
0.0
 10
46.69206814236111
 20
34.27491048177083
 30
0.0
 10
45.74466688368055
 20
33.08841959635416
 30
0.0
 10
45.77773980034722
 20
31.39205457899305
 30
0.0
 10
45.0422119140625
 20
30.09256456163194
 30
0.0
 10
44.74558919270833
 20
29.56822102864583
 30
0.0
 10
44.60261773003472
 20
29.25127224392361
 30
0.0
 10
44.51304524739583
 20
28.62598741319444
 30
0.0
  0
SPLINE
  5
22
330
A
100
AcDbEntity
  8
LAYER_1
 62
     7
100
AcDbSpline
210
0.0
220
0.0
230
1.0
 70
     8
 71
     3
 72
    14
 73
    10
 74
     0
 42
0.0000000001
 43
0.0000000001
 40
0.0
 40
0.0
 40
0.0
 40
0.0
 40
1.0
 40
1.0
 40
1.0
 40
2.0
 40
2.0
 40
2.0
 40
3.0
 40
3.0
 40
3.0
 40
3.0
 10
48.15864529079861
 20
22.68733181423611
 30
0.0
 10
48.92311197916666
 20
23.64334581163194
 30
0.0
 10
51.79149848090277
 20
22.19537217881944
 30
0.0
 10
52.80642361111111
 20
22.15265299479167
 30
0.0
 10
53.41551649305555
 20
22.12681477864583
 30
0.0
 10
53.83822970920139
 20
22.23740234375
 30
0.0
 10
54.37738715277777
 20
22.3490234375
 30
0.0
 10
54.75186903211805
 20
22.4265380859375
 30
0.0
 10
55.31307508680555
 20
22.39380967881944
 30
0.0
 10
55.62554524739583
 20
22.56985405815972
 30
0.0
  0
ENDSEC
  0
SECTION
  2
OBJECTS
  0
DICTIONARY
  5
19
330
0
100
AcDbDictionary
281
     1
  3
ACAD_COLOR
350
123
  3
ACAD_GROUP
350
1A
  3
ACAD_LAYOUT
350
F0
  3
ACAD_MATERIAL
350
125
  3
ACAD_MLINESTYLE
350
1B
  3
ACAD_PLOTSETTINGS
350
F1
  3
ACAD_PLOTSTYLENAME
350
EE
  3
ACDBHEADERROUNDTRIPXREC
350
122
  0
DICTIONARY
  5
123
102
{ACAD_REACTORS
330
19
102
}
330
19
100
AcDbDictionary
281
     1
  0
DICTIONARY
  5
1A
102
{ACAD_REACTORS
330
19
102
}
330
19
100
AcDbDictionary
281
     1
  0
DICTIONARY
  5
F0
102
{ACAD_REACTORS
330
19
102
}
330
19
100
AcDbDictionary
281
     1
  3
Layout1
350
F3
  3
Model
350
F2
  0
DICTIONARY
  5
125
102
{ACAD_REACTORS
330
19
102
}
330
19
100
AcDbDictionary
281
     1
  0
DICTIONARY
  5
1B
102
{ACAD_REACTORS
330
19
102
}
330
19
100
AcDbDictionary
281
     1
  3
STANDARD
350
1C
  0
DICTIONARY
  5
F1
102
{ACAD_REACTORS
330
19
102
}
330
19
100
AcDbDictionary
281
     1
  0
ACDBDICTIONARYWDFLT
  5
EE
102
{ACAD_REACTORS
330
19
102
}
330
19
100
AcDbDictionary
281
     1
  3
Normal
350
EF
100
AcDbDictionaryWithDefault
340
EF
  0
DICTIONARY
  5
122
102
{ACAD_REACTORS
330
19
102
}
330
19
100
AcDbDictionary
281
     1
  3
COLORDICT
350
124
  3
MATERIALDICT
350
126
  0
LAYOUT
  5
F3
102
{ACAD_REACTORS
330
F0
102
}
102
{ACAD_XDICTIONARY
360
127
102
}
330
F0
100
AcDbPlotSettings
  1

  2
Support Center HP LaserJet 4
  4

  6

 40
0.0
 41
0.0
 42
0.0
 43
0.0
 44
0.0
 45
0.0
 46
0.0
 47
0.0
 48
0.0
 49
0.0
140
0.0
141
0.0
142
1.0
143
1.0
 70
   688
 72
     0
 73
     0
 74
     5
  7

 75
    16
147
1.0
148
0.0
149
0.0
100
AcDbLayout
  1
Layout1
 70
     0
 71
     1
 10
0.0
 20
0.0
 11
12.0
 21
9.0
 12
0.0
 22
0.0
 32
0.0
 14
1.000000000000000E+20
 24
1.000000000000000E+20
 34
1.000000000000000E+20
 15
-1.000000000000000E+20
 25
-1.000000000000000E+20
 35
-1.000000000000000E+20
146
0.0
 13
0.0
 23
0.0
 33
0.0
 16
1.0
 26
0.0
 36
0.0
 17
0.0
 27
1.0
 37
0.0
 76
     0
330
B
  0
LAYOUT
  5
F2
102
{ACAD_REACTORS
330
F0
102
}
102
{ACAD_XDICTIONARY
360
129
102
}
330
F0
100
AcDbPlotSettings
  1

  2
Support Center HP LaserJet 4
  4

  6

 40
0.0
 41
0.0
 42
0.0
 43
0.0
 44
0.0
 45
0.0
 46
0.0
 47
0.0
 48
0.0
 49
0.0
140
0.0
141
0.0
142
1.0
143
1.0
 70
  1712
 72
     0
 73
     0
 74
     0
  7

 75
     0
147
1.0
148
0.0
149
0.0
100
AcDbLayout
  1
Model
 70
     1
 71
     0
 10
0.0
 20
0.0
 11
12.0
 21
9.0
 12
0.0
 22
0.0
 32
0.0
 14
0.0
 24
0.0
 34
0.0
 15
0.0
 25
0.0
 35
0.0
146
0.0
 13
0.0
 23
0.0
 33
0.0
 16
1.0
 26
0.0
 36
0.0
 17
0.0
 27
1.0
 37
0.0
 76
     0
330
A
  0
MLINESTYLE
  5
1C
102
{ACAD_REACTORS
330
1B
102
}
330
1B
100
AcDbMlineStyle
  2
STANDARD
 70
     0
  3

 62
     0
 51
90.0000000000002
 52
90.0000000000002
 71
     2
 49
0.5
 62
   256
  6
BYLAYER
 49
-0.5
 62
   256
  6
BYLAYER
  0
ACDBPLACEHOLDER
  5
EF
102
{ACAD_REACTORS
330
EE
102
}
330
EE
  0
XRECORD
  5
124
102
{ACAD_REACTORS
330
122
102
}
330
122
100
AcDbXrecord
340
123
  0
XRECORD
  5
126
102
{ACAD_REACTORS
330
122
102
}
330
122
100
AcDbXrecord
340
125
  0
DICTIONARY
  5
127
330
F3
100
AcDbDictionary
280
     1
281
     1
  3
ACAD_XREC_ROUNDTRIP
360
128
  0
DICTIONARY
  5
129
330
F2
100
AcDbDictionary
280
     1
281
     1
  3
ACAD_XREC_ROUNDTRIP
360
12A
  0
XRECORD
  5
128
102
{ACAD_REACTORS
330
127
102
}
330
127
100
AcDbXrecord
102
SHADEPLOT
 70
-23928
102
SHADEPLOTRESLEVEL
 70
-24448
102
SHADEPLOTCUSTOMDPI
 70
 23008
  0
XRECORD
  5
12A
102
{ACAD_REACTORS
330
129
102
}
330
129
100
AcDbXrecord
102
SHADEPLOT
 70
     0
102
SHADEPLOTRESLEVEL
 70
     0
102
SHADEPLOTCUSTOMDPI
 70
     0
  0
ENDSEC
  0
EOF
