  0
SECTION
  2
HEADER
  9
$ACADVER
  1
AC1015
  9
$ACADMAINTVER
 70
     6
  9
$DWGCODEPAGE
  3
ANSI_1252
  9
$INSBASE
 10
0.0
 20
0.0
 30
0.0
  9
$EXTMIN
 10
10.92333356572528
 20
17.36385886167877
 30
-0.0015258207003612
  9
$EXTMAX
 10
135.9903015591393
 20
130.0303031927371
 30
0.0000000349246008
  9
$LIMMIN
 10
10.92715386284722
 20
17.23822428385417
  9
$LIMMAX
 10
136.1202012803819
 20
130.0268608940972
  9
$ORTHOMODE
 70
     0
  9
$REGENMODE
 70
     1
  9
$FILLMODE
 70
     1
  9
$QTEXTMODE
 70
     0
  9
$MIRRTEXT
 70
     1
  9
$LTSCALE
 40
1.0
  9
$ATTMODE
 70
     1
  9
$TEXTSIZE
 40
0.2
  9
$TRACEWID
 40
0.05
  9
$TEXTSTYLE
  7
STANDARD
  9
$CLAYER
  8
0
  9
$CELTYPE
  6
CONTINUOUS
  9
$CECOLOR
 62
   256
  9
$CELTSCALE
 40
1.0
  9
$DISPSILH
 70
     0
  9
$DIMSCALE
 40
1.0
  9
$DIMASZ
 40
0.18
  9
$DIMEXO
 40
0.0625
  9
$DIMDLI
 40
0.38
  9
$DIMRND
 40
0.0
  9
$DIMDLE
 40
0.0
  9
$DIMEXE
 40
0.18
  9
$DIMTP
 40
0.0
  9
$DIMTM
 40
0.0
  9
$DIMTXT
 40
0.18
  9
$DIMCEN
 40
0.09
  9
$DIMTSZ
 40
0.0
  9
$DIMTOL
 70
     0
  9
$DIMLIM
 70
     0
  9
$DIMTIH
 70
     1
  9
$DIMTOH
 70
     1
  9
$DIMSE1
 70
     0
  9
$DIMSE2
 70
     0
  9
$DIMTAD
 70
     0
  9
$DIMZIN
 70
     0
  9
$DIMBLK
  1

  9
$DIMASO
 70
     1
  9
$DIMSHO
 70
     1
  9
$DIMPOST
  1

  9
$DIMAPOST
  1

  9
$DIMALT
 70
     0
  9
$DIMALTD
 70
     2
  9
$DIMALTF
 40
25.4
  9
$DIMLFAC
 40
1.0
  9
$DIMTOFL
 70
     0
  9
$DIMTVP
 40
0.0
  9
$DIMTIX
 70
     0
  9
$DIMSOXD
 70
     0
  9
$DIMSAH
 70
     0
  9
$DIMBLK1
  1

  9
$DIMBLK2
  1

  9
$DIMSTYLE
  2
STANDARD
  9
$DIMCLRD
 70
     0
  9
$DIMCLRE
 70
     0
  9
$DIMCLRT
 70
     0
  9
$DIMTFAC
 40
1.0
  9
$DIMGAP
 40
0.09
  9
$DIMJUST
 70
     0
  9
$DIMSD1
 70
     0
  9
$DIMSD2
 70
     0
  9
$DIMTOLJ
 70
     1
  9
$DIMTZIN
 70
     0
  9
$DIMALTZ
 70
     0
  9
$DIMALTTZ
 70
     0
  9
$DIMUPT
 70
     0
  9
$DIMDEC
 70
     4
  9
$DIMTDEC
 70
     4
  9
$DIMALTU
 70
     2
  9
$DIMALTTD
 70
     2
  9
$DIMTXSTY
  7
STANDARD
  9
$DIMAUNIT
 70
     0
  9
$DIMADEC
 70
     0
  9
$DIMALTRND
 40
0.0
  9
$DIMAZIN
 70
     0
  9
$DIMDSEP
 70
    46
  9
$DIMATFIT
 70
     3
  9
$DIMFRAC
 70
     0
  9
$DIMLDRBLK
  1

  9
$DIMLUNIT
 70
     2
  9
$DIMLWD
 70
    -2
  9
$DIMLWE
 70
    -2
  9
$DIMTMOVE
 70
     0
  9
$LUNITS
 70
     2
  9
$LUPREC
 70
     4
  9
$SKETCHINC
 40
0.1
  9
$FILLETRAD
 40
0.0
  9
$AUNITS
 70
     0
  9
$AUPREC
 70
     0
  9
$MENU
  1
acad
  9
$ELEVATION
 40
0.0
  9
$PELEVATION
 40
0.0
  9
$THICKNESS
 40
0.0
  9
$LIMCHECK
 70
     0
  9
$CHAMFERA
 40
0.0
  9
$CHAMFERB
 40
0.0
  9
$CHAMFERC
 40
0.0
  9
$CHAMFERD
 40
0.0
  9
$SKPOLY
 70
     0
  9
$TDCREATE
 40
2444971.666666667
  9
$TDUCREATE
 40
2444972.0
  9
$TDUPDATE
 40
2452219.356875116
  9
$TDUUPDATE
 40
2452219.690208449
  9
$TDINDWG
 40
0.0003152778
  9
$TDUSRTIMER
 40
0.0003152778
  9
$USRTIMER
 70
     1
  9
$ANGBASE
 50
0.0
  9
$ANGDIR
 70
     0
  9
$PDMODE
 70
     0
  9
$PDSIZE
 40
0.0
  9
$PLINEWID
 40
0.0
  9
$SPLFRAME
 70
     0
  9
$SPLINETYPE
 70
     6
  9
$SPLINESEGS
 70
     8
  9
$HANDSEED
  5
163
  9
$SURFTAB1
 70
     6
  9
$SURFTAB2
 70
     6
  9
$SURFTYPE
 70
     6
  9
$SURFU
 70
     6
  9
$SURFV
 70
     6
  9
$UCSBASE
  2

  9
$UCSNAME
  2

  9
$UCSORG
 10
0.0
 20
0.0
 30
0.0
  9
$UCSXDIR
 10
1.0
 20
0.0
 30
0.0
  9
$UCSYDIR
 10
0.0
 20
1.0
 30
0.0
  9
$UCSORTHOREF
  2

  9
$UCSORTHOVIEW
 70
     0
  9
$UCSORGTOP
 10
0.0
 20
0.0
 30
0.0
  9
$UCSORGBOTTOM
 10
0.0
 20
0.0
 30
0.0
  9
$UCSORGLEFT
 10
0.0
 20
0.0
 30
0.0
  9
$UCSORGRIGHT
 10
0.0
 20
0.0
 30
0.0
  9
$UCSORGFRONT
 10
0.0
 20
0.0
 30
0.0
  9
$UCSORGBACK
 10
0.0
 20
0.0
 30
0.0
  9
$PUCSBASE
  2

  9
$PUCSNAME
  2

  9
$PUCSORG
 10
0.0
 20
0.0
 30
0.0
  9
$PUCSXDIR
 10
1.0
 20
0.0
 30
0.0
  9
$PUCSYDIR
 10
0.0
 20
1.0
 30
0.0
  9
$PUCSORTHOREF
  2

  9
$PUCSORTHOVIEW
 70
     0
  9
$PUCSORGTOP
 10
0.0
 20
0.0
 30
0.0
  9
$PUCSORGBOTTOM
 10
0.0
 20
0.0
 30
0.0
  9
$PUCSORGLEFT
 10
0.0
 20
0.0
 30
0.0
  9
$PUCSORGRIGHT
 10
0.0
 20
0.0
 30
0.0
  9
$PUCSORGFRONT
 10
0.0
 20
0.0
 30
0.0
  9
$PUCSORGBACK
 10
0.0
 20
0.0
 30
0.0
  9
$USERI1
 70
     0
  9
$USERI2
 70
     0
  9
$USERI3
 70
     0
  9
$USERI4
 70
     0
  9
$USERI5
 70
     0
  9
$USERR1
 40
0.0
  9
$USERR2
 40
0.0
  9
$USERR3
 40
0.0
  9
$USERR4
 40
0.0
  9
$USERR5
 40
0.0
  9
$WORLDVIEW
 70
     1
  9
$SHADEDGE
 70
     3
  9
$SHADEDIF
 70
    70
  9
$TILEMODE
 70
     1
  9
$MAXACTVP
 70
    16
  9
$PINSBASE
 10
0.0
 20
0.0
 30
0.0
  9
$PLIMCHECK
 70
     0
  9
$PEXTMIN
 10
1.000000000000000E+20
 20
1.000000000000000E+20
 30
1.000000000000000E+20
  9
$PEXTMAX
 10
-1.000000000000000E+20
 20
-1.000000000000000E+20
 30
-1.000000000000000E+20
  9
$PLIMMIN
 10
0.0
 20
0.0
  9
$PLIMMAX
 10
12.0
 20
9.0
  9
$UNITMODE
 70
     0
  9
$VISRETAIN
 70
     0
  9
$PLINEGEN
 70
     1
  9
$PSLTSCALE
 70
     0
  9
$TREEDEPTH
 70
  3020
  9
$CMLSTYLE
  2
STANDARD
  9
$CMLJUST
 70
     0
  9
$CMLSCALE
 40
1.0
  9
$PROXYGRAPHICS
 70
     0
  9
$MEASUREMENT
 70
     0
  9
$CELWEIGHT
370
    -1
  9
$ENDCAPS
280
     0
  9
$JOINSTYLE
280
     0
  9
$LWDISPLAY
290
     0
  9
$INSUNITS
 70
     0
  9
$HYPERLINKBASE
  1

  9
$STYLESHEET
  1

  9
$XEDIT
290
     1
  9
$CEPSNTYPE
380
     0
  9
$PSTYLEMODE
290
     1
  9
$FINGERPRINTGUID
  2
{0AE0CF27-D1C7-11D5-923F-00805F198AD5}
  9
$VERSIONGUID
  2
{0AE0CF29-D1C7-11D5-923F-00805F198AD5}
  9
$EXTNAMES
290
     1
  9
$PSVPSCALE
 40
0.0
  9
$OLESTARTUP
290
     0
  0
ENDSEC
  0
SECTION
  2
CLASSES
  0
CLASS
  1
LWPOLYLINE
  2
AcDbPolyline
  3
AutoCAD 2000
 90
        0
280
     0
281
     1
  0
CLASS
  1
IMAGE
  2
AcDbRasterImage
  3
ISM
 90
      127
280
     0
281
     1
  0
CLASS
  1
OLE2FRAME
  2
AcDbOle2Frame
  3
AutoCAD 2000
 90
        0
280
     0
281
     1
  0
CLASS
  1
HATCH
  2
AcDbHatch
  3
AutoCAD 2000
 90
        0
280
     0
281
     1
  0
CLASS
  1
DICTIONARYVAR
  2
AcDbDictionaryVar
  3
AutoCAD 2000
 90
        0
280
     0
281
     0
  0
CLASS
  1
RASTERVARIABLES
  2
AcDbRasterVariables
  3
ISM
 90
        0
280
     0
281
     0
  0
CLASS
  1
IMAGEDEF
  2
AcDbRasterImageDef
  3
ISM
 90
        0
280
     0
281
     0
  0
CLASS
  1
IMAGEDEF_REACTOR
  2
AcDbRasterImageDefReactor
  3
ISM
 90
        1
280
     0
281
     0
  0
CLASS
  1
IDBUFFER
  2
AcDbIdBuffer
  3
AutoCAD 2000
 90
        0
280
     0
281
     0
  0
CLASS
  1
SPATIAL_FILTER
  2
AcDbSpatialFilter
  3
AutoCAD 2000
 90
        0
280
     0
281
     0
  0
CLASS
  1
XRECORD
  2
AcDbXrecord
  3
AutoCAD 2000
 90
        0
280
     0
281
     0
  0
CLASS
  1
SORTENTSTABLE
  2
AcDbSortentsTable
  3
AutoCAD 2000
 90
        0
280
     0
281
     0
  0
CLASS
  1
LAYER_INDEX
  2
AcDbLayerIndex
  3
AutoCAD 2000
 90
        0
280
     0
281
     0
  0
CLASS
  1
SPATIAL_INDEX
  2
AcDbSpatialIndex
  3
AutoCAD 2000
 90
        0
280
     0
281
     0
  0
CLASS
  1
OBJECT_PTR
  2
CAseDLPNTableRecord
  3
ASE-LPNTableRecord
 90
        1
280
     1
281
     0
  0
CLASS
  1
LAYOUT
  2
AcDbLayout
  3
ObjectDBX Classes
 90
        0
280
     0
281
     0
  0
CLASS
  1
PLOTSETTINGS
  2
AcDbPlotSettings
  3
AutoCAD 2000
 90
        0
280
     0
281
     0
  0
CLASS
  1
ACDBDICTIONARYWDFLT
  2
AcDbDictionaryWithDefault
  3
AutoCAD 2000
 90
        0
280
     0
281
     0
  0
CLASS
  1
ACDBPLACEHOLDER
  2
AcDbPlaceHolder
  3
ObjectDBX Classes
 90
        0
280
     0
281
     0
  0
CLASS
  1
VBAPROJECT
  2
AcDbVbaProject
  3
ObjectDBX Classes
 90
        0
280
     0
281
     0
  0
CLASS
  1
WIPEOUT
  2
AcDbWipeout
  3
WipeOut|AutoCAD Express Tool|expresstools@autodesk.com
 90
      127
280
     0
281
     1
  0
CLASS
  1
WIPEOUTVARIABLES
  2
AcDbWipeoutVariables
  3
WipeOut|AutoCAD Express Tool|expresstools@autodesk.com
 90
        0
280
     0
281
     0
  0
CLASS
  1
RTEXT
  2
RText
  3
RText|AutoCAD Express Tool|expresstools@autodesk.com
 90
        0
280
     0
281
     1
  0
CLASS
  1
ARCALIGNEDTEXT
  2
AcDbArcAlignedText
  3
ATEXT|AutoCAD Express Tool|expresstools@autodesk.com
 90
        0
280
     0
281
     1
  0
CLASS
  1
LONG_TRANSACTION
  2
AcDbLongTransaction
  3
AutoCAD 2000
 90
        0
280
     1
281
     0
  0
CLASS
  1
LWPOLYLINE
  2
AcDbPolyline
  3
AutoCAD 2000
 90
        0
280
     0
281
     1
  0
CLASS
  1
HATCH
  2
AcDbHatch
  3
AutoCAD 2000
 90
        0
280
     0
281
     1
  0
CLASS
  1
XRECORD
  2
AcDbXrecord
  3
AutoCAD 2000
 90
        0
280
     0
281
     0
  0
ENDSEC
  0
SECTION
  2
TABLES
  0
TABLE
  2
VPORT
  5
7
330
0
100
AcDbSymbolTable
 70
     2
  0
VPORT
  5
12F
330
7
100
AcDbSymbolTableRecord
100
AcDbViewportTableRecord
  2
*Active
 70
     0
 10
0.0
 20
0.0
 11
1.0
 21
1.0
 12
73.45681756243228
 22
73.69708102720793
 13
0.0
 23
0.0
 14
1.0
 24
1.0
 15
0.0
 25
0.0
 16
0.0
 26
0.0
 36
1.0
 17
0.0
 27
0.0
 37
0.0
 40
114.4407190449333
 41
1.836842105263158
 42
50.0
 43
0.0
 44
0.0
 50
0.0
 51
0.0
 71
     0
 72
   100
 73
     1
 74
     1
 75
     0
 76
     0
 77
     0
 78
     0
281
     0
 65
     1
110
0.0
120
0.0
130
0.0
111
1.0
121
0.0
131
0.0
112
0.0
122
1.0
132
0.0
 79
     0
146
0.0
  0
ENDTAB
  0
TABLE
  2
LTYPE
  5
4
330
0
100
AcDbSymbolTable
 70
     1
  0
LTYPE
  5
11
330
4
100
AcDbSymbolTableRecord
100
AcDbLinetypeTableRecord
  2
BYBLOCK
 70
     0
  3

 72
    65
 73
     0
 40
0.0
  0
LTYPE
  5
12
330
4
100
AcDbSymbolTableRecord
100
AcDbLinetypeTableRecord
  2
BYLAYER
 70
     0
  3

 72
    65
 73
     0
 40
0.0
  0
LTYPE
  5
13
330
4
100
AcDbSymbolTableRecord
100
AcDbLinetypeTableRecord
  2
CONTINUOUS
 70
     0
  3
Solid line
 72
    65
 73
     0
 40
0.0
  0
ENDTAB
  0
TABLE
  2
LAYER
  5
2
330
0
100
AcDbSymbolTable
 70
     2
  0
LAYER
  5
14
330
2
100
AcDbSymbolTableRecord
100
AcDbLayerTableRecord
  2
0
 70
     0
 62
     7
  6
CONTINUOUS
370
    -3
390
0
  0
LAYER
  5
21
330
2
100
AcDbSymbolTableRecord
100
AcDbLayerTableRecord
  2
LAYER_1
 70
     0
 62
     5
  6
CONTINUOUS
370
    -3
390
0
  0
ENDTAB
  0
TABLE
  2
STYLE
  5
3
330
0
100
AcDbSymbolTable
 70
     5
  0
STYLE
  5
17
330
3
100
AcDbSymbolTableRecord
100
AcDbTextStyleTableRecord
  2
STANDARD
 70
     0
 40
0.0
 41
1.0
 50
0.0
 71
     0
 42
0.2
  3
txt
  4

  0
STYLE
  5
1D
330
3
100
AcDbSymbolTableRecord
100
AcDbTextStyleTableRecord
  2
STD
 70
     0
 40
0.0
 41
1.0
 50
0.0
 71
     0
 42
0.2
  3
txt
  4

  0
STYLE
  5
1E
330
3
100
AcDbSymbolTableRecord
100
AcDbTextStyleTableRecord
  2
TATESTD
 70
     4
 40
0.0
 41
1.0
 50
0.0
 71
     0
 42
0.2
  3
txt
  4

  0
STYLE
  5
1F
330
3
100
AcDbSymbolTableRecord
100
AcDbTextStyleTableRecord
  2
KANJISTD
 70
     0
 40
0.0
 41
1.0
 50
0.0
 71
     0
 42
0.2
  3
txt
  4
extfont
  0
STYLE
  5
20
330
3
100
AcDbSymbolTableRecord
100
AcDbTextStyleTableRecord
  2
KANJITATE
 70
     4
 40
0.0
 41
1.0
 50
0.0
 71
     0
 42
0.2
  3
txt
  4
extfont
  0
ENDTAB
  0
TABLE
  2
VIEW
  5
5
330
0
100
AcDbSymbolTable
 70
     0
  0
ENDTAB
  0
TABLE
  2
UCS
  5
6
330
0
100
AcDbSymbolTable
 70
     0
  0
ENDTAB
  0
TABLE
  2
APPID
  5
8
330
0
100
AcDbSymbolTable
 70
     1
  0
APPID
  5
16
330
8
100
AcDbSymbolTableRecord
100
AcDbRegAppTableRecord
  2
ACAD
 70
     0
  0
ENDTAB
  0
TABLE
  2
DIMSTYLE
  5
9
330
0
100
AcDbSymbolTable
 70
     1
100
AcDbDimStyleTable
  0
DIMSTYLE
105
18
330
9
100
AcDbSymbolTableRecord
100
AcDbDimStyleTableRecord
  2
STANDARD
 70
     0
  3

  4

289
     0
340
17
  0
ENDTAB
  0
TABLE
  2
BLOCK_RECORD
  5
1
330
0
100
AcDbSymbolTable
 70
     0
  0
BLOCK_RECORD
  5
A
330
1
100
AcDbSymbolTableRecord
100
AcDbBlockTableRecord
  2
*MODEL_SPACE
340
12A
  0
BLOCK_RECORD
  5
B
330
1
100
AcDbSymbolTableRecord
100
AcDbBlockTableRecord
  2
*PAPER_SPACE
340
12B
  0
ENDTAB
  0
ENDSEC
  0
SECTION
  2
BLOCKS
  0
BLOCK
  5
D
330
A
100
AcDbEntity
  8
0
100
AcDbBlockBegin
  2
*MODEL_SPACE
 70
     0
 10
0.0
 20
0.0
 30
0.0
  3
*MODEL_SPACE
  1

  4

  0
ENDBLK
  5
E
330
A
100
AcDbEntity
  8
0
100
AcDbBlockEnd
  0
BLOCK
  5
F
330
B
100
AcDbEntity
 67
     1
  8
0
100
AcDbBlockBegin
  2
*PAPER_SPACE
 70
     0
 10
0.0
 20
0.0
 30
0.0
  3
*PAPER_SPACE
  1

  4

  0
ENDBLK
  5
10
330
B
100
AcDbEntity
 67
     1
  8
0
100
AcDbBlockEnd
  0
ENDSEC
  0
SECTION
  2
ENTITIES
  0
LWPOLYLINE
  5
FF
330
A
100
AcDbEntity
  8
LAYER_1
 62
     7
100
AcDbPolyline
 90
       36
 70
     0
 43
0.0
 10
52.26003146701388
 20
100.3814697265625
 10
52.26244303385416
 20
114.1621961805555
 10
63.4255859375
 20
119.1937581380208
 10
84.65185275607638
 20
105.2001247829861
 10
127.5760199652778
 20
104.4925021701389
 10
135.9879096137153
 20
99.46128472222222
 10
135.9093614366319
 20
93.87230631510415
 10
132.7646782769097
 20
93.87954101562499
 10
132.5572835286458
 20
83.28621690538193
 10
133.6228515625
 20
81.52336154513888
 10
131.5061848958333
 20
79.6419949001736
 10
132.4466959635417
 20
77.64280598958332
 10
132.2489474826389
 20
67.53110622829861
 10
134.8872016059028
 20
65.65662977430554
 10
134.8086534288194
 20
60.70361599392361
 10
117.5132405598958
 20
59.52470431857638
 10
117.5917887369792
 20
27.21349826388889
 10
105.8757080078125
 20
19.53851453993055
 10
76.08286675347222
 20
43.64419216579861
 10
53.12716200086805
 20
17.37051595052083
 10
44.55438639322917
 20
24.99520128038194
 10
42.38983289930555
 20
28.15435384114583
 10
42.95241699218749
 20
28.84716254340277
 10
39.82805989583333
 20
32.79593098958333
 10
39.78396267361111
 20
32.84002821180555
 10
38.02007378472222
 20
34.25113932291666
 10
38.2150661892361
 20
35.48241644965277
 10
31.17983669704861
 20
45.33573404947916
 10
29.49070638020833
 20
46.763037109375
 10
25.98497721354167
 20
52.38887803819444
 10
52.51910264756944
 20
79.39222547743054
 10
52.38991156684028
 20
89.95109863281249
 10
50.05241427951388
 20
92.50494791666665
 10
53.94778374565972
 20
94.62540418836805
 10
52.26003146701388
 20
96.00964355468749
 10
52.26003146701388
 20
98.95278862847222
  0
SPLINE
  5
FE
330
A
100
AcDbEntity
  8
LAYER_1
 62
     7
100
AcDbSpline
210
0.0
220
0.0
230
1.0
 70
    11
 71
     3
 72
    56
 73
    52
 74
     0
 42
0.0000000001
 43
0.0000000001
 40
0.0
 40
0.0
 40
0.0
 40
0.0
 40
1.0
 40
1.0
 40
1.0
 40
2.0
 40
2.0
 40
2.0
 40
3.0
 40
3.0
 40
3.0
 40
4.0
 40
4.0
 40
4.0
 40
5.0
 40
5.0
 40
5.0
 40
6.0
 40
6.0
 40
6.0
 40
7.0
 40
7.0
 40
7.0
 40
8.0
 40
8.0
 40
8.0
 40
9.0
 40
9.0
 40
9.0
 40
10.0
 40
10.0
 40
10.0
 40
11.0
 40
11.0
 40
11.0
 40
12.0
 40
12.0
 40
12.0
 40
13.0
 40
13.0
 40
13.0
 40
14.0
 40
14.0
 40
14.0
 40
15.0
 40
15.0
 40
15.0
 40
16.0
 40
16.0
 40
16.0
 40
17.0
 40
17.0
 40
17.0
 40
17.0
 10
35.5947265625
 20
57.92755805121527
 30
0.0
 10
35.5947265625
 20
57.92755805121527
 30
0.0
 10
35.46450195312499
 20
60.48140733506944
 30
0.0
 10
35.46450195312499
 20
60.48140733506944
 30
0.0
 10
35.46450195312499
 20
60.48140733506944
 30
0.0
 10
73.29681803385417
 20
99.1260769314236
 30
0.0
 10
73.29681803385417
 20
99.1260769314236
 30
0.0
 10
73.51317003038194
 20
99.34208441840276
 30
0.0
 10
73.64339463975693
 20
99.51640624999999
 30
0.0
 10
73.98962673611111
 20
99.64559733072916
 30
0.0
 10
74.33620334201389
 20
99.77444390190972
 30
0.0
 10
84.20467936197916
 20
104.7074761284722
 30
0.0
 10
84.55125596788194
 20
104.8377007378472
 30
0.0
 10
84.89783257378471
 20
104.9679253472222
 30
0.0
 10
85.02771267361111
 20
105.142591688368
 30
0.0
 10
85.72052137586805
 20
105.0981499565972
 30
0.0
 10
86.41333007812499
 20
105.054052734375
 30
0.0
 10
120.9993326822917
 20
104.3195583767361
 30
0.0
 10
120.9993326822917
 20
104.3195583767361
 30
0.0
 10
120.9993326822917
 20
104.3195583767361
 30
0.0
 10
122.5141411675347
 20
103.9729817708333
 30
0.0
 10
122.5141411675347
 20
103.9729817708333
 30
0.0
 10
122.5141411675347
 20
103.9729817708333
 30
0.0
 10
126.1941921657986
 20
101.7657090928819
 30
0.0
 10
126.1941921657986
 20
101.7657090928819
 30
0.0
 10
126.1941921657986
 20
101.7657090928819
 30
0.0
 10
126.237255859375
 20
101.072900390625
 30
0.0
 10
126.237255859375
 20
101.072900390625
 30
0.0
 10
126.237255859375
 20
101.072900390625
 30
0.0
 10
125.3711588541667
 20
100.2512451171875
 30
0.0
 10
125.3711588541667
 20
100.2512451171875
 30
0.0
 10
125.3711588541667
 20
100.2512451171875
 30
0.0
 10
92.56006944444444
 20
100.6836046006944
 30
0.0
 10
92.21383734809027
 20
100.6836046006944
 30
0.0
 10
91.86760525173611
 20
100.6836046006944
 30
0.0
 10
91.69293891059027
 20
100.7263237847222
 30
0.0
 10
91.21751573350694
 20
100.5103162977431
 30
0.0
 10
90.7420925564236
 20
100.2939643012153
 30
0.0
 10
81.00108506944444
 20
95.40261773003472
 30
0.0
 10
80.74201388888888
 20
95.27377115885416
 30
0.0
 10
80.48294270833333
 20
95.14458007812499
 30
0.0
 10
79.83423122829861
 20
94.88550889756944
 30
0.0
 10
79.57378200954861
 20
94.58234049479165
 30
0.0
 10
79.3133327907986
 20
94.27882758246527
 30
0.0
 10
41.95747341579861
 20
55.24486219618055
 30
0.0
 10
41.95747341579861
 20
55.24486219618055
 30
0.0
 10
41.95747341579861
 20
55.24486219618055
 30
0.0
 10
39.01432834201388
 20
54.89863009982638
 30
0.0
 10
39.01432834201388
 20
54.89863009982638
 30
0.0
 10
39.01432834201388
 20
54.89863009982638
 30
0.0
 10
35.5947265625
 20
57.92755805121527
 30
0.0
 10
35.5947265625
 20
57.92755805121527
 30
0.0
  0
SPLINE
  5
FD
330
A
100
AcDbEntity
  8
LAYER_1
 62
     7
100
AcDbSpline
210
0.0
220
0.0
230
1.0
 70
    11
 71
     3
 72
    14
 73
    10
 74
     0
 42
0.0000000001
 43
0.0000000001
 40
0.0
 40
0.0
 40
0.0
 40
0.0
 40
1.0
 40
1.0
 40
1.0
 40
2.0
 40
2.0
 40
2.0
 40
3.0
 40
3.0
 40
3.0
 40
3.0
 10
57.64506022135416
 20
122.6109483506944
 30
0.0
 10
57.64506022135416
 20
122.6109483506944
 30
0.0
 10
56.88713921440971
 20
124.2904324001736
 30
0.0
 10
56.88713921440971
 20
124.2904324001736
 30
0.0
 10
56.88713921440971
 20
124.2904324001736
 30
0.0
 10
53.6370361328125
 20
122.2316433376736
 30
0.0
 10
53.6370361328125
 20
122.2316433376736
 30
0.0
 10
53.6370361328125
 20
122.2316433376736
 30
0.0
 10
56.12818467881944
 20
122.6650363498264
 30
0.0
 10
57.64506022135416
 20
122.6109483506944
 30
0.0
  0
HATCH
  5
FC
330
A
100
AcDbEntity
  8
LAYER_1
 62
     7
100
AcDbHatch
 10
0.0
 20
0.0
 30
0.0
210
0.0
220
0.0
230
1.0
  2
SOLID
 70
     1
 71
     0
 91
        1
 92
        1
 93
        1
 72
     4
 94
        3
 73
     0
 74
     0
 95
       14
 96
       10
 40
0.0
 40
0.0
 40
0.0
 40
0.0
 40
1.0
 40
1.0
 40
1.0
 40
2.0
 40
2.0
 40
2.0
 40
3.0
 40
3.0
 40
3.0
 40
3.0
 10
57.64506022135416
 20
122.6109483506944
 10
57.64506022135416
 20
122.6109483506944
 10
56.88713921440971
 20
124.2904324001736
 10
56.88713921440971
 20
124.2904324001736
 10
56.88713921440971
 20
124.2904324001736
 10
53.6370361328125
 20
122.2316433376736
 10
53.6370361328125
 20
122.2316433376736
 10
53.6370361328125
 20
122.2316433376736
 10
56.12818467881944
 20
122.6650363498264
 10
57.64506022135416
 20
122.6109483506944
 97
        0
 75
     0
 76
     1
 98
        1
 10
0.0
 20
0.0
  0
SPLINE
  5
FB
330
A
100
AcDbEntity
  8
LAYER_1
 62
     7
100
AcDbSpline
210
0.0
220
0.0
230
1.0
 70
     8
 71
     3
 72
     8
 73
     4
 74
     0
 42
0.0000000001
 43
0.0000000001
 40
0.0
 40
0.0
 40
0.0
 40
0.0
 40
1.0
 40
1.0
 40
1.0
 40
1.0
 10
56.6697536892361
 20
123.3151258680556
 30
0.0
 10
58.40401475694444
 20
124.1281684027778
 30
0.0
 10
65.82475043402778
 20
124.562939453125
 30
0.0
 10
68.04683702256943
 20
123.4243353949653
 30
0.0
  0
SPLINE
  5
FA
330
A
100
AcDbEntity
  8
LAYER_1
 62
     7
100
AcDbSpline
210
0.0
220
0.0
230
1.0
 70
     8
 71
     3
 72
    26
 73
    22
 74
     0
 42
0.0000000001
 43
0.0000000001
 40
0.0
 40
0.0
 40
0.0
 40
0.0
 40
1.0
 40
1.0
 40
1.0
 40
2.0
 40
2.0
 40
2.0
 40
3.0
 40
3.0
 40
3.0
 40
4.0
 40
4.0
 40
4.0
 40
5.0
 40
5.0
 40
5.0
 40
6.0
 40
6.0
 40
6.0
 40
7.0
 40
7.0
 40
7.0
 40
7.0
 10
117.5328776041667
 20
48.85868869357638
 30
0.0
 10
117.245556640625
 20
49.94079318576389
 30
0.0
 10
116.4828125
 20
52.23281521267361
 30
0.0
 10
116.4187337239583
 20
53.15541178385416
 30
0.0
 10
116.3549994574653
 20
54.07800835503472
 30
0.0
 10
116.1951470269097
 20
54.46006944444444
 30
0.0
 10
116.3870388454861
 20
55.16011284722222
 30
0.0
 10
116.5785861545139
 20
55.86015625
 30
0.0
 10
116.6102810329861
 20
56.27425672743055
 30
0.0
 10
116.4828125
 20
57.1968532986111
 30
0.0
 10
116.3549994574653
 20
58.11944986979166
 30
0.0
 10
115.9408989800347
 20
60.85623372395833
 30
0.0
 10
115.7507297092014
 20
61.62001139322916
 30
0.0
 10
115.5602159288194
 20
62.3841335720486
 30
0.0
 10
115.4324028862847
 20
64.64308268229166
 30
0.0
 10
115.0823811848958
 20
67.12561848958333
 30
0.0
 10
114.7323594835069
 20
69.608154296875
 30
0.0
 10
114.7640543619792
 20
75.71699761284721
 30
0.0
 10
114.7640543619792
 20
77.21320258246527
 30
0.0
 10
114.7640543619792
 20
78.70906304253471
 30
0.0
 10
114.6682807074653
 20
80.84054361979166
 30
0.0
 10
114.7003200954861
 20
82.08215603298611
 30
0.0
  0
SPLINE
  5
F9
330
A
100
AcDbEntity
  8
LAYER_1
 62
     7
100
AcDbSpline
210
0.0
220
0.0
230
1.0
 70
     8
 71
     3
 72
    38
 73
    34
 74
     0
 42
0.0000000001
 43
0.0000000001
 40
0.0
 40
0.0
 40
0.0
 40
0.0
 40
1.0
 40
1.0
 40
1.0
 40
2.0
 40
2.0
 40
2.0
 40
3.0
 40
3.0
 40
3.0
 40
4.0
 40
4.0
 40
4.0
 40
5.0
 40
5.0
 40
5.0
 40
6.0
 40
6.0
 40
6.0
 40
7.0
 40
7.0
 40
7.0
 40
8.0
 40
8.0
 40
8.0
 40
9.0
 40
9.0
 40
9.0
 40
10.0
 40
10.0
 40
10.0
 40
11.0
 40
11.0
 40
11.0
 40
11.0
 10
117.5649169921875
 20
36.86217719184027
 30
0.0
 10
117.245556640625
 20
38.13479546440972
 30
0.0
 10
117.0564208984375
 20
39.05877007378472
 30
0.0
 10
116.5465467664931
 20
40.2673095703125
 30
0.0
 10
116.0366726345486
 20
41.47619357638889
 30
0.0
 10
115.2728949652778
 20
43.41681586371527
 30
0.0
 10
115.0186469184028
 20
44.18093804253472
 30
0.0
 10
114.7640543619792
 20
44.94506022135416
 30
0.0
 10
114.4781114366319
 20
45.48662923177083
 30
0.0
 10
114.541845703125
 20
46.34549153645833
 30
0.0
 10
114.6055799696181
 20
47.20400933159722
 30
0.0
 10
114.4129991319444
 20
49.43091905381944
 30
0.0
 10
114.3502983940972
 20
50.57710232204861
 30
0.0
 10
114.28759765625
 20
51.72328559027778
 30
0.0
 10
114.3833713107639
 20
52.83605143229166
 30
0.0
 10
114.28759765625
 20
53.31388617621527
 30
0.0
 10
114.1918240017361
 20
53.79172092013889
 30
0.0
 10
113.8269883897569
 20
55.25588650173611
 30
0.0
 10
114.0002766927083
 20
55.82846137152777
 30
0.0
 10
114.5098063151042
 20
57.51380208333333
 30
0.0
 10
114.7947157118056
 20
57.22751464843749
 30
0.0
 10
114.7003200954861
 20
58.34165852864583
 30
0.0
 10
114.6055799696181
 20
59.45580240885416
 30
0.0
 10
114.2555582682292
 20
61.30202907986111
 30
0.0
 10
114.2238633897569
 20
62.6383816189236
 30
0.0
 10
114.1918240017361
 20
63.97507866753472
 30
0.0
 10
113.8097629123264
 20
66.07555338541665
 30
0.0
 10
113.4914360894097
 20
67.66615397135416
 30
0.0
 10
113.1734537760417
 20
69.25675455729166
 30
0.0
 10
112.8554714626736
 20
73.93588324652777
 30
0.0
 10
112.7593532986111
 20
75.24019639756943
 30
0.0
 10
112.6635796440972
 20
76.54485405815971
 30
0.0
 10
112.2828965928819
 20
78.96331108940971
 30
0.0
 10
112.0593098958333
 20
80.61799045138888
 30
0.0
  0
SPLINE
  5
F8
330
A
100
AcDbEntity
  8
LAYER_1
 62
     7
100
AcDbSpline
210
0.0
220
0.0
230
1.0
 70
     8
 71
     3
 72
    53
 73
    49
 74
     0
 42
0.0000000001
 43
0.0000000001
 40
0.0
 40
0.0
 40
0.0
 40
0.0
 40
1.0
 40
1.0
 40
1.0
 40
2.0
 40
2.0
 40
2.0
 40
3.0
 40
3.0
 40
3.0
 40
4.0
 40
4.0
 40
4.0
 40
5.0
 40
5.0
 40
5.0
 40
6.0
 40
6.0
 40
6.0
 40
7.0
 40
7.0
 40
7.0
 40
8.0
 40
8.0
 40
8.0
 40
9.0
 40
9.0
 40
9.0
 40
10.0
 40
10.0
 40
10.0
 40
11.0
 40
11.0
 40
11.0
 40
12.0
 40
12.0
 40
12.0
 40
13.0
 40
13.0
 40
13.0
 40
14.0
 40
14.0
 40
14.0
 40
15.0
 40
15.0
 40
15.0
 40
16.0
 40
16.0
 40
16.0
 40
16.0
 10
110.6922960069444
 20
22.764501953125
 30
0.0
 10
110.6922960069444
 20
24.06881510416666
 30
0.0
 10
110.8507703993056
 20
27.72957356770833
 30
0.0
 10
110.8824652777778
 20
28.23806966145833
 30
0.0
 10
110.9145046657986
 20
28.74656575520833
 30
0.0
 10
110.6282172309028
 20
32.75596788194444
 30
0.0
 10
110.6602566189236
 20
33.93384602864583
 30
0.0
 10
110.6922960069444
 20
35.11206868489583
 30
0.0
 10
110.2795735677083
 20
39.34367947048611
 30
0.0
 10
111.1687527126736
 20
40.39374457465277
 30
0.0
 10
110.8824652777778
 20
41.368017578125
 30
0.0
 10
110.6282172309028
 20
41.89029405381944
 30
0.0
 10
110.4687093098958
 20
42.46252441406249
 30
0.0
 10
110.3088568793403
 20
43.03475477430555
 30
0.0
 10
109.8003607855903
 20
44.65877278645833
 30
0.0
 10
109.0682779947917
 20
45.73984375
 30
0.0
 10
108.336195203993
 20
46.82091471354166
 30
0.0
 10
107.8276991102431
 20
48.44596625434027
 30
0.0
 10
107.4456380208333
 20
49.3365234375
 30
0.0
 10
107.0635769314236
 20
50.22708062065972
 30
0.0
 10
107.4149766710069
 20
51.05493706597222
 30
0.0
 10
107.4773328993056
 20
51.81905924479166
 30
0.0
 10
107.5400336371528
 20
52.58318142361111
 30
0.0
 10
107.6692247178819
 20
54.1737820095486
 30
0.0
 10
107.8276991102431
 20
54.96856553819444
 30
0.0
 10
107.9861735026042
 20
55.76334906684027
 30
0.0
 10
108.0192464192708
 20
57.29262695312499
 30
0.0
 10
108.0512858072917
 20
57.76908365885416
 30
0.0
 10
108.0829806857639
 20
58.24588487413194
 30
0.0
 10
107.8914333767361
 20
59.90159776475694
 30
0.0
 10
107.8276991102431
 20
60.79215494791666
 30
0.0
 10
107.7636203342014
 20
61.68271213107639
 30
0.0
 10
107.6692247178819
 20
63.97507866753472
 30
0.0
 10
107.6692247178819
 20
65.50160047743054
 30
0.0
 10
107.6692247178819
 20
67.02846679687499
 30
0.0
 10
107.8597384982639
 20
67.37986653645832
 30
0.0
 10
108.1139865451389
 20
68.01617567274305
 30
0.0
 10
107.8583604600694
 20
68.55671115451388
 30
0.0
 10
107.6371853298611
 20
71.32553439670139
 30
0.0
 10
107.4456380208333
 20
72.21712510850693
 30
0.0
 10
107.2540907118056
 20
73.10906032986111
 30
0.0
 10
107.573451063368
 20
74.44437934027778
 30
0.0
 10
107.7636203342014
 20
74.82644042968749
 30
0.0
 10
107.9541341145833
 20
75.20850151909721
 30
0.0
 10
107.5093722873264
 20
75.55852322048611
 30
0.0
 10
107.4773328993056
 20
75.84481065538193
 30
0.0
 10
107.4456380208333
 20
76.13075358072916
 30
0.0
 10
107.5093722873264
 20
77.37271050347222
 30
0.0
 10
107.5414116753472
 20
78.103759765625
 30
0.0
  0
SPLINE
  5
F7
330
A
100
AcDbEntity
  8
LAYER_1
 62
     7
100
AcDbSpline
210
0.0
220
0.0
230
1.0
 70
     8
 71
     3
 72
    29
 73
    25
 74
     0
 42
0.0000000001
 43
0.0000000001
 40
0.0
 40
0.0
 40
0.0
 40
0.0
 40
1.0
 40
1.0
 40
1.0
 40
2.0
 40
2.0
 40
2.0
 40
3.0
 40
3.0
 40
3.0
 40
4.0
 40
4.0
 40
4.0
 40
5.0
 40
5.0
 40
5.0
 40
6.0
 40
6.0
 40
6.0
 40
7.0
 40
7.0
 40
7.0
 40
8.0
 40
8.0
 40
8.0
 40
8.0
 10
105.9508110894097
 20
48.66817491319444
 30
0.0
 10
106.4593071831597
 20
47.2997829861111
 30
0.0
 10
107.2881971571181
 20
44.50029839409722
 30
0.0
 10
107.7009195963542
 20
43.60870768229167
 30
0.0
 10
108.1139865451389
 20
42.7167724609375
 30
0.0
 10
108.6541775173611
 20
41.57196723090277
 30
0.0
 10
109.0682779947917
 20
40.90361870659722
 30
0.0
 10
108.7182562934028
 20
40.04372287326389
 30
0.0
 10
108.3692681206597
 20
39.56726616753472
 30
0.0
 10
108.6555555555556
 20
38.51685655381944
 30
0.0
 10
108.9418429904514
 20
37.46679144965277
 30
0.0
 10
108.8777642144097
 20
35.20646430121528
 30
0.0
 10
108.8777642144097
 20
34.18809407552083
 30
0.0
 10
108.8777642144097
 20
33.16972384982638
 30
0.0
 10
108.8140299479167
 20
32.08899739583333
 30
0.0
 10
108.5277425130208
 20
31.38860948350694
 30
0.0
 10
108.241455078125
 20
30.68856608072916
 30
0.0
 10
107.7966932508681
 20
28.52435709635417
 30
0.0
 10
107.6692247178819
 20
27.44190809461805
 30
0.0
 10
107.5414116753472
 20
26.35980360243055
 30
0.0
 10
107.3843153211806
 20
24.89804958767361
 30
0.0
 10
107.4149766710069
 20
23.91034071180555
 30
0.0
 10
107.4456380208333
 20
22.92297634548611
 30
0.0
 10
107.7009195963542
 20
21.36544867621528
 30
0.0
 10
107.2871636284722
 20
20.50555284288194
 30
0.0
  0
SPLINE
  5
F6
330
A
100
AcDbEntity
  8
LAYER_1
 62
     7
100
AcDbSpline
210
0.0
220
0.0
230
1.0
 70
     8
 71
     3
 72
    14
 73
    10
 74
     0
 42
0.0000000001
 43
0.0000000001
 40
0.0
 40
0.0
 40
0.0
 40
0.0
 40
1.0
 40
1.0
 40
1.0
 40
2.0
 40
2.0
 40
2.0
 40
3.0
 40
3.0
 40
3.0
 40
3.0
 10
105.9508110894097
 20
44.72147352430555
 30
0.0
 10
106.2370985243056
 20
44.24467230902778
 30
0.0
 10
106.97021484375
 20
42.43048502604167
 30
0.0
 10
107.0329155815972
 20
42.08046332465278
 30
0.0
 10
106.7455946180556
 20
41.44415418836805
 30
0.0
 10
106.4923800998264
 20
39.91590983072916
 30
0.0
 10
106.3645670572917
 20
38.67533094618055
 30
0.0
 10
106.2370985243056
 20
37.43475206163194
 30
0.0
 10
105.9508110894097
 20
36.13147243923611
 30
0.0
 10
105.886732313368
 20
35.14376356336805
 30
0.0
  0
SPLINE
  5
F5
330
A
100
AcDbEntity
  8
LAYER_1
 62
     7
100
AcDbSpline
210
0.0
220
0.0
230
1.0
 70
     8
 71
     3
 72
    56
 73
    52
 74
     0
 42
0.0000000001
 43
0.0000000001
 40
0.0
 40
0.0
 40
0.0
 40
0.0
 40
1.0
 40
1.0
 40
1.0
 40
2.0
 40
2.0
 40
2.0
 40
3.0
 40
3.0
 40
3.0
 40
4.0
 40
4.0
 40
4.0
 40
5.0
 40
5.0
 40
5.0
 40
6.0
 40
6.0
 40
6.0
 40
7.0
 40
7.0
 40
7.0
 40
8.0
 40
8.0
 40
8.0
 40
9.0
 40
9.0
 40
9.0
 40
10.0
 40
10.0
 40
10.0
 40
11.0
 40
11.0
 40
11.0
 40
12.0
 40
12.0
 40
12.0
 40
13.0
 40
13.0
 40
13.0
 40
14.0
 40
14.0
 40
14.0
 40
15.0
 40
15.0
 40
15.0
 40
16.0
 40
16.0
 40
16.0
 40
17.0
 40
17.0
 40
17.0
 40
17.0
 10
113.2371880425347
 20
24.41883680555555
 30
0.0
 10
113.1734537760417
 20
25.30973849826389
 30
0.0
 10
113.4277018229167
 20
25.97912055121527
 30
0.0
 10
113.4914360894097
 20
27.18766004774305
 30
0.0
 10
113.5555148654514
 20
28.39654405381944
 30
0.0
 10
113.8097629123264
 20
29.44660915798611
 30
0.0
 10
113.8097629123264
 20
29.76493598090277
 30
0.0
 10
113.8097629123264
 20
30.08291829427083
 30
0.0
 10
113.7470621744792
 20
30.27446560329861
 30
0.0
 10
113.5555148654514
 20
30.52871365017361
 30
0.0
 10
113.3639675564236
 20
30.78330620659722
 30
0.0
 10
113.1097195095486
 20
31.19602864583333
 30
0.0
 10
113.1414143880208
 20
31.76963704427083
 30
0.0
 10
113.1734537760417
 20
32.34324544270833
 30
0.0
 10
113.2361545138889
 20
34.15743272569444
 30
0.0
 10
113.3319281684028
 20
34.66592881944444
 30
0.0
 10
113.4277018229167
 20
35.17442491319444
 30
0.0
 10
113.3012668185764
 20
36.31957465277777
 30
0.0
 10
113.4914360894097
 20
36.57485622829861
 30
0.0
 10
113.6819498697917
 20
36.83048231336805
 30
0.0
 10
113.9696153428819
 20
36.9248779296875
 30
0.0
 10
113.8097629123264
 20
37.37101779513888
 30
0.0
 10
113.6499104817708
 20
37.81681315104166
 30
0.0
 10
112.4093315972222
 20
41.06209309895833
 30
0.0
 10
112.4093315972222
 20
41.06209309895833
 30
0.0
 10
112.4093315972222
 20
41.06209309895833
 30
0.0
 10
111.2645263671875
 20
44.56299913194444
 30
0.0
 10
110.9465440538194
 20
45.51729058159722
 30
0.0
 10
110.6282172309028
 20
46.47192654079861
 30
0.0
 10
109.9602132161458
 20
48.19034016927083
 30
0.0
 10
109.67392578125
 20
48.89072808159722
 30
0.0
 10
109.3876383463542
 20
49.590771484375
 30
0.0
 10
109.5140733506944
 20
50.95916341145833
 30
0.0
 10
109.5140733506944
 20
51.85075412326388
 30
0.0
 10
109.5140733506944
 20
52.74268934461805
 30
0.0
 10
109.5781521267361
 20
56.08270941840277
 30
0.0
 10
109.7056206597222
 20
57.22854817708333
 30
0.0
 10
109.8334337022569
 20
58.37473144531249
 30
0.0
 10
109.6418863932292
 20
60.63368055555555
 30
0.0
 10
109.7056206597222
 20
61.36576334635416
 30
0.0
 10
109.7696994357639
 20
62.09784613715277
 30
0.0
 10
109.8003607855903
 20
63.17891710069444
 30
0.0
 10
109.67392578125
 20
63.81522623697916
 30
0.0
 10
109.5474907769097
 20
64.45153537326388
 30
0.0
 10
109.5140733506944
 20
64.99310438368055
 30
0.0
 10
110.0546088324653
 20
65.6614529079861
 30
0.0
 10
109.7989827473958
 20
66.36149631076388
 30
0.0
 10
109.0999728732639
 20
71.86710340711805
 30
0.0
 10
109.0376166449653
 20
73.29957411024304
 30
0.0
 10
108.9749159071181
 20
74.73170030381944
 30
0.0
 10
108.8777642144097
 20
76.83114149305555
 30
0.0
 10
108.749951171875
 20
78.74110243055554
 30
0.0
  0
SPLINE
  5
F4
330
A
100
AcDbEntity
  8
LAYER_1
 62
     7
100
AcDbSpline
210
0.0
220
0.0
230
1.0
 70
     8
 71
     3
 72
    41
 73
    37
 74
     0
 42
0.0000000001
 43
0.0000000001
 40
0.0
 40
0.0
 40
0.0
 40
0.0
 40
1.0
 40
1.0
 40
1.0
 40
2.0
 40
2.0
 40
2.0
 40
3.0
 40
3.0
 40
3.0
 40
4.0
 40
4.0
 40
4.0
 40
5.0
 40
5.0
 40
5.0
 40
6.0
 40
6.0
 40
6.0
 40
7.0
 40
7.0
 40
7.0
 40
8.0
 40
8.0
 40
8.0
 40
9.0
 40
9.0
 40
9.0
 40
10.0
 40
10.0
 40
10.0
 40
11.0
 40
11.0
 40
11.0
 40
12.0
 40
12.0
 40
12.0
 40
12.0
 10
110.2781955295139
 20
79.63165961371527
 30
0.0
 10
110.5324435763889
 20
78.16749403211804
 30
0.0
 10
111.0102783203125
 20
74.95287543402777
 30
0.0
 10
110.9782389322917
 20
73.77603081597222
 30
0.0
 10
110.9465440538194
 20
72.59918619791667
 30
0.0
 10
111.0740125868056
 20
70.9448513454861
 30
0.0
 10
111.3286051432292
 20
69.19439832899305
 30
0.0
 10
111.5828531901042
 20
67.44394531249999
 30
0.0
 10
111.9008355034722
 20
62.70246039496527
 30
0.0
 10
112.1871229383681
 20
61.55627712673611
 30
0.0
 10
111.8371012369792
 20
61.23829481336805
 30
0.0
 10
111.2645263671875
 20
60.69775933159722
 30
0.0
 10
112.1550835503472
 20
59.51953667534722
 30
0.0
 10
112.0272705078125
 20
57.99267035590277
 30
0.0
 10
111.9955756293403
 20
56.11578233506944
 30
0.0
 10
112.0593098958333
 20
55.22419162326388
 30
0.0
 10
112.1230441623264
 20
54.33225640190972
 30
0.0
 10
112.1540500217014
 20
52.39128960503471
 30
0.0
 10
112.0272705078125
 20
51.43699815538194
 30
0.0
 10
111.9008355034722
 20
50.48236219618055
 30
0.0
 10
112.0606879340278
 20
47.80827907986111
 30
0.0
 10
111.932874891493
 20
47.20400933159722
 30
0.0
 10
112.441370985243
 20
46.21767849392361
 30
0.0
 10
112.7286919487847
 20
45.23134765624999
 30
0.0
 10
113.2371880425347
 20
43.92668999565972
 30
0.0
 10
113.7460286458333
 20
42.62203233506944
 30
0.0
 10
113.9361979166667
 20
42.08046332465278
 30
0.0
 10
114.0640109592014
 20
40.83988444010416
 30
0.0
 10
114.1918240017361
 20
39.59930555555555
 30
0.0
 10
114.0970838758681
 20
38.80314398871528
 30
0.0
 10
114.6055799696181
 20
37.81681315104166
 30
0.0
 10
115.1144205729167
 20
36.83048231336805
 30
0.0
 10
115.9729383680556
 20
33.61586371527778
 30
0.0
 10
116.3870388454861
 20
32.88378092447916
 30
0.0
 10
115.9729383680556
 20
31.64285753038194
 30
0.0
 10
115.4644422743055
 20
29.86070963541667
 30
0.0
 10
115.7507297092014
 20
26.10555555555555
 30
0.0
  0
SPLINE
  5
F3
330
A
100
AcDbEntity
  8
LAYER_1
 62
     7
100
AcDbSpline
210
0.0
220
0.0
230
1.0
 70
     8
 71
     3
 72
    17
 73
    13
 74
     0
 42
0.0000000001
 43
0.0000000001
 40
0.0
 40
0.0
 40
0.0
 40
0.0
 40
1.0
 40
1.0
 40
1.0
 40
2.0
 40
2.0
 40
2.0
 40
3.0
 40
3.0
 40
3.0
 40
4.0
 40
4.0
 40
4.0
 40
4.0
 10
116.1327907986111
 20
82.87693956163194
 30
0.0
 10
116.3229600694444
 20
81.89060872395832
 30
0.0
 10
116.4187337239583
 20
80.36270887586805
 30
0.0
 10
116.3549994574653
 20
79.15382486979166
 30
0.0
 10
116.2912651909722
 20
77.94528537326389
 30
0.0
 10
115.97431640625
 20
75.74903700086804
 30
0.0
 10
116.1644856770833
 20
74.47641872829861
 30
0.0
 10
116.3549994574653
 20
73.20380045572917
 30
0.0
 10
116.1338243272569
 20
71.38926866319444
 30
0.0
 10
116.5465467664931
 20
70.43497721354166
 30
0.0
 10
116.9592692057292
 20
69.48034125434027
 30
0.0
 10
117.4691433376736
 20
66.39250217013888
 30
0.0
 10
117.5008382161458
 20
65.24769694010416
 30
0.0
  0
LINE
  5
F2
330
A
100
AcDbEntity
  8
LAYER_1
 62
     7
100
AcDbLine
 10
105.9876736111111
 20
77.17875162760416
 30
0.0
 11
105.8819091796875
 21
19.55711805555555
 31
0.0
  0
LINE
  5
F1
330
A
100
AcDbEntity
  8
LAYER_1
 62
     7
100
AcDbLine
 10
117.5390787760417
 20
64.58038194444444
 30
0.0
 11
134.832080078125
 21
65.639404296875
 31
0.0
  0
LINE
  5
F0
330
A
100
AcDbEntity
  8
LAYER_1
 62
     7
100
AcDbLine
 10
117.5390787760417
 20
66.6970486111111
 30
0.0
 11
132.2437798394097
 21
67.52972819010417
 31
0.0
  0
LINE
  5
EF
330
A
100
AcDbEntity
  8
LAYER_1
 62
     7
100
AcDbLine
 10
117.4581190321181
 20
83.62865939670138
 30
0.0
 11
117.5390787760417
 21
59.54055175781249
 31
0.0
  0
SPLINE
  5
EE
330
A
100
AcDbEntity
  8
LAYER_1
 62
     7
100
AcDbSpline
210
0.0
220
0.0
230
1.0
 70
     8
 71
     3
 72
    11
 73
     7
 74
     0
 42
0.0000000001
 43
0.0000000001
 40
0.0
 40
0.0
 40
0.0
 40
0.0
 40
1.0
 40
1.0
 40
1.0
 40
2.0
 40
2.0
 40
2.0
 40
2.0
 10
68.32933485243055
 20
45.55690917968749
 30
0.0
 10
68.99527180989583
 20
45.61065266927083
 30
0.0
 10
69.89926486545139
 20
45.71641710069444
 30
0.0
 10
70.67199978298611
 20
46.06299370659722
 30
0.0
 10
71.44439019097221
 20
46.40922580295138
 30
0.0
 10
73.68025716145833
 20
47.39314507378472
 30
0.0
 10
74.10641547309027
 20
47.52715928819444
 30
0.0
  0
SPLINE
  5
ED
330
A
100
AcDbEntity
  8
LAYER_1
 62
     7
100
AcDbSpline
210
0.0
220
0.0
230
1.0
 70
     8
 71
     3
 72
    44
 73
    40
 74
     0
 42
0.0000000001
 43
0.0000000001
 40
0.0
 40
0.0
 40
0.0
 40
0.0
 40
1.0
 40
1.0
 40
1.0
 40
2.0
 40
2.0
 40
2.0
 40
3.0
 40
3.0
 40
3.0
 40
4.0
 40
4.0
 40
4.0
 40
5.0
 40
5.0
 40
5.0
 40
6.0
 40
6.0
 40
6.0
 40
7.0
 40
7.0
 40
7.0
 40
8.0
 40
8.0
 40
8.0
 40
9.0
 40
9.0
 40
9.0
 40
10.0
 40
10.0
 40
10.0
 40
11.0
 40
11.0
 40
11.0
 40
12.0
 40
12.0
 40
12.0
 40
13.0
 40
13.0
 40
13.0
 40
13.0
 10
81.1891872829861
 20
84.67183430989583
 30
0.0
 10
80.65726453993055
 20
84.40518391927083
 30
0.0
 10
80.52359483506943
 20
83.89909939236111
 30
0.0
 10
79.9644558376736
 20
83.39301486545138
 30
0.0
 10
79.40566134982639
 20
82.88693033854166
 30
0.0
 10
78.92541503906249
 20
82.11419542100694
 30
0.0
 10
78.2866943359375
 20
81.47547471788194
 30
0.0
 10
77.64762912326388
 20
80.83675401475693
 30
0.0
 10
77.16876085069444
 20
79.8001247829861
 30
0.0
 10
76.50282389322916
 20
79.23995225694443
 30
0.0
 10
75.8372314453125
 20
78.67977973090277
 30
0.0
 10
75.51787109374999
 20
78.30736490885415
 30
0.0
 10
75.11858452690971
 20
77.80128038194444
 30
0.0
 10
74.71929796006944
 20
77.29519585503472
 30
0.0
 10
74.32001139322917
 20
76.31024305555555
 30
0.0
 10
74.05370551215277
 20
75.99088270399305
 30
0.0
 10
73.78705512152777
 20
75.67152235243054
 30
0.0
 10
73.70609537760416
 20
75.511669921875
 30
0.0
 10
73.12111816406249
 20
75.00558539496527
 30
0.0
 10
72.53648546006944
 20
74.49950086805555
 30
0.0
 10
72.00352918836805
 20
73.91383463541666
 30
0.0
 10
71.60424262152777
 20
73.35469563802083
 30
0.0
 10
71.2049560546875
 20
72.79590115017361
 30
0.0
 10
71.418896484375
 20
72.84861111111111
 30
0.0
 10
70.64616156684028
 20
72.12996419270833
 30
0.0
 10
69.87342664930554
 20
71.41131727430555
 30
0.0
 10
69.42005208333333
 20
70.45358072916666
 30
0.0
 10
68.70174967447916
 20
69.78764377170138
 30
0.0
 10
67.98310275607638
 20
69.12170681423611
 30
0.0
 10
66.99780544704861
 20
68.32210015190972
 30
0.0
 10
66.83829752604166
 20
67.68337944878472
 30
0.0
 10
66.67844509548611
 20
67.04465874565972
 30
0.0
 10
66.75699327256943
 20
66.16512586805555
 30
0.0
 10
66.33186848958333
 20
65.6859130859375
 30
0.0
 10
65.90708821614582
 20
65.20704481336804
 30
0.0
 10
65.95979817708333
 20
65.02169867621527
 30
0.0
 10
65.61356608072916
 20
64.27583550347222
 30
0.0
 10
65.26698947482639
 20
63.53031684027777
 30
0.0
 10
64.49425455729165
 20
61.55868869357639
 30
0.0
 10
63.75011393229166
 20
60.76011555989583
 30
0.0
  0
SPLINE
  5
EC
330
A
100
AcDbEntity
  8
LAYER_1
 62
     7
100
AcDbSpline
210
0.0
220
0.0
230
1.0
 70
     8
 71
     3
 72
    38
 73
    34
 74
     0
 42
0.0000000001
 43
0.0000000001
 40
0.0
 40
0.0
 40
0.0
 40
0.0
 40
1.0
 40
1.0
 40
1.0
 40
2.0
 40
2.0
 40
2.0
 40
3.0
 40
3.0
 40
3.0
 40
4.0
 40
4.0
 40
4.0
 40
5.0
 40
5.0
 40
5.0
 40
6.0
 40
6.0
 40
6.0
 40
7.0
 40
7.0
 40
7.0
 40
8.0
 40
8.0
 40
8.0
 40
9.0
 40
9.0
 40
9.0
 40
10.0
 40
10.0
 40
10.0
 40
11.0
 40
11.0
 40
11.0
 40
11.0
 10
65.80029025607638
 20
53.99808213975694
 30
0.0
 10
66.19923231336804
 20
54.68951280381944
 30
0.0
 10
66.59989691840278
 20
56.55296495225694
 30
0.0
 10
67.05189344618054
 20
57.16619194878471
 30
0.0
 10
67.50388997395832
 20
57.77907443576388
 30
0.0
 10
69.18199598524305
 20
61.55868869357639
 30
0.0
 10
69.55406629774305
 20
62.0120632595486
 30
0.0
 10
69.92613661024305
 20
62.46509331597222
 30
0.0
 10
70.14007703993055
 20
62.99598253038194
 30
0.0
 10
70.37951117621527
 20
63.63573676215277
 30
0.0
 10
70.61894531249999
 20
64.27583550347222
 30
0.0
 10
70.72470974392361
 20
64.96761067708333
 30
0.0
 10
70.91143391927082
 20
65.63320312499999
 30
0.0
 10
71.09815809461804
 20
66.29914008246527
 30
0.0
 10
70.9383056640625
 20
66.61850043402777
 30
0.0
 10
71.2049560546875
 20
66.85793457031249
 30
0.0
 10
71.47160644531249
 20
67.09736870659722
 30
0.0
 10
71.28488226996527
 20
67.44394531249999
 30
0.0
 10
71.36480848524305
 20
67.71025119357638
 30
0.0
 10
71.44439019097221
 20
67.97690158420139
 30
0.0
 10
71.5770263671875
 20
68.56291232638888
 30
0.0
 10
71.84367675781249
 20
69.04178059895833
 30
0.0
 10
72.11032714843749
 20
69.52099338107638
 30
0.0
 10
73.28097059461805
 20
71.3045193142361
 30
0.0
 10
73.81392686631943
 20
71.8905300564236
 30
0.0
 10
74.34722764756944
 20
72.47654079861111
 30
0.0
 10
74.6934597439236
 20
73.56863606770833
 30
0.0
 10
75.41210666232638
 20
73.96757812499999
 30
0.0
 10
76.13075358072916
 20
74.36686469184028
 30
0.0
 10
76.87627224392361
 20
75.19127604166665
 30
0.0
 10
77.35548502604166
 20
75.72423231336805
 30
0.0
 10
77.83435329861111
 20
76.25753309461805
 30
0.0
 10
80.57733832465277
 20
79.9055447048611
 30
0.0
 10
81.21605902777777
 20
81.18298611111111
 30
0.0
  0
SPLINE
  5
EB
330
A
100
AcDbEntity
  8
LAYER_1
 62
     7
100
AcDbSpline
210
0.0
220
0.0
230
1.0
 70
     8
 71
     3
 72
    23
 73
    19
 74
     0
 42
0.0000000001
 43
0.0000000001
 40
0.0
 40
0.0
 40
0.0
 40
0.0
 40
1.0
 40
1.0
 40
1.0
 40
2.0
 40
2.0
 40
2.0
 40
3.0
 40
3.0
 40
3.0
 40
4.0
 40
4.0
 40
4.0
 40
5.0
 40
5.0
 40
5.0
 40
6.0
 40
6.0
 40
6.0
 40
6.0
 10
81.32182345920138
 20
58.12427300347222
 30
0.0
 10
80.84261067708333
 20
57.75185818142361
 30
0.0
 10
80.07125379774305
 20
57.03355577256944
 30
0.0
 10
79.6450954861111
 20
56.68697916666666
 30
0.0
 10
79.21893717447917
 20
56.3407470703125
 30
0.0
 10
77.24868706597222
 20
54.87623697916666
 30
0.0
 10
76.68954806857639
 20
54.47729492187499
 30
0.0
 10
76.13075358072916
 20
54.07800835503472
 30
0.0
 10
73.78705512152777
 20
52.71926269531249
 30
0.0
 10
73.14833441840277
 20
52.39990234374999
 30
0.0
 10
72.50961371527777
 20
52.0805419921875
 30
0.0
 10
71.97631293402777
 20
51.7084716796875
 30
0.0
 10
71.33759223090277
 20
51.86797960069444
 30
0.0
 10
70.69887152777777
 20
52.02783203124999
 30
0.0
 10
70.56003417968749
 20
52.0498806423611
 30
0.0
 10
70.00744086371527
 20
51.761181640625
 30
0.0
 10
68.94256184895832
 20
51.20238715277777
 30
0.0
 10
66.97093370225694
 20
51.36189507378472
 30
0.0
 10
66.59851888020833
 20
51.41494954427083
 30
0.0
  0
SPLINE
  5
EA
330
A
100
AcDbEntity
  8
LAYER_1
 62
     7
100
AcDbSpline
210
0.0
220
0.0
230
1.0
 70
     8
 71
     3
 72
    50
 73
    46
 74
     0
 42
0.0000000001
 43
0.0000000001
 40
0.0
 40
0.0
 40
0.0
 40
0.0
 40
1.0
 40
1.0
 40
1.0
 40
2.0
 40
2.0
 40
2.0
 40
3.0
 40
3.0
 40
3.0
 40
4.0
 40
4.0
 40
4.0
 40
5.0
 40
5.0
 40
5.0
 40
6.0
 40
6.0
 40
6.0
 40
7.0
 40
7.0
 40
7.0
 40
8.0
 40
8.0
 40
8.0
 40
9.0
 40
9.0
 40
9.0
 40
10.0
 40
10.0
 40
10.0
 40
11.0
 40
11.0
 40
11.0
 40
12.0
 40
12.0
 40
12.0
 40
13.0
 40
13.0
 40
13.0
 40
14.0
 40
14.0
 40
14.0
 40
15.0
 40
15.0
 40
15.0
 40
15.0
 10
81.1891872829861
 20
76.92312554253472
 30
0.0
 10
80.8698269314236
 20
76.54967719184027
 30
0.0
 10
80.52221679687499
 20
75.83103027343749
 30
0.0
 10
80.09709201388888
 20
75.43208821614583
 30
0.0
 10
79.67231174045138
 20
75.03280164930555
 30
0.0
 10
78.04691569010416
 20
73.03671332465277
 30
0.0
 10
77.64762912326388
 20
72.58333875868055
 30
0.0
 10
77.24868706597222
 20
72.12996419270833
 30
0.0
 10
76.45011393229166
 20
71.33173556857638
 30
0.0
 10
76.29060601128471
 20
70.90523274739583
 30
0.0
 10
76.13075358072916
 20
70.47907443576388
 30
0.0
 10
75.83585340711805
 20
70.13284233940972
 30
0.0
 10
76.23651801215277
 20
69.73355577256943
 30
0.0
 10
75.9709011501736
 20
69.20163302951389
 30
0.0
 10
75.78452148437499
 20
69.06761881510415
 30
0.0
 10
75.70459526909721
 20
68.58875054253471
 30
0.0
 10
75.62466905381943
 20
68.10953776041666
 30
0.0
 10
75.57058105468749
 20
67.15007866753471
 30
0.0
 10
75.35801866319444
 20
66.85793457031249
 30
0.0
 10
75.14580078124999
 20
66.56544596354166
 30
0.0
 10
74.50811360677082
 20
65.58049316406249
 30
0.0
 10
74.26730143229166
 20
64.91455620659721
 30
0.0
 10
74.0264892578125
 20
64.24896375868055
 30
0.0
 10
72.82897406684027
 20
62.11886121961805
 30
0.0
 10
72.40281575520832
 20
61.61277669270833
 30
0.0
 10
71.97631293402777
 20
61.10669216579861
 30
0.0
 10
70.80566948784721
 20
58.79124348958333
 30
0.0
 10
71.2049560546875
 20
58.3378689236111
 30
0.0
 10
71.60424262152777
 20
57.88449435763889
 30
0.0
 10
72.11136067708333
 20
57.88449435763889
 30
0.0
 10
72.61641167534721
 20
58.04434678819444
 30
0.0
 10
73.12111816406249
 20
58.20419921874999
 30
0.0
 10
73.70850694444444
 20
58.81570366753472
 30
0.0
 10
74.08057725694444
 20
58.94971788194444
 30
0.0
 10
74.45299207899305
 20
59.08373209635416
 30
0.0
 10
74.66520996093749
 20
59.13644205729166
 30
0.0
 10
75.01178656684027
 20
59.05651584201388
 30
0.0
 10
75.35801866319444
 20
58.97658962673611
 30
0.0
 10
75.54474283854167
 20
59.02964409722222
 30
0.0
 10
76.29060601128471
 20
59.45580240885416
 30
0.0
 10
77.03612467447915
 20
59.88196072048611
 30
0.0
 10
78.04691569010416
 20
60.38666720920138
 30
0.0
 10
78.55300021701389
 20
60.8400417751736
 30
0.0
 10
79.05908474392361
 20
61.29341634114583
 30
0.0
 10
81.02933485243055
 20
62.73036566840277
 30
0.0
 10
81.26911349826388
 20
62.75758192274305
 30
0.0
  0
SPLINE
  5
E9
330
A
100
AcDbEntity
  8
LAYER_1
 62
     7
100
AcDbSpline
210
0.0
220
0.0
230
1.0
 70
     8
 71
     3
 72
    29
 73
    25
 74
     0
 42
0.0000000001
 43
0.0000000001
 40
0.0
 40
0.0
 40
0.0
 40
0.0
 40
1.0
 40
1.0
 40
1.0
 40
2.0
 40
2.0
 40
2.0
 40
3.0
 40
3.0
 40
3.0
 40
4.0
 40
4.0
 40
4.0
 40
5.0
 40
5.0
 40
5.0
 40
6.0
 40
6.0
 40
6.0
 40
7.0
 40
7.0
 40
7.0
 40
8.0
 40
8.0
 40
8.0
 40
8.0
 10
81.2418972439236
 20
73.94070638020833
 30
0.0
 10
80.84261067708333
 20
73.46149359809027
 30
0.0
 10
80.30965440538193
 20
72.63604871961805
 30
0.0
 10
80.01751030815971
 20
72.23676215277777
 30
0.0
 10
79.72502170138888
 20
71.83782009548611
 30
0.0
 10
79.3784450954861
 20
71.22355957031249
 30
0.0
 10
79.48558756510415
 20
70.87836100260417
 30
0.0
 10
79.5923855251736
 20
70.53316243489583
 30
0.0
 10
79.77910970052082
 20
70.13387586805555
 30
0.0
 10
79.67231174045138
 20
69.7077175564236
 30
0.0
 10
79.56516927083332
 20
69.28155924479167
 30
0.0
 10
79.16622721354166
 20
68.21530219184027
 30
0.0
 10
79.0063747829861
 20
67.68337944878472
 30
0.0
 10
78.84652235243055
 20
67.15145670572916
 30
0.0
 10
78.58125
 20
66.75113661024305
 30
0.0
 10
78.92644856770832
 20
66.53857421875
 30
0.0
 10
79.27164713541666
 20
66.32601182725693
 30
0.0
 10
79.43253309461805
 20
66.38009982638889
 30
0.0
 10
79.6450954861111
 20
66.40593804253471
 30
0.0
 10
79.85765787760415
 20
66.43177625868054
 30
0.0
 10
79.93758409288193
 20
66.24608561197915
 30
0.0
 10
80.28381618923611
 20
66.48551974826388
 30
0.0
 10
80.63039279513889
 20
66.72529839409722
 30
0.0
 10
80.8698269314236
 20
67.01744249131944
 30
0.0
 10
81.26911349826388
 20
67.04465874565972
 30
0.0
  0
SPLINE
  5
E8
330
A
100
AcDbEntity
  8
LAYER_1
 62
     7
100
AcDbSpline
210
0.0
220
0.0
230
1.0
 70
     8
 71
     3
 72
    11
 73
     7
 74
     0
 42
0.0000000001
 43
0.0000000001
 40
0.0
 40
0.0
 40
0.0
 40
0.0
 40
1.0
 40
1.0
 40
1.0
 40
2.0
 40
2.0
 40
2.0
 40
2.0
 10
70.96397162543403
 20
52.82950575086805
 30
0.0
 10
70.65132921006943
 20
52.74510091145833
 30
0.0
 10
70.29717339409721
 20
53.09236653645833
 30
0.0
 10
70.29717339409721
 20
53.71661783854166
 30
0.0
 10
70.29717339409721
 20
54.54533555772569
 30
0.0
 10
70.92090793185763
 20
54.9954372829861
 30
0.0
 10
71.24371337890625
 20
54.62353922526041
 30
0.0
  0
SPLINE
  5
E7
330
A
100
AcDbEntity
  8
LAYER_1
 62
     7
100
AcDbSpline
210
0.0
220
0.0
230
1.0
 70
     8
 71
     3
 72
    11
 73
     7
 74
     0
 42
0.0000000001
 43
0.0000000001
 40
0.0
 40
0.0
 40
0.0
 40
0.0
 40
1.0
 40
1.0
 40
1.0
 40
2.0
 40
2.0
 40
2.0
 40
2.0
 10
68.31727701822916
 20
63.76923421223957
 30
0.0
 10
68.00721842447916
 20
63.69533691406249
 30
0.0
 10
67.66098632812499
 20
64.04191351996528
 30
0.0
 10
67.66098632812499
 20
64.65927463107639
 30
0.0
 10
67.66098632812499
 20
65.35776774088541
 30
0.0
 10
68.1043701171875
 20
65.78719889322916
 30
0.0
 10
68.43699408637153
 20
65.68177897135416
 30
0.0
  0
SPLINE
  5
E6
330
A
100
AcDbEntity
  8
LAYER_1
 62
     7
100
AcDbSpline
210
0.0
220
0.0
230
1.0
 70
     8
 71
     3
 72
    11
 73
     7
 74
     0
 42
0.0000000001
 43
0.0000000001
 40
0.0
 40
0.0
 40
0.0
 40
0.0
 40
1.0
 40
1.0
 40
1.0
 40
2.0
 40
2.0
 40
2.0
 40
2.0
 10
121.3850111219618
 20
102.7671983506944
 30
0.0
 10
121.4099880642361
 20
102.7665093315972
 30
0.0
 10
121.435309516059
 20
102.7661648220486
 30
0.0
 10
121.4609754774306
 20
102.7661648220486
 30
0.0
 10
122.1828952365451
 20
102.7661648220486
 30
0.0
 10
122.3324123806424
 20
102.9776936848958
 30
0.0
 10
122.2061496310764
 20
103.1890502929687
 30
0.0
  0
SPLINE
  5
E5
330
A
100
AcDbEntity
  8
LAYER_1
 62
     7
100
AcDbSpline
210
0.0
220
0.0
230
1.0
 70
     8
 71
     3
 72
     8
 73
     4
 74
     0
 42
0.0000000001
 43
0.0000000001
 40
0.0
 40
0.0
 40
0.0
 40
0.0
 40
1.0
 40
1.0
 40
1.0
 40
1.0
 10
120.3850721571181
 20
103.3807698567708
 30
0.0
 10
120.3170315212674
 20
103.2963650173611
 30
0.0
 10
120.3247829861111
 20
103.1990410698785
 30
0.0
 10
120.3959242078993
 20
103.1072292751736
 30
0.0
  0
SPLINE
  5
E4
330
A
100
AcDbEntity
  8
LAYER_1
 62
     7
100
AcDbSpline
210
0.0
220
0.0
230
1.0
 70
     8
 71
     3
 72
    11
 73
     7
 74
     0
 42
0.0000000001
 43
0.0000000001
 40
0.0
 40
0.0
 40
0.0
 40
0.0
 40
1.0
 40
1.0
 40
1.0
 40
2.0
 40
2.0
 40
2.0
 40
2.0
 10
119.5065728081597
 20
102.6969184027778
 30
0.0
 10
119.2368218315972
 20
102.4468044704861
 30
0.0
 10
119.7062160915799
 20
102.0509629991319
 30
0.0
 10
120.5531928168403
 20
102.0509629991319
 30
0.0
 10
121.2363552517361
 20
102.0509629991319
 30
0.0
 10
121.4068874782986
 20
102.2402709960937
 30
0.0
 10
121.3162814670139
 20
102.4397420247396
 30
0.0
  0
SPLINE
  5
E3
330
A
100
AcDbEntity
  8
LAYER_1
 62
     7
100
AcDbSpline
210
0.0
220
0.0
230
1.0
 70
     8
 71
     3
 72
    11
 73
     7
 74
     0
 42
0.0000000001
 43
0.0000000001
 40
0.0
 40
0.0
 40
0.0
 40
0.0
 40
1.0
 40
1.0
 40
1.0
 40
2.0
 40
2.0
 40
2.0
 40
2.0
 10
118.5126627604167
 20
101.7627807617187
 30
0.0
 10
118.3698635525173
 20
101.5143893771701
 30
0.0
 10
118.8296115451389
 20
101.1786648220486
 30
0.0
 10
119.6095811631944
 20
101.1786648220486
 30
0.0
 10
120.3316731770833
 20
101.1786648220486
 30
0.0
 10
120.4811903211806
 20
101.3901936848958
 30
0.0
 10
120.3549275716146
 20
101.6015502929687
 30
0.0
  0
SPLINE
  5
E2
330
A
100
AcDbEntity
  8
LAYER_1
 62
     7
100
AcDbSpline
210
0.0
220
0.0
230
1.0
 70
     8
 71
     3
 72
    11
 73
     7
 74
     0
 42
0.0000000001
 43
0.0000000001
 40
0.0
 40
0.0
 40
0.0
 40
0.0
 40
1.0
 40
1.0
 40
1.0
 40
2.0
 40
2.0
 40
2.0
 40
2.0
 10
111.9421766493056
 20
103.3969618055556
 30
0.0
 10
111.7954155815972
 20
103.121526421441
 30
0.0
 10
112.3051174587674
 20
102.7544514973958
 30
0.0
 10
113.1648410373264
 20
102.7544514973958
 30
0.0
 10
113.9344753689236
 20
102.7544514973958
 30
0.0
 10
114.1186157226562
 20
102.9708034939236
 30
0.0
 10
114.0083726671007
 20
103.1957682291667
 30
0.0
  0
SPLINE
  5
E1
330
A
100
AcDbEntity
  8
LAYER_1
 62
     7
100
AcDbSpline
210
0.0
220
0.0
230
1.0
 70
     8
 71
     3
 72
    11
 73
     7
 74
     0
 42
0.0000000001
 43
0.0000000001
 40
0.0
 40
0.0
 40
0.0
 40
0.0
 40
1.0
 40
1.0
 40
1.0
 40
2.0
 40
2.0
 40
2.0
 40
2.0
 10
108.4662475585937
 20
102.3165798611111
 30
0.0
 10
108.2383544921875
 20
102.0382161458333
 30
0.0
 10
108.7554633246528
 20
101.6316948784722
 30
0.0
 10
109.6604899088542
 20
101.6316948784722
 30
0.0
 10
110.3982571072049
 20
101.6316948784722
 30
0.0
 10
110.597900390625
 20
101.8304768880208
 30
0.0
 10
110.5157348632812
 20
102.0452785915799
 30
0.0
  0
SPLINE
  5
E0
330
A
100
AcDbEntity
  8
LAYER_1
 62
     7
100
AcDbSpline
210
0.0
220
0.0
230
1.0
 70
     8
 71
     3
 72
    11
 73
     7
 74
     0
 42
0.0000000001
 43
0.0000000001
 40
0.0
 40
0.0
 40
0.0
 40
0.0
 40
1.0
 40
1.0
 40
1.0
 40
2.0
 40
2.0
 40
2.0
 40
2.0
 10
102.3479302300347
 20
103.4734429253472
 30
0.0
 10
102.1873887803819
 20
103.1973185221354
 30
0.0
 10
102.6984686957465
 20
102.8233534071181
 30
0.0
 10
103.5664605034722
 20
102.8233534071181
 30
0.0
 10
104.2987155490451
 20
102.8233534071181
 30
0.0
 10
104.5009426540799
 20
103.0192070855035
 30
0.0
 10
104.423772515191
 20
103.2321139865451
 30
0.0
  0
SPLINE
  5
DF
330
A
100
AcDbEntity
  8
LAYER_1
 62
     7
100
AcDbSpline
210
0.0
220
0.0
230
1.0
 70
     8
 71
     3
 72
    11
 73
     7
 74
     0
 42
0.0000000001
 43
0.0000000001
 40
0.0
 40
0.0
 40
0.0
 40
0.0
 40
1.0
 40
1.0
 40
1.0
 40
2.0
 40
2.0
 40
2.0
 40
2.0
 10
99.0483900282118
 20
102.5656602647569
 30
0.0
 10
98.82635362413194
 20
102.2872965494792
 30
0.0
 10
99.3429456922743
 20
101.8835313585069
 30
0.0
 10
100.2446994357639
 20
101.8835313585069
 30
0.0
 10
100.9850504557292
 20
101.8835313585069
 30
0.0
 10
101.1836602105035
 20
102.08369140625
 30
0.0
 10
101.0995998806424
 20
102.2991821289062
 30
0.0
  0
SPLINE
  5
DE
330
A
100
AcDbEntity
  8
LAYER_1
 62
     7
100
AcDbSpline
210
0.0
220
0.0
230
1.0
 70
    11
 71
     3
 72
    11
 73
     7
 74
     0
 42
0.0000000001
 43
0.0000000001
 40
0.0
 40
0.0
 40
0.0
 40
0.0
 40
1.0
 40
1.0
 40
1.0
 40
2.0
 40
2.0
 40
2.0
 40
2.0
 10
92.82189670138888
 20
103.5554361979167
 30
0.0
 10
93.32556966145833
 20
103.5554361979167
 30
0.0
 10
93.21119249131944
 20
103.8992567274305
 30
0.0
 10
92.93592936197916
 20
103.8992567274305
 30
0.0
 10
92.45464952256944
 20
103.8992567274305
 30
0.0
 10
92.43260091145832
 20
103.5554361979167
 30
0.0
 10
92.82189670138888
 20
103.5554361979167
 30
0.0
  0
LINE
  5
DD
330
A
100
AcDbEntity
  8
LAYER_1
 62
     7
100
AcDbLine
 10
87.35694173177083
 20
103.8982231987847
 30
0.0
 11
89.06433105468749
 21
102.7496283637153
 31
0.0
  0
LINE
  5
DC
330
A
100
AcDbEntity
  8
LAYER_1
 62
     7
100
AcDbLine
 10
86.38990342881944
 20
104.5479682074653
 30
0.0
 11
86.86188151041667
 21
104.2310194227431
 31
0.0
  0
LINE
  5
DB
330
A
100
AcDbEntity
  8
LAYER_1
 62
     7
100
AcDbLine
 10
90.3700222439236
 20
101.8714735243055
 30
0.0
 11
90.81478407118055
 21
101.5727837456597
 31
0.0
  0
SPLINE
  5
DA
330
A
100
AcDbEntity
  8
LAYER_1
 62
     7
100
AcDbSpline
210
0.0
220
0.0
230
1.0
 70
    11
 71
     3
 72
    11
 73
     7
 74
     0
 42
0.0000000001
 43
0.0000000001
 40
0.0
 40
0.0
 40
0.0
 40
0.0
 40
1.0
 40
1.0
 40
1.0
 40
2.0
 40
2.0
 40
2.0
 40
2.0
 10
90.00139702690971
 20
102.4230333116319
 30
0.0
 10
90.00139702690971
 20
102.0347710503472
 30
0.0
 10
89.32719184027776
 20
101.9524332682292
 30
0.0
 10
89.32719184027776
 20
102.3775580512153
 30
0.0
 10
89.32719184027776
 20
102.8023383246528
 30
0.0
 10
90.00139702690971
 20
102.8109510633681
 30
0.0
 10
90.00139702690971
 20
102.4230333116319
 30
0.0
  0
LINE
  5
D9
330
A
100
AcDbEntity
  8
LAYER_1
 62
     7
100
AcDbLine
 10
75.22538248697916
 20
98.43189019097221
 30
0.0
 11
76.96722276475694
 21
97.21198187934027
 31
0.0
  0
LINE
  5
D8
330
A
100
AcDbEntity
  8
LAYER_1
 62
     7
100
AcDbLine
 10
74.13225368923611
 20
99.19704589843749
 30
0.0
 11
74.73893500434028
 21
98.77329915364582
 31
0.0
  0
LINE
  5
D7
330
A
100
AcDbEntity
  8
LAYER_1
 62
     7
100
AcDbLine
 10
78.11443956163194
 20
96.40755208333333
 30
0.0
 11
78.61949055989582
 21
96.05270724826389
 31
0.0
  0
SPLINE
  5
D6
330
A
100
AcDbEntity
  8
LAYER_1
 62
     7
100
AcDbSpline
210
0.0
220
0.0
230
1.0
 70
    11
 71
     3
 72
    11
 73
     7
 74
     0
 42
0.0000000001
 43
0.0000000001
 40
0.0
 40
0.0
 40
0.0
 40
0.0
 40
1.0
 40
1.0
 40
1.0
 40
2.0
 40
2.0
 40
2.0
 40
2.0
 10
77.97319064670138
 20
96.90261230468749
 30
0.0
 10
77.97319064670138
 20
96.35828721788194
 30
0.0
 10
77.09021267361111
 20
96.20498046874999
 30
0.0
 10
77.09021267361111
 20
96.74896104600694
 30
0.0
 10
77.09021267361111
 20
97.2932861328125
 30
0.0
 10
77.97319064670138
 20
97.3277370876736
 30
0.0
 10
77.97319064670138
 20
96.90261230468749
 30
0.0
  0
SPLINE
  5
D5
330
A
100
AcDbEntity
  8
LAYER_1
 62
     7
100
AcDbSpline
210
0.0
220
0.0
230
1.0
 70
    11
 71
     3
 72
    11
 73
     7
 74
     0
 42
0.0000000001
 43
0.0000000001
 40
0.0
 40
0.0
 40
0.0
 40
0.0
 40
1.0
 40
1.0
 40
1.0
 40
2.0
 40
2.0
 40
2.0
 40
2.0
 10
70.20622287326388
 20
92.87357313368055
 30
0.0
 10
70.78499891493055
 20
92.87357313368055
 30
0.0
 10
70.90282118055555
 20
93.53675401475694
 30
0.0
 10
70.41017252604166
 20
93.53675401475694
 30
0.0
 10
69.91752387152778
 20
93.53675401475694
 30
0.0
 10
69.62779134114582
 20
92.87357313368055
 30
0.0
 10
70.20622287326388
 20
92.87357313368055
 30
0.0
  0
SPLINE
  5
D4
330
A
100
AcDbEntity
  8
LAYER_1
 62
     7
100
AcDbSpline
210
0.0
220
0.0
230
1.0
 70
     8
 71
     3
 72
    11
 73
     7
 74
     0
 42
0.0000000001
 43
0.0000000001
 40
0.0
 40
0.0
 40
0.0
 40
0.0
 40
1.0
 40
1.0
 40
1.0
 40
2.0
 40
2.0
 40
2.0
 40
2.0
 10
66.65002305772569
 20
85.54051513671874
 30
0.0
 10
66.66724853515625
 20
85.24785427517361
 30
0.0
 10
66.86327446831596
 20
85.01944444444443
 30
0.0
 10
67.24826388888889
 20
85.01944444444443
 30
0.0
 10
68.67625596788194
 20
85.01944444444443
 30
0.0
 10
69.22471516927082
 20
86.0135267469618
 30
0.0
 10
68.86470269097222
 20
86.51065402560764
 30
0.0
  0
SPLINE
  5
D3
330
A
100
AcDbEntity
  8
LAYER_1
 62
     7
100
AcDbSpline
210
0.0
220
0.0
230
1.0
 70
     8
 71
     3
 72
    11
 73
     7
 74
     0
 42
0.0000000001
 43
0.0000000001
 40
0.0
 40
0.0
 40
0.0
 40
0.0
 40
1.0
 40
1.0
 40
1.0
 40
2.0
 40
2.0
 40
2.0
 40
2.0
 10
59.05014241536458
 20
81.93401692708332
 30
0.0
 10
59.10423041449652
 20
81.69389377170138
 30
0.0
 10
59.29663899739583
 20
81.51853841145832
 30
0.0
 10
59.63391384548611
 20
81.51853841145832
 30
0.0
 10
61.06173366970486
 20
81.51853841145832
 30
0.0
 10
61.61019287109374
 20
82.51279296874999
 30
0.0
 10
61.25000813802082
 20
83.01009250217012
 30
0.0
  0
SPLINE
  5
D2
330
A
100
AcDbEntity
  8
LAYER_1
 62
     7
100
AcDbSpline
210
0.0
220
0.0
230
1.0
 70
     8
 71
     3
 72
    11
 73
     7
 74
     0
 42
0.0000000001
 43
0.0000000001
 40
0.0
 40
0.0
 40
0.0
 40
0.0
 40
1.0
 40
1.0
 40
1.0
 40
2.0
 40
2.0
 40
2.0
 40
2.0
 10
56.43359239366319
 20
74.78871663411458
 30
0.0
 10
56.43462592230902
 20
74.47693549262152
 30
0.0
 10
56.63047960069444
 20
74.22699381510417
 30
0.0
 10
57.03321126302083
 20
74.22699381510417
 30
0.0
 10
58.64999457465277
 20
74.22699381510417
 30
0.0
 10
59.13937038845486
 20
75.50150689019097
 30
0.0
 10
58.45879177517361
 20
75.88597954644096
 30
0.0
  0
SPLINE
  5
D1
330
A
100
AcDbEntity
  8
LAYER_1
 62
     7
100
AcDbSpline
210
0.0
220
0.0
230
1.0
 70
     8
 71
     3
 72
    11
 73
     7
 74
     0
 42
0.0000000001
 43
0.0000000001
 40
0.0
 40
0.0
 40
0.0
 40
0.0
 40
1.0
 40
1.0
 40
1.0
 40
2.0
 40
2.0
 40
2.0
 40
2.0
 10
48.2110107421875
 20
70.9913601345486
 30
0.0
 10
48.17742106119791
 20
70.64409450954861
 30
0.0
 10
48.37103542751736
 20
70.35126139322917
 30
0.0
 10
48.80701226128472
 20
70.35126139322917
 30
0.0
 10
50.41707763671874
 20
70.35126139322917
 30
0.0
 10
50.90886501736111
 20
71.61543918185764
 30
0.0
 10
50.24086100260416
 20
72.00576850043402
 30
0.0
  0
SPLINE
  5
D0
330
A
100
AcDbEntity
  8
LAYER_1
 62
     7
100
AcDbSpline
210
0.0
220
0.0
230
1.0
 70
     8
 71
     3
 72
    11
 73
     7
 74
     0
 42
0.0000000001
 43
0.0000000001
 40
0.0
 40
0.0
 40
0.0
 40
0.0
 40
1.0
 40
1.0
 40
1.0
 40
2.0
 40
2.0
 40
2.0
 40
2.0
 10
45.06271023220486
 20
63.05902777777777
 30
0.0
 10
45.06426052517361
 20
62.74776340060763
 30
0.0
 10
45.26011420355903
 20
62.49851074218749
 30
0.0
 10
45.6623291015625
 20
62.49851074218749
 30
0.0
 10
47.25861409505208
 20
62.49851074218749
 30
0.0
 10
47.75574137369792
 20
63.74098442925347
 30
0.0
 10
47.11305881076388
 20
64.14268256293403
 30
0.0
  0
SPLINE
  5
CF
330
A
100
AcDbEntity
  8
LAYER_1
 62
     7
100
AcDbSpline
210
0.0
220
0.0
230
1.0
 70
     8
 71
     3
 72
    11
 73
     7
 74
     0
 42
0.0000000001
 43
0.0000000001
 40
0.0
 40
0.0
 40
0.0
 40
0.0
 40
1.0
 40
1.0
 40
1.0
 40
2.0
 40
2.0
 40
2.0
 40
2.0
 10
40.66470133463541
 20
61.20780571831597
 30
0.0
 10
40.6922620985243
 20
60.92823621961805
 30
0.0
 10
40.88794352213542
 20
60.71360677083333
 30
0.0
 10
41.26121961805555
 20
60.71360677083333
 30
0.0
 10
42.6890394422743
 20
60.71360677083333
 30
0.0
 10
43.23749864366319
 20
61.70786132812499
 30
0.0
 10
42.87731391059027
 20
62.20516086154513
 30
0.0
  0
SPLINE
  5
CE
330
A
100
AcDbEntity
  8
LAYER_1
 62
     7
100
AcDbSpline
210
0.0
220
0.0
230
1.0
 70
     8
 71
     3
 72
    11
 73
     7
 74
     0
 42
0.0000000001
 43
0.0000000001
 40
0.0
 40
0.0
 40
0.0
 40
0.0
 40
1.0
 40
1.0
 40
1.0
 40
2.0
 40
2.0
 40
2.0
 40
2.0
 10
36.61516384548611
 20
59.00535617404513
 30
0.0
 10
36.66925184461805
 20
58.76506076388888
 30
0.0
 10
36.86148817274305
 20
58.58970540364583
 30
0.0
 10
37.19876302083333
 20
58.58970540364583
 30
0.0
 10
38.62675509982638
 20
58.58970540364583
 30
0.0
 10
39.17504204644097
 20
59.58395996093749
 30
0.0
 10
38.81502956814236
 20
60.08125949435763
 30
0.0
  0
LINE
  5
CD
330
A
100
AcDbEntity
  8
LAYER_1
 62
     7
100
AcDbLine
 10
41.95023871527778
 20
55.24486219618055
 30
0.0
 11
41.59022623697916
 21
55.82467176649305
 31
0.0
  0
LINE
  5
CC
330
A
100
AcDbEntity
  8
LAYER_1
 62
     7
100
AcDbLine
 10
60.64229329427083
 20
65.12574055989583
 30
0.0
 11
67.15731336805555
 21
43.89361707899305
 31
0.0
  0
LINE
  5
CB
330
A
100
AcDbEntity
  8
LAYER_1
 62
     7
100
AcDbLine
 10
60.97026638454861
 20
65.46129286024305
 30
0.0
 11
67.73746744791666
 21
43.41095920138888
 31
0.0
  0
LINE
  5
CA
330
A
100
AcDbEntity
  8
LAYER_1
 62
     7
100
AcDbLine
 10
61.3671413845486
 20
65.99424913194444
 30
0.0
 11
68.4609375
 21
42.88006998697917
 31
0.0
  0
LWPOLYLINE
  5
C5
330
A
100
AcDbEntity
  8
LAYER_1
 62
     7
100
AcDbPolyline
 90
        3
 70
     0
 43
0.0
 10
66.24126247829861
 20
44.66635199652777
 10
69.42521972656249
 20
42.05944824218749
 10
62.2353054470486
 20
65.70451660156249
  0
LINE
  5
C4
330
A
100
AcDbEntity
  8
LAYER_1
 62
     7
100
AcDbLine
 10
48.57963595920138
 20
22.51748860677083
 30
0.0
 11
51.1937744140625
 21
20.30642632378472
 31
0.0
  0
LINE
  5
C3
330
A
100
AcDbEntity
  8
LAYER_1
 62
     7
100
AcDbLine
 10
49.25659722222222
 20
21.598681640625
 30
0.0
 11
52.11120334201389
 21
19.09754231770833
 31
0.0
  0
LINE
  5
C2
330
A
100
AcDbEntity
  8
LAYER_1
 62
     7
100
AcDbLine
 10
43.99524739583333
 20
25.89437120225694
 30
0.0
 11
52.64071451822916
 21
18.22937825520833
 31
0.0
  0
LINE
  5
C1
330
A
100
AcDbEntity
  8
LAYER_1
 62
     7
100
AcDbLine
 10
43.51396755642361
 20
26.61784125434027
 30
0.0
 11
46.36857367621527
 21
24.11670193142361
 31
0.0
  0
LINE
  5
C0
330
A
100
AcDbEntity
  8
LAYER_1
 62
     7
100
AcDbLine
 10
42.83700629340277
 20
27.53527018229167
 30
0.0
 11
45.45114474826389
 21
25.32420789930555
 31
0.0
  0
LINE
  5
BF
330
A
100
AcDbEntity
  8
LAYER_1
 62
     7
100
AcDbLine
 10
50.84719780815972
 20
21.06917046440972
 30
0.0
 11
53.1161376953125
 21
17.45044216579861
 31
0.0
  0
LWPOLYLINE
  5
BA
330
A
100
AcDbEntity
  8
LAYER_1
 62
     7
100
AcDbPolyline
 90
        3
 70
     0
 43
0.0
 10
59.96774359809027
 20
64.54627549913194
 10
66.28914930555555
 20
44.66635199652777
 10
47.75901421440972
 20
23.7225830078125
  0
LWPOLYLINE
  5
B5
330
A
100
AcDbEntity
  8
LAYER_1
 62
     7
100
AcDbPolyline
 90
        3
 70
     0
 43
0.0
 10
81.20158962673611
 20
86.11636284722222
 10
62.28457031249999
 20
65.70451660156249
 10
61.51183539496527
 20
66.18717447916666
  0
LWPOLYLINE
  5
AF
330
A
100
AcDbEntity
  8
LAYER_1
 62
     7
100
AcDbPolyline
 90
        4
 70
     0
 43
0.0
 10
76.03739149305555
 20
43.65280490451389
 10
81.34525010850693
 20
49.58698187934027
 10
81.20158962673611
 20
86.16424967447917
 10
80.71858723958333
 20
86.59902072482637
  0
LWPOLYLINE
  5
AA
330
A
100
AcDbEntity
  8
LAYER_1
 62
     7
100
AcDbPolyline
 90
        3
 70
     0
 43
0.0
 10
47.66703016493055
 20
23.81456705729167
 10
50.89508463541666
 20
21.06917046440972
 10
81.34525010850693
 20
55.71649576822916
  0
LINE
  5
A9
330
A
100
AcDbEntity
  8
LAYER_1
 62
     7
100
AcDbLine
 10
42.49938693576389
 20
28.21085340711805
 30
0.0
 11
44.87133517795139
 21
26.19271647135416
 31
0.0
  0
LINE
  5
A8
330
A
100
AcDbEntity
  8
LAYER_1
 62
     7
100
AcDbLine
 10
72.70736219618055
 20
100.062109375
 30
0.0
 11
52.48844129774305
 21
79.4094509548611
 31
0.0
  0
LINE
  5
A7
330
A
100
AcDbEntity
  8
LAYER_1
 62
     7
100
AcDbLine
 10
125.3243055555555
 20
100.8934109157986
 30
0.0
 11
125.3687472873264
 21
100.2598578559028
 31
0.0
  0
SPLINE
  5
A6
330
A
100
AcDbEntity
  8
LAYER_1
 62
     7
100
AcDbSpline
210
0.0
220
0.0
230
1.0
 70
     8
 71
     3
 72
    26
 73
    22
 74
     0
 42
0.0000000001
 43
0.0000000001
 40
0.0
 40
0.0
 40
0.0
 40
0.0
 40
1.0
 40
1.0
 40
1.0
 40
2.0
 40
2.0
 40
2.0
 40
3.0
 40
3.0
 40
3.0
 40
4.0
 40
4.0
 40
4.0
 40
5.0
 40
5.0
 40
5.0
 40
6.0
 40
6.0
 40
6.0
 40
7.0
 40
7.0
 40
7.0
 40
7.0
 10
38.40764702690972
 20
55.46121419270833
 30
0.0
 10
38.40764702690972
 20
55.46121419270833
 30
0.0
 10
41.59263780381944
 20
55.82088216145833
 30
0.0
 10
41.59263780381944
 20
55.82088216145833
 30
0.0
 10
41.59263780381944
 20
55.82088216145833
 30
0.0
 10
79.01016438802083
 20
94.797314453125
 30
0.0
 10
79.27061360677082
 20
95.05776367187499
 30
0.0
 10
79.53071831597221
 20
95.31786838107638
 30
0.0
 10
79.87626139322916
 20
95.57728407118054
 30
0.0
 10
80.17942979600694
 20
95.75022786458332
 30
0.0
 10
80.48294270833333
 20
95.92351616753471
 30
0.0
 10
90.30869954427082
 20
100.8996120876736
 30
0.0
 10
90.65493164062499
 20
101.0298366970486
 30
0.0
 10
91.00150824652776
 20
101.1600613064236
 30
0.0
 10
91.47934299045139
 20
101.2461886935764
 30
0.0
 10
91.99748535156249
 20
101.2461886935764
 30
0.0
 10
92.53457573784722
 20
101.2461886935764
 30
0.0
 10
125.3218939887153
 20
100.8875542534722
 30
0.0
 10
125.3218939887153
 20
100.8875542534722
 30
0.0
 10
125.3218939887153
 20
100.8875542534722
 30
0.0
 10
126.1500949435764
 20
101.7657090928819
 30
0.0
 10
126.1500949435764
 20
101.7657090928819
 30
0.0
  0
LINE
  5
A5
330
A
100
AcDbEntity
  8
LAYER_1
 62
     7
100
AcDbLine
 10
28.97118598090277
 20
47.71388346354166
 30
0.0
 11
30.09635416666666
 21
46.763037109375
 31
0.0
  0
LINE
  5
A4
330
A
100
AcDbEntity
  8
LAYER_1
 62
     7
100
AcDbLine
 10
33.47323676215277
 20
43.81989203559027
 30
0.0
 11
36.71851671006944
 21
41.31013997395833
 31
0.0
  0
LINE
  5
A3
330
A
100
AcDbEntity
  8
LAYER_1
 62
     7
100
AcDbLine
 10
28.01930609809028
 20
49.09950086805555
 30
0.0
 11
36.02708604600694
 21
42.3912109375
 31
0.0
  0
LINE
  5
A2
330
A
100
AcDbEntity
  8
LAYER_1
 62
     7
100
AcDbLine
 10
26.93685709635416
 20
50.83031684027777
 30
0.0
 11
34.98770073784722
 21
43.95011664496528
 31
0.0
  0
LINE
  5
A1
330
A
100
AcDbEntity
  8
LAYER_1
 62
     7
100
AcDbLine
 10
34.4692138671875
 20
44.85893283420138
 30
0.0
 11
37.28247884114583
 21
40.44438747829861
 31
0.0
  0
LWPOLYLINE
  5
99
330
A
100
AcDbEntity
  8
LAYER_1
 62
     7
100
AcDbPolyline
 90
        6
 70
     0
 43
0.0
 10
34.11299099392361
 20
42.98583441840277
 10
37.28110080295139
 20
40.40270182291666
 10
81.34869520399305
 20
87.26840277777777
 10
81.34869520399305
 20
94.10553927951388
 10
34.4692138671875
 20
44.85893283420138
 10
25.98497721354167
 20
52.47500542534722
  0
LWPOLYLINE
  5
8D
330
A
100
AcDbEntity
  8
LAYER_1
 62
     7
100
AcDbPolyline
 90
       10
 70
     0
 43
0.0
 10
31.38860948350694
 20
45.08251953124999
 10
29.40354546440972
 20
47.88820529513888
 10
32.39113226996528
 20
45.33435601128472
 10
39.9979031032986
 20
34.58806966145833
 10
39.78396267361111
 20
32.72255045572916
 10
41.85653211805555
 20
32.92822265625
 10
41.76833767361111
 20
31.73759765625
 10
49.69756944444444
 20
20.88382432725694
 10
47.19539659288194
 20
23.13416069878472
 10
42.90935329861111
 20
28.89022623697916
  0
SPLINE
  5
8C
330
A
100
AcDbEntity
  8
LAYER_1
 62
     7
100
AcDbSpline
210
0.0
220
0.0
230
1.0
 70
     8
 71
     3
 72
    14
 73
    10
 74
     0
 42
0.0000000001
 43
0.0000000001
 40
0.0
 40
0.0
 40
0.0
 40
0.0
 40
1.0
 40
1.0
 40
1.0
 40
2.0
 40
2.0
 40
2.0
 40
3.0
 40
3.0
 40
3.0
 40
3.0
 10
105.9359971788194
 20
91.11933051215277
 30
0.0
 10
106.7576524522569
 20
91.24955512152776
 30
0.0
 10
108.0991726345486
 20
91.24955512152776
 30
0.0
 10
108.4023410373264
 20
90.90332302517361
 30
0.0
 10
108.7058539496528
 20
90.55674641927082
 30
0.0
 10
109.2219292534722
 20
90.0630642361111
 30
0.0
 10
109.8310221354167
 20
89.95109863281249
 30
0.0
 10
111.0006320529514
 20
89.73509114583332
 30
0.0
 10
110.4380479600694
 20
89.17250705295137
 30
0.0
 10
111.6059353298611
 20
89.17250705295137
 30
0.0
  0
LINE
  5
8B
330
A
100
AcDbEntity
  8
LAYER_1
 62
     7
100
AcDbLine
 10
111.5618381076389
 20
87.52747395833333
 30
0.0
 11
111.7781901041667
 21
93.02343478732638
 31
0.0
  0
LWPOLYLINE
  5
86
330
A
100
AcDbEntity
  8
LAYER_1
 62
     7
100
AcDbPolyline
 90
        3
 70
     0
 43
0.0
 10
110.9561903211805
 20
93.84646809895833
 10
111.7792236328125
 20
93.02343478732638
 10
103.2949869791667
 20
92.93730740017361
  0
LINE
  5
85
330
A
100
AcDbEntity
  8
LAYER_1
 62
     7
100
AcDbLine
 10
101.8663058810764
 20
93.80340440538194
 30
0.0
 11
132.773291015625
 21
93.88953179253471
 31
0.0
  0
LINE
  5
84
330
A
100
AcDbEntity
  8
LAYER_1
 62
     7
100
AcDbLine
 10
92.8194851345486
 20
99.73138020833332
 30
0.0
 11
135.9768853081597
 21
99.42924533420138
 31
0.0
  0
LWPOLYLINE
  5
7E
330
A
100
AcDbEntity
  8
LAYER_1
 62
     7
100
AcDbPolyline
 90
        4
 70
     0
 43
0.0
 10
80.15875922309027
 20
94.98403862847222
 10
105.9790608723958
 20
77.18460828993055
 10
117.5035942925347
 20
83.63382703993055
 10
91.65125325520833
 20
100.4672526041667
  0
LINE
  5
7D
330
A
100
AcDbEntity
  8
LAYER_1
 62
     7
100
AcDbLine
 10
52.30275065104166
 20
114.1856228298611
 30
0.0
 11
73.55623372395833
 21
99.53638780381944
 31
0.0
  0
LINE
  5
7C
330
A
100
AcDbEntity
  8
LAYER_1
 62
     7
100
AcDbLine
 10
54.94376085069444
 20
118.4702880859375
 30
0.0
 11
59.87093641493055
 21
115.1695421006944
 31
0.0
  0
SPLINE
  5
7B
330
A
100
AcDbEntity
  8
LAYER_1
 62
     7
100
AcDbSpline
210
0.0
220
0.0
230
1.0
 70
     8
 71
     3
 72
     8
 73
     4
 74
     0
 42
0.0000000001
 43
0.0000000001
 40
0.0
 40
0.0
 40
0.0
 40
0.0
 40
1.0
 40
1.0
 40
1.0
 40
1.0
 10
31.65525987413194
 20
111.6762152777778
 30
0.0
 10
34.46818033854166
 20
117.38818359375
 30
0.0
 10
42.47596028645833
 20
115.441015625
 30
0.0
 10
43.9046413845486
 20
112.6280951605903
 30
0.0
  0
SPLINE
  5
7A
330
A
100
AcDbEntity
  8
LAYER_1
 62
     7
100
AcDbSpline
210
0.0
220
0.0
230
1.0
 70
    11
 71
     3
 72
    11
 73
     7
 74
     0
 42
0.0000000001
 43
0.0000000001
 40
0.0
 40
0.0
 40
0.0
 40
0.0
 40
1.0
 40
1.0
 40
1.0
 40
2.0
 40
2.0
 40
2.0
 40
2.0
 10
44.07896321614583
 20
112.2818630642361
 30
0.0
 10
44.85789930555555
 20
112.8875108506944
 30
0.0
 10
43.99283582899305
 20
113.5789415147569
 30
0.0
 10
43.4733154296875
 20
113.14658203125
 30
0.0
 10
42.95379503038194
 20
112.7142225477431
 30
0.0
 10
43.3000271267361
 20
111.6762152777778
 30
0.0
 10
44.07896321614583
 20
112.2818630642361
 30
0.0
  0
HATCH
  5
79
330
A
100
AcDbEntity
  8
LAYER_1
 62
     7
100
AcDbHatch
 10
0.0
 20
0.0
 30
0.0
210
0.0
220
0.0
230
1.0
  2
SOLID
 70
     1
 71
     0
 91
        1
 92
        1
 93
        1
 72
     4
 94
        3
 73
     0
 74
     0
 95
       11
 96
        7
 40
0.0
 40
0.0
 40
0.0
 40
0.0
 40
1.0
 40
1.0
 40
1.0
 40
2.0
 40
2.0
 40
2.0
 40
2.0
 10
44.07896321614583
 20
112.2818630642361
 10
44.85789930555555
 20
112.8875108506944
 10
43.99283582899305
 20
113.5789415147569
 10
43.4733154296875
 20
113.14658203125
 10
42.95379503038194
 20
112.7142225477431
 10
43.3000271267361
 20
111.6762152777778
 10
44.07896321614583
 20
112.2818630642361
 97
        0
 75
     0
 76
     1
 98
        1
 10
0.0
 20
0.0
  0
LWPOLYLINE
  5
74
330
A
100
AcDbEntity
  8
LAYER_1
 62
     7
100
AcDbPolyline
 90
        3
 70
     1
 43
0.0
 10
38.92716742621528
 20
108.7761338975694
 10
40.18256022135417
 20
110.8962456597222
 10
41.56817762586805
 20
109.9013020833333
  0
HATCH
  5
73
330
A
100
AcDbEntity
  8
LAYER_1
 62
     7
100
AcDbHatch
 10
0.0
 20
0.0
 30
0.0
210
0.0
220
0.0
230
1.0
  2
SOLID
 70
     1
 71
     0
 91
        1
 92
        3
 72
     0
 73
     1
 93
        3
 10
38.92716742621528
 20
108.7761338975694
 10
40.18256022135417
 20
110.8962456597222
 10
41.56817762586805
 20
109.9013020833333
 97
        0
 75
     0
 76
     1
 98
        1
 10
0.0
 20
0.0
  0
LWPOLYLINE
  5
6E
330
A
100
AcDbEntity
  8
LAYER_1
 62
     7
100
AcDbPolyline
 90
        3
 70
     1
 43
0.0
 10
45.50764431423611
 20
115.3538547092014
 10
48.58101399739583
 20
116.5220865885417
 10
47.36834038628472
 20
114.0998399522569
  0
HATCH
  5
6D
330
A
100
AcDbEntity
  8
LAYER_1
 62
     7
100
AcDbHatch
 10
0.0
 20
0.0
 30
0.0
210
0.0
220
0.0
230
1.0
  2
SOLID
 70
     1
 71
     0
 91
        1
 92
        3
 72
     0
 73
     1
 93
        3
 10
45.50764431423611
 20
115.3538547092014
 10
48.58101399739583
 20
116.5220865885417
 10
47.36834038628472
 20
114.0998399522569
 97
        0
 75
     0
 76
     1
 98
        1
 10
0.0
 20
0.0
  0
LINE
  5
6C
330
A
100
AcDbEntity
  8
LAYER_1
 62
     7
100
AcDbLine
 10
46.45952419704861
 20
118.0365505642361
 30
0.0
 11
51.22064615885416
 21
114.7912706163194
 31
0.0
  0
LINE
  5
6B
330
A
100
AcDbEntity
  8
LAYER_1
 62
     7
100
AcDbLine
 10
40.61629774305555
 20
110.2475341796875
 30
0.0
 11
46.89188368055555
 21
115.1378472222222
 31
0.0
  0
LINE
  5
6A
330
A
100
AcDbEntity
  8
LAYER_1
 62
     7
100
AcDbLine
 10
33.90559624565972
 20
112.4120876736111
 30
0.0
 11
62.38895670572916
 21
91.68191460503472
 31
0.0
  0
SPLINE
  5
69
330
A
100
AcDbEntity
  8
LAYER_1
 62
     7
100
AcDbSpline
210
0.0
220
0.0
230
1.0
 70
    11
 71
     3
 72
    11
 73
     7
 74
     0
 42
0.0000000001
 43
0.0000000001
 40
0.0
 40
0.0
 40
0.0
 40
0.0
 40
1.0
 40
1.0
 40
1.0
 40
2.0
 40
2.0
 40
2.0
 40
2.0
 10
71.79475640190971
 20
53.86544596354166
 30
0.0
 10
71.79475640190971
 20
52.31997612847222
 30
0.0
 10
70.65959743923611
 20
52.54976399739583
 30
0.0
 10
70.65959743923611
 20
53.66769748263889
 30
0.0
 10
70.65959743923611
 20
54.78563096788194
 30
0.0
 10
71.79475640190971
 20
55.21420084635416
 30
0.0
 10
71.79475640190971
 20
53.86544596354166
 30
0.0
  0
SPLINE
  5
68
330
A
100
AcDbEntity
  8
LAYER_1
 62
     7
100
AcDbSpline
210
0.0
220
0.0
230
1.0
 70
    11
 71
     3
 72
    11
 73
     7
 74
     0
 42
0.0000000001
 43
0.0000000001
 40
0.0
 40
0.0
 40
0.0
 40
0.0
 40
1.0
 40
1.0
 40
1.0
 40
2.0
 40
2.0
 40
2.0
 40
2.0
 10
69.1585693359375
 20
64.80775824652777
 30
0.0
 10
69.1585693359375
 20
63.26228841145833
 30
0.0
 10
68.02341037326389
 20
63.49207628038194
 30
0.0
 10
68.02341037326389
 20
64.61000976562499
 30
0.0
 10
68.02341037326389
 20
65.72794325086805
 30
0.0
 10
69.1585693359375
 20
66.15651312934027
 30
0.0
 10
69.1585693359375
 20
64.80775824652777
 30
0.0
  0
SPLINE
  5
67
330
A
100
AcDbEntity
  8
LAYER_1
 62
     7
100
AcDbSpline
210
0.0
220
0.0
230
1.0
 70
    11
 71
     3
 72
    11
 73
     7
 74
     0
 42
0.0000000001
 43
0.0000000001
 40
0.0
 40
0.0
 40
0.0
 40
0.0
 40
1.0
 40
1.0
 40
1.0
 40
2.0
 40
2.0
 40
2.0
 40
2.0
 10
121.4609754774306
 20
102.9718370225694
 30
0.0
 10
122.9048149956597
 20
102.9718370225694
 30
0.0
 10
122.0590440538194
 20
103.8176079644097
 30
0.0
 10
121.2962999131944
 20
103.8176079644097
 30
0.0
 10
119.7914822048611
 20
103.8176079644097
 30
0.0
 10
120.2228081597222
 20
102.9718370225694
 30
0.0
 10
121.4609754774306
 20
102.9718370225694
 30
0.0
  0
SPLINE
  5
66
330
A
100
AcDbEntity
  8
LAYER_1
 62
     7
100
AcDbSpline
210
0.0
220
0.0
230
1.0
 70
    11
 71
     3
 72
    11
 73
     7
 74
     0
 42
0.0000000001
 43
0.0000000001
 40
0.0
 40
0.0
 40
0.0
 40
0.0
 40
1.0
 40
1.0
 40
1.0
 40
2.0
 40
2.0
 40
2.0
 40
2.0
 10
120.5531928168403
 20
102.2566351996528
 30
0.0
 10
121.9970323350694
 20
102.2566351996528
 30
0.0
 10
121.1512613932292
 20
103.1024061414931
 30
0.0
 10
120.3885172526042
 20
103.1024061414931
 30
0.0
 10
118.8840440538194
 20
103.1024061414931
 30
0.0
 10
119.3150254991319
 20
102.2566351996528
 30
0.0
 10
120.5531928168403
 20
102.2566351996528
 30
0.0
  0
SPLINE
  5
65
330
A
100
AcDbEntity
  8
LAYER_1
 62
     7
100
AcDbSpline
210
0.0
220
0.0
230
1.0
 70
    11
 71
     3
 72
    11
 73
     7
 74
     0
 42
0.0000000001
 43
0.0000000001
 40
0.0
 40
0.0
 40
0.0
 40
0.0
 40
1.0
 40
1.0
 40
1.0
 40
2.0
 40
2.0
 40
2.0
 40
2.0
 10
119.6095811631944
 20
101.3843370225694
 30
0.0
 10
121.0537651909722
 20
101.3843370225694
 30
0.0
 10
120.2079942491319
 20
102.2297634548611
 30
0.0
 10
119.4449055989583
 20
102.2297634548611
 30
0.0
 10
117.9404324001736
 20
102.2297634548611
 30
0.0
 10
118.3714138454861
 20
101.3843370225694
 30
0.0
 10
119.6095811631944
 20
101.3843370225694
 30
0.0
  0
SPLINE
  5
64
330
A
100
AcDbEntity
  8
LAYER_1
 62
     7
100
AcDbSpline
210
0.0
220
0.0
230
1.0
 70
    11
 71
     3
 72
    11
 73
     7
 74
     0
 42
0.0000000001
 43
0.0000000001
 40
0.0
 40
0.0
 40
0.0
 40
0.0
 40
1.0
 40
1.0
 40
1.0
 40
2.0
 40
2.0
 40
2.0
 40
2.0
 10
113.1648410373264
 20
102.982861328125
 30
0.0
 10
114.7692220052083
 20
102.982861328125
 30
0.0
 10
113.8293999565972
 20
103.9226833767361
 30
0.0
 10
112.9819064670139
 20
103.9226833767361
 30
0.0
 10
111.3100016276042
 20
103.9226833767361
 30
0.0
 10
111.7892144097222
 20
102.982861328125
 30
0.0
 10
113.1648410373264
 20
102.982861328125
 30
0.0
  0
SPLINE
  5
63
330
A
100
AcDbEntity
  8
LAYER_1
 62
     7
100
AcDbSpline
210
0.0
220
0.0
230
1.0
 70
    11
 71
     3
 72
    11
 73
     7
 74
     0
 42
0.0000000001
 43
0.0000000001
 40
0.0
 40
0.0
 40
0.0
 40
0.0
 40
1.0
 40
1.0
 40
1.0
 40
2.0
 40
2.0
 40
2.0
 40
2.0
 10
109.6604899088542
 20
101.86044921875
 30
0.0
 10
111.2645263671875
 20
101.86044921875
 30
0.0
 10
110.3247043185764
 20
102.7999267578125
 30
0.0
 10
109.4772108289931
 20
102.7999267578125
 30
0.0
 10
107.8053059895833
 20
102.7999267578125
 30
0.0
 10
108.2845187717014
 20
101.86044921875
 30
0.0
 10
109.6604899088542
 20
101.86044921875
 30
0.0
  0
SPLINE
  5
62
330
A
100
AcDbEntity
  8
LAYER_1
 62
     7
100
AcDbSpline
210
0.0
220
0.0
230
1.0
 70
    11
 71
     3
 72
    11
 73
     7
 74
     0
 42
0.0000000001
 43
0.0000000001
 40
0.0
 40
0.0
 40
0.0
 40
0.0
 40
1.0
 40
1.0
 40
1.0
 40
2.0
 40
2.0
 40
2.0
 40
2.0
 10
103.5664605034722
 20
103.0517632378472
 30
0.0
 10
105.1704969618055
 20
103.0517632378472
 30
0.0
 10
104.2310194227431
 20
103.9915852864583
 30
0.0
 10
103.3831814236111
 20
103.9915852864583
 30
0.0
 10
101.71162109375
 20
103.9915852864583
 30
0.0
 10
102.1904893663194
 20
103.0517632378472
 30
0.0
 10
103.5664605034722
 20
103.0517632378472
 30
0.0
  0
SPLINE
  5
61
330
A
100
AcDbEntity
  8
LAYER_1
 62
     7
100
AcDbSpline
210
0.0
220
0.0
230
1.0
 70
    11
 71
     3
 72
    11
 73
     7
 74
     0
 42
0.0000000001
 43
0.0000000001
 40
0.0
 40
0.0
 40
0.0
 40
0.0
 40
1.0
 40
1.0
 40
1.0
 40
2.0
 40
2.0
 40
2.0
 40
2.0
 10
100.2446994357639
 20
102.1119411892361
 30
0.0
 10
101.8490804036458
 20
102.1119411892361
 30
0.0
 10
100.9092583550347
 20
103.0517632378472
 30
0.0
 10
100.0617648654514
 20
103.0517632378472
 30
0.0
 10
98.38986002604166
 20
103.0517632378472
 30
0.0
 10
98.86907280815971
 20
102.1119411892361
 30
0.0
 10
100.2446994357639
 20
102.1119411892361
 30
0.0
  0
SPLINE
  5
60
330
A
100
AcDbEntity
  8
LAYER_1
 62
     7
100
AcDbSpline
210
0.0
220
0.0
230
1.0
 70
    11
 71
     3
 72
    11
 73
     7
 74
     0
 42
0.0000000001
 43
0.0000000001
 40
0.0
 40
0.0
 40
0.0
 40
0.0
 40
1.0
 40
1.0
 40
1.0
 40
2.0
 40
2.0
 40
2.0
 40
2.0
 10
67.06153971354166
 20
85.37566731770832
 30
0.0
 10
68.96564398871527
 20
85.37566731770832
 30
0.0
 10
69.30601942274305
 20
87.14334581163193
 30
0.0
 10
68.01376410590277
 20
87.14334581163193
 30
0.0
 10
66.38251139322917
 20
87.14334581163193
 30
0.0
 10
65.99045952690972
 20
85.37566731770832
 30
0.0
 10
67.06153971354166
 20
85.37566731770832
 30
0.0
  0
SPLINE
  5
5F
330
A
100
AcDbEntity
  8
LAYER_1
 62
     7
100
AcDbSpline
210
0.0
220
0.0
230
1.0
 70
    11
 71
     3
 72
    11
 73
     7
 74
     0
 42
0.0000000001
 43
0.0000000001
 40
0.0
 40
0.0
 40
0.0
 40
0.0
 40
1.0
 40
1.0
 40
1.0
 40
2.0
 40
2.0
 40
2.0
 40
2.0
 10
59.44718967013888
 20
81.87476128472221
 30
0.0
 10
61.35094943576388
 20
81.87476128472221
 30
0.0
 10
61.69132486979166
 20
83.64243977864582
 30
0.0
 10
60.39906955295138
 20
83.64243977864582
 30
0.0
 10
58.76781684027777
 20
83.64243977864582
 30
0.0
 10
58.37576497395833
 20
81.87476128472221
 30
0.0
 10
59.44718967013888
 20
81.87476128472221
 30
0.0
  0
SPLINE
  5
5E
330
A
100
AcDbEntity
  8
LAYER_1
 62
     7
100
AcDbSpline
210
0.0
220
0.0
230
1.0
 70
    11
 71
     3
 72
    11
 73
     7
 74
     0
 42
0.0000000001
 43
0.0000000001
 40
0.0
 40
0.0
 40
0.0
 40
0.0
 40
1.0
 40
1.0
 40
1.0
 40
2.0
 40
2.0
 40
2.0
 40
2.0
 10
56.84648708767361
 20
74.58321668836805
 30
0.0
 10
58.75059136284722
 20
74.58321668836805
 30
0.0
 10
59.09096679687499
 20
76.35089518229167
 30
0.0
 10
57.79871148003472
 20
76.35089518229167
 30
0.0
 10
56.1674587673611
 20
76.35089518229167
 30
0.0
 10
55.77540690104166
 20
74.58321668836805
 30
0.0
 10
56.84648708767361
 20
74.58321668836805
 30
0.0
  0
SPLINE
  5
5D
330
A
100
AcDbEntity
  8
LAYER_1
 62
     7
100
AcDbSpline
210
0.0
220
0.0
230
1.0
 70
    11
 71
     3
 72
    11
 73
     7
 74
     0
 42
0.0000000001
 43
0.0000000001
 40
0.0
 40
0.0
 40
0.0
 40
0.0
 40
1.0
 40
1.0
 40
1.0
 40
2.0
 40
2.0
 40
2.0
 40
2.0
 10
48.6202880859375
 20
70.70748426649305
 30
0.0
 10
50.52404785156249
 20
70.70748426649305
 30
0.0
 10
50.86442328559027
 20
72.47516276041667
 30
0.0
 10
49.57216796874999
 20
72.47516276041667
 30
0.0
 10
47.94091525607639
 20
72.47516276041667
 30
0.0
 10
47.54886338975694
 20
70.70748426649305
 30
0.0
 10
48.6202880859375
 20
70.70748426649305
 30
0.0
  0
SPLINE
  5
5C
330
A
100
AcDbEntity
  8
LAYER_1
 62
     7
100
AcDbSpline
210
0.0
220
0.0
230
1.0
 70
    11
 71
     3
 72
    11
 73
     7
 74
     0
 42
0.0000000001
 43
0.0000000001
 40
0.0
 40
0.0
 40
0.0
 40
0.0
 40
1.0
 40
1.0
 40
1.0
 40
2.0
 40
2.0
 40
2.0
 40
2.0
 10
45.47560492621528
 20
62.85473361545138
 30
0.0
 10
47.37970920138888
 20
62.85473361545138
 30
0.0
 10
47.71974012586805
 20
64.62241210937499
 30
0.0
 10
46.42748480902777
 20
64.62241210937499
 30
0.0
 10
44.79623209635416
 20
64.62241210937499
 30
0.0
 10
44.40452473958333
 20
62.85473361545138
 30
0.0
 10
45.47560492621528
 20
62.85473361545138
 30
0.0
  0
SPLINE
  5
5B
330
A
100
AcDbEntity
  8
LAYER_1
 62
     7
100
AcDbSpline
210
0.0
220
0.0
230
1.0
 70
    11
 71
     3
 72
    11
 73
     7
 74
     0
 42
0.0000000001
 43
0.0000000001
 40
0.0
 40
0.0
 40
0.0
 40
0.0
 40
1.0
 40
1.0
 40
1.0
 40
2.0
 40
2.0
 40
2.0
 40
2.0
 10
41.07449544270833
 20
61.06982964409722
 30
0.0
 10
42.97825520833333
 20
61.06982964409722
 30
0.0
 10
43.31863064236111
 20
62.83750813802083
 30
0.0
 10
42.02637532552083
 20
62.83750813802083
 30
0.0
 10
40.39512261284722
 20
62.83750813802083
 30
0.0
 10
40.00307074652778
 20
61.06982964409722
 30
0.0
 10
41.07449544270833
 20
61.06982964409722
 30
0.0
  0
SPLINE
  5
5A
330
A
100
AcDbEntity
  8
LAYER_1
 62
     7
100
AcDbSpline
210
0.0
220
0.0
230
1.0
 70
    11
 71
     3
 72
    11
 73
     7
 74
     0
 42
0.0000000001
 43
0.0000000001
 40
0.0
 40
0.0
 40
0.0
 40
0.0
 40
1.0
 40
1.0
 40
1.0
 40
2.0
 40
2.0
 40
2.0
 40
2.0
 10
37.01203884548611
 20
58.94592827690972
 30
0.0
 10
38.91614312065972
 20
58.94592827690972
 30
0.0
 10
39.25617404513888
 20
60.71360677083333
 30
0.0
 10
37.96391872829861
 20
60.71360677083333
 30
0.0
 10
36.33266601562499
 20
60.71360677083333
 30
0.0
 10
35.94095865885416
 20
58.94592827690972
 30
0.0
 10
37.01203884548611
 20
58.94592827690972
 30
0.0
  0
HATCH
  5
59
330
A
100
AcDbEntity
  8
LAYER_1
 62
     7
100
AcDbHatch
 10
0.0
 20
0.0
 30
0.0
210
0.0
220
0.0
230
1.0
  2
SOLID
 70
     1
 71
     0
 91
        3
 92
       16
 93
        1
 72
     4
 94
        3
 73
     0
 74
     0
 95
       20
 96
       16
 40
0.0
 40
0.0
 40
0.0
 40
0.0
 40
1.0
 40
1.0
 40
1.0
 40
2.0
 40
2.0
 40
2.0
 40
3.0
 40
3.0
 40
3.0
 40
4.0
 40
4.0
 40
4.0
 40
5.0
 40
5.0
 40
5.0
 40
5.0
 10
71.0564724392361
 20
126.559716796875
 10
71.0564724392361
 20
126.559716796875
 10
72.18646375868055
 20
126.559716796875
 10
72.18646375868055
 20
126.559716796875
 10
72.73802354600694
 20
126.559716796875
 10
73.01673177083333
 20
126.8380805121528
 10
73.01673177083333
 20
127.2749186197917
 10
73.01673177083333
 20
127.8264784071181
 10
72.53062879774305
 20
127.9356879340278
 10
72.09930284288194
 20
127.9356879340278
 10
72.09930284288194
 20
127.9356879340278
 10
71.0564724392361
 20
127.9356879340278
 10
71.0564724392361
 20
127.9356879340278
 10
71.0564724392361
 20
127.9356879340278
 10
71.0564724392361
 20
126.559716796875
 10
71.0564724392361
 20
126.559716796875
 97
        0
 92
       16
 93
        1
 72
     4
 94
        3
 73
     0
 74
     0
 95
       20
 96
       16
 40
0.0
 40
0.0
 40
0.0
 40
0.0
 40
1.0
 40
1.0
 40
1.0
 40
2.0
 40
2.0
 40
2.0
 40
3.0
 40
3.0
 40
3.0
 40
4.0
 40
4.0
 40
4.0
 40
5.0
 40
5.0
 40
5.0
 40
5.0
 10
71.0564724392361
 20
128.3670138888889
 10
71.0564724392361
 20
128.3670138888889
 10
72.01179741753471
 20
128.3670138888889
 10
72.01179741753471
 20
128.3670138888889
 10
72.5196044921875
 20
128.3670138888889
 10
72.83104112413194
 20
128.5199761284722
 10
72.83104112413194
 20
129.0005669487847
 10
72.83104112413194
 20
129.3664360894097
 10
72.60710991753471
 20
129.5738308376736
 10
72.01730957031249
 20
129.5738308376736
 10
72.01730957031249
 20
129.5738308376736
 10
71.0564724392361
 20
129.5738308376736
 10
71.0564724392361
 20
129.5738308376736
 10
71.0564724392361
 20
129.5738308376736
 10
71.0564724392361
 20
128.3670138888889
 10
71.0564724392361
 20
128.3670138888889
 97
        0
 92
        1
 93
        1
 72
     4
 94
        3
 73
     0
 74
     0
 95
       26
 96
       22
 40
0.0
 40
0.0
 40
0.0
 40
0.0
 40
1.0
 40
1.0
 40
1.0
 40
2.0
 40
2.0
 40
2.0
 40
3.0
 40
3.0
 40
3.0
 40
4.0
 40
4.0
 40
4.0
 40
5.0
 40
5.0
 40
5.0
 40
6.0
 40
6.0
 40
6.0
 40
7.0
 40
7.0
 40
7.0
 40
7.0
 10
70.52661675347221
 20
130.0268608940972
 10
70.52661675347221
 20
130.0268608940972
 10
72.25226508246527
 20
130.0268608940972
 10
72.25226508246527
 20
130.0268608940972
 10
72.98365885416666
 20
130.0268608940972
 10
73.36055230034721
 20
129.5738308376736
 10
73.36055230034721
 20
129.0388075086806
 10
73.36055230034721
 20
128.7821478949653
 10
73.26787923177082
 20
128.421790907118
 10
72.83655327690971
 20
128.2195638020833
 10
73.09286838107639
 20
128.1158664279514
 10
73.54624294704861
 20
127.9356879340278
 10
73.54624294704861
 20
127.2642388237847
 10
73.54624294704861
 20
126.6361979166667
 10
73.08218858506943
 20
126.1063422309028
 10
72.21402452256943
 20
126.1063422309028
 10
72.21402452256943
 20
126.1063422309028
 10
70.52661675347221
 20
126.1063422309028
 10
70.52661675347221
 20
126.1063422309028
 10
70.52661675347221
 20
126.1063422309028
 10
70.52661675347221
 20
130.0268608940972
 10
70.52661675347221
 20
130.0268608940972
 97
        0
 75
     0
 76
     1
 98
        1
 10
0.0
 20
0.0
  0
HATCH
  5
58
330
A
100
AcDbEntity
  8
LAYER_1
 62
     7
100
AcDbHatch
 10
0.0
 20
0.0
 30
0.0
210
0.0
220
0.0
230
1.0
  2
SOLID
 70
     1
 71
     0
 91
        1
 92
        1
 93
        1
 72
     4
 94
        3
 73
     0
 74
     0
 95
       41
 96
       37
 40
0.0
 40
0.0
 40
0.0
 40
0.0
 40
1.0
 40
1.0
 40
1.0
 40
2.0
 40
2.0
 40
2.0
 40
3.0
 40
3.0
 40
3.0
 40
4.0
 40
4.0
 40
4.0
 40
5.0
 40
5.0
 40
5.0
 40
6.0
 40
6.0
 40
6.0
 40
7.0
 40
7.0
 40
7.0
 40
8.0
 40
8.0
 40
8.0
 40
9.0
 40
9.0
 40
9.0
 40
10.0
 40
10.0
 40
10.0
 40
11.0
 40
11.0
 40
11.0
 40
12.0
 40
12.0
 40
12.0
 40
12.0
 10
77.1274197048611
 20
126.1063422309028
 10
77.1274197048611
 20
126.1063422309028
 10
74.23353949652777
 20
126.1063422309028
 10
74.23353949652777
 20
126.1063422309028
 10
74.23353949652777
 20
126.1063422309028
 10
74.23353949652777
 20
130.0268608940972
 10
74.23353949652777
 20
130.0268608940972
 10
74.23353949652777
 20
130.0268608940972
 10
77.08917914496527
 20
130.0268608940972
 10
77.08917914496527
 20
130.0268608940972
 10
77.08917914496527
 20
130.0268608940972
 10
77.08917914496527
 20
129.5572943793403
 10
77.08917914496527
 20
129.5572943793403
 10
77.08917914496527
 20
129.5572943793403
 10
74.76339518229166
 20
129.5572943793403
 10
74.76339518229166
 20
129.5572943793403
 10
74.76339518229166
 20
129.5572943793403
 10
74.76339518229166
 20
128.3559895833333
 10
74.76339518229166
 20
128.3559895833333
 10
74.76339518229166
 20
128.3559895833333
 10
76.90900065104167
 20
128.3559895833333
 10
76.90900065104167
 20
128.3559895833333
 10
76.90900065104167
 20
128.3559895833333
 10
76.90900065104167
 20
127.8864230685764
 10
76.90900065104167
 20
127.8864230685764
 10
76.90900065104167
 20
127.8864230685764
 10
74.76339518229166
 20
127.8864230685764
 10
74.76339518229166
 20
127.8864230685764
 10
74.76339518229166
 20
127.8864230685764
 10
74.76339518229166
 20
126.5759087456597
 10
74.76339518229166
 20
126.5759087456597
 10
74.76339518229166
 20
126.5759087456597
 10
77.1274197048611
 20
126.5759087456597
 10
77.1274197048611
 20
126.5759087456597
 10
77.1274197048611
 20
126.5759087456597
 10
77.1274197048611
 20
126.1063422309028
 10
77.1274197048611
 20
126.1063422309028
 97
        0
 75
     0
 76
     1
 98
        1
 10
0.0
 20
0.0
  0
HATCH
  5
57
330
A
100
AcDbEntity
  8
LAYER_1
 62
     7
100
AcDbHatch
 10
0.0
 20
0.0
 30
0.0
210
0.0
220
0.0
230
1.0
  2
SOLID
 70
     1
 71
     0
 91
        2
 92
       16
 93
        1
 72
     4
 94
        3
 73
     0
 74
     0
 95
       17
 96
       13
 40
0.0
 40
0.0
 40
0.0
 40
0.0
 40
1.0
 40
1.0
 40
1.0
 40
2.0
 40
2.0
 40
2.0
 40
3.0
 40
3.0
 40
3.0
 40
4.0
 40
4.0
 40
4.0
 40
4.0
 10
79.81872829861111
 20
127.7172688802083
 10
79.81872829861111
 20
127.7172688802083
 10
79.23995225694443
 20
129.4425726996528
 10
79.23995225694443
 20
129.4425726996528
 10
79.23995225694443
 20
129.4425726996528
 10
79.22892795138888
 20
129.4425726996528
 10
79.22892795138888
 20
129.4425726996528
 10
79.22892795138888
 20
129.4425726996528
 10
78.60123155381943
 20
127.7172688802083
 10
78.60123155381943
 20
127.7172688802083
 10
78.60123155381943
 20
127.7172688802083
 10
79.81872829861111
 20
127.7172688802083
 10
79.81872829861111
 20
127.7172688802083
 97
        0
 92
        1
 93
        1
 72
     4
 94
        3
 73
     0
 74
     0
 95
       29
 96
       25
 40
0.0
 40
0.0
 40
0.0
 40
0.0
 40
1.0
 40
1.0
 40
1.0
 40
2.0
 40
2.0
 40
2.0
 40
3.0
 40
3.0
 40
3.0
 40
4.0
 40
4.0
 40
4.0
 40
5.0
 40
5.0
 40
5.0
 40
6.0
 40
6.0
 40
6.0
 40
7.0
 40
7.0
 40
7.0
 40
8.0
 40
8.0
 40
8.0
 40
8.0
 10
78.43724500868055
 20
127.2477023654514
 10
78.43724500868055
 20
127.2477023654514
 10
78.02796766493054
 20
126.1063422309028
 10
78.02796766493054
 20
126.1063422309028
 10
78.02796766493054
 20
126.1063422309028
 10
77.48192003038194
 20
126.1063422309028
 10
77.48192003038194
 20
126.1063422309028
 10
77.48192003038194
 20
126.1063422309028
 10
78.95607638888889
 20
130.0268608940972
 10
78.95607638888889
 20
130.0268608940972
 10
78.95607638888889
 20
130.0268608940972
 10
79.55655653211805
 20
130.0268608940972
 10
79.55655653211805
 20
130.0268608940972
 10
79.55655653211805
 20
130.0268608940972
 10
80.97628038194443
 20
126.1063422309028
 10
80.97628038194443
 20
126.1063422309028
 10
80.97628038194443
 20
126.1063422309028
 10
80.39750434027778
 20
126.1063422309028
 10
80.39750434027778
 20
126.1063422309028
 10
80.39750434027778
 20
126.1063422309028
 10
80.00993109809028
 20
127.2477023654514
 10
80.00993109809028
 20
127.2477023654514
 10
80.00993109809028
 20
127.2477023654514
 10
78.43724500868055
 20
127.2477023654514
 10
78.43724500868055
 20
127.2477023654514
 97
        0
 75
     0
 76
     1
 98
        1
 10
0.0
 20
0.0
  0
HATCH
  5
56
330
A
100
AcDbEntity
  8
LAYER_1
 62
     7
100
AcDbHatch
 10
0.0
 20
0.0
 30
0.0
210
0.0
220
0.0
230
1.0
  2
SOLID
 70
     1
 71
     0
 91
        1
 92
        1
 93
        1
 72
     4
 94
        3
 73
     0
 74
     0
 95
       59
 96
       55
 40
0.0
 40
0.0
 40
0.0
 40
0.0
 40
1.0
 40
1.0
 40
1.0
 40
2.0
 40
2.0
 40
2.0
 40
3.0
 40
3.0
 40
3.0
 40
4.0
 40
4.0
 40
4.0
 40
5.0
 40
5.0
 40
5.0
 40
6.0
 40
6.0
 40
6.0
 40
7.0
 40
7.0
 40
7.0
 40
8.0
 40
8.0
 40
8.0
 40
9.0
 40
9.0
 40
9.0
 40
10.0
 40
10.0
 40
10.0
 40
11.0
 40
11.0
 40
11.0
 40
12.0
 40
12.0
 40
12.0
 40
13.0
 40
13.0
 40
13.0
 40
14.0
 40
14.0
 40
14.0
 40
15.0
 40
15.0
 40
15.0
 40
16.0
 40
16.0
 40
16.0
 40
17.0
 40
17.0
 40
17.0
 40
18.0
 40
18.0
 40
18.0
 40
18.0
 10
84.68871527777777
 20
126.1063422309028
 10
84.68871527777777
 20
126.1063422309028
 10
84.68871527777777
 20
128.421790907118
 10
84.68871527777777
 20
128.421790907118
 10
84.68871527777777
 20
128.536168077257
 10
84.69973958333333
 20
129.0332953559028
 10
84.69973958333333
 20
129.3991644965278
 10
84.69973958333333
 20
129.3991644965278
 10
84.68871527777777
 20
129.3991644965278
 10
84.68871527777777
 20
129.3991644965278
 10
84.68871527777777
 20
129.3991644965278
 10
83.58559570312499
 20
126.1063422309028
 10
83.58559570312499
 20
126.1063422309028
 10
83.58559570312499
 20
126.1063422309028
 10
83.0615966796875
 20
126.1063422309028
 10
83.0615966796875
 20
126.1063422309028
 10
83.0615966796875
 20
126.1063422309028
 10
81.95847710503472
 20
129.39365234375
 10
81.95847710503472
 20
129.39365234375
 10
81.95847710503472
 20
129.39365234375
 10
81.94745279947917
 20
129.39365234375
 10
81.94745279947917
 20
129.39365234375
 10
81.94745279947917
 20
129.0332953559028
 10
81.95847710503472
 20
128.536168077257
 10
81.95847710503472
 20
128.421790907118
 10
81.95847710503472
 20
128.421790907118
 10
81.95847710503472
 20
126.1063422309028
 10
81.95847710503472
 20
126.1063422309028
 10
81.95847710503472
 20
126.1063422309028
 10
81.44550238715277
 20
126.1063422309028
 10
81.44550238715277
 20
126.1063422309028
 10
81.44550238715277
 20
126.1063422309028
 10
81.44550238715277
 20
130.0268608940972
 10
81.44550238715277
 20
130.0268608940972
 10
81.44550238715277
 20
130.0268608940972
 10
82.20445692274305
 20
130.0268608940972
 10
82.20445692274305
 20
130.0268608940972
 10
82.20445692274305
 20
130.0268608940972
 10
83.32376844618055
 20
126.7126790364583
 10
83.32376844618055
 20
126.7126790364583
 10
83.32376844618055
 20
126.7126790364583
 10
83.33444824218749
 20
126.7126790364583
 10
83.33444824218749
 20
126.7126790364583
 10
83.33444824218749
 20
126.7126790364583
 10
84.44859212239582
 20
130.0268608940972
 10
84.44859212239582
 20
130.0268608940972
 10
84.44859212239582
 20
130.0268608940972
 10
85.20203450520833
 20
130.0268608940972
 10
85.20203450520833
 20
130.0268608940972
 10
85.20203450520833
 20
130.0268608940972
 10
85.20203450520833
 20
126.1063422309028
 10
85.20203450520833
 20
126.1063422309028
 10
85.20203450520833
 20
126.1063422309028
 10
84.68871527777777
 20
126.1063422309028
 10
84.68871527777777
 20
126.1063422309028
 97
        0
 75
     0
 76
     1
 98
        1
 10
0.0
 20
0.0
  0
HATCH
  5
55
330
A
100
AcDbEntity
  8
LAYER_1
 62
     7
100
AcDbHatch
 10
0.0
 20
0.0
 30
0.0
210
0.0
220
0.0
230
1.0
  2
SOLID
 70
     1
 71
     0
 91
        2
 92
       16
 93
        1
 72
     4
 94
        3
 73
     0
 74
     0
 95
       20
 96
       16
 40
0.0
 40
0.0
 40
0.0
 40
0.0
 40
1.0
 40
1.0
 40
1.0
 40
2.0
 40
2.0
 40
2.0
 40
3.0
 40
3.0
 40
3.0
 40
4.0
 40
4.0
 40
4.0
 40
5.0
 40
5.0
 40
5.0
 40
5.0
 10
89.20661349826388
 20
127.564306640625
 10
89.13013237847221
 20
127.5043619791667
 10
89.00989854600694
 20
127.460609266493
 10
88.41493055555554
 20
127.3841281467014
 10
88.17997504340276
 20
127.3513997395833
 10
87.80342610677083
 20
127.2804307725694
 10
87.80342610677083
 20
126.9200737847222
 10
87.80342610677083
 20
126.6089816623264
 10
87.96155598958333
 20
126.423291015625
 10
88.32191297743054
 20
126.423291015625
 10
88.76977539062499
 20
126.423291015625
 10
89.20661349826388
 20
126.7126790364583
 10
89.20661349826388
 20
127.094740125868
 10
89.20661349826388
 20
127.094740125868
 10
89.20661349826388
 20
127.564306640625
 10
89.20661349826388
 20
127.564306640625
 97
        0
 92
        1
 93
        1
 72
     4
 94
        3
 73
     0
 74
     0
 95
       53
 96
       49
 40
0.0
 40
0.0
 40
0.0
 40
0.0
 40
1.0
 40
1.0
 40
1.0
 40
2.0
 40
2.0
 40
2.0
 40
3.0
 40
3.0
 40
3.0
 40
4.0
 40
4.0
 40
4.0
 40
5.0
 40
5.0
 40
5.0
 40
6.0
 40
6.0
 40
6.0
 40
7.0
 40
7.0
 40
7.0
 40
8.0
 40
8.0
 40
8.0
 40
9.0
 40
9.0
 40
9.0
 40
10.0
 40
10.0
 40
10.0
 40
11.0
 40
11.0
 40
11.0
 40
12.0
 40
12.0
 40
12.0
 40
13.0
 40
13.0
 40
13.0
 40
14.0
 40
14.0
 40
14.0
 40
15.0
 40
15.0
 40
15.0
 40
16.0
 40
16.0
 40
16.0
 40
16.0
 10
87.44823676215277
 20
128.0941623263889
 10
87.47028537326388
 20
128.7766357421875
 10
87.92331542968749
 20
129.0443196614583
 10
88.62783745659722
 20
129.0443196614583
 10
88.85728081597222
 20
129.0443196614583
 10
89.68720431857638
 20
128.9785183376736
 10
89.68720431857638
 20
128.2471245659722
 10
89.68720431857638
 20
128.2471245659722
 10
89.68720431857638
 20
126.6034695095486
 10
89.68720431857638
 20
126.6034695095486
 10
89.68720431857638
 20
126.4832356770833
 10
89.74714898003471
 20
126.4339708116319
 10
89.84533420138888
 20
126.4339708116319
 10
89.88908691406249
 20
126.4339708116319
 10
89.94903157552082
 20
126.4449951171875
 10
90.00380859374999
 20
126.456019422743
 10
90.00380859374999
 20
126.456019422743
 10
90.00380859374999
 20
126.1063422309028
 10
90.00380859374999
 20
126.1063422309028
 10
89.92181532118055
 20
126.0846381293403
 10
89.85084635416666
 20
126.0519097222222
 10
89.74163682725694
 20
126.0519097222222
 10
89.3158230251736
 20
126.0519097222222
 10
89.25036621093749
 20
126.2703287760417
 10
89.23382975260415
 20
126.4887478298611
 10
89.04813910590276
 20
126.286865234375
 10
88.75875108506943
 20
126.0246934678819
 10
88.20202365451388
 20
126.0246934678819
 10
87.67768012152777
 20
126.0246934678819
 10
87.30629882812499
 20
126.3578342013889
 10
87.30629882812499
 20
126.8491048177083
 10
87.30629882812499
 20
127.0892279730903
 10
87.37726779513888
 20
127.6462999131944
 10
88.17446289062499
 20
127.7444851345486
 10
88.17446289062499
 20
127.7444851345486
 10
88.96649034288194
 20
127.8430148654514
 10
88.96649034288194
 20
127.8430148654514
 10
89.08086751302082
 20
127.8536946614583
 10
89.21763780381944
 20
127.8974473741319
 10
89.21763780381944
 20
128.1813232421875
 10
89.21763780381944
 20
128.4817355685764
 10
88.99921875
 20
128.6453776041667
 10
88.54584418402777
 20
128.6453776041667
 10
87.99979654947916
 20
128.6453776041667
 10
87.92331542968749
 20
128.3125813802083
 10
87.89058702256943
 20
128.0941623263889
 10
87.89058702256943
 20
128.0941623263889
 10
87.44823676215277
 20
128.0941623263889
 10
87.44823676215277
 20
128.0941623263889
 97
        0
 75
     0
 76
     1
 98
        1
 10
0.0
 20
0.0
  0
HATCH
  5
54
330
A
100
AcDbEntity
  8
LAYER_1
 62
     7
100
AcDbHatch
 10
0.0
 20
0.0
 30
0.0
210
0.0
220
0.0
230
1.0
  2
SOLID
 70
     1
 71
     0
 91
        1
 92
        1
 93
        1
 72
     4
 94
        3
 73
     0
 74
     0
 95
       44
 96
       40
 40
0.0
 40
0.0
 40
0.0
 40
0.0
 40
1.0
 40
1.0
 40
1.0
 40
2.0
 40
2.0
 40
2.0
 40
3.0
 40
3.0
 40
3.0
 40
4.0
 40
4.0
 40
4.0
 40
5.0
 40
5.0
 40
5.0
 40
6.0
 40
6.0
 40
6.0
 40
7.0
 40
7.0
 40
7.0
 40
8.0
 40
8.0
 40
8.0
 40
9.0
 40
9.0
 40
9.0
 40
10.0
 40
10.0
 40
10.0
 40
11.0
 40
11.0
 40
11.0
 40
12.0
 40
12.0
 40
12.0
 40
13.0
 40
13.0
 40
13.0
 40
13.0
 10
92.82568630642361
 20
126.1063422309028
 10
92.82568630642361
 20
126.1063422309028
 10
92.34509548611111
 20
126.1063422309028
 10
92.34509548611111
 20
126.1063422309028
 10
92.34509548611111
 20
126.1063422309028
 10
92.34509548611111
 20
127.8647189670139
 10
92.34509548611111
 20
127.8647189670139
 10
92.34509548611111
 20
128.3615017361111
 10
92.20315755208333
 20
128.6126491970486
 10
91.73359103732638
 20
128.6126491970486
 10
91.46073947482638
 20
128.6126491970486
 10
90.98014865451388
 20
128.4379828559028
 10
90.98014865451388
 20
127.6628363715278
 10
90.98014865451388
 20
127.6628363715278
 10
90.98014865451388
 20
126.1063422309028
 10
90.98014865451388
 20
126.1063422309028
 10
90.98014865451388
 20
126.1063422309028
 10
90.49955783420138
 20
126.1063422309028
 10
90.49955783420138
 20
126.1063422309028
 10
90.49955783420138
 20
126.1063422309028
 10
90.49955783420138
 20
128.9623263888889
 10
90.49955783420138
 20
128.9623263888889
 10
90.49955783420138
 20
128.9623263888889
 10
90.95293240017361
 20
128.9623263888889
 10
90.95293240017361
 20
128.9623263888889
 10
90.95293240017361
 20
128.9623263888889
 10
90.95293240017361
 20
128.5582166883681
 10
90.95293240017361
 20
128.5582166883681
 10
90.95293240017361
 20
128.5582166883681
 10
90.96361219618055
 20
128.5582166883681
 10
90.96361219618055
 20
128.5582166883681
 10
91.0676540798611
 20
128.7111789279514
 10
91.33499348958333
 20
129.0443196614583
 10
91.82660861545138
 20
129.0443196614583
 10
92.26895887586805
 20
129.0443196614583
 10
92.82568630642361
 20
128.8637966579861
 10
92.82568630642361
 20
128.0504096137153
 10
92.82568630642361
 20
128.0504096137153
 10
92.82568630642361
 20
126.1063422309028
 10
92.82568630642361
 20
126.1063422309028
 97
        0
 75
     0
 76
     1
 98
        1
 10
0.0
 20
0.0
  0
HATCH
  5
53
330
A
100
AcDbEntity
  8
LAYER_1
 62
     7
100
AcDbHatch
 10
0.0
 20
0.0
 30
0.0
210
0.0
220
0.0
230
1.0
  2
SOLID
 70
     1
 71
     0
 91
        2
 92
       16
 93
        1
 72
     4
 94
        3
 73
     0
 74
     0
 95
       17
 96
       13
 40
0.0
 40
0.0
 40
0.0
 40
0.0
 40
1.0
 40
1.0
 40
1.0
 40
2.0
 40
2.0
 40
2.0
 40
3.0
 40
3.0
 40
3.0
 40
4.0
 40
4.0
 40
4.0
 40
4.0
 10
94.63746202256944
 20
126.4394829644097
 10
94.9433865017361
 20
126.4394829644097
 10
95.41846516927083
 20
126.6417100694444
 10
95.41846516927083
 20
127.4006646050347
 10
95.41846516927083
 20
127.8647189670139
 10
95.34198404947915
 20
128.6126491970486
 10
94.64848632812499
 20
128.6126491970486
 10
93.90572374131943
 20
128.6126491970486
 10
93.86748318142361
 20
127.9084716796875
 10
93.86748318142361
 20
127.5426025390625
 10
93.86748318142361
 20
126.9145616319444
 10
94.11346299913194
 20
126.4394829644097
 10
94.63746202256944
 20
126.4394829644097
 97
        0
 92
        1
 93
        1
 72
     4
 94
        3
 73
     0
 74
     0
 95
       38
 96
       34
 40
0.0
 40
0.0
 40
0.0
 40
0.0
 40
1.0
 40
1.0
 40
1.0
 40
2.0
 40
2.0
 40
2.0
 40
3.0
 40
3.0
 40
3.0
 40
4.0
 40
4.0
 40
4.0
 40
5.0
 40
5.0
 40
5.0
 40
6.0
 40
6.0
 40
6.0
 40
7.0
 40
7.0
 40
7.0
 40
8.0
 40
8.0
 40
8.0
 40
9.0
 40
9.0
 40
9.0
 40
10.0
 40
10.0
 40
10.0
 40
11.0
 40
11.0
 40
11.0
 40
11.0
 10
95.90422363281249
 20
126.1063422309028
 10
95.90422363281249
 20
126.1063422309028
 10
95.45119357638887
 20
126.1063422309028
 10
95.45119357638887
 20
126.1063422309028
 10
95.45119357638887
 20
126.1063422309028
 10
95.45119357638887
 20
126.4997721354167
 10
95.45119357638887
 20
126.4997721354167
 10
95.45119357638887
 20
126.4997721354167
 10
95.44016927083332
 20
126.4997721354167
 10
95.44016927083332
 20
126.4997721354167
 10
95.23277452256944
 20
126.1118543836805
 10
94.90514594184027
 20
126.0246934678819
 10
94.6267822265625
 20
126.0246934678819
 10
93.65457628038193
 20
126.0246934678819
 10
93.37070041232639
 20
126.9366102430555
 10
93.37070041232639
 20
127.6190836588542
 10
93.37070041232639
 20
128.421790907118
 10
93.80202636718749
 20
129.0443196614583
 10
94.56098090277777
 20
129.0443196614583
 10
95.0798122829861
 20
129.0443196614583
 10
95.29823133680554
 20
128.7218587239583
 10
95.41295301649305
 20
128.5582166883681
 10
95.41295301649305
 20
128.5582166883681
 10
95.4239773220486
 20
128.5964572482639
 10
95.4239773220486
 20
128.5964572482639
 10
95.4239773220486
 20
128.5964572482639
 10
95.4239773220486
 20
130.0268608940972
 10
95.4239773220486
 20
130.0268608940972
 10
95.4239773220486
 20
130.0268608940972
 10
95.90422363281249
 20
130.0268608940972
 10
95.90422363281249
 20
130.0268608940972
 10
95.90422363281249
 20
130.0268608940972
 10
95.90422363281249
 20
126.1063422309028
 10
95.90422363281249
 20
126.1063422309028
 97
        0
 75
     0
 76
     1
 98
        1
 10
0.0
 20
0.0
  0
HATCH
  5
52
330
A
100
AcDbEntity
  8
LAYER_1
 62
     7
100
AcDbHatch
 10
0.0
 20
0.0
 30
0.0
210
0.0
220
0.0
230
1.0
  2
SOLID
 70
     1
 71
     0
 91
        1
 92
        1
 93
        1
 72
     4
 94
        3
 73
     0
 74
     0
 95
       56
 96
       52
 40
0.0
 40
0.0
 40
0.0
 40
0.0
 40
1.0
 40
1.0
 40
1.0
 40
2.0
 40
2.0
 40
2.0
 40
3.0
 40
3.0
 40
3.0
 40
4.0
 40
4.0
 40
4.0
 40
5.0
 40
5.0
 40
5.0
 40
6.0
 40
6.0
 40
6.0
 40
7.0
 40
7.0
 40
7.0
 40
8.0
 40
8.0
 40
8.0
 40
9.0
 40
9.0
 40
9.0
 40
10.0
 40
10.0
 40
10.0
 40
11.0
 40
11.0
 40
11.0
 40
12.0
 40
12.0
 40
12.0
 40
13.0
 40
13.0
 40
13.0
 40
14.0
 40
14.0
 40
14.0
 40
15.0
 40
15.0
 40
15.0
 40
16.0
 40
16.0
 40
16.0
 40
17.0
 40
17.0
 40
17.0
 40
17.0
 10
72.90201009114583
 20
123.4208902994792
 10
72.87479383680555
 20
124.0272271050347
 10
72.37215440538193
 20
124.2180853949653
 10
71.93014865451389
 20
124.2180853949653
 10
71.59700792100693
 20
124.2180853949653
 10
71.034423828125
 20
124.1254123263889
 10
71.034423828125
 20
123.5300998263889
 10
71.034423828125
 20
123.1969590928819
 10
71.26937934027777
 20
123.0877495659722
 10
71.49847819010417
 20
123.0333170572917
 10
71.49847819010417
 20
123.0333170572917
 10
72.61813422309027
 20
122.7766574435764
 10
72.61813422309027
 20
122.7766574435764
 10
73.12559678819444
 20
122.6564236111111
 10
73.50800238715277
 20
122.350843641493
 10
73.50800238715277
 20
121.7283148871528
 10
73.50800238715277
 20
120.7998616536458
 10
72.64535047743055
 20
120.5435465494792
 10
71.97355685763888
 20
120.5435465494792
 10
71.24733072916666
 20
120.5435465494792
 10
70.9634548611111
 20
120.76162109375
 10
70.78878851996527
 20
120.9200954861111
 10
70.45564778645833
 20
121.2205078125
 10
70.39019097222221
 20
121.5481363932292
 10
70.39019097222221
 20
121.9140055338542
 10
70.39019097222221
 20
121.9140055338542
 10
70.88697374131944
 20
121.9140055338542
 10
70.88697374131944
 20
121.9140055338542
 10
70.88697374131944
 20
121.2039713541667
 10
71.46574978298611
 20
120.9965766059028
 10
71.96838921440971
 20
120.9965766059028
 10
72.35045030381944
 20
120.9965766059028
 10
72.99468315972221
 20
121.0947618272569
 10
72.99468315972221
 20
121.6573459201389
 10
72.99468315972221
 20
122.0666232638889
 10
72.80348036024304
 20
122.1978814019097
 10
72.15924750434027
 20
122.350843641493
 10
72.15924750434027
 20
122.350843641493
 10
71.35654025607639
 20
122.5365342881944
 10
71.35654025607639
 20
122.5365342881944
 10
71.0998806423611
 20
122.5964789496528
 10
70.52110460069444
 20
122.7766574435764
 10
70.52110460069444
 20
123.459130859375
 10
70.52110460069444
 20
124.0706353081597
 10
70.91970214843749
 20
124.6714599609375
 10
71.86985948350694
 20
124.6714599609375
 10
73.24066297743055
 20
124.6714599609375
 10
73.37708875868054
 20
123.8522162543403
 10
73.39879286024305
 20
123.4208902994792
 10
73.39879286024305
 20
123.4208902994792
 10
72.90201009114583
 20
123.4208902994792
 10
72.90201009114583
 20
123.4208902994792
 97
        0
 75
     0
 76
     1
 98
        1
 10
0.0
 20
0.0
  0
HATCH
  5
51
330
A
100
AcDbEntity
  8
LAYER_1
 62
     7
100
AcDbHatch
 10
0.0
 20
0.0
 30
0.0
210
0.0
220
0.0
230
1.0
  2
SOLID
 70
     1
 71
     0
 91
        1
 92
        1
 93
        1
 72
     4
 94
        3
 73
     0
 74
     0
 95
       29
 96
       25
 40
0.0
 40
0.0
 40
0.0
 40
0.0
 40
1.0
 40
1.0
 40
1.0
 40
2.0
 40
2.0
 40
2.0
 40
3.0
 40
3.0
 40
3.0
 40
4.0
 40
4.0
 40
4.0
 40
5.0
 40
5.0
 40
5.0
 40
6.0
 40
6.0
 40
6.0
 40
7.0
 40
7.0
 40
7.0
 40
8.0
 40
8.0
 40
8.0
 40
8.0
 10
73.8404541015625
 20
124.5677625868055
 10
73.8404541015625
 20
124.5677625868055
 10
77.02372233072916
 20
124.5677625868055
 10
77.02372233072916
 20
124.5677625868055
 10
77.02372233072916
 20
124.5677625868055
 10
77.02372233072916
 20
124.0981960720486
 10
77.02372233072916
 20
124.0981960720486
 10
77.02372233072916
 20
124.0981960720486
 10
75.69701605902777
 20
124.0981960720486
 10
75.69701605902777
 20
124.0981960720486
 10
75.69701605902777
 20
124.0981960720486
 10
75.69701605902777
 20
120.6472439236111
 10
75.69701605902777
 20
120.6472439236111
 10
75.69701605902777
 20
120.6472439236111
 10
75.16716037326388
 20
120.6472439236111
 10
75.16716037326388
 20
120.6472439236111
 10
75.16716037326388
 20
120.6472439236111
 10
75.16716037326388
 20
124.0981960720486
 10
75.16716037326388
 20
124.0981960720486
 10
75.16716037326388
 20
124.0981960720486
 10
73.8404541015625
 20
124.0981960720486
 10
73.8404541015625
 20
124.0981960720486
 10
73.8404541015625
 20
124.0981960720486
 10
73.8404541015625
 20
124.5677625868055
 10
73.8404541015625
 20
124.5677625868055
 97
        0
 75
     0
 76
     1
 98
        1
 10
0.0
 20
0.0
  0
HATCH
  5
50
330
A
100
AcDbEntity
  8
LAYER_1
 62
     7
100
AcDbHatch
 10
0.0
 20
0.0
 30
0.0
210
0.0
220
0.0
230
1.0
  2
SOLID
 70
     1
 71
     0
 91
        2
 92
       16
 93
        1
 72
     4
 94
        3
 73
     0
 74
     0
 95
       20
 96
       16
 40
0.0
 40
0.0
 40
0.0
 40
0.0
 40
1.0
 40
1.0
 40
1.0
 40
2.0
 40
2.0
 40
2.0
 40
3.0
 40
3.0
 40
3.0
 40
4.0
 40
4.0
 40
4.0
 40
5.0
 40
5.0
 40
5.0
 40
5.0
 10
78.10892740885416
 20
122.7821695963542
 10
78.10892740885416
 20
122.7821695963542
 10
79.33744845920138
 20
122.7821695963542
 10
79.33744845920138
 20
122.7821695963542
 10
79.72502170138888
 20
122.7821695963542
 10
80.13464355468749
 20
122.8803548177083
 10
80.13464355468749
 20
123.459130859375
 10
80.13464355468749
 20
124.0651231553819
 10
79.69229329427083
 20
124.1143880208333
 10
79.43046603732638
 20
124.1143880208333
 10
79.43046603732638
 20
124.1143880208333
 10
78.10892740885416
 20
124.1143880208333
 10
78.10892740885416
 20
124.1143880208333
 10
78.10892740885416
 20
124.1143880208333
 10
78.10892740885416
 20
122.7821695963542
 10
78.10892740885416
 20
122.7821695963542
 97
        0
 92
        1
 93
        1
 72
     4
 94
        3
 73
     0
 74
     0
 95
       47
 96
       43
 40
0.0
 40
0.0
 40
0.0
 40
0.0
 40
1.0
 40
1.0
 40
1.0
 40
2.0
 40
2.0
 40
2.0
 40
3.0
 40
3.0
 40
3.0
 40
4.0
 40
4.0
 40
4.0
 40
5.0
 40
5.0
 40
5.0
 40
6.0
 40
6.0
 40
6.0
 40
7.0
 40
7.0
 40
7.0
 40
8.0
 40
8.0
 40
8.0
 40
9.0
 40
9.0
 40
9.0
 40
10.0
 40
10.0
 40
10.0
 40
11.0
 40
11.0
 40
11.0
 40
12.0
 40
12.0
 40
12.0
 40
13.0
 40
13.0
 40
13.0
 40
14.0
 40
14.0
 40
14.0
 40
14.0
 10
78.10892740885416
 20
120.6472439236111
 10
78.10892740885416
 20
120.6472439236111
 10
77.57941623263888
 20
120.6472439236111
 10
77.57941623263888
 20
120.6472439236111
 10
77.57941623263888
 20
120.6472439236111
 10
77.57941623263888
 20
124.5677625868055
 10
77.57941623263888
 20
124.5677625868055
 10
77.57941623263888
 20
124.5677625868055
 10
79.39222547743054
 20
124.5677625868055
 10
79.39222547743054
 20
124.5677625868055
 10
80.03645833333333
 20
124.5677625868055
 10
80.6806911892361
 20
124.3438313802083
 10
80.6806911892361
 20
123.5139078776042
 10
80.6806911892361
 20
122.9347873263889
 10
80.38579101562499
 20
122.7218804253472
 10
80.13464355468749
 20
122.5747748480903
 10
80.35857476128471
 20
122.4817572699653
 10
80.58250596788194
 20
122.3835720486111
 10
80.60421006944443
 20
121.8375244140625
 10
80.60421006944443
 20
121.8375244140625
 10
80.63693847656249
 20
121.127490234375
 10
80.63693847656249
 20
121.127490234375
 10
80.64245062934027
 20
120.9090711805555
 10
80.67001139322916
 20
120.8274224175347
 10
80.83365342881943
 20
120.7344048394097
 10
80.83365342881943
 20
120.7344048394097
 10
80.83365342881943
 20
120.6472439236111
 10
80.83365342881943
 20
120.6472439236111
 10
80.83365342881943
 20
120.6472439236111
 10
80.18390842013888
 20
120.6472439236111
 10
80.18390842013888
 20
120.6472439236111
 10
80.10742730034721
 20
120.8873670789931
 10
80.09089084201388
 20
121.482679578993
 10
80.09089084201388
 20
121.62978515625
 10
80.09089084201388
 20
121.95224609375
 10
80.02543402777778
 20
122.3287950303819
 10
79.39222547743054
 20
122.3287950303819
 10
79.39222547743054
 20
122.3287950303819
 10
78.10892740885416
 20
122.3287950303819
 10
78.10892740885416
 20
122.3287950303819
 10
78.10892740885416
 20
122.3287950303819
 10
78.10892740885416
 20
120.6472439236111
 10
78.10892740885416
 20
120.6472439236111
 97
        0
 75
     0
 76
     1
 98
        1
 10
0.0
 20
0.0
  0
HATCH
  5
4F
330
A
100
AcDbEntity
  8
LAYER_1
 62
     7
100
AcDbHatch
 10
0.0
 20
0.0
 30
0.0
210
0.0
220
0.0
230
1.0
  2
SOLID
 70
     1
 71
     0
 91
        2
 92
       16
 93
        1
 72
     4
 94
        3
 73
     0
 74
     0
 95
       17
 96
       13
 40
0.0
 40
0.0
 40
0.0
 40
0.0
 40
1.0
 40
1.0
 40
1.0
 40
2.0
 40
2.0
 40
2.0
 40
3.0
 40
3.0
 40
3.0
 40
4.0
 40
4.0
 40
4.0
 40
4.0
 10
83.45330403645832
 20
122.257826063368
 10
83.45330403645832
 20
122.257826063368
 10
82.87487250434027
 20
123.9834743923611
 10
82.87487250434027
 20
123.9834743923611
 10
82.87487250434027
 20
123.9834743923611
 10
82.86384819878471
 20
123.9834743923611
 10
82.86384819878471
 20
123.9834743923611
 10
82.86384819878471
 20
123.9834743923611
 10
82.23580729166666
 20
122.257826063368
 10
82.23580729166666
 20
122.257826063368
 10
82.23580729166666
 20
122.257826063368
 10
83.45330403645832
 20
122.257826063368
 10
83.45330403645832
 20
122.257826063368
 97
        0
 92
        1
 93
        1
 72
     4
 94
        3
 73
     0
 74
     0
 95
       29
 96
       25
 40
0.0
 40
0.0
 40
0.0
 40
0.0
 40
1.0
 40
1.0
 40
1.0
 40
2.0
 40
2.0
 40
2.0
 40
3.0
 40
3.0
 40
3.0
 40
4.0
 40
4.0
 40
4.0
 40
5.0
 40
5.0
 40
5.0
 40
6.0
 40
6.0
 40
6.0
 40
7.0
 40
7.0
 40
7.0
 40
8.0
 40
8.0
 40
8.0
 40
8.0
 10
82.07216525607637
 20
121.7882595486111
 10
82.07216525607637
 20
121.7882595486111
 10
81.66254340277777
 20
120.6472439236111
 10
81.66254340277777
 20
120.6472439236111
 10
81.66254340277777
 20
120.6472439236111
 10
81.11649576822916
 20
120.6472439236111
 10
81.11649576822916
 20
120.6472439236111
 10
81.11649576822916
 20
120.6472439236111
 10
82.5906521267361
 20
124.5677625868055
 10
82.5906521267361
 20
124.5677625868055
 10
82.5906521267361
 20
124.5677625868055
 10
83.19147677951388
 20
124.5677625868055
 10
83.19147677951388
 20
124.5677625868055
 10
83.19147677951388
 20
124.5677625868055
 10
84.61120062934027
 20
120.6472439236111
 10
84.61120062934027
 20
120.6472439236111
 10
84.61120062934027
 20
120.6472439236111
 10
84.0324245876736
 20
120.6472439236111
 10
84.0324245876736
 20
120.6472439236111
 10
84.0324245876736
 20
120.6472439236111
 10
83.64450683593749
 20
121.7882595486111
 10
83.64450683593749
 20
121.7882595486111
 10
83.64450683593749
 20
121.7882595486111
 10
82.07216525607637
 20
121.7882595486111
 10
82.07216525607637
 20
121.7882595486111
 97
        0
 75
     0
 76
     1
 98
        1
 10
0.0
 20
0.0
  0
HATCH
  5
4E
330
A
100
AcDbEntity
  8
LAYER_1
 62
     7
100
AcDbHatch
 10
0.0
 20
0.0
 30
0.0
210
0.0
220
0.0
230
1.0
  2
SOLID
 70
     1
 71
     0
 91
        2
 92
       16
 93
        1
 72
     4
 94
        3
 73
     0
 74
     0
 95
       20
 96
       16
 40
0.0
 40
0.0
 40
0.0
 40
0.0
 40
1.0
 40
1.0
 40
1.0
 40
2.0
 40
2.0
 40
2.0
 40
3.0
 40
3.0
 40
3.0
 40
4.0
 40
4.0
 40
4.0
 40
5.0
 40
5.0
 40
5.0
 40
5.0
 10
85.68055826822916
 20
122.7549533420139
 10
85.68055826822916
 20
122.7549533420139
 10
86.73441297743055
 20
122.7549533420139
 10
86.73441297743055
 20
122.7549533420139
 10
87.20949164496527
 20
122.7549533420139
 10
87.53160807291665
 20
122.9296196831597
 10
87.53160807291665
 20
123.459130859375
 10
87.53160807291665
 20
123.9559136284722
 10
87.19329969618055
 20
124.1143880208333
 10
86.75646158854165
 20
124.1143880208333
 10
86.75646158854165
 20
124.1143880208333
 10
85.68055826822916
 20
124.1143880208333
 10
85.68055826822916
 20
124.1143880208333
 10
85.68055826822916
 20
124.1143880208333
 10
85.68055826822916
 20
122.7549533420139
 10
85.68055826822916
 20
122.7549533420139
 97
        0
 92
        1
 93
        1
 72
     4
 94
        3
 73
     0
 74
     0
 95
       26
 96
       22
 40
0.0
 40
0.0
 40
0.0
 40
0.0
 40
1.0
 40
1.0
 40
1.0
 40
2.0
 40
2.0
 40
2.0
 40
3.0
 40
3.0
 40
3.0
 40
4.0
 40
4.0
 40
4.0
 40
5.0
 40
5.0
 40
5.0
 40
6.0
 40
6.0
 40
6.0
 40
7.0
 40
7.0
 40
7.0
 40
7.0
 10
85.68055826822916
 20
120.6472439236111
 10
85.68055826822916
 20
120.6472439236111
 10
85.15104709201388
 20
120.6472439236111
 10
85.15104709201388
 20
120.6472439236111
 10
85.15104709201388
 20
120.6472439236111
 10
85.15104709201388
 20
124.5677625868055
 10
85.15104709201388
 20
124.5677625868055
 10
85.15104709201388
 20
124.5677625868055
 10
86.91459147135416
 20
124.5677625868055
 10
86.91459147135416
 20
124.5677625868055
 10
87.64081759982638
 20
124.5677625868055
 10
88.07765570746527
 20
124.0981960720486
 10
88.07765570746527
 20
123.4646430121528
 10
88.07765570746527
 20
122.9185953776042
 10
87.76656358506943
 20
122.3015787760417
 10
86.91459147135416
 20
122.3015787760417
 10
86.91459147135416
 20
122.3015787760417
 10
85.68055826822916
 20
122.3015787760417
 10
85.68055826822916
 20
122.3015787760417
 10
85.68055826822916
 20
122.3015787760417
 10
85.68055826822916
 20
120.6472439236111
 10
85.68055826822916
 20
120.6472439236111
 97
        0
 75
     0
 76
     1
 98
        1
 10
0.0
 20
0.0
  0
HATCH
  5
4D
330
A
100
AcDbEntity
  8
LAYER_1
 62
     7
100
AcDbHatch
 10
0.0
 20
0.0
 30
0.0
210
0.0
220
0.0
230
1.0
  2
SOLID
 70
     1
 71
     0
 91
        1
 92
        1
 93
        1
 72
     4
 94
        3
 73
     0
 74
     0
 95
       35
 96
       31
 40
0.0
 40
0.0
 40
0.0
 40
0.0
 40
1.0
 40
1.0
 40
1.0
 40
2.0
 40
2.0
 40
2.0
 40
3.0
 40
3.0
 40
3.0
 40
4.0
 40
4.0
 40
4.0
 40
5.0
 40
5.0
 40
5.0
 40
6.0
 40
6.0
 40
6.0
 40
7.0
 40
7.0
 40
7.0
 40
8.0
 40
8.0
 40
8.0
 40
9.0
 40
9.0
 40
9.0
 40
10.0
 40
10.0
 40
10.0
 40
10.0
 10
49.38992241753472
 20
122.3002007378472
 10
48.47145996093749
 20
122.6860514322917
 10
47.68115505642361
 20
122.4245686848958
 10
47.25189615885417
 20
122.1954698350694
 10
46.44333224826389
 20
121.7641438802083
 10
46.36202799479166
 20
121.0537651909722
 10
47.48788519965277
 20
120.3402859157986
 10
48.49454210069444
 20
119.7025987413194
 10
49.64210340711805
 20
119.4111436631944
 10
50.74935709635416
 20
120.0016330295139
 10
51.141064453125
 20
120.2107503255208
 10
51.6406032986111
 20
120.6854844835069
 10
50.85098741319444
 20
121.425146484375
 10
50.85098741319444
 20
121.425146484375
 10
51.43596462673611
 20
121.7372721354167
 10
51.43596462673611
 20
121.7372721354167
 10
52.80125596788194
 20
120.581787109375
 10
51.50417751736111
 20
119.806640625
 10
51.16828070746527
 20
119.6274956597222
 10
50.15438910590277
 20
119.0866156684028
 10
48.52761501736111
 20
118.9557020399305
 10
46.88361545138888
 20
119.9971544053819
 10
45.56724446614583
 20
120.8312120225694
 10
45.43977593315972
 20
121.8268446180556
 10
46.73961046006944
 20
122.5199978298611
 10
47.89061686197916
 20
123.1339138454861
 10
49.17288140190972
 20
123.0185031467014
 10
49.97455512152777
 20
122.6119818793403
 10
49.97455512152777
 20
122.6119818793403
 10
49.38992241753472
 20
122.3002007378472
 10
49.38992241753472
 20
122.3002007378472
 97
        0
 75
     0
 76
     1
 98
        1
 10
0.0
 20
0.0
  0
HATCH
  5
4C
330
A
100
AcDbEntity
  8
LAYER_1
 62
     7
100
AcDbHatch
 10
0.0
 20
0.0
 30
0.0
210
0.0
220
0.0
230
1.0
  2
SOLID
 70
     1
 71
     0
 91
        1
 92
        1
 93
        1
 72
     4
 94
        3
 73
     0
 74
     0
 95
       23
 96
       19
 40
0.0
 40
0.0
 40
0.0
 40
0.0
 40
1.0
 40
1.0
 40
1.0
 40
2.0
 40
2.0
 40
2.0
 40
3.0
 40
3.0
 40
3.0
 40
4.0
 40
4.0
 40
4.0
 40
5.0
 40
5.0
 40
5.0
 40
6.0
 40
6.0
 40
6.0
 40
6.0
 10
51.71157226562499
 20
119.84384765625
 10
51.71157226562499
 20
119.84384765625
 10
54.88209364149305
 20
121.5350450303819
 10
54.88209364149305
 20
121.5350450303819
 10
54.88209364149305
 20
121.5350450303819
 10
55.59936252170139
 20
121.0809814453125
 10
55.59936252170139
 20
121.0809814453125
 10
55.59936252170139
 20
121.0809814453125
 10
51.58410373263889
 20
118.9388210720486
 10
51.58410373263889
 20
118.9388210720486
 10
51.58410373263889
 20
118.9388210720486
 10
45.59618326822916
 20
122.7322157118056
 10
45.59618326822916
 20
122.7322157118056
 10
45.59618326822916
 20
122.7322157118056
 10
46.44126519097222
 20
123.1828342013889
 10
46.44126519097222
 20
123.1828342013889
 10
46.44126519097222
 20
123.1828342013889
 10
51.71157226562499
 20
119.84384765625
 10
51.71157226562499
 20
119.84384765625
 97
        0
 75
     0
 76
     1
 98
        1
 10
0.0
 20
0.0
  0
HATCH
  5
4B
330
A
100
AcDbEntity
  8
LAYER_1
 62
     7
100
AcDbHatch
 10
0.0
 20
0.0
 30
0.0
210
0.0
220
0.0
230
1.0
  2
SOLID
 70
     1
 71
     0
 91
        1
 92
        1
 93
        1
 72
     4
 94
        3
 73
     0
 74
     0
 95
       41
 96
       37
 40
0.0
 40
0.0
 40
0.0
 40
0.0
 40
1.0
 40
1.0
 40
1.0
 40
2.0
 40
2.0
 40
2.0
 40
3.0
 40
3.0
 40
3.0
 40
4.0
 40
4.0
 40
4.0
 40
5.0
 40
5.0
 40
5.0
 40
6.0
 40
6.0
 40
6.0
 40
7.0
 40
7.0
 40
7.0
 40
8.0
 40
8.0
 40
8.0
 40
9.0
 40
9.0
 40
9.0
 40
10.0
 40
10.0
 40
10.0
 40
11.0
 40
11.0
 40
11.0
 40
12.0
 40
12.0
 40
12.0
 40
12.0
 10
24.19697265625
 20
106.7810791015625
 10
24.15873209635416
 20
107.5675944010417
 10
24.62313096788194
 20
108.1515380859375
 10
25.44203016493055
 20
108.1515380859375
 10
26.11899142795139
 20
108.1515380859375
 10
26.65435926649305
 20
107.7584526909722
 10
26.65435926649305
 20
107.0377387152778
 10
26.65435926649305
 20
106.3552652994792
 10
26.19547254774305
 20
106.0114447699653
 10
25.71522623697916
 20
105.7110324435764
 10
25.22912326388889
 20
105.4161322699653
 10
24.72131618923611
 20
105.1704969618055
 10
24.62864312065972
 20
104.689906141493
 10
24.62864312065972
 20
104.689906141493
 10
26.61611870659722
 20
104.689906141493
 10
26.61611870659722
 20
104.689906141493
 10
26.61611870659722
 20
104.689906141493
 10
26.61611870659722
 20
104.2802842881944
 10
26.61611870659722
 20
104.2802842881944
 10
26.61611870659722
 20
104.2802842881944
 10
24.08776312934027
 20
104.2802842881944
 10
24.08776312934027
 20
104.2802842881944
 10
24.16424424913194
 20
105.1977132161458
 10
24.62864312065972
 20
105.525341796875
 10
25.17469075520833
 20
105.8639946831597
 10
25.82960340711805
 20
106.2677598741319
 10
26.162744140625
 20
106.5082275390625
 10
26.162744140625
 20
107.0432508680556
 10
26.162744140625
 20
107.4635525173611
 10
25.82443576388889
 20
107.7422607421875
 10
25.41481391059028
 20
107.7422607421875
 10
24.87427842881944
 20
107.7422607421875
 10
24.64483506944444
 20
107.2451334635417
 10
24.66137152777777
 20
106.7810791015625
 10
24.66137152777777
 20
106.7810791015625
 10
24.19697265625
 20
106.7810791015625
 10
24.19697265625
 20
106.7810791015625
 97
        0
 75
     0
 76
     1
 98
        1
 10
0.0
 20
0.0
  0
HATCH
  5
4A
330
A
100
AcDbEntity
  8
LAYER_1
 62
     7
100
AcDbHatch
 10
0.0
 20
0.0
 30
0.0
210
0.0
220
0.0
230
1.0
  2
SOLID
 70
     1
 71
     0
 91
        1
 92
        1
 93
        1
 72
     4
 94
        3
 73
     0
 74
     0
 95
       59
 96
       55
 40
0.0
 40
0.0
 40
0.0
 40
0.0
 40
1.0
 40
1.0
 40
1.0
 40
2.0
 40
2.0
 40
2.0
 40
3.0
 40
3.0
 40
3.0
 40
4.0
 40
4.0
 40
4.0
 40
5.0
 40
5.0
 40
5.0
 40
6.0
 40
6.0
 40
6.0
 40
7.0
 40
7.0
 40
7.0
 40
8.0
 40
8.0
 40
8.0
 40
9.0
 40
9.0
 40
9.0
 40
10.0
 40
10.0
 40
10.0
 40
11.0
 40
11.0
 40
11.0
 40
12.0
 40
12.0
 40
12.0
 40
13.0
 40
13.0
 40
13.0
 40
14.0
 40
14.0
 40
14.0
 40
15.0
 40
15.0
 40
15.0
 40
16.0
 40
16.0
 40
16.0
 40
17.0
 40
17.0
 40
17.0
 40
18.0
 40
18.0
 40
18.0
 40
18.0
 10
28.20396321614583
 20
107.1851888020833
 10
28.24771592881944
 20
107.1796766493056
 10
28.29146864149305
 20
107.1796766493056
 10
28.33487684461805
 20
107.1796766493056
 10
28.61358506944444
 20
107.1796766493056
 10
28.77722710503472
 20
107.3271267361111
 10
28.77722710503472
 20
107.5293538411458
 10
28.77722710503472
 20
107.7257242838542
 10
28.66250542534722
 20
107.856982421875
 10
28.38965386284722
 20
107.856982421875
 10
28.06753743489583
 20
107.856982421875
 10
27.92008734809027
 20
107.6768039279514
 10
27.92008734809027
 20
107.4036078559028
 10
27.92008734809027
 20
107.4036078559028
 10
27.58143446180555
 20
107.4036078559028
 10
27.58143446180555
 20
107.4036078559028
 10
27.59797092013889
 20
107.8459581163194
 10
27.85979817708333
 20
108.1515380859375
 10
28.38414171006944
 20
108.1515380859375
 10
28.81546766493055
 20
108.1515380859375
 10
29.1486083984375
 20
107.9496554904514
 10
29.1486083984375
 20
107.5510579427083
 10
29.1486083984375
 20
107.3381510416667
 10
29.02837456597222
 20
107.1634847005208
 10
28.79376356336805
 20
107.0704671223958
 10
28.79376356336805
 20
107.0704671223958
 10
28.79376356336805
 20
107.0597873263889
 10
28.79376356336805
 20
107.0597873263889
 10
29.10485568576389
 20
106.9994981553819
 10
29.25781792534722
 20
106.7755669487847
 10
29.25781792534722
 20
106.4972032335069
 10
29.25781792534722
 20
106.0331488715278
 10
28.85370822482639
 20
105.7926812065972
 10
28.37862955729166
 20
105.7926812065972
 10
27.85979817708333
 20
105.7926812065972
 10
27.51597764756944
 20
106.0713894314236
 10
27.527001953125
 20
106.5464680989583
 10
27.527001953125
 20
106.5464680989583
 10
27.86531032986111
 20
106.5464680989583
 10
27.86531032986111
 20
106.5464680989583
 10
27.88735894097222
 20
106.2460557725694
 10
28.06202528211805
 20
106.0875813802083
 10
28.37862955729166
 20
106.0875813802083
 10
28.73898654513889
 20
106.0875813802083
 10
28.88643663194444
 20
106.2842963324653
 10
28.88643663194444
 20
106.4972032335069
 10
28.88643663194444
 20
106.7538628472222
 10
28.69523383246527
 20
106.9068250868055
 10
28.38965386284722
 20
106.9068250868055
 10
28.32419704861111
 20
106.9068250868055
 10
28.258740234375
 20
106.9013129340278
 10
28.20396321614583
 20
106.89580078125
 10
28.20396321614583
 20
106.89580078125
 10
28.20396321614583
 20
107.1851888020833
 10
28.20396321614583
 20
107.1851888020833
 97
        0
 75
     0
 76
     1
 98
        1
 10
0.0
 20
0.0
  0
HATCH
  5
49
330
A
100
AcDbEntity
  8
LAYER_1
 62
     7
100
AcDbHatch
 10
0.0
 20
0.0
 30
0.0
210
0.0
220
0.0
230
1.0
  2
SOLID
 70
     1
 71
     0
 91
        1
 92
        1
 93
        1
 72
     4
 94
        3
 73
     0
 74
     0
 95
       17
 96
       13
 40
0.0
 40
0.0
 40
0.0
 40
0.0
 40
1.0
 40
1.0
 40
1.0
 40
2.0
 40
2.0
 40
2.0
 40
3.0
 40
3.0
 40
3.0
 40
4.0
 40
4.0
 40
4.0
 40
4.0
 10
30.79605305989583
 20
108.1515380859375
 10
30.79605305989583
 20
108.1515380859375
 10
31.123681640625
 20
108.1515380859375
 10
31.123681640625
 20
108.1515380859375
 10
31.123681640625
 20
108.1515380859375
 10
28.71555989583333
 20
104.2148274739583
 10
28.71555989583333
 20
104.2148274739583
 10
28.71555989583333
 20
104.2148274739583
 10
28.38793131510417
 20
104.2148274739583
 10
28.38793131510417
 20
104.2148274739583
 10
28.38793131510417
 20
104.2148274739583
 10
30.79605305989583
 20
108.1515380859375
 10
30.79605305989583
 20
108.1515380859375
 97
        0
 75
     0
 76
     1
 98
        1
 10
0.0
 20
0.0
  0
HATCH
  5
48
330
A
100
AcDbEntity
  8
LAYER_1
 62
     7
100
AcDbHatch
 10
0.0
 20
0.0
 30
0.0
210
0.0
220
0.0
230
1.0
  2
SOLID
 70
     1
 71
     0
 91
        3
 92
       16
 93
        1
 72
     4
 94
        3
 73
     0
 74
     0
 95
       17
 96
       13
 40
0.0
 40
0.0
 40
0.0
 40
0.0
 40
1.0
 40
1.0
 40
1.0
 40
2.0
 40
2.0
 40
2.0
 40
3.0
 40
3.0
 40
3.0
 40
4.0
 40
4.0
 40
4.0
 40
4.0
 10
30.73025173611111
 20
105.9783718532986
 10
30.73025173611111
 20
105.7599527994792
 10
30.88321397569444
 20
105.6562554253472
 10
31.12333713107639
 20
105.6562554253472
 10
31.35829264322916
 20
105.6562554253472
 10
31.5112548828125
 20
105.7599527994792
 10
31.5112548828125
 20
105.9783718532986
 10
31.5112548828125
 20
106.2023030598958
 10
31.35829264322916
 20
106.3060004340278
 10
31.12333713107639
 20
106.3060004340278
 10
30.88321397569444
 20
106.3060004340278
 10
30.73025173611111
 20
106.2023030598958
 10
30.73025173611111
 20
105.9783718532986
 97
        0
 92
       16
 93
        1
 72
     4
 94
        3
 73
     0
 74
     0
 95
       17
 96
       13
 40
0.0
 40
0.0
 40
0.0
 40
0.0
 40
1.0
 40
1.0
 40
1.0
 40
2.0
 40
2.0
 40
2.0
 40
3.0
 40
3.0
 40
3.0
 40
4.0
 40
4.0
 40
4.0
 40
4.0
 10
31.12333713107639
 20
105.3613552517361
 10
30.8229248046875
 20
105.3613552517361
 10
30.62655436197916
 20
105.1977132161458
 10
30.62655436197916
 20
104.9465657552083
 10
30.62655436197916
 20
104.7009304470486
 10
30.8229248046875
 20
104.5369439019097
 10
31.12333713107639
 20
104.5369439019097
 10
31.42374945746527
 20
104.5369439019097
 10
31.61495225694444
 20
104.7009304470486
 10
31.61495225694444
 20
104.9465657552083
 10
31.61495225694444
 20
105.1977132161458
 10
31.42374945746527
 20
105.3613552517361
 10
31.12333713107639
 20
105.3613552517361
 97
        0
 92
        1
 93
        1
 72
     4
 94
        3
 73
     0
 74
     0
 95
       35
 96
       31
 40
0.0
 40
0.0
 40
0.0
 40
0.0
 40
1.0
 40
1.0
 40
1.0
 40
2.0
 40
2.0
 40
2.0
 40
3.0
 40
3.0
 40
3.0
 40
4.0
 40
4.0
 40
4.0
 40
5.0
 40
5.0
 40
5.0
 40
6.0
 40
6.0
 40
6.0
 40
7.0
 40
7.0
 40
7.0
 40
8.0
 40
8.0
 40
8.0
 40
9.0
 40
9.0
 40
9.0
 40
10.0
 40
10.0
 40
10.0
 40
10.0
 10
31.52744683159722
 20
105.525341796875
 10
31.83853895399305
 20
105.4378363715278
 10
31.98633355034722
 20
105.2359537760417
 10
31.98633355034722
 20
104.9465657552083
 10
31.98633355034722
 20
104.4987033420139
 10
31.60944010416666
 20
104.2420437282986
 10
31.12333713107639
 20
104.2420437282986
 10
30.63757866753472
 20
104.2420437282986
 10
30.25517306857639
 20
104.4987033420139
 10
30.25517306857639
 20
104.9465657552083
 10
30.25517306857639
 20
105.2359537760417
 10
30.40813530815972
 20
105.4378363715278
 10
30.71922743055555
 20
105.525341796875
 10
30.71922743055555
 20
105.525341796875
 10
30.71922743055555
 20
105.5363661024306
 10
30.71922743055555
 20
105.5363661024306
 10
30.50632052951389
 20
105.6125027126736
 10
30.35887044270833
 20
105.8037055121528
 10
30.35887044270833
 20
106.0114447699653
 10
30.35887044270833
 20
106.3060004340278
 10
30.58280164930555
 20
106.6009006076389
 10
31.12333713107639
 20
106.6009006076389
 10
31.66387261284722
 20
106.6009006076389
 10
31.88229166666666
 20
106.3060004340278
 10
31.88229166666666
 20
106.0114447699653
 10
31.88229166666666
 20
105.8037055121528
 10
31.74035373263889
 20
105.6125027126736
 10
31.52744683159722
 20
105.5363661024306
 10
31.52744683159722
 20
105.5363661024306
 10
31.52744683159722
 20
105.525341796875
 10
31.52744683159722
 20
105.525341796875
 97
        0
 75
     0
 76
     1
 98
        1
 10
0.0
 20
0.0
  0
HATCH
  5
47
330
A
100
AcDbEntity
  8
LAYER_1
 62
     7
100
AcDbHatch
 10
0.0
 20
0.0
 30
0.0
210
0.0
220
0.0
230
1.0
  2
SOLID
 70
     1
 71
     0
 91
        2
 92
        1
 93
        1
 72
     4
 94
        3
 73
     0
 74
     0
 95
       17
 96
       13
 40
0.0
 40
0.0
 40
0.0
 40
0.0
 40
1.0
 40
1.0
 40
1.0
 40
2.0
 40
2.0
 40
2.0
 40
3.0
 40
3.0
 40
3.0
 40
4.0
 40
4.0
 40
4.0
 40
4.0
 10
33.5824462890625
 20
108.2008029513889
 10
33.5824462890625
 20
108.2008029513889
 10
33.98104383680555
 20
108.2008029513889
 10
33.98104383680555
 20
108.2008029513889
 10
33.98104383680555
 20
108.2008029513889
 10
33.68511013454861
 20
106.8086398654514
 10
33.68511013454861
 20
106.8086398654514
 10
33.68511013454861
 20
106.8086398654514
 10
33.28651258680555
 20
106.8086398654514
 10
33.28651258680555
 20
106.8086398654514
 10
33.28651258680555
 20
106.8086398654514
 10
33.5824462890625
 20
108.2008029513889
 10
33.5824462890625
 20
108.2008029513889
 97
        0
 92
        1
 93
        1
 72
     4
 94
        3
 73
     0
 74
     0
 95
       17
 96
       13
 40
0.0
 40
0.0
 40
0.0
 40
0.0
 40
1.0
 40
1.0
 40
1.0
 40
2.0
 40
2.0
 40
2.0
 40
3.0
 40
3.0
 40
3.0
 40
4.0
 40
4.0
 40
4.0
 40
4.0
 10
32.80695529513888
 20
108.2008029513889
 10
32.80695529513888
 20
108.2008029513889
 10
33.20555284288194
 20
108.2008029513889
 10
33.20555284288194
 20
108.2008029513889
 10
33.20555284288194
 20
108.2008029513889
 10
32.909619140625
 20
106.8086398654514
 10
32.909619140625
 20
106.8086398654514
 10
32.909619140625
 20
106.8086398654514
 10
32.51102159288194
 20
106.8086398654514
 10
32.51102159288194
 20
106.8086398654514
 10
32.51102159288194
 20
106.8086398654514
 10
32.80695529513888
 20
108.2008029513889
 10
32.80695529513888
 20
108.2008029513889
 97
        0
 75
     0
 76
     1
 98
        1
 10
0.0
 20
0.0
  0
HATCH
  5
46
330
A
100
AcDbEntity
  8
LAYER_1
 62
     7
100
AcDbHatch
 10
0.0
 20
0.0
 30
0.0
210
0.0
220
0.0
230
1.0
  2
SOLID
 70
     1
 71
     0
 91
        1
 92
        1
 93
        1
 72
     4
 94
        3
 73
     0
 74
     0
 95
       41
 96
       37
 40
0.0
 40
0.0
 40
0.0
 40
0.0
 40
1.0
 40
1.0
 40
1.0
 40
2.0
 40
2.0
 40
2.0
 40
3.0
 40
3.0
 40
3.0
 40
4.0
 40
4.0
 40
4.0
 40
5.0
 40
5.0
 40
5.0
 40
6.0
 40
6.0
 40
6.0
 40
7.0
 40
7.0
 40
7.0
 40
8.0
 40
8.0
 40
8.0
 40
9.0
 40
9.0
 40
9.0
 40
10.0
 40
10.0
 40
10.0
 40
11.0
 40
11.0
 40
11.0
 40
12.0
 40
12.0
 40
12.0
 40
12.0
 10
21.5583740234375
 20
98.32026909722221
 10
21.5583740234375
 20
98.32026909722221
 10
18.66449381510417
 20
98.32026909722221
 10
18.66449381510417
 20
98.32026909722221
 10
18.66449381510417
 20
98.32026909722221
 10
18.66449381510417
 20
102.2407877604167
 10
18.66449381510417
 20
102.2407877604167
 10
18.66449381510417
 20
102.2407877604167
 10
21.52013346354167
 20
102.2407877604167
 10
21.52013346354167
 20
102.2407877604167
 10
21.52013346354167
 20
102.2407877604167
 10
21.52013346354167
 20
101.7712212456597
 10
21.52013346354167
 20
101.7712212456597
 10
21.52013346354167
 20
101.7712212456597
 10
19.19400499131944
 20
101.7712212456597
 10
19.19400499131944
 20
101.7712212456597
 10
19.19400499131944
 20
101.7712212456597
 10
19.19400499131944
 20
100.5699164496528
 10
19.19400499131944
 20
100.5699164496528
 10
19.19400499131944
 20
100.5699164496528
 10
21.33995496961805
 20
100.5699164496528
 10
21.33995496961805
 20
100.5699164496528
 10
21.33995496961805
 20
100.5699164496528
 10
21.33995496961805
 20
100.1003499348958
 10
21.33995496961805
 20
100.1003499348958
 10
21.33995496961805
 20
100.1003499348958
 10
19.19400499131944
 20
100.1003499348958
 10
19.19400499131944
 20
100.1003499348958
 10
19.19400499131944
 20
100.1003499348958
 10
19.19400499131944
 20
98.78983561197916
 10
19.19400499131944
 20
98.78983561197916
 10
19.19400499131944
 20
98.78983561197916
 10
21.5583740234375
 20
98.78983561197916
 10
21.5583740234375
 20
98.78983561197916
 10
21.5583740234375
 20
98.78983561197916
 10
21.5583740234375
 20
98.32026909722221
 10
21.5583740234375
 20
98.32026909722221
 97
        0
 75
     0
 76
     1
 98
        1
 10
0.0
 20
0.0
  0
HATCH
  5
45
330
A
100
AcDbEntity
  8
LAYER_1
 62
     7
100
AcDbHatch
 10
0.0
 20
0.0
 30
0.0
210
0.0
220
0.0
230
1.0
  2
SOLID
 70
     1
 71
     0
 91
        1
 92
        1
 93
        1
 72
     4
 94
        3
 73
     0
 74
     0
 95
       41
 96
       37
 40
0.0
 40
0.0
 40
0.0
 40
0.0
 40
1.0
 40
1.0
 40
1.0
 40
2.0
 40
2.0
 40
2.0
 40
3.0
 40
3.0
 40
3.0
 40
4.0
 40
4.0
 40
4.0
 40
5.0
 40
5.0
 40
5.0
 40
6.0
 40
6.0
 40
6.0
 40
7.0
 40
7.0
 40
7.0
 40
8.0
 40
8.0
 40
8.0
 40
9.0
 40
9.0
 40
9.0
 40
10.0
 40
10.0
 40
10.0
 40
11.0
 40
11.0
 40
11.0
 40
12.0
 40
12.0
 40
12.0
 40
12.0
 10
24.85050726996528
 20
102.2407877604167
 10
24.85050726996528
 20
102.2407877604167
 10
25.36382649739583
 20
102.2407877604167
 10
25.36382649739583
 20
102.2407877604167
 10
25.36382649739583
 20
102.2407877604167
 10
25.36382649739583
 20
98.32026909722221
 10
25.36382649739583
 20
98.32026909722221
 10
25.36382649739583
 20
98.32026909722221
 10
24.76851399739583
 20
98.32026909722221
 10
24.76851399739583
 20
98.32026909722221
 10
24.76851399739583
 20
98.32026909722221
 10
22.77552625868055
 20
101.4873453776042
 10
22.77552625868055
 20
101.4873453776042
 10
22.77552625868055
 20
101.4873453776042
 10
22.764501953125
 20
101.4873453776042
 10
22.764501953125
 20
101.4873453776042
 10
22.764501953125
 20
101.4873453776042
 10
22.764501953125
 20
98.32026909722221
 10
22.764501953125
 20
98.32026909722221
 10
22.764501953125
 20
98.32026909722221
 10
22.25118272569444
 20
98.32026909722221
 10
22.25118272569444
 20
98.32026909722221
 10
22.25118272569444
 20
98.32026909722221
 10
22.25118272569444
 20
102.2407877604167
 10
22.25118272569444
 20
102.2407877604167
 10
22.25118272569444
 20
102.2407877604167
 10
22.8792236328125
 20
102.2407877604167
 10
22.8792236328125
 20
102.2407877604167
 10
22.8792236328125
 20
102.2407877604167
 10
24.83948296440972
 20
99.07405598958333
 10
24.83948296440972
 20
99.07405598958333
 10
24.83948296440972
 20
99.07405598958333
 10
24.85050726996528
 20
99.07405598958333
 10
24.85050726996528
 20
99.07405598958333
 10
24.85050726996528
 20
99.07405598958333
 10
24.85050726996528
 20
102.2407877604167
 10
24.85050726996528
 20
102.2407877604167
 97
        0
 75
     0
 76
     1
 98
        1
 10
0.0
 20
0.0
  0
HATCH
  5
44
330
A
100
AcDbEntity
  8
LAYER_1
 62
     7
100
AcDbHatch
 10
0.0
 20
0.0
 30
0.0
210
0.0
220
0.0
230
1.0
  2
SOLID
 70
     1
 71
     0
 91
        2
 92
       16
 93
        1
 72
     4
 94
        3
 73
     0
 74
     0
 95
       20
 96
       16
 40
0.0
 40
0.0
 40
0.0
 40
0.0
 40
1.0
 40
1.0
 40
1.0
 40
2.0
 40
2.0
 40
2.0
 40
3.0
 40
3.0
 40
3.0
 40
4.0
 40
4.0
 40
4.0
 40
5.0
 40
5.0
 40
5.0
 40
5.0
 10
26.74944390190972
 20
98.77364366319443
 10
26.74944390190972
 20
98.77364366319443
 10
27.77608235677083
 20
98.77364366319443
 10
27.77608235677083
 20
98.77364366319443
 10
28.46406792534722
 20
98.77364366319443
 10
28.91193033854167
 20
99.31417914496527
 10
28.91193033854167
 20
100.3025770399305
 10
28.91193033854167
 20
101.2906304253472
 10
28.45855577256944
 20
101.7877577039931
 10
27.737841796875
 20
101.7877577039931
 10
27.737841796875
 20
101.7877577039931
 10
26.74944390190972
 20
101.7877577039931
 10
26.74944390190972
 20
101.7877577039931
 10
26.74944390190972
 20
101.7877577039931
 10
26.74944390190972
 20
98.77364366319443
 10
26.74944390190972
 20
98.77364366319443
 97
        0
 92
        1
 93
        1
 72
     4
 94
        3
 73
     0
 74
     0
 95
       20
 96
       16
 40
0.0
 40
0.0
 40
0.0
 40
0.0
 40
1.0
 40
1.0
 40
1.0
 40
2.0
 40
2.0
 40
2.0
 40
3.0
 40
3.0
 40
3.0
 40
4.0
 40
4.0
 40
4.0
 40
5.0
 40
5.0
 40
5.0
 40
5.0
 10
26.21993272569444
 20
102.2407877604167
 10
26.21993272569444
 20
102.2407877604167
 10
27.80881076388889
 20
102.2407877604167
 10
27.80881076388889
 20
102.2407877604167
 10
28.82993706597222
 20
102.2407877604167
 10
29.45763346354167
 20
101.4656412760417
 10
29.45763346354167
 20
100.3353054470486
 10
29.45763346354167
 20
99.45611707899305
 10
29.07557237413194
 20
98.32026909722221
 10
27.78676215277778
 20
98.32026909722221
 10
27.78676215277778
 20
98.32026909722221
 10
26.21993272569444
 20
98.32026909722221
 10
26.21993272569444
 20
98.32026909722221
 10
26.21993272569444
 20
98.32026909722221
 10
26.21993272569444
 20
102.2407877604167
 10
26.21993272569444
 20
102.2407877604167
 97
        0
 75
     0
 76
     1
 98
        1
 10
0.0
 20
0.0
  0
HATCH
  5
43
330
A
100
AcDbEntity
  8
LAYER_1
 62
     7
100
AcDbHatch
 10
0.0
 20
0.0
 30
0.0
210
0.0
220
0.0
230
1.0
  2
SOLID
 70
     1
 71
     0
 91
        2
 92
       16
 93
        1
 72
     4
 94
        3
 73
     0
 74
     0
 95
       20
 96
       16
 40
0.0
 40
0.0
 40
0.0
 40
0.0
 40
1.0
 40
1.0
 40
1.0
 40
2.0
 40
2.0
 40
2.0
 40
3.0
 40
3.0
 40
3.0
 40
4.0
 40
4.0
 40
4.0
 40
5.0
 40
5.0
 40
5.0
 40
5.0
 10
11.45700954861111
 20
92.81362847222222
 10
11.45700954861111
 20
92.81362847222222
 10
12.48364800347222
 20
92.81362847222222
 10
12.48364800347222
 20
92.81362847222222
 10
13.17163357204861
 20
92.81362847222222
 10
13.61915147569444
 20
93.35416395399305
 10
13.61915147569444
 20
94.34256184895833
 10
13.61915147569444
 20
95.3309597439236
 10
13.16612141927083
 20
95.82774251302082
 10
12.44540744357639
 20
95.82774251302082
 10
12.44540744357639
 20
95.82774251302082
 10
11.45700954861111
 20
95.82774251302082
 10
11.45700954861111
 20
95.82774251302082
 10
11.45700954861111
 20
95.82774251302082
 10
11.45700954861111
 20
92.81362847222222
 10
11.45700954861111
 20
92.81362847222222
 97
        0
 92
        1
 93
        1
 72
     4
 94
        3
 73
     0
 74
     0
 95
       20
 96
       16
 40
0.0
 40
0.0
 40
0.0
 40
0.0
 40
1.0
 40
1.0
 40
1.0
 40
2.0
 40
2.0
 40
2.0
 40
3.0
 40
3.0
 40
3.0
 40
4.0
 40
4.0
 40
4.0
 40
5.0
 40
5.0
 40
5.0
 40
5.0
 10
10.92715386284722
 20
96.28077256944444
 10
10.92715386284722
 20
96.28077256944444
 10
12.51637641059028
 20
96.28077256944444
 10
12.51637641059028
 20
96.28077256944444
 10
13.53750271267361
 20
96.28077256944444
 10
14.16519911024306
 20
95.50562608506944
 10
14.16519911024306
 20
94.37529025607638
 10
14.16519911024306
 20
93.49610188802083
 10
13.78313802083333
 20
92.36025390624999
 10
12.49432779947917
 20
92.36025390624999
 10
12.49432779947917
 20
92.36025390624999
 10
10.92715386284722
 20
92.36025390624999
 10
10.92715386284722
 20
92.36025390624999
 10
10.92715386284722
 20
92.36025390624999
 10
10.92715386284722
 20
96.28077256944444
 10
10.92715386284722
 20
96.28077256944444
 97
        0
 75
     0
 76
     1
 98
        1
 10
0.0
 20
0.0
  0
HATCH
  5
42
330
A
100
AcDbEntity
  8
LAYER_1
 62
     7
100
AcDbHatch
 10
0.0
 20
0.0
 30
0.0
210
0.0
220
0.0
230
1.0
  2
SOLID
 70
     1
 71
     0
 91
        1
 92
        1
 93
        1
 72
     4
 94
        3
 73
     0
 74
     0
 95
       17
 96
       13
 40
0.0
 40
0.0
 40
0.0
 40
0.0
 40
1.0
 40
1.0
 40
1.0
 40
2.0
 40
2.0
 40
2.0
 40
3.0
 40
3.0
 40
3.0
 40
4.0
 40
4.0
 40
4.0
 40
4.0
 10
15.45297580295139
 20
92.36025390624999
 10
15.45297580295139
 20
92.36025390624999
 10
14.9231201171875
 20
92.36025390624999
 10
14.9231201171875
 20
92.36025390624999
 10
14.9231201171875
 20
92.36025390624999
 10
14.9231201171875
 20
96.28077256944444
 10
14.9231201171875
 20
96.28077256944444
 10
14.9231201171875
 20
96.28077256944444
 10
15.45297580295139
 20
96.28077256944444
 10
15.45297580295139
 20
96.28077256944444
 10
15.45297580295139
 20
96.28077256944444
 10
15.45297580295139
 20
92.36025390624999
 10
15.45297580295139
 20
92.36025390624999
 97
        0
 75
     0
 76
     1
 98
        1
 10
0.0
 20
0.0
  0
HATCH
  5
41
330
A
100
AcDbEntity
  8
LAYER_1
 62
     7
100
AcDbHatch
 10
0.0
 20
0.0
 30
0.0
210
0.0
220
0.0
230
1.0
  2
SOLID
 70
     1
 71
     0
 91
        1
 92
        1
 93
        1
 72
     4
 94
        3
 73
     0
 74
     0
 95
       56
 96
       52
 40
0.0
 40
0.0
 40
0.0
 40
0.0
 40
1.0
 40
1.0
 40
1.0
 40
2.0
 40
2.0
 40
2.0
 40
3.0
 40
3.0
 40
3.0
 40
4.0
 40
4.0
 40
4.0
 40
5.0
 40
5.0
 40
5.0
 40
6.0
 40
6.0
 40
6.0
 40
7.0
 40
7.0
 40
7.0
 40
8.0
 40
8.0
 40
8.0
 40
9.0
 40
9.0
 40
9.0
 40
10.0
 40
10.0
 40
10.0
 40
11.0
 40
11.0
 40
11.0
 40
12.0
 40
12.0
 40
12.0
 40
13.0
 40
13.0
 40
13.0
 40
14.0
 40
14.0
 40
14.0
 40
15.0
 40
15.0
 40
15.0
 40
16.0
 40
16.0
 40
16.0
 40
17.0
 40
17.0
 40
17.0
 40
17.0
 10
18.72237141927083
 20
95.13424479166666
 10
18.69515516493055
 20
95.74023708767361
 10
18.19286024305555
 20
95.93143988715276
 10
17.75050998263889
 20
95.93143988715276
 10
17.41736924913194
 20
95.93143988715276
 10
16.85478515625
 20
95.83876681857637
 10
16.85478515625
 20
95.24345431857638
 10
16.85478515625
 20
94.91031358506943
 10
17.08974066840278
 20
94.80110405815971
 10
17.31918402777778
 20
94.74667154947916
 10
17.31918402777778
 20
94.74667154947916
 10
18.43849555121528
 20
94.49001193576387
 10
18.43849555121528
 20
94.49001193576387
 10
18.94630262586805
 20
94.3697781032986
 10
19.32836371527777
 20
94.06419813368055
 10
19.32836371527777
 20
93.44166937934027
 10
19.32836371527777
 20
92.51321614583333
 10
18.46571180555555
 20
92.25655653211804
 10
17.7942626953125
 20
92.25655653211804
 10
17.06803656684028
 20
92.25655653211804
 10
16.78381618923611
 20
92.47497558593749
 10
16.60914984809028
 20
92.6334499782986
 10
16.27635362413194
 20
92.93386230468749
 10
16.21055230034722
 20
93.26149088541666
 10
16.21055230034722
 20
93.62736002604166
 10
16.21055230034722
 20
93.62736002604166
 10
16.70733506944444
 20
93.62736002604166
 10
16.70733506944444
 20
93.62736002604166
 10
16.70733506944444
 20
92.91732584635416
 10
17.28645562065972
 20
92.70993109809027
 10
17.78875054253472
 20
92.70993109809027
 10
18.17081163194444
 20
92.70993109809027
 10
18.81504448784722
 20
92.80811631944444
 10
18.81504448784722
 20
93.37070041232639
 10
18.81504448784722
 20
93.77997775607638
 10
18.62418619791666
 20
93.91123589409722
 10
17.97960883246528
 20
94.06419813368055
 10
17.97960883246528
 20
94.06419813368055
 10
17.17724609375
 20
94.24954427083333
 10
17.17724609375
 20
94.24954427083333
 10
16.92058648003472
 20
94.30983344184027
 10
16.34181043836805
 20
94.49001193576387
 10
16.34181043836805
 20
95.17248535156249
 10
16.34181043836805
 20
95.78398980034721
 10
16.74040798611111
 20
96.38481445312499
 10
17.69056532118055
 20
96.38481445312499
 10
19.06102430555555
 20
96.38481445312499
 10
19.19745008680555
 20
95.56557074652777
 10
19.21915418836806
 20
95.13424479166666
 10
19.21915418836806
 20
95.13424479166666
 10
18.72237141927083
 20
95.13424479166666
 10
18.72237141927083
 20
95.13424479166666
 97
        0
 75
     0
 76
     1
 98
        1
 10
0.0
 20
0.0
  0
HATCH
  5
40
330
A
100
AcDbEntity
  8
LAYER_1
 62
     7
100
AcDbHatch
 10
0.0
 20
0.0
 30
0.0
210
0.0
220
0.0
230
1.0
  2
SOLID
 70
     1
 71
     0
 91
        1
 92
        1
 93
        1
 72
     4
 94
        3
 73
     0
 74
     0
 95
       29
 96
       25
 40
0.0
 40
0.0
 40
0.0
 40
0.0
 40
1.0
 40
1.0
 40
1.0
 40
2.0
 40
2.0
 40
2.0
 40
3.0
 40
3.0
 40
3.0
 40
4.0
 40
4.0
 40
4.0
 40
5.0
 40
5.0
 40
5.0
 40
6.0
 40
6.0
 40
6.0
 40
7.0
 40
7.0
 40
7.0
 40
8.0
 40
8.0
 40
8.0
 40
8.0
 10
19.6608154296875
 20
96.28077256944444
 10
19.6608154296875
 20
96.28077256944444
 10
22.84408365885416
 20
96.28077256944444
 10
22.84408365885416
 20
96.28077256944444
 10
22.84408365885416
 20
96.28077256944444
 10
22.84408365885416
 20
95.81120605468749
 10
22.84408365885416
 20
95.81120605468749
 10
22.84408365885416
 20
95.81120605468749
 10
21.51737738715278
 20
95.81120605468749
 10
21.51737738715278
 20
95.81120605468749
 10
21.51737738715278
 20
95.81120605468749
 10
21.51737738715278
 20
92.36025390624999
 10
21.51737738715278
 20
92.36025390624999
 10
21.51737738715278
 20
92.36025390624999
 10
20.9878662109375
 20
92.36025390624999
 10
20.9878662109375
 20
92.36025390624999
 10
20.9878662109375
 20
92.36025390624999
 10
20.9878662109375
 20
95.81120605468749
 10
20.9878662109375
 20
95.81120605468749
 10
20.9878662109375
 20
95.81120605468749
 10
19.6608154296875
 20
95.81120605468749
 10
19.6608154296875
 20
95.81120605468749
 10
19.6608154296875
 20
95.81120605468749
 10
19.6608154296875
 20
96.28077256944444
 10
19.6608154296875
 20
96.28077256944444
 97
        0
 75
     0
 76
     1
 98
        1
 10
0.0
 20
0.0
  0
HATCH
  5
3F
330
A
100
AcDbEntity
  8
LAYER_1
 62
     7
100
AcDbHatch
 10
0.0
 20
0.0
 30
0.0
210
0.0
220
0.0
230
1.0
  2
SOLID
 70
     1
 71
     0
 91
        2
 92
       16
 93
        1
 72
     4
 94
        3
 73
     0
 74
     0
 95
       17
 96
       13
 40
0.0
 40
0.0
 40
0.0
 40
0.0
 40
1.0
 40
1.0
 40
1.0
 40
2.0
 40
2.0
 40
2.0
 40
3.0
 40
3.0
 40
3.0
 40
4.0
 40
4.0
 40
4.0
 40
4.0
 10
24.67687445746527
 20
93.97118055555555
 10
24.67687445746527
 20
93.97118055555555
 10
24.09809841579861
 20
95.696484375
 10
24.09809841579861
 20
95.696484375
 10
24.09809841579861
 20
95.696484375
 10
24.08707411024306
 20
95.696484375
 10
24.08707411024306
 20
95.696484375
 10
24.08707411024306
 20
95.696484375
 10
23.45937771267361
 20
93.97118055555555
 10
23.45937771267361
 20
93.97118055555555
 10
23.45937771267361
 20
93.97118055555555
 10
24.67687445746527
 20
93.97118055555555
 10
24.67687445746527
 20
93.97118055555555
 97
        0
 92
        1
 93
        1
 72
     4
 94
        3
 73
     0
 74
     0
 95
       29
 96
       25
 40
0.0
 40
0.0
 40
0.0
 40
0.0
 40
1.0
 40
1.0
 40
1.0
 40
2.0
 40
2.0
 40
2.0
 40
3.0
 40
3.0
 40
3.0
 40
4.0
 40
4.0
 40
4.0
 40
5.0
 40
5.0
 40
5.0
 40
6.0
 40
6.0
 40
6.0
 40
7.0
 40
7.0
 40
7.0
 40
8.0
 40
8.0
 40
8.0
 40
8.0
 10
23.29539116753472
 20
93.5016140407986
 10
23.29539116753472
 20
93.5016140407986
 10
22.88611382378472
 20
92.36025390624999
 10
22.88611382378472
 20
92.36025390624999
 10
22.88611382378472
 20
92.36025390624999
 10
22.3397216796875
 20
92.36025390624999
 10
22.3397216796875
 20
92.36025390624999
 10
22.3397216796875
 20
92.36025390624999
 10
23.81422254774305
 20
96.28077256944444
 10
23.81422254774305
 20
96.28077256944444
 10
23.81422254774305
 20
96.28077256944444
 10
24.41470269097222
 20
96.28077256944444
 10
24.41470269097222
 20
96.28077256944444
 10
24.41470269097222
 20
96.28077256944444
 10
25.83442654079861
 20
92.36025390624999
 10
25.83442654079861
 20
92.36025390624999
 10
25.83442654079861
 20
92.36025390624999
 10
25.25565049913194
 20
92.36025390624999
 10
25.25565049913194
 20
92.36025390624999
 10
25.25565049913194
 20
92.36025390624999
 10
24.86807725694444
 20
93.5016140407986
 10
24.86807725694444
 20
93.5016140407986
 10
24.86807725694444
 20
93.5016140407986
 10
23.29539116753472
 20
93.5016140407986
 10
23.29539116753472
 20
93.5016140407986
 97
        0
 75
     0
 76
     1
 98
        1
 10
0.0
 20
0.0
  0
HATCH
  5
3E
330
A
100
AcDbEntity
  8
LAYER_1
 62
     7
100
AcDbHatch
 10
0.0
 20
0.0
 30
0.0
210
0.0
220
0.0
230
1.0
  2
SOLID
 70
     1
 71
     0
 91
        1
 92
        1
 93
        1
 72
     4
 94
        3
 73
     0
 74
     0
 95
       41
 96
       37
 40
0.0
 40
0.0
 40
0.0
 40
0.0
 40
1.0
 40
1.0
 40
1.0
 40
2.0
 40
2.0
 40
2.0
 40
3.0
 40
3.0
 40
3.0
 40
4.0
 40
4.0
 40
4.0
 40
5.0
 40
5.0
 40
5.0
 40
6.0
 40
6.0
 40
6.0
 40
7.0
 40
7.0
 40
7.0
 40
8.0
 40
8.0
 40
8.0
 40
9.0
 40
9.0
 40
9.0
 40
10.0
 40
10.0
 40
10.0
 40
11.0
 40
11.0
 40
11.0
 40
12.0
 40
12.0
 40
12.0
 40
12.0
 10
28.91882052951389
 20
96.28077256944444
 10
28.91882052951389
 20
96.28077256944444
 10
29.43213975694444
 20
96.28077256944444
 10
29.43213975694444
 20
96.28077256944444
 10
29.43213975694444
 20
96.28077256944444
 10
29.43213975694444
 20
92.36025390624999
 10
29.43213975694444
 20
92.36025390624999
 10
29.43213975694444
 20
92.36025390624999
 10
28.83682725694444
 20
92.36025390624999
 10
28.83682725694444
 20
92.36025390624999
 10
28.83682725694444
 20
92.36025390624999
 10
26.84383951822916
 20
95.52733018663193
 10
26.84383951822916
 20
95.52733018663193
 10
26.84383951822916
 20
95.52733018663193
 10
26.83315972222222
 20
95.52733018663193
 10
26.83315972222222
 20
95.52733018663193
 10
26.83315972222222
 20
95.52733018663193
 10
26.83315972222222
 20
92.36025390624999
 10
26.83315972222222
 20
92.36025390624999
 10
26.83315972222222
 20
92.36025390624999
 10
26.31984049479166
 20
92.36025390624999
 10
26.31984049479166
 20
92.36025390624999
 10
26.31984049479166
 20
92.36025390624999
 10
26.31984049479166
 20
96.28077256944444
 10
26.31984049479166
 20
96.28077256944444
 10
26.31984049479166
 20
96.28077256944444
 10
26.94788140190972
 20
96.28077256944444
 10
26.94788140190972
 20
96.28077256944444
 10
26.94788140190972
 20
96.28077256944444
 10
28.90779622395833
 20
93.1140407986111
 10
28.90779622395833
 20
93.1140407986111
 10
28.90779622395833
 20
93.1140407986111
 10
28.91882052951389
 20
93.1140407986111
 10
28.91882052951389
 20
93.1140407986111
 10
28.91882052951389
 20
93.1140407986111
 10
28.91882052951389
 20
96.28077256944444
 10
28.91882052951389
 20
96.28077256944444
 97
        0
 75
     0
 76
     1
 98
        1
 10
0.0
 20
0.0
  0
HATCH
  5
3D
330
A
100
AcDbEntity
  8
LAYER_1
 62
     7
100
AcDbHatch
 10
0.0
 20
0.0
 30
0.0
210
0.0
220
0.0
230
1.0
  2
SOLID
 70
     1
 71
     0
 91
        1
 92
        1
 93
        1
 72
     4
 94
        3
 73
     0
 74
     0
 95
       35
 96
       31
 40
0.0
 40
0.0
 40
0.0
 40
0.0
 40
1.0
 40
1.0
 40
1.0
 40
2.0
 40
2.0
 40
2.0
 40
3.0
 40
3.0
 40
3.0
 40
4.0
 40
4.0
 40
4.0
 40
5.0
 40
5.0
 40
5.0
 40
6.0
 40
6.0
 40
6.0
 40
7.0
 40
7.0
 40
7.0
 40
8.0
 40
8.0
 40
8.0
 40
9.0
 40
9.0
 40
9.0
 40
10.0
 40
10.0
 40
10.0
 40
10.0
 10
33.01297200520833
 20
95.1015163845486
 10
32.86552191840278
 20
95.789501953125
 10
32.29225802951389
 20
95.91490342881943
 10
31.91536458333333
 20
95.91490342881943
 10
31.20567491319444
 20
95.91490342881943
 10
30.63241102430555
 20
95.39090440538193
 10
30.63241102430555
 20
94.35875379774305
 10
30.63241102430555
 20
93.43615722656249
 10
30.96003960503472
 20
92.72612304687499
 10
31.93190104166666
 20
92.72612304687499
 10
32.27606608072917
 20
92.72612304687499
 10
32.87103407118055
 20
92.89010959201389
 10
33.05121256510417
 20
93.80202636718749
 10
33.05121256510417
 20
93.80202636718749
 10
33.56453179253472
 20
93.80202636718749
 10
33.56453179253472
 20
93.80202636718749
 10
33.34611273871528
 20
92.32201334635415
 10
32.14480794270833
 20
92.25655653211804
 10
31.84990776909722
 20
92.25655653211804
 10
30.96003960503472
 20
92.25655653211804
 10
30.08636338975694
 20
92.83533257378471
 10
30.08636338975694
 20
94.34256184895833
 10
30.08636338975694
 20
95.54937879774305
 10
30.77434895833333
 20
96.38481445312499
 10
31.91536458333333
 20
96.38481445312499
 10
32.92581108940972
 20
96.38481445312499
 10
33.44981011284722
 20
95.75677354600694
 10
33.52629123263888
 20
95.1015163845486
 10
33.52629123263888
 20
95.1015163845486
 10
33.01297200520833
 20
95.1015163845486
 10
33.01297200520833
 20
95.1015163845486
 97
        0
 75
     0
 76
     1
 98
        1
 10
0.0
 20
0.0
  0
HATCH
  5
3C
330
A
100
AcDbEntity
  8
LAYER_1
 62
     7
100
AcDbHatch
 10
0.0
 20
0.0
 30
0.0
210
0.0
220
0.0
230
1.0
  2
SOLID
 70
     1
 71
     0
 91
        1
 92
        1
 93
        1
 72
     4
 94
        3
 73
     0
 74
     0
 95
       41
 96
       37
 40
0.0
 40
0.0
 40
0.0
 40
0.0
 40
1.0
 40
1.0
 40
1.0
 40
2.0
 40
2.0
 40
2.0
 40
3.0
 40
3.0
 40
3.0
 40
4.0
 40
4.0
 40
4.0
 40
5.0
 40
5.0
 40
5.0
 40
6.0
 40
6.0
 40
6.0
 40
7.0
 40
7.0
 40
7.0
 40
8.0
 40
8.0
 40
8.0
 40
9.0
 40
9.0
 40
9.0
 40
10.0
 40
10.0
 40
10.0
 40
11.0
 40
11.0
 40
11.0
 40
12.0
 40
12.0
 40
12.0
 40
12.0
 10
37.15087619357639
 20
92.36025390624999
 10
37.15087619357639
 20
92.36025390624999
 10
34.25699598524305
 20
92.36025390624999
 10
34.25699598524305
 20
92.36025390624999
 10
34.25699598524305
 20
92.36025390624999
 10
34.25699598524305
 20
96.28077256944444
 10
34.25699598524305
 20
96.28077256944444
 10
34.25699598524305
 20
96.28077256944444
 10
37.11263563368055
 20
96.28077256944444
 10
37.11263563368055
 20
96.28077256944444
 10
37.11263563368055
 20
96.28077256944444
 10
37.11263563368055
 20
95.81120605468749
 10
37.11263563368055
 20
95.81120605468749
 10
37.11263563368055
 20
95.81120605468749
 10
34.78650716145833
 20
95.81120605468749
 10
34.78650716145833
 20
95.81120605468749
 10
34.78650716145833
 20
95.81120605468749
 10
34.78650716145833
 20
94.60990125868055
 10
34.78650716145833
 20
94.60990125868055
 10
34.78650716145833
 20
94.60990125868055
 10
36.93245713975694
 20
94.60990125868055
 10
36.93245713975694
 20
94.60990125868055
 10
36.93245713975694
 20
94.60990125868055
 10
36.93245713975694
 20
94.1403347439236
 10
36.93245713975694
 20
94.1403347439236
 10
36.93245713975694
 20
94.1403347439236
 10
34.78650716145833
 20
94.1403347439236
 10
34.78650716145833
 20
94.1403347439236
 10
34.78650716145833
 20
94.1403347439236
 10
34.78650716145833
 20
92.83016493055554
 10
34.78650716145833
 20
92.83016493055554
 10
34.78650716145833
 20
92.83016493055554
 10
37.15087619357639
 20
92.83016493055554
 10
37.15087619357639
 20
92.83016493055554
 10
37.15087619357639
 20
92.83016493055554
 10
37.15087619357639
 20
92.36025390624999
 10
37.15087619357639
 20
92.36025390624999
 97
        0
 75
     0
 76
     1
 98
        1
 10
0.0
 20
0.0
  0
SPLINE
  5
3B
330
A
100
AcDbEntity
  8
LAYER_1
 62
     7
100
AcDbSpline
210
0.0
220
0.0
230
1.0
 70
     8
 71
     3
 72
    23
 73
    19
 74
     0
 42
0.0000000001
 43
0.0000000001
 40
0.0
 40
0.0
 40
0.0
 40
0.0
 40
1.0
 40
1.0
 40
1.0
 40
2.0
 40
2.0
 40
2.0
 40
3.0
 40
3.0
 40
3.0
 40
4.0
 40
4.0
 40
4.0
 40
5.0
 40
5.0
 40
5.0
 40
6.0
 40
6.0
 40
6.0
 40
6.0
 10
113.8672960069444
 20
93.51780598958332
 30
0.0
 10
115.8716525607639
 20
91.65607638888888
 30
0.0
 10
117.8766981336806
 20
89.72268880208333
 30
0.0
 10
119.6712483723958
 20
87.71419813368055
 30
0.0
 10
121.3014675564236
 20
85.8896755642361
 30
0.0
 10
124.688685438368
 20
82.90897894965278
 30
0.0
 10
124.8034071180556
 20
80.46571723090277
 30
0.0
 10
124.8798882378472
 20
78.8358425564236
 30
0.0
 10
124.5078179253472
 20
79.0063747829861
 30
0.0
 10
123.5865993923611
 20
77.96871202256943
 30
0.0
 10
122.6447102864583
 20
76.90762261284722
 30
0.0
 10
122.0411295572917
 20
75.78348795572916
 30
0.0
 10
121.3245496961805
 20
74.64832899305554
 30
0.0
 10
120.6096923828125
 20
73.51558159722221
 30
0.0
 10
119.9409993489583
 20
72.83862033420138
 30
0.0
 10
119.1217556423611
 20
71.82266167534722
 30
0.0
 10
118.5750189887153
 20
71.14501139322915
 30
0.0
 10
118.2656494140625
 20
70.05257161458333
 30
0.0
 10
117.3950737847222
 20
69.70530598958332
 30
0.0
  0
SPLINE
  5
3A
330
A
100
AcDbEntity
  8
LAYER_1
 62
     7
100
AcDbSpline
210
0.0
220
0.0
230
1.0
 70
     8
 71
     3
 72
    26
 73
    22
 74
     0
 42
0.0000000001
 43
0.0000000001
 40
0.0
 40
0.0
 40
0.0
 40
0.0
 40
1.0
 40
1.0
 40
1.0
 40
2.0
 40
2.0
 40
2.0
 40
3.0
 40
3.0
 40
3.0
 40
4.0
 40
4.0
 40
4.0
 40
5.0
 40
5.0
 40
5.0
 40
6.0
 40
6.0
 40
6.0
 40
7.0
 40
7.0
 40
7.0
 40
7.0
 10
120.2172960069444
 20
93.57637261284721
 30
0.0
 10
121.5474473741319
 20
91.89998914930555
 30
0.0
 10
122.7198133680555
 20
91.39183756510415
 30
0.0
 10
124.0978515625
 20
90.0878689236111
 30
0.0
 10
125.2516140407986
 20
88.99611816406249
 30
0.0
 10
124.949134657118
 20
87.68870442708332
 30
0.0
 10
125.6509006076389
 20
86.48636610243055
 30
0.0
 10
126.3530110677083
 20
85.28299424913193
 30
0.0
 10
127.8385362413194
 20
85.0339138454861
 30
0.0
 10
128.7397732204861
 20
83.92321506076388
 30
0.0
 10
129.4143229166667
 20
83.09225802951389
 30
0.0
 10
130.4206353081597
 20
81.12441948784722
 30
0.0
 10
130.6242404513889
 20
80.17081705729166
 30
0.0
 10
131.0590115017361
 20
78.13648817274304
 30
0.0
 10
129.5803765190972
 20
77.66933322482639
 30
0.0
 10
128.5024061414931
 20
76.50110134548611
 30
0.0
 10
127.08681640625
 20
74.96700032552083
 30
0.0
 10
127.8905571831597
 20
73.40533854166667
 30
0.0
 10
126.9538357204861
 20
71.83299696180555
 30
0.0
 10
125.8479600694444
 20
69.97746853298611
 30
0.0
 10
122.7928493923611
 20
67.83220757378471
 30
0.0
 10
120.9228515625
 20
66.941650390625
 30
0.0
  0
SPLINE
  5
39
330
A
100
AcDbEntity
  8
LAYER_1
 62
     7
100
AcDbSpline
210
0.0
220
0.0
230
1.0
 70
     8
 71
     3
 72
    11
 73
     7
 74
     0
 42
0.0000000001
 43
0.0000000001
 40
0.0
 40
0.0
 40
0.0
 40
0.0
 40
1.0
 40
1.0
 40
1.0
 40
2.0
 40
2.0
 40
2.0
 40
2.0
 10
128.3311848958333
 20
93.69419487847222
 30
0.0
 10
129.4215576171875
 20
92.72577853732638
 30
0.0
 10
129.9217854817708
 20
90.12335340711805
 30
0.0
 10
131.6563910590278
 20
90.31662326388889
 30
0.0
 10
131.8486273871528
 20
89.71855468749999
 30
0.0
 10
132.1252685546875
 20
89.14770236545138
 30
0.0
 10
132.3881293402778
 20
88.57891710069444
 30
0.0
  0
SPLINE
  5
38
330
A
100
AcDbEntity
  8
LAYER_1
 62
     7
100
AcDbSpline
210
0.0
220
0.0
230
1.0
 70
     8
 71
     3
 72
    11
 73
     7
 74
     0
 42
0.0000000001
 43
0.0000000001
 40
0.0
 40
0.0
 40
0.0
 40
0.0
 40
1.0
 40
1.0
 40
1.0
 40
2.0
 40
2.0
 40
2.0
 40
2.0
 10
132.2117404513889
 20
70.76363932291666
 30
0.0
 10
131.3401312934028
 20
69.81348198784721
 30
0.0
 10
130.2366672092014
 20
68.95772026909722
 30
0.0
 10
129.9858642578125
 20
67.71714138454861
 30
0.0
 10
129.8597737630208
 20
67.63101399739583
 30
0.0
 10
129.7199028862847
 20
67.58829481336805
 30
0.0
 10
129.5659071180556
 20
67.58863932291666
 30
0.0
  0
SPLINE
  5
37
330
A
100
AcDbEntity
  8
LAYER_1
 62
     7
100
AcDbSpline
210
0.0
220
0.0
230
1.0
 70
     8
 71
     3
 72
    14
 73
    10
 74
     0
 42
0.0000000001
 43
0.0000000001
 40
0.0
 40
0.0
 40
0.0
 40
0.0
 40
1.0
 40
1.0
 40
1.0
 40
2.0
 40
2.0
 40
2.0
 40
3.0
 40
3.0
 40
3.0
 40
3.0
 10
117.3950737847222
 20
81.69975043402778
 30
0.0
 10
118.8895562065972
 20
81.65358615451387
 30
0.0
 10
119.3822048611111
 20
79.97582465277777
 30
0.0
 10
119.1324354383681
 20
78.71078559027777
 30
0.0
 10
118.4368706597222
 20
78.66462131076388
 30
0.0
 10
118.2777072482639
 20
78.18609754774305
 30
0.0
 10
118.4268798828125
 20
77.49294433593749
 30
0.0
 10
118.0958062065972
 20
77.51706000434027
 30
0.0
 10
117.8381130642361
 20
77.2979519314236
 30
0.0
 10
117.5714626736111
 20
77.29002821180555
 30
0.0
  0
SPLINE
  5
36
330
A
100
AcDbEntity
  8
LAYER_1
 62
     7
100
AcDbSpline
210
0.0
220
0.0
230
1.0
 70
     8
 71
     3
 72
    32
 73
    28
 74
     0
 42
0.0000000001
 43
0.0000000001
 40
0.0
 40
0.0
 40
0.0
 40
0.0
 40
1.0
 40
1.0
 40
1.0
 40
2.0
 40
2.0
 40
2.0
 40
3.0
 40
3.0
 40
3.0
 40
4.0
 40
4.0
 40
4.0
 40
5.0
 40
5.0
 40
5.0
 40
6.0
 40
6.0
 40
6.0
 40
7.0
 40
7.0
 40
7.0
 40
8.0
 40
8.0
 40
8.0
 40
9.0
 40
9.0
 40
9.0
 40
9.0
 10
47.54507378472222
 20
51.53725043402778
 30
0.0
 10
46.57562391493055
 20
50.39830186631944
 30
0.0
 10
46.64142523871527
 20
49.16323513454861
 30
0.0
 10
46.31896430121527
 20
47.84204101562499
 30
0.0
 10
45.89349500868055
 20
46.10054524739583
 30
0.0
 10
45.18690592447916
 20
44.51821289062499
 30
0.0
 10
44.89510633680555
 20
42.76672634548611
 30
0.0
 10
44.66359592013888
 20
41.37525227864583
 30
0.0
 10
44.32976616753472
 20
40.57495659722222
 30
0.0
 10
43.84021809895833
 20
39.18727213541666
 30
0.0
 10
43.01925184461805
 20
36.85976562499999
 30
0.0
 10
43.83642849392361
 20
36.28340115017361
 30
0.0
 10
44.21986762152778
 20
34.28180067274305
 30
0.0
 10
44.79554307725694
 20
34.05029025607639
 30
0.0
 10
45.54829644097222
 20
33.62275390625
 30
0.0
 10
46.18150499131944
 20
33.71094835069444
 30
0.0
 10
46.98869086371527
 20
33.82360297309027
 30
0.0
 10
47.18506130642361
 20
34.60322808159722
 30
0.0
 10
47.8888943142361
 20
34.82819281684027
 30
0.0
 10
49.07538519965277
 20
35.20680881076389
 30
0.0
 10
50.1213161892361
 20
34.48953993055555
 30
0.0
 10
51.32778862847222
 20
34.42821723090277
 30
0.0
 10
52.51738009982638
 20
34.36758355034722
 30
0.0
 10
55.16011284722222
 20
34.26491970486111
 30
0.0
 10
56.15230034722222
 20
34.63974609375
 30
0.0
 10
57.11382649739583
 20
35.00285915798611
 30
0.0
 10
57.84900987413194
 20
35.87515733506944
 30
0.0
 10
59.01035156249999
 20
36.19141710069444
 30
0.0
  0
SPLINE
  5
35
330
A
100
AcDbEntity
  8
LAYER_1
 62
     7
100
AcDbSpline
210
0.0
220
0.0
230
1.0
 70
     8
 71
     3
 72
    11
 73
     7
 74
     0
 42
0.0000000001
 43
0.0000000001
 40
0.0
 40
0.0
 40
0.0
 40
0.0
 40
1.0
 40
1.0
 40
1.0
 40
2.0
 40
2.0
 40
2.0
 40
2.0
 10
40.48951822916666
 20
43.95252821180555
 30
0.0
 10
40.6645290798611
 20
42.81461317274305
 30
0.0
 10
39.96138509114583
 20
40.79544270833333
 30
0.0
 10
39.78809678819444
 20
39.54280598958333
 30
0.0
 10
39.59930555555555
 20
38.17820366753472
 30
0.0
 10
39.43566351996527
 20
36.9128200954861
 30
0.0
 10
39.43118489583333
 20
35.48586154513889
 30
0.0
  0
SPLINE
  5
34
330
A
100
AcDbEntity
  8
LAYER_1
 62
     7
100
AcDbSpline
210
0.0
220
0.0
230
1.0
 70
     8
 71
     3
 72
    14
 73
    10
 74
     0
 42
0.0000000001
 43
0.0000000001
 40
0.0
 40
0.0
 40
0.0
 40
0.0
 40
1.0
 40
1.0
 40
1.0
 40
2.0
 40
2.0
 40
2.0
 40
3.0
 40
3.0
 40
3.0
 40
3.0
 10
44.37007378472222
 20
28.78308376736111
 30
0.0
 10
45.01844075520833
 20
28.56638726128472
 30
0.0
 10
45.66336263020833
 20
28.96464029947916
 30
0.0
 10
46.27038845486111
 20
28.74208713107639
 30
0.0
 10
46.97043185763889
 20
28.4850830078125
 30
0.0
 10
47.04450141059027
 20
27.93180067274305
 30
0.0
 10
47.89785156249999
 20
27.72888454861111
 30
0.0
 10
49.09881184895833
 20
27.44294162326389
 30
0.0
 10
50.66770833333333
 20
28.13058268229166
 30
0.0
 10
51.77840711805555
 20
28.60669487847222
 30
0.0
  0
SPLINE
  5
33
330
A
100
AcDbEntity
  8
LAYER_1
 62
     7
100
AcDbSpline
210
0.0
220
0.0
230
1.0
 70
     8
 71
     3
 72
    23
 73
    19
 74
     0
 42
0.0000000001
 43
0.0000000001
 40
0.0
 40
0.0
 40
0.0
 40
0.0
 40
1.0
 40
1.0
 40
1.0
 40
2.0
 40
2.0
 40
2.0
 40
3.0
 40
3.0
 40
3.0
 40
4.0
 40
4.0
 40
4.0
 40
5.0
 40
5.0
 40
5.0
 40
6.0
 40
6.0
 40
6.0
 40
6.0
 10
52.6603515625
 20
56.82891710069444
 30
0.0
 10
51.76187065972222
 20
53.89748535156249
 30
0.0
 10
50.79758843315972
 20
52.37509765625
 30
0.0
 10
50.50509982638889
 20
49.20423177083333
 30
0.0
 10
50.26497667100694
 20
46.60077311197917
 30
0.0
 10
49.16185709635416
 20
44.63775770399305
 30
0.0
 10
49.51187879774305
 20
42.03877766927083
 30
0.0
 10
50.97638888888888
 20
41.74284396701388
 30
0.0
 10
52.10534667968749
 20
42.1838161892361
 30
0.0
 10
53.36590711805555
 20
42.37398546006944
 30
0.0
 10
53.91643337673611
 20
42.45735677083333
 30
0.0
 10
54.46006944444444
 20
42.67715386284722
 30
0.0
 10
55.07467447916666
 20
42.46631401909722
 30
0.0
 10
55.87703721788194
 20
42.19139539930555
 30
0.0
 10
55.88048231336805
 20
41.30566134982639
 30
0.0
 10
56.53298339843749
 20
41.07862955729166
 30
0.0
 10
58.82810601128472
 20
40.27902289496527
 30
0.0
 10
61.80432400173611
 20
42.29130316840278
 30
0.0
 10
64.12562934027777
 20
42.18863932291666
 30
0.0
  0
SPLINE
  5
32
330
A
100
AcDbEntity
  8
LAYER_1
 62
     7
100
AcDbSpline
210
0.0
220
0.0
230
1.0
 70
     8
 71
     3
 72
    23
 73
    19
 74
     0
 42
0.0000000001
 43
0.0000000001
 40
0.0
 40
0.0
 40
0.0
 40
0.0
 40
1.0
 40
1.0
 40
1.0
 40
2.0
 40
2.0
 40
2.0
 40
3.0
 40
3.0
 40
3.0
 40
4.0
 40
4.0
 40
4.0
 40
5.0
 40
5.0
 40
5.0
 40
6.0
 40
6.0
 40
6.0
 40
6.0
 10
60.77424045138888
 20
60.88586154513888
 30
0.0
 10
59.81271430121527
 20
59.06443956163194
 30
0.0
 10
58.22831488715277
 20
56.54917534722222
 30
0.0
 10
57.93444824218749
 20
54.53861762152777
 30
0.0
 10
57.83488498263888
 20
53.85890028211805
 30
0.0
 10
58.30445149739583
 20
52.45364583333333
 30
0.0
 10
57.96407606336805
 20
51.88107096354166
 30
0.0
 10
57.30123969184027
 20
50.76658257378472
 30
0.0
 10
56.00174967447916
 20
51.37808702256944
 30
0.0
 10
55.48257378472222
 20
50.12613932291666
 30
0.0
 10
54.45386827256944
 20
47.64463704427083
 30
0.0
 10
56.511279296875
 20
45.75741373697916
 30
0.0
 10
58.82293836805555
 20
46.09572211371528
 30
0.0
 10
60.17548285590277
 20
46.29381510416666
 30
0.0
 10
60.96751030815972
 20
47.17265896267361
 30
0.0
 10
62.17639431423611
 20
47.48926323784722
 30
0.0
 10
62.94637315538194
 20
47.69114583333333
 30
0.0
 10
64.027099609375
 20
47.48030598958333
 30
0.0
 10
64.83118489583333
 20
47.48030598958333
 30
0.0
  0
SPLINE
  5
31
330
A
100
AcDbEntity
  8
LAYER_1
 62
     7
100
AcDbSpline
210
0.0
220
0.0
230
1.0
 70
     8
 71
     3
 72
    11
 73
     7
 74
     0
 42
0.0000000001
 43
0.0000000001
 40
0.0
 40
0.0
 40
0.0
 40
0.0
 40
1.0
 40
1.0
 40
1.0
 40
2.0
 40
2.0
 40
2.0
 40
2.0
 10
62.53812934027777
 20
55.41780598958333
 30
0.0
 10
62.16502549913194
 20
53.78241916232638
 30
0.0
 10
60.83694118923611
 20
52.06882866753472
 30
0.0
 10
61.15354546440972
 20
50.32905544704861
 30
0.0
 10
62.13229709201389
 20
50.28116861979166
 30
0.0
 10
63.13792046440972
 20
50.30252821180555
 30
0.0
 10
64.12562934027777
 20
50.30252821180555
 30
0.0
  0
LINE
  5
30
330
A
100
AcDbEntity
  8
LAYER_1
 62
     7
100
AcDbLine
 10
38.2150661892361
 20
35.48241644965277
 30
0.0
 11
39.82805989583333
 21
34.51572265625
 31
0.0
  0
LINE
  5
2F
330
A
100
AcDbEntity
  8
LAYER_1
 62
     7
100
AcDbLine
 10
38.02007378472222
 20
34.25113932291666
 30
0.0
 11
39.78396267361111
 21
32.84002821180555
 31
0.0
  0
LINE
  5
2E
330
A
100
AcDbEntity
  8
LAYER_1
 62
     7
100
AcDbLine
 10
41.76833767361111
 20
31.73759765625
 30
0.0
 11
39.82805989583333
 21
32.70773654513889
 31
0.0
  0
LWPOLYLINE
  5
29
330
A
100
AcDbEntity
  8
LAYER_1
 62
     7
100
AcDbPolyline
 90
        3
 70
     0
 43
0.0
 10
31.49368489583333
 20
45.84870876736111
 10
39.12250434027777
 20
34.86850043402777
 10
38.94611545138888
 20
33.76606987847222
  0
LWPOLYLINE
  5
24
330
A
100
AcDbEntity
  8
LAYER_1
 62
     7
100
AcDbPolyline
 90
        3
 70
     0
 43
0.0
 10
47.98604600694444
 20
22.60947265625
 10
40.9745876736111
 20
32.04627821180555
 10
41.13616265190972
 20
32.78111707899306
  0
LINE
  5
23
330
A
100
AcDbEntity
  8
LAYER_1
 62
     7
100
AcDbLine
 10
38.63743489583333
 20
35.13308376736111
 30
0.0
 11
38.46104600694444
 21
33.94245876736111
 31
0.0
  0
LINE
  5
22
330
A
100
AcDbEntity
  8
LAYER_1
 62
     7
100
AcDbLine
 10
39.47528211805555
 20
34.64801432291667
 30
0.0
 11
39.29889322916667
 21
33.36919487847222
 31
0.0
  0
ENDSEC
  0
SECTION
  2
OBJECTS
  0
DICTIONARY
  5
19
330
0
100
AcDbDictionary
281
     1
  3
ACAD_COLOR
350
15B
  3
ACAD_GROUP
350
1A
  3
ACAD_LAYOUT
350
128
  3
ACAD_MATERIAL
350
15D
  3
ACAD_MLINESTYLE
350
1B
  3
ACAD_PLOTSETTINGS
350
129
  3
ACAD_PLOTSTYLENAME
350
126
  3
ACDBHEADERROUNDTRIPXREC
350
15A
  0
DICTIONARY
  5
15B
102
{ACAD_REACTORS
330
19
102
}
330
19
100
AcDbDictionary
281
     1
  0
DICTIONARY
  5
1A
102
{ACAD_REACTORS
330
19
102
}
330
19
100
AcDbDictionary
281
     1
  0
DICTIONARY
  5
128
102
{ACAD_REACTORS
330
19
102
}
330
19
100
AcDbDictionary
281
     1
  3
Layout1
350
12B
  3
Model
350
12A
  0
DICTIONARY
  5
15D
102
{ACAD_REACTORS
330
19
102
}
330
19
100
AcDbDictionary
281
     1
  0
DICTIONARY
  5
1B
102
{ACAD_REACTORS
330
19
102
}
330
19
100
AcDbDictionary
281
     1
  3
STANDARD
350
1C
  0
DICTIONARY
  5
129
102
{ACAD_REACTORS
330
19
102
}
330
19
100
AcDbDictionary
281
     1
  0
ACDBDICTIONARYWDFLT
  5
126
102
{ACAD_REACTORS
330
19
102
}
330
19
100
AcDbDictionary
281
     1
  3
Normal
350
127
100
AcDbDictionaryWithDefault
340
127
  0
DICTIONARY
  5
15A
102
{ACAD_REACTORS
330
19
102
}
330
19
100
AcDbDictionary
281
     1
  3
COLORDICT
350
15C
  3
MATERIALDICT
350
15E
  0
LAYOUT
  5
12B
102
{ACAD_REACTORS
330
128
102
}
102
{ACAD_XDICTIONARY
360
15F
102
}
330
128
100
AcDbPlotSettings
  1

  2
Support Center HP LaserJet 4
  4

  6

 40
0.0
 41
0.0
 42
0.0
 43
0.0
 44
0.0
 45
0.0
 46
0.0
 47
0.0
 48
0.0
 49
0.0
140
0.0
141
0.0
142
1.0
143
1.0
 70
   688
 72
     0
 73
     0
 74
     5
  7

 75
    16
147
1.0
148
0.0
149
0.0
100
AcDbLayout
  1
Layout1
 70
     0
 71
     1
 10
0.0
 20
0.0
 11
12.0
 21
9.0
 12
0.0
 22
0.0
 32
0.0
 14
1.000000000000000E+20
 24
1.000000000000000E+20
 34
1.000000000000000E+20
 15
-1.000000000000000E+20
 25
-1.000000000000000E+20
 35
-1.000000000000000E+20
146
0.0
 13
0.0
 23
0.0
 33
0.0
 16
1.0
 26
0.0
 36
0.0
 17
0.0
 27
1.0
 37
0.0
 76
     0
330
B
  0
LAYOUT
  5
12A
102
{ACAD_REACTORS
330
128
102
}
102
{ACAD_XDICTIONARY
360
161
102
}
330
128
100
AcDbPlotSettings
  1

  2
Support Center HP LaserJet 4
  4

  6

 40
0.0
 41
0.0
 42
0.0
 43
0.0
 44
0.0
 45
0.0
 46
0.0
 47
0.0
 48
0.0
 49
0.0
140
0.0
141
0.0
142
1.0
143
1.0
 70
  1712
 72
     0
 73
     0
 74
     0
  7

 75
     0
147
1.0
148
0.0
149
0.0
100
AcDbLayout
  1
Model
 70
     1
 71
     0
 10
0.0
 20
0.0
 11
12.0
 21
9.0
 12
0.0
 22
0.0
 32
0.0
 14
0.0
 24
0.0
 34
0.0
 15
0.0
 25
0.0
 35
0.0
146
0.0
 13
0.0
 23
0.0
 33
0.0
 16
1.0
 26
0.0
 36
0.0
 17
0.0
 27
1.0
 37
0.0
 76
     0
330
A
  0
MLINESTYLE
  5
1C
102
{ACAD_REACTORS
330
1B
102
}
330
1B
100
AcDbMlineStyle
  2
STANDARD
 70
     0
  3

 62
     0
 51
90.0000000000002
 52
90.0000000000002
 71
     2
 49
0.5
 62
   256
  6
BYLAYER
 49
-0.5
 62
   256
  6
BYLAYER
  0
ACDBPLACEHOLDER
  5
127
102
{ACAD_REACTORS
330
126
102
}
330
126
  0
XRECORD
  5
15C
102
{ACAD_REACTORS
330
15A
102
}
330
15A
100
AcDbXrecord
340
15B
  0
XRECORD
  5
15E
102
{ACAD_REACTORS
330
15A
102
}
330
15A
100
AcDbXrecord
340
15D
  0
DICTIONARY
  5
15F
330
12B
100
AcDbDictionary
280
     1
281
     1
  3
ACAD_XREC_ROUNDTRIP
360
160
  0
DICTIONARY
  5
161
330
12A
100
AcDbDictionary
280
     1
281
     1
  3
ACAD_XREC_ROUNDTRIP
360
162
  0
XRECORD
  5
160
102
{ACAD_REACTORS
330
15F
102
}
330
15F
100
AcDbXrecord
102
SHADEPLOT
 70
-23928
102
SHADEPLOTRESLEVEL
 70
-24448
102
SHADEPLOTCUSTOMDPI
 70
 23008
  0
XRECORD
  5
162
102
{ACAD_REACTORS
330
161
102
}
330
161
100
AcDbXrecord
102
SHADEPLOT
 70
     0
102
SHADEPLOTRESLEVEL
 70
     0
102
SHADEPLOTCUSTOMDPI
 70
     0
  0
ENDSEC
  0
EOF
