  0
SECTION
  2
HEADER
  9
$ACADVER
  1
AC1015
  9
$ACADMAINTVER
 70
     6
  9
$DWGCODEPAGE
  3
ANSI_1252
  9
$INSBASE
 10
-0.945
 20
1.385
 30
0.0
  9
$EXTMIN
 10
-0.8490000000000001
 20
0.6713479999999996
 30
0.0
  9
$EXTMAX
 10
7.161000000000001
 20
7.085
 30
0.0
  9
$LIMMIN
 10
0.0
 20
0.0
  9
$LIMMAX
 10
15.0
 20
12.0
  9
$ORTHOMODE
 70
     0
  9
$REGENMODE
 70
     0
  9
$FILLMODE
 70
     1
  9
$QTEXTMODE
 70
     0
  9
$MIRRTEXT
 70
     1
  9
$LTSCALE
 40
0.25
  9
$ATTMODE
 70
     1
  9
$TEXTSIZE
 40
0.175
  9
$TRACEWID
 40
0.05
  9
$TEXTSTYLE
  7
STANDARD
  9
$CLAYER
  8
0
  9
$CELTYPE
  6
ByLayer
  9
$CECOLOR
 62
   256
  9
$CELTSCALE
 40
1.0
  9
$DISPSILH
 70
     0
  9
$DIMSCALE
 40
1.0
  9
$DIMASZ
 40
0.125
  9
$DIMEXO
 40
0.063
  9
$DIMDLI
 40
0.38
  9
$DIMRND
 40
0.0
  9
$DIMDLE
 40
0.0
  9
$DIMEXE
 40
0.18
  9
$DIMTP
 40
0.0
  9
$DIMTM
 40
0.0
  9
$DIMTXT
 40
0.125
  9
$DIMCEN
 40
0.09
  9
$DIMTSZ
 40
0.0
  9
$DIMTOL
 70
     0
  9
$DIMLIM
 70
     0
  9
$DIMTIH
 70
     1
  9
$DIMTOH
 70
     1
  9
$DIMSE1
 70
     0
  9
$DIMSE2
 70
     0
  9
$DIMTAD
 70
     0
  9
$DIMZIN
 70
     0
  9
$DIMBLK
  1

  9
$DIMASO
 70
     0
  9
$DIMSHO
 70
     0
  9
$DIMPOST
  1

  9
$DIMAPOST
  1

  9
$DIMALT
 70
     0
  9
$DIMALTD
 70
     2
  9
$DIMALTF
 40
25.4
  9
$DIMLFAC
 40
1.0
  9
$DIMTOFL
 70
     0
  9
$DIMTVP
 40
0.0
  9
$DIMTIX
 70
     0
  9
$DIMSOXD
 70
     0
  9
$DIMSAH
 70
     0
  9
$DIMBLK1
  1

  9
$DIMBLK2
  1

  9
$DIMSTYLE
  2
Standard
  9
$DIMCLRD
 70
     0
  9
$DIMCLRE
 70
     0
  9
$DIMCLRT
 70
     0
  9
$DIMTFAC
 40
1.0
  9
$DIMGAP
 40
0.09
  9
$DIMJUST
 70
     0
  9
$DIMSD1
 70
     0
  9
$DIMSD2
 70
     0
  9
$DIMTOLJ
 70
     1
  9
$DIMTZIN
 70
     0
  9
$DIMALTZ
 70
     0
  9
$DIMALTTZ
 70
     0
  9
$DIMUPT
 70
     0
  9
$DIMDEC
 70
     4
  9
$DIMTDEC
 70
     4
  9
$DIMALTU
 70
     2
  9
$DIMALTTD
 70
     2
  9
$DIMTXSTY
  7
STANDARD
  9
$DIMAUNIT
 70
     0
  9
$DIMADEC
 70
     0
  9
$DIMALTRND
 40
0.0
  9
$DIMAZIN
 70
     0
  9
$DIMDSEP
 70
    46
  9
$DIMATFIT
 70
     3
  9
$DIMFRAC
 70
     0
  9
$DIMLDRBLK
  1

  9
$DIMLUNIT
 70
     2
  9
$DIMLWD
 70
    -2
  9
$DIMLWE
 70
    -2
  9
$DIMTMOVE
 70
     0
  9
$LUNITS
 70
     2
  9
$LUPREC
 70
     4
  9
$SKETCHINC
 40
0.038
  9
$FILLETRAD
 40
0.0
  9
$AUNITS
 70
     0
  9
$AUPREC
 70
     0
  9
$MENU
  1
acad
  9
$ELEVATION
 40
0.0
  9
$PELEVATION
 40
0.0
  9
$THICKNESS
 40
0.0
  9
$LIMCHECK
 70
     0
  9
$CHAMFERA
 40
0.0
  9
$CHAMFERB
 40
0.0
  9
$CHAMFERC
 40
1.0
  9
$CHAMFERD
 40
0.0
  9
$SKPOLY
 70
     1
  9
$TDCREATE
 40
2453955.561425741
  9
$TDUCREATE
 40
2453955.894759074
  9
$TDUPDATE
 40
2453955.603092419
  9
$TDUUPDATE
 40
2453955.894759086
  9
$TDINDWG
 40
0.0000000116
  9
$TDUSRTIMER
 40
0.0000000116
  9
$USRTIMER
 70
     1
  9
$ANGBASE
 50
0.0
  9
$ANGDIR
 70
     0
  9
$PDMODE
 70
     0
  9
$PDSIZE
 40
0.0
  9
$PLINEWID
 40
0.0
  9
$SPLFRAME
 70
     0
  9
$SPLINETYPE
 70
     6
  9
$SPLINESEGS
 70
     8
  9
$HANDSEED
  5
939
  9
$SURFTAB1
 70
     6
  9
$SURFTAB2
 70
     6
  9
$SURFTYPE
 70
     6
  9
$SURFU
 70
     6
  9
$SURFV
 70
     6
  9
$UCSBASE
  2

  9
$UCSNAME
  2

  9
$UCSORG
 10
0.0
 20
0.0
 30
0.0
  9
$UCSXDIR
 10
1.0
 20
0.0
 30
0.0
  9
$UCSYDIR
 10
0.0
 20
1.0
 30
0.0
  9
$UCSORTHOREF
  2

  9
$UCSORTHOVIEW
 70
     0
  9
$UCSORGTOP
 10
0.0
 20
0.0
 30
0.0
  9
$UCSORGBOTTOM
 10
0.0
 20
0.0
 30
0.0
  9
$UCSORGLEFT
 10
0.0
 20
0.0
 30
0.0
  9
$UCSORGRIGHT
 10
0.0
 20
0.0
 30
0.0
  9
$UCSORGFRONT
 10
0.0
 20
0.0
 30
0.0
  9
$UCSORGBACK
 10
0.0
 20
0.0
 30
0.0
  9
$PUCSBASE
  2

  9
$PUCSNAME
  2

  9
$PUCSORG
 10
0.0
 20
0.0
 30
0.0
  9
$PUCSXDIR
 10
1.0
 20
0.0
 30
0.0
  9
$PUCSYDIR
 10
0.0
 20
1.0
 30
0.0
  9
$PUCSORTHOREF
  2

  9
$PUCSORTHOVIEW
 70
     0
  9
$PUCSORGTOP
 10
0.0
 20
0.0
 30
0.0
  9
$PUCSORGBOTTOM
 10
0.0
 20
0.0
 30
0.0
  9
$PUCSORGLEFT
 10
0.0
 20
0.0
 30
0.0
  9
$PUCSORGRIGHT
 10
0.0
 20
0.0
 30
0.0
  9
$PUCSORGFRONT
 10
0.0
 20
0.0
 30
0.0
  9
$PUCSORGBACK
 10
0.0
 20
0.0
 30
0.0
  9
$USERI1
 70
     0
  9
$USERI2
 70
     0
  9
$USERI3
 70
     0
  9
$USERI4
 70
     0
  9
$USERI5
 70
     0
  9
$USERR1
 40
0.0
  9
$USERR2
 40
0.0
  9
$USERR3
 40
0.0
  9
$USERR4
 40
0.0
  9
$USERR5
 40
0.0
  9
$WORLDVIEW
 70
     1
  9
$SHADEDGE
 70
     3
  9
$SHADEDIF
 70
    70
  9
$TILEMODE
 70
     1
  9
$MAXACTVP
 70
    16
  9
$PINSBASE
 10
4.408
 20
50.0
 30
3.614
  9
$PLIMCHECK
 70
     0
  9
$PEXTMIN
 10
1.000000000000000E+20
 20
1.000000000000000E+20
 30
1.000000000000000E+20
  9
$PEXTMAX
 10
-1.000000000000000E+20
 20
-1.000000000000000E+20
 30
-1.000000000000000E+20
  9
$PLIMMIN
 10
0.0
 20
0.0
  9
$PLIMMAX
 10
12.0
 20
9.0
  9
$UNITMODE
 70
     0
  9
$VISRETAIN
 70
     0
  9
$PLINEGEN
 70
     0
  9
$PSLTSCALE
 70
     0
  9
$TREEDEPTH
 70
  3020
  9
$CMLSTYLE
  2
Standard
  9
$CMLJUST
 70
     0
  9
$CMLSCALE
 40
1.0
  9
$PROXYGRAPHICS
 70
     1
  9
$MEASUREMENT
 70
     0
  9
$CELWEIGHT
370
    -1
  9
$ENDCAPS
280
     0
  9
$JOINSTYLE
280
     0
  9
$LWDISPLAY
290
     0
  9
$INSUNITS
 70
     1
  9
$HYPERLINKBASE
  1

  9
$STYLESHEET
  1

  9
$XEDIT
290
     1
  9
$CEPSNTYPE
380
     0
  9
$PSTYLEMODE
290
     0
  9
$FINGERPRINTGUID
  2
{FAEB1C30-E019-11D5-929B-00C0DF256EC4}
  9
$VERSIONGUID
  2
{FAEB1C32-E019-11D5-929B-00C0DF256EC4}
  9
$EXTNAMES
290
     1
  9
$PSVPSCALE
 40
0.0
  9
$OLESTARTUP
290
     0
  0
ENDSEC
  0
SECTION
  2
CLASSES
  0
CLASS
  1
ACDBDICTIONARYWDFLT
  2
AcDbDictionaryWithDefault
  3
AutoCAD 2000
 90
        0
280
     0
281
     0
  0
CLASS
  1
ACDBPLACEHOLDER
  2
AcDbPlaceHolder
  3
ObjectDBX Classes
 90
        0
280
     0
281
     0
  0
CLASS
  1
LAYOUT
  2
AcDbLayout
  3
ObjectDBX Classes
 90
        0
280
     0
281
     0
  0
ENDSEC
  0
SECTION
  2
TABLES
  0
TABLE
  2
VPORT
  5
8
330
0
100
AcDbSymbolTable
 70
     2
  0
VPORT
  5
1F
330
8
100
AcDbSymbolTableRecord
100
AcDbViewportTableRecord
  2
*ACTIVE
 70
     0
 10
0.0
 20
0.0
 11
1.0
 21
1.0
 12
7.475455205811138
 22
6.0
 13
0.0
 23
0.0
 14
0.005
 24
0.005
 15
0.0
 25
0.0
 16
0.0
 26
0.0
 36
1.0
 17
0.0
 27
0.0
 37
0.0
 40
12.0
 41
0.7207678883071553
 42
50.0
 43
0.0
 44
0.0
 50
0.0
 51
0.0
 71
     0
 72
  2000
 73
     1
 74
     0
 75
     0
 76
     0
 77
     0
 78
     2
281
     0
 65
     1
110
0.0
120
0.0
130
0.0
111
1.0
121
0.0
131
0.0
112
0.0
122
1.0
132
0.0
 79
     0
146
0.0
  0
ENDTAB
  0
TABLE
  2
LTYPE
  5
5
330
0
100
AcDbSymbolTable
 70
     2
  0
LTYPE
  5
10
330
5
100
AcDbSymbolTableRecord
100
AcDbLinetypeTableRecord
  2
ByBlock
 70
     0
  3

 72
    65
 73
     0
 40
0.0
  0
LTYPE
  5
11
330
5
100
AcDbSymbolTableRecord
100
AcDbLinetypeTableRecord
  2
ByLayer
 70
     0
  3

 72
    65
 73
     0
 40
0.0
  0
LTYPE
  5
1B
330
5
100
AcDbSymbolTableRecord
100
AcDbLinetypeTableRecord
  2
CONTINUOUS
 70
     0
  3
Solid line
 72
    65
 73
     0
 40
0.0
  0
LTYPE
  5
1C
330
5
100
AcDbSymbolTableRecord
100
AcDbLinetypeTableRecord
  2
HIDDEN2
 70
     0
  3
_ _ _ _ _ _ _ _ _ _ _ _ _ _ _ _ _ _ _ _ _ _ _ _
 72
    65
 73
     2
 40
0.188
 49
0.125
 74
     0
 49
-0.063
 74
     0
  0
ENDTAB
  0
TABLE
  2
LAYER
  5
2
330
0
100
AcDbSymbolTable
 70
     1
  0
LAYER
  5
1D
330
2
100
AcDbSymbolTableRecord
100
AcDbLayerTableRecord
  2
0
 70
     0
 62
     7
  6
CONTINUOUS
370
    -3
390
F
  0
ENDTAB
  0
TABLE
  2
STYLE
  5
3
330
0
100
AcDbSymbolTable
 70
     1
  0
STYLE
  5
21
330
3
100
AcDbSymbolTableRecord
100
AcDbTextStyleTableRecord
  2
STANDARD
 70
     0
 40
0.0
 41
1.0
 50
0.0
 71
     0
 42
0.175
  3
ROMANS
  4

  0
ENDTAB
  0
TABLE
  2
VIEW
  5
6
330
0
100
AcDbSymbolTable
 70
     0
  0
ENDTAB
  0
TABLE
  2
UCS
  5
7
330
0
100
AcDbSymbolTable
 70
     0
  0
ENDTAB
  0
TABLE
  2
APPID
  5
9
330
0
100
AcDbSymbolTable
 70
     1
  0
APPID
  5
20
330
9
100
AcDbSymbolTableRecord
100
AcDbRegAppTableRecord
  2
ACAD
 70
     0
  0
ENDTAB
  0
TABLE
  2
DIMSTYLE
  5
A
330
0
100
AcDbSymbolTable
 70
     1
100
AcDbDimStyleTable
  0
DIMSTYLE
105
22
330
A
100
AcDbSymbolTableRecord
100
AcDbDimStyleTableRecord
  2
Standard
 70
     0
  3

  4

340
21
  0
ENDTAB
  0
TABLE
  2
BLOCK_RECORD
  5
1
330
0
100
AcDbSymbolTable
 70
     0
  0
BLOCK_RECORD
  5
18
330
1
100
AcDbSymbolTableRecord
100
AcDbBlockTableRecord
  2
*Model_Space
340
19
  0
BLOCK_RECORD
  5
16
330
1
100
AcDbSymbolTableRecord
100
AcDbBlockTableRecord
  2
*Paper_Space
340
17
  0
ENDTAB
  0
ENDSEC
  0
SECTION
  2
BLOCKS
  0
BLOCK
  5
92E
330
18
100
AcDbEntity
  8
0
100
AcDbBlockBegin
  2
*Model_Space
 70
     0
 10
0.0
 20
0.0
 30
0.0
  3
*Model_Space
  1

  4

  0
ENDBLK
  5
92F
330
18
100
AcDbEntity
  8
0
100
AcDbBlockEnd
  0
BLOCK
  5
92C
330
16
100
AcDbEntity
 67
     1
  8
0
100
AcDbBlockBegin
  2
*Paper_Space
 70
     0
 10
0.0
 20
0.0
 30
0.0
  3
*Paper_Space
  1

  4

  0
ENDBLK
  5
92D
330
16
100
AcDbEntity
 67
     1
  8
0
100
AcDbBlockEnd
  0
ENDSEC
  0
SECTION
  2
ENTITIES
  0
LINE
  5
23
330
18
100
AcDbEntity
  8
0
100
AcDbLine
 10
7.161000000000001
 20
3.336
 30
0.0
 11
7.047999999999999
 21
3.129
 31
0.0
  0
LINE
  5
24
330
18
100
AcDbEntity
  8
0
100
AcDbLine
 10
7.018
 20
2.98
 30
0.0
 11
7.127999999999999
 21
3.153
 31
0.0
  0
LINE
  5
25
330
18
100
AcDbEntity
  8
0
100
AcDbLine
 10
7.105
 20
3.232
 30
0.0
 11
7.073
 21
3.066
 31
0.0
  0
LINE
  5
26
330
18
100
AcDbEntity
  8
0
100
AcDbLine
 10
7.105
 20
3.232
 30
0.0
 11
5.718999999999999
 21
3.923
 31
0.0
  0
LINE
  5
27
330
18
100
AcDbEntity
  8
0
100
AcDbLine
 10
5.778
 20
4.022
 30
0.0
 11
7.161000000000001
 21
3.336
 31
0.0
  0
LWPOLYLINE
  5
28
330
18
100
AcDbEntity
  8
0
100
AcDbPolyline
 90
        3
 70
     0
 43
0.0
 10
7.065
 20
3.16
 10
7.082999999999999
 20
3.124
 10
7.084
 20
3.123
  0
LWPOLYLINE
  5
2E
330
18
100
AcDbEntity
  8
0
100
AcDbPolyline
 90
        3
 70
     0
 43
0.0
 10
7.049
 20
3.13
 10
7.065
 20
3.103
 10
7.077000000000001
 20
3.086
  0
LINE
  5
34
330
18
100
AcDbEntity
  8
0
100
AcDbLine
 10
-0.624
 20
6.803
 30
0.0
 11
2.873
 21
5.053999999999999
 31
0.0
  0
LINE
  5
35
330
18
100
AcDbEntity
  8
0
100
AcDbLine
 10
4.56
 20
6.487
 30
0.0
 11
3.529
 21
5.175
 31
0.0
  0
LINE
  5
36
330
18
100
AcDbEntity
  8
0
100
AcDbLine
 10
4.539
 20
6.372000000000001
 30
0.0
 11
3.581
 21
5.149
 31
0.0
  0
LINE
  5
37
330
18
100
AcDbEntity
  8
0
100
AcDbLine
 10
4.615
 20
6.358
 30
0.0
 11
3.649
 21
5.116000000000001
 31
0.0
  0
LINE
  5
38
330
18
100
AcDbEntity
  8
0
100
AcDbLine
 10
0.914
 20
6.473
 30
0.0
 11
5.787999999999999
 21
4.055
 31
0.0
  0
LINE
  5
39
330
18
100
AcDbEntity
  8
0
100
AcDbLine
 10
0.696
 20
6.29
 30
0.0
 11
5.644
 21
3.815
 31
0.0
  0
LINE
  5
3A
330
18
100
AcDbEntity
  8
0
100
AcDbLine
 10
0.6890000000000001
 20
6.266
 30
0.0
 11
5.638999999999999
 21
3.79
 31
0.0
  0
LINE
  5
3B
330
18
100
AcDbEntity
  8
0
100
AcDbLine
 10
3.624
 20
5.127999999999999
 30
0.0
 11
4.521
 21
6.276
 31
0.0
  0
LWPOLYLINE
  5
3C
330
18
100
AcDbEntity
  8
0
100
AcDbPolyline
 90
       19
 70
     0
 43
0.0
 10
4.477
 20
4.705
 10
4.509
 20
4.789
 10
4.588
 20
4.887
 10
4.616000000000001
 20
4.967
 10
4.614
 20
5.047
 10
4.56
 20
5.169
 10
4.532
 20
5.279
 10
4.515
 20
5.358
 10
4.456
 20
5.502999999999999
 10
4.434
 20
5.582000000000001
 10
4.463
 20
5.627999999999999
 10
4.548
 20
5.695
 10
4.597
 20
5.76
 10
4.596
 20
5.82
 10
4.542
 20
5.893
 10
4.538
 20
5.999
 10
4.562
 20
6.122000000000001
 10
4.584
 20
6.232
 10
4.615
 20
6.358
  0
LINE
  5
52
330
18
100
AcDbEntity
  8
0
100
AcDbLine
 10
3.144
 20
5.366000000000001
 30
0.0
 11
4.215
 21
6.66
 31
0.0
  0
LWPOLYLINE
  5
53
330
18
100
AcDbEntity
  8
0
100
AcDbPolyline
 90
       16
 70
     1
 43
0.0
 10
1.395
 20
6.013999999999999
 42
0.166
 10
1.395
 20
6.01
 42
0.106
 10
1.4
 20
6.005
 42
0.069
 10
1.406
 20
6.002000000000001
 42
0.055
 10
1.414
 20
5.999
 42
0.055
 10
1.423
 20
5.999
 42
0.069
 10
1.43
 20
6.0
 42
0.106
 10
1.435
 20
6.004
 42
0.166
 10
1.437
 20
6.007999999999999
 42
0.166
 10
1.437
 20
6.012000000000001
 42
0.106
 10
1.432
 20
6.017
 42
0.069
 10
1.426
 20
6.02
 42
0.055
 10
1.418
 20
6.022
 42
0.055
 10
1.409
 20
6.023
 42
0.069
 10
1.402
 20
6.021
 42
0.106
 10
1.397
 20
6.018
 42
0.166
  0
LWPOLYLINE
  5
66
330
18
100
AcDbEntity
  8
0
100
AcDbPolyline
 90
       16
 70
     1
 43
0.0
 10
1.681
 20
5.996
 42
0.166
 10
1.681
 20
5.992000000000001
 42
0.106
 10
1.686
 20
5.987
 42
0.069
 10
1.692
 20
5.983
 42
0.055
 10
1.7
 20
5.981
 42
0.055
 10
1.709
 20
5.981
 42
0.069
 10
1.716
 20
5.982
 42
0.106
 10
1.721
 20
5.985
 42
0.166
 10
1.723
 20
5.989
 42
0.166
 10
1.723
 20
5.992999999999999
 42
0.106
 10
1.718
 20
5.997999999999999
 42
0.069
 10
1.712
 20
6.002000000000001
 42
0.055
 10
1.704
 20
6.004
 42
0.055
 10
1.695
 20
6.004
 42
0.069
 10
1.688
 20
6.002999999999999
 42
0.106
 10
1.682
 20
6.0
 42
0.166
  0
LINE
  5
79
330
18
100
AcDbEntity
  8
0
100
AcDbLine
 10
-0.005
 20
6.492999999999999
 30
0.0
 11
0.28
 21
5.087
 31
0.0
  0
LINE
  5
7A
330
18
100
AcDbEntity
  8
0
100
AcDbLine
 10
-0.115
 20
6.549
 30
0.0
 11
0.193
 21
5.092
 31
0.0
  0
LINE
  5
7B
330
18
100
AcDbEntity
  8
0
100
AcDbLine
 10
-0.716
 20
5.464
 30
0.0
 11
2.246
 21
3.918
 31
0.0
  0
LINE
  5
7C
330
18
100
AcDbEntity
  8
0
100
AcDbLine
 10
2.158
 20
4.084
 30
0.0
 11
2.073
 21
4.008
 31
0.0
  0
LWPOLYLINE
  5
7D
330
18
100
AcDbEntity
  8
0
100
AcDbPolyline
 90
       15
 70
     0
 43
0.0
 10
2.498
 20
3.635
 10
2.479
 20
3.552
 10
2.468
 20
3.419
 10
2.423
 20
3.299
 10
2.401
 20
3.204
 10
2.4
 20
3.11
 10
2.388
 20
2.989
 10
2.37
 20
2.899
 10
2.311
 20
2.78
 10
2.268
 20
2.682
 10
2.237
 20
2.478
 10
2.184
 20
2.308
 10
2.152
 20
2.155
 10
2.123
 20
2.038
 10
2.119
 20
2.006
  0
LWPOLYLINE
  5
8F
330
18
100
AcDbEntity
  8
0
100
AcDbPolyline
 90
       13
 70
     0
 43
0.0
 10
1.959
 20
2.084
 10
1.992
 20
2.015
 10
1.977
 20
1.982
 10
1.971
 20
1.938
 10
2.011
 20
1.902
 10
2.071
 20
1.865
 10
2.125
 20
1.834
 10
2.15
 20
1.794
 10
2.207
 20
1.777
 10
2.27
 20
1.752
 10
2.32
 20
1.711
 10
2.393
 20
1.675
 10
2.476
 20
1.663
  0
LINE
  5
9F
330
18
100
AcDbEntity
  8
0
100
AcDbLine
 10
2.224
 20
3.777
 30
0.0
 11
2.036
 21
3.875
 31
0.0
  0
LWPOLYLINE
  5
A0
330
18
100
AcDbEntity
  8
0
100
AcDbPolyline
 90
        7
 70
     0
 43
0.0
 10
2.064
 20
3.976
 10
2.095
 20
3.951
 10
2.158
 20
3.925
 10
2.189
 20
3.889
 10
2.226
 20
3.854
 10
2.26
 20
3.849
 10
2.283
 20
3.851
  0
LWPOLYLINE
  5
AA
330
18
100
AcDbEntity
  8
0
100
AcDbPolyline
 90
        5
 70
     0
 43
0.0
 10
2.047
 20
3.911
 10
2.062
 20
3.899
 10
2.128
 20
3.851
 10
2.174
 20
3.807
 10
2.186
 20
3.796
  0
LWPOLYLINE
  5
B2
330
18
100
AcDbEntity
  8
0
100
AcDbPolyline
 90
        7
 70
     0
 43
0.0
 10
2.058
 20
3.952
 10
2.077
 20
3.938
 10
2.129
 20
3.897
 10
2.186
 20
3.85
 10
2.226
 20
3.814
 10
2.249
 20
3.806
 10
2.276
 20
3.805
  0
LWPOLYLINE
  5
BC
330
18
100
AcDbEntity
  8
0
100
AcDbPolyline
 90
        6
 70
     1
 43
0.0
 10
2.112
 20
2.361
 10
2.136
 20
2.361
 10
2.152
 20
2.366
 10
2.144
 20
2.386
 10
2.114
 20
2.388
 10
2.105
 20
2.374
  0
LWPOLYLINE
  5
C5
330
18
100
AcDbEntity
  8
0
100
AcDbPolyline
 90
        6
 70
     1
 43
0.0
 10
2.103
 20
3.582
 10
2.116
 20
3.582
 10
2.125
 20
3.585
 10
2.121
 20
3.596
 10
2.104
 20
3.597
 10
2.099
 20
3.589
  0
LWPOLYLINE
  5
CE
330
18
100
AcDbEntity
  8
0
100
AcDbPolyline
 90
        6
 70
     1
 43
0.0
 10
2.113
 20
3.075
 10
2.127
 20
3.075
 10
2.136
 20
3.077
 10
2.131
 20
3.089
 10
2.114
 20
3.09
 10
2.11
 20
3.082
  0
LWPOLYLINE
  5
D7
330
18
100
AcDbEntity
  8
0
100
AcDbPolyline
 90
       47
 70
     0
 43
0.0
 10
2.045
 20
3.907
 10
2.009
 20
3.783
 10
1.978
 20
3.659
 10
1.93
 20
3.456
 10
1.889
 20
3.283
 10
1.843
 20
3.086
 10
1.809
 20
2.937
 10
1.77
 20
2.727
 10
1.716
 20
2.54
 10
1.675
 20
2.387
 10
1.659
 20
2.332
 10
1.668
 20
2.26
 10
1.766
 20
2.205
 10
1.89
 20
2.133
 10
2.011
 20
2.047
 10
2.071
 20
2.03
 10
2.149
 20
1.99
 10
2.194
 20
1.93
 10
2.271
 20
1.893
 10
2.359
 20
1.866
 10
2.406
 20
1.833
 10
2.425
 20
1.79
 10
2.41
 20
1.748
 10
2.469
 20
1.7
 10
2.476
 20
1.663
 10
2.583
 20
1.661
 10
2.683
 20
1.743
 10
2.746
 20
1.835
 10
2.811
 20
1.939
 10
2.863
 20
1.966
 10
2.932
 20
2.035
 10
2.996
 20
2.112
 10
3.081
 20
2.11
 10
3.186
 20
2.095
 10
3.254
 20
2.066
 10
3.306
 20
1.984
 10
3.332
 20
1.934
 10
3.382
 20
1.938
 10
3.407
 20
2.005
 10
3.448
 20
2.084
 10
3.521
 20
2.196
 10
3.552
 20
2.304
 10
3.621
 20
2.442
 10
3.668
 20
2.475
 10
3.771
 20
2.543
 10
3.872
 20
2.639
 10
3.93
 20
2.744
  0
LINE
  5
109
330
18
100
AcDbEntity
  8
0
100
AcDbLine
 10
1.876
 20
4.276
 30
0.0
 11
2.721
 21
5.13
 31
0.0
  0
LINE
  5
10A
330
18
100
AcDbEntity
  8
0
100
AcDbLine
 10
2.797
 20
5.092
 30
0.0
 11
1.903
 21
4.199
 31
0.0
  0
LINE
  5
10B
330
18
100
AcDbEntity
  8
0
100
AcDbLine
 10
2.828
 20
5.077
 30
0.0
 11
1.906
 21
4.159
 31
0.0
  0
LINE
  5
10C
330
18
100
AcDbEntity
  8
0
100
AcDbLine
 10
1.944
 20
4.196000000000001
 30
0.0
 11
2.158
 21
4.084
 31
0.0
  0
LWPOLYLINE
  5
10D
330
18
100
AcDbEntity
  8
0
100
AcDbPolyline
 90
        6
 70
     1
 43
0.0
 10
1.968
 20
2.23
 10
1.985
 20
2.261
 10
1.983
 20
2.289
 10
1.959
 20
2.299
 10
1.93
 20
2.265
 10
1.935
 20
2.245
  0
LWPOLYLINE
  5
116
330
18
100
AcDbEntity
  8
0
100
AcDbPolyline
 90
        6
 70
     1
 43
0.0
 10
2.044
 20
2.201
 10
2.061
 20
2.232
 10
2.059
 20
2.26
 10
2.035
 20
2.27
 10
2.007
 20
2.236
 10
2.011
 20
2.216
  0
LWPOLYLINE
  5
11F
330
18
100
AcDbEntity
  8
0
100
AcDbPolyline
 90
        6
 70
     1
 43
0.0
 10
1.774
 20
2.218
 10
1.798
 20
2.218
 10
1.814
 20
2.223
 10
1.806
 20
2.243
 10
1.776
 20
2.245
 10
1.768
 20
2.231
  0
POINT
  5
128
330
18
100
AcDbEntity
  8
0
100
AcDbPoint
 10
2.088
 20
1.892
 30
0.0
  0
POINT
  5
129
330
18
100
AcDbEntity
  8
0
100
AcDbPoint
 10
2.034
 20
1.945
 30
0.0
  0
POINT
  5
12A
330
18
100
AcDbEntity
  8
0
100
AcDbPoint
 10
2.05
 20
1.998
 30
0.0
  0
POINT
  5
12B
330
18
100
AcDbEntity
  8
0
100
AcDbPoint
 10
2.099
 20
1.933
 30
0.0
  0
POINT
  5
12C
330
18
100
AcDbEntity
  8
0
100
AcDbPoint
 10
2.092
 20
1.97
 30
0.0
  0
POINT
  5
12D
330
18
100
AcDbEntity
  8
0
100
AcDbPoint
 10
1.929
 20
2.158
 30
0.0
  0
POINT
  5
12E
330
18
100
AcDbEntity
  8
0
100
AcDbPoint
 10
1.878
 20
2.203
 30
0.0
  0
POINT
  5
12F
330
18
100
AcDbEntity
  8
0
100
AcDbPoint
 10
2.079
 20
2.116
 30
0.0
  0
LINE
  5
130
330
18
100
AcDbEntity
  8
0
100
AcDbLine
 10
-0.8490000000000001
 20
5.261
 30
0.0
 11
2.003
 21
3.759
 31
0.0
  0
LINE
  5
131
330
18
100
AcDbEntity
  8
0
100
AcDbLine
 10
-0.816
 20
5.397
 30
0.0
 11
2.045
 21
3.907
 31
0.0
  0
LINE
  5
132
330
18
100
AcDbEntity
  8
0
100
AcDbLine
 10
-0.638
 20
5.542999999999999
 30
0.0
 11
0.188
 21
5.112
 31
0.0
  0
LINE
  5
133
330
18
100
AcDbEntity
  8
0
100
AcDbLine
 10
-0.7170000000000001
 20
5.478
 30
0.0
 11
-0.638
 21
5.542999999999999
 31
0.0
  0
LINE
  5
134
330
18
100
AcDbEntity
  8
0
100
AcDbLine
 10
-0.8490000000000001
 20
5.261
 30
0.0
 11
-0.816
 21
5.397
 31
0.0
  0
LINE
  5
135
330
18
100
AcDbEntity
  8
0
100
AcDbLine
 10
-0.816
 20
5.397
 30
0.0
 11
-0.738
 21
5.461
 31
0.0
  0
ARC
  5
136
330
18
100
AcDbEntity
  8
0
100
AcDbCircle
 10
-0.7240000000000001
 20
5.445
 30
0.0
 40
0.021
100
AcDbArc
 50
62.433
 51
129.278
  0
ARC
  5
137
330
18
100
AcDbEntity
  8
0
100
AcDbCircle
 10
-0.7120000000000001
 20
5.472
 30
0.0
 40
0.008
100
AcDbArc
 50
129.278
 51
242.433
  0
ARC
  5
138
330
18
100
AcDbEntity
  8
0
100
AcDbCircle
 10
1.84
 20
4.137
 30
0.0
 40
0.069
100
AcDbArc
 50
327.295
 51
31.62599999999999
  0
LWPOLYLINE
  5
139
330
18
100
AcDbEntity
  8
0
100
AcDbPolyline
 90
        6
 70
     1
 43
0.0
 10
1.845
 20
2.385
 10
1.862
 20
2.416
 10
1.86
 20
2.444
 10
1.836
 20
2.454
 10
1.807
 20
2.42
 10
1.812
 20
2.4
  0
LWPOLYLINE
  5
142
330
18
100
AcDbEntity
  8
0
100
AcDbPolyline
 90
        6
 70
     1
 43
0.0
 10
1.809
 20
2.314
 10
1.823
 20
2.314
 10
1.832
 20
2.316
 10
1.827
 20
2.328
 10
1.81
 20
2.329
 10
1.806
 20
2.321
  0
LWPOLYLINE
  5
14B
330
18
100
AcDbEntity
  8
0
100
AcDbPolyline
 90
        6
 70
     1
 43
0.0
 10
1.738
 20
2.444
 10
1.763
 20
2.444
 10
1.778
 20
2.449
 10
1.77
 20
2.469
 10
1.74
 20
2.471
 10
1.732
 20
2.457
  0
POINT
  5
154
330
18
100
AcDbEntity
  8
0
100
AcDbPoint
 10
1.729
 20
2.335
 30
0.0
  0
POINT
  5
155
330
18
100
AcDbEntity
  8
0
100
AcDbPoint
 10
1.776
 20
2.282
 30
0.0
  0
POINT
  5
156
330
18
100
AcDbEntity
  8
0
100
AcDbPoint
 10
1.808
 20
2.65
 30
0.0
  0
POINT
  5
157
330
18
100
AcDbEntity
  8
0
100
AcDbPoint
 10
1.748
 20
2.542
 30
0.0
  0
LWPOLYLINE
  5
158
330
18
100
AcDbEntity
  8
0
100
AcDbPolyline
 90
        6
 70
     1
 43
0.0
 10
1.917
 20
2.466
 10
1.941
 20
2.465
 10
1.957
 20
2.47
 10
1.949
 20
2.49
 10
1.919
 20
2.492
 10
1.91
 20
2.479
  0
LWPOLYLINE
  5
161
330
18
100
AcDbEntity
  8
0
100
AcDbPolyline
 90
        6
 70
     1
 43
0.0
 10
1.953
 20
2.387
 10
1.967
 20
2.387
 10
1.976
 20
2.389
 10
1.971
 20
2.401
 10
1.954
 20
2.402
 10
1.949
 20
2.394
  0
POINT
  5
16A
330
18
100
AcDbEntity
  8
0
100
AcDbPoint
 10
1.896
 20
2.33
 30
0.0
  0
POINT
  5
16B
330
18
100
AcDbEntity
  8
0
100
AcDbPoint
 10
1.833
 20
2.265
 30
0.0
  0
POINT
  5
16C
330
18
100
AcDbEntity
  8
0
100
AcDbPoint
 10
2.021
 20
2.419
 30
0.0
  0
LWPOLYLINE
  5
16D
330
18
100
AcDbEntity
  8
0
100
AcDbPolyline
 90
        6
 70
     1
 43
0.0
 10
1.856
 20
2.673
 10
1.88
 20
2.672
 10
1.896
 20
2.677
 10
1.888
 20
2.698
 10
1.858
 20
2.699
 10
1.849
 20
2.686
  0
POINT
  5
176
330
18
100
AcDbEntity
  8
0
100
AcDbPoint
 10
1.954
 20
2.615
 30
0.0
  0
POINT
  5
177
330
18
100
AcDbEntity
  8
0
100
AcDbPoint
 10
1.86
 20
2.558
 30
0.0
  0
LWPOLYLINE
  5
178
330
18
100
AcDbEntity
  8
0
100
AcDbPolyline
 90
        6
 70
     1
 43
0.0
 10
1.843
 20
2.596
 10
1.856
 20
2.595
 10
1.865
 20
2.598
 10
1.861
 20
2.61
 10
1.844
 20
2.611
 10
1.839
 20
2.603
  0
LWPOLYLINE
  5
181
330
18
100
AcDbEntity
  8
0
100
AcDbPolyline
 90
        7
 70
     1
 43
0.0
 10
2.076
 20
2.618
 10
2.103
 20
2.615
 10
2.115
 20
2.638
 10
2.109
 20
2.67
 10
2.077
 20
2.675
 10
2.062
 20
2.663
 10
2.051
 20
2.626
  0
POINT
  5
18B
330
18
100
AcDbEntity
  8
0
100
AcDbPoint
 10
2.111
 20
2.541
 30
0.0
  0
POINT
  5
18C
330
18
100
AcDbEntity
  8
0
100
AcDbPoint
 10
2.022
 20
2.563
 30
0.0
  0
LWPOLYLINE
  5
18D
330
18
100
AcDbEntity
  8
0
100
AcDbPolyline
 90
        6
 70
     1
 43
0.0
 10
2.092
 20
2.699
 10
2.106
 20
2.699
 10
2.115
 20
2.702
 10
2.11
 20
2.713
 10
2.093
 20
2.714
 10
2.089
 20
2.707
  0
LWPOLYLINE
  5
196
330
18
100
AcDbEntity
  8
0
100
AcDbPolyline
 90
        6
 70
     1
 43
0.0
 10
2.059
 20
2.509
 10
2.072
 20
2.509
 10
2.081
 20
2.512
 10
2.077
 20
2.523
 10
2.06
 20
2.524
 10
2.055
 20
2.517
  0
LWPOLYLINE
  5
19F
330
18
100
AcDbEntity
  8
0
100
AcDbPolyline
 90
        6
 70
     1
 43
0.0
 10
1.998
 20
2.73
 10
2.014
 20
2.762
 10
2.012
 20
2.789
 10
1.988
 20
2.799
 10
1.96
 20
2.765
 10
1.964
 20
2.746
  0
POINT
  5
1A8
330
18
100
AcDbEntity
  8
0
100
AcDbPoint
 10
1.906
 20
2.816
 30
0.0
  0
POINT
  5
1A9
330
18
100
AcDbEntity
  8
0
100
AcDbPoint
 10
1.946
 20
2.909
 30
0.0
  0
POINT
  5
1AA
330
18
100
AcDbEntity
  8
0
100
AcDbPoint
 10
1.869
 20
2.797
 30
0.0
  0
LWPOLYLINE
  5
1AB
330
18
100
AcDbEntity
  8
0
100
AcDbPolyline
 90
        6
 70
     1
 43
0.0
 10
1.826
 20
2.89
 10
1.84
 20
2.89
 10
1.849
 20
2.892
 10
1.844
 20
2.904
 10
1.827
 20
2.905
 10
1.822
 20
2.897
  0
LWPOLYLINE
  5
1B4
330
18
100
AcDbEntity
  8
0
100
AcDbPolyline
 90
        6
 70
     1
 43
0.0
 10
2.071
 20
2.87
 10
2.095
 20
2.869
 10
2.111
 20
2.874
 10
2.103
 20
2.894
 10
2.073
 20
2.896
 10
2.064
 20
2.883
  0
POINT
  5
1BD
330
18
100
AcDbEntity
  8
0
100
AcDbPoint
 10
2.02
 20
2.891
 30
0.0
  0
POINT
  5
1BE
330
18
100
AcDbEntity
  8
0
100
AcDbPoint
 10
2.081
 20
2.769
 30
0.0
  0
LWPOLYLINE
  5
1BF
330
18
100
AcDbEntity
  8
0
100
AcDbPolyline
 90
        6
 70
     1
 43
0.0
 10
1.909
 20
2.985
 10
1.933
 20
2.984
 10
1.949
 20
2.989
 10
1.941
 20
3.01
 10
1.911
 20
3.011
 10
1.903
 20
2.998
  0
POINT
  5
1C8
330
18
100
AcDbEntity
  8
0
100
AcDbPoint
 10
1.94
 20
3.186
 30
0.0
  0
POINT
  5
1C9
330
18
100
AcDbEntity
  8
0
100
AcDbPoint
 10
1.95
 20
3.101
 30
0.0
  0
POINT
  5
1CA
330
18
100
AcDbEntity
  8
0
100
AcDbPoint
 10
1.893
 20
3.03
 30
0.0
  0
LWPOLYLINE
  5
1CB
330
18
100
AcDbEntity
  8
0
100
AcDbPolyline
 90
        6
 70
     1
 43
0.0
 10
2.076
 20
3.07
 10
2.093
 20
3.102
 10
2.091
 20
3.129
 10
2.067
 20
3.139
 10
2.038
 20
3.105
 10
2.043
 20
3.086
  0
POINT
  5
1D4
330
18
100
AcDbEntity
  8
0
100
AcDbPoint
 10
2.066
 20
2.973
 30
0.0
  0
POINT
  5
1D5
330
18
100
AcDbEntity
  8
0
100
AcDbPoint
 10
2.0
 20
3.044
 30
0.0
  0
POINT
  5
1D6
330
18
100
AcDbEntity
  8
0
100
AcDbPoint
 10
2.104
 20
3.038
 30
0.0
  0
POINT
  5
1D7
330
18
100
AcDbEntity
  8
0
100
AcDbPoint
 10
1.983
 20
3.151
 30
0.0
  0
LWPOLYLINE
  5
1D8
330
18
100
AcDbEntity
  8
0
100
AcDbPolyline
 90
        6
 70
     1
 43
0.0
 10
1.998
 20
2.971
 10
2.011
 20
2.971
 10
2.02
 20
2.973
 10
2.015
 20
2.985
 10
1.998
 20
2.986
 10
1.994
 20
2.978
  0
LWPOLYLINE
  5
1E1
330
18
100
AcDbEntity
  8
0
100
AcDbPolyline
 90
        6
 70
     1
 43
0.0
 10
2.106
 20
3.643
 10
2.123
 20
3.675
 10
2.121
 20
3.702
 10
2.097
 20
3.712
 10
2.068
 20
3.678
 10
2.073
 20
3.659
  0
LWPOLYLINE
  5
1EA
330
18
100
AcDbEntity
  8
0
100
AcDbPolyline
 90
        6
 70
     1
 43
0.0
 10
2.049
 20
3.289
 10
2.065
 20
3.321
 10
2.063
 20
3.348
 10
2.039
 20
3.358
 10
2.011
 20
3.324
 10
2.015
 20
3.305
  0
POINT
  5
1F3
330
18
100
AcDbEntity
  8
0
100
AcDbPoint
 10
2.005
 20
3.42
 30
0.0
  0
POINT
  5
1F4
330
18
100
AcDbEntity
  8
0
100
AcDbPoint
 10
2.114
 20
3.228
 30
0.0
  0
POINT
  5
1F5
330
18
100
AcDbEntity
  8
0
100
AcDbPoint
 10
2.021
 20
3.216
 30
0.0
  0
LWPOLYLINE
  5
1F6
330
18
100
AcDbEntity
  8
0
100
AcDbPolyline
 90
        6
 70
     1
 43
0.0
 10
2.034
 20
3.541
 10
2.058
 20
3.541
 10
2.074
 20
3.545
 10
2.066
 20
3.566
 10
2.036
 20
3.568
 10
2.028
 20
3.554
  0
POINT
  5
1FF
330
18
100
AcDbEntity
  8
0
100
AcDbPoint
 10
2.068
 20
3.443
 30
0.0
  0
POINT
  5
200
330
18
100
AcDbEntity
  8
0
100
AcDbPoint
 10
1.994
 20
3.627
 30
0.0
  0
LINE
  5
201
330
18
100
AcDbEntity
  8
0
100
AcDbLine
 10
1.657
 20
4.071000000000001
 30
0.0
 11
1.736
 21
4.031000000000001
 31
0.0
  0
LINE
  5
202
330
18
100
AcDbEntity
  8
0
100
AcDbLine
 10
1.657
 20
4.071000000000001
 30
0.0
 11
1.668
 21
4.076000000000001
 31
0.0
  0
LINE
  5
203
330
18
100
AcDbEntity
  8
0
100
AcDbLine
 10
1.639
 20
3.979
 30
0.0
 11
1.717
 21
3.94
 31
0.0
  0
LINE
  5
204
330
18
100
AcDbEntity
  8
0
100
AcDbLine
 10
1.639
 20
3.979
 30
0.0
 11
1.657
 21
4.071000000000001
 31
0.0
  0
LINE
  5
205
330
18
100
AcDbEntity
  8
0
100
AcDbLine
 10
1.668
 20
4.076000000000001
 30
0.0
 11
1.747
 21
4.037
 31
0.0
  0
LWPOLYLINE
  5
206
330
18
100
AcDbEntity
  8
0
100
AcDbPolyline
 90
        4
 70
     0
 43
0.0
 10
1.686
 20
4.027
 10
1.707
 20
4.023
 10
1.713
 20
4.003
 10
1.699
 20
3.987
  0
LINE
  5
20D
330
18
100
AcDbEntity
  8
0
100
AcDbLine
 10
1.697
 20
4.021
 30
0.0
 11
1.707
 21
4.023
 31
0.0
  0
LINE
  5
20E
330
18
100
AcDbEntity
  8
0
100
AcDbLine
 10
1.717
 20
3.94
 30
0.0
 11
1.736
 21
4.031000000000001
 31
0.0
  0
LWPOLYLINE
  5
20F
330
18
100
AcDbEntity
  8
0
100
AcDbPolyline
 90
        6
 70
     1
 43
0.0
 10
1.663
 20
4.009
 10
1.677
 20
4.025
 10
1.697
 20
4.021
 10
1.704
 20
4.001
 10
1.69
 20
3.985
 10
1.669
 20
3.989
  0
LINE
  5
218
330
18
100
AcDbEntity
  8
0
100
AcDbLine
 10
1.677
 20
4.025
 30
0.0
 11
1.686
 21
4.027
 31
0.0
  0
LINE
  5
219
330
18
100
AcDbEntity
  8
0
100
AcDbLine
 10
1.704
 20
4.001
 30
0.0
 11
1.713
 21
4.003
 31
0.0
  0
LINE
  5
21A
330
18
100
AcDbEntity
  8
0
100
AcDbLine
 10
1.69
 20
3.985
 30
0.0
 11
1.699
 21
3.987
 31
0.0
  0
LINE
  5
21B
330
18
100
AcDbEntity
  8
0
100
AcDbLine
 10
1.736
 20
4.031000000000001
 30
0.0
 11
1.747
 21
4.037
 31
0.0
  0
LINE
  5
21C
330
18
100
AcDbEntity
  8
0
100
AcDbLine
 10
1.728
 20
3.945
 30
0.0
 11
1.747
 21
4.037
 31
0.0
  0
LINE
  5
21D
330
18
100
AcDbEntity
  8
0
100
AcDbLine
 10
1.717
 20
3.94
 30
0.0
 11
1.728
 21
3.945
 31
0.0
  0
POINT
  5
21E
330
18
100
AcDbEntity
  8
0
100
AcDbPoint
 10
2.018
 20
3.683
 30
0.0
  0
LINE
  5
21F
330
18
100
AcDbEntity
  8
0
100
AcDbLine
 10
2.073
 20
4.008
 30
0.0
 11
2.045
 21
3.907
 31
0.0
  0
LINE
  5
220
330
18
100
AcDbEntity
  8
0
100
AcDbLine
 10
1.305
 20
5.837999999999999
 30
0.0
 11
0.391
 21
4.988
 31
0.0
  0
LINE
  5
221
330
18
100
AcDbEntity
  8
0
100
AcDbLine
 10
1.336
 20
5.823
 30
0.0
 11
0.395
 21
4.948
 31
0.0
  0
LINE
  5
222
330
18
100
AcDbEntity
  8
0
100
AcDbLine
 10
0.364
 20
5.065
 30
0.0
 11
1.229
 21
5.876
 31
0.0
  0
LINE
  5
223
330
18
100
AcDbEntity
  8
0
100
AcDbLine
 10
0.434
 20
4.984
 30
0.0
 11
1.7
 21
4.323
 31
0.0
  0
ARC
  5
224
330
18
100
AcDbEntity
  8
0
100
AcDbCircle
 10
0.041
 20
5.097
 30
0.0
 40
0.152
100
AcDbArc
 50
323.131
 51
358.028
  0
ARC
  5
225
330
18
100
AcDbEntity
  8
0
100
AcDbCircle
 10
0.151
 20
4.892
 30
0.0
 40
0.228
100
AcDbArc
 50
38.658
 51
53.146
  0
ARC
  5
226
330
18
100
AcDbEntity
  8
0
100
AcDbCircle
 10
0.32
 20
5.127000000000001
 30
0.0
 40
0.076
100
AcDbArc
 50
266.267
 51
305.482
  0
LINE
  5
227
330
18
100
AcDbEntity
  8
0
100
AcDbLine
 10
0.151
 20
4.865
 30
0.0
 11
0.229
 21
4.825
 31
0.0
  0
LINE
  5
228
330
18
100
AcDbEntity
  8
0
100
AcDbLine
 10
0.132
 20
4.773
 30
0.0
 11
0.151
 21
4.865
 31
0.0
  0
LINE
  5
229
330
18
100
AcDbEntity
  8
0
100
AcDbLine
 10
0.222
 20
4.739
 30
0.0
 11
0.24
 21
4.831
 31
0.0
  0
LINE
  5
22A
330
18
100
AcDbEntity
  8
0
100
AcDbLine
 10
0.229
 20
4.825
 30
0.0
 11
0.24
 21
4.831
 31
0.0
  0
LINE
  5
22B
330
18
100
AcDbEntity
  8
0
100
AcDbLine
 10
0.132
 20
4.773
 30
0.0
 11
0.211
 21
4.733000000000001
 31
0.0
  0
LINE
  5
22C
330
18
100
AcDbEntity
  8
0
100
AcDbLine
 10
0.183
 20
4.779
 30
0.0
 11
0.193
 21
4.781000000000001
 31
0.0
  0
LINE
  5
22D
330
18
100
AcDbEntity
  8
0
100
AcDbLine
 10
0.197
 20
4.794
 30
0.0
 11
0.207
 21
4.796
 31
0.0
  0
LINE
  5
22E
330
18
100
AcDbEntity
  8
0
100
AcDbLine
 10
0.17
 20
4.818000000000001
 30
0.0
 11
0.18
 21
4.821000000000001
 31
0.0
  0
LWPOLYLINE
  5
22F
330
18
100
AcDbEntity
  8
0
100
AcDbPolyline
 90
        6
 70
     1
 43
0.0
 10
0.156
 20
4.803
 10
0.17
 20
4.818000000000001
 10
0.191
 20
4.814
 10
0.197
 20
4.794
 10
0.183
 20
4.779
 10
0.163
 20
4.783
  0
LINE
  5
238
330
18
100
AcDbEntity
  8
0
100
AcDbLine
 10
0.191
 20
4.814
 30
0.0
 11
0.2
 21
4.816
 31
0.0
  0
LWPOLYLINE
  5
239
330
18
100
AcDbEntity
  8
0
100
AcDbPolyline
 90
        4
 70
     0
 43
0.0
 10
0.18
 20
4.821000000000001
 10
0.2
 20
4.816
 10
0.207
 20
4.796
 10
0.193
 20
4.781000000000001
  0
LINE
  5
240
330
18
100
AcDbEntity
  8
0
100
AcDbLine
 10
0.211
 20
4.733000000000001
 30
0.0
 11
0.222
 21
4.739
 31
0.0
  0
LINE
  5
241
330
18
100
AcDbEntity
  8
0
100
AcDbLine
 10
0.211
 20
4.733000000000001
 30
0.0
 11
0.229
 21
4.825
 31
0.0
  0
LINE
  5
242
330
18
100
AcDbEntity
  8
0
100
AcDbLine
 10
0.162
 20
4.87
 30
0.0
 11
0.24
 21
4.831
 31
0.0
  0
LINE
  5
243
330
18
100
AcDbEntity
  8
0
100
AcDbLine
 10
0.151
 20
4.865
 30
0.0
 11
0.162
 21
4.87
 31
0.0
  0
LINE
  5
244
330
18
100
AcDbEntity
  8
0
100
AcDbLine
 10
0.334
 20
5.022
 30
0.0
 11
0.335
 21
4.916
 31
0.0
  0
ARC
  5
245
330
18
100
AcDbEntity
  8
0
100
AcDbCircle
 10
0.313
 20
5.022
 30
0.0
 40
0.021
100
AcDbArc
 50
0.7359999999999999
 51
38.658
  0
ARC
  5
246
330
18
100
AcDbEntity
  8
0
100
AcDbCircle
 10
0.406
 20
4.973
 30
0.0
 40
0.021
100
AcDbArc
 50
132.918
 51
211.626
  0
ARC
  5
247
330
18
100
AcDbEntity
  8
0
100
AcDbCircle
 10
0.329
 20
4.926
 30
0.0
 40
0.069
100
AcDbArc
 50
327.295
 51
31.62599999999999
  0
ARC
  5
248
330
18
100
AcDbEntity
  8
0
100
AcDbCircle
 10
0.3
 20
5.092
 30
0.0
 40
0.021
100
AcDbArc
 50
193.318
 51
233.146
  0
LINE
  5
249
330
18
100
AcDbEntity
  8
0
100
AcDbLine
 10
1.407
 20
5.787000000000001
 30
0.0
 11
1.705
 21
4.302
 31
0.0
  0
LINE
  5
24A
330
18
100
AcDbEntity
  8
0
100
AcDbLine
 10
1.511
 20
5.735
 30
0.0
 11
1.792
 21
4.298
 31
0.0
  0
ARC
  5
24B
330
18
100
AcDbEntity
  8
0
100
AcDbCircle
 10
1.663
 20
4.103
 30
0.0
 40
0.228
100
AcDbArc
 50
38.658
 51
53.146
  0
ARC
  5
24C
330
18
100
AcDbEntity
  8
0
100
AcDbCircle
 10
1.812
 20
4.303
 30
0.0
 40
0.021
100
AcDbArc
 50
193.318
 51
233.146
  0
ARC
  5
24D
330
18
100
AcDbEntity
  8
0
100
AcDbCircle
 10
1.553
 20
4.308
 30
0.0
 40
0.152
100
AcDbArc
 50
323.131
 51
358.028
  0
ARC
  5
24E
330
18
100
AcDbEntity
  8
0
100
AcDbCircle
 10
1.832
 20
4.338
 30
0.0
 40
0.076
100
AcDbArc
 50
266.267
 51
305.482
  0
ARC
  5
24F
330
18
100
AcDbEntity
  8
0
100
AcDbCircle
 10
1.917
 20
4.184
 30
0.0
 40
0.021
100
AcDbArc
 50
132.918
 51
211.626
  0
ARC
  5
250
330
18
100
AcDbEntity
  8
0
100
AcDbCircle
 10
1.824
 20
4.233000000000001
 30
0.0
 40
0.021
100
AcDbArc
 50
0.7359999999999999
 51
38.658
  0
LINE
  5
251
330
18
100
AcDbEntity
  8
0
100
AcDbLine
 10
1.845
 20
4.233000000000001
 30
0.0
 11
1.847
 21
4.127
 31
0.0
  0
LWPOLYLINE
  5
252
330
18
100
AcDbEntity
  8
0
100
AcDbPolyline
 90
        4
 70
     0
 43
0.0
 10
1.325
 20
5.922000000000001
 10
1.345
 20
5.917999999999999
 10
1.352
 20
5.898
 10
1.338
 20
5.882000000000001
  0
LINE
  5
259
330
18
100
AcDbEntity
  8
0
100
AcDbLine
 10
1.277
 20
5.874
 30
0.0
 11
1.356
 21
5.834
 31
0.0
  0
LINE
  5
25A
330
18
100
AcDbEntity
  8
0
100
AcDbLine
 10
1.342
 20
5.895
 30
0.0
 11
1.352
 21
5.898
 31
0.0
  0
LINE
  5
25B
330
18
100
AcDbEntity
  8
0
100
AcDbLine
 10
1.315
 20
5.92
 30
0.0
 11
1.325
 21
5.922000000000001
 31
0.0
  0
LWPOLYLINE
  5
25C
330
18
100
AcDbEntity
  8
0
100
AcDbPolyline
 90
        6
 70
     1
 43
0.0
 10
1.301
 20
5.904
 10
1.315
 20
5.92
 10
1.336
 20
5.915
 10
1.342
 20
5.895
 10
1.328
 20
5.88
 10
1.308
 20
5.884
  0
LINE
  5
265
330
18
100
AcDbEntity
  8
0
100
AcDbLine
 10
1.277
 20
5.874
 30
0.0
 11
1.295
 21
5.962999999999999
 31
0.0
  0
LINE
  5
266
330
18
100
AcDbEntity
  8
0
100
AcDbLine
 10
1.328
 20
5.88
 30
0.0
 11
1.338
 21
5.882000000000001
 31
0.0
  0
LINE
  5
267
330
18
100
AcDbEntity
  8
0
100
AcDbLine
 10
1.336
 20
5.915
 30
0.0
 11
1.345
 21
5.917999999999999
 31
0.0
  0
LINE
  5
268
330
18
100
AcDbEntity
  8
0
100
AcDbLine
 10
1.356
 20
5.834
 30
0.0
 11
1.374
 21
5.924
 31
0.0
  0
LINE
  5
269
330
18
100
AcDbEntity
  8
0
100
AcDbLine
 10
1.367
 20
5.84
 30
0.0
 11
1.383
 21
5.919
 31
0.0
  0
LINE
  5
26A
330
18
100
AcDbEntity
  8
0
100
AcDbLine
 10
1.356
 20
5.834
 30
0.0
 11
1.367
 21
5.84
 31
0.0
  0
LWPOLYLINE
  5
26B
330
18
100
AcDbEntity
  8
0
100
AcDbPolyline
 90
       16
 70
     1
 43
0.0
 10
1.784
 20
5.816
 42
0.166
 10
1.785
 20
5.812
 42
0.106
 10
1.789
 20
5.807
 42
0.069
 10
1.796
 20
5.803
 42
0.055
 10
1.804
 20
5.801
 42
0.055
 10
1.813
 20
5.801
 42
0.069
 10
1.82
 20
5.802000000000001
 42
0.106
 10
1.825
 20
5.805
 42
0.166
 10
1.827
 20
5.809
 42
0.166
 10
1.826
 20
5.813
 42
0.106
 10
1.822
 20
5.818
 42
0.069
 10
1.816
 20
5.822
 42
0.055
 10
1.808
 20
5.824
 42
0.055
 10
1.799
 20
5.824
 42
0.069
 10
1.792
 20
5.823
 42
0.106
 10
1.786
 20
5.82
 42
0.166
  0
LWPOLYLINE
  5
27E
330
18
100
AcDbEntity
  8
0
100
AcDbPolyline
 90
       16
 70
     1
 43
0.0
 10
1.569
 20
5.896
 42
0.166
 10
1.57
 20
5.892
 42
0.106
 10
1.574
 20
5.887000000000001
 42
0.069
 10
1.58
 20
5.884
 42
0.055
 10
1.589
 20
5.881
 42
0.055
 10
1.597
 20
5.881
 42
0.069
 10
1.604
 20
5.882000000000001
 42
0.106
 10
1.61
 20
5.886
 42
0.166
 10
1.612
 20
5.89
 42
0.166
 10
1.611
 20
5.894
 42
0.106
 10
1.607
 20
5.899
 42
0.069
 10
1.601
 20
5.902
 42
0.055
 10
1.592
 20
5.904
 42
0.055
 10
1.583
 20
5.905
 42
0.069
 10
1.577
 20
5.903
 42
0.106
 10
1.571
 20
5.9
 42
0.166
  0
LWPOLYLINE
  5
291
330
18
100
AcDbEntity
  8
0
100
AcDbPolyline
 90
       16
 70
     1
 43
0.0
 10
1.955
 20
5.697
 42
0.166
 10
1.956
 20
5.693
 42
0.106
 10
1.96
 20
5.688
 42
0.069
 10
1.966
 20
5.685
 42
0.055
 10
1.974
 20
5.682
 42
0.055
 10
1.983
 20
5.682
 42
0.069
 10
1.99
 20
5.683
 42
0.106
 10
1.996
 20
5.687
 42
0.166
 10
1.998
 20
5.69
 42
0.166
 10
1.997
 20
5.695
 42
0.106
 10
1.993
 20
5.7
 42
0.069
 10
1.986
 20
5.702999999999999
 42
0.055
 10
1.978
 20
5.705
 42
0.055
 10
1.969
 20
5.706
 42
0.069
 10
1.962
 20
5.704
 42
0.106
 10
1.957
 20
5.701000000000001
 42
0.166
  0
LWPOLYLINE
  5
2A4
330
18
100
AcDbEntity
  8
0
100
AcDbPolyline
 90
       16
 70
     1
 43
0.0
 10
1.896
 20
5.915
 42
0.166
 10
1.897
 20
5.911000000000001
 42
0.106
 10
1.901
 20
5.906000000000001
 42
0.069
 10
1.907
 20
5.903
 42
0.055
 10
1.915
 20
5.901
 42
0.055
 10
1.924
 20
5.9
 42
0.069
 10
1.931
 20
5.902
 42
0.106
 10
1.937
 20
5.905
 42
0.166
 10
1.939
 20
5.909
 42
0.166
 10
1.938
 20
5.912999999999999
 42
0.106
 10
1.934
 20
5.917999999999999
 42
0.069
 10
1.928
 20
5.921
 42
0.055
 10
1.919
 20
5.924
 42
0.055
 10
1.91
 20
5.924
 42
0.069
 10
1.903
 20
5.922999999999999
 42
0.106
 10
1.898
 20
5.919
 42
0.166
  0
LWPOLYLINE
  5
2B7
330
18
100
AcDbEntity
  8
0
100
AcDbPolyline
 90
       16
 70
     1
 43
0.0
 10
2.066
 20
5.797000000000001
 42
0.166
 10
2.067
 20
5.792999999999999
 42
0.106
 10
2.071
 20
5.787999999999999
 42
0.069
 10
2.077
 20
5.784
 42
0.055
 10
2.086
 20
5.782
 42
0.055
 10
2.095
 20
5.781000000000001
 42
0.069
 10
2.101
 20
5.783
 42
0.106
 10
2.107
 20
5.786000000000001
 42
0.166
 10
2.109
 20
5.79
 42
0.166
 10
2.108
 20
5.794
 42
0.106
 10
2.104
 20
5.799
 42
0.069
 10
2.098
 20
5.803
 42
0.055
 10
2.089
 20
5.805
 42
0.055
 10
2.081
 20
5.805
 42
0.069
 10
2.074
 20
5.803999999999999
 42
0.106
 10
2.068
 20
5.8
 42
0.166
  0
LINE
  5
2CA
330
18
100
AcDbEntity
  8
0
100
AcDbLine
 10
2.956
 20
3.432
 30
0.0
 11
6.357
 21
1.661
 31
0.0
  0
LINE
  5
2CB
330
18
100
AcDbEntity
  8
0
100
AcDbLine
 10
3.03
 20
3.509
 30
0.0
 11
6.406000000000001
 21
1.746
 31
0.0
  0
LINE
  5
2CC
330
18
100
AcDbEntity
  8
0
100
AcDbLine
 10
2.922
 20
3.275
 30
0.0
 11
6.324
 21
1.483
 31
0.0
  0
ARC
  5
2CD
330
18
100
AcDbEntity
  8
0
100
AcDbCircle
 10
5.471
 20
2.242
 30
0.0
 40
0.069
100
AcDbArc
 50
327.295
 51
31.62599999999999
  0
LINE
  5
2CE
330
18
100
AcDbEntity
  8
0
100
AcDbLine
 10
5.476
 20
2.338
 30
0.0
 11
5.477
 21
2.231
 31
0.0
  0
LINE
  5
2CF
330
18
100
AcDbEntity
  8
0
100
AcDbLine
 10
5.576000000000001
 20
2.3
 30
0.0
 11
6.46
 21
1.839
 31
0.0
  0
POINT
  5
2D0
330
18
100
AcDbEntity
  8
0
100
AcDbPoint
 10
2.396
 20
1.695
 30
0.0
  0
POINT
  5
2D1
330
18
100
AcDbEntity
  8
0
100
AcDbPoint
 10
2.349
 20
1.723
 30
0.0
  0
POINT
  5
2D2
330
18
100
AcDbEntity
  8
0
100
AcDbPoint
 10
2.37
 20
1.772
 30
0.0
  0
POINT
  5
2D3
330
18
100
AcDbEntity
  8
0
100
AcDbPoint
 10
2.434
 20
1.713
 30
0.0
  0
POINT
  5
2D4
330
18
100
AcDbEntity
  8
0
100
AcDbPoint
 10
2.246
 20
1.831
 30
0.0
  0
POINT
  5
2D5
330
18
100
AcDbEntity
  8
0
100
AcDbPoint
 10
2.229
 20
1.821
 30
0.0
  0
POINT
  5
2D6
330
18
100
AcDbEntity
  8
0
100
AcDbPoint
 10
2.128
 20
1.931
 30
0.0
  0
POINT
  5
2D7
330
18
100
AcDbEntity
  8
0
100
AcDbPoint
 10
2.163
 20
1.863
 30
0.0
  0
POINT
  5
2D8
330
18
100
AcDbEntity
  8
0
100
AcDbPoint
 10
2.209
 20
1.855
 30
0.0
  0
POINT
  5
2D9
330
18
100
AcDbEntity
  8
0
100
AcDbPoint
 10
2.19
 20
1.887
 30
0.0
  0
POINT
  5
2DA
330
18
100
AcDbEntity
  8
0
100
AcDbPoint
 10
2.148
 20
1.909
 30
0.0
  0
POINT
  5
2DB
330
18
100
AcDbEntity
  8
0
100
AcDbPoint
 10
2.383
 20
1.798
 30
0.0
  0
POINT
  5
2DC
330
18
100
AcDbEntity
  8
0
100
AcDbPoint
 10
2.32
 20
1.79
 30
0.0
  0
POINT
  5
2DD
330
18
100
AcDbEntity
  8
0
100
AcDbPoint
 10
2.28
 20
1.79
 30
0.0
  0
POINT
  5
2DE
330
18
100
AcDbEntity
  8
0
100
AcDbPoint
 10
2.287
 20
1.845
 30
0.0
  0
LWPOLYLINE
  5
2DF
330
18
100
AcDbEntity
  8
0
100
AcDbPolyline
 90
        7
 70
     0
 43
0.0
 10
2.977
 20
2.089
 10
3.05
 20
2.075
 10
3.096
 20
2.048
 10
3.154
 20
2.013
 10
3.216
 20
1.966
 10
3.264
 20
1.948
 10
3.332
 20
1.934
  0
POINT
  5
2E9
330
18
100
AcDbEntity
  8
0
100
AcDbPoint
 10
3.234
 20
1.979
 30
0.0
  0
POINT
  5
2EA
330
18
100
AcDbEntity
  8
0
100
AcDbPoint
 10
3.236
 20
2.005
 30
0.0
  0
POINT
  5
2EB
330
18
100
AcDbEntity
  8
0
100
AcDbPoint
 10
3.19
 20
2.029
 30
0.0
  0
POINT
  5
2EC
330
18
100
AcDbEntity
  8
0
100
AcDbPoint
 10
3.124
 20
2.033
 30
0.0
  0
POINT
  5
2ED
330
18
100
AcDbEntity
  8
0
100
AcDbPoint
 10
3.097
 20
2.065
 30
0.0
  0
POINT
  5
2EE
330
18
100
AcDbEntity
  8
0
100
AcDbPoint
 10
3.117
 20
2.079
 30
0.0
  0
POINT
  5
2EF
330
18
100
AcDbEntity
  8
0
100
AcDbPoint
 10
3.155
 20
2.082
 30
0.0
  0
POINT
  5
2F0
330
18
100
AcDbEntity
  8
0
100
AcDbPoint
 10
3.153
 20
2.051
 30
0.0
  0
POINT
  5
2F1
330
18
100
AcDbEntity
  8
0
100
AcDbPoint
 10
3.216
 20
2.059
 30
0.0
  0
LINE
  5
2F2
330
18
100
AcDbEntity
  8
0
100
AcDbLine
 10
5.365
 20
2.018
 30
0.0
 11
5.382999999999999
 21
2.11
 31
0.0
  0
LINE
  5
2F3
330
18
100
AcDbEntity
  8
0
100
AcDbLine
 10
5.365
 20
2.018
 30
0.0
 11
5.376
 21
2.024
 31
0.0
  0
LINE
  5
2F4
330
18
100
AcDbEntity
  8
0
100
AcDbLine
 10
5.305
 20
2.149
 30
0.0
 11
5.382999999999999
 21
2.11
 31
0.0
  0
LINE
  5
2F5
330
18
100
AcDbEntity
  8
0
100
AcDbLine
 10
5.316
 20
2.155
 30
0.0
 11
5.394
 21
2.115
 31
0.0
  0
LWPOLYLINE
  5
2F6
330
18
100
AcDbEntity
  8
0
100
AcDbPolyline
 90
        4
 70
     0
 43
0.0
 10
5.334
 20
2.105
 10
5.354
 20
2.101
 10
5.361000000000001
 20
2.081
 10
5.347
 20
2.065
  0
LINE
  5
2FD
330
18
100
AcDbEntity
  8
0
100
AcDbLine
 10
5.345
 20
2.099
 30
0.0
 11
5.354
 21
2.101
 31
0.0
  0
LINE
  5
2FE
330
18
100
AcDbEntity
  8
0
100
AcDbLine
 10
5.286000000000001
 20
2.057
 30
0.0
 11
5.305
 21
2.149
 31
0.0
  0
LWPOLYLINE
  5
2FF
330
18
100
AcDbEntity
  8
0
100
AcDbPolyline
 90
        6
 70
     1
 43
0.0
 10
5.31
 20
2.087
 10
5.324
 20
2.103
 10
5.345
 20
2.099
 10
5.352
 20
2.079
 10
5.337999999999999
 20
2.063
 10
5.317
 20
2.067
  0
LINE
  5
308
330
18
100
AcDbEntity
  8
0
100
AcDbLine
 10
5.286000000000001
 20
2.057
 30
0.0
 11
5.365
 21
2.018
 31
0.0
  0
LINE
  5
309
330
18
100
AcDbEntity
  8
0
100
AcDbLine
 10
5.324
 20
2.103
 30
0.0
 11
5.334
 21
2.105
 31
0.0
  0
LINE
  5
30A
330
18
100
AcDbEntity
  8
0
100
AcDbLine
 10
5.352
 20
2.079
 30
0.0
 11
5.361000000000001
 21
2.081
 31
0.0
  0
LINE
  5
30B
330
18
100
AcDbEntity
  8
0
100
AcDbLine
 10
5.337999999999999
 20
2.063
 30
0.0
 11
5.347
 21
2.065
 31
0.0
  0
LINE
  5
30C
330
18
100
AcDbEntity
  8
0
100
AcDbLine
 10
5.305
 20
2.149
 30
0.0
 11
5.316
 21
2.155
 31
0.0
  0
LINE
  5
30D
330
18
100
AcDbEntity
  8
0
100
AcDbLine
 10
5.376
 20
2.024
 30
0.0
 11
5.394
 21
2.115
 31
0.0
  0
LINE
  5
30E
330
18
100
AcDbEntity
  8
0
100
AcDbLine
 10
5.382999999999999
 20
2.11
 30
0.0
 11
5.394
 21
2.115
 31
0.0
  0
LINE
  5
30F
330
18
100
AcDbEntity
  8
0
100
AcDbLine
 10
6.357
 20
1.661
 30
0.0
 11
6.46
 21
1.839
 31
0.0
  0
LINE
  5
310
330
18
100
AcDbEntity
  8
0
100
AcDbLine
 10
6.46
 20
1.839
 30
0.0
 11
6.451000000000001
 21
1.684
 31
0.0
  0
LWPOLYLINE
  5
311
330
18
100
AcDbEntity
  8
0
100
AcDbPolyline
 90
        7
 70
     0
 43
0.0
 10
6.441
 20
1.806
 10
6.437
 20
1.775
 10
6.434
 20
1.742
 10
6.425
 20
1.709
 10
6.415
 20
1.678
 10
6.403
 20
1.65
 10
6.392
 20
1.623
  0
LWPOLYLINE
  5
31B
330
18
100
AcDbEntity
  8
0
100
AcDbPolyline
 90
        7
 70
     0
 43
0.0
 10
6.454
 20
1.828
 10
6.455
 20
1.798
 10
6.449
 20
1.765
 10
6.442
 20
1.73
 10
6.435
 20
1.695
 10
6.427000000000001
 20
1.66
 10
6.421
 20
1.637
  0
LINE
  5
325
330
18
100
AcDbEntity
  8
0
100
AcDbLine
 10
6.324
 20
1.483
 30
0.0
 11
6.357
 21
1.661
 31
0.0
  0
LINE
  5
326
330
18
100
AcDbEntity
  8
0
100
AcDbLine
 10
6.451000000000001
 20
1.684
 30
0.0
 11
6.324
 21
1.483
 31
0.0
  0
LWPOLYLINE
  5
327
330
18
100
AcDbEntity
  8
0
100
AcDbPolyline
 90
        3
 70
     0
 43
0.0
 10
6.336
 20
1.55
 10
6.348
 20
1.539
 10
6.355
 20
1.533
  0
LINE
  5
32D
330
18
100
AcDbEntity
  8
0
100
AcDbLine
 10
6.406000000000001
 20
1.746
 30
0.0
 11
6.387000000000001
 21
1.584
 31
0.0
  0
LWPOLYLINE
  5
32E
330
18
100
AcDbEntity
  8
0
100
AcDbPolyline
 90
        5
 70
     0
 43
0.0
 10
6.422000000000001
 20
1.774
 10
6.421
 20
1.755
 10
6.417000000000001
 20
1.722
 10
6.405
 20
1.693
 10
6.398
 20
1.676
  0
LWPOLYLINE
  5
336
330
18
100
AcDbEntity
  8
0
100
AcDbPolyline
 90
        4
 70
     0
 43
0.0
 10
6.452999999999999
 20
1.727
 10
6.451000000000001
 20
1.71
 10
6.441
 20
1.676
 10
6.437
 20
1.663
  0
LWPOLYLINE
  5
33D
330
18
100
AcDbEntity
  8
0
100
AcDbPolyline
 90
        3
 70
     0
 43
0.0
 10
6.351
 20
1.628
 10
6.367000000000001
 20
1.608
 10
6.387000000000001
 20
1.584
  0
LWPOLYLINE
  5
343
330
18
100
AcDbEntity
  8
0
100
AcDbPolyline
 90
        4
 70
     0
 43
0.0
 10
6.343999999999999
 20
1.59
 10
6.349
 20
1.585
 10
6.372000000000001
 20
1.562
 10
6.372999999999999
 20
1.561
  0
LWPOLYLINE
  5
34A
330
18
100
AcDbEntity
  8
0
100
AcDbPolyline
 90
        3
 70
     0
 43
0.0
 10
6.377000000000001
 20
1.696
 10
6.392
 20
1.66
 10
6.396
 20
1.655
  0
LWPOLYLINE
  5
350
330
18
100
AcDbEntity
  8
0
100
AcDbPolyline
 90
        3
 70
     0
 43
0.0
 10
6.362
 20
1.67
 10
6.38
 20
1.639
 10
6.392
 20
1.624
  0
LWPOLYLINE
  5
356
330
18
100
AcDbEntity
  8
0
100
AcDbPolyline
 90
       16
 70
     1
 43
0.0
 10
4.596
 20
4.375
 42
0.166
 10
4.597
 20
4.37
 42
0.106
 10
4.601
 20
4.365
 42
0.069
 10
4.607
 20
4.362
 42
0.055
 10
4.616000000000001
 20
4.36
 42
0.055
 10
4.624
 20
4.359
 42
0.069
 10
4.631
 20
4.361000000000001
 42
0.106
 10
4.637
 20
4.364
 42
0.166
 10
4.638999999999999
 20
4.368
 42
0.166
 10
4.638
 20
4.372
 42
0.106
 10
4.634
 20
4.377
 42
0.069
 10
4.628
 20
4.38
 42
0.055
 10
4.619
 20
4.383
 42
0.055
 10
4.61
 20
4.383
 42
0.069
 10
4.604
 20
4.382
 42
0.106
 10
4.598
 20
4.378
 42
0.166
  0
LINE
  5
369
330
18
100
AcDbEntity
  8
0
100
AcDbLine
 10
4.842
 20
4.069
 30
0.0
 11
3.874
 21
3.17
 31
0.0
  0
LINE
  5
36A
330
18
100
AcDbEntity
  8
0
100
AcDbLine
 10
4.872
 20
4.053999999999999
 30
0.0
 11
3.878
 21
3.129
 31
0.0
  0
LINE
  5
36B
330
18
100
AcDbEntity
  8
0
100
AcDbLine
 10
3.847
 20
3.246
 30
0.0
 11
4.765
 21
4.107
 31
0.0
  0
LINE
  5
36C
330
18
100
AcDbEntity
  8
0
100
AcDbLine
 10
3.917
 20
3.166
 30
0.0
 11
5.33
 21
2.429
 31
0.0
  0
LINE
  5
36D
330
18
100
AcDbEntity
  8
0
100
AcDbLine
 10
3.261
 20
4.86
 30
0.0
 11
7.018
 21
2.98
 31
0.0
  0
LINE
  5
36E
330
18
100
AcDbEntity
  8
0
100
AcDbLine
 10
2.195
 20
4.22
 30
0.0
 11
2.158
 21
4.084
 31
0.0
  0
LINE
  5
36F
330
18
100
AcDbEntity
  8
0
100
AcDbLine
 10
2.468
 20
3.649
 30
0.0
 11
3.371
 21
4.805
 31
0.0
  0
LINE
  5
370
330
18
100
AcDbEntity
  8
0
100
AcDbLine
 10
2.421
 20
4.137
 30
0.0
 11
2.415
 21
4.066
 31
0.0
  0
LINE
  5
371
330
18
100
AcDbEntity
  8
0
100
AcDbLine
 10
2.355
 20
4.134
 30
0.0
 11
2.33
 21
3.997
 31
0.0
  0
LWPOLYLINE
  5
372
330
18
100
AcDbEntity
  8
0
100
AcDbPolyline
 90
        6
 70
     0
 43
0.0
 10
2.172
 20
4.136
 10
2.228
 20
4.131
 10
2.286
 20
4.131
 10
2.335
 20
4.117
 10
2.367
 20
4.113
 10
2.42
 20
4.121
  0
LINE
  5
37B
330
18
100
AcDbEntity
  8
0
100
AcDbLine
 10
3.397
 20
4.792
 30
0.0
 11
2.498
 21
3.634
 31
0.0
  0
LINE
  5
37C
330
18
100
AcDbEntity
  8
0
100
AcDbLine
 10
3.328
 20
4.826000000000001
 30
0.0
 11
2.576
 21
3.866
 31
0.0
  0
LINE
  5
37D
330
18
100
AcDbEntity
  8
0
100
AcDbLine
 10
3.275
 20
4.853
 30
0.0
 11
2.604
 21
3.999
 31
0.0
  0
LINE
  5
37E
330
18
100
AcDbEntity
  8
0
100
AcDbLine
 10
3.475
 20
4.753
 30
0.0
 11
3.763
 21
3.268
 31
0.0
  0
LINE
  5
37F
330
18
100
AcDbEntity
  8
0
100
AcDbLine
 10
3.366
 20
4.807
 30
0.0
 11
3.676
 21
3.273
 31
0.0
  0
LWPOLYLINE
  5
380
330
18
100
AcDbEntity
  8
0
100
AcDbPolyline
 90
        7
 70
     0
 43
0.0
 10
4.231
 20
3.607
 10
4.246
 20
3.668
 10
4.31
 20
3.891
 10
4.299
 20
3.983
 10
4.282
 20
4.069
 10
4.322
 20
4.183
 10
4.363
 20
4.309
  0
LINE
  5
38A
330
18
100
AcDbEntity
  8
0
100
AcDbLine
 10
3.085
 20
3.601
 30
0.0
 11
3.671
 21
3.295
 31
0.0
  0
LWPOLYLINE
  5
38B
330
18
100
AcDbEntity
  8
0
100
AcDbPolyline
 90
        6
 70
     1
 43
0.0
 10
2.168
 20
2.502
 10
2.182
 20
2.501
 10
2.19
 20
2.504
 10
2.186
 20
2.515
 10
2.169
 20
2.516
 10
2.164
 20
2.509
  0
POINT
  5
394
330
18
100
AcDbEntity
  8
0
100
AcDbPoint
 10
2.452
 20
2.453
 30
0.0
  0
POINT
  5
395
330
18
100
AcDbEntity
  8
0
100
AcDbPoint
 10
2.594
 20
2.34
 30
0.0
  0
POINT
  5
396
330
18
100
AcDbEntity
  8
0
100
AcDbPoint
 10
2.742
 20
2.498
 30
0.0
  0
LWPOLYLINE
  5
397
330
18
100
AcDbEntity
  8
0
100
AcDbPolyline
 90
        6
 70
     1
 43
0.0
 10
2.257
 20
2.848
 10
2.274
 20
2.88
 10
2.272
 20
2.908
 10
2.247
 20
2.918
 10
2.219
 20
2.884
 10
2.224
 20
2.864
  0
POINT
  5
3A0
330
18
100
AcDbEntity
  8
0
100
AcDbPoint
 10
2.165
 20
2.766
 30
0.0
  0
POINT
  5
3A1
330
18
100
AcDbEntity
  8
0
100
AcDbPoint
 10
2.133
 20
2.931
 30
0.0
  0
LWPOLYLINE
  5
3A2
330
18
100
AcDbEntity
  8
0
100
AcDbPolyline
 90
        6
 70
     1
 43
0.0
 10
2.161
 20
2.836
 10
2.175
 20
2.836
 10
2.184
 20
2.838
 10
2.179
 20
2.85
 10
2.162
 20
2.851
 10
2.158
 20
2.843
  0
LWPOLYLINE
  5
3AB
330
18
100
AcDbEntity
  8
0
100
AcDbPolyline
 90
        6
 70
     1
 43
0.0
 10
2.192
 20
3.061
 10
2.216
 20
3.06
 10
2.232
 20
3.065
 10
2.224
 20
3.085
 10
2.194
 20
3.087
 10
2.186
 20
3.073
  0
POINT
  5
3B4
330
18
100
AcDbEntity
  8
0
100
AcDbPoint
 10
2.193
 20
2.974
 30
0.0
  0
POINT
  5
3B5
330
18
100
AcDbEntity
  8
0
100
AcDbPoint
 10
2.144
 20
3.168
 30
0.0
  0
LWPOLYLINE
  5
3B6
330
18
100
AcDbEntity
  8
0
100
AcDbPolyline
 90
        6
 70
     1
 43
0.0
 10
2.228
 20
3.138
 10
2.241
 20
3.137
 10
2.25
 20
3.14
 10
2.246
 20
3.152
 10
2.229
 20
3.153
 10
2.224
 20
3.145
  0
LWPOLYLINE
  5
3BF
330
18
100
AcDbEntity
  8
0
100
AcDbPolyline
 90
        6
 70
     1
 43
0.0
 10
2.304
 20
3.088
 10
2.328
 20
3.087
 10
2.344
 20
3.092
 10
2.336
 20
3.113
 10
2.306
 20
3.115
 10
2.298
 20
3.101
  0
LWPOLYLINE
  5
3C8
330
18
100
AcDbEntity
  8
0
100
AcDbPolyline
 90
        6
 70
     1
 43
0.0
 10
2.296
 20
3.014
 10
2.32
 20
3.013
 10
2.336
 20
3.018
 10
2.328
 20
3.039
 10
2.298
 20
3.04
 10
2.289
 20
3.027
  0
POINT
  5
3D1
330
18
100
AcDbEntity
  8
0
100
AcDbPoint
 10
2.353
 20
3.187
 30
0.0
  0
POINT
  5
3D2
330
18
100
AcDbEntity
  8
0
100
AcDbPoint
 10
2.64
 20
2.779
 30
0.0
  0
POINT
  5
3D3
330
18
100
AcDbEntity
  8
0
100
AcDbPoint
 10
2.62
 20
3.133
 30
0.0
  0
POINT
  5
3D4
330
18
100
AcDbEntity
  8
0
100
AcDbPoint
 10
2.884
 20
2.499
 30
0.0
  0
POINT
  5
3D5
330
18
100
AcDbEntity
  8
0
100
AcDbPoint
 10
2.81
 20
3.159
 30
0.0
  0
POINT
  5
3D6
330
18
100
AcDbEntity
  8
0
100
AcDbPoint
 10
2.76
 20
3.065
 30
0.0
  0
POINT
  5
3D7
330
18
100
AcDbEntity
  8
0
100
AcDbPoint
 10
2.874
 20
2.981
 30
0.0
  0
POINT
  5
3D8
330
18
100
AcDbEntity
  8
0
100
AcDbPoint
 10
3.038
 20
3.049
 30
0.0
  0
POINT
  5
3D9
330
18
100
AcDbEntity
  8
0
100
AcDbPoint
 10
3.013
 20
3.129
 30
0.0
  0
POINT
  5
3DA
330
18
100
AcDbEntity
  8
0
100
AcDbPoint
 10
2.9
 20
3.164
 30
0.0
  0
POINT
  5
3DB
330
18
100
AcDbEntity
  8
0
100
AcDbPoint
 10
3.131
 20
2.844
 30
0.0
  0
POINT
  5
3DC
330
18
100
AcDbEntity
  8
0
100
AcDbPoint
 10
3.132
 20
3.056
 30
0.0
  0
POINT
  5
3DD
330
18
100
AcDbEntity
  8
0
100
AcDbPoint
 10
3.103
 20
3.134
 30
0.0
  0
POINT
  5
3DE
330
18
100
AcDbEntity
  8
0
100
AcDbPoint
 10
3.131
 20
3.119
 30
0.0
  0
POINT
  5
3DF
330
18
100
AcDbEntity
  8
0
100
AcDbPoint
 10
3.295
 20
3.012
 30
0.0
  0
LINE
  5
3E0
330
18
100
AcDbEntity
  8
0
100
AcDbLine
 10
2.501
 20
3.785
 30
0.0
 11
2.468
 21
3.649
 31
0.0
  0
LINE
  5
3E1
330
18
100
AcDbEntity
  8
0
100
AcDbLine
 10
2.498
 20
3.634
 30
0.0
 11
2.317
 21
3.728
 31
0.0
  0
LWPOLYLINE
  5
3E2
330
18
100
AcDbEntity
  8
0
100
AcDbPolyline
 90
        5
 70
     0
 43
0.0
 10
2.273
 20
3.784
 10
2.3
 20
3.782
 10
2.345
 20
3.766
 10
2.388
 20
3.738
 10
2.455
 20
3.656
  0
LWPOLYLINE
  5
3EA
330
18
100
AcDbEntity
  8
0
100
AcDbPolyline
 90
        6
 70
     1
 43
0.0
 10
2.244
 20
3.408
 10
2.258
 20
3.407
 10
2.267
 20
3.41
 10
2.262
 20
3.422
 10
2.245
 20
3.423
 10
2.241
 20
3.415
  0
LWPOLYLINE
  5
3F3
330
18
100
AcDbEntity
  8
0
100
AcDbPolyline
 90
        6
 70
     1
 43
0.0
 10
2.292
 20
3.258
 10
2.309
 20
3.29
 10
2.306
 20
3.317
 10
2.282
 20
3.327
 10
2.254
 20
3.293
 10
2.259
 20
3.274
  0
LWPOLYLINE
  5
3FC
330
18
100
AcDbEntity
  8
0
100
AcDbPolyline
 90
        6
 70
     1
 43
0.0
 10
2.179
 20
3.314
 10
2.203
 20
3.313
 10
2.219
 20
3.318
 10
2.211
 20
3.339
 10
2.181
 20
3.34
 10
2.173
 20
3.327
  0
POINT
  5
405
330
18
100
AcDbEntity
  8
0
100
AcDbPoint
 10
2.142
 20
3.266
 30
0.0
  0
POINT
  5
406
330
18
100
AcDbEntity
  8
0
100
AcDbPoint
 10
2.2
 20
3.196
 30
0.0
  0
POINT
  5
407
330
18
100
AcDbEntity
  8
0
100
AcDbPoint
 10
2.181
 20
3.42
 30
0.0
  0
POINT
  5
408
330
18
100
AcDbEntity
  8
0
100
AcDbPoint
 10
2.311
 20
3.234
 30
0.0
  0
POINT
  5
409
330
18
100
AcDbEntity
  8
0
100
AcDbPoint
 10
2.392
 20
3.395
 30
0.0
  0
POINT
  5
40A
330
18
100
AcDbEntity
  8
0
100
AcDbPoint
 10
2.373
 20
3.418
 30
0.0
  0
POINT
  5
40B
330
18
100
AcDbEntity
  8
0
100
AcDbPoint
 10
2.416
 20
3.326
 30
0.0
  0
LWPOLYLINE
  5
40C
330
18
100
AcDbEntity
  8
0
100
AcDbPolyline
 90
        6
 70
     1
 43
0.0
 10
2.208
 20
3.555
 10
2.225
 20
3.587
 10
2.222
 20
3.614
 10
2.198
 20
3.624
 10
2.17
 20
3.59
 10
2.175
 20
3.571
  0
POINT
  5
415
330
18
100
AcDbEntity
  8
0
100
AcDbPoint
 10
2.159
 20
3.486
 30
0.0
  0
POINT
  5
416
330
18
100
AcDbEntity
  8
0
100
AcDbPoint
 10
2.266
 20
3.627
 30
0.0
  0
LWPOLYLINE
  5
417
330
18
100
AcDbEntity
  8
0
100
AcDbPolyline
 90
        6
 70
     1
 43
0.0
 10
2.393
 20
3.489
 10
2.41
 20
3.52
 10
2.407
 20
3.548
 10
2.383
 20
3.558
 10
2.355
 20
3.524
 10
2.36
 20
3.505
  0
POINT
  5
420
330
18
100
AcDbEntity
  8
0
100
AcDbPoint
 10
2.302
 20
3.439
 30
0.0
  0
POINT
  5
421
330
18
100
AcDbEntity
  8
0
100
AcDbPoint
 10
2.282
 20
3.523
 30
0.0
  0
LWPOLYLINE
  5
422
330
18
100
AcDbEntity
  8
0
100
AcDbPolyline
 90
        6
 70
     1
 43
0.0
 10
2.286
 20
3.562
 10
2.3
 20
3.562
 10
2.308
 20
3.565
 10
2.304
 20
3.576
 10
2.287
 20
3.577
 10
2.282
 20
3.57
  0
POINT
  5
42B
330
18
100
AcDbEntity
  8
0
100
AcDbPoint
 10
2.491
 20
3.229
 30
0.0
  0
POINT
  5
42C
330
18
100
AcDbEntity
  8
0
100
AcDbPoint
 10
2.493
 20
3.323
 30
0.0
  0
POINT
  5
42D
330
18
100
AcDbEntity
  8
0
100
AcDbPoint
 10
2.554
 20
3.351
 30
0.0
  0
POINT
  5
42E
330
18
100
AcDbEntity
  8
0
100
AcDbPoint
 10
2.65
 20
3.283
 30
0.0
  0
POINT
  5
42F
330
18
100
AcDbEntity
  8
0
100
AcDbPoint
 10
2.688
 20
3.408
 30
0.0
  0
POINT
  5
430
330
18
100
AcDbEntity
  8
0
100
AcDbPoint
 10
2.548
 20
3.573
 30
0.0
  0
POINT
  5
431
330
18
100
AcDbEntity
  8
0
100
AcDbPoint
 10
2.598
 20
3.499
 30
0.0
  0
LINE
  5
432
330
18
100
AcDbEntity
  8
0
100
AcDbLine
 10
2.415
 20
4.066
 30
0.0
 11
2.467
 21
4.072
 31
0.0
  0
LINE
  5
433
330
18
100
AcDbEntity
  8
0
100
AcDbLine
 10
2.34
 20
3.869
 30
0.0
 11
2.501
 21
3.785
 31
0.0
  0
LINE
  5
434
330
18
100
AcDbEntity
  8
0
100
AcDbLine
 10
2.39
 20
3.929
 30
0.0
 11
2.442
 21
3.936
 31
0.0
  0
LINE
  5
435
330
18
100
AcDbEntity
  8
0
100
AcDbLine
 10
2.459
 20
4.029
 30
0.0
 11
2.407
 21
4.022
 31
0.0
  0
LINE
  5
436
330
18
100
AcDbEntity
  8
0
100
AcDbLine
 10
2.455
 20
4.003
 30
0.0
 11
2.401
 21
3.99
 31
0.0
  0
LINE
  5
437
330
18
100
AcDbEntity
  8
0
100
AcDbLine
 10
2.448
 20
3.968
 30
0.0
 11
2.394
 21
3.952
 31
0.0
  0
LINE
  5
438
330
18
100
AcDbEntity
  8
0
100
AcDbLine
 10
2.413
 20
4.044
 30
0.0
 11
2.463
 21
4.049
 31
0.0
  0
LWPOLYLINE
  5
439
330
18
100
AcDbEntity
  8
0
100
AcDbPolyline
 90
        7
 70
     0
 43
0.0
 10
2.308
 20
3.861
 10
2.315
 20
3.857
 10
2.344
 20
3.851
 10
2.368
 20
3.837
 10
2.41
 20
3.806
 10
2.464
 20
3.747
 10
2.487
 20
3.728
  0
LWPOLYLINE
  5
443
330
18
100
AcDbEntity
  8
0
100
AcDbPolyline
 90
        7
 70
     0
 43
0.0
 10
2.28
 20
3.831
 10
2.287
 20
3.829
 10
2.314
 20
3.82
 10
2.352
 20
3.803
 10
2.405
 20
3.771
 10
2.454
 20
3.719
 10
2.479
 20
3.694
  0
LINE
  5
44D
330
18
100
AcDbEntity
  8
0
100
AcDbLine
 10
2.297
 20
3.923
 30
0.0
 11
2.284
 21
3.855
 31
0.0
  0
LINE
  5
44E
330
18
100
AcDbEntity
  8
0
100
AcDbLine
 10
2.246
 20
3.918
 30
0.0
 11
2.224
 21
3.777
 31
0.0
  0
LINE
  5
44F
330
18
100
AcDbEntity
  8
0
100
AcDbLine
 10
2.262
 20
3.714
 30
0.0
 11
2.317
 21
3.728
 31
0.0
  0
LINE
  5
450
330
18
100
AcDbEntity
  8
0
100
AcDbLine
 10
2.284
 20
3.855
 30
0.0
 11
2.262
 21
3.714
 31
0.0
  0
LINE
  5
451
330
18
100
AcDbEntity
  8
0
100
AcDbLine
 10
2.265
 20
3.737
 30
0.0
 11
2.321
 21
3.749
 31
0.0
  0
LINE
  5
452
330
18
100
AcDbEntity
  8
0
100
AcDbLine
 10
2.224
 20
3.777
 30
0.0
 11
2.272
 21
3.782
 31
0.0
  0
POINT
  5
453
330
18
100
AcDbEntity
  8
0
100
AcDbPoint
 10
2.149
 20
3.702
 30
0.0
  0
LINE
  5
454
330
18
100
AcDbEntity
  8
0
100
AcDbLine
 10
2.284
 20
3.855
 30
0.0
 11
2.34
 21
3.869
 31
0.0
  0
LINE
  5
455
330
18
100
AcDbEntity
  8
0
100
AcDbLine
 10
2.34
 20
3.869
 30
0.0
 11
2.317
 21
3.728
 31
0.0
  0
LWPOLYLINE
  5
456
330
18
100
AcDbEntity
  8
0
100
AcDbPolyline
 90
        4
 70
     0
 43
0.0
 10
2.32
 20
3.749
 10
2.343
 20
3.738
 10
2.369
 20
3.707
 10
2.381
 20
3.695
  0
POINT
  5
45D
330
18
100
AcDbEntity
  8
0
100
AcDbPoint
 10
2.374
 20
3.657
 30
0.0
  0
LINE
  5
45E
330
18
100
AcDbEntity
  8
0
100
AcDbLine
 10
2.158
 20
4.084
 30
0.0
 11
2.33
 21
3.997
 31
0.0
  0
LINE
  5
45F
330
18
100
AcDbEntity
  8
0
100
AcDbLine
 10
2.246
 20
3.918
 30
0.0
 11
2.297
 21
3.923
 31
0.0
  0
LWPOLYLINE
  5
460
330
18
100
AcDbEntity
  8
0
100
AcDbPolyline
 90
        7
 70
     0
 43
0.0
 10
2.164
 20
4.105
 10
2.217
 20
4.101
 10
2.284
 20
4.092
 10
2.338
 20
4.079
 10
2.366
 20
4.079
 10
2.406
 20
4.09
 10
2.417
 20
4.092
  0
LWPOLYLINE
  5
46A
330
18
100
AcDbEntity
  8
0
100
AcDbPolyline
 90
        5
 70
     0
 43
0.0
 10
2.261
 20
4.032
 10
2.268
 20
4.032
 10
2.309
 20
4.023
 10
2.365
 20
4.023
 10
2.409
 20
4.035
  0
LWPOLYLINE
  5
472
330
18
100
AcDbEntity
  8
0
100
AcDbPolyline
 90
        5
 70
     0
 43
0.0
 10
2.2
 20
4.063
 10
2.299
 20
4.055
 10
2.337
 20
4.045
 10
2.395
 20
4.053
 10
2.413
 20
4.057
  0
LWPOLYLINE
  5
47A
330
18
100
AcDbEntity
  8
0
100
AcDbPolyline
 90
        5
 70
     0
 43
0.0
 10
2.177
 20
3.954
 10
2.195
 20
3.938
 10
2.235
 20
3.908
 10
2.256
 20
3.901
 10
2.291
 20
3.893
  0
LINE
  5
482
330
18
100
AcDbEntity
  8
0
100
AcDbLine
 10
2.33
 20
3.997
 30
0.0
 11
2.403
 21
4.001
 31
0.0
  0
LINE
  5
483
330
18
100
AcDbEntity
  8
0
100
AcDbLine
 10
2.415
 20
4.066
 30
0.0
 11
2.39
 21
3.929
 31
0.0
  0
LINE
  5
484
330
18
100
AcDbEntity
  8
0
100
AcDbLine
 10
2.604
 20
3.999
 30
0.0
 11
2.576
 21
3.866
 31
0.0
  0
LINE
  5
485
330
18
100
AcDbEntity
  8
0
100
AcDbLine
 10
2.442
 20
3.936
 30
0.0
 11
2.576
 21
3.866
 31
0.0
  0
LINE
  5
486
330
18
100
AcDbEntity
  8
0
100
AcDbLine
 10
2.576
 20
3.866
 30
0.0
 11
2.501
 21
3.785
 31
0.0
  0
LWPOLYLINE
  5
487
330
18
100
AcDbEntity
  8
0
100
AcDbPolyline
 90
        3
 70
     0
 43
0.0
 10
2.467
 20
3.803
 10
2.489
 20
3.776
 10
2.497
 20
3.769
  0
POINT
  5
48D
330
18
100
AcDbEntity
  8
0
100
AcDbPoint
 10
2.637
 20
3.682
 30
0.0
  0
POINT
  5
48E
330
18
100
AcDbEntity
  8
0
100
AcDbPoint
 10
2.712
 20
3.746
 30
0.0
  0
LINE
  5
48F
330
18
100
AcDbEntity
  8
0
100
AcDbLine
 10
2.604
 20
3.999
 30
0.0
 11
2.467
 21
4.072
 31
0.0
  0
LWPOLYLINE
  5
490
330
18
100
AcDbEntity
  8
0
100
AcDbPolyline
 90
        4
 70
     0
 43
0.0
 10
2.448
 20
3.968
 10
2.478
 20
3.965
 10
2.537
 20
3.958
 10
2.592
 20
3.943
  0
LWPOLYLINE
  5
497
330
18
100
AcDbEntity
  8
0
100
AcDbPolyline
 90
        4
 70
     0
 43
0.0
 10
2.455
 20
4.003
 10
2.507
 20
3.992
 10
2.581
 20
3.979
 10
2.599
 20
3.976
  0
LINE
  5
49E
330
18
100
AcDbEntity
  8
0
100
AcDbLine
 10
2.467
 20
4.072
 30
0.0
 11
2.442
 21
3.936
 31
0.0
  0
LWPOLYLINE
  5
49F
330
18
100
AcDbEntity
  8
0
100
AcDbPolyline
 90
        4
 70
     0
 43
0.0
 10
2.453
 20
3.93
 10
2.458
 20
3.93
 10
2.506
 20
3.93
 10
2.584
 20
3.901
  0
LWPOLYLINE
  5
4A6
330
18
100
AcDbEntity
  8
0
100
AcDbPolyline
 90
        3
 70
     0
 43
0.0
 10
2.459
 20
4.029
 10
2.504
 20
4.022
 10
2.571
 20
4.016
  0
LINE
  5
4AC
330
18
100
AcDbEntity
  8
0
100
AcDbLine
 10
2.463
 20
4.049
 30
0.0
 11
2.499
 21
4.056
 31
0.0
  0
LINE
  5
4AD
330
18
100
AcDbEntity
  8
0
100
AcDbLine
 10
3.085
 20
3.601
 30
0.0
 11
3.026
 21
3.525
 31
0.0
  0
LINE
  5
4AE
330
18
100
AcDbEntity
  8
0
100
AcDbLine
 10
2.956
 20
3.432
 30
0.0
 11
2.922
 21
3.275
 31
0.0
  0
POINT
  5
4AF
330
18
100
AcDbEntity
  8
0
100
AcDbPoint
 10
2.95
 20
3.214
 30
0.0
  0
LINE
  5
4B0
330
18
100
AcDbEntity
  8
0
100
AcDbLine
 10
3.008
 20
3.501
 30
0.0
 11
2.956
 21
3.432
 31
0.0
  0
ARC
  5
4B1
330
18
100
AcDbEntity
  8
0
100
AcDbCircle
 10
3.025
 20
3.488
 30
0.0
 40
0.021
100
AcDbArc
 50
62.433
 51
142.689
  0
ARC
  5
4B2
330
18
100
AcDbEntity
  8
0
100
AcDbCircle
 10
3.035
 20
3.518
 30
0.0
 40
0.01
100
AcDbArc
 50
142.689
 51
242.433
  0
POINT
  5
4B3
330
18
100
AcDbEntity
  8
0
100
AcDbPoint
 10
3.36
 20
3.63
 30
0.0
  0
POINT
  5
4B4
330
18
100
AcDbEntity
  8
0
100
AcDbPoint
 10
2.815
 20
3.73
 30
0.0
  0
POINT
  5
4B5
330
18
100
AcDbEntity
  8
0
100
AcDbPoint
 10
2.89
 20
3.872
 30
0.0
  0
POINT
  5
4B6
330
18
100
AcDbEntity
  8
0
100
AcDbPoint
 10
2.945
 20
3.807
 30
0.0
  0
POINT
  5
4B7
330
18
100
AcDbEntity
  8
0
100
AcDbPoint
 10
2.987
 20
3.837
 30
0.0
  0
POINT
  5
4B8
330
18
100
AcDbEntity
  8
0
100
AcDbPoint
 10
2.783
 20
3.903
 30
0.0
  0
POINT
  5
4B9
330
18
100
AcDbEntity
  8
0
100
AcDbPoint
 10
2.862
 20
3.928
 30
0.0
  0
POINT
  5
4BA
330
18
100
AcDbEntity
  8
0
100
AcDbPoint
 10
2.89
 20
4.01
 30
0.0
  0
POINT
  5
4BB
330
18
100
AcDbEntity
  8
0
100
AcDbPoint
 10
3.048
 20
3.903
 30
0.0
  0
POINT
  5
4BC
330
18
100
AcDbEntity
  8
0
100
AcDbPoint
 10
3.064
 20
3.747
 30
0.0
  0
POINT
  5
4BD
330
18
100
AcDbEntity
  8
0
100
AcDbPoint
 10
3.064
 20
3.837
 30
0.0
  0
POINT
  5
4BE
330
18
100
AcDbEntity
  8
0
100
AcDbPoint
 10
3.219
 20
3.743
 30
0.0
  0
POINT
  5
4BF
330
18
100
AcDbEntity
  8
0
100
AcDbPoint
 10
3.273
 20
3.836
 30
0.0
  0
POINT
  5
4C0
330
18
100
AcDbEntity
  8
0
100
AcDbPoint
 10
3.355
 20
3.732
 30
0.0
  0
POINT
  5
4C1
330
18
100
AcDbEntity
  8
0
100
AcDbPoint
 10
3.075
 20
3.937
 30
0.0
  0
POINT
  5
4C2
330
18
100
AcDbEntity
  8
0
100
AcDbPoint
 10
3.301
 20
3.906
 30
0.0
  0
POINT
  5
4C3
330
18
100
AcDbEntity
  8
0
100
AcDbPoint
 10
3.313
 20
4.031000000000001
 30
0.0
  0
POINT
  5
4C4
330
18
100
AcDbEntity
  8
0
100
AcDbPoint
 10
3.313
 20
4.091
 30
0.0
  0
LINE
  5
4C5
330
18
100
AcDbEntity
  8
0
100
AcDbLine
 10
3.817
 20
3.204
 30
0.0
 11
3.818
 21
3.097
 31
0.0
  0
ARC
  5
4C6
330
18
100
AcDbEntity
  8
0
100
AcDbCircle
 10
3.524
 20
3.278
 30
0.0
 40
0.152
100
AcDbArc
 50
323.131
 51
358.028
  0
LWPOLYLINE
  5
4C7
330
18
100
AcDbEntity
  8
0
100
AcDbPolyline
 90
        4
 70
     0
 43
0.0
 10
4.082
 20
3.08
 10
4.091
 20
3.102
 10
4.143
 20
3.215
 10
4.184
 20
3.414
  0
POINT
  5
4CE
330
18
100
AcDbEntity
  8
0
100
AcDbPoint
 10
3.414
 20
2.413
 30
0.0
  0
POINT
  5
4CF
330
18
100
AcDbEntity
  8
0
100
AcDbPoint
 10
3.587
 20
2.544
 30
0.0
  0
LINE
  5
4D0
330
18
100
AcDbEntity
  8
0
100
AcDbLine
 10
3.669
 20
3.022
 30
0.0
 11
3.748
 21
2.983
 31
0.0
  0
LINE
  5
4D1
330
18
100
AcDbEntity
  8
0
100
AcDbLine
 10
3.658
 20
3.017
 30
0.0
 11
3.737
 21
2.977
 31
0.0
  0
LINE
  5
4D2
330
18
100
AcDbEntity
  8
0
100
AcDbLine
 10
3.64
 20
2.925
 30
0.0
 11
3.719
 21
2.885
 31
0.0
  0
LWPOLYLINE
  5
4D3
330
18
100
AcDbEntity
  8
0
100
AcDbPolyline
 90
        6
 70
     1
 43
0.0
 10
3.664
 20
2.955
 10
3.678
 20
2.971
 10
3.699
 20
2.966
 10
3.705
 20
2.946
 10
3.691
 20
2.931
 10
3.671
 20
2.935
  0
LINE
  5
4DC
330
18
100
AcDbEntity
  8
0
100
AcDbLine
 10
3.64
 20
2.925
 30
0.0
 11
3.658
 21
3.017
 31
0.0
  0
POINT
  5
4DD
330
18
100
AcDbEntity
  8
0
100
AcDbPoint
 10
3.477
 20
2.74
 30
0.0
  0
POINT
  5
4DE
330
18
100
AcDbEntity
  8
0
100
AcDbPoint
 10
3.599
 20
2.733
 30
0.0
  0
LINE
  5
4DF
330
18
100
AcDbEntity
  8
0
100
AcDbLine
 10
3.658
 20
3.017
 30
0.0
 11
3.669
 21
3.022
 31
0.0
  0
LINE
  5
4E0
330
18
100
AcDbEntity
  8
0
100
AcDbLine
 10
3.73
 20
2.891
 30
0.0
 11
3.748
 21
2.983
 31
0.0
  0
LINE
  5
4E1
330
18
100
AcDbEntity
  8
0
100
AcDbLine
 10
3.719
 20
2.885
 30
0.0
 11
3.737
 21
2.977
 31
0.0
  0
LWPOLYLINE
  5
4E2
330
18
100
AcDbEntity
  8
0
100
AcDbPolyline
 90
        4
 70
     0
 43
0.0
 10
3.687
 20
2.973
 10
3.708
 20
2.968
 10
3.715
 20
2.949
 10
3.701
 20
2.933
  0
LINE
  5
4E9
330
18
100
AcDbEntity
  8
0
100
AcDbLine
 10
3.719
 20
2.885
 30
0.0
 11
3.73
 21
2.891
 31
0.0
  0
LINE
  5
4EA
330
18
100
AcDbEntity
  8
0
100
AcDbLine
 10
3.691
 20
2.931
 30
0.0
 11
3.701
 21
2.933
 31
0.0
  0
LINE
  5
4EB
330
18
100
AcDbEntity
  8
0
100
AcDbLine
 10
3.705
 20
2.946
 30
0.0
 11
3.715
 21
2.949
 31
0.0
  0
LINE
  5
4EC
330
18
100
AcDbEntity
  8
0
100
AcDbLine
 10
3.737
 20
2.977
 30
0.0
 11
3.748
 21
2.983
 31
0.0
  0
LINE
  5
4ED
330
18
100
AcDbEntity
  8
0
100
AcDbLine
 10
3.678
 20
2.971
 30
0.0
 11
3.687
 21
2.973
 31
0.0
  0
LINE
  5
4EE
330
18
100
AcDbEntity
  8
0
100
AcDbLine
 10
3.699
 20
2.966
 30
0.0
 11
3.708
 21
2.968
 31
0.0
  0
ARC
  5
4EF
330
18
100
AcDbEntity
  8
0
100
AcDbCircle
 10
3.889
 20
3.155
 30
0.0
 40
0.021
100
AcDbArc
 50
132.918
 51
211.626
  0
ARC
  5
4F0
330
18
100
AcDbEntity
  8
0
100
AcDbCircle
 10
3.812
 20
3.107
 30
0.0
 40
0.069
100
AcDbArc
 50
327.295
 51
31.62599999999999
  0
POINT
  5
4F1
330
18
100
AcDbEntity
  8
0
100
AcDbPoint
 10
3.573
 20
3.409
 30
0.0
  0
POINT
  5
4F2
330
18
100
AcDbEntity
  8
0
100
AcDbPoint
 10
3.594
 20
3.417
 30
0.0
  0
POINT
  5
4F3
330
18
100
AcDbEntity
  8
0
100
AcDbPoint
 10
3.439
 20
3.607
 30
0.0
  0
POINT
  5
4F4
330
18
100
AcDbEntity
  8
0
100
AcDbPoint
 10
3.392
 20
3.55
 30
0.0
  0
POINT
  5
4F5
330
18
100
AcDbEntity
  8
0
100
AcDbPoint
 10
3.458
 20
3.493
 30
0.0
  0
POINT
  5
4F6
330
18
100
AcDbEntity
  8
0
100
AcDbPoint
 10
3.5
 20
3.482
 30
0.0
  0
POINT
  5
4F7
330
18
100
AcDbEntity
  8
0
100
AcDbPoint
 10
3.602
 20
3.527
 30
0.0
  0
POINT
  5
4F8
330
18
100
AcDbEntity
  8
0
100
AcDbPoint
 10
3.537
 20
3.553
 30
0.0
  0
ARC
  5
4F9
330
18
100
AcDbEntity
  8
0
100
AcDbCircle
 10
3.803
 20
3.308
 30
0.0
 40
0.076
100
AcDbArc
 50
266.267
 51
305.482
  0
ARC
  5
4FA
330
18
100
AcDbEntity
  8
0
100
AcDbCircle
 10
3.783
 20
3.273
 30
0.0
 40
0.021
100
AcDbArc
 50
193.318
 51
233.146
  0
ARC
  5
4FB
330
18
100
AcDbEntity
  8
0
100
AcDbCircle
 10
3.796
 20
3.203
 30
0.0
 40
0.021
100
AcDbArc
 50
0.7359999999999999
 51
38.658
  0
ARC
  5
4FC
330
18
100
AcDbEntity
  8
0
100
AcDbCircle
 10
3.634
 20
3.074
 30
0.0
 40
0.228
100
AcDbArc
 50
38.658
 51
53.146
  0
POINT
  5
4FD
330
18
100
AcDbEntity
  8
0
100
AcDbPoint
 10
3.801
 20
3.514
 30
0.0
  0
POINT
  5
4FE
330
18
100
AcDbEntity
  8
0
100
AcDbPoint
 10
3.79
 20
3.64
 30
0.0
  0
POINT
  5
4FF
330
18
100
AcDbEntity
  8
0
100
AcDbPoint
 10
3.918
 20
3.579
 30
0.0
  0
POINT
  5
500
330
18
100
AcDbEntity
  8
0
100
AcDbPoint
 10
3.902
 20
3.583
 30
0.0
  0
POINT
  5
501
330
18
100
AcDbEntity
  8
0
100
AcDbPoint
 10
3.395
 20
3.815
 30
0.0
  0
POINT
  5
502
330
18
100
AcDbEntity
  8
0
100
AcDbPoint
 10
3.406
 20
3.794
 30
0.0
  0
POINT
  5
503
330
18
100
AcDbEntity
  8
0
100
AcDbPoint
 10
3.504
 20
3.657
 30
0.0
  0
POINT
  5
504
330
18
100
AcDbEntity
  8
0
100
AcDbPoint
 10
3.502
 20
3.742
 30
0.0
  0
POINT
  5
505
330
18
100
AcDbEntity
  8
0
100
AcDbPoint
 10
3.419
 20
3.813
 30
0.0
  0
POINT
  5
506
330
18
100
AcDbEntity
  8
0
100
AcDbPoint
 10
3.429
 20
4.043
 30
0.0
  0
POINT
  5
507
330
18
100
AcDbEntity
  8
0
100
AcDbPoint
 10
3.421
 20
4.081
 30
0.0
  0
POINT
  5
508
330
18
100
AcDbEntity
  8
0
100
AcDbPoint
 10
3.733
 20
3.719
 30
0.0
  0
POINT
  5
509
330
18
100
AcDbEntity
  8
0
100
AcDbPoint
 10
3.862
 20
3.671
 30
0.0
  0
POINT
  5
50A
330
18
100
AcDbEntity
  8
0
100
AcDbPoint
 10
4.032
 20
3.615
 30
0.0
  0
POINT
  5
50B
330
18
100
AcDbEntity
  8
0
100
AcDbPoint
 10
4.099
 20
3.682
 30
0.0
  0
LINE
  5
50C
330
18
100
AcDbEntity
  8
0
100
AcDbLine
 10
3.269
 20
4.856
 30
0.0
 11
3.366
 21
4.927
 31
0.0
  0
LINE
  5
50D
330
18
100
AcDbEntity
  8
0
100
AcDbLine
 10
2.873
 20
5.053999999999999
 30
0.0
 11
2.871
 21
5.175
 31
0.0
  0
LINE
  5
50E
330
18
100
AcDbEntity
  8
0
100
AcDbLine
 10
3.04
 20
4.97
 30
0.0
 11
3.038
 21
5.091
 31
0.0
  0
LINE
  5
50F
330
18
100
AcDbEntity
  8
0
100
AcDbLine
 10
3.033
 20
4.974
 30
0.0
 11
3.031
 21
5.095
 31
0.0
  0
LWPOLYLINE
  5
510
330
18
100
AcDbEntity
  8
0
100
AcDbPolyline
 90
        4
 70
     0
 43
0.0
 10
2.943
 20
5.092
 10
2.964
 20
5.097
 10
2.978
 20
5.081
 10
2.971
 20
5.061
  0
LWPOLYLINE
  5
517
330
18
100
AcDbEntity
  8
0
100
AcDbPolyline
 90
        6
 70
     1
 43
0.0
 10
2.929
 20
5.066
 10
2.935
 20
5.086
 10
2.956
 20
5.091
 10
2.97
 20
5.075
 10
2.963
 20
5.055
 10
2.943
 20
5.051
  0
LINE
  5
520
330
18
100
AcDbEntity
  8
0
100
AcDbLine
 10
2.195
 20
4.22
 30
0.0
 11
2.819
 21
4.974
 31
0.0
  0
LINE
  5
521
330
18
100
AcDbEntity
  8
0
100
AcDbLine
 10
2.355
 20
4.134
 30
0.0
 11
2.195
 21
4.22
 31
0.0
  0
LWPOLYLINE
  5
522
330
18
100
AcDbEntity
  8
0
100
AcDbPolyline
 90
        4
 70
     0
 43
0.0
 10
2.181
 20
4.169
 10
2.206
 20
4.166
 10
2.281
 20
4.169
 10
2.288
 20
4.17
  0
LINE
  5
529
330
18
100
AcDbEntity
  8
0
100
AcDbLine
 10
2.355
 20
4.134
 30
0.0
 11
2.421
 21
4.137
 31
0.0
  0
POINT
  5
52A
330
18
100
AcDbEntity
  8
0
100
AcDbPoint
 10
3.319
 20
4.444
 30
0.0
  0
POINT
  5
52B
330
18
100
AcDbEntity
  8
0
100
AcDbPoint
 10
3.251
 20
4.494
 30
0.0
  0
POINT
  5
52C
330
18
100
AcDbEntity
  8
0
100
AcDbPoint
 10
3.321
 20
4.559
 30
0.0
  0
POINT
  5
52D
330
18
100
AcDbEntity
  8
0
100
AcDbPoint
 10
3.341
 20
4.547
 30
0.0
  0
POINT
  5
52E
330
18
100
AcDbEntity
  8
0
100
AcDbPoint
 10
3.307
 20
4.435
 30
0.0
  0
LINE
  5
52F
330
18
100
AcDbEntity
  8
0
100
AcDbLine
 10
3.048
 20
4.859
 30
0.0
 11
3.206
 21
4.777
 31
0.0
  0
LINE
  5
530
330
18
100
AcDbEntity
  8
0
100
AcDbLine
 10
3.054
 20
4.879
 30
0.0
 11
3.048
 21
4.859
 31
0.0
  0
LINE
  5
531
330
18
100
AcDbEntity
  8
0
  6
HIDDEN2
100
AcDbLine
 10
2.873
 20
5.053999999999999
 30
0.0
 11
3.109
 21
4.936
 31
0.0
  0
LINE
  5
532
330
18
100
AcDbEntity
  8
0
100
AcDbLine
 10
2.819
 20
4.974
 30
0.0
 11
2.977
 21
4.891
 31
0.0
  0
LINE
  5
533
330
18
100
AcDbEntity
  8
0
100
AcDbLine
 10
2.825
 20
4.994
 30
0.0
 11
2.984
 21
4.911000000000001
 31
0.0
  0
LINE
  5
534
330
18
100
AcDbEntity
  8
0
100
AcDbLine
 10
2.825
 20
4.994
 30
0.0
 11
2.873
 21
5.053999999999999
 31
0.0
  0
LINE
  5
535
330
18
100
AcDbEntity
  8
0
100
AcDbLine
 10
2.825
 20
4.994
 30
0.0
 11
2.819
 21
4.974
 31
0.0
  0
LINE
  5
536
330
18
100
AcDbEntity
  8
0
100
AcDbLine
 10
2.984
 20
4.911000000000001
 30
0.0
 11
3.033
 21
4.974
 31
0.0
  0
LINE
  5
537
330
18
100
AcDbEntity
  8
0
100
AcDbLine
 10
2.977
 20
4.891
 30
0.0
 11
3.04
 21
4.97
 31
0.0
  0
LINE
  5
538
330
18
100
AcDbEntity
  8
0
100
AcDbLine
 10
2.984
 20
4.911000000000001
 30
0.0
 11
2.977
 21
4.891
 31
0.0
  0
LINE
  5
539
330
18
100
AcDbEntity
  8
0
100
AcDbLine
 10
2.963
 20
5.055
 30
0.0
 11
2.971
 21
5.061
 31
0.0
  0
LINE
  5
53A
330
18
100
AcDbEntity
  8
0
100
AcDbLine
 10
3.054
 20
4.879
 30
0.0
 11
3.213
 21
4.797
 31
0.0
  0
LINE
  5
53B
330
18
100
AcDbEntity
  8
0
100
AcDbLine
 10
3.206
 20
4.777
 30
0.0
 11
3.269
 21
4.856
 31
0.0
  0
LINE
  5
53C
330
18
100
AcDbEntity
  8
0
100
AcDbLine
 10
3.213
 20
4.797
 30
0.0
 11
3.262
 21
4.859
 31
0.0
  0
LINE
  5
53D
330
18
100
AcDbEntity
  8
0
100
AcDbLine
 10
3.213
 20
4.797
 30
0.0
 11
3.206
 21
4.777
 31
0.0
  0
LINE
  5
53E
330
18
100
AcDbEntity
  8
0
  6
HIDDEN2
100
AcDbLine
 10
3.117
 20
4.932
 30
0.0
 11
3.247
 21
4.867
 31
0.0
  0
LWPOLYLINE
  5
53F
330
18
100
AcDbEntity
  8
0
100
AcDbPolyline
 90
        6
 70
     1
 43
0.0
 10
3.202
 20
4.93
 10
3.208
 20
4.95
 10
3.229
 20
4.954
 10
3.243
 20
4.938
 10
3.236
 20
4.918
 10
3.216
 20
4.914
  0
LINE
  5
548
330
18
100
AcDbEntity
  8
0
100
AcDbLine
 10
3.111
 20
5.053999999999999
 30
0.0
 11
3.079
 21
4.951000000000001
 31
0.0
  0
LINE
  5
549
330
18
100
AcDbEntity
  8
0
100
AcDbLine
 10
3.102
 20
5.059
 30
0.0
 11
3.069
 21
4.956
 31
0.0
  0
LINE
  5
54A
330
18
100
AcDbEntity
  8
0
100
AcDbLine
 10
3.054
 20
4.879
 30
0.0
 11
3.102
 21
4.939
 31
0.0
  0
LINE
  5
54B
330
18
100
AcDbEntity
  8
0
100
AcDbLine
 10
3.102
 20
4.939
 30
0.0
 11
3.199
 21
5.01
 31
0.0
  0
LINE
  5
54C
330
18
100
AcDbEntity
  8
0
100
AcDbLine
 10
3.262
 20
4.859
 30
0.0
 11
3.36
 21
4.93
 31
0.0
  0
LINE
  5
54D
330
18
100
AcDbEntity
  8
0
100
AcDbLine
 10
3.229
 20
4.954
 30
0.0
 11
3.237
 21
4.96
 31
0.0
  0
LINE
  5
54E
330
18
100
AcDbEntity
  8
0
100
AcDbLine
 10
3.243
 20
4.938
 30
0.0
 11
3.251
 21
4.944
 31
0.0
  0
LINE
  5
54F
330
18
100
AcDbEntity
  8
0
100
AcDbLine
 10
3.236
 20
4.918
 30
0.0
 11
3.244
 21
4.924
 31
0.0
  0
LWPOLYLINE
  5
550
330
18
100
AcDbEntity
  8
0
100
AcDbPolyline
 90
        4
 70
     0
 43
0.0
 10
3.216
 20
4.956
 10
3.237
 20
4.96
 10
3.251
 20
4.944
 10
3.244
 20
4.924
  0
LINE
  5
557
330
18
100
AcDbEntity
  8
0
100
AcDbLine
 10
3.208
 20
4.95
 30
0.0
 11
3.216
 21
4.956
 31
0.0
  0
LWPOLYLINE
  5
558
330
18
100
AcDbEntity
  8
0
100
AcDbPolyline
 90
       16
 70
     1
 43
0.0
 10
2.677
 20
5.523
 42
0.166
 10
2.677
 20
5.519
 42
0.106
 10
2.682
 20
5.513999999999999
 42
0.069
 10
2.688
 20
5.51
 42
0.055
 10
2.696
 20
5.507999999999999
 42
0.055
 10
2.705
 20
5.507999999999999
 42
0.069
 10
2.712
 20
5.509
 42
0.106
 10
2.718
 20
5.512000000000001
 42
0.166
 10
2.72
 20
5.516
 42
0.166
 10
2.719
 20
5.52
 42
0.106
 10
2.715
 20
5.525
 42
0.069
 10
2.708
 20
5.529
 42
0.055
 10
2.7
 20
5.531000000000001
 42
0.055
 10
2.691
 20
5.531000000000001
 42
0.069
 10
2.684
 20
5.53
 42
0.106
 10
2.679
 20
5.526
 42
0.166
  0
LWPOLYLINE
  5
56B
330
18
100
AcDbEntity
  8
0
100
AcDbPolyline
 90
       16
 70
     1
 43
0.0
 10
2.351
 20
5.506
 42
0.166
 10
2.352
 20
5.501
 42
0.106
 10
2.356
 20
5.497000000000001
 42
0.069
 10
2.362
 20
5.492999999999999
 42
0.055
 10
2.371
 20
5.491000000000001
 42
0.055
 10
2.38
 20
5.49
 42
0.069
 10
2.386
 20
5.492000000000001
 42
0.106
 10
2.392
 20
5.495
 42
0.166
 10
2.394
 20
5.499
 42
0.166
 10
2.393
 20
5.502999999999999
 42
0.106
 10
2.389
 20
5.507999999999999
 42
0.069
 10
2.383
 20
5.512000000000001
 42
0.055
 10
2.374
 20
5.513999999999999
 42
0.055
 10
2.366
 20
5.513999999999999
 42
0.069
 10
2.359
 20
5.513
 42
0.106
 10
2.353
 20
5.509
 42
0.166
  0
LWPOLYLINE
  5
57E
330
18
100
AcDbEntity
  8
0
100
AcDbPolyline
 90
       16
 70
     1
 43
0.0
 10
2.565
 20
5.422999999999999
 42
0.166
 10
2.566
 20
5.419
 42
0.106
 10
2.57
 20
5.414
 42
0.069
 10
2.576
 20
5.411000000000001
 42
0.055
 10
2.585
 20
5.408
 42
0.055
 10
2.594
 20
5.408
 42
0.069
 10
2.601
 20
5.409
 42
0.106
 10
2.606
 20
5.412999999999999
 42
0.166
 10
2.608
 20
5.416
 42
0.166
 10
2.607
 20
5.421
 42
0.106
 10
2.603
 20
5.426
 42
0.069
 10
2.597
 20
5.428999999999999
 42
0.055
 10
2.588
 20
5.431
 42
0.055
 10
2.58
 20
5.432
 42
0.069
 10
2.573
 20
5.43
 42
0.106
 10
2.567
 20
5.427000000000001
 42
0.166
  0
LWPOLYLINE
  5
591
330
18
100
AcDbEntity
  8
0
100
AcDbPolyline
 90
       16
 70
     1
 43
0.0
 10
2.175
 20
5.626
 42
0.166
 10
2.176
 20
5.622000000000001
 42
0.106
 10
2.18
 20
5.617000000000001
 42
0.069
 10
2.186
 20
5.614
 42
0.055
 10
2.195
 20
5.612
 42
0.055
 10
2.204
 20
5.611000000000001
 42
0.069
 10
2.21
 20
5.613
 42
0.106
 10
2.216
 20
5.616000000000001
 42
0.166
 10
2.218
 20
5.62
 42
0.166
 10
2.217
 20
5.624
 42
0.106
 10
2.213
 20
5.629
 42
0.069
 10
2.207
 20
5.632000000000001
 42
0.055
 10
2.198
 20
5.635
 42
0.055
 10
2.19
 20
5.635
 42
0.069
 10
2.183
 20
5.634
 42
0.106
 10
2.177
 20
5.63
 42
0.166
  0
LWPOLYLINE
  5
5A4
330
18
100
AcDbEntity
  8
0
100
AcDbPolyline
 90
       16
 70
     1
 43
0.0
 10
2.287
 20
5.726
 42
0.166
 10
2.287
 20
5.722
 42
0.106
 10
2.292
 20
5.717000000000001
 42
0.069
 10
2.298
 20
5.712999999999999
 42
0.055
 10
2.306
 20
5.711
 42
0.055
 10
2.315
 20
5.711
 42
0.069
 10
2.322
 20
5.712000000000001
 42
0.106
 10
2.327
 20
5.716
 42
0.166
 10
2.329
 20
5.718999999999999
 42
0.166
 10
2.329
 20
5.724
 42
0.106
 10
2.324
 20
5.728
 42
0.069
 10
2.318
 20
5.732
 42
0.055
 10
2.31
 20
5.734
 42
0.055
 10
2.301
 20
5.735
 42
0.069
 10
2.294
 20
5.733
 42
0.106
 10
2.289
 20
5.73
 42
0.166
  0
LWPOLYLINE
  5
5B7
330
18
100
AcDbEntity
  8
0
100
AcDbPolyline
 90
       16
 70
     1
 43
0.0
 10
2.463
 20
5.605
 42
0.166
 10
2.463
 20
5.601
 42
0.106
 10
2.468
 20
5.596
 42
0.069
 10
2.474
 20
5.593
 42
0.055
 10
2.482
 20
5.59
 42
0.055
 10
2.491
 20
5.59
 42
0.069
 10
2.498
 20
5.591
 42
0.106
 10
2.503
 20
5.595
 42
0.166
 10
2.505
 20
5.599
 42
0.166
 10
2.505
 20
5.603
 42
0.106
 10
2.5
 20
5.608
 42
0.069
 10
2.494
 20
5.611000000000001
 42
0.055
 10
2.486
 20
5.613
 42
0.055
 10
2.477
 20
5.614
 42
0.069
 10
2.47
 20
5.612
 42
0.106
 10
2.465
 20
5.609
 42
0.166
  0
LWPOLYLINE
  5
5CA
330
18
100
AcDbEntity
  8
0
100
AcDbPolyline
 90
       16
 70
     1
 43
0.0
 10
2.75
 20
5.303
 42
0.166
 10
2.751
 20
5.299
 42
0.106
 10
2.755
 20
5.294
 42
0.069
 10
2.761
 20
5.291
 42
0.055
 10
2.77
 20
5.287999999999999
 42
0.055
 10
2.779
 20
5.287999999999999
 42
0.069
 10
2.785
 20
5.289
 42
0.106
 10
2.791
 20
5.292999999999999
 42
0.166
 10
2.793
 20
5.297000000000001
 42
0.166
 10
2.792
 20
5.301
 42
0.106
 10
2.788
 20
5.306
 42
0.069
 10
2.782
 20
5.309
 42
0.055
 10
2.773
 20
5.311
 42
0.055
 10
2.765
 20
5.312
 42
0.069
 10
2.758
 20
5.31
 42
0.106
 10
2.752
 20
5.307
 42
0.166
  0
LWPOLYLINE
  5
5DD
330
18
100
AcDbEntity
  8
0
100
AcDbPolyline
 90
       16
 70
     1
 43
0.0
 10
2.964
 20
5.222
 42
0.166
 10
2.965
 20
5.218
 42
0.106
 10
2.969
 20
5.212999999999999
 42
0.069
 10
2.975
 20
5.209
 42
0.055
 10
2.984
 20
5.207000000000001
 42
0.055
 10
2.992
 20
5.207000000000001
 42
0.069
 10
2.999
 20
5.207999999999999
 42
0.106
 10
3.005
 20
5.212000000000001
 42
0.166
 10
3.007
 20
5.215
 42
0.166
 10
3.006
 20
5.218999999999999
 42
0.106
 10
3.002
 20
5.224
 42
0.069
 10
2.996
 20
5.228
 42
0.055
 10
2.987
 20
5.23
 42
0.055
 10
2.978
 20
5.23
 42
0.069
 10
2.972
 20
5.229
 42
0.106
 10
2.966
 20
5.226
 42
0.166
  0
LINE
  5
5F0
330
18
100
AcDbEntity
  8
0
100
AcDbLine
 10
2.956
 20
5.091
 30
0.0
 11
2.964
 21
5.097
 31
0.0
  0
LINE
  5
5F1
330
18
100
AcDbEntity
  8
0
100
AcDbLine
 10
2.97
 20
5.075
 30
0.0
 11
2.978
 21
5.081
 31
0.0
  0
LINE
  5
5F2
330
18
100
AcDbEntity
  8
0
100
AcDbLine
 10
2.935
 20
5.086
 30
0.0
 11
2.943
 21
5.092
 31
0.0
  0
LWPOLYLINE
  5
5F3
330
18
100
AcDbEntity
  8
0
100
AcDbPolyline
 90
       16
 70
     1
 43
0.0
 10
2.862
 20
5.403
 42
0.166
 10
2.862
 20
5.399
 42
0.106
 10
2.867
 20
5.394
 42
0.069
 10
2.873
 20
5.39
 42
0.055
 10
2.881
 20
5.388
 42
0.055
 10
2.89
 20
5.388
 42
0.069
 10
2.897
 20
5.388999999999999
 42
0.106
 10
2.902
 20
5.392
 42
0.166
 10
2.904
 20
5.396
 42
0.166
 10
2.904
 20
5.4
 42
0.106
 10
2.899
 20
5.405
 42
0.069
 10
2.893
 20
5.409
 42
0.055
 10
2.885
 20
5.411000000000001
 42
0.055
 10
2.876
 20
5.411000000000001
 42
0.069
 10
2.869
 20
5.41
 42
0.106
 10
2.864
 20
5.407
 42
0.166
  0
LWPOLYLINE
  5
606
330
18
100
AcDbEntity
  8
0
100
AcDbPolyline
 90
       16
 70
     1
 43
0.0
 10
3.075
 20
5.321000000000001
 42
0.166
 10
3.076
 20
5.317
 42
0.106
 10
3.08
 20
5.312
 42
0.069
 10
3.087
 20
5.309
 42
0.055
 10
3.095
 20
5.307
 42
0.055
 10
3.104
 20
5.306
 42
0.069
 10
3.111
 20
5.308
 42
0.106
 10
3.116
 20
5.311
 42
0.166
 10
3.118
 20
5.315
 42
0.166
 10
3.118
 20
5.319
 42
0.106
 10
3.113
 20
5.324
 42
0.069
 10
3.107
 20
5.327000000000001
 42
0.055
 10
3.099
 20
5.33
 42
0.055
 10
3.09
 20
5.33
 42
0.069
 10
3.083
 20
5.329
 42
0.106
 10
3.077
 20
5.325
 42
0.166
  0
POINT
  5
619
330
18
100
AcDbEntity
  8
0
100
AcDbPoint
 10
3.414
 20
4.151
 30
0.0
  0
POINT
  5
61A
330
18
100
AcDbEntity
  8
0
100
AcDbPoint
 10
3.427
 20
4.228
 30
0.0
  0
POINT
  5
61B
330
18
100
AcDbEntity
  8
0
100
AcDbPoint
 10
3.65
 20
4.155
 30
0.0
  0
POINT
  5
61C
330
18
100
AcDbEntity
  8
0
100
AcDbPoint
 10
3.759
 20
4.193000000000001
 30
0.0
  0
POINT
  5
61D
330
18
100
AcDbEntity
  8
0
100
AcDbPoint
 10
3.816
 20
4.256
 30
0.0
  0
POINT
  5
61E
330
18
100
AcDbEntity
  8
0
100
AcDbPoint
 10
3.762
 20
4.303
 30
0.0
  0
POINT
  5
61F
330
18
100
AcDbEntity
  8
0
100
AcDbPoint
 10
3.672
 20
4.359
 30
0.0
  0
POINT
  5
620
330
18
100
AcDbEntity
  8
0
100
AcDbPoint
 10
3.682
 20
4.332
 30
0.0
  0
POINT
  5
621
330
18
100
AcDbEntity
  8
0
100
AcDbPoint
 10
3.684
 20
4.422
 30
0.0
  0
POINT
  5
622
330
18
100
AcDbEntity
  8
0
100
AcDbPoint
 10
3.79
 20
4.426
 30
0.0
  0
POINT
  5
623
330
18
100
AcDbEntity
  8
0
100
AcDbPoint
 10
3.792
 20
4.373
 30
0.0
  0
LWPOLYLINE
  5
624
330
18
100
AcDbEntity
  8
0
100
AcDbPolyline
 90
       16
 70
     1
 43
0.0
 10
3.386
 20
4.983000000000001
 42
0.166
 10
3.387
 20
4.979
 42
0.106
 10
3.391
 20
4.974
 42
0.069
 10
3.397
 20
4.97
 42
0.055
 10
3.406
 20
4.968
 42
0.055
 10
3.414
 20
4.968
 42
0.069
 10
3.421
 20
4.968999999999999
 42
0.106
 10
3.427
 20
4.972
 42
0.166
 10
3.429
 20
4.976
 42
0.166
 10
3.428
 20
4.98
 42
0.106
 10
3.424
 20
4.985
 42
0.069
 10
3.418
 20
4.989
 42
0.055
 10
3.409
 20
4.991000000000001
 42
0.055
 10
3.401
 20
4.991000000000001
 42
0.069
 10
3.394
 20
4.99
 42
0.106
 10
3.388
 20
4.987
 42
0.166
  0
LWPOLYLINE
  5
637
330
18
100
AcDbEntity
  8
0
100
AcDbPolyline
 90
       16
 70
     1
 43
0.0
 10
3.597
 20
4.912
 42
0.166
 10
3.598
 20
4.908
 42
0.106
 10
3.602
 20
4.903000000000001
 42
0.069
 10
3.608
 20
4.9
 42
0.055
 10
3.617
 20
4.897
 42
0.055
 10
3.626
 20
4.897
 42
0.069
 10
3.632
 20
4.898
 42
0.106
 10
3.638
 20
4.902
 42
0.166
 10
3.64
 20
4.906000000000001
 42
0.166
 10
3.639
 20
4.91
 42
0.106
 10
3.635
 20
4.915
 42
0.069
 10
3.629
 20
4.918
 42
0.055
 10
3.62
 20
4.92
 42
0.055
 10
3.612
 20
4.921
 42
0.069
 10
3.605
 20
4.919
 42
0.106
 10
3.599
 20
4.916
 42
0.166
  0
LWPOLYLINE
  5
64A
330
18
100
AcDbEntity
  8
0
100
AcDbPolyline
 90
       16
 70
     1
 43
0.0
 10
3.802
 20
4.784
 42
0.166
 10
3.803
 20
4.78
 42
0.106
 10
3.807
 20
4.775
 42
0.069
 10
3.814
 20
4.772
 42
0.055
 10
3.822
 20
4.77
 42
0.055
 10
3.831
 20
4.769
 42
0.069
 10
3.838
 20
4.771
 42
0.106
 10
3.843
 20
4.774
 42
0.166
 10
3.845
 20
4.778000000000001
 42
0.166
 10
3.844
 20
4.782
 42
0.106
 10
3.84
 20
4.787
 42
0.069
 10
3.834
 20
4.79
 42
0.055
 10
3.826
 20
4.793
 42
0.055
 10
3.817
 20
4.793
 42
0.069
 10
3.81
 20
4.792
 42
0.106
 10
3.804
 20
4.788
 42
0.166
  0
LWPOLYLINE
  5
65D
330
18
100
AcDbEntity
  8
0
100
AcDbPolyline
 90
       16
 70
     1
 43
0.0
 10
3.685
 20
5.043
 42
0.166
 10
3.686
 20
5.039
 42
0.106
 10
3.69
 20
5.034
 42
0.069
 10
3.696
 20
5.031000000000001
 42
0.055
 10
3.704
 20
5.029
 42
0.055
 10
3.713
 20
5.028000000000001
 42
0.069
 10
3.72
 20
5.03
 42
0.106
 10
3.726
 20
5.033
 42
0.166
 10
3.728
 20
5.037
 42
0.166
 10
3.727
 20
5.041
 42
0.106
 10
3.723
 20
5.046
 42
0.069
 10
3.716
 20
5.049
 42
0.055
 10
3.708
 20
5.052
 42
0.055
 10
3.699
 20
5.052
 42
0.069
 10
3.692
 20
5.051
 42
0.106
 10
3.687
 20
5.047
 42
0.166
  0
LWPOLYLINE
  5
670
330
18
100
AcDbEntity
  8
0
100
AcDbPolyline
 90
       16
 70
     1
 43
0.0
 10
3.879
 20
4.901
 42
0.166
 10
3.88
 20
4.896
 42
0.106
 10
3.884
 20
4.891
 42
0.069
 10
3.89
 20
4.888
 42
0.055
 10
3.899
 20
4.886
 42
0.055
 10
3.908
 20
4.885
 42
0.069
 10
3.914
 20
4.887
 42
0.106
 10
3.92
 20
4.89
 42
0.166
 10
3.922
 20
4.894
 42
0.166
 10
3.921
 20
4.898
 42
0.106
 10
3.917
 20
4.903000000000001
 42
0.069
 10
3.911
 20
4.906000000000001
 42
0.055
 10
3.902
 20
4.909
 42
0.055
 10
3.894
 20
4.909
 42
0.069
 10
3.887
 20
4.908
 42
0.106
 10
3.881
 20
4.904
 42
0.166
  0
POINT
  5
683
330
18
100
AcDbEntity
  8
0
100
AcDbPoint
 10
4.123
 20
4.332
 30
0.0
  0
POINT
  5
684
330
18
100
AcDbEntity
  8
0
100
AcDbPoint
 10
4.16
 20
4.238
 30
0.0
  0
POINT
  5
685
330
18
100
AcDbEntity
  8
0
100
AcDbPoint
 10
4.247
 20
4.284
 30
0.0
  0
POINT
  5
686
330
18
100
AcDbEntity
  8
0
100
AcDbPoint
 10
4.077
 20
4.411000000000001
 30
0.0
  0
POINT
  5
687
330
18
100
AcDbEntity
  8
0
100
AcDbPoint
 10
4.152
 20
4.366000000000001
 30
0.0
  0
LWPOLYLINE
  5
688
330
18
100
AcDbEntity
  8
0
100
AcDbPolyline
 90
       16
 70
     1
 43
0.0
 10
4.192
 20
4.576000000000001
 42
0.166
 10
4.192
 20
4.572
 42
0.106
 10
4.197
 20
4.567
 42
0.069
 10
4.203
 20
4.563
 42
0.055
 10
4.211
 20
4.561
 42
0.055
 10
4.22
 20
4.561
 42
0.069
 10
4.227
 20
4.562
 42
0.106
 10
4.232
 20
4.566
 42
0.166
 10
4.234
 20
4.569
 42
0.166
 10
4.234
 20
4.573
 42
0.106
 10
4.229
 20
4.578
 42
0.069
 10
4.223
 20
4.582
 42
0.055
 10
4.215
 20
4.584
 42
0.055
 10
4.206
 20
4.585
 42
0.069
 10
4.199
 20
4.583
 42
0.106
 10
4.194
 20
4.58
 42
0.166
  0
LWPOLYLINE
  5
69B
330
18
100
AcDbEntity
  8
0
100
AcDbPolyline
 90
       16
 70
     1
 43
0.0
 10
4.403000000000001
 20
4.501
 42
0.166
 10
4.404
 20
4.497
 42
0.106
 10
4.408
 20
4.492
 42
0.069
 10
4.415
 20
4.489
 42
0.055
 10
4.423
 20
4.487
 42
0.055
 10
4.432
 20
4.486000000000001
 42
0.069
 10
4.439
 20
4.488
 42
0.106
 10
4.444
 20
4.491000000000001
 42
0.166
 10
4.446000000000001
 20
4.495
 42
0.166
 10
4.445
 20
4.499
 42
0.106
 10
4.441
 20
4.504
 42
0.069
 10
4.435
 20
4.507
 42
0.055
 10
4.427
 20
4.51
 42
0.055
 10
4.418
 20
4.51
 42
0.069
 10
4.411000000000001
 20
4.509
 42
0.106
 10
4.405
 20
4.505
 42
0.166
  0
LWPOLYLINE
  5
6AE
330
18
100
AcDbEntity
  8
0
100
AcDbPolyline
 90
       16
 70
     1
 43
0.0
 10
4.281000000000001
 20
4.704
 42
0.166
 10
4.281000000000001
 20
4.7
 42
0.106
 10
4.286000000000001
 20
4.695
 42
0.069
 10
4.292
 20
4.692
 42
0.055
 10
4.3
 20
4.69
 42
0.055
 10
4.309
 20
4.689
 42
0.069
 10
4.316
 20
4.691
 42
0.106
 10
4.321000000000001
 20
4.694
 42
0.166
 10
4.323
 20
4.698
 42
0.166
 10
4.323
 20
4.702
 42
0.106
 10
4.318000000000001
 20
4.707
 42
0.069
 10
4.312
 20
4.71
 42
0.055
 10
4.303999999999999
 20
4.713
 42
0.055
 10
4.295
 20
4.713
 42
0.069
 10
4.288
 20
4.712
 42
0.106
 10
4.283
 20
4.708
 42
0.166
  0
LWPOLYLINE
  5
6C1
330
18
100
AcDbEntity
  8
0
100
AcDbPolyline
 90
       16
 70
     1
 43
0.0
 10
4.101
 20
4.828
 42
0.166
 10
4.101
 20
4.824
 42
0.106
 10
4.106
 20
4.819
 42
0.069
 10
4.112
 20
4.816
 42
0.055
 10
4.12
 20
4.814
 42
0.055
 10
4.129
 20
4.813
 42
0.069
 10
4.136
 20
4.815
 42
0.106
 10
4.142
 20
4.818000000000001
 42
0.166
 10
4.144
 20
4.822
 42
0.166
 10
4.143
 20
4.826000000000001
 42
0.106
 10
4.138
 20
4.831
 42
0.069
 10
4.132
 20
4.834
 42
0.055
 10
4.124
 20
4.837
 42
0.055
 10
4.115
 20
4.837
 42
0.069
 10
4.108000000000001
 20
4.836
 42
0.106
 10
4.103
 20
4.832
 42
0.166
  0
LWPOLYLINE
  5
6D4
330
18
100
AcDbEntity
  8
0
100
AcDbPolyline
 90
       16
 70
     1
 43
0.0
 10
4.013999999999999
 20
4.707
 42
0.166
 10
4.015
 20
4.703
 42
0.106
 10
4.019
 20
4.698
 42
0.069
 10
4.025
 20
4.695
 42
0.055
 10
4.033
 20
4.692
 42
0.055
 10
4.042
 20
4.692
 42
0.069
 10
4.049
 20
4.693000000000001
 42
0.106
 10
4.055
 20
4.697
 42
0.166
 10
4.057
 20
4.701000000000001
 42
0.166
 10
4.056
 20
4.705
 42
0.106
 10
4.052
 20
4.71
 42
0.069
 10
4.045
 20
4.713
 42
0.055
 10
4.037
 20
4.715
 42
0.055
 10
4.028000000000001
 20
4.716
 42
0.069
 10
4.021
 20
4.714
 42
0.106
 10
4.016
 20
4.711
 42
0.166
  0
POINT
  5
6E7
330
18
100
AcDbEntity
  8
0
100
AcDbPoint
 10
4.049
 20
5.022
 30
0.0
  0
LWPOLYLINE
  5
6E8
330
18
100
AcDbEntity
  8
0
100
AcDbPolyline
 90
       16
 70
     1
 43
0.0
 10
4.503
 20
4.638999999999999
 42
0.166
 10
4.503
 20
4.634
 42
0.106
 10
4.508
 20
4.629
 42
0.069
 10
4.513999999999999
 20
4.626
 42
0.055
 10
4.522
 20
4.624
 42
0.055
 10
4.531000000000001
 20
4.623
 42
0.069
 10
4.538
 20
4.625
 42
0.106
 10
4.544
 20
4.628
 42
0.166
 10
4.545
 20
4.632
 42
0.166
 10
4.545
 20
4.636
 42
0.106
 10
4.54
 20
4.641
 42
0.069
 10
4.534
 20
4.644
 42
0.055
 10
4.526
 20
4.647
 42
0.055
 10
4.517
 20
4.647
 42
0.069
 10
4.51
 20
4.646
 42
0.106
 10
4.505
 20
4.642
 42
0.166
  0
POINT
  5
6FB
330
18
100
AcDbEntity
  8
0
100
AcDbPoint
 10
4.356
 20
4.894
 30
0.0
  0
POINT
  5
6FC
330
18
100
AcDbEntity
  8
0
100
AcDbPoint
 10
4.542
 20
4.982
 30
0.0
  0
POINT
  5
6FD
330
18
100
AcDbEntity
  8
0
100
AcDbPoint
 10
4.452
 20
4.908
 30
0.0
  0
POINT
  5
6FE
330
18
100
AcDbEntity
  8
0
100
AcDbPoint
 10
4.464
 20
4.849
 30
0.0
  0
POINT
  5
6FF
330
18
100
AcDbEntity
  8
0
100
AcDbPoint
 10
4.457
 20
4.944
 30
0.0
  0
POINT
  5
700
330
18
100
AcDbEntity
  8
0
100
AcDbPoint
 10
4.456
 20
4.94
 30
0.0
  0
LWPOLYLINE
  5
701
330
18
100
AcDbEntity
  8
0
100
AcDbPolyline
 90
       16
 70
     1
 43
0.0
 10
3.48
 20
5.095
 42
0.166
 10
3.481
 20
5.091
 42
0.106
 10
3.485
 20
5.086
 42
0.069
 10
3.491
 20
5.083
 42
0.055
 10
3.5
 20
5.081
 42
0.055
 10
3.508
 20
5.08
 42
0.069
 10
3.515
 20
5.082
 42
0.106
 10
3.521
 20
5.085
 42
0.166
 10
3.523
 20
5.089
 42
0.166
 10
3.522
 20
5.093
 42
0.106
 10
3.518
 20
5.098
 42
0.069
 10
3.512
 20
5.101
 42
0.055
 10
3.503
 20
5.104
 42
0.055
 10
3.494
 20
5.104
 42
0.069
 10
3.487
 20
5.103
 42
0.106
 10
3.482
 20
5.099
 42
0.166
  0
POINT
  5
714
330
18
100
AcDbEntity
  8
0
100
AcDbPoint
 10
3.775
 20
5.144
 30
0.0
  0
POINT
  5
715
330
18
100
AcDbEntity
  8
0
100
AcDbPoint
 10
3.877
 20
5.178
 30
0.0
  0
POINT
  5
716
330
18
100
AcDbEntity
  8
0
100
AcDbPoint
 10
3.89
 20
5.122000000000001
 30
0.0
  0
POINT
  5
717
330
18
100
AcDbEntity
  8
0
100
AcDbPoint
 10
3.945
 20
5.242000000000001
 30
0.0
  0
POINT
  5
718
330
18
100
AcDbEntity
  8
0
100
AcDbPoint
 10
4.05
 20
5.175
 30
0.0
  0
POINT
  5
719
330
18
100
AcDbEntity
  8
0
100
AcDbPoint
 10
4.241000000000001
 20
5.082
 30
0.0
  0
POINT
  5
71A
330
18
100
AcDbEntity
  8
0
100
AcDbPoint
 10
4.185
 20
5.066
 30
0.0
  0
POINT
  5
71B
330
18
100
AcDbEntity
  8
0
100
AcDbPoint
 10
4.108000000000001
 20
5.362
 30
0.0
  0
POINT
  5
71C
330
18
100
AcDbEntity
  8
0
100
AcDbPoint
 10
4.105
 20
5.462000000000001
 30
0.0
  0
POINT
  5
71D
330
18
100
AcDbEntity
  8
0
100
AcDbPoint
 10
4.102
 20
5.412999999999999
 30
0.0
  0
POINT
  5
71E
330
18
100
AcDbEntity
  8
0
100
AcDbPoint
 10
4.206
 20
5.384
 30
0.0
  0
POINT
  5
71F
330
18
100
AcDbEntity
  8
0
100
AcDbPoint
 10
4.36
 20
5.089
 30
0.0
  0
POINT
  5
720
330
18
100
AcDbEntity
  8
0
100
AcDbPoint
 10
4.324
 20
5.507999999999999
 30
0.0
  0
POINT
  5
721
330
18
100
AcDbEntity
  8
0
100
AcDbPoint
 10
4.209
 20
5.564
 30
0.0
  0
POINT
  5
722
330
18
100
AcDbEntity
  8
0
100
AcDbPoint
 10
4.433
 20
5.888
 30
0.0
  0
POINT
  5
723
330
18
100
AcDbEntity
  8
0
100
AcDbPoint
 10
4.444
 20
5.92
 30
0.0
  0
LWPOLYLINE
  5
724
330
18
100
AcDbEntity
  8
0
100
AcDbPolyline
 90
        6
 70
     1
 43
0.0
 10
4.875
 20
4.116000000000001
 10
4.888999999999999
 20
4.132
 10
4.91
 20
4.127
 10
4.917
 20
4.107
 10
4.903000000000001
 20
4.092
 10
4.882
 20
4.096
  0
LINE
  5
72D
330
18
100
AcDbEntity
  8
0
100
AcDbLine
 10
4.851
 20
4.086
 30
0.0
 11
4.869
 21
4.175
 31
0.0
  0
LINE
  5
72E
330
18
100
AcDbEntity
  8
0
100
AcDbLine
 10
4.93
 20
4.046
 30
0.0
 11
4.948
 21
4.136
 31
0.0
  0
LINE
  5
72F
330
18
100
AcDbEntity
  8
0
100
AcDbLine
 10
4.941
 20
4.052
 30
0.0
 11
4.957
 21
4.131
 31
0.0
  0
LWPOLYLINE
  5
730
330
18
100
AcDbEntity
  8
0
100
AcDbPolyline
 90
        4
 70
     0
 43
0.0
 10
4.899
 20
4.134
 10
4.919
 20
4.13
 10
4.926
 20
4.11
 10
4.912
 20
4.093999999999999
  0
LINE
  5
737
330
18
100
AcDbEntity
  8
0
100
AcDbLine
 10
7.047999999999999
 20
3.129
 30
0.0
 11
5.659
 21
3.824
 31
0.0
  0
LINE
  5
738
330
18
100
AcDbEntity
  8
0
100
AcDbLine
 10
6.525
 20
3.227
 30
0.0
 11
5.533
 21
2.304
 31
0.0
  0
LINE
  5
739
330
18
100
AcDbEntity
  8
0
100
AcDbLine
 10
6.556
 20
3.211
 30
0.0
 11
5.536000000000001
 21
2.263
 31
0.0
  0
LINE
  5
73A
330
18
100
AcDbEntity
  8
0
100
AcDbLine
 10
5.506
 20
2.381
 30
0.0
 11
6.449
 21
3.265
 31
0.0
  0
LINE
  5
73B
330
18
100
AcDbEntity
  8
0
100
AcDbLine
 10
5.052
 20
3.964
 30
0.0
 11
5.422000000000001
 21
2.403
 31
0.0
  0
LINE
  5
73C
330
18
100
AcDbEntity
  8
0
100
AcDbLine
 10
4.949
 20
4.015
 30
0.0
 11
5.335
 21
2.407
 31
0.0
  0
ARC
  5
73D
330
18
100
AcDbEntity
  8
0
100
AcDbCircle
 10
5.547000000000001
 20
2.289
 30
0.0
 40
0.021
100
AcDbArc
 50
132.918
 51
211.626
  0
ARC
  5
73E
330
18
100
AcDbEntity
  8
0
100
AcDbCircle
 10
5.183
 20
2.412
 30
0.0
 40
0.152
100
AcDbArc
 50
323.131
 51
358.028
  0
ARC
  5
73F
330
18
100
AcDbEntity
  8
0
100
AcDbCircle
 10
5.292999999999999
 20
2.208
 30
0.0
 40
0.228
100
AcDbArc
 50
38.658
 51
53.146
  0
ARC
  5
740
330
18
100
AcDbEntity
  8
0
100
AcDbCircle
 10
5.442
 20
2.407
 30
0.0
 40
0.021
100
AcDbArc
 50
193.318
 51
233.146
  0
ARC
  5
741
330
18
100
AcDbEntity
  8
0
100
AcDbCircle
 10
5.462000000000001
 20
2.443
 30
0.0
 40
0.076
100
AcDbArc
 50
266.267
 51
305.482
  0
ARC
  5
742
330
18
100
AcDbEntity
  8
0
100
AcDbCircle
 10
5.455
 20
2.338
 30
0.0
 40
0.021
100
AcDbArc
 50
0.7359999999999999
 51
38.658
  0
LWPOLYLINE
  5
743
330
18
100
AcDbEntity
  8
0
100
AcDbPolyline
 90
       16
 70
     1
 43
0.0
 10
5.212000000000001
 20
4.103
 42
0.166
 10
5.212999999999999
 20
4.099
 42
0.106
 10
5.217000000000001
 20
4.093999999999999
 42
0.069
 10
5.223
 20
4.091
 42
0.055
 10
5.231
 20
4.089
 42
0.055
 10
5.24
 20
4.088
 42
0.069
 10
5.247000000000001
 20
4.09
 42
0.106
 10
5.252999999999999
 20
4.093
 42
0.166
 10
5.255
 20
4.097
 42
0.166
 10
5.254
 20
4.101
 42
0.106
 10
5.25
 20
4.106
 42
0.069
 10
5.242999999999999
 20
4.109
 42
0.055
 10
5.235
 20
4.112
 42
0.055
 10
5.226
 20
4.112
 42
0.069
 10
5.218999999999999
 20
4.111000000000001
 42
0.106
 10
5.214
 20
4.107
 42
0.166
  0
LINE
  5
756
330
18
100
AcDbEntity
  8
0
100
AcDbLine
 10
4.851
 20
4.086
 30
0.0
 11
4.93
 21
4.046
 31
0.0
  0
LINE
  5
757
330
18
100
AcDbEntity
  8
0
100
AcDbLine
 10
4.903000000000001
 20
4.092
 30
0.0
 11
4.912
 21
4.093999999999999
 31
0.0
  0
LINE
  5
758
330
18
100
AcDbEntity
  8
0
100
AcDbLine
 10
4.93
 20
4.046
 30
0.0
 11
4.941
 21
4.052
 31
0.0
  0
LINE
  5
759
330
18
100
AcDbEntity
  8
0
100
AcDbLine
 10
4.917
 20
4.107
 30
0.0
 11
4.926
 21
4.11
 31
0.0
  0
LWPOLYLINE
  5
75A
330
18
100
AcDbEntity
  8
0
100
AcDbPolyline
 90
       16
 70
     1
 43
0.0
 10
5.384
 20
3.988
 42
0.166
 10
5.384
 20
3.983
 42
0.106
 10
5.388999999999999
 20
3.979
 42
0.069
 10
5.395
 20
3.975
 42
0.055
 10
5.403
 20
3.973
 42
0.055
 10
5.412000000000001
 20
3.972
 42
0.069
 10
5.419
 20
3.974
 42
0.106
 10
5.425
 20
3.977
 42
0.166
 10
5.427000000000001
 20
3.981
 42
0.166
 10
5.426
 20
3.985
 42
0.106
 10
5.422000000000001
 20
3.99
 42
0.069
 10
5.415
 20
3.994
 42
0.055
 10
5.407
 20
3.996
 42
0.055
 10
5.398
 20
3.996
 42
0.069
 10
5.391
 20
3.995
 42
0.106
 10
5.386
 20
3.991
 42
0.166
  0
LWPOLYLINE
  5
76D
330
18
100
AcDbEntity
  8
0
100
AcDbPolyline
 90
       16
 70
     1
 43
0.0
 10
5.471
 20
4.114
 42
0.166
 10
5.472
 20
4.11
 42
0.106
 10
5.476
 20
4.105
 42
0.069
 10
5.482
 20
4.102
 42
0.055
 10
5.49
 20
4.1
 42
0.055
 10
5.499
 20
4.099
 42
0.069
 10
5.506
 20
4.101
 42
0.106
 10
5.512000000000001
 20
4.104
 42
0.166
 10
5.513999999999999
 20
4.108000000000001
 42
0.166
 10
5.513
 20
4.112
 42
0.106
 10
5.509
 20
4.117
 42
0.069
 10
5.502000000000001
 20
4.12
 42
0.055
 10
5.494
 20
4.123
 42
0.055
 10
5.485
 20
4.123
 42
0.069
 10
5.478
 20
4.122
 42
0.106
 10
5.473
 20
4.118
 42
0.166
  0
LINE
  5
780
330
18
100
AcDbEntity
  8
0
100
AcDbLine
 10
5.644
 20
3.815
 30
0.0
 11
5.787999999999999
 21
4.055
 31
0.0
  0
LINE
  5
781
330
18
100
AcDbEntity
  8
0
100
AcDbLine
 10
5.638999999999999
 20
3.79
 30
0.0
 11
5.783
 21
4.03
 31
0.0
  0
LINE
  5
782
330
18
100
AcDbEntity
  8
0
100
AcDbLine
 10
5.638999999999999
 20
3.79
 30
0.0
 11
5.644
 21
3.815
 31
0.0
  0
LWPOLYLINE
  5
783
330
18
100
AcDbEntity
  8
0
100
AcDbPolyline
 90
       16
 70
     1
 43
0.0
 10
5.608
 20
3.91
 42
0.166
 10
5.609
 20
3.906
 42
0.106
 10
5.613
 20
3.901
 42
0.069
 10
5.619
 20
3.898
 42
0.055
 10
5.627999999999999
 20
3.895
 42
0.055
 10
5.636
 20
3.895
 42
0.069
 10
5.643
 20
3.896
 42
0.106
 10
5.649
 20
3.9
 42
0.166
 10
5.651
 20
3.903
 42
0.166
 10
5.65
 20
3.908
 42
0.106
 10
5.646
 20
3.913
 42
0.069
 10
5.64
 20
3.916
 42
0.055
 10
5.631
 20
3.918
 42
0.055
 10
5.622999999999999
 20
3.919
 42
0.069
 10
5.616000000000001
 20
3.917
 42
0.106
 10
5.61
 20
3.914
 42
0.166
  0
LINE
  5
796
330
18
100
AcDbEntity
  8
0
100
AcDbLine
 10
5.783
 20
4.03
 30
0.0
 11
5.787999999999999
 21
4.055
 31
0.0
  0
LWPOLYLINE
  5
797
330
18
100
AcDbEntity
  8
0
100
AcDbPolyline
 90
       16
 70
     1
 43
0.0
 10
5.684
 20
4.053
 42
0.166
 10
5.685
 20
4.049
 42
0.106
 10
5.689
 20
4.044
 42
0.069
 10
5.695
 20
4.041
 42
0.055
 10
5.704
 20
4.038
 42
0.055
 10
5.712000000000001
 20
4.038
 42
0.069
 10
5.718999999999999
 20
4.039
 42
0.106
 10
5.725
 20
4.043
 42
0.166
 10
5.727
 20
4.047
 42
0.166
 10
5.726
 20
4.051
 42
0.106
 10
5.722
 20
4.056
 42
0.069
 10
5.716
 20
4.059
 42
0.055
 10
5.707000000000001
 20
4.061
 42
0.055
 10
5.698
 20
4.062
 42
0.069
 10
5.692
 20
4.06
 42
0.106
 10
5.686
 20
4.057
 42
0.166
  0
LINE
  5
7AA
330
18
100
AcDbEntity
  8
0
100
AcDbLine
 10
6.84
 20
2.35
 30
0.0
 11
6.684
 21
3.147
 31
0.0
  0
LINE
  5
7AB
330
18
100
AcDbEntity
  8
0
100
AcDbLine
 10
6.927000000000001
 20
2.383
 30
0.0
 11
6.787999999999999
 21
3.095
 31
0.0
  0
ARC
  5
7AC
330
18
100
AcDbEntity
  8
0
100
AcDbCircle
 10
6.876
 20
2.368
 30
0.0
 40
0.053
100
AcDbArc
 50
292.771
 51
17.209
  0
ARC
  5
7AD
330
18
100
AcDbEntity
  8
0
100
AcDbCircle
 10
6.881
 20
2.358
 30
0.0
 40
0.042
100
AcDbArc
 50
191.012
 51
292.771
  0
LINE
  5
7AE
330
18
100
AcDbEntity
  8
0
100
AcDbLine
 10
7.018
 20
2.98
 30
0.0
 11
7.047999999999999
 21
3.129
 31
0.0
  0
LWPOLYLINE
  5
7AF
330
18
100
AcDbEntity
  8
0
100
AcDbPolyline
 90
        3
 70
     0
 43
0.0
 10
7.03
 20
3.037
 10
7.037999999999999
 20
3.031
 10
7.046
 20
3.024
  0
LWPOLYLINE
  5
7B5
330
18
100
AcDbEntity
  8
0
100
AcDbPolyline
 90
        3
 70
     0
 43
0.0
 10
7.037999999999999
 20
3.076
 10
7.04
 20
3.072
 10
7.061
 20
3.047
  0
LINE
  5
7BB
330
18
100
AcDbEntity
  8
0
100
AcDbLine
 10
6.559
 20
3.333
 30
0.0
 11
6.638
 21
3.293
 31
0.0
  0
LINE
  5
7BC
330
18
100
AcDbEntity
  8
0
100
AcDbLine
 10
6.57
 20
3.338
 30
0.0
 11
6.649
 21
3.299
 31
0.0
  0
LINE
  5
7BD
330
18
100
AcDbEntity
  8
0
100
AcDbLine
 10
6.606
 20
3.262
 30
0.0
 11
6.616000000000001
 21
3.264
 31
0.0
  0
LWPOLYLINE
  5
7BE
330
18
100
AcDbEntity
  8
0
100
AcDbPolyline
 90
        4
 70
     0
 43
0.0
 10
6.587999999999999
 20
3.289
 10
6.609
 20
3.284
 10
6.616000000000001
 20
3.264
 10
6.602
 20
3.249
  0
LINE
  5
7C5
330
18
100
AcDbEntity
  8
0
100
AcDbLine
 10
6.541
 20
3.241
 30
0.0
 11
6.62
 21
3.201
 31
0.0
  0
LWPOLYLINE
  5
7C6
330
18
100
AcDbEntity
  8
0
100
AcDbPolyline
 90
        6
 70
     1
 43
0.0
 10
6.565
 20
3.271
 10
6.579
 20
3.287
 10
6.599
 20
3.282
 10
6.606
 20
3.262
 10
6.592000000000001
 20
3.247
 10
6.571000000000001
 20
3.251
  0
LINE
  5
7CF
330
18
100
AcDbEntity
  8
0
100
AcDbLine
 10
6.599
 20
3.282
 30
0.0
 11
6.609
 21
3.284
 31
0.0
  0
LINE
  5
7D0
330
18
100
AcDbEntity
  8
0
100
AcDbLine
 10
6.579
 20
3.287
 30
0.0
 11
6.587999999999999
 21
3.289
 31
0.0
  0
LINE
  5
7D1
330
18
100
AcDbEntity
  8
0
100
AcDbLine
 10
6.592000000000001
 20
3.247
 30
0.0
 11
6.602
 21
3.249
 31
0.0
  0
LINE
  5
7D2
330
18
100
AcDbEntity
  8
0
100
AcDbLine
 10
6.559
 20
3.333
 30
0.0
 11
6.57
 21
3.338
 31
0.0
  0
LINE
  5
7D3
330
18
100
AcDbEntity
  8
0
100
AcDbLine
 10
6.541
 20
3.241
 30
0.0
 11
6.559
 21
3.333
 31
0.0
  0
LINE
  5
7D4
330
18
100
AcDbEntity
  8
0
100
AcDbLine
 10
6.638
 20
3.293
 30
0.0
 11
6.649
 21
3.299
 31
0.0
  0
LINE
  5
7D5
330
18
100
AcDbEntity
  8
0
100
AcDbLine
 10
6.62
 20
3.201
 30
0.0
 11
6.638
 21
3.293
 31
0.0
  0
LINE
  5
7D6
330
18
100
AcDbEntity
  8
0
100
AcDbLine
 10
6.63
 20
3.207
 30
0.0
 11
6.649
 21
3.299
 31
0.0
  0
LINE
  5
7D7
330
18
100
AcDbEntity
  8
0
100
AcDbLine
 10
6.62
 20
3.201
 30
0.0
 11
6.63
 21
3.207
 31
0.0
  0
LWPOLYLINE
  5
7D8
330
18
100
AcDbEntity
  8
0
100
AcDbPolyline
 90
       16
 70
     1
 43
0.0
 10
4.9
 20
4.443000000000001
 42
0.166
 10
4.9
 20
4.439
 42
0.106
 10
4.905
 20
4.434
 42
0.069
 10
4.911000000000001
 20
4.43
 42
0.055
 10
4.919
 20
4.428
 42
0.055
 10
4.928
 20
4.428
 42
0.069
 10
4.935
 20
4.428999999999999
 42
0.106
 10
4.941
 20
4.433
 42
0.166
 10
4.942
 20
4.436
 42
0.166
 10
4.942
 20
4.441
 42
0.106
 10
4.937
 20
4.445
 42
0.069
 10
4.931
 20
4.449
 42
0.055
 10
4.923
 20
4.451000000000001
 42
0.055
 10
4.914
 20
4.452
 42
0.069
 10
4.907
 20
4.45
 42
0.106
 10
4.902
 20
4.447
 42
0.166
  0
LWPOLYLINE
  5
7EB
330
18
100
AcDbEntity
  8
0
100
AcDbPolyline
 90
       16
 70
     1
 43
0.0
 10
4.821000000000001
 20
4.297
 42
0.166
 10
4.822
 20
4.293
 42
0.106
 10
4.826000000000001
 20
4.288
 42
0.069
 10
4.832
 20
4.284
 42
0.055
 10
4.841
 20
4.282
 42
0.055
 10
4.849
 20
4.281000000000001
 42
0.069
 10
4.856
 20
4.283
 42
0.106
 10
4.862
 20
4.286000000000001
 42
0.166
 10
4.864
 20
4.29
 42
0.166
 10
4.863
 20
4.294
 42
0.106
 10
4.859
 20
4.299
 42
0.069
 10
4.853
 20
4.303
 42
0.055
 10
4.843999999999999
 20
4.305
 42
0.055
 10
4.836
 20
4.305
 42
0.069
 10
4.829
 20
4.303999999999999
 42
0.106
 10
4.823
 20
4.3
 42
0.166
  0
LINE
  5
7FE
330
18
100
AcDbEntity
  8
0
100
AcDbLine
 10
4.888999999999999
 20
4.132
 30
0.0
 11
4.899
 21
4.134
 31
0.0
  0
LWPOLYLINE
  5
7FF
330
18
100
AcDbEntity
  8
0
100
AcDbPolyline
 90
       16
 70
     1
 43
0.0
 10
4.665
 20
4.509
 42
0.166
 10
4.666
 20
4.505
 42
0.106
 10
4.67
 20
4.5
 42
0.069
 10
4.676
 20
4.496
 42
0.055
 10
4.685
 20
4.494
 42
0.055
 10
4.694
 20
4.494
 42
0.069
 10
4.701000000000001
 20
4.495
 42
0.106
 10
4.706
 20
4.498
 42
0.166
 10
4.708
 20
4.502
 42
0.166
 10
4.707
 20
4.506
 42
0.106
 10
4.703
 20
4.511
 42
0.069
 10
4.697
 20
4.515
 42
0.055
 10
4.689
 20
4.517
 42
0.055
 10
4.68
 20
4.517
 42
0.069
 10
4.673
 20
4.516
 42
0.106
 10
4.667
 20
4.513
 42
0.166
  0
LWPOLYLINE
  5
812
330
18
100
AcDbEntity
  8
0
100
AcDbPolyline
 90
       16
 70
     1
 43
0.0
 10
4.99
 20
4.181
 42
0.166
 10
4.991000000000001
 20
4.176
 42
0.106
 10
4.995
 20
4.171
 42
0.069
 10
5.001
 20
4.168
 42
0.055
 10
5.01
 20
4.166
 42
0.055
 10
5.018
 20
4.165
 42
0.069
 10
5.025
 20
4.167
 42
0.106
 10
5.031000000000001
 20
4.17
 42
0.166
 10
5.033
 20
4.174
 42
0.166
 10
5.032
 20
4.178
 42
0.106
 10
5.028000000000001
 20
4.183
 42
0.069
 10
5.022
 20
4.186
 42
0.055
 10
5.013
 20
4.189
 42
0.055
 10
5.004
 20
4.189
 42
0.069
 10
4.998
 20
4.188
 42
0.106
 10
4.992
 20
4.184
 42
0.166
  0
LINE
  5
825
330
18
100
AcDbEntity
  8
0
100
AcDbLine
 10
4.91
 20
4.127
 30
0.0
 11
4.919
 21
4.13
 31
0.0
  0
LWPOLYLINE
  5
826
330
18
100
AcDbEntity
  8
0
100
AcDbPolyline
 90
       16
 70
     1
 43
0.0
 10
5.069
 20
4.317
 42
0.166
 10
5.07
 20
4.313
 42
0.106
 10
5.074
 20
4.308
 42
0.069
 10
5.08
 20
4.305
 42
0.055
 10
5.089
 20
4.302
 42
0.055
 10
5.098
 20
4.302
 42
0.069
 10
5.104
 20
4.303
 42
0.106
 10
5.11
 20
4.307
 42
0.166
 10
5.112
 20
4.311
 42
0.166
 10
5.111000000000001
 20
4.315
 42
0.106
 10
5.107
 20
4.32
 42
0.069
 10
5.101
 20
4.323
 42
0.055
 10
5.092
 20
4.325
 42
0.055
 10
5.084
 20
4.326000000000001
 42
0.069
 10
5.077
 20
4.324
 42
0.106
 10
5.071000000000001
 20
4.321000000000001
 42
0.166
  0
LWPOLYLINE
  5
839
330
18
100
AcDbEntity
  8
0
100
AcDbPolyline
 90
       16
 70
     1
 43
0.0
 10
5.296
 20
4.238
 42
0.166
 10
5.296
 20
4.234
 42
0.106
 10
5.301
 20
4.229
 42
0.069
 10
5.307
 20
4.226
 42
0.055
 10
5.315
 20
4.224
 42
0.055
 10
5.324
 20
4.223
 42
0.069
 10
5.331
 20
4.225
 42
0.106
 10
5.337000000000001
 20
4.228
 42
0.166
 10
5.339
 20
4.232
 42
0.166
 10
5.337999999999999
 20
4.236000000000001
 42
0.106
 10
5.334
 20
4.241000000000001
 42
0.069
 10
5.327000000000001
 20
4.244
 42
0.055
 10
5.319
 20
4.247
 42
0.055
 10
5.31
 20
4.247
 42
0.069
 10
5.303
 20
4.246
 42
0.106
 10
5.297999999999999
 20
4.242
 42
0.166
  0
LINE
  5
84C
330
18
100
AcDbEntity
  8
0
100
AcDbLine
 10
-0.397
 20
7.085
 30
0.0
 11
0.8859999999999999
 21
6.449
 31
0.0
  0
LINE
  5
84D
330
18
100
AcDbEntity
  8
0
100
AcDbLine
 10
0.71
 20
6.302000000000001
 30
0.0
 11
-0.5820000000000001
 21
6.948
 31
0.0
  0
LINE
  5
84E
330
18
100
AcDbEntity
  8
0
100
AcDbLine
 10
0.7959999999999999
 20
6.374
 30
0.0
 11
-0.487
 21
7.013
 31
0.0
  0
LINE
  5
84F
330
18
100
AcDbEntity
  8
0
100
AcDbLine
 10
-0.703
 20
6.292999999999999
 30
0.0
 11
-0.293
 21
6.644
 31
0.0
  0
LINE
  5
850
330
18
100
AcDbEntity
  8
0
100
AcDbLine
 10
-0.219
 20
6.602
 30
0.0
 11
-0.6509999999999999
 21
6.235
 31
0.0
  0
LINE
  5
851
330
18
100
AcDbEntity
  8
0
100
AcDbLine
 10
-0.189
 20
6.586
 30
0.0
 11
-0.6659999999999999
 21
6.181
 31
0.0
  0
LINE
  5
852
330
18
100
AcDbEntity
  8
0
100
AcDbLine
 10
-0.5820000000000001
 20
6.948
 30
0.0
 11
-0.624
 21
6.803
 31
0.0
  0
ARC
  5
853
330
18
100
AcDbEntity
  8
0
100
AcDbCircle
 10
-0.722
 20
6.225
 30
0.0
 40
0.071
100
AcDbArc
 50
321.125
 51
74.42
  0
LINE
  5
854
330
18
100
AcDbEntity
  8
0
100
AcDbLine
 10
-0.496
 20
7.012000000000001
 30
0.0
 11
-0.5820000000000001
 21
6.948
 31
0.0
  0
LINE
  5
855
330
18
100
AcDbEntity
  8
0
100
AcDbLine
 10
-0.397
 20
7.085
 30
0.0
 11
-0.481
 21
7.023
 31
0.0
  0
ARC
  5
856
330
18
100
AcDbEntity
  8
0
100
AcDbCircle
 10
-0.476
 20
7.017
 30
0.0
 40
0.008
100
AcDbArc
 50
126.685
 51
243.528
  0
ARC
  5
857
330
18
100
AcDbEntity
  8
0
100
AcDbCircle
 10
-0.491
 20
7.005
 30
0.0
 40
0.008
100
AcDbArc
 50
63.528
 51
126.685
  0
LINE
  5
858
330
18
100
AcDbEntity
  8
0
100
AcDbLine
 10
0.696
 20
6.29
 30
0.0
 11
0.914
 21
6.473
 31
0.0
  0
LWPOLYLINE
  5
859
330
18
100
AcDbEntity
  8
0
100
AcDbPolyline
 90
       16
 70
     1
 43
0.0
 10
0.879
 20
6.397
 42
0.166
 10
0.879
 20
6.393
 42
0.106
 10
0.884
 20
6.388
 42
0.069
 10
0.89
 20
6.384
 42
0.055
 10
0.898
 20
6.382000000000001
 42
0.055
 10
0.907
 20
6.382000000000001
 42
0.069
 10
0.914
 20
6.382999999999999
 42
0.106
 10
0.919
 20
6.386
 42
0.166
 10
0.9209999999999999
 20
6.39
 42
0.166
 10
0.9209999999999999
 20
6.394
 42
0.106
 10
0.9159999999999999
 20
6.399
 42
0.069
 10
0.91
 20
6.403
 42
0.055
 10
0.902
 20
6.405
 42
0.055
 10
0.893
 20
6.405
 42
0.069
 10
0.8859999999999999
 20
6.404
 42
0.106
 10
0.8809999999999999
 20
6.401
 42
0.166
  0
LINE
  5
86C
330
18
100
AcDbEntity
  8
0
100
AcDbLine
 10
-0.259
 20
6.642
 30
0.0
 11
-0.24
 21
6.734
 31
0.0
  0
LINE
  5
86D
330
18
100
AcDbEntity
  8
0
100
AcDbLine
 10
-0.23
 20
6.74
 30
0.0
 11
-0.151
 21
6.7
 31
0.0
  0
LINE
  5
86E
330
18
100
AcDbEntity
  8
0
100
AcDbLine
 10
-0.24
 20
6.734
 30
0.0
 11
-0.162
 21
6.695
 31
0.0
  0
LWPOLYLINE
  5
86F
330
18
100
AcDbEntity
  8
0
100
AcDbPolyline
 90
        6
 70
     1
 43
0.0
 10
-0.235
 20
6.672000000000001
 10
-0.221
 20
6.688
 10
-0.2
 20
6.684
 10
-0.194
 20
6.664
 10
-0.208
 20
6.648
 10
-0.228
 20
6.652
  0
LWPOLYLINE
  5
878
330
18
100
AcDbEntity
  8
0
100
AcDbPolyline
 90
        4
 70
     0
 43
0.0
 10
-0.211
 20
6.69
 10
-0.191
 20
6.686
 10
-0.184
 20
6.666
 10
-0.198
 20
6.65
  0
LINE
  5
87F
330
18
100
AcDbEntity
  8
0
100
AcDbLine
 10
-0.259
 20
6.642
 30
0.0
 11
-0.18
 21
6.603
 31
0.0
  0
LINE
  5
880
330
18
100
AcDbEntity
  8
0
100
AcDbLine
 10
-0.208
 20
6.648
 30
0.0
 11
-0.198
 21
6.65
 31
0.0
  0
LINE
  5
881
330
18
100
AcDbEntity
  8
0
100
AcDbLine
 10
-0.2
 20
6.684
 30
0.0
 11
-0.191
 21
6.686
 31
0.0
  0
LINE
  5
882
330
18
100
AcDbEntity
  8
0
100
AcDbLine
 10
-0.221
 20
6.688
 30
0.0
 11
-0.211
 21
6.69
 31
0.0
  0
LINE
  5
883
330
18
100
AcDbEntity
  8
0
100
AcDbLine
 10
-0.18
 20
6.603
 30
0.0
 11
-0.162
 21
6.695
 31
0.0
  0
LINE
  5
884
330
18
100
AcDbEntity
  8
0
100
AcDbLine
 10
-0.169
 20
6.608
 30
0.0
 11
-0.151
 21
6.7
 31
0.0
  0
LINE
  5
885
330
18
100
AcDbEntity
  8
0
100
AcDbLine
 10
-0.18
 20
6.603
 30
0.0
 11
-0.169
 21
6.608
 31
0.0
  0
LINE
  5
886
330
18
100
AcDbEntity
  8
0
100
AcDbLine
 10
-0.194
 20
6.664
 30
0.0
 11
-0.184
 21
6.666
 31
0.0
  0
LINE
  5
887
330
18
100
AcDbEntity
  8
0
100
AcDbLine
 10
-0.162
 20
6.695
 30
0.0
 11
-0.151
 21
6.7
 31
0.0
  0
LINE
  5
888
330
18
100
AcDbEntity
  8
0
100
AcDbLine
 10
-0.24
 20
6.734
 30
0.0
 11
-0.23
 21
6.74
 31
0.0
  0
LINE
  5
889
330
18
100
AcDbEntity
  8
0
100
AcDbLine
 10
0.696
 20
6.29
 30
0.0
 11
0.6890000000000001
 21
6.266
 31
0.0
  0
LWPOLYLINE
  5
88A
330
18
100
AcDbEntity
  8
0
100
AcDbPolyline
 90
       16
 70
     1
 43
0.0
 10
0.767
 20
6.297000000000001
 42
0.166
 10
0.768
 20
6.292999999999999
 42
0.106
 10
0.772
 20
6.287999999999999
 42
0.069
 10
0.778
 20
6.285
 42
0.055
 10
0.787
 20
6.282
 42
0.055
 10
0.795
 20
6.282
 42
0.069
 10
0.8020000000000001
 20
6.283
 42
0.106
 10
0.8079999999999999
 20
6.287000000000001
 42
0.166
 10
0.8100000000000001
 20
6.291
 42
0.166
 10
0.8090000000000001
 20
6.295
 42
0.106
 10
0.8050000000000001
 20
6.3
 42
0.069
 10
0.799
 20
6.303
 42
0.055
 10
0.79
 20
6.305
 42
0.055
 10
0.782
 20
6.306
 42
0.069
 10
0.775
 20
6.303999999999999
 42
0.106
 10
0.769
 20
6.301
 42
0.166
  0
LWPOLYLINE
  5
89D
330
18
100
AcDbEntity
  8
0
100
AcDbPolyline
 90
       16
 70
     1
 43
0.0
 10
1.157
 20
6.103
 42
0.166
 10
1.158
 20
6.098
 42
0.106
 10
1.162
 20
6.093
 42
0.069
 10
1.168
 20
6.09
 42
0.055
 10
1.177
 20
6.087999999999999
 42
0.055
 10
1.185
 20
6.087000000000001
 42
0.069
 10
1.192
 20
6.089
 42
0.106
 10
1.198
 20
6.092000000000001
 42
0.166
 10
1.2
 20
6.096
 42
0.166
 10
1.199
 20
6.1
 42
0.106
 10
1.195
 20
6.105
 42
0.069
 10
1.189
 20
6.108
 42
0.055
 10
1.18
 20
6.111000000000001
 42
0.055
 10
1.171
 20
6.111000000000001
 42
0.069
 10
1.165
 20
6.11
 42
0.106
 10
1.159
 20
6.106
 42
0.166
  0
LWPOLYLINE
  5
8B0
330
18
100
AcDbEntity
  8
0
100
AcDbPolyline
 90
       16
 70
     1
 43
0.0
 10
0.9790000000000001
 20
6.225
 42
0.166
 10
0.98
 20
6.22
 42
0.106
 10
0.9840000000000001
 20
6.215
 42
0.069
 10
0.99
 20
6.212000000000001
 42
0.055
 10
0.9990000000000001
 20
6.21
 42
0.055
 10
1.007
 20
6.209
 42
0.069
 10
1.014
 20
6.211
 42
0.106
 10
1.02
 20
6.214
 42
0.166
 10
1.022
 20
6.218
 42
0.166
 10
1.021
 20
6.222
 42
0.106
 10
1.017
 20
6.227
 42
0.069
 10
1.011
 20
6.23
 42
0.055
 10
1.002
 20
6.233
 42
0.055
 10
0.993
 20
6.233
 42
0.069
 10
0.986
 20
6.232
 42
0.106
 10
0.981
 20
6.228
 42
0.166
  0
LWPOLYLINE
  5
8C3
330
18
100
AcDbEntity
  8
0
100
AcDbPolyline
 90
       16
 70
     1
 43
0.0
 10
1.09
 20
6.324
 42
0.166
 10
1.091
 20
6.32
 42
0.106
 10
1.095
 20
6.315
 42
0.069
 10
1.102
 20
6.312
 42
0.055
 10
1.11
 20
6.309
 42
0.055
 10
1.119
 20
6.309
 42
0.069
 10
1.126
 20
6.31
 42
0.106
 10
1.131
 20
6.314
 42
0.166
 10
1.133
 20
6.317
 42
0.166
 10
1.132
 20
6.322
 42
0.106
 10
1.128
 20
6.327000000000001
 42
0.069
 10
1.122
 20
6.33
 42
0.055
 10
1.114
 20
6.332000000000001
 42
0.055
 10
1.105
 20
6.332999999999999
 42
0.069
 10
1.098
 20
6.331
 42
0.106
 10
1.092
 20
6.327999999999999
 42
0.166
  0
LWPOLYLINE
  5
8D6
330
18
100
AcDbEntity
  8
0
100
AcDbPolyline
 90
       16
 70
     1
 43
0.0
 10
1.268
 20
6.202000000000001
 42
0.166
 10
1.269
 20
6.198
 42
0.106
 10
1.273
 20
6.193
 42
0.069
 10
1.28
 20
6.19
 42
0.055
 10
1.288
 20
6.187
 42
0.055
 10
1.297
 20
6.187
 42
0.069
 10
1.304
 20
6.188
 42
0.106
 10
1.309
 20
6.192
 42
0.166
 10
1.311
 20
6.196000000000001
 42
0.166
 10
1.311
 20
6.2
 42
0.106
 10
1.306
 20
6.205
 42
0.069
 10
1.3
 20
6.207999999999999
 42
0.055
 10
1.292
 20
6.21
 42
0.055
 10
1.283
 20
6.211
 42
0.069
 10
1.276
 20
6.209
 42
0.106
 10
1.27
 20
6.206
 42
0.166
  0
LWPOLYLINE
  5
8E9
330
18
100
AcDbEntity
  8
0
100
AcDbPolyline
 90
       16
 70
     1
 43
0.0
 10
1.506
 20
6.114
 42
0.166
 10
1.507
 20
6.11
 42
0.106
 10
1.511
 20
6.105
 42
0.069
 10
1.517
 20
6.101
 42
0.055
 10
1.526
 20
6.099
 42
0.055
 10
1.534
 20
6.099
 42
0.069
 10
1.541
 20
6.1
 42
0.106
 10
1.547
 20
6.103
 42
0.166
 10
1.549
 20
6.107
 42
0.166
 10
1.548
 20
6.111000000000001
 42
0.106
 10
1.544
 20
6.116000000000001
 42
0.069
 10
1.538
 20
6.12
 42
0.055
 10
1.529
 20
6.122000000000001
 42
0.055
 10
1.52
 20
6.122000000000001
 42
0.069
 10
1.514
 20
6.121
 42
0.106
 10
1.508
 20
6.117999999999999
 42
0.166
  0
LINE
  5
8FC
330
18
100
AcDbEntity
  8
0
100
AcDbLine
 10
4.543
 20
6.394
 30
0.0
 11
4.615
 21
6.358
 31
0.0
  0
LINE
  5
8FD
330
18
100
AcDbEntity
  8
0
100
AcDbLine
 10
4.523
 20
6.279
 30
0.0
 11
4.56
 21
6.487
 31
0.0
  0
POINT
  5
8FE
330
18
100
AcDbEntity
  8
0
100
AcDbPoint
 10
4.44
 20
6.013
 30
0.0
  0
POINT
  5
8FF
330
18
100
AcDbEntity
  8
0
100
AcDbPoint
 10
4.498
 20
6.072
 30
0.0
  0
ARC
  5
900
330
18
100
AcDbEntity
  8
0
100
AcDbCircle
 10
4.513999999999999
 20
6.281000000000001
 30
0.0
 40
0.008
100
AcDbArc
 50
321.981
 51
349.895
  0
LINE
  5
901
330
18
100
AcDbEntity
  8
0
100
AcDbLine
 10
4.215
 20
6.66
 30
0.0
 11
4.321000000000001
 21
6.607
 31
0.0
  0
LINE
  5
902
330
18
100
AcDbEntity
  8
0
100
AcDbLine
 10
4.431
 20
6.551
 30
0.0
 11
4.56
 21
6.487
 31
0.0
  0
LINE
  5
903
330
18
100
AcDbEntity
  8
0
100
AcDbLine
 10
4.321000000000001
 20
6.607
 30
0.0
 11
4.391
 21
6.607
 31
0.0
  0
LINE
  5
904
330
18
100
AcDbEntity
  8
0
100
AcDbLine
 10
4.391
 20
6.607
 30
0.0
 11
4.386
 21
6.522
 31
0.0
  0
LINE
  5
905
330
18
100
AcDbEntity
  8
0
100
AcDbLine
 10
4.386
 20
6.522
 30
0.0
 11
4.431
 21
6.551
 31
0.0
  0
LINE
  5
906
330
18
100
AcDbEntity
  8
0
100
AcDbLine
 10
7.127999999999999
 20
3.153
 30
0.0
 11
7.161000000000001
 21
3.336
 31
0.0
  0
LWPOLYLINE
  5
907
330
18
100
AcDbEntity
  8
0
100
AcDbPolyline
 90
        3
 70
     0
 43
0.0
 10
7.082000000000001
 20
3.192
 10
7.082999999999999
 20
3.185
 10
7.091
 20
3.159
  0
LWPOLYLINE
  5
90D
330
18
100
AcDbEntity
  8
0
100
AcDbPolyline
 90
        6
 70
     0
 43
0.0
 10
7.14
 20
3.219
 10
7.137000000000001
 20
3.209
 10
7.126
 20
3.179
 10
7.115
 20
3.15
 10
7.104
 20
3.122
 10
7.093
 20
3.098
  0
LWPOLYLINE
  5
916
330
18
100
AcDbEntity
  8
0
100
AcDbPolyline
 90
        8
 70
     0
 43
0.0
 10
7.142
 20
3.3
 10
7.14
 20
3.28
 10
7.136
 20
3.247
 10
7.127999999999999
 20
3.215
 10
7.117000000000001
 20
3.184
 10
7.102
 20
3.153
 10
7.087999999999999
 20
3.125
 10
7.082000000000001
 20
3.115
  0
LWPOLYLINE
  5
921
330
18
100
AcDbEntity
  8
0
100
AcDbPolyline
 90
        6
 70
     0
 43
0.0
 10
7.126
 20
3.272
 10
7.125
 20
3.265
 10
7.116000000000001
 20
3.233
 10
7.107
 20
3.2
 10
7.096
 20
3.169
 10
7.09
 20
3.154
  0
TEXT
  5
92A
330
18
100
AcDbEntity
  8
0
100
AcDbText
 10
1.543498
 20
0.954681
 30
0.0
 40
0.175
  1
Simpson Strong-Tie
100
AcDbText
  0
TEXT
  5
92B
330
18
100
AcDbEntity
  8
0
100
AcDbText
 10
1.543498
 20
0.6713479999999999
 30
0.0
 40
0.175
  1
LSTI
100
AcDbText
  0
ENDSEC
  0
SECTION
  2
OBJECTS
  0
DICTIONARY
  5
C
330
0
100
AcDbDictionary
281
     1
  3
ACAD_COLOR
350
931
  3
ACAD_GROUP
350
D
  3
ACAD_LAYOUT
350
15
  3
ACAD_MATERIAL
350
933
  3
ACAD_MLINESTYLE
350
12
  3
ACAD_PLOTSETTINGS
350
14
  3
ACAD_PLOTSTYLENAME
350
E
  3
ACDBHEADERROUNDTRIPXREC
350
930
  0
DICTIONARY
  5
931
102
{ACAD_REACTORS
330
C
102
}
330
C
100
AcDbDictionary
281
     1
  0
DICTIONARY
  5
D
102
{ACAD_REACTORS
330
C
102
}
330
C
100
AcDbDictionary
281
     1
  0
DICTIONARY
  5
15
102
{ACAD_REACTORS
330
C
102
}
330
C
100
AcDbDictionary
281
     1
  3
Layout1
350
17
  3
Model
350
19
  0
DICTIONARY
  5
933
102
{ACAD_REACTORS
330
C
102
}
330
C
100
AcDbDictionary
281
     1
  0
DICTIONARY
  5
12
102
{ACAD_REACTORS
330
C
102
}
330
C
100
AcDbDictionary
281
     1
  3
Standard
350
13
  0
DICTIONARY
  5
14
102
{ACAD_REACTORS
330
C
102
}
330
C
100
AcDbDictionary
281
     1
  0
ACDBDICTIONARYWDFLT
  5
E
102
{ACAD_REACTORS
330
C
102
}
330
C
100
AcDbDictionary
281
     1
  3
Normal
350
F
100
AcDbDictionaryWithDefault
340
F
  0
DICTIONARY
  5
930
102
{ACAD_REACTORS
330
C
102
}
330
C
100
AcDbDictionary
281
     1
  3
COLORDICT
350
932
  3
MATERIALDICT
350
934
  0
LAYOUT
  5
17
102
{ACAD_REACTORS
330
15
102
}
102
{ACAD_XDICTIONARY
360
935
102
}
330
15
100
AcDbPlotSettings
  1

  2

  4

  6

 40
0.0
 41
0.0
 42
0.0
 43
0.0
 44
0.0
 45
0.0
 46
0.0
 47
0.0
 48
0.0
 49
0.0
140
0.0
141
0.0
142
1.0
143
1.0
 70
   688
 72
     0
 73
     0
 74
     5
  7

 75
    16
147
1.0
148
0.0
149
0.0
100
AcDbLayout
  1
Layout1
 70
     1
 71
     1
 10
0.0
 20
0.0
 11
12.0
 21
9.0
 12
0.0
 22
0.0
 32
0.0
 14
1.000000000000000E+20
 24
1.000000000000000E+20
 34
1.000000000000000E+20
 15
-1.000000000000000E+20
 25
-1.000000000000000E+20
 35
-1.000000000000000E+20
146
0.0
 13
0.0
 23
0.0
 33
0.0
 16
1.0
 26
0.0
 36
0.0
 17
0.0
 27
1.0
 37
0.0
 76
     0
330
16
  0
LAYOUT
  5
19
102
{ACAD_REACTORS
330
15
102
}
102
{ACAD_XDICTIONARY
360
937
102
}
330
15
100
AcDbPlotSettings
  1

  2

  4

  6

 40
0.0
 41
0.0
 42
0.0
 43
0.0
 44
0.0
 45
0.0
 46
0.0
 47
0.0
 48
0.0
 49
0.0
140
0.0
141
0.0
142
1.0
143
1.0
 70
  1712
 72
     0
 73
     0
 74
     0
  7

 75
     0
147
1.0
148
0.0
149
0.0
100
AcDbLayout
  1
Model
 70
     1
 71
     0
 10
0.0
 20
0.0
 11
0.0
 21
0.0
 12
0.0
 22
0.0
 32
0.0
 14
0.0
 24
0.0
 34
0.0
 15
0.0
 25
0.0
 35
0.0
146
0.0
 13
0.0
 23
0.0
 33
0.0
 16
1.0
 26
0.0
 36
0.0
 17
0.0
 27
1.0
 37
0.0
 76
     0
330
18
  0
MLINESTYLE
  5
13
102
{ACAD_REACTORS
330
12
102
}
330
12
100
AcDbMlineStyle
  2
Standard
 70
     0
  3

 62
   256
 51
90.0
 52
90.0
 71
     2
 49
0.5
 62
   256
  6
BYLAYER
 49
-0.5
 62
   256
  6
BYLAYER
  0
ACDBPLACEHOLDER
  5
F
102
{ACAD_REACTORS
330
E
102
}
330
E
  0
XRECORD
  5
932
102
{ACAD_REACTORS
330
930
102
}
330
930
100
AcDbXrecord
340
931
  0
XRECORD
  5
934
102
{ACAD_REACTORS
330
930
102
}
330
930
100
AcDbXrecord
340
933
  0
DICTIONARY
  5
935
330
17
100
AcDbDictionary
280
     1
281
     1
  3
ACAD_XREC_ROUNDTRIP
360
936
  0
DICTIONARY
  5
937
330
19
100
AcDbDictionary
280
     1
281
     1
  3
ACAD_XREC_ROUNDTRIP
360
938
  0
XRECORD
  5
936
102
{ACAD_REACTORS
330
935
102
}
330
935
100
AcDbXrecord
102
SHADEPLOT
 70
 28720
102
SHADEPLOTRESLEVEL
 70
 28760
102
SHADEPLOTCUSTOMDPI
 70
 28800
  0
XRECORD
  5
938
102
{ACAD_REACTORS
330
937
102
}
330
937
100
AcDbXrecord
102
SHADEPLOT
 70
     0
102
SHADEPLOTRESLEVEL
 70
     0
102
SHADEPLOTCUSTOMDPI
 70
     0
  0
ENDSEC
  0
EOF
