  0
SECTION
  2
HEADER
  9
$ACADVER
  1
AC1015
  9
$ACADMAINTVER
 70
     6
  9
$DWGCODEPAGE
  3
DOS932
  9
$INSBASE
 10
0.0
 20
0.0
 30
0.0
  9
$EXTMIN
 10
72.50875244140624
 20
123.8616902669271
 30
1.000000000000000E+20
  9
$EXTMAX
 10
142.1143229166667
 20
164.1641398111979
 30
-1.000000000000000E+20
  9
$LIMMIN
 10
72.50875244140624
 20
123.8616902669271
  9
$LIMMAX
 10
142.1143229166667
 20
164.1641398111979
  9
$ORTHOMODE
 70
     0
  9
$REGENMODE
 70
     1
  9
$FILLMODE
 70
     1
  9
$QTEXTMODE
 70
     0
  9
$MIRRTEXT
 70
     1
  9
$LTSCALE
 40
1.0
  9
$ATTMODE
 70
     1
  9
$TEXTSIZE
 40
0.2
  9
$TRACEWID
 40
0.05
  9
$TEXTSTYLE
  7
STANDARD
  9
$CLAYER
  8
0
  9
$CELTYPE
  6
CONTINUOUS
  9
$CECOLOR
 62
   256
  9
$CELTSCALE
 40
1.0
  9
$DISPSILH
 70
     0
  9
$DIMSCALE
 40
1.0
  9
$DIMASZ
 40
0.18
  9
$DIMEXO
 40
0.0625
  9
$DIMDLI
 40
0.38
  9
$DIMRND
 40
0.0
  9
$DIMDLE
 40
0.0
  9
$DIMEXE
 40
0.18
  9
$DIMTP
 40
0.0
  9
$DIMTM
 40
0.0
  9
$DIMTXT
 40
0.18
  9
$DIMCEN
 40
0.09
  9
$DIMTSZ
 40
0.0
  9
$DIMTOL
 70
     0
  9
$DIMLIM
 70
     0
  9
$DIMTIH
 70
     1
  9
$DIMTOH
 70
     1
  9
$DIMSE1
 70
     0
  9
$DIMSE2
 70
     0
  9
$DIMTAD
 70
     0
  9
$DIMZIN
 70
     0
  9
$DIMBLK
  1

  9
$DIMASO
 70
     1
  9
$DIMSHO
 70
     1
  9
$DIMPOST
  1

  9
$DIMAPOST
  1

  9
$DIMALT
 70
     0
  9
$DIMALTD
 70
     2
  9
$DIMALTF
 40
25.4
  9
$DIMLFAC
 40
1.0
  9
$DIMTOFL
 70
     0
  9
$DIMTVP
 40
0.0
  9
$DIMTIX
 70
     0
  9
$DIMSOXD
 70
     0
  9
$DIMSAH
 70
     0
  9
$DIMBLK1
  1

  9
$DIMBLK2
  1

  9
$DIMSTYLE
  2
STANDARD
  9
$DIMCLRD
 70
     0
  9
$DIMCLRE
 70
     0
  9
$DIMCLRT
 70
     0
  9
$DIMTFAC
 40
1.0
  9
$DIMGAP
 40
0.09
  9
$DIMJUST
 70
     0
  9
$DIMSD1
 70
     0
  9
$DIMSD2
 70
     0
  9
$DIMTOLJ
 70
     1
  9
$DIMTZIN
 70
     0
  9
$DIMALTZ
 70
     0
  9
$DIMALTTZ
 70
     0
  9
$DIMUPT
 70
     0
  9
$DIMDEC
 70
     4
  9
$DIMTDEC
 70
     4
  9
$DIMALTU
 70
     2
  9
$DIMALTTD
 70
     2
  9
$DIMTXSTY
  7
STANDARD
  9
$DIMAUNIT
 70
     0
  9
$DIMADEC
 70
     0
  9
$DIMALTRND
 40
0.0
  9
$DIMAZIN
 70
     0
  9
$DIMDSEP
 70
    46
  9
$DIMATFIT
 70
     3
  9
$DIMFRAC
 70
     0
  9
$DIMLDRBLK
  1

  9
$DIMLUNIT
 70
     2
  9
$DIMLWD
 70
    -2
  9
$DIMLWE
 70
    -2
  9
$DIMTMOVE
 70
     0
  9
$LUNITS
 70
     2
  9
$LUPREC
 70
     4
  9
$SKETCHINC
 40
0.1
  9
$FILLETRAD
 40
0.0
  9
$AUNITS
 70
     0
  9
$AUPREC
 70
     0
  9
$MENU
  1
acad
  9
$ELEVATION
 40
0.0
  9
$PELEVATION
 40
0.0
  9
$THICKNESS
 40
0.0
  9
$LIMCHECK
 70
     0
  9
$CHAMFERA
 40
0.0
  9
$CHAMFERB
 40
0.0
  9
$CHAMFERC
 40
0.0
  9
$CHAMFERD
 40
0.0
  9
$SKPOLY
 70
     0
  9
$TDCREATE
 40
0.0
  9
$TDUCREATE
 40
0.0
  9
$TDUPDATE
 40
0.0
  9
$TDUUPDATE
 40
0.0
  9
$TDINDWG
 40
0.0
  9
$TDUSRTIMER
 40
0.0
  9
$USRTIMER
 70
     1
  9
$ANGBASE
 50
0.0
  9
$ANGDIR
 70
     0
  9
$PDMODE
 70
     0
  9
$PDSIZE
 40
0.0
  9
$PLINEWID
 40
0.0
  9
$SPLFRAME
 70
     0
  9
$SPLINETYPE
 70
     6
  9
$SPLINESEGS
 70
     8
  9
$HANDSEED
  5
2CD
  9
$SURFTAB1
 70
     6
  9
$SURFTAB2
 70
     6
  9
$SURFTYPE
 70
     6
  9
$SURFU
 70
     6
  9
$SURFV
 70
     6
  9
$UCSBASE
  2

  9
$UCSNAME
  2

  9
$UCSORG
 10
0.0
 20
0.0
 30
0.0
  9
$UCSXDIR
 10
1.0
 20
0.0
 30
0.0
  9
$UCSYDIR
 10
0.0
 20
1.0
 30
0.0
  9
$UCSORTHOREF
  2

  9
$UCSORTHOVIEW
 70
     0
  9
$UCSORGTOP
 10
0.0
 20
0.0
 30
0.0
  9
$UCSORGBOTTOM
 10
0.0
 20
0.0
 30
0.0
  9
$UCSORGLEFT
 10
0.0
 20
0.0
 30
0.0
  9
$UCSORGRIGHT
 10
0.0
 20
0.0
 30
0.0
  9
$UCSORGFRONT
 10
0.0
 20
0.0
 30
0.0
  9
$UCSORGBACK
 10
0.0
 20
0.0
 30
0.0
  9
$PUCSBASE
  2

  9
$PUCSNAME
  2

  9
$PUCSORG
 10
0.0
 20
0.0
 30
0.0
  9
$PUCSXDIR
 10
1.0
 20
0.0
 30
0.0
  9
$PUCSYDIR
 10
0.0
 20
1.0
 30
0.0
  9
$PUCSORTHOREF
  2

  9
$PUCSORTHOVIEW
 70
     0
  9
$PUCSORGTOP
 10
0.0
 20
0.0
 30
0.0
  9
$PUCSORGBOTTOM
 10
0.0
 20
0.0
 30
0.0
  9
$PUCSORGLEFT
 10
0.0
 20
0.0
 30
0.0
  9
$PUCSORGRIGHT
 10
0.0
 20
0.0
 30
0.0
  9
$PUCSORGFRONT
 10
0.0
 20
0.0
 30
0.0
  9
$PUCSORGBACK
 10
0.0
 20
0.0
 30
0.0
  9
$USERI1
 70
     0
  9
$USERI2
 70
     0
  9
$USERI3
 70
     0
  9
$USERI4
 70
     0
  9
$USERI5
 70
     0
  9
$USERR1
 40
0.0
  9
$USERR2
 40
0.0
  9
$USERR3
 40
0.0
  9
$USERR4
 40
0.0
  9
$USERR5
 40
0.0
  9
$WORLDVIEW
 70
     1
  9
$SHADEDGE
 70
     3
  9
$SHADEDIF
 70
    70
  9
$TILEMODE
 70
     1
  9
$MAXACTVP
 70
    16
  9
$PINSBASE
 10
0.0
 20
0.0
 30
0.0
  9
$PLIMCHECK
 70
     0
  9
$PEXTMIN
 10
1.000000000000000E+20
 20
1.000000000000000E+20
 30
1.000000000000000E+20
  9
$PEXTMAX
 10
-1.000000000000000E+20
 20
-1.000000000000000E+20
 30
-1.000000000000000E+20
  9
$PLIMMIN
 10
0.0
 20
0.0
  9
$PLIMMAX
 10
12.0
 20
9.0
  9
$UNITMODE
 70
     0
  9
$VISRETAIN
 70
     0
  9
$PLINEGEN
 70
     1
  9
$PSLTSCALE
 70
     0
  9
$TREEDEPTH
 70
  3020
  9
$CMLSTYLE
  2
STANDARD
  9
$CMLJUST
 70
     0
  9
$CMLSCALE
 40
1.0
  9
$PROXYGRAPHICS
 70
     0
  9
$MEASUREMENT
 70
     0
  9
$CELWEIGHT
370
    -1
  9
$ENDCAPS
280
     0
  9
$JOINSTYLE
280
     0
  9
$LWDISPLAY
290
     0
  9
$INSUNITS
 70
     1
  9
$HYPERLINKBASE
  1

  9
$STYLESHEET
  1

  9
$XEDIT
290
     1
  9
$CEPSNTYPE
380
     0
  9
$PSTYLEMODE
290
     0
  9
$FINGERPRINTGUID
  2
{FAEB1C30-E019-11D5-929B-00C0DF256EC4}
  9
$VERSIONGUID
  2
{FAEB1C32-E019-11D5-929B-00C0DF256EC4}
  9
$EXTNAMES
290
     1
  9
$PSVPSCALE
 40
0.0
  9
$OLESTARTUP
290
     0
  0
ENDSEC
  0
SECTION
  2
CLASSES
  0
CLASS
  1
LWPOLYLINE
  2
AcDbPolyline
  3
AutoCAD 2000
 90
        0
280
     0
281
     1
  0
CLASS
  1
IMAGE
  2
AcDbRasterImage
  3
ISM
 90
      127
280
     0
281
     1
  0
CLASS
  1
OLE2FRAME
  2
AcDbOle2Frame
  3
AutoCAD 2000
 90
        0
280
     0
281
     1
  0
CLASS
  1
HATCH
  2
AcDbHatch
  3
AutoCAD 2000
 90
        0
280
     0
281
     1
  0
CLASS
  1
DICTIONARYVAR
  2
AcDbDictionaryVar
  3
AutoCAD 2000
 90
        0
280
     0
281
     0
  0
CLASS
  1
RASTERVARIABLES
  2
AcDbRasterVariables
  3
ISM
 90
        0
280
     0
281
     0
  0
CLASS
  1
IMAGEDEF
  2
AcDbRasterImageDef
  3
ISM
 90
        0
280
     0
281
     0
  0
CLASS
  1
IMAGEDEF_REACTOR
  2
AcDbRasterImageDefReactor
  3
ISM
 90
        1
280
     0
281
     0
  0
CLASS
  1
IDBUFFER
  2
AcDbIdBuffer
  3
AutoCAD 2000
 90
        0
280
     0
281
     0
  0
CLASS
  1
SPATIAL_FILTER
  2
AcDbSpatialFilter
  3
AutoCAD 2000
 90
        0
280
     0
281
     0
  0
CLASS
  1
XRECORD
  2
AcDbXrecord
  3
AutoCAD 2000
 90
        0
280
     0
281
     0
  0
CLASS
  1
SORTENTSTABLE
  2
AcDbSortentsTable
  3
AutoCAD 2000
 90
        0
280
     0
281
     0
  0
CLASS
  1
LAYER_INDEX
  2
AcDbLayerIndex
  3
AutoCAD 2000
 90
        0
280
     0
281
     0
  0
CLASS
  1
SPATIAL_INDEX
  2
AcDbSpatialIndex
  3
AutoCAD 2000
 90
        0
280
     0
281
     0
  0
CLASS
  1
OBJECT_PTR
  2
CAseDLPNTableRecord
  3
"ASE-LPNTableRecord"
 90
        1
280
     1
281
     0
  0
CLASS
  1
LAYOUT
  2
AcDbLayout
  3
ObjectDBX Classes
 90
        0
280
     0
281
     0
  0
CLASS
  1
PLOTSETTINGS
  2
AcDbPlotSettings
  3
AutoCAD 2000
 90
        0
280
     0
281
     0
  0
CLASS
  1
ACDBDICTIONARYWDFLT
  2
AcDbDictionaryWithDefault
  3
AutoCAD 2000
 90
        0
280
     0
281
     0
  0
CLASS
  1
ACDBPLACEHOLDER
  2
AcDbPlaceHolder
  3
ObjectDBX Classes
 90
        0
280
     0
281
     0
  0
CLASS
  1
VBAPROJECT
  2
AcDbVbaProject
  3
ObjectDBX Classes
 90
        0
280
     0
281
     0
  0
CLASS
  1
WIPEOUT
  2
AcDbWipeout
  3
WipeOut|AutoCAD Express Tool|expresstools@autodesk.com
 90
      127
280
     0
281
     1
  0
CLASS
  1
WIPEOUTVARIABLES
  2
AcDbWipeoutVariables
  3
WipeOut|AutoCAD Express Tool|expresstools@autodesk.com
 90
        0
280
     0
281
     0
  0
CLASS
  1
RTEXT
  2
RText
  3
RText|AutoCAD Express Tool|expresstools@autodesk.com
 90
        0
280
     0
281
     1
  0
CLASS
  1
ARCALIGNEDTEXT
  2
AcDbArcAlignedText
  3
ATEXT|AutoCAD Express Tool|expresstools@autodesk.com
 90
        0
280
     0
281
     1
  0
CLASS
  1
DxfZombieEntity
  2
AcDbDxfZombieEntity
  3
"AutoCAD"
 90
        0
280
     1
281
     1
  0
CLASS
  1
DxfZombieObject
  2
AcDbDxfZombieObject
  3
"AutoCAD"
 90
        0
280
     1
281
     0
  0
ENDSEC
  0
SECTION
  2
TABLES
  0
TABLE
  2
VPORT
  5
7
330
0
100
AcDbSymbolTable
 70
     2
  0
VPORT
  5
15
330
7
100
AcDbSymbolTableRecord
100
AcDbViewportTableRecord
  2
*ACTIVE
 70
     0
 10
0.0
 20
0.0
 11
1.0
 21
1.0
 12
6.591288
 22
4.579184
 13
0.0
 23
0.0
 14
1.0
 24
1.0
 15
0.0
 25
0.0
 16
0.0
 26
0.0
 36
1.0
 17
0.0
 27
0.0
 37
0.0
 40
9.158369
 41
0.688564
 42
50.0
 43
0.0
 44
0.0
 50
0.0
 51
0.0
 71
     0
 72
   100
 73
     1
 74
     1
 75
     0
 76
     0
 77
     0
 78
     0
281
     0
 65
     1
110
0.0
120
0.0
130
0.0
111
1.0
121
0.0
131
0.0
112
0.0
122
1.0
132
0.0
 79
     0
146
0.0
  0
ENDTAB
  0
TABLE
  2
LTYPE
  5
4
330
0
100
AcDbSymbolTable
 70
     1
  0
LTYPE
  5
11
330
4
100
AcDbSymbolTableRecord
100
AcDbLinetypeTableRecord
  2
BYBLOCK
 70
     0
  3

 72
    65
 73
     0
 40
0.0
  0
LTYPE
  5
12
330
4
100
AcDbSymbolTableRecord
100
AcDbLinetypeTableRecord
  2
BYLAYER
 70
     0
  3

 72
    65
 73
     0
 40
0.0
  0
LTYPE
  5
13
330
4
100
AcDbSymbolTableRecord
100
AcDbLinetypeTableRecord
  2
CONTINUOUS
 70
     0
  3
Solid line
 72
    65
 73
     0
 40
0.0
  0
ENDTAB
  0
TABLE
  2
LAYER
  5
2
330
0
100
AcDbSymbolTable
 70
     2
  0
LAYER
  5
14
330
2
100
AcDbSymbolTableRecord
100
AcDbLayerTableRecord
  2
0
 70
     0
 62
     7
  6
CONTINUOUS
370
    -3
390
0
  0
LAYER
  5
21
330
2
100
AcDbSymbolTableRecord
100
AcDbLayerTableRecord
  2
LAYER_1
 70
     0
 62
     5
  6
CONTINUOUS
370
    -3
390
0
  0
ENDTAB
  0
TABLE
  2
STYLE
  5
3
330
0
100
AcDbSymbolTable
 70
     5
  0
STYLE
  5
17
330
3
100
AcDbSymbolTableRecord
100
AcDbTextStyleTableRecord
  2
STANDARD
 70
     0
 40
0.0
 41
1.0
 50
0.0
 71
     0
 42
0.2
  3
txt
  4

  0
STYLE
  5
1D
330
3
100
AcDbSymbolTableRecord
100
AcDbTextStyleTableRecord
  2
STD
 70
     0
 40
0.0
 41
1.0
 50
0.0
 71
     0
 42
0.2
  3
txt
  4

  0
STYLE
  5
1E
330
3
100
AcDbSymbolTableRecord
100
AcDbTextStyleTableRecord
  2
TATESTD
 70
     4
 40
0.0
 41
1.0
 50
0.0
 71
     0
 42
0.2
  3
txt
  4

  0
STYLE
  5
1F
330
3
100
AcDbSymbolTableRecord
100
AcDbTextStyleTableRecord
  2
KANJISTD
 70
     0
 40
0.0
 41
1.0
 50
0.0
 71
     0
 42
0.2
  3
txt
  4
extfont
  0
STYLE
  5
20
330
3
100
AcDbSymbolTableRecord
100
AcDbTextStyleTableRecord
  2
KANJITATE
 70
     4
 40
0.0
 41
1.0
 50
0.0
 71
     0
 42
0.2
  3
txt
  4
extfont
  0
ENDTAB
  0
TABLE
  2
VIEW
  5
5
330
0
100
AcDbSymbolTable
 70
     0
  0
ENDTAB
  0
TABLE
  2
UCS
  5
6
330
0
100
AcDbSymbolTable
 70
     0
  0
ENDTAB
  0
TABLE
  2
APPID
  5
8
330
0
100
AcDbSymbolTable
 70
     1
  0
APPID
  5
16
330
8
100
AcDbSymbolTableRecord
100
AcDbRegAppTableRecord
  2
ACAD
 70
     0
  0
ENDTAB
  0
TABLE
  2
DIMSTYLE
  5
9
330
0
100
AcDbSymbolTable
 70
     1
100
AcDbDimStyleTable
  0
DIMSTYLE
105
18
330
9
100
AcDbSymbolTableRecord
100
AcDbDimStyleTableRecord
  2
STANDARD
 70
     0
  3

  4

289
     0
340
17
  0
ENDTAB
  0
TABLE
  2
BLOCK_RECORD
  5
1
330
0
100
AcDbSymbolTable
 70
    52
  0
BLOCK_RECORD
  5
A
330
1
100
AcDbSymbolTableRecord
100
AcDbBlockTableRecord
  2
*MODEL_SPACE
340
2C2
  0
BLOCK_RECORD
  5
B
330
1
100
AcDbSymbolTableRecord
100
AcDbBlockTableRecord
  2
*PAPER_SPACE
340
2C3
  0
BLOCK_RECORD
  5
22
330
1
100
AcDbSymbolTableRecord
100
AcDbBlockTableRecord
  2
AI9-BLK1
340
0
102
{BLKREFS
331
23
102
}
  0
BLOCK_RECORD
  5
25
330
1
100
AcDbSymbolTableRecord
100
AcDbBlockTableRecord
  2
AI9-BLK2
340
0
102
{BLKREFS
331
26
102
}
  0
BLOCK_RECORD
  5
2B
330
1
100
AcDbSymbolTableRecord
100
AcDbBlockTableRecord
  2
AI9-BLK3
340
0
102
{BLKREFS
331
2C
102
}
  0
BLOCK_RECORD
  5
31
330
1
100
AcDbSymbolTableRecord
100
AcDbBlockTableRecord
  2
AI9-BLK4
340
0
102
{BLKREFS
331
32
102
}
  0
BLOCK_RECORD
  5
37
330
1
100
AcDbSymbolTableRecord
100
AcDbBlockTableRecord
  2
AI9-BLK5
340
0
102
{BLKREFS
331
38
102
}
  0
BLOCK_RECORD
  5
3D
330
1
100
AcDbSymbolTableRecord
100
AcDbBlockTableRecord
  2
AI9-BLK6
340
0
102
{BLKREFS
331
3E
102
}
  0
BLOCK_RECORD
  5
43
330
1
100
AcDbSymbolTableRecord
100
AcDbBlockTableRecord
  2
AI9-BLK7
340
0
102
{BLKREFS
331
44
102
}
  0
BLOCK_RECORD
  5
49
330
1
100
AcDbSymbolTableRecord
100
AcDbBlockTableRecord
  2
AI9-BLK8
340
0
102
{BLKREFS
331
4A
102
}
  0
BLOCK_RECORD
  5
4F
330
1
100
AcDbSymbolTableRecord
100
AcDbBlockTableRecord
  2
AI9-BLK9
340
0
102
{BLKREFS
331
50
102
}
  0
BLOCK_RECORD
  5
55
330
1
100
AcDbSymbolTableRecord
100
AcDbBlockTableRecord
  2
AI9-BLK10
340
0
102
{BLKREFS
331
56
102
}
  0
BLOCK_RECORD
  5
5B
330
1
100
AcDbSymbolTableRecord
100
AcDbBlockTableRecord
  2
AI9-BLK11
340
0
102
{BLKREFS
331
5C
102
}
  0
BLOCK_RECORD
  5
61
330
1
100
AcDbSymbolTableRecord
100
AcDbBlockTableRecord
  2
AI9-BLK12
340
0
102
{BLKREFS
331
62
102
}
  0
BLOCK_RECORD
  5
67
330
1
100
AcDbSymbolTableRecord
100
AcDbBlockTableRecord
  2
AI9-BLK13
340
0
102
{BLKREFS
331
68
102
}
  0
BLOCK_RECORD
  5
6F
330
1
100
AcDbSymbolTableRecord
100
AcDbBlockTableRecord
  2
AI9-BLK14
340
0
102
{BLKREFS
331
70
102
}
  0
BLOCK_RECORD
  5
72
330
1
100
AcDbSymbolTableRecord
100
AcDbBlockTableRecord
  2
AI9-BLK15
340
0
102
{BLKREFS
331
73
102
}
  0
BLOCK_RECORD
  5
78
330
1
100
AcDbSymbolTableRecord
100
AcDbBlockTableRecord
  2
AI9-BLK16
340
0
102
{BLKREFS
331
79
102
}
  0
BLOCK_RECORD
  5
7E
330
1
100
AcDbSymbolTableRecord
100
AcDbBlockTableRecord
  2
AI9-BLK17
340
0
102
{BLKREFS
331
7F
102
}
  0
BLOCK_RECORD
  5
84
330
1
100
AcDbSymbolTableRecord
100
AcDbBlockTableRecord
  2
AI9-BLK18
340
0
102
{BLKREFS
331
85
102
}
  0
BLOCK_RECORD
  5
8A
330
1
100
AcDbSymbolTableRecord
100
AcDbBlockTableRecord
  2
AI9-BLK19
340
0
102
{BLKREFS
331
8B
102
}
  0
BLOCK_RECORD
  5
90
330
1
100
AcDbSymbolTableRecord
100
AcDbBlockTableRecord
  2
AI9-BLK20
340
0
102
{BLKREFS
331
91
102
}
  0
BLOCK_RECORD
  5
96
330
1
100
AcDbSymbolTableRecord
100
AcDbBlockTableRecord
  2
AI9-BLK21
340
0
102
{BLKREFS
331
97
102
}
  0
BLOCK_RECORD
  5
9C
330
1
100
AcDbSymbolTableRecord
100
AcDbBlockTableRecord
  2
AI9-BLK22
340
0
102
{BLKREFS
331
9D
102
}
  0
BLOCK_RECORD
  5
A2
330
1
100
AcDbSymbolTableRecord
100
AcDbBlockTableRecord
  2
AI9-BLK23
340
0
102
{BLKREFS
331
A3
102
}
  0
BLOCK_RECORD
  5
A8
330
1
100
AcDbSymbolTableRecord
100
AcDbBlockTableRecord
  2
AI9-BLK24
340
0
102
{BLKREFS
331
A9
102
}
  0
BLOCK_RECORD
  5
AE
330
1
100
AcDbSymbolTableRecord
100
AcDbBlockTableRecord
  2
AI9-BLK25
340
0
102
{BLKREFS
331
AF
102
}
  0
BLOCK_RECORD
  5
B4
330
1
100
AcDbSymbolTableRecord
100
AcDbBlockTableRecord
  2
AI9-BLK26
340
0
102
{BLKREFS
331
B5
102
}
  0
BLOCK_RECORD
  5
BC
330
1
100
AcDbSymbolTableRecord
100
AcDbBlockTableRecord
  2
AI9-BLK27
340
0
102
{BLKREFS
331
BD
102
}
  0
BLOCK_RECORD
  5
C2
330
1
100
AcDbSymbolTableRecord
100
AcDbBlockTableRecord
  2
AI9-BLK28
340
0
102
{BLKREFS
331
C3
102
}
  0
BLOCK_RECORD
  5
C8
330
1
100
AcDbSymbolTableRecord
100
AcDbBlockTableRecord
  2
AI9-BLK29
340
0
102
{BLKREFS
331
C9
102
}
  0
BLOCK_RECORD
  5
CE
330
1
100
AcDbSymbolTableRecord
100
AcDbBlockTableRecord
  2
AI9-BLK30
340
0
102
{BLKREFS
331
CF
102
}
  0
BLOCK_RECORD
  5
D4
330
1
100
AcDbSymbolTableRecord
100
AcDbBlockTableRecord
  2
AI9-BLK31
340
0
102
{BLKREFS
331
D5
102
}
  0
BLOCK_RECORD
  5
DA
330
1
100
AcDbSymbolTableRecord
100
AcDbBlockTableRecord
  2
AI9-BLK32
340
0
102
{BLKREFS
331
DB
102
}
  0
BLOCK_RECORD
  5
E0
330
1
100
AcDbSymbolTableRecord
100
AcDbBlockTableRecord
  2
AI9-BLK33
340
0
102
{BLKREFS
331
E1
102
}
  0
BLOCK_RECORD
  5
E6
330
1
100
AcDbSymbolTableRecord
100
AcDbBlockTableRecord
  2
AI9-BLK34
340
0
102
{BLKREFS
331
E7
102
}
  0
BLOCK_RECORD
  5
EC
330
1
100
AcDbSymbolTableRecord
100
AcDbBlockTableRecord
  2
AI9-BLK35
340
0
102
{BLKREFS
331
ED
102
}
  0
BLOCK_RECORD
  5
F2
330
1
100
AcDbSymbolTableRecord
100
AcDbBlockTableRecord
  2
AI9-BLK36
340
0
102
{BLKREFS
331
F3
102
}
  0
BLOCK_RECORD
  5
F8
330
1
100
AcDbSymbolTableRecord
100
AcDbBlockTableRecord
  2
AI9-BLK37
340
0
102
{BLKREFS
331
F9
102
}
  0
BLOCK_RECORD
  5
FE
330
1
100
AcDbSymbolTableRecord
100
AcDbBlockTableRecord
  2
AI9-BLK38
340
0
102
{BLKREFS
331
FF
102
}
  0
BLOCK_RECORD
  5
104
330
1
100
AcDbSymbolTableRecord
100
AcDbBlockTableRecord
  2
AI9-BLK39
340
0
102
{BLKREFS
331
105
102
}
  0
BLOCK_RECORD
  5
10A
330
1
100
AcDbSymbolTableRecord
100
AcDbBlockTableRecord
  2
AI9-BLK40
340
0
102
{BLKREFS
331
10B
102
}
  0
BLOCK_RECORD
  5
110
330
1
100
AcDbSymbolTableRecord
100
AcDbBlockTableRecord
  2
AI9-BLK41
340
0
102
{BLKREFS
331
111
102
}
  0
BLOCK_RECORD
  5
116
330
1
100
AcDbSymbolTableRecord
100
AcDbBlockTableRecord
  2
AI9-BLK42
340
0
102
{BLKREFS
331
117
102
}
  0
BLOCK_RECORD
  5
11C
330
1
100
AcDbSymbolTableRecord
100
AcDbBlockTableRecord
  2
AI9-BLK43
340
0
102
{BLKREFS
331
11D
102
}
  0
BLOCK_RECORD
  5
122
330
1
100
AcDbSymbolTableRecord
100
AcDbBlockTableRecord
  2
AI9-BLK44
340
0
102
{BLKREFS
331
123
102
}
  0
BLOCK_RECORD
  5
128
330
1
100
AcDbSymbolTableRecord
100
AcDbBlockTableRecord
  2
AI9-BLK45
340
0
102
{BLKREFS
331
129
102
}
  0
BLOCK_RECORD
  5
12E
330
1
100
AcDbSymbolTableRecord
100
AcDbBlockTableRecord
  2
AI9-BLK46
340
0
102
{BLKREFS
331
12F
102
}
  0
BLOCK_RECORD
  5
134
330
1
100
AcDbSymbolTableRecord
100
AcDbBlockTableRecord
  2
AI9-BLK47
340
0
102
{BLKREFS
331
135
102
}
  0
BLOCK_RECORD
  5
13A
330
1
100
AcDbSymbolTableRecord
100
AcDbBlockTableRecord
  2
AI9-BLK48
340
0
102
{BLKREFS
331
13B
102
}
  0
BLOCK_RECORD
  5
140
330
1
100
AcDbSymbolTableRecord
100
AcDbBlockTableRecord
  2
AI9-BLK49
340
0
102
{BLKREFS
331
141
102
}
  0
BLOCK_RECORD
  5
146
330
1
100
AcDbSymbolTableRecord
100
AcDbBlockTableRecord
  2
AI9-BLK50
340
0
102
{BLKREFS
331
147
102
}
  0
BLOCK_RECORD
  5
14C
330
1
100
AcDbSymbolTableRecord
100
AcDbBlockTableRecord
  2
AI9-BLK51
340
0
102
{BLKREFS
331
14D
102
}
  0
BLOCK_RECORD
  5
152
330
1
100
AcDbSymbolTableRecord
100
AcDbBlockTableRecord
  2
AI9-BLK52
340
0
102
{BLKREFS
331
153
102
}
  0
ENDTAB
  0
ENDSEC
  0
SECTION
  2
BLOCKS
  0
BLOCK
  5
D
330
A
100
AcDbEntity
  8
0
100
AcDbBlockBegin
  2
*MODEL_SPACE
 70
     0
 10
0.0
 20
0.0
 30
0.0
  3
*MODEL_SPACE
  1

  4

  0
ENDBLK
  5
E
330
A
100
AcDbEntity
  8
0
100
AcDbBlockEnd
  0
BLOCK
  5
F
330
B
100
AcDbEntity
 67
     1
  8
0
100
AcDbBlockBegin
  2
*PAPER_SPACE
 70
     0
 10
0.0
 20
0.0
 30
0.0
  3
*PAPER_SPACE
  1

  4

  0
ENDBLK
  5
10
330
B
100
AcDbEntity
 67
     1
  8
0
100
AcDbBlockEnd
  0
BLOCK
  5
24
330
22
100
AcDbEntity
  8
LAYER_1
 62
     7
100
AcDbBlockBegin
  2
AI9-BLK1
 70
     0
 10
0.0
 20
0.0
 30
0.0
  3
AI9-BLK1
  1

  4

  0
SPLINE
  5
6D
330
22
100
AcDbEntity
  8
LAYER_1
 62
     7
100
AcDbSpline
210
0.0
220
0.0
230
1.0
 70
    11
 71
     3
 72
   128
 73
   124
 74
     0
 42
0.00000001
 43
0.00000001
 40
0.0
 40
0.0
 40
0.0
 40
0.0
 40
1.0
 40
1.0
 40
1.0
 40
2.0
 40
2.0
 40
2.0
 40
3.0
 40
3.0
 40
3.0
 40
4.0
 40
4.0
 40
4.0
 40
5.0
 40
5.0
 40
5.0
 40
6.0
 40
6.0
 40
6.0
 40
7.0
 40
7.0
 40
7.0
 40
8.0
 40
8.0
 40
8.0
 40
9.0
 40
9.0
 40
9.0
 40
10.0
 40
10.0
 40
10.0
 40
11.0
 40
11.0
 40
11.0
 40
12.0
 40
12.0
 40
12.0
 40
13.0
 40
13.0
 40
13.0
 40
14.0
 40
14.0
 40
14.0
 40
15.0
 40
15.0
 40
15.0
 40
16.0
 40
16.0
 40
16.0
 40
17.0
 40
17.0
 40
17.0
 40
18.0
 40
18.0
 40
18.0
 40
19.0
 40
19.0
 40
19.0
 40
20.0
 40
20.0
 40
20.0
 40
21.0
 40
21.0
 40
21.0
 40
22.0
 40
22.0
 40
22.0
 40
23.0
 40
23.0
 40
23.0
 40
24.0
 40
24.0
 40
24.0
 40
25.0
 40
25.0
 40
25.0
 40
26.0
 40
26.0
 40
26.0
 40
27.0
 40
27.0
 40
27.0
 40
28.0
 40
28.0
 40
28.0
 40
29.0
 40
29.0
 40
29.0
 40
30.0
 40
30.0
 40
30.0
 40
31.0
 40
31.0
 40
31.0
 40
32.0
 40
32.0
 40
32.0
 40
33.0
 40
33.0
 40
33.0
 40
34.0
 40
34.0
 40
34.0
 40
35.0
 40
35.0
 40
35.0
 40
36.0
 40
36.0
 40
36.0
 40
37.0
 40
37.0
 40
37.0
 40
38.0
 40
38.0
 40
38.0
 40
39.0
 40
39.0
 40
39.0
 40
40.0
 40
40.0
 40
40.0
 40
41.0
 40
41.0
 40
41.0
 40
41.0
 10
-1.679570176866319
 20
-4.049106852213542
 30
0.0
 10
-1.679570176866319
 20
-4.049106852213542
 30
0.0
 10
-1.692144775390625
 20
-3.137706841362847
 30
0.0
 10
-1.692144775390625
 20
-3.137706841362847
 30
0.0
 10
-1.692144775390625
 20
-3.137706841362847
 30
0.0
 10
-1.717121717664931
 20
-2.893621826171875
 30
0.0
 10
-1.949148898654514
 20
-2.90929701063368
 30
0.0
 10
-1.949148898654514
 20
-2.90929701063368
 30
0.0
 10
-2.197368028428819
 20
-2.996802435980903
 30
0.0
 10
-2.197368028428819
 20
-2.996802435980903
 30
0.0
 10
-2.197368028428819
 20
-2.996802435980903
 30
0.0
 10
-2.37599622938368
 20
-2.931173366970486
 30
0.0
 10
-2.368417019314236
 20
-2.778727891710069
 30
0.0
 10
-2.368417019314236
 20
-2.778727891710069
 30
0.0
 10
-2.371517605251736
 20
-1.901778835720486
 30
0.0
 10
-2.371517605251736
 20
-1.901778835720486
 30
0.0
 10
-2.371517605251736
 20
-1.901778835720486
 30
0.0
 10
-2.333793809678819
 20
-1.713159857855903
 30
0.0
 10
-2.123987494574652
 20
-1.668718126085069
 30
0.0
 10
-2.123987494574652
 20
-1.668718126085069
 30
0.0
 10
-1.865088568793403
 20
-1.582590738932292
 30
0.0
 10
-1.865088568793403
 20
-1.582590738932292
 30
0.0
 10
-1.865088568793403
 20
-1.582590738932292
 30
0.0
 10
-1.646497260199653
 20
-1.587241617838542
 30
0.0
 10
-1.686288113064236
 20
-1.374334716796875
 30
0.0
 10
-1.686288113064236
 20
-1.374334716796875
 30
0.0
 10
-1.680603705512153
 20
-0.334088134765625
 30
0.0
 10
-1.680603705512153
 20
-0.334088134765625
 30
0.0
 10
-1.680603705512153
 20
-0.334088134765625
 30
0.0
 10
-1.693522813585069
 20
-0.0805291069878472
 30
0.0
 10
-1.913492160373264
 20
-0.0867302788628472
 30
0.0
 10
-1.913492160373264
 20
-0.0867302788628472
 30
0.0
 10
-2.194267442491319
 20
-0.1408182779947917
 30
0.0
 10
-2.194267442491319
 20
-0.1408182779947917
 30
0.0
 10
-2.194267442491319
 20
-0.1408182779947917
 30
0.0
 10
-2.36049329969618
 20
-0.065887451171875
 30
0.0
 10
-2.386676025390625
 20
0.0796678331163194
 30
0.0
 10
-2.386676025390625
 20
0.0796678331163194
 30
0.0
 10
-2.376168484157986
 20
0.8892652723524305
 30
0.0
 10
-2.376168484157986
 20
0.8892652723524305
 30
0.0
 10
-2.376168484157986
 20
0.8892652723524305
 30
0.0
 10
-2.451271565755208
 20
1.094248453776042
 30
0.0
 10
-2.127432590060764
 20
1.133005777994792
 30
0.0
 10
-2.127432590060764
 20
1.133005777994792
 30
0.0
 10
-1.901778835720486
 20
1.182787407769097
 30
0.0
 10
-1.901778835720486
 20
1.182787407769097
 30
0.0
 10
-1.901778835720486
 20
1.182787407769097
 30
0.0
 10
-1.675091552734375
 20
1.155398898654514
 30
0.0
 10
-1.719361029730903
 20
1.423599582248264
 30
0.0
 10
-1.719361029730903
 20
1.423599582248264
 30
0.0
 10
-1.731935628255208
 20
2.312778727213542
 30
0.0
 10
-1.731935628255208
 20
2.312778727213542
 30
0.0
 10
-1.731935628255208
 20
2.312778727213542
 30
0.0
 10
-1.766386583116319
 20
2.481243896484375
 30
0.0
 10
-1.95121595594618
 20
2.492784966362847
 30
0.0
 10
-1.95121595594618
 20
2.492784966362847
 30
0.0
 10
-2.250939263237847
 20
2.550834825303819
 30
0.0
 10
-2.250939263237847
 20
2.550834825303819
 30
0.0
 10
-2.250939263237847
 20
2.550834825303819
 30
0.0
 10
-2.419748942057292
 20
2.604406060112847
 30
0.0
 10
-2.400111897786458
 20
2.766325547960069
 30
0.0
 10
-2.400111897786458
 20
2.766325547960069
 30
0.0
 10
-2.395805528428819
 20
3.544400363498264
 30
0.0
 10
-2.395805528428819
 20
3.544400363498264
 30
0.0
 10
-2.395805528428819
 20
3.544400363498264
 30
0.0
 10
1.39466078016493
 20
4.064093017578125
 30
0.0
 10
1.39466078016493
 20
4.064093017578125
 30
0.0
 10
1.39466078016493
 20
4.064093017578125
 30
0.0
 10
1.586035834418403
 20
4.106467692057291
 30
0.0
 10
1.577595350477431
 20
3.855664740668403
 30
0.0
 10
1.577595350477431
 20
3.855664740668403
 30
0.0
 10
1.580351426866319
 20
3.317540825737847
 30
0.0
 10
1.580351426866319
 20
3.317540825737847
 30
0.0
 10
1.580351426866319
 20
3.317540825737847
 30
0.0
 10
1.562436930338542
 20
3.078795708550347
 30
0.0
 10
1.810656060112847
 20
3.048651123046875
 30
0.0
 10
1.810656060112847
 20
3.048651123046875
 30
0.0
 10
2.054052056206597
 20
3.065187581380208
 30
0.0
 10
2.054052056206597
 20
3.065187581380208
 30
0.0
 10
2.054052056206597
 20
3.065187581380208
 30
0.0
 10
2.24577162000868
 20
3.019884575737847
 30
0.0
 10
2.246288384331597
 20
2.844529215494791
 30
0.0
 10
2.246288384331597
 20
2.844529215494791
 30
0.0
 10
2.285217963324653
 20
2.081785074869792
 30
0.0
 10
2.285217963324653
 20
2.081785074869792
 30
0.0
 10
2.285217963324653
 20
2.081785074869792
 30
0.0
 10
2.355325656467014
 20
1.785162353515625
 30
0.0
 10
1.923482937282986
 20
1.720050048828125
 30
0.0
 10
1.923482937282986
 20
1.720050048828125
 30
0.0
 10
1.662861463758681
 20
1.72642347547743
 30
0.0
 10
1.662861463758681
 20
1.466835530598958
 30
0.0
 10
1.662861463758681
 20
1.466835530598958
 30
0.0
 10
1.666306559244791
 20
0.7871181911892361
 30
0.0
 10
1.666306559244791
 20
0.7871181911892361
 30
0.0
 10
1.666306559244791
 20
0.7871181911892361
 30
0.0
 10
1.612390814887153
 20
0.4210767957899305
 30
0.0
 10
1.998069254557292
 20
0.4400248209635416
 30
0.0
 10
1.998069254557292
 20
0.4400248209635416
 30
0.0
 10
2.352914089626736
 20
0.4737867567274305
 30
0.0
 10
2.342062038845486
 20
0.1132575141059028
 30
0.0
 10
2.342062038845486
 20
0.1132575141059028
 30
0.0
 10
2.349641248914931
 20
-0.7137376573350693
 30
0.0
 10
2.349641248914931
 20
-0.7137376573350693
 30
0.0
 10
2.349641248914931
 20
-0.7137376573350693
 30
0.0
 10
2.369967312282986
 20
-0.9635070800781249
 30
0.0
 10
2.023907470703125
 20
-1.064103868272569
 30
0.0
 10
2.023907470703125
 20
-1.064103868272569
 30
0.0
 10
1.707647705078125
 20
-1.022418212890625
 30
0.0
 10
1.707647705078125
 20
-1.321624755859375
 30
0.0
 10
1.707647705078125
 20
-1.321624755859375
 30
0.0
 10
1.713332112630208
 20
-2.08919203016493
 30
0.0
 10
1.713332112630208
 20
-2.08919203016493
 30
0.0
 10
1.713332112630208
 20
-2.08919203016493
 30
0.0
 10
1.645463731553819
 20
-2.377029758029514
 30
0.0
 10
2.036826578776041
 20
-2.402523464626736
 30
0.0
 10
2.036826578776041
 20
-2.402523464626736
 30
0.0
 10
2.434735107421875
 20
-2.373929172092014
 30
0.0
 10
2.392704942491319
 20
-2.719644504123264
 30
0.0
 10
2.392704942491319
 20
-2.719644504123264
 30
0.0
 10
2.399422878689236
 20
-3.418309868706597
 30
0.0
 10
2.399422878689236
 20
-3.418309868706597
 30
0.0
 10
2.399422878689236
 20
-3.418309868706597
 30
0.0
 10
-1.679570176866319
 20
-4.049106852213542
 30
0.0
 10
-1.679570176866319
 20
-4.049106852213542
 30
0.0
  0
INSERT
  5
68
330
22
100
AcDbEntity
  8
LAYER_1
 62
     7
100
AcDbBlockReference
  2
AI9-BLK13
 10
1.883347574869791
 20
-2.921785481770833
 30
0.0
  0
INSERT
  5
62
330
22
100
AcDbEntity
  8
LAYER_1
 62
     7
100
AcDbBlockReference
  2
AI9-BLK12
 10
1.876888020833333
 20
-0.24959716796875
 30
0.0
  0
INSERT
  5
5C
330
22
100
AcDbEntity
  8
LAYER_1
 62
     7
100
AcDbBlockReference
  2
AI9-BLK11
 10
1.816254340277778
 20
2.411739095052083
 30
0.0
  0
INSERT
  5
56
330
22
100
AcDbEntity
  8
LAYER_1
 62
     7
100
AcDbBlockReference
  2
AI9-BLK10
 10
0.9637654622395833
 20
-1.875940619574653
 30
0.0
  0
INSERT
  5
50
330
22
100
AcDbEntity
  8
LAYER_1
 62
     7
100
AcDbBlockReference
  2
AI9-BLK9
 10
0.7708401150173611
 20
1.281661648220486
 30
0.0
  0
INSERT
  5
4A
330
22
100
AcDbEntity
  8
LAYER_1
 62
     7
100
AcDbBlockReference
  2
AI9-BLK8
 10
0.8092529296875
 20
3.500733778211805
 30
0.0
  0
INSERT
  5
44
330
22
100
AcDbEntity
  8
LAYER_1
 62
     7
100
AcDbBlockReference
  2
AI9-BLK7
 10
-1.057213677300347
 20
-3.489278835720486
 30
0.0
  0
INSERT
  5
3E
330
22
100
AcDbEntity
  8
LAYER_1
 62
     7
100
AcDbBlockReference
  2
AI9-BLK6
 10
-1.015872531467014
 20
-0.8298373752170138
 30
0.0
  0
INSERT
  5
38
330
22
100
AcDbEntity
  8
LAYER_1
 62
     7
100
AcDbBlockReference
  2
AI9-BLK5
 10
-1.001058620876736
 20
1.811603461371528
 30
0.0
  0
INSERT
  5
32
330
22
100
AcDbEntity
  8
LAYER_1
 62
     7
100
AcDbBlockReference
  2
AI9-BLK4
 10
-1.831929524739583
 20
-2.344818115234375
 30
0.0
  0
INSERT
  5
2C
330
22
100
AcDbEntity
  8
LAYER_1
 62
     7
100
AcDbBlockReference
  2
AI9-BLK3
 10
-1.945100911458333
 20
0.5887668185763888
 30
0.0
  0
INSERT
  5
26
330
22
100
AcDbEntity
  8
LAYER_1
 62
     7
100
AcDbBlockReference
  2
AI9-BLK2
 10
-2.002978515625
 20
2.996371799045138
 30
0.0
  0
ENDBLK
  5
6E
330
22
100
AcDbEntity
  8
LAYER_1
100
AcDbBlockEnd
  0
BLOCK
  5
27
330
25
100
AcDbEntity
  8
LAYER_1
 62
     7
100
AcDbBlockBegin
  2
AI9-BLK2
 70
     0
 10
0.0
 20
0.0
 30
0.0
  3
AI9-BLK2
  1

  4

  0
SPLINE
  5
29
330
25
100
AcDbEntity
  8
LAYER_1
 62
     7
100
AcDbSpline
210
0.0
220
0.0
230
1.0
 70
    11
 71
     3
 72
    14
 73
    10
 74
     0
 42
0.00000001
 43
0.00000001
 40
0.0
 40
0.0
 40
0.0
 40
0.0
 40
1.0
 40
1.0
 40
1.0
 40
2.0
 40
2.0
 40
2.0
 40
3.0
 40
3.0
 40
3.0
 40
3.0
 10
0.092242431640625
 20
0.1754414876302083
 30
0.0
 10
0.3302985297309027
 20
0.0050815158420139
 30
0.0
 10
0.1101569281684028
 20
-0.3928270128038194
 30
0.0
 10
-0.1570102267795139
 20
-0.1959398057725694
 30
0.0
 10
-0.3742234971788194
 20
-0.036431884765625
 30
0.0
 10
-0.2005906846788194
 20
0.241070556640625
 30
0.0
 10
0.0123162163628472
 20
0.1959398057725694
 30
0.0
 10
0.0340203179253472
 20
0.191461181640625
 30
0.0
 10
0.0667487250434028
 20
0.1937004937065972
 30
0.0
 10
0.092242431640625
 20
0.1754414876302083
 30
0.0
  0
SPLINE
  5
28
330
25
100
AcDbEntity
  8
LAYER_1
 62
     7
100
AcDbSpline
210
0.0
220
0.0
230
1.0
 70
    11
 71
     3
 72
    11
 73
     7
 74
     0
 42
0.00000001
 43
0.00000001
 40
0.0
 40
0.0
 40
0.0
 40
0.0
 40
1.0
 40
1.0
 40
1.0
 40
2.0
 40
2.0
 40
2.0
 40
2.0
 10
0.0779452853732639
 20
0.1020609537760417
 30
0.0
 10
-0.0476284450954861
 20
0.1862935384114583
 30
0.0
 10
-0.3206522623697917
 20
-0.0233405219184028
 30
0.0
 10
-0.1067118326822917
 20
-0.1663119845920139
 30
0.0
 10
0.0841464572482639
 20
-0.293780517578125
 30
0.0
 10
0.2307352701822917
 20
0.0000861273871528
 30
0.0
 10
0.0779452853732639
 20
0.1020609537760417
 30
0.0
  0
ENDBLK
  5
2A
330
25
100
AcDbEntity
  8
LAYER_1
100
AcDbBlockEnd
  0
BLOCK
  5
2D
330
2B
100
AcDbEntity
  8
LAYER_1
 62
     7
100
AcDbBlockBegin
  2
AI9-BLK3
 70
     0
 10
0.0
 20
0.0
 30
0.0
  3
AI9-BLK3
  1

  4

  0
SPLINE
  5
2F
330
2B
100
AcDbEntity
  8
LAYER_1
 62
     7
100
AcDbSpline
210
0.0
220
0.0
230
1.0
 70
    11
 71
     3
 72
    32
 73
    28
 74
     0
 42
0.00000001
 43
0.00000001
 40
0.0
 40
0.0
 40
0.0
 40
0.0
 40
1.0
 40
1.0
 40
1.0
 40
2.0
 40
2.0
 40
2.0
 40
3.0
 40
3.0
 40
3.0
 40
4.0
 40
4.0
 40
4.0
 40
5.0
 40
5.0
 40
5.0
 40
6.0
 40
6.0
 40
6.0
 40
7.0
 40
7.0
 40
7.0
 40
8.0
 40
8.0
 40
8.0
 40
9.0
 40
9.0
 40
9.0
 40
9.0
 10
0.109295654296875
 20
0.239520263671875
 30
0.0
 10
0.1425408257378472
 20
0.2247063530815972
 30
0.0
 10
0.2030022515190972
 20
0.1940450032552083
 30
0.0
 10
0.2274624294704861
 20
0.1671732584635416
 30
0.0
 10
0.2419318305121528
 20
0.1514980740017361
 30
0.0
 10
0.2398647732204861
 20
0.1110182020399305
 30
0.0
 10
0.2460659450954861
 20
0.0908643934461806
 30
0.0
 10
0.2531283908420139
 20
0.0665764702690972
 30
0.0
 10
0.268975830078125
 20
0.0476284450954861
 30
0.0
 10
0.268975830078125
 20
0.0221347384982639
 30
0.0
 10
0.2691480848524305
 20
0.0112826877170139
 30
0.0
 10
0.2574347601996528
 20
-0.0028422037760417
 30
0.0
 10
0.2576070149739583
 20
-0.0140387641059028
 30
0.0
 10
0.2576070149739583
 20
-0.0140387641059028
 30
0.0
 10
0.2686313205295139
 20
-0.031781005859375
 30
0.0
 10
0.2686313205295139
 20
-0.031781005859375
 30
0.0
 10
0.2359029134114583
 20
-0.1921502007378472
 30
0.0
 10
0.0422885470920139
 20
-0.2803446451822916
 30
0.0
 10
-0.0646816677517361
 20
-0.239520263671875
 30
0.0
 10
-0.1752692328559028
 20
-0.1973178439670139
 30
0.0
 10
-0.270526123046875
 20
-0.070538330078125
 30
0.0
 10
-0.268975830078125
 20
-0.0061150444878472
 30
0.0
 10
-0.2682868109809027
 20
0.0283359103732639
 30
0.0
 10
-0.2479607476128472
 20
0.0529683430989583
 30
0.0
 10
-0.2315965440538194
 20
0.0901753743489583
 30
0.0
 10
-0.1582160101996528
 20
0.2577792697482639
 30
0.0
 10
-0.0402214898003472
 20
0.3075608995225694
 30
0.0
 10
0.109295654296875
 20
0.239520263671875
 30
0.0
  0
SPLINE
  5
2E
330
2B
100
AcDbEntity
  8
LAYER_1
 62
     7
100
AcDbSpline
210
0.0
220
0.0
230
1.0
 70
    11
 71
     3
 72
    17
 73
    13
 74
     0
 42
0.00000001
 43
0.00000001
 40
0.0
 40
0.0
 40
0.0
 40
0.0
 40
1.0
 40
1.0
 40
1.0
 40
2.0
 40
2.0
 40
2.0
 40
3.0
 40
3.0
 40
3.0
 40
4.0
 40
4.0
 40
4.0
 40
4.0
 10
0.1020609537760417
 20
0.1571824815538194
 30
0.0
 10
0.0924146864149305
 20
0.160455322265625
 30
0.0
 10
0.0731221516927083
 20
0.1483974880642361
 30
0.0
 10
0.0639926486545139
 20
0.1478807237413194
 30
0.0
 10
0.0335035536024306
 20
0.1470194498697917
 30
0.0
 10
-0.0081821017795139
 20
0.149603271484375
 30
0.0
 10
-0.0328145345052083
 20
0.1313442654079861
 30
0.0
 10
-0.1532206217447917
 20
0.0433220757378472
 30
0.0
 10
-0.180609130859375
 20
-0.127899169921875
 30
0.0
 10
-0.0309197319878472
 20
-0.1842264811197917
 30
0.0
 10
0.1304829915364583
 20
-0.2448601616753472
 30
0.0
 10
0.3294372558593749
 20
0.0853522406684028
 30
0.0
 10
0.1020609537760417
 20
0.1571824815538194
 30
0.0
  0
ENDBLK
  5
30
330
2B
100
AcDbEntity
  8
LAYER_1
100
AcDbBlockEnd
  0
BLOCK
  5
33
330
31
100
AcDbEntity
  8
LAYER_1
 62
     7
100
AcDbBlockBegin
  2
AI9-BLK4
 70
     0
 10
0.0
 20
0.0
 30
0.0
  3
AI9-BLK4
  1

  4

  0
SPLINE
  5
35
330
31
100
AcDbEntity
  8
LAYER_1
 62
     7
100
AcDbSpline
210
0.0
220
0.0
230
1.0
 70
    11
 71
     3
 72
    32
 73
    28
 74
     0
 42
0.00000001
 43
0.00000001
 40
0.0
 40
0.0
 40
0.0
 40
0.0
 40
1.0
 40
1.0
 40
1.0
 40
2.0
 40
2.0
 40
2.0
 40
3.0
 40
3.0
 40
3.0
 40
4.0
 40
4.0
 40
4.0
 40
5.0
 40
5.0
 40
5.0
 40
6.0
 40
6.0
 40
6.0
 40
7.0
 40
7.0
 40
7.0
 40
8.0
 40
8.0
 40
8.0
 40
9.0
 40
9.0
 40
9.0
 40
9.0
 10
0.1857767740885417
 20
0.2098063151041666
 30
0.0
 10
0.2722486707899305
 20
0.1197170681423611
 30
0.0
 10
0.2789666069878472
 20
-0.0091295030381944
 30
0.0
 10
0.2295294867621528
 20
-0.0761366102430556
 30
0.0
 10
0.2102369520399305
 20
-0.1024915907118056
 30
0.0
 10
0.1900831434461806
 20
-0.1098985460069444
 30
0.0
 10
0.1670010036892361
 20
-0.1319471571180556
 30
0.0
 10
0.1346171061197917
 20
-0.16278076171875
 30
0.0
 10
0.0872470431857639
 20
-0.2053276909722222
 30
0.0
 10
0.041082763671875
 20
-0.2098063151041666
 30
0.0
 10
0.0195509168836806
 20
-0.2117011176215278
 30
0.0
 10
0.0002583821614583
 20
-0.1930976019965278
 30
0.0
 10
-0.0212734646267361
 20
-0.18603515625
 30
0.0
 10
-0.0453891330295139
 20
-0.1777669270833333
 30
0.0
 10
-0.0776007758246528
 20
-0.1763888888888889
 30
0.0
 10
-0.1020609537760417
 20
-0.1522732204861111
 30
0.0
 10
-0.1477084689670139
 20
-0.105419921875
 30
0.0
 10
-0.1659674750434028
 20
-0.0430636935763889
 30
0.0
 10
-0.1830206976996528
 20
-0.0055121527777778
 30
0.0
 10
-0.2042080349392361
 20
0.04185791015625
 30
0.0
 10
-0.2300462510850694
 20
0.0661458333333333
 30
0.0
 10
-0.2295294867621528
 20
0.1085205078125
 30
0.0
 10
-0.2297017415364583
 20
0.1316026475694444
 30
0.0
 10
-0.210064697265625
 20
0.1546847873263889
 30
0.0
 10
-0.1983513726128472
 20
0.1760443793402778
 30
0.0
 10
-0.1120517306857639
 20
0.3334852430555556
 30
0.0
 10
0.0834574381510417
 20
0.3171210394965278
 30
0.0
 10
0.1857767740885417
 20
0.2098063151041666
 30
0.0
  0
SPLINE
  5
34
330
31
100
AcDbEntity
  8
LAYER_1
 62
     7
100
AcDbSpline
210
0.0
220
0.0
230
1.0
 70
    11
 71
     3
 72
    23
 73
    19
 74
     0
 42
0.00000001
 43
0.00000001
 40
0.0
 40
0.0
 40
0.0
 40
0.0
 40
1.0
 40
1.0
 40
1.0
 40
2.0
 40
2.0
 40
2.0
 40
3.0
 40
3.0
 40
3.0
 40
4.0
 40
4.0
 40
4.0
 40
5.0
 40
5.0
 40
5.0
 40
6.0
 40
6.0
 40
6.0
 40
6.0
 10
0.1404737684461805
 20
0.1781114366319444
 30
0.0
 10
0.1373731825086806
 20
0.1801784939236111
 30
0.0
 10
0.1117072211371528
 20
0.1762166341145833
 30
0.0
 10
0.1070563422309028
 20
0.1770779079861111
 30
0.0
 10
-0.0049092610677083
 20
0.1992987738715278
 30
0.0
 10
-0.0665764702690972
 20
0.1403876410590278
 30
0.0
 10
-0.1280714246961806
 20
0.0447862413194444
 30
0.0
 10
-0.1254876030815972
 20
0.0408243815104167
 30
0.0
 10
-0.1118794759114583
 20
0.0275607638888889
 30
0.0
 10
-0.1118794759114583
 20
0.0220486111111111
 30
0.0
 10
-0.1118794759114583
 20
0.01085205078125
 30
0.0
 10
-0.1244540744357639
 20
0.0022393120659722
 30
0.0
 10
-0.1237650553385417
 20
-0.0091295030381944
 30
0.0
 10
-0.1223870171440972
 20
-0.0335896809895833
 30
0.0
 10
-0.0794955783420139
 20
-0.1042141384548611
 30
0.0
 10
-0.0512457953559028
 20
-0.1278130425347222
 30
0.0
 10
0.0579637315538194
 20
-0.217041015625
 30
0.0
 10
0.3366719563802083
 20
0.0313503689236111
 30
0.0
 10
0.1404737684461805
 20
0.1781114366319444
 30
0.0
  0
ENDBLK
  5
36
330
31
100
AcDbEntity
  8
LAYER_1
100
AcDbBlockEnd
  0
BLOCK
  5
39
330
37
100
AcDbEntity
  8
LAYER_1
 62
     7
100
AcDbBlockBegin
  2
AI9-BLK5
 70
     0
 10
0.0
 20
0.0
 30
0.0
  3
AI9-BLK5
  1

  4

  0
SPLINE
  5
3B
330
37
100
AcDbEntity
  8
LAYER_1
 62
     7
100
AcDbSpline
210
0.0
220
0.0
230
1.0
 70
    11
 71
     3
 72
    20
 73
    16
 74
     0
 42
0.00000001
 43
0.00000001
 40
0.0
 40
0.0
 40
0.0
 40
0.0
 40
1.0
 40
1.0
 40
1.0
 40
2.0
 40
2.0
 40
2.0
 40
3.0
 40
3.0
 40
3.0
 40
4.0
 40
4.0
 40
4.0
 40
5.0
 40
5.0
 40
5.0
 40
5.0
 10
0.0923285590277778
 20
0.225567626953125
 30
0.0
 10
0.1326361762152778
 20
0.2092034233940972
 30
0.0
 10
0.18603515625
 20
0.1719963921440972
 30
0.0
 10
0.2054999457465278
 20
0.144952392578125
 30
0.0
 10
0.2409844292534722
 20
0.0965488009982639
 30
0.0
 10
0.2423624674479167
 20
-0.0862135145399306
 30
0.0
 10
0.1651923285590278
 20
-0.1670010036892361
 30
0.0
 10
0.1157552083333333
 20
-0.2190219455295139
 30
0.0
 10
-0.0401353624131944
 20
-0.2586405436197917
 30
0.0
 10
-0.1098985460069444
 20
-0.225567626953125
 30
0.0
 10
-0.1453830295138889
 20
-0.208514404296875
 30
0.0
 10
-0.1856906467013889
 20
-0.1568379720052083
 30
0.0
 10
-0.2054999457465278
 20
-0.134100341796875
 30
0.0
 10
-0.3953247070312499
 20
0.0851799858940972
 30
0.0
 10
-0.1148939344618055
 20
0.3115227593315972
 30
0.0
 10
0.0923285590277778
 20
0.225567626953125
 30
0.0
  0
SPLINE
  5
3A
330
37
100
AcDbEntity
  8
LAYER_1
 62
     7
100
AcDbSpline
210
0.0
220
0.0
230
1.0
 70
    11
 71
     3
 72
    11
 73
     7
 74
     0
 42
0.00000001
 43
0.00000001
 40
0.0
 40
0.0
 40
0.0
 40
0.0
 40
1.0
 40
1.0
 40
1.0
 40
2.0
 40
2.0
 40
2.0
 40
2.0
 10
0.0947401258680556
 20
0.1590772840711806
 30
0.0
 10
-0.0556382921006944
 20
0.2245340983072917
 30
0.0
 10
-0.2855984157986111
 20
-0.0727776421440972
 30
0.0
 10
-0.0632175021701389
 20
-0.1675177680121528
 30
0.0
 10
0.11007080078125
 20
-0.241070556640625
 30
0.0
 10
0.2938666449652778
 20
0.0724331325954861
 30
0.0
 10
0.0947401258680556
 20
0.1590772840711806
 30
0.0
  0
ENDBLK
  5
3C
330
37
100
AcDbEntity
  8
LAYER_1
100
AcDbBlockEnd
  0
BLOCK
  5
3F
330
3D
100
AcDbEntity
  8
LAYER_1
 62
     7
100
AcDbBlockBegin
  2
AI9-BLK6
 70
     0
 10
0.0
 20
0.0
 30
0.0
  3
AI9-BLK6
  1

  4

  0
SPLINE
  5
41
330
3D
100
AcDbEntity
  8
LAYER_1
 62
     7
100
AcDbSpline
210
0.0
220
0.0
230
1.0
 70
    11
 71
     3
 72
    41
 73
    37
 74
     0
 42
0.00000001
 43
0.00000001
 40
0.0
 40
0.0
 40
0.0
 40
0.0
 40
1.0
 40
1.0
 40
1.0
 40
2.0
 40
2.0
 40
2.0
 40
3.0
 40
3.0
 40
3.0
 40
4.0
 40
4.0
 40
4.0
 40
5.0
 40
5.0
 40
5.0
 40
6.0
 40
6.0
 40
6.0
 40
7.0
 40
7.0
 40
7.0
 40
8.0
 40
8.0
 40
8.0
 40
9.0
 40
9.0
 40
9.0
 40
10.0
 40
10.0
 40
10.0
 40
11.0
 40
11.0
 40
11.0
 40
12.0
 40
12.0
 40
12.0
 40
12.0
 10
0.1913750542534722
 20
0.1710489908854166
 30
0.0
 10
0.2342664930555555
 20
0.1355645073784722
 30
0.0
 10
0.2575208875868055
 20
0.0539157443576389
 30
0.0
 10
0.2568318684895833
 20
0.0089572482638889
 30
0.0
 10
0.2551093207465278
 20
-0.0513319227430556
 30
0.0
 10
0.2223809136284722
 20
-0.0985297309027778
 30
0.0
 10
0.1755276150173611
 20
-0.1495171440972222
 30
0.0
 10
0.1419379340277778
 20
-0.1858629014756944
 30
0.0
 10
0.1269517686631944
 20
-0.2184190538194444
 30
0.0
 10
0.0899169921875
 20
-0.23564453125
 30
0.0
 10
0.0733805338541667
 20
-0.2432237413194444
 30
0.0
 10
-0.0031005859375
 20
-0.2530422634548611
 30
0.0
 10
-0.0210150824652778
 20
-0.2466688368055555
 30
0.0
 10
-0.0311781141493056
 20
-0.2423624674479167
 30
0.0
 10
-0.0406521267361111
 20
-0.2282375759548611
 30
0.0
 10
-0.0509874131944444
 20
-0.22479248046875
 30
0.0
 10
-0.07286376953125
 20
-0.2161797417534722
 30
0.0
 10
-0.1362535264756944
 20
-0.19688720703125
 30
0.0
 10
-0.1569240993923611
 20
-0.1819010416666667
 30
0.0
 10
-0.1803507486979167
 20
-0.1645033094618056
 30
0.0
 10
-0.1944756401909722
 20
-0.1285020616319444
 30
0.0
 10
-0.2079115125868055
 20
-0.1104153103298611
 30
0.0
 10
-0.2246202256944444
 20
-0.0880221896701389
 30
0.0
 10
-0.2466688368055555
 20
-0.0747585720486111
 30
0.0
 10
-0.2568318684895833
 20
-0.0520209418402778
 30
0.0
 10
-0.2821533203125
 20
0.0058566623263889
 30
0.0
 10
-0.2676839192708333
 20
0.1390096028645833
 30
0.0
 10
-0.1791449652777778
 20
0.2120456271701389
 30
0.0
 10
-0.1765611436631944
 20
0.2099785698784722
 30
0.0
 10
-0.1741495768229167
 20
0.2080837673611111
 30
0.0
 10
-0.1717380099826389
 20
0.2063612196180555
 30
0.0
 10
-0.1450385199652778
 20
0.22169189453125
 30
0.0
 10
-0.1124823676215278
 20
0.2368503146701389
 30
0.0
 10
-0.0854383680555555
 20
0.2466688368055555
 30
0.0
 10
-0.0068901909722222
 20
0.2747463650173611
 30
0.0
 10
0.0993910047743055
 20
0.2475301106770833
 30
0.0
 10
0.1913750542534722
 20
0.1710489908854166
 30
0.0
  0
SPLINE
  5
40
330
3D
100
AcDbEntity
  8
LAYER_1
 62
     7
100
AcDbSpline
210
0.0
220
0.0
230
1.0
 70
    11
 71
     3
 72
    32
 73
    28
 74
     0
 42
0.00000001
 43
0.00000001
 40
0.0
 40
0.0
 40
0.0
 40
0.0
 40
1.0
 40
1.0
 40
1.0
 40
2.0
 40
2.0
 40
2.0
 40
3.0
 40
3.0
 40
3.0
 40
4.0
 40
4.0
 40
4.0
 40
5.0
 40
5.0
 40
5.0
 40
6.0
 40
6.0
 40
6.0
 40
7.0
 40
7.0
 40
7.0
 40
8.0
 40
8.0
 40
8.0
 40
9.0
 40
9.0
 40
9.0
 40
9.0
 10
0.0783759223090278
 20
0.1731160481770833
 30
0.0
 10
0.0566718207465278
 20
0.1810397677951389
 30
0.0
 10
0.04185791015625
 20
0.1648478190104167
 30
0.0
 10
0.0213595920138889
 20
0.1576131184895833
 30
0.0
 10
-0.0485758463541667
 20
0.1319471571180556
 30
0.0
 10
-0.1781114366319444
 20
0.0194647894965278
 30
0.0
 10
-0.1474500868055556
 20
-0.0745863172743056
 30
0.0
 10
-0.1398708767361111
 20
-0.0973239474826389
 30
0.0
 10
-0.1202338324652778
 20
-0.1047309027777778
 30
0.0
 10
-0.1057644314236111
 20
-0.1274685329861111
 30
0.0
 10
-0.1076592339409722
 20
-0.130224609375
 30
0.0
 10
-0.1095540364583333
 20
-0.1324639214409722
 30
0.0
 10
-0.1112765842013889
 20
-0.13487548828125
 30
0.0
 10
-0.0768256293402778
 20
-0.1531344943576389
 30
0.0
 10
-0.0596001519097222
 20
-0.1774224175347222
 30
0.0
 10
-0.0235989040798611
 20
-0.1874131944444444
 30
0.0
 10
-0.0079237196180556
 20
-0.1915473090277778
 30
0.0
 10
0.0608059353298611
 20
-0.1862074110243056
 30
0.0
 10
0.0742418077256944
 20
-0.1786282009548611
 30
0.0
 10
0.1450385199652778
 20
-0.1381483289930555
 30
0.0
 10
0.2191080729166667
 20
0.0161919487847222
 30
0.0
 10
0.1948201497395833
 20
0.0656290690104167
 30
0.0
 10
0.1837958441840278
 20
0.0878499348958333
 30
0.0
 10
0.1667426215277778
 20
0.09146728515625
 30
0.0
 10
0.1477945963541666
 20
0.1111043294270833
 30
0.0
 10
0.13642578125
 20
0.1229899088541667
 30
0.0
 10
0.1083482530381944
 20
0.1622639973958333
 30
0.0
 10
0.0783759223090278
 20
0.1731160481770833
 30
0.0
  0
ENDBLK
  5
42
330
3D
100
AcDbEntity
  8
LAYER_1
100
AcDbBlockEnd
  0
BLOCK
  5
45
330
43
100
AcDbEntity
  8
LAYER_1
 62
     7
100
AcDbBlockBegin
  2
AI9-BLK7
 70
     0
 10
0.0
 20
0.0
 30
0.0
  3
AI9-BLK7
  1

  4

  0
SPLINE
  5
47
330
43
100
AcDbEntity
  8
LAYER_1
 62
     7
100
AcDbSpline
210
0.0
220
0.0
230
1.0
 70
    11
 71
     3
 72
    29
 73
    25
 74
     0
 42
0.00000001
 43
0.00000001
 40
0.0
 40
0.0
 40
0.0
 40
0.0
 40
1.0
 40
1.0
 40
1.0
 40
2.0
 40
2.0
 40
2.0
 40
3.0
 40
3.0
 40
3.0
 40
4.0
 40
4.0
 40
4.0
 40
5.0
 40
5.0
 40
5.0
 40
6.0
 40
6.0
 40
6.0
 40
7.0
 40
7.0
 40
7.0
 40
8.0
 40
8.0
 40
8.0
 40
8.0
 10
0.1042141384548611
 20
0.2463243272569444
 30
0.0
 10
0.4602647569444444
 20
0.0704522026909722
 30
0.0
 10
0.1846571180555555
 20
-0.3825778537326389
 30
0.0
 10
-0.0706244574652778
 20
-0.2537312825520833
 30
0.0
 10
-0.1171332465277778
 20
-0.2301323784722222
 30
0.0
 10
-0.1433159722222222
 20
-0.1887912326388889
 30
0.0
 10
-0.1651923285590278
 20
-0.1634697808159722
 30
0.0
 10
-0.19688720703125
 20
-0.1267795138888889
 30
0.0
 10
-0.2297878689236111
 20
-0.1024915907118056
 30
0.0
 10
-0.2416734483506944
 20
-0.0637342664930556
 30
0.0
 10
-0.2468410915798611
 20
-0.0468532986111111
 30
0.0
 10
-0.2349555121527778
 20
-0.0401353624131944
 30
0.0
 10
-0.2353000217013889
 20
-0.0227376302083333
 30
0.0
 10
-0.2354722764756944
 20
-0.0018948025173611
 30
0.0
 10
-0.2514919704861111
 20
0.0198092990451389
 30
0.0
 10
-0.2459798177083333
 20
0.04185791015625
 30
0.0
 10
-0.2425347222222222
 20
0.0554660373263889
 30
0.0
 10
-0.2258260091145833
 20
0.06666259765625
 30
0.0
 10
-0.2192803276909722
 20
0.0795817057291667
 30
0.0
 10
-0.1495171440972222
 20
0.2158352322048611
 30
0.0
 10
-0.1012858072916667
 20
0.2602769639756944
 30
0.0
 10
0.0301445855034722
 20
0.2537312825520833
 30
0.0
 10
0.0533989800347222
 20
0.2530422634548611
 30
0.0
 10
0.0769978841145833
 20
0.2601047092013888
 30
0.0
 10
0.1042141384548611
 20
0.2463243272569444
 30
0.0
  0
SPLINE
  5
46
330
43
100
AcDbEntity
  8
LAYER_1
 62
     7
100
AcDbSpline
210
0.0
220
0.0
230
1.0
 70
    11
 71
     3
 72
    20
 73
    16
 74
     0
 42
0.00000001
 43
0.00000001
 40
0.0
 40
0.0
 40
0.0
 40
0.0
 40
1.0
 40
1.0
 40
1.0
 40
2.0
 40
2.0
 40
2.0
 40
3.0
 40
3.0
 40
3.0
 40
4.0
 40
4.0
 40
4.0
 40
5.0
 40
5.0
 40
5.0
 40
5.0
 10
0.1271240234375
 20
0.1507229275173611
 30
0.0
 10
0.1271240234375
 20
0.1507229275173611
 30
0.0
 10
0.1011135525173611
 20
0.1462443033854167
 30
0.0
 10
0.1011135525173611
 20
0.1462443033854167
 30
0.0
 10
-0.0613226996527778
 20
0.17208251953125
 30
0.0
 10
-0.2628607855902778
 20
-0.1049031575520833
 30
0.0
 10
-0.0380683051215278
 20
-0.2086005316840278
 30
0.0
 10
-0.0070624457465278
 20
-0.2225531684027778
 30
0.0
 10
0.0256659613715278
 20
-0.2103230794270833
 30
0.0
 10
0.0540879991319444
 20
-0.2063612196180555
 30
0.0
 10
0.068212890625
 20
-0.2042941623263889
 30
0.0
 10
0.1019748263888889
 20
-0.20928955078125
 30
0.0
 10
0.11317138671875
 20
-0.20308837890625
 30
0.0
 10
0.2416734483506944
 20
-0.1322916666666666
 30
0.0
 10
0.2576931423611111
 20
0.0978407118055556
 30
0.0
 10
0.1271240234375
 20
0.1507229275173611
 30
0.0
  0
ENDBLK
  5
48
330
43
100
AcDbEntity
  8
LAYER_1
100
AcDbBlockEnd
  0
BLOCK
  5
4B
330
49
100
AcDbEntity
  8
LAYER_1
 62
     7
100
AcDbBlockBegin
  2
AI9-BLK8
 70
     0
 10
0.0
 20
0.0
 30
0.0
  3
AI9-BLK8
  1

  4

  0
SPLINE
  5
4D
330
49
100
AcDbEntity
  8
LAYER_1
 62
     7
100
AcDbSpline
210
0.0
220
0.0
230
1.0
 70
    11
 71
     3
 72
    23
 73
    19
 74
     0
 42
0.00000001
 43
0.00000001
 40
0.0
 40
0.0
 40
0.0
 40
0.0
 40
1.0
 40
1.0
 40
1.0
 40
2.0
 40
2.0
 40
2.0
 40
3.0
 40
3.0
 40
3.0
 40
4.0
 40
4.0
 40
4.0
 40
5.0
 40
5.0
 40
5.0
 40
6.0
 40
6.0
 40
6.0
 40
6.0
 10
-0.0436665852864583
 20
0.2438266330295139
 30
0.0
 10
0.3196187337239583
 20
0.2421040852864583
 30
0.0
 10
0.2508890787760417
 20
-0.2438266330295139
 30
0.0
 10
-0.0035312228732639
 20
-0.2438266330295139
 30
0.0
 10
-0.0527960883246528
 20
-0.2434821234809028
 30
0.0
 10
-0.1730299207899305
 20
-0.2154045952690972
 30
0.0
 10
-0.2017964680989583
 20
-0.1969733344184028
 30
0.0
 10
-0.2040357801649305
 20
-0.1952507866753472
 30
0.0
 10
-0.205413818359375
 20
-0.1787143283420139
 30
0.0
 10
-0.2076531304253472
 20
-0.1768195258246528
 30
0.0
 10
-0.2862013075086805
 20
-0.1020609537760417
 30
0.0
 10
-0.3037712944878472
 20
0.0703660753038194
 30
0.0
 10
-0.2079976399739583
 20
0.171307373046875
 30
0.0
 10
-0.1795756022135417
 20
0.2016242133246528
 30
0.0
 10
-0.1366841634114583
 20
0.2119594997829861
 30
0.0
 10
-0.0943094889322917
 20
0.2252231174045139
 30
0.0
 10
-0.0794955783420139
 20
0.2300462510850694
 30
0.0
 10
-0.0624423556857639
 20
0.244171142578125
 30
0.0
 10
-0.0436665852864583
 20
0.2438266330295139
 30
0.0
  0
SPLINE
  5
4C
330
49
100
AcDbEntity
  8
LAYER_1
 62
     7
100
AcDbSpline
210
0.0
220
0.0
230
1.0
 70
    11
 71
     3
 72
    23
 73
    19
 74
     0
 42
0.00000001
 43
0.00000001
 40
0.0
 40
0.0
 40
0.0
 40
0.0
 40
1.0
 40
1.0
 40
1.0
 40
2.0
 40
2.0
 40
2.0
 40
3.0
 40
3.0
 40
3.0
 40
4.0
 40
4.0
 40
4.0
 40
5.0
 40
5.0
 40
5.0
 40
6.0
 40
6.0
 40
6.0
 40
6.0
 10
-0.0283359103732639
 20
0.1750969780815972
 30
0.0
 10
-0.033331298828125
 20
0.1745802137586806
 30
0.0
 10
-0.047283935546875
 20
0.1545986599392361
 30
0.0
 10
-0.0515903049045139
 20
0.151153564453125
 30
0.0
 10
-0.0641649034288194
 20
0.1432298448350694
 30
0.0
 10
-0.0943094889322917
 20
0.1346171061197917
 30
0.0
 10
-0.1039557562934028
 20
0.1234205457899305
 30
0.0
 10
-0.1950785319010417
 20
0.0219624837239583
 30
0.0
 10
-0.1769917805989583
 20
-0.1842264811197917
 30
0.0
 10
-0.011627197265625
 20
-0.1859490288628472
 30
0.0
 10
0.0340203179253472
 20
-0.1861212836371528
 30
0.0
 10
0.0546908908420139
 20
-0.154254150390625
 30
0.0
 10
0.0838019476996528
 20
-0.1284159342447917
 30
0.0
 10
0.0960320366753472
 20
-0.1172193739149306
 30
0.0
 10
0.1304829915364583
 20
-0.1063673231336806
 30
0.0
 10
0.1378899468315972
 20
-0.0913811577690972
 30
0.0
 10
0.1954230414496528
 20
0.0267856174045139
 30
0.0
 10
0.1075731065538194
 20
0.1924947102864583
 30
0.0
 10
-0.0283359103732639
 20
0.1750969780815972
 30
0.0
  0
ENDBLK
  5
4E
330
49
100
AcDbEntity
  8
LAYER_1
100
AcDbBlockEnd
  0
BLOCK
  5
51
330
4F
100
AcDbEntity
  8
LAYER_1
 62
     7
100
AcDbBlockBegin
  2
AI9-BLK9
 70
     0
 10
0.0
 20
0.0
 30
0.0
  3
AI9-BLK9
  1

  4

  0
SPLINE
  5
53
330
4F
100
AcDbEntity
  8
LAYER_1
 62
     7
100
AcDbSpline
210
0.0
220
0.0
230
1.0
 70
    11
 71
     3
 72
    29
 73
    25
 74
     0
 42
0.00000001
 43
0.00000001
 40
0.0
 40
0.0
 40
0.0
 40
0.0
 40
1.0
 40
1.0
 40
1.0
 40
2.0
 40
2.0
 40
2.0
 40
3.0
 40
3.0
 40
3.0
 40
4.0
 40
4.0
 40
4.0
 40
5.0
 40
5.0
 40
5.0
 40
6.0
 40
6.0
 40
6.0
 40
7.0
 40
7.0
 40
7.0
 40
8.0
 40
8.0
 40
8.0
 40
8.0
 10
0.0390157063802083
 20
0.2611382378472222
 30
0.0
 10
0.0980990939670139
 20
0.2523532443576388
 30
0.0
 10
0.1285881890190972
 20
0.2151462131076389
 30
0.0
 10
0.1583882649739583
 20
0.1858629014756944
 30
0.0
 10
0.206964111328125
 20
0.1376315646701389
 30
0.0
 10
0.2589850531684028
 20
0.0640787760416667
 30
0.0
 10
0.2569179958767361
 20
-0.0172254774305556
 30
0.0
 10
0.2526116265190972
 20
-0.1655368381076389
 30
0.0
 10
0.1008551703559028
 20
-0.2931776258680555
 30
0.0
 10
-0.0350538465711806
 20
-0.2611382378472222
 30
0.0
 10
-0.0486619737413194
 20
-0.2575208875868055
 30
0.0
 10
-0.0865580240885417
 20
-0.2275485568576389
 30
0.0
 10
-0.0944817437065972
 20
-0.2234144422743055
 30
0.0
 10
-0.1492587619357639
 20
-0.1929253472222222
 30
0.0
 10
-0.2143710666232639
 20
-0.1601969401041667
 30
0.0
 10
-0.2352138943142361
 20
-0.1071424696180555
 30
0.0
 10
-0.2431376139322916
 20
-0.0864718967013889
 30
0.0
 10
-0.2329745822482639
 20
-0.0845770941840278
 30
0.0
 10
-0.2369364420572916
 20
-0.0601169162326389
 30
0.0
 10
-0.2386589898003472
 20
-0.0499538845486111
 30
0.0
 10
-0.2569179958767361
 20
-0.0180867513020833
 30
0.0
 10
-0.2569179958767361
 20
-0.0101630316840278
 30
0.0
 10
-0.2662197536892361
 20
0.1786282009548611
 30
0.0
 10
-0.1055060492621528
 20
0.2830145941840278
 30
0.0
 10
0.0390157063802083
 20
0.2611382378472222
 30
0.0
  0
SPLINE
  5
52
330
4F
100
AcDbEntity
  8
LAYER_1
 62
     7
100
AcDbSpline
210
0.0
220
0.0
230
1.0
 70
    11
 71
     3
 72
    26
 73
    22
 74
     0
 42
0.00000001
 43
0.00000001
 40
0.0
 40
0.0
 40
0.0
 40
0.0
 40
1.0
 40
1.0
 40
1.0
 40
2.0
 40
2.0
 40
2.0
 40
3.0
 40
3.0
 40
3.0
 40
4.0
 40
4.0
 40
4.0
 40
5.0
 40
5.0
 40
5.0
 40
6.0
 40
6.0
 40
6.0
 40
7.0
 40
7.0
 40
7.0
 40
7.0
 10
0.0231682671440972
 20
0.1607137044270833
 30
0.0
 10
-0.0557244194878472
 20
0.155029296875
 30
0.0
 10
-0.1923224555121528
 20
0.0204983181423611
 30
0.0
 10
-0.1590772840711806
 20
-0.1005967881944444
 30
0.0
 10
-0.1487419976128472
 20
-0.1386650933159722
 30
0.0
 10
-0.1049892849392361
 20
-0.1495171440972222
 30
0.0
 10
-0.067437744140625
 20
-0.1717380099826389
 30
0.0
 10
-0.0415995279947917
 20
-0.1863796657986111
 30
0.0
 10
-0.0164503309461806
 20
-0.21859130859375
 30
0.0
 10
0.0376376681857639
 20
-0.2163519965277778
 30
0.0
 10
0.068988037109375
 20
-0.2151462131076389
 30
0.0
 10
0.0912089029947917
 20
-0.1824178059895833
 30
0.0
 10
0.1117072211371528
 20
-0.16278076171875
 30
0.0
 10
0.1416795518663194
 20
-0.1331529405381944
 30
0.0
 10
0.1497755262586805
 20
-0.1281575520833333
 30
0.0
 10
0.1721686469184028
 20
-0.0787204318576389
 30
0.0
 10
0.1721686469184028
 20
-0.0787204318576389
 30
0.0
 10
0.1931837293836805
 20
-0.0632175021701389
 30
0.0
 10
0.1931837293836805
 20
-0.0632175021701389
 30
0.0
 10
0.2188496907552083
 20
0.0306613498263889
 30
0.0
 10
0.1394402398003472
 20
0.1694986979166667
 30
0.0
 10
0.0231682671440972
 20
0.1607137044270833
 30
0.0
  0
ENDBLK
  5
54
330
4F
100
AcDbEntity
  8
LAYER_1
100
AcDbBlockEnd
  0
BLOCK
  5
57
330
55
100
AcDbEntity
  8
LAYER_1
 62
     7
100
AcDbBlockBegin
  2
AI9-BLK10
 70
     0
 10
0.0
 20
0.0
 30
0.0
  3
AI9-BLK10
  1

  4

  0
SPLINE
  5
59
330
55
100
AcDbEntity
  8
LAYER_1
 62
     7
100
AcDbSpline
210
0.0
220
0.0
230
1.0
 70
    11
 71
     3
 72
    20
 73
    16
 74
     0
 42
0.00000001
 43
0.00000001
 40
0.0
 40
0.0
 40
0.0
 40
0.0
 40
1.0
 40
1.0
 40
1.0
 40
2.0
 40
2.0
 40
2.0
 40
3.0
 40
3.0
 40
3.0
 40
4.0
 40
4.0
 40
4.0
 40
5.0
 40
5.0
 40
5.0
 40
5.0
 10
0.0777730305989583
 20
0.2222086588541667
 30
0.0
 10
0.1315165201822917
 20
0.1974039713541667
 30
0.0
 10
0.2000739203559028
 20
0.1353922526041667
 30
0.0
 10
0.2188496907552083
 20
0.0993910047743055
 30
0.0
 10
0.2543341742621528
 20
0.03255615234375
 30
0.0
 10
0.231768798828125
 20
-0.1607137044270833
 30
0.0
 10
0.115496826171875
 20
-0.2184190538194444
 30
0.0
 10
0.0887973361545139
 20
-0.2315104166666666
 30
0.0
 10
0.0589972601996528
 20
-0.2177300347222222
 30
0.0
 10
0.0283359103732639
 20
-0.2179022894965278
 30
0.0
 10
0.0093878851996528
 20
-0.2173855251736111
 30
0.0
 10
-0.0295416937934028
 20
-0.2297878689236111
 30
0.0
 10
-0.0512457953559028
 20
-0.2222086588541667
 30
0.0
 10
-0.405401611328125
 20
-0.0887112087673611
 30
0.0
 10
-0.1869825575086805
 20
0.3436482747395833
 30
0.0
 10
0.0777730305989583
 20
0.2222086588541667
 30
0.0
  0
SPLINE
  5
58
330
55
100
AcDbEntity
  8
LAYER_1
 62
     7
100
AcDbSpline
210
0.0
220
0.0
230
1.0
 70
    11
 71
     3
 72
    11
 73
     7
 74
     0
 42
0.00000001
 43
0.00000001
 40
0.0
 40
0.0
 40
0.0
 40
0.0
 40
1.0
 40
1.0
 40
1.0
 40
2.0
 40
2.0
 40
2.0
 40
2.0
 10
0.0664042154947917
 20
0.1524454752604167
 30
0.0
 10
-0.0589972601996528
 20
0.1977484809027778
 30
0.0
 10
-0.2806891547309028
 20
-0.0956013997395833
 30
0.0
 10
-0.0214457194010417
 20
-0.1748385959201389
 30
0.0
 10
0.1113627115885417
 20
-0.2156629774305555
 30
0.0
 10
0.2982591417100694
 20
0.06976318359375
 30
0.0
 10
0.0664042154947917
 20
0.1524454752604167
 30
0.0
  0
ENDBLK
  5
5A
330
55
100
AcDbEntity
  8
LAYER_1
100
AcDbBlockEnd
  0
BLOCK
  5
5D
330
5B
100
AcDbEntity
  8
LAYER_1
 62
     7
100
AcDbBlockBegin
  2
AI9-BLK11
 70
     0
 10
0.0
 20
0.0
 30
0.0
  3
AI9-BLK11
  1

  4

  0
SPLINE
  5
5F
330
5B
100
AcDbEntity
  8
LAYER_1
 62
     7
100
AcDbSpline
210
0.0
220
0.0
230
1.0
 70
    11
 71
     3
 72
    17
 73
    13
 74
     0
 42
0.00000001
 43
0.00000001
 40
0.0
 40
0.0
 40
0.0
 40
0.0
 40
1.0
 40
1.0
 40
1.0
 40
2.0
 40
2.0
 40
2.0
 40
3.0
 40
3.0
 40
3.0
 40
4.0
 40
4.0
 40
4.0
 40
4.0
 10
0.1690680609809028
 20
0.2117872450086805
 30
0.0
 10
0.467413330078125
 20
-0.0322977701822917
 30
0.0
 10
0.0874192979600694
 20
-0.346490478515625
 30
0.0
 10
-0.0858690049913194
 20
-0.2117872450086805
 30
0.0
 10
-0.1432298448350694
 20
-0.1671732584635416
 30
0.0
 10
-0.160455322265625
 20
-0.1067118326822917
 30
0.0
 10
-0.1757859971788194
 20
-0.0688157823350694
 30
0.0
 10
-0.1988681369357639
 20
-0.0097323947482639
 30
0.0
 10
-0.2303907606336805
 20
0.0359151204427083
 30
0.0
 10
-0.2185051812065972
 20
0.0912089029947917
 30
0.0
 10
-0.1799201117621528
 20
0.2644972059461805
 30
0.0
 10
0.0750169542100694
 20
0.289129638671875
 30
0.0
 10
0.1690680609809028
 20
0.2117872450086805
 30
0.0
  0
SPLINE
  5
5E
330
5B
100
AcDbEntity
  8
LAYER_1
 62
     7
100
AcDbSpline
210
0.0
220
0.0
230
1.0
 70
    11
 71
     3
 72
    14
 73
    10
 74
     0
 42
0.00000001
 43
0.00000001
 40
0.0
 40
0.0
 40
0.0
 40
0.0
 40
1.0
 40
1.0
 40
1.0
 40
2.0
 40
2.0
 40
2.0
 40
3.0
 40
3.0
 40
3.0
 40
3.0
 10
0.1520148383246528
 20
0.1475362141927083
 30
0.0
 10
0.1520148383246528
 20
0.1475362141927083
 30
0.0
 10
0.132550048828125
 20
0.1421963161892361
 30
0.0
 10
0.1320332845052083
 20
0.1421963161892361
 30
0.0
 10
-0.0121439615885417
 20
0.1825039333767361
 30
0.0
 10
-0.2262566460503472
 20
-0.0262688530815972
 30
0.0
 10
-0.0505567762586806
 20
-0.1680345323350694
 30
0.0
 10
0.0779452853732639
 20
-0.2713873969184028
 30
0.0
 10
0.3687113444010416
 20
0.0092156304253472
 30
0.0
 10
0.1520148383246528
 20
0.1475362141927083
 30
0.0
  0
ENDBLK
  5
60
330
5B
100
AcDbEntity
  8
LAYER_1
100
AcDbBlockEnd
  0
BLOCK
  5
63
330
61
100
AcDbEntity
  8
LAYER_1
 62
     7
100
AcDbBlockBegin
  2
AI9-BLK12
 70
     0
 10
0.0
 20
0.0
 30
0.0
  3
AI9-BLK12
  1

  4

  0
SPLINE
  5
65
330
61
100
AcDbEntity
  8
LAYER_1
 62
     7
100
AcDbSpline
210
0.0
220
0.0
230
1.0
 70
    11
 71
     3
 72
    14
 73
    10
 74
     0
 42
0.00000001
 43
0.00000001
 40
0.0
 40
0.0
 40
0.0
 40
0.0
 40
1.0
 40
1.0
 40
1.0
 40
2.0
 40
2.0
 40
2.0
 40
3.0
 40
3.0
 40
3.0
 40
3.0
 10
0.0490064832899305
 20
0.2346971299913194
 30
0.0
 10
0.1711351182725694
 20
0.1954230414496528
 30
0.0
 10
0.2593295627170139
 20
0.0505567762586806
 30
0.0
 10
0.2414150661892361
 20
-0.041082763671875
 30
0.0
 10
0.2119594997829861
 20
-0.1921502007378472
 30
0.0
 10
0.0495232476128472
 20
-0.2629469129774306
 30
0.0
 10
-0.0546908908420139
 20
-0.2346971299913194
 30
0.0
 10
-0.3988559299045139
 20
-0.1415072970920139
 30
0.0
 10
-0.2429653591579861
 20
0.3285759819878472
 30
0.0
 10
0.0490064832899305
 20
0.2346971299913194
 30
0.0
  0
SPLINE
  5
64
330
61
100
AcDbEntity
  8
LAYER_1
 62
     7
100
AcDbSpline
210
0.0
220
0.0
230
1.0
 70
    11
 71
     3
 72
    29
 73
    25
 74
     0
 42
0.00000001
 43
0.00000001
 40
0.0
 40
0.0
 40
0.0
 40
0.0
 40
1.0
 40
1.0
 40
1.0
 40
2.0
 40
2.0
 40
2.0
 40
3.0
 40
3.0
 40
3.0
 40
4.0
 40
4.0
 40
4.0
 40
5.0
 40
5.0
 40
5.0
 40
6.0
 40
6.0
 40
6.0
 40
7.0
 40
7.0
 40
7.0
 40
8.0
 40
8.0
 40
8.0
 40
8.0
 10
0.0350538465711806
 20
0.1800923665364583
 30
0.0
 10
0.0202399359809028
 20
0.1833652072482639
 30
0.0
 10
-0.0083543565538194
 20
0.1685512966579861
 30
0.0
 10
-0.0217902289496528
 20
0.1647616916232639
 30
0.0
 10
-0.1110182020399305
 20
0.1409905327690972
 30
0.0
 10
-0.1304829915364583
 20
0.0777730305989583
 30
0.0
 10
-0.1446078830295139
 20
-0.024029541015625
 30
0.0
 10
-0.1489142523871528
 20
-0.053485107421875
 30
0.0
 10
-0.1644171820746528
 20
-0.0679545084635417
 30
0.0
 10
-0.1533928765190972
 20
-0.0908643934461806
 30
0.0
 10
-0.1370286729600694
 20
-0.1246263292100694
 30
0.0
 10
-0.068988037109375
 20
-0.168206787109375
 30
0.0
 10
-0.0117994520399306
 20
-0.1826761881510416
 30
0.0
 10
0.0572747124565972
 20
-0.1999016655815972
 30
0.0
 10
0.1773362901475694
 20
-0.1349616156684028
 30
0.0
 10
0.1954230414496528
 20
-0.0309197319878472
 30
0.0
 10
0.1954230414496528
 20
-0.0309197319878472
 30
0.0
 10
0.1823316786024306
 20
-0.0152445475260417
 30
0.0
 10
0.1823316786024306
 20
-0.0152445475260417
 30
0.0
 10
0.1804368760850694
 20
-0.003875732421875
 30
0.0
 10
0.1900831434461806
 20
0.0117994520399306
 30
0.0
 10
0.1885328504774305
 20
0.0226515028211806
 30
0.0
 10
0.1811258951822917
 20
0.0729498969184028
 30
0.0
 10
0.1175638834635417
 20
0.1626946343315972
 30
0.0
 10
0.0350538465711806
 20
0.1800923665364583
 30
0.0
  0
ENDBLK
  5
66
330
61
100
AcDbEntity
  8
LAYER_1
100
AcDbBlockEnd
  0
BLOCK
  5
69
330
67
100
AcDbEntity
  8
LAYER_1
 62
     7
100
AcDbBlockBegin
  2
AI9-BLK13
 70
     0
 10
0.0
 20
0.0
 30
0.0
  3
AI9-BLK13
  1

  4

  0
SPLINE
  5
6B
330
67
100
AcDbEntity
  8
LAYER_1
 62
     7
100
AcDbSpline
210
0.0
220
0.0
230
1.0
 70
    11
 71
     3
 72
    32
 73
    28
 74
     0
 42
0.00000001
 43
0.00000001
 40
0.0
 40
0.0
 40
0.0
 40
0.0
 40
1.0
 40
1.0
 40
1.0
 40
2.0
 40
2.0
 40
2.0
 40
3.0
 40
3.0
 40
3.0
 40
4.0
 40
4.0
 40
4.0
 40
5.0
 40
5.0
 40
5.0
 40
6.0
 40
6.0
 40
6.0
 40
7.0
 40
7.0
 40
7.0
 40
8.0
 40
8.0
 40
8.0
 40
9.0
 40
9.0
 40
9.0
 40
9.0
 10
0.1753553602430555
 20
0.1823316786024306
 30
0.0
 10
0.2044664171006944
 20
0.1568379720052083
 30
0.0
 10
0.2127346462673611
 20
0.1266933865017361
 30
0.0
 10
0.2266872829861111
 20
0.103094482421875
 30
0.0
 10
0.2874932183159722
 20
-0.0014641655815972
 30
0.0
 10
0.2669949001736111
 20
-0.0496955023871528
 30
0.0
 10
0.2025716145833333
 20
-0.1516703287760416
 30
0.0
 10
0.1929253472222222
 20
-0.166656494140625
 30
0.0
 10
0.1822455512152778
 20
-0.2005906846788194
 30
0.0
 10
0.1620917426215278
 20
-0.2164381239149305
 30
0.0
 10
0.1021470811631944
 20
-0.262774658203125
 30
0.0
 10
-0.0640787760416667
 20
-0.2564012315538194
 30
0.0
 10
-0.1254014756944444
 20
-0.1981791178385416
 30
0.0
 10
-0.1557183159722222
 20
-0.1695848253038194
 30
0.0
 10
-0.1636420355902778
 20
-0.1289326985677083
 30
0.0
 10
-0.1760443793402778
 20
-0.1060228135850694
 30
0.0
 10
-0.1965426974826389
 20
-0.0667487250434028
 30
0.0
 10
-0.2199693467881944
 20
-0.0509012858072917
 30
0.0
 10
-0.2266872829861111
 20
-0.0133497450086806
 30
0.0
 10
-0.2330607096354166
 20
0.0212734646267361
 30
0.0
 10
-0.2139404296875
 20
0.0558966742621528
 30
0.0
 10
-0.1989542643229167
 20
0.0908643934461806
 30
0.0
 10
-0.1347032335069444
 20
0.2403815375434028
 30
0.0
 10
-0.02015380859375
 20
0.2789666069878472
 30
0.0
 10
0.1042141384548611
 20
0.2164381239149305
 30
0.0
 10
0.1186835394965278
 20
0.2092034233940972
 30
0.0
 10
0.1601969401041667
 20
0.1962843153211805
 30
0.0
 10
0.1753553602430555
 20
0.1823316786024306
 30
0.0
  0
SPLINE
  5
6A
330
67
100
AcDbEntity
  8
LAYER_1
 62
     7
100
AcDbSpline
210
0.0
220
0.0
230
1.0
 70
    11
 71
     3
 72
    26
 73
    22
 74
     0
 42
0.00000001
 43
0.00000001
 40
0.0
 40
0.0
 40
0.0
 40
0.0
 40
1.0
 40
1.0
 40
1.0
 40
2.0
 40
2.0
 40
2.0
 40
3.0
 40
3.0
 40
3.0
 40
4.0
 40
4.0
 40
4.0
 40
5.0
 40
5.0
 40
5.0
 40
6.0
 40
6.0
 40
6.0
 40
7.0
 40
7.0
 40
7.0
 40
7.0
 10
0.1357367621527778
 20
0.1439188639322916
 30
0.0
 10
0.1283298068576389
 20
0.1494310167100694
 30
0.0
 10
0.0990464952256944
 20
0.1490865071614583
 30
0.0
 10
0.0900892469618056
 20
0.151153564453125
 30
0.0
 10
0.0191202799479167
 20
0.1706183539496528
 30
0.0
 10
-0.0973239474826389
 20
0.1323777940538194
 30
0.0
 10
-0.1278130425347222
 20
0.0305752224392361
 30
0.0
 10
-0.1350477430555555
 20
0.0074930826822917
 30
0.0
 10
-0.1205783420138889
 20
-0.022479248046875
 30
0.0
 10
-0.11627197265625
 20
-0.0478006998697917
 30
0.0
 10
-0.11007080078125
 20
-0.0839742024739583
 30
0.0
 10
-0.1024915907118056
 20
-0.1428853352864583
 30
0.0
 10
-0.0399631076388889
 20
-0.1800923665364583
 30
0.0
 10
-0.0239434136284722
 20
-0.1893941243489583
 30
0.0
 10
0.0089572482638889
 20
-0.1816426595052083
 30
0.0
 10
0.0254937065972222
 20
-0.1812981499565972
 30
0.0
 10
0.0490926106770833
 20
-0.1800923665364583
 30
0.0
 10
0.0956013997395833
 20
-0.1842264811197917
 30
0.0
 10
0.1169609917534722
 20
-0.169757080078125
 30
0.0
 10
0.2165242513020833
 20
-0.1022332085503472
 30
0.0
 10
0.2315104166666666
 20
0.0753614637586806
 30
0.0
 10
0.1357367621527778
 20
0.1439188639322916
 30
0.0
  0
ENDBLK
  5
6C
330
67
100
AcDbEntity
  8
LAYER_1
100
AcDbBlockEnd
  0
BLOCK
  5
71
330
6F
100
AcDbEntity
  8
LAYER_1
 62
     7
100
AcDbBlockBegin
  2
AI9-BLK14
 70
     0
 10
0.0
 20
0.0
 30
0.0
  3
AI9-BLK14
  1

  4

  0
SPLINE
  5
BA
330
6F
100
AcDbEntity
  8
LAYER_1
 62
     7
100
AcDbSpline
210
0.0
220
0.0
230
1.0
 70
    11
 71
     3
 72
   128
 73
   124
 74
     0
 42
0.00000001
 43
0.00000001
 40
0.0
 40
0.0
 40
0.0
 40
0.0
 40
1.0
 40
1.0
 40
1.0
 40
2.0
 40
2.0
 40
2.0
 40
3.0
 40
3.0
 40
3.0
 40
4.0
 40
4.0
 40
4.0
 40
5.0
 40
5.0
 40
5.0
 40
6.0
 40
6.0
 40
6.0
 40
7.0
 40
7.0
 40
7.0
 40
8.0
 40
8.0
 40
8.0
 40
9.0
 40
9.0
 40
9.0
 40
10.0
 40
10.0
 40
10.0
 40
11.0
 40
11.0
 40
11.0
 40
12.0
 40
12.0
 40
12.0
 40
13.0
 40
13.0
 40
13.0
 40
14.0
 40
14.0
 40
14.0
 40
15.0
 40
15.0
 40
15.0
 40
16.0
 40
16.0
 40
16.0
 40
17.0
 40
17.0
 40
17.0
 40
18.0
 40
18.0
 40
18.0
 40
19.0
 40
19.0
 40
19.0
 40
20.0
 40
20.0
 40
20.0
 40
21.0
 40
21.0
 40
21.0
 40
22.0
 40
22.0
 40
22.0
 40
23.0
 40
23.0
 40
23.0
 40
24.0
 40
24.0
 40
24.0
 40
25.0
 40
25.0
 40
25.0
 40
26.0
 40
26.0
 40
26.0
 40
27.0
 40
27.0
 40
27.0
 40
28.0
 40
28.0
 40
28.0
 40
29.0
 40
29.0
 40
29.0
 40
30.0
 40
30.0
 40
30.0
 40
31.0
 40
31.0
 40
31.0
 40
32.0
 40
32.0
 40
32.0
 40
33.0
 40
33.0
 40
33.0
 40
34.0
 40
34.0
 40
34.0
 40
35.0
 40
35.0
 40
35.0
 40
36.0
 40
36.0
 40
36.0
 40
37.0
 40
37.0
 40
37.0
 40
38.0
 40
38.0
 40
38.0
 40
39.0
 40
39.0
 40
39.0
 40
40.0
 40
40.0
 40
40.0
 40
41.0
 40
41.0
 40
41.0
 40
41.0
 10
-1.679570176866319
 20
-4.048934597439236
 30
0.0
 10
-1.679570176866319
 20
-4.048934597439236
 30
0.0
 10
-1.692144775390625
 20
-3.137534586588541
 30
0.0
 10
-1.692144775390625
 20
-3.137534586588541
 30
0.0
 10
-1.692144775390625
 20
-3.137534586588541
 30
0.0
 10
-1.717121717664931
 20
-2.893449571397569
 30
0.0
 10
-1.949148898654514
 20
-2.909124755859375
 30
0.0
 10
-1.949148898654514
 20
-2.909124755859375
 30
0.0
 10
-2.197368028428819
 20
-2.996630181206597
 30
0.0
 10
-2.197368028428819
 20
-2.996630181206597
 30
0.0
 10
-2.197368028428819
 20
-2.996630181206597
 30
0.0
 10
-2.37599622938368
 20
-2.93100111219618
 30
0.0
 10
-2.368417019314236
 20
-2.778555636935764
 30
0.0
 10
-2.368417019314236
 20
-2.778555636935764
 30
0.0
 10
-2.371517605251736
 20
-1.90160658094618
 30
0.0
 10
-2.371517605251736
 20
-1.90160658094618
 30
0.0
 10
-2.371517605251736
 20
-1.90160658094618
 30
0.0
 10
-2.333793809678819
 20
-1.712987603081597
 30
0.0
 10
-2.123987494574652
 20
-1.668545871310764
 30
0.0
 10
-2.123987494574652
 20
-1.668545871310764
 30
0.0
 10
-1.865088568793403
 20
-1.582418484157986
 30
0.0
 10
-1.865088568793403
 20
-1.582418484157986
 30
0.0
 10
-1.865088568793403
 20
-1.582418484157986
 30
0.0
 10
-1.646497260199653
 20
-1.587069363064236
 30
0.0
 10
-1.686288113064236
 20
-1.374162462022569
 30
0.0
 10
-1.686288113064236
 20
-1.374162462022569
 30
0.0
 10
-1.680603705512153
 20
-0.3339158799913194
 30
0.0
 10
-1.680603705512153
 20
-0.3339158799913194
 30
0.0
 10
-1.680603705512153
 20
-0.3339158799913194
 30
0.0
 10
-1.693522813585069
 20
-0.0803568522135417
 30
0.0
 10
-1.913492160373264
 20
-0.0865580240885417
 30
0.0
 10
-1.913492160373264
 20
-0.0865580240885417
 30
0.0
 10
-2.194267442491319
 20
-0.1406460232204861
 30
0.0
 10
-2.194267442491319
 20
-0.1406460232204861
 30
0.0
 10
-2.194267442491319
 20
-0.1406460232204861
 30
0.0
 10
-2.36049329969618
 20
-0.0657151963975694
 30
0.0
 10
-2.386676025390625
 20
0.079840087890625
 30
0.0
 10
-2.386676025390625
 20
0.079840087890625
 30
0.0
 10
-2.376168484157986
 20
0.8894375271267361
 30
0.0
 10
-2.376168484157986
 20
0.8894375271267361
 30
0.0
 10
-2.376168484157986
 20
0.8894375271267361
 30
0.0
 10
-2.451271565755208
 20
1.094420708550347
 30
0.0
 10
-2.127432590060764
 20
1.133178032769097
 30
0.0
 10
-2.127432590060764
 20
1.133178032769097
 30
0.0
 10
-1.901778835720486
 20
1.182959662543403
 30
0.0
 10
-1.901778835720486
 20
1.182959662543403
 30
0.0
 10
-1.901778835720486
 20
1.182959662543403
 30
0.0
 10
-1.675091552734375
 20
1.155571153428819
 30
0.0
 10
-1.719361029730903
 20
1.423771837022569
 30
0.0
 10
-1.719361029730903
 20
1.423771837022569
 30
0.0
 10
-1.731935628255208
 20
2.312950981987847
 30
0.0
 10
-1.731935628255208
 20
2.312950981987847
 30
0.0
 10
-1.731935628255208
 20
2.312950981987847
 30
0.0
 10
-1.766386583116319
 20
2.481416151258681
 30
0.0
 10
-1.95121595594618
 20
2.492957221137153
 30
0.0
 10
-1.95121595594618
 20
2.492957221137153
 30
0.0
 10
-2.250939263237847
 20
2.551007080078125
 30
0.0
 10
-2.250939263237847
 20
2.551007080078125
 30
0.0
 10
-2.250939263237847
 20
2.551007080078125
 30
0.0
 10
-2.419748942057292
 20
2.604578314887152
 30
0.0
 10
-2.400111897786458
 20
2.766497802734375
 30
0.0
 10
-2.400111897786458
 20
2.766497802734375
 30
0.0
 10
-2.395805528428819
 20
3.544572618272569
 30
0.0
 10
-2.395805528428819
 20
3.544572618272569
 30
0.0
 10
-2.395805528428819
 20
3.544572618272569
 30
0.0
 10
1.39466078016493
 20
4.06426527235243
 30
0.0
 10
1.39466078016493
 20
4.06426527235243
 30
0.0
 10
1.39466078016493
 20
4.06426527235243
 30
0.0
 10
1.586035834418403
 20
4.106639946831597
 30
0.0
 10
1.577595350477431
 20
3.855836995442708
 30
0.0
 10
1.577595350477431
 20
3.855836995442708
 30
0.0
 10
1.580351426866319
 20
3.317713080512152
 30
0.0
 10
1.580351426866319
 20
3.317713080512152
 30
0.0
 10
1.580351426866319
 20
3.317713080512152
 30
0.0
 10
1.562436930338542
 20
3.078967963324653
 30
0.0
 10
1.810656060112847
 20
3.04882337782118
 30
0.0
 10
1.810656060112847
 20
3.04882337782118
 30
0.0
 10
2.054052056206597
 20
3.065359836154514
 30
0.0
 10
2.054052056206597
 20
3.065359836154514
 30
0.0
 10
2.054052056206597
 20
3.065359836154514
 30
0.0
 10
2.24577162000868
 20
3.020056830512153
 30
0.0
 10
2.246288384331597
 20
2.844701470269097
 30
0.0
 10
2.246288384331597
 20
2.844701470269097
 30
0.0
 10
2.285217963324653
 20
2.081957329644097
 30
0.0
 10
2.285217963324653
 20
2.081957329644097
 30
0.0
 10
2.285217963324653
 20
2.081957329644097
 30
0.0
 10
2.355325656467014
 20
1.78533460828993
 30
0.0
 10
1.923482937282986
 20
1.72022230360243
 30
0.0
 10
1.923482937282986
 20
1.72022230360243
 30
0.0
 10
1.662861463758681
 20
1.726595730251736
 30
0.0
 10
1.662861463758681
 20
1.467007785373264
 30
0.0
 10
1.662861463758681
 20
1.467007785373264
 30
0.0
 10
1.666306559244791
 20
0.7872904459635416
 30
0.0
 10
1.666306559244791
 20
0.7872904459635416
 30
0.0
 10
1.666306559244791
 20
0.7872904459635416
 30
0.0
 10
1.612390814887153
 20
0.4212490505642361
 30
0.0
 10
1.998069254557292
 20
0.4401970757378472
 30
0.0
 10
1.998069254557292
 20
0.4401970757378472
 30
0.0
 10
2.352914089626736
 20
0.4739590115017361
 30
0.0
 10
2.342062038845486
 20
0.1134297688802083
 30
0.0
 10
2.342062038845486
 20
0.1134297688802083
 30
0.0
 10
2.349641248914931
 20
-0.7135654025607638
 30
0.0
 10
2.349641248914931
 20
-0.7135654025607638
 30
0.0
 10
2.349641248914931
 20
-0.7135654025607638
 30
0.0
 10
2.369967312282986
 20
-0.9633348253038193
 30
0.0
 10
2.023907470703125
 20
-1.063931613498264
 30
0.0
 10
2.023907470703125
 20
-1.063931613498264
 30
0.0
 10
1.707647705078125
 20
-1.022245958116319
 30
0.0
 10
1.707647705078125
 20
-1.321452501085069
 30
0.0
 10
1.707647705078125
 20
-1.321452501085069
 30
0.0
 10
1.713332112630208
 20
-2.089019775390625
 30
0.0
 10
1.713332112630208
 20
-2.089019775390625
 30
0.0
 10
1.713332112630208
 20
-2.089019775390625
 30
0.0
 10
1.645463731553819
 20
-2.376857503255208
 30
0.0
 10
2.036826578776041
 20
-2.40235120985243
 30
0.0
 10
2.036826578776041
 20
-2.40235120985243
 30
0.0
 10
2.434735107421875
 20
-2.373756917317708
 30
0.0
 10
2.392704942491319
 20
-2.719472249348958
 30
0.0
 10
2.392704942491319
 20
-2.719472249348958
 30
0.0
 10
2.399422878689236
 20
-3.418137613932291
 30
0.0
 10
2.399422878689236
 20
-3.418137613932291
 30
0.0
 10
2.399422878689236
 20
-3.418137613932291
 30
0.0
 10
-1.679570176866319
 20
-4.048934597439236
 30
0.0
 10
-1.679570176866319
 20
-4.048934597439236
 30
0.0
  0
INSERT
  5
B5
330
6F
100
AcDbEntity
  8
LAYER_1
 62
     7
100
AcDbBlockReference
  2
AI9-BLK26
 10
1.883347574869791
 20
-2.921613226996528
 30
0.0
  0
INSERT
  5
AF
330
6F
100
AcDbEntity
  8
LAYER_1
 62
     7
100
AcDbBlockReference
  2
AI9-BLK25
 10
1.876888020833333
 20
-0.2494249131944444
 30
0.0
  0
INSERT
  5
A9
330
6F
100
AcDbEntity
  8
LAYER_1
 62
     7
100
AcDbBlockReference
  2
AI9-BLK24
 10
1.79153578016493
 20
2.411911349826389
 30
0.0
  0
INSERT
  5
A3
330
6F
100
AcDbEntity
  8
LAYER_1
 62
     7
100
AcDbBlockReference
  2
AI9-BLK23
 10
0.9637654622395833
 20
-1.875768364800347
 30
0.0
  0
INSERT
  5
9D
330
6F
100
AcDbEntity
  8
LAYER_1
 62
     7
100
AcDbBlockReference
  2
AI9-BLK22
 10
0.7708401150173611
 20
1.281833902994792
 30
0.0
  0
INSERT
  5
97
330
6F
100
AcDbEntity
  8
LAYER_1
 62
     7
100
AcDbBlockReference
  2
AI9-BLK21
 10
0.8092529296875
 20
3.500906032986111
 30
0.0
  0
INSERT
  5
91
330
6F
100
AcDbEntity
  8
LAYER_1
 62
     7
100
AcDbBlockReference
  2
AI9-BLK20
 10
-1.057213677300347
 20
-3.48910658094618
 30
0.0
  0
INSERT
  5
8B
330
6F
100
AcDbEntity
  8
LAYER_1
 62
     7
100
AcDbBlockReference
  2
AI9-BLK19
 10
-1.015872531467014
 20
-0.8296651204427082
 30
0.0
  0
INSERT
  5
85
330
6F
100
AcDbEntity
  8
LAYER_1
 62
     7
100
AcDbBlockReference
  2
AI9-BLK18
 10
-1.001058620876736
 20
1.811775716145833
 30
0.0
  0
INSERT
  5
7F
330
6F
100
AcDbEntity
  8
LAYER_1
 62
     7
100
AcDbBlockReference
  2
AI9-BLK17
 10
-1.831929524739583
 20
-2.344645860460069
 30
0.0
  0
INSERT
  5
79
330
6F
100
AcDbEntity
  8
LAYER_1
 62
     7
100
AcDbBlockReference
  2
AI9-BLK16
 10
-1.945100911458333
 20
0.5889390733506944
 30
0.0
  0
INSERT
  5
73
330
6F
100
AcDbEntity
  8
LAYER_1
 62
     7
100
AcDbBlockReference
  2
AI9-BLK15
 10
-2.002978515625
 20
2.996544053819444
 30
0.0
  0
ENDBLK
  5
BB
330
6F
100
AcDbEntity
  8
LAYER_1
100
AcDbBlockEnd
  0
BLOCK
  5
74
330
72
100
AcDbEntity
  8
LAYER_1
 62
     7
100
AcDbBlockBegin
  2
AI9-BLK15
 70
     0
 10
0.0
 20
0.0
 30
0.0
  3
AI9-BLK15
  1

  4

  0
SPLINE
  5
76
330
72
100
AcDbEntity
  8
LAYER_1
 62
     7
100
AcDbSpline
210
0.0
220
0.0
230
1.0
 70
    11
 71
     3
 72
    14
 73
    10
 74
     0
 42
0.00000001
 43
0.00000001
 40
0.0
 40
0.0
 40
0.0
 40
0.0
 40
1.0
 40
1.0
 40
1.0
 40
2.0
 40
2.0
 40
2.0
 40
3.0
 40
3.0
 40
3.0
 40
3.0
 10
0.092242431640625
 20
0.1754414876302083
 30
0.0
 10
0.3302985297309027
 20
0.0050815158420139
 30
0.0
 10
0.1101569281684028
 20
-0.3928270128038194
 30
0.0
 10
-0.1570102267795139
 20
-0.1959398057725694
 30
0.0
 10
-0.3742234971788194
 20
-0.036431884765625
 30
0.0
 10
-0.2005906846788194
 20
0.241070556640625
 30
0.0
 10
0.0123162163628472
 20
0.1959398057725694
 30
0.0
 10
0.0340203179253472
 20
0.191461181640625
 30
0.0
 10
0.0667487250434028
 20
0.1937004937065972
 30
0.0
 10
0.092242431640625
 20
0.1754414876302083
 30
0.0
  0
SPLINE
  5
75
330
72
100
AcDbEntity
  8
LAYER_1
 62
     7
100
AcDbSpline
210
0.0
220
0.0
230
1.0
 70
    11
 71
     3
 72
    11
 73
     7
 74
     0
 42
0.00000001
 43
0.00000001
 40
0.0
 40
0.0
 40
0.0
 40
0.0
 40
1.0
 40
1.0
 40
1.0
 40
2.0
 40
2.0
 40
2.0
 40
2.0
 10
0.0779452853732639
 20
0.1020609537760417
 30
0.0
 10
-0.0476284450954861
 20
0.1862935384114583
 30
0.0
 10
-0.3206522623697917
 20
-0.0233405219184028
 30
0.0
 10
-0.1067118326822917
 20
-0.1663119845920139
 30
0.0
 10
0.0841464572482639
 20
-0.293780517578125
 30
0.0
 10
0.2307352701822917
 20
0.0000861273871528
 30
0.0
 10
0.0779452853732639
 20
0.1020609537760417
 30
0.0
  0
ENDBLK
  5
77
330
72
100
AcDbEntity
  8
LAYER_1
100
AcDbBlockEnd
  0
BLOCK
  5
7A
330
78
100
AcDbEntity
  8
LAYER_1
 62
     7
100
AcDbBlockBegin
  2
AI9-BLK16
 70
     0
 10
0.0
 20
0.0
 30
0.0
  3
AI9-BLK16
  1

  4

  0
SPLINE
  5
7C
330
78
100
AcDbEntity
  8
LAYER_1
 62
     7
100
AcDbSpline
210
0.0
220
0.0
230
1.0
 70
    11
 71
     3
 72
    32
 73
    28
 74
     0
 42
0.00000001
 43
0.00000001
 40
0.0
 40
0.0
 40
0.0
 40
0.0
 40
1.0
 40
1.0
 40
1.0
 40
2.0
 40
2.0
 40
2.0
 40
3.0
 40
3.0
 40
3.0
 40
4.0
 40
4.0
 40
4.0
 40
5.0
 40
5.0
 40
5.0
 40
6.0
 40
6.0
 40
6.0
 40
7.0
 40
7.0
 40
7.0
 40
8.0
 40
8.0
 40
8.0
 40
9.0
 40
9.0
 40
9.0
 40
9.0
 10
0.109295654296875
 20
0.239520263671875
 30
0.0
 10
0.1425408257378472
 20
0.2247063530815972
 30
0.0
 10
0.2030022515190972
 20
0.1940450032552083
 30
0.0
 10
0.2274624294704861
 20
0.1671732584635416
 30
0.0
 10
0.2419318305121528
 20
0.1514980740017361
 30
0.0
 10
0.2398647732204861
 20
0.1110182020399305
 30
0.0
 10
0.2460659450954861
 20
0.0908643934461806
 30
0.0
 10
0.2531283908420139
 20
0.0665764702690972
 30
0.0
 10
0.268975830078125
 20
0.0476284450954861
 30
0.0
 10
0.268975830078125
 20
0.0221347384982639
 30
0.0
 10
0.2691480848524305
 20
0.0112826877170139
 30
0.0
 10
0.2574347601996528
 20
-0.0028422037760417
 30
0.0
 10
0.2576070149739583
 20
-0.0140387641059028
 30
0.0
 10
0.2576070149739583
 20
-0.0140387641059028
 30
0.0
 10
0.2686313205295139
 20
-0.031781005859375
 30
0.0
 10
0.2686313205295139
 20
-0.031781005859375
 30
0.0
 10
0.2359029134114583
 20
-0.1921502007378472
 30
0.0
 10
0.0422885470920139
 20
-0.2803446451822916
 30
0.0
 10
-0.0646816677517361
 20
-0.239520263671875
 30
0.0
 10
-0.1752692328559028
 20
-0.1973178439670139
 30
0.0
 10
-0.270526123046875
 20
-0.070538330078125
 30
0.0
 10
-0.268975830078125
 20
-0.0061150444878472
 30
0.0
 10
-0.2682868109809027
 20
0.0283359103732639
 30
0.0
 10
-0.2479607476128472
 20
0.0529683430989583
 30
0.0
 10
-0.2315965440538194
 20
0.0901753743489583
 30
0.0
 10
-0.1582160101996528
 20
0.2577792697482639
 30
0.0
 10
-0.0402214898003472
 20
0.3075608995225694
 30
0.0
 10
0.109295654296875
 20
0.239520263671875
 30
0.0
  0
SPLINE
  5
7B
330
78
100
AcDbEntity
  8
LAYER_1
 62
     7
100
AcDbSpline
210
0.0
220
0.0
230
1.0
 70
    11
 71
     3
 72
    17
 73
    13
 74
     0
 42
0.00000001
 43
0.00000001
 40
0.0
 40
0.0
 40
0.0
 40
0.0
 40
1.0
 40
1.0
 40
1.0
 40
2.0
 40
2.0
 40
2.0
 40
3.0
 40
3.0
 40
3.0
 40
4.0
 40
4.0
 40
4.0
 40
4.0
 10
0.1020609537760417
 20
0.1571824815538194
 30
0.0
 10
0.0924146864149305
 20
0.160455322265625
 30
0.0
 10
0.0731221516927083
 20
0.1483974880642361
 30
0.0
 10
0.0639926486545139
 20
0.1478807237413194
 30
0.0
 10
0.0335035536024306
 20
0.1470194498697917
 30
0.0
 10
-0.0081821017795139
 20
0.149603271484375
 30
0.0
 10
-0.0328145345052083
 20
0.1313442654079861
 30
0.0
 10
-0.1532206217447917
 20
0.0433220757378472
 30
0.0
 10
-0.180609130859375
 20
-0.127899169921875
 30
0.0
 10
-0.0309197319878472
 20
-0.1842264811197917
 30
0.0
 10
0.1304829915364583
 20
-0.2448601616753472
 30
0.0
 10
0.3294372558593749
 20
0.0853522406684028
 30
0.0
 10
0.1020609537760417
 20
0.1571824815538194
 30
0.0
  0
ENDBLK
  5
7D
330
78
100
AcDbEntity
  8
LAYER_1
100
AcDbBlockEnd
  0
BLOCK
  5
80
330
7E
100
AcDbEntity
  8
LAYER_1
 62
     7
100
AcDbBlockBegin
  2
AI9-BLK17
 70
     0
 10
0.0
 20
0.0
 30
0.0
  3
AI9-BLK17
  1

  4

  0
SPLINE
  5
82
330
7E
100
AcDbEntity
  8
LAYER_1
 62
     7
100
AcDbSpline
210
0.0
220
0.0
230
1.0
 70
    11
 71
     3
 72
    32
 73
    28
 74
     0
 42
0.00000001
 43
0.00000001
 40
0.0
 40
0.0
 40
0.0
 40
0.0
 40
1.0
 40
1.0
 40
1.0
 40
2.0
 40
2.0
 40
2.0
 40
3.0
 40
3.0
 40
3.0
 40
4.0
 40
4.0
 40
4.0
 40
5.0
 40
5.0
 40
5.0
 40
6.0
 40
6.0
 40
6.0
 40
7.0
 40
7.0
 40
7.0
 40
8.0
 40
8.0
 40
8.0
 40
9.0
 40
9.0
 40
9.0
 40
9.0
 10
0.1857767740885417
 20
0.2098063151041666
 30
0.0
 10
0.2722486707899305
 20
0.1197170681423611
 30
0.0
 10
0.2789666069878472
 20
-0.0091295030381944
 30
0.0
 10
0.2295294867621528
 20
-0.0761366102430556
 30
0.0
 10
0.2102369520399305
 20
-0.1024915907118056
 30
0.0
 10
0.1900831434461806
 20
-0.1098985460069444
 30
0.0
 10
0.1670010036892361
 20
-0.1319471571180556
 30
0.0
 10
0.1346171061197917
 20
-0.16278076171875
 30
0.0
 10
0.0872470431857639
 20
-0.2053276909722222
 30
0.0
 10
0.041082763671875
 20
-0.2098063151041666
 30
0.0
 10
0.0195509168836806
 20
-0.2117011176215278
 30
0.0
 10
0.0002583821614583
 20
-0.1930976019965278
 30
0.0
 10
-0.0212734646267361
 20
-0.18603515625
 30
0.0
 10
-0.0453891330295139
 20
-0.1777669270833333
 30
0.0
 10
-0.0776007758246528
 20
-0.1763888888888889
 30
0.0
 10
-0.1020609537760417
 20
-0.1522732204861111
 30
0.0
 10
-0.1477084689670139
 20
-0.105419921875
 30
0.0
 10
-0.1659674750434028
 20
-0.0430636935763889
 30
0.0
 10
-0.1830206976996528
 20
-0.0055121527777778
 30
0.0
 10
-0.2042080349392361
 20
0.04185791015625
 30
0.0
 10
-0.2300462510850694
 20
0.0661458333333333
 30
0.0
 10
-0.2295294867621528
 20
0.1085205078125
 30
0.0
 10
-0.2297017415364583
 20
0.1316026475694444
 30
0.0
 10
-0.210064697265625
 20
0.1546847873263889
 30
0.0
 10
-0.1983513726128472
 20
0.1760443793402778
 30
0.0
 10
-0.1120517306857639
 20
0.3334852430555556
 30
0.0
 10
0.0834574381510417
 20
0.3171210394965278
 30
0.0
 10
0.1857767740885417
 20
0.2098063151041666
 30
0.0
  0
SPLINE
  5
81
330
7E
100
AcDbEntity
  8
LAYER_1
 62
     7
100
AcDbSpline
210
0.0
220
0.0
230
1.0
 70
    11
 71
     3
 72
    23
 73
    19
 74
     0
 42
0.00000001
 43
0.00000001
 40
0.0
 40
0.0
 40
0.0
 40
0.0
 40
1.0
 40
1.0
 40
1.0
 40
2.0
 40
2.0
 40
2.0
 40
3.0
 40
3.0
 40
3.0
 40
4.0
 40
4.0
 40
4.0
 40
5.0
 40
5.0
 40
5.0
 40
6.0
 40
6.0
 40
6.0
 40
6.0
 10
0.1404737684461805
 20
0.1781114366319444
 30
0.0
 10
0.1373731825086806
 20
0.1801784939236111
 30
0.0
 10
0.1117072211371528
 20
0.1762166341145833
 30
0.0
 10
0.1070563422309028
 20
0.1770779079861111
 30
0.0
 10
-0.0049092610677083
 20
0.1992987738715278
 30
0.0
 10
-0.0665764702690972
 20
0.1403876410590278
 30
0.0
 10
-0.1280714246961806
 20
0.0447862413194444
 30
0.0
 10
-0.1254876030815972
 20
0.0408243815104167
 30
0.0
 10
-0.1118794759114583
 20
0.0275607638888889
 30
0.0
 10
-0.1118794759114583
 20
0.0220486111111111
 30
0.0
 10
-0.1118794759114583
 20
0.01085205078125
 30
0.0
 10
-0.1244540744357639
 20
0.0022393120659722
 30
0.0
 10
-0.1237650553385417
 20
-0.0091295030381944
 30
0.0
 10
-0.1223870171440972
 20
-0.0335896809895833
 30
0.0
 10
-0.0794955783420139
 20
-0.1042141384548611
 30
0.0
 10
-0.0512457953559028
 20
-0.1278130425347222
 30
0.0
 10
0.0579637315538194
 20
-0.217041015625
 30
0.0
 10
0.3366719563802083
 20
0.0313503689236111
 30
0.0
 10
0.1404737684461805
 20
0.1781114366319444
 30
0.0
  0
ENDBLK
  5
83
330
7E
100
AcDbEntity
  8
LAYER_1
100
AcDbBlockEnd
  0
BLOCK
  5
86
330
84
100
AcDbEntity
  8
LAYER_1
 62
     7
100
AcDbBlockBegin
  2
AI9-BLK18
 70
     0
 10
0.0
 20
0.0
 30
0.0
  3
AI9-BLK18
  1

  4

  0
SPLINE
  5
88
330
84
100
AcDbEntity
  8
LAYER_1
 62
     7
100
AcDbSpline
210
0.0
220
0.0
230
1.0
 70
    11
 71
     3
 72
    20
 73
    16
 74
     0
 42
0.00000001
 43
0.00000001
 40
0.0
 40
0.0
 40
0.0
 40
0.0
 40
1.0
 40
1.0
 40
1.0
 40
2.0
 40
2.0
 40
2.0
 40
3.0
 40
3.0
 40
3.0
 40
4.0
 40
4.0
 40
4.0
 40
5.0
 40
5.0
 40
5.0
 40
5.0
 10
0.0923285590277778
 20
0.225567626953125
 30
0.0
 10
0.1326361762152778
 20
0.2092034233940972
 30
0.0
 10
0.18603515625
 20
0.1719963921440972
 30
0.0
 10
0.2054999457465278
 20
0.144952392578125
 30
0.0
 10
0.2409844292534722
 20
0.0965488009982639
 30
0.0
 10
0.2423624674479167
 20
-0.0862135145399306
 30
0.0
 10
0.1651923285590278
 20
-0.1670010036892361
 30
0.0
 10
0.1157552083333333
 20
-0.2190219455295139
 30
0.0
 10
-0.0401353624131944
 20
-0.2586405436197917
 30
0.0
 10
-0.1098985460069444
 20
-0.225567626953125
 30
0.0
 10
-0.1453830295138889
 20
-0.208514404296875
 30
0.0
 10
-0.1856906467013889
 20
-0.1568379720052083
 30
0.0
 10
-0.2054999457465278
 20
-0.134100341796875
 30
0.0
 10
-0.3953247070312499
 20
0.0851799858940972
 30
0.0
 10
-0.1148939344618055
 20
0.3115227593315972
 30
0.0
 10
0.0923285590277778
 20
0.225567626953125
 30
0.0
  0
SPLINE
  5
87
330
84
100
AcDbEntity
  8
LAYER_1
 62
     7
100
AcDbSpline
210
0.0
220
0.0
230
1.0
 70
    11
 71
     3
 72
    11
 73
     7
 74
     0
 42
0.00000001
 43
0.00000001
 40
0.0
 40
0.0
 40
0.0
 40
0.0
 40
1.0
 40
1.0
 40
1.0
 40
2.0
 40
2.0
 40
2.0
 40
2.0
 10
0.0947401258680556
 20
0.1590772840711806
 30
0.0
 10
-0.0556382921006944
 20
0.2245340983072917
 30
0.0
 10
-0.2855984157986111
 20
-0.0727776421440972
 30
0.0
 10
-0.0632175021701389
 20
-0.1675177680121528
 30
0.0
 10
0.11007080078125
 20
-0.241070556640625
 30
0.0
 10
0.2938666449652778
 20
0.0724331325954861
 30
0.0
 10
0.0947401258680556
 20
0.1590772840711806
 30
0.0
  0
ENDBLK
  5
89
330
84
100
AcDbEntity
  8
LAYER_1
100
AcDbBlockEnd
  0
BLOCK
  5
8C
330
8A
100
AcDbEntity
  8
LAYER_1
 62
     7
100
AcDbBlockBegin
  2
AI9-BLK19
 70
     0
 10
0.0
 20
0.0
 30
0.0
  3
AI9-BLK19
  1

  4

  0
SPLINE
  5
8E
330
8A
100
AcDbEntity
  8
LAYER_1
 62
     7
100
AcDbSpline
210
0.0
220
0.0
230
1.0
 70
    11
 71
     3
 72
    41
 73
    37
 74
     0
 42
0.00000001
 43
0.00000001
 40
0.0
 40
0.0
 40
0.0
 40
0.0
 40
1.0
 40
1.0
 40
1.0
 40
2.0
 40
2.0
 40
2.0
 40
3.0
 40
3.0
 40
3.0
 40
4.0
 40
4.0
 40
4.0
 40
5.0
 40
5.0
 40
5.0
 40
6.0
 40
6.0
 40
6.0
 40
7.0
 40
7.0
 40
7.0
 40
8.0
 40
8.0
 40
8.0
 40
9.0
 40
9.0
 40
9.0
 40
10.0
 40
10.0
 40
10.0
 40
11.0
 40
11.0
 40
11.0
 40
12.0
 40
12.0
 40
12.0
 40
12.0
 10
0.1913750542534722
 20
0.1710489908854166
 30
0.0
 10
0.2342664930555555
 20
0.1355645073784722
 30
0.0
 10
0.2575208875868055
 20
0.0539157443576389
 30
0.0
 10
0.2568318684895833
 20
0.0089572482638889
 30
0.0
 10
0.2551093207465278
 20
-0.0513319227430556
 30
0.0
 10
0.2223809136284722
 20
-0.0985297309027778
 30
0.0
 10
0.1755276150173611
 20
-0.1495171440972222
 30
0.0
 10
0.1419379340277778
 20
-0.1858629014756944
 30
0.0
 10
0.1269517686631944
 20
-0.2184190538194444
 30
0.0
 10
0.0899169921875
 20
-0.23564453125
 30
0.0
 10
0.0733805338541667
 20
-0.2432237413194444
 30
0.0
 10
-0.0031005859375
 20
-0.2530422634548611
 30
0.0
 10
-0.0210150824652778
 20
-0.2466688368055555
 30
0.0
 10
-0.0311781141493056
 20
-0.2423624674479167
 30
0.0
 10
-0.0406521267361111
 20
-0.2282375759548611
 30
0.0
 10
-0.0509874131944444
 20
-0.22479248046875
 30
0.0
 10
-0.07286376953125
 20
-0.2161797417534722
 30
0.0
 10
-0.1362535264756944
 20
-0.19688720703125
 30
0.0
 10
-0.1569240993923611
 20
-0.1819010416666667
 30
0.0
 10
-0.1803507486979167
 20
-0.1645033094618056
 30
0.0
 10
-0.1944756401909722
 20
-0.1285020616319444
 30
0.0
 10
-0.2079115125868055
 20
-0.1104153103298611
 30
0.0
 10
-0.2246202256944444
 20
-0.0880221896701389
 30
0.0
 10
-0.2466688368055555
 20
-0.0747585720486111
 30
0.0
 10
-0.2568318684895833
 20
-0.0520209418402778
 30
0.0
 10
-0.2821533203125
 20
0.0058566623263889
 30
0.0
 10
-0.2676839192708333
 20
0.1390096028645833
 30
0.0
 10
-0.1791449652777778
 20
0.2120456271701389
 30
0.0
 10
-0.1765611436631944
 20
0.2099785698784722
 30
0.0
 10
-0.1741495768229167
 20
0.2080837673611111
 30
0.0
 10
-0.1717380099826389
 20
0.2063612196180555
 30
0.0
 10
-0.1450385199652778
 20
0.22169189453125
 30
0.0
 10
-0.1124823676215278
 20
0.2368503146701389
 30
0.0
 10
-0.0854383680555555
 20
0.2466688368055555
 30
0.0
 10
-0.0068901909722222
 20
0.2747463650173611
 30
0.0
 10
0.0993910047743055
 20
0.2475301106770833
 30
0.0
 10
0.1913750542534722
 20
0.1710489908854166
 30
0.0
  0
SPLINE
  5
8D
330
8A
100
AcDbEntity
  8
LAYER_1
 62
     7
100
AcDbSpline
210
0.0
220
0.0
230
1.0
 70
    11
 71
     3
 72
    32
 73
    28
 74
     0
 42
0.00000001
 43
0.00000001
 40
0.0
 40
0.0
 40
0.0
 40
0.0
 40
1.0
 40
1.0
 40
1.0
 40
2.0
 40
2.0
 40
2.0
 40
3.0
 40
3.0
 40
3.0
 40
4.0
 40
4.0
 40
4.0
 40
5.0
 40
5.0
 40
5.0
 40
6.0
 40
6.0
 40
6.0
 40
7.0
 40
7.0
 40
7.0
 40
8.0
 40
8.0
 40
8.0
 40
9.0
 40
9.0
 40
9.0
 40
9.0
 10
0.0783759223090278
 20
0.1731160481770833
 30
0.0
 10
0.0566718207465278
 20
0.1810397677951389
 30
0.0
 10
0.04185791015625
 20
0.1648478190104167
 30
0.0
 10
0.0213595920138889
 20
0.1576131184895833
 30
0.0
 10
-0.0485758463541667
 20
0.1319471571180556
 30
0.0
 10
-0.1781114366319444
 20
0.0194647894965278
 30
0.0
 10
-0.1474500868055556
 20
-0.0745863172743056
 30
0.0
 10
-0.1398708767361111
 20
-0.0973239474826389
 30
0.0
 10
-0.1202338324652778
 20
-0.1047309027777778
 30
0.0
 10
-0.1057644314236111
 20
-0.1274685329861111
 30
0.0
 10
-0.1076592339409722
 20
-0.130224609375
 30
0.0
 10
-0.1095540364583333
 20
-0.1324639214409722
 30
0.0
 10
-0.1112765842013889
 20
-0.13487548828125
 30
0.0
 10
-0.0768256293402778
 20
-0.1531344943576389
 30
0.0
 10
-0.0596001519097222
 20
-0.1774224175347222
 30
0.0
 10
-0.0235989040798611
 20
-0.1874131944444444
 30
0.0
 10
-0.0079237196180556
 20
-0.1915473090277778
 30
0.0
 10
0.0608059353298611
 20
-0.1862074110243056
 30
0.0
 10
0.0742418077256944
 20
-0.1786282009548611
 30
0.0
 10
0.1450385199652778
 20
-0.1381483289930555
 30
0.0
 10
0.2191080729166667
 20
0.0161919487847222
 30
0.0
 10
0.1948201497395833
 20
0.0656290690104167
 30
0.0
 10
0.1837958441840278
 20
0.0878499348958333
 30
0.0
 10
0.1667426215277778
 20
0.09146728515625
 30
0.0
 10
0.1477945963541666
 20
0.1111043294270833
 30
0.0
 10
0.13642578125
 20
0.1229899088541667
 30
0.0
 10
0.1083482530381944
 20
0.1622639973958333
 30
0.0
 10
0.0783759223090278
 20
0.1731160481770833
 30
0.0
  0
ENDBLK
  5
8F
330
8A
100
AcDbEntity
  8
LAYER_1
100
AcDbBlockEnd
  0
BLOCK
  5
92
330
90
100
AcDbEntity
  8
LAYER_1
 62
     7
100
AcDbBlockBegin
  2
AI9-BLK20
 70
     0
 10
0.0
 20
0.0
 30
0.0
  3
AI9-BLK20
  1

  4

  0
SPLINE
  5
94
330
90
100
AcDbEntity
  8
LAYER_1
 62
     7
100
AcDbSpline
210
0.0
220
0.0
230
1.0
 70
    11
 71
     3
 72
    29
 73
    25
 74
     0
 42
0.00000001
 43
0.00000001
 40
0.0
 40
0.0
 40
0.0
 40
0.0
 40
1.0
 40
1.0
 40
1.0
 40
2.0
 40
2.0
 40
2.0
 40
3.0
 40
3.0
 40
3.0
 40
4.0
 40
4.0
 40
4.0
 40
5.0
 40
5.0
 40
5.0
 40
6.0
 40
6.0
 40
6.0
 40
7.0
 40
7.0
 40
7.0
 40
8.0
 40
8.0
 40
8.0
 40
8.0
 10
0.1042141384548611
 20
0.2463243272569444
 30
0.0
 10
0.4602647569444444
 20
0.0704522026909722
 30
0.0
 10
0.1846571180555555
 20
-0.3825778537326389
 30
0.0
 10
-0.0706244574652778
 20
-0.2537312825520833
 30
0.0
 10
-0.1171332465277778
 20
-0.2301323784722222
 30
0.0
 10
-0.1433159722222222
 20
-0.1887912326388889
 30
0.0
 10
-0.1651923285590278
 20
-0.1634697808159722
 30
0.0
 10
-0.19688720703125
 20
-0.1267795138888889
 30
0.0
 10
-0.2297878689236111
 20
-0.1024915907118056
 30
0.0
 10
-0.2416734483506944
 20
-0.0637342664930556
 30
0.0
 10
-0.2468410915798611
 20
-0.0468532986111111
 30
0.0
 10
-0.2349555121527778
 20
-0.0401353624131944
 30
0.0
 10
-0.2353000217013889
 20
-0.0227376302083333
 30
0.0
 10
-0.2354722764756944
 20
-0.0018948025173611
 30
0.0
 10
-0.2514919704861111
 20
0.0198092990451389
 30
0.0
 10
-0.2459798177083333
 20
0.04185791015625
 30
0.0
 10
-0.2425347222222222
 20
0.0554660373263889
 30
0.0
 10
-0.2258260091145833
 20
0.06666259765625
 30
0.0
 10
-0.2192803276909722
 20
0.0795817057291667
 30
0.0
 10
-0.1495171440972222
 20
0.2158352322048611
 30
0.0
 10
-0.1012858072916667
 20
0.2602769639756944
 30
0.0
 10
0.0301445855034722
 20
0.2537312825520833
 30
0.0
 10
0.0533989800347222
 20
0.2530422634548611
 30
0.0
 10
0.0769978841145833
 20
0.2601047092013888
 30
0.0
 10
0.1042141384548611
 20
0.2463243272569444
 30
0.0
  0
SPLINE
  5
93
330
90
100
AcDbEntity
  8
LAYER_1
 62
     7
100
AcDbSpline
210
0.0
220
0.0
230
1.0
 70
    11
 71
     3
 72
    20
 73
    16
 74
     0
 42
0.00000001
 43
0.00000001
 40
0.0
 40
0.0
 40
0.0
 40
0.0
 40
1.0
 40
1.0
 40
1.0
 40
2.0
 40
2.0
 40
2.0
 40
3.0
 40
3.0
 40
3.0
 40
4.0
 40
4.0
 40
4.0
 40
5.0
 40
5.0
 40
5.0
 40
5.0
 10
0.1271240234375
 20
0.1507229275173611
 30
0.0
 10
0.1271240234375
 20
0.1507229275173611
 30
0.0
 10
0.1011135525173611
 20
0.1462443033854167
 30
0.0
 10
0.1011135525173611
 20
0.1462443033854167
 30
0.0
 10
-0.0613226996527778
 20
0.17208251953125
 30
0.0
 10
-0.2628607855902778
 20
-0.1049031575520833
 30
0.0
 10
-0.0380683051215278
 20
-0.2086005316840278
 30
0.0
 10
-0.0070624457465278
 20
-0.2225531684027778
 30
0.0
 10
0.0256659613715278
 20
-0.2103230794270833
 30
0.0
 10
0.0540879991319444
 20
-0.2063612196180555
 30
0.0
 10
0.068212890625
 20
-0.2042941623263889
 30
0.0
 10
0.1019748263888889
 20
-0.20928955078125
 30
0.0
 10
0.11317138671875
 20
-0.20308837890625
 30
0.0
 10
0.2416734483506944
 20
-0.1322916666666666
 30
0.0
 10
0.2576931423611111
 20
0.0978407118055556
 30
0.0
 10
0.1271240234375
 20
0.1507229275173611
 30
0.0
  0
ENDBLK
  5
95
330
90
100
AcDbEntity
  8
LAYER_1
100
AcDbBlockEnd
  0
BLOCK
  5
98
330
96
100
AcDbEntity
  8
LAYER_1
 62
     7
100
AcDbBlockBegin
  2
AI9-BLK21
 70
     0
 10
0.0
 20
0.0
 30
0.0
  3
AI9-BLK21
  1

  4

  0
SPLINE
  5
9A
330
96
100
AcDbEntity
  8
LAYER_1
 62
     7
100
AcDbSpline
210
0.0
220
0.0
230
1.0
 70
    11
 71
     3
 72
    23
 73
    19
 74
     0
 42
0.00000001
 43
0.00000001
 40
0.0
 40
0.0
 40
0.0
 40
0.0
 40
1.0
 40
1.0
 40
1.0
 40
2.0
 40
2.0
 40
2.0
 40
3.0
 40
3.0
 40
3.0
 40
4.0
 40
4.0
 40
4.0
 40
5.0
 40
5.0
 40
5.0
 40
6.0
 40
6.0
 40
6.0
 40
6.0
 10
-0.0436665852864583
 20
0.2438266330295139
 30
0.0
 10
0.3196187337239583
 20
0.2421040852864583
 30
0.0
 10
0.2508890787760417
 20
-0.2438266330295139
 30
0.0
 10
-0.0035312228732639
 20
-0.2438266330295139
 30
0.0
 10
-0.0527960883246528
 20
-0.2434821234809028
 30
0.0
 10
-0.1730299207899305
 20
-0.2154045952690972
 30
0.0
 10
-0.2017964680989583
 20
-0.1969733344184028
 30
0.0
 10
-0.2040357801649305
 20
-0.1952507866753472
 30
0.0
 10
-0.205413818359375
 20
-0.1787143283420139
 30
0.0
 10
-0.2076531304253472
 20
-0.1768195258246528
 30
0.0
 10
-0.2862013075086805
 20
-0.1020609537760417
 30
0.0
 10
-0.3037712944878472
 20
0.0703660753038194
 30
0.0
 10
-0.2079976399739583
 20
0.171307373046875
 30
0.0
 10
-0.1795756022135417
 20
0.2016242133246528
 30
0.0
 10
-0.1366841634114583
 20
0.2119594997829861
 30
0.0
 10
-0.0943094889322917
 20
0.2252231174045139
 30
0.0
 10
-0.0794955783420139
 20
0.2300462510850694
 30
0.0
 10
-0.0624423556857639
 20
0.244171142578125
 30
0.0
 10
-0.0436665852864583
 20
0.2438266330295139
 30
0.0
  0
SPLINE
  5
99
330
96
100
AcDbEntity
  8
LAYER_1
 62
     7
100
AcDbSpline
210
0.0
220
0.0
230
1.0
 70
    11
 71
     3
 72
    23
 73
    19
 74
     0
 42
0.00000001
 43
0.00000001
 40
0.0
 40
0.0
 40
0.0
 40
0.0
 40
1.0
 40
1.0
 40
1.0
 40
2.0
 40
2.0
 40
2.0
 40
3.0
 40
3.0
 40
3.0
 40
4.0
 40
4.0
 40
4.0
 40
5.0
 40
5.0
 40
5.0
 40
6.0
 40
6.0
 40
6.0
 40
6.0
 10
-0.0283359103732639
 20
0.1750969780815972
 30
0.0
 10
-0.033331298828125
 20
0.1745802137586806
 30
0.0
 10
-0.047283935546875
 20
0.1545986599392361
 30
0.0
 10
-0.0515903049045139
 20
0.151153564453125
 30
0.0
 10
-0.0641649034288194
 20
0.1432298448350694
 30
0.0
 10
-0.0943094889322917
 20
0.1346171061197917
 30
0.0
 10
-0.1039557562934028
 20
0.1234205457899305
 30
0.0
 10
-0.1950785319010417
 20
0.0219624837239583
 30
0.0
 10
-0.1769917805989583
 20
-0.1842264811197917
 30
0.0
 10
-0.011627197265625
 20
-0.1859490288628472
 30
0.0
 10
0.0340203179253472
 20
-0.1861212836371528
 30
0.0
 10
0.0546908908420139
 20
-0.154254150390625
 30
0.0
 10
0.0838019476996528
 20
-0.1284159342447917
 30
0.0
 10
0.0960320366753472
 20
-0.1172193739149306
 30
0.0
 10
0.1304829915364583
 20
-0.1063673231336806
 30
0.0
 10
0.1378899468315972
 20
-0.0913811577690972
 30
0.0
 10
0.1954230414496528
 20
0.0267856174045139
 30
0.0
 10
0.1075731065538194
 20
0.1924947102864583
 30
0.0
 10
-0.0283359103732639
 20
0.1750969780815972
 30
0.0
  0
ENDBLK
  5
9B
330
96
100
AcDbEntity
  8
LAYER_1
100
AcDbBlockEnd
  0
BLOCK
  5
9E
330
9C
100
AcDbEntity
  8
LAYER_1
 62
     7
100
AcDbBlockBegin
  2
AI9-BLK22
 70
     0
 10
0.0
 20
0.0
 30
0.0
  3
AI9-BLK22
  1

  4

  0
SPLINE
  5
A0
330
9C
100
AcDbEntity
  8
LAYER_1
 62
     7
100
AcDbSpline
210
0.0
220
0.0
230
1.0
 70
    11
 71
     3
 72
    29
 73
    25
 74
     0
 42
0.00000001
 43
0.00000001
 40
0.0
 40
0.0
 40
0.0
 40
0.0
 40
1.0
 40
1.0
 40
1.0
 40
2.0
 40
2.0
 40
2.0
 40
3.0
 40
3.0
 40
3.0
 40
4.0
 40
4.0
 40
4.0
 40
5.0
 40
5.0
 40
5.0
 40
6.0
 40
6.0
 40
6.0
 40
7.0
 40
7.0
 40
7.0
 40
8.0
 40
8.0
 40
8.0
 40
8.0
 10
0.0390157063802083
 20
0.2611382378472222
 30
0.0
 10
0.0980990939670139
 20
0.2523532443576388
 30
0.0
 10
0.1285881890190972
 20
0.2151462131076389
 30
0.0
 10
0.1583882649739583
 20
0.1858629014756944
 30
0.0
 10
0.206964111328125
 20
0.1376315646701389
 30
0.0
 10
0.2589850531684028
 20
0.0640787760416667
 30
0.0
 10
0.2569179958767361
 20
-0.0172254774305556
 30
0.0
 10
0.2526116265190972
 20
-0.1655368381076389
 30
0.0
 10
0.1008551703559028
 20
-0.2931776258680555
 30
0.0
 10
-0.0350538465711806
 20
-0.2611382378472222
 30
0.0
 10
-0.0486619737413194
 20
-0.2575208875868055
 30
0.0
 10
-0.0865580240885417
 20
-0.2275485568576389
 30
0.0
 10
-0.0944817437065972
 20
-0.2234144422743055
 30
0.0
 10
-0.1492587619357639
 20
-0.1929253472222222
 30
0.0
 10
-0.2143710666232639
 20
-0.1601969401041667
 30
0.0
 10
-0.2352138943142361
 20
-0.1071424696180555
 30
0.0
 10
-0.2431376139322916
 20
-0.0864718967013889
 30
0.0
 10
-0.2329745822482639
 20
-0.0845770941840278
 30
0.0
 10
-0.2369364420572916
 20
-0.0601169162326389
 30
0.0
 10
-0.2386589898003472
 20
-0.0499538845486111
 30
0.0
 10
-0.2569179958767361
 20
-0.0180867513020833
 30
0.0
 10
-0.2569179958767361
 20
-0.0101630316840278
 30
0.0
 10
-0.2662197536892361
 20
0.1786282009548611
 30
0.0
 10
-0.1055060492621528
 20
0.2830145941840278
 30
0.0
 10
0.0390157063802083
 20
0.2611382378472222
 30
0.0
  0
SPLINE
  5
9F
330
9C
100
AcDbEntity
  8
LAYER_1
 62
     7
100
AcDbSpline
210
0.0
220
0.0
230
1.0
 70
    11
 71
     3
 72
    26
 73
    22
 74
     0
 42
0.00000001
 43
0.00000001
 40
0.0
 40
0.0
 40
0.0
 40
0.0
 40
1.0
 40
1.0
 40
1.0
 40
2.0
 40
2.0
 40
2.0
 40
3.0
 40
3.0
 40
3.0
 40
4.0
 40
4.0
 40
4.0
 40
5.0
 40
5.0
 40
5.0
 40
6.0
 40
6.0
 40
6.0
 40
7.0
 40
7.0
 40
7.0
 40
7.0
 10
0.0231682671440972
 20
0.1607137044270833
 30
0.0
 10
-0.0557244194878472
 20
0.155029296875
 30
0.0
 10
-0.1923224555121528
 20
0.0204983181423611
 30
0.0
 10
-0.1590772840711806
 20
-0.1005967881944444
 30
0.0
 10
-0.1487419976128472
 20
-0.1386650933159722
 30
0.0
 10
-0.1049892849392361
 20
-0.1495171440972222
 30
0.0
 10
-0.067437744140625
 20
-0.1717380099826389
 30
0.0
 10
-0.0415995279947917
 20
-0.1863796657986111
 30
0.0
 10
-0.0164503309461806
 20
-0.21859130859375
 30
0.0
 10
0.0376376681857639
 20
-0.2163519965277778
 30
0.0
 10
0.068988037109375
 20
-0.2151462131076389
 30
0.0
 10
0.0912089029947917
 20
-0.1824178059895833
 30
0.0
 10
0.1117072211371528
 20
-0.16278076171875
 30
0.0
 10
0.1416795518663194
 20
-0.1331529405381944
 30
0.0
 10
0.1497755262586805
 20
-0.1281575520833333
 30
0.0
 10
0.1721686469184028
 20
-0.0787204318576389
 30
0.0
 10
0.1721686469184028
 20
-0.0787204318576389
 30
0.0
 10
0.1931837293836805
 20
-0.0632175021701389
 30
0.0
 10
0.1931837293836805
 20
-0.0632175021701389
 30
0.0
 10
0.2188496907552083
 20
0.0306613498263889
 30
0.0
 10
0.1394402398003472
 20
0.1694986979166667
 30
0.0
 10
0.0231682671440972
 20
0.1607137044270833
 30
0.0
  0
ENDBLK
  5
A1
330
9C
100
AcDbEntity
  8
LAYER_1
100
AcDbBlockEnd
  0
BLOCK
  5
A4
330
A2
100
AcDbEntity
  8
LAYER_1
 62
     7
100
AcDbBlockBegin
  2
AI9-BLK23
 70
     0
 10
0.0
 20
0.0
 30
0.0
  3
AI9-BLK23
  1

  4

  0
SPLINE
  5
A6
330
A2
100
AcDbEntity
  8
LAYER_1
 62
     7
100
AcDbSpline
210
0.0
220
0.0
230
1.0
 70
    11
 71
     3
 72
    20
 73
    16
 74
     0
 42
0.00000001
 43
0.00000001
 40
0.0
 40
0.0
 40
0.0
 40
0.0
 40
1.0
 40
1.0
 40
1.0
 40
2.0
 40
2.0
 40
2.0
 40
3.0
 40
3.0
 40
3.0
 40
4.0
 40
4.0
 40
4.0
 40
5.0
 40
5.0
 40
5.0
 40
5.0
 10
0.0777730305989583
 20
0.2222086588541667
 30
0.0
 10
0.1315165201822917
 20
0.1974039713541667
 30
0.0
 10
0.2000739203559028
 20
0.1353922526041667
 30
0.0
 10
0.2188496907552083
 20
0.0993910047743055
 30
0.0
 10
0.2543341742621528
 20
0.03255615234375
 30
0.0
 10
0.231768798828125
 20
-0.1607137044270833
 30
0.0
 10
0.115496826171875
 20
-0.2184190538194444
 30
0.0
 10
0.0887973361545139
 20
-0.2315104166666666
 30
0.0
 10
0.0589972601996528
 20
-0.2177300347222222
 30
0.0
 10
0.0283359103732639
 20
-0.2179022894965278
 30
0.0
 10
0.0093878851996528
 20
-0.2173855251736111
 30
0.0
 10
-0.0295416937934028
 20
-0.2297878689236111
 30
0.0
 10
-0.0512457953559028
 20
-0.2222086588541667
 30
0.0
 10
-0.405401611328125
 20
-0.0887112087673611
 30
0.0
 10
-0.1869825575086805
 20
0.3436482747395833
 30
0.0
 10
0.0777730305989583
 20
0.2222086588541667
 30
0.0
  0
SPLINE
  5
A5
330
A2
100
AcDbEntity
  8
LAYER_1
 62
     7
100
AcDbSpline
210
0.0
220
0.0
230
1.0
 70
    11
 71
     3
 72
    11
 73
     7
 74
     0
 42
0.00000001
 43
0.00000001
 40
0.0
 40
0.0
 40
0.0
 40
0.0
 40
1.0
 40
1.0
 40
1.0
 40
2.0
 40
2.0
 40
2.0
 40
2.0
 10
0.0664042154947917
 20
0.1524454752604167
 30
0.0
 10
-0.0589972601996528
 20
0.1977484809027778
 30
0.0
 10
-0.2806891547309028
 20
-0.0956013997395833
 30
0.0
 10
-0.0214457194010417
 20
-0.1748385959201389
 30
0.0
 10
0.1113627115885417
 20
-0.2156629774305555
 30
0.0
 10
0.2982591417100694
 20
0.06976318359375
 30
0.0
 10
0.0664042154947917
 20
0.1524454752604167
 30
0.0
  0
ENDBLK
  5
A7
330
A2
100
AcDbEntity
  8
LAYER_1
100
AcDbBlockEnd
  0
BLOCK
  5
AA
330
A8
100
AcDbEntity
  8
LAYER_1
 62
     7
100
AcDbBlockBegin
  2
AI9-BLK24
 70
     0
 10
0.0
 20
0.0
 30
0.0
  3
AI9-BLK24
  1

  4

  0
SPLINE
  5
AC
330
A8
100
AcDbEntity
  8
LAYER_1
 62
     7
100
AcDbSpline
210
0.0
220
0.0
230
1.0
 70
    11
 71
     3
 72
    17
 73
    13
 74
     0
 42
0.00000001
 43
0.00000001
 40
0.0
 40
0.0
 40
0.0
 40
0.0
 40
1.0
 40
1.0
 40
1.0
 40
2.0
 40
2.0
 40
2.0
 40
3.0
 40
3.0
 40
3.0
 40
4.0
 40
4.0
 40
4.0
 40
4.0
 10
0.19378662109375
 20
0.2117872450086805
 30
0.0
 10
0.4921318901909722
 20
-0.0322977701822917
 30
0.0
 10
0.1121378580729167
 20
-0.346490478515625
 30
0.0
 10
-0.0611504448784722
 20
-0.2117872450086805
 30
0.0
 10
-0.1185112847222222
 20
-0.1671732584635416
 30
0.0
 10
-0.1357367621527778
 20
-0.1067118326822917
 30
0.0
 10
-0.1510674370659722
 20
-0.0688157823350694
 30
0.0
 10
-0.1741495768229167
 20
-0.0097323947482639
 30
0.0
 10
-0.2056722005208333
 20
0.0359151204427083
 30
0.0
 10
-0.19378662109375
 20
0.0912089029947917
 30
0.0
 10
-0.1552015516493056
 20
0.2644972059461805
 30
0.0
 10
0.0997355143229167
 20
0.289129638671875
 30
0.0
 10
0.19378662109375
 20
0.2117872450086805
 30
0.0
  0
SPLINE
  5
AB
330
A8
100
AcDbEntity
  8
LAYER_1
 62
     7
100
AcDbSpline
210
0.0
220
0.0
230
1.0
 70
    11
 71
     3
 72
    14
 73
    10
 74
     0
 42
0.00000001
 43
0.00000001
 40
0.0
 40
0.0
 40
0.0
 40
0.0
 40
1.0
 40
1.0
 40
1.0
 40
2.0
 40
2.0
 40
2.0
 40
3.0
 40
3.0
 40
3.0
 40
3.0
 10
0.1767333984375
 20
0.1475362141927083
 30
0.0
 10
0.1767333984375
 20
0.1475362141927083
 30
0.0
 10
0.1572686089409722
 20
0.1421963161892361
 30
0.0
 10
0.1567518446180556
 20
0.1421963161892361
 30
0.0
 10
0.0125745985243056
 20
0.1825039333767361
 30
0.0
 10
-0.2015380859375
 20
-0.0262688530815972
 30
0.0
 10
-0.0258382161458333
 20
-0.1680345323350694
 30
0.0
 10
0.1026638454861111
 20
-0.2713873969184028
 30
0.0
 10
0.3934299045138889
 20
0.0092156304253472
 30
0.0
 10
0.1767333984375
 20
0.1475362141927083
 30
0.0
  0
ENDBLK
  5
AD
330
A8
100
AcDbEntity
  8
LAYER_1
100
AcDbBlockEnd
  0
BLOCK
  5
B0
330
AE
100
AcDbEntity
  8
LAYER_1
 62
     7
100
AcDbBlockBegin
  2
AI9-BLK25
 70
     0
 10
0.0
 20
0.0
 30
0.0
  3
AI9-BLK25
  1

  4

  0
SPLINE
  5
B2
330
AE
100
AcDbEntity
  8
LAYER_1
 62
     7
100
AcDbSpline
210
0.0
220
0.0
230
1.0
 70
    11
 71
     3
 72
    14
 73
    10
 74
     0
 42
0.00000001
 43
0.00000001
 40
0.0
 40
0.0
 40
0.0
 40
0.0
 40
1.0
 40
1.0
 40
1.0
 40
2.0
 40
2.0
 40
2.0
 40
3.0
 40
3.0
 40
3.0
 40
3.0
 10
0.0490064832899305
 20
0.2346971299913194
 30
0.0
 10
0.1711351182725694
 20
0.1954230414496528
 30
0.0
 10
0.2593295627170139
 20
0.0505567762586806
 30
0.0
 10
0.2414150661892361
 20
-0.041082763671875
 30
0.0
 10
0.2119594997829861
 20
-0.1921502007378472
 30
0.0
 10
0.0495232476128472
 20
-0.2629469129774306
 30
0.0
 10
-0.0546908908420139
 20
-0.2346971299913194
 30
0.0
 10
-0.3988559299045139
 20
-0.1415072970920139
 30
0.0
 10
-0.2429653591579861
 20
0.3285759819878472
 30
0.0
 10
0.0490064832899305
 20
0.2346971299913194
 30
0.0
  0
SPLINE
  5
B1
330
AE
100
AcDbEntity
  8
LAYER_1
 62
     7
100
AcDbSpline
210
0.0
220
0.0
230
1.0
 70
    11
 71
     3
 72
    29
 73
    25
 74
     0
 42
0.00000001
 43
0.00000001
 40
0.0
 40
0.0
 40
0.0
 40
0.0
 40
1.0
 40
1.0
 40
1.0
 40
2.0
 40
2.0
 40
2.0
 40
3.0
 40
3.0
 40
3.0
 40
4.0
 40
4.0
 40
4.0
 40
5.0
 40
5.0
 40
5.0
 40
6.0
 40
6.0
 40
6.0
 40
7.0
 40
7.0
 40
7.0
 40
8.0
 40
8.0
 40
8.0
 40
8.0
 10
0.0350538465711806
 20
0.1800923665364583
 30
0.0
 10
0.0202399359809028
 20
0.1833652072482639
 30
0.0
 10
-0.0083543565538194
 20
0.1685512966579861
 30
0.0
 10
-0.0217902289496528
 20
0.1647616916232639
 30
0.0
 10
-0.1110182020399305
 20
0.1409905327690972
 30
0.0
 10
-0.1304829915364583
 20
0.0777730305989583
 30
0.0
 10
-0.1446078830295139
 20
-0.024029541015625
 30
0.0
 10
-0.1489142523871528
 20
-0.053485107421875
 30
0.0
 10
-0.1644171820746528
 20
-0.0679545084635417
 30
0.0
 10
-0.1533928765190972
 20
-0.0908643934461806
 30
0.0
 10
-0.1370286729600694
 20
-0.1246263292100694
 30
0.0
 10
-0.068988037109375
 20
-0.168206787109375
 30
0.0
 10
-0.0117994520399306
 20
-0.1826761881510416
 30
0.0
 10
0.0572747124565972
 20
-0.1999016655815972
 30
0.0
 10
0.1773362901475694
 20
-0.1349616156684028
 30
0.0
 10
0.1954230414496528
 20
-0.0309197319878472
 30
0.0
 10
0.1954230414496528
 20
-0.0309197319878472
 30
0.0
 10
0.1823316786024306
 20
-0.0152445475260417
 30
0.0
 10
0.1823316786024306
 20
-0.0152445475260417
 30
0.0
 10
0.1804368760850694
 20
-0.003875732421875
 30
0.0
 10
0.1900831434461806
 20
0.0117994520399306
 30
0.0
 10
0.1885328504774305
 20
0.0226515028211806
 30
0.0
 10
0.1811258951822917
 20
0.0729498969184028
 30
0.0
 10
0.1175638834635417
 20
0.1626946343315972
 30
0.0
 10
0.0350538465711806
 20
0.1800923665364583
 30
0.0
  0
ENDBLK
  5
B3
330
AE
100
AcDbEntity
  8
LAYER_1
100
AcDbBlockEnd
  0
BLOCK
  5
B6
330
B4
100
AcDbEntity
  8
LAYER_1
 62
     7
100
AcDbBlockBegin
  2
AI9-BLK26
 70
     0
 10
0.0
 20
0.0
 30
0.0
  3
AI9-BLK26
  1

  4

  0
SPLINE
  5
B8
330
B4
100
AcDbEntity
  8
LAYER_1
 62
     7
100
AcDbSpline
210
0.0
220
0.0
230
1.0
 70
    11
 71
     3
 72
    32
 73
    28
 74
     0
 42
0.00000001
 43
0.00000001
 40
0.0
 40
0.0
 40
0.0
 40
0.0
 40
1.0
 40
1.0
 40
1.0
 40
2.0
 40
2.0
 40
2.0
 40
3.0
 40
3.0
 40
3.0
 40
4.0
 40
4.0
 40
4.0
 40
5.0
 40
5.0
 40
5.0
 40
6.0
 40
6.0
 40
6.0
 40
7.0
 40
7.0
 40
7.0
 40
8.0
 40
8.0
 40
8.0
 40
9.0
 40
9.0
 40
9.0
 40
9.0
 10
0.1753553602430555
 20
0.1823316786024306
 30
0.0
 10
0.2044664171006944
 20
0.1568379720052083
 30
0.0
 10
0.2127346462673611
 20
0.1266933865017361
 30
0.0
 10
0.2266872829861111
 20
0.103094482421875
 30
0.0
 10
0.2874932183159722
 20
-0.0014641655815972
 30
0.0
 10
0.2669949001736111
 20
-0.0496955023871528
 30
0.0
 10
0.2025716145833333
 20
-0.1516703287760416
 30
0.0
 10
0.1929253472222222
 20
-0.166656494140625
 30
0.0
 10
0.1822455512152778
 20
-0.2005906846788194
 30
0.0
 10
0.1620917426215278
 20
-0.2164381239149305
 30
0.0
 10
0.1021470811631944
 20
-0.262774658203125
 30
0.0
 10
-0.0640787760416667
 20
-0.2564012315538194
 30
0.0
 10
-0.1254014756944444
 20
-0.1981791178385416
 30
0.0
 10
-0.1557183159722222
 20
-0.1695848253038194
 30
0.0
 10
-0.1636420355902778
 20
-0.1289326985677083
 30
0.0
 10
-0.1760443793402778
 20
-0.1060228135850694
 30
0.0
 10
-0.1965426974826389
 20
-0.0667487250434028
 30
0.0
 10
-0.2199693467881944
 20
-0.0509012858072917
 30
0.0
 10
-0.2266872829861111
 20
-0.0133497450086806
 30
0.0
 10
-0.2330607096354166
 20
0.0212734646267361
 30
0.0
 10
-0.2139404296875
 20
0.0558966742621528
 30
0.0
 10
-0.1989542643229167
 20
0.0908643934461806
 30
0.0
 10
-0.1347032335069444
 20
0.2403815375434028
 30
0.0
 10
-0.02015380859375
 20
0.2789666069878472
 30
0.0
 10
0.1042141384548611
 20
0.2164381239149305
 30
0.0
 10
0.1186835394965278
 20
0.2092034233940972
 30
0.0
 10
0.1601969401041667
 20
0.1962843153211805
 30
0.0
 10
0.1753553602430555
 20
0.1823316786024306
 30
0.0
  0
SPLINE
  5
B7
330
B4
100
AcDbEntity
  8
LAYER_1
 62
     7
100
AcDbSpline
210
0.0
220
0.0
230
1.0
 70
    11
 71
     3
 72
    26
 73
    22
 74
     0
 42
0.00000001
 43
0.00000001
 40
0.0
 40
0.0
 40
0.0
 40
0.0
 40
1.0
 40
1.0
 40
1.0
 40
2.0
 40
2.0
 40
2.0
 40
3.0
 40
3.0
 40
3.0
 40
4.0
 40
4.0
 40
4.0
 40
5.0
 40
5.0
 40
5.0
 40
6.0
 40
6.0
 40
6.0
 40
7.0
 40
7.0
 40
7.0
 40
7.0
 10
0.1357367621527778
 20
0.1439188639322916
 30
0.0
 10
0.1283298068576389
 20
0.1494310167100694
 30
0.0
 10
0.0990464952256944
 20
0.1490865071614583
 30
0.0
 10
0.0900892469618056
 20
0.151153564453125
 30
0.0
 10
0.0191202799479167
 20
0.1706183539496528
 30
0.0
 10
-0.0973239474826389
 20
0.1323777940538194
 30
0.0
 10
-0.1278130425347222
 20
0.0305752224392361
 30
0.0
 10
-0.1350477430555555
 20
0.0074930826822917
 30
0.0
 10
-0.1205783420138889
 20
-0.022479248046875
 30
0.0
 10
-0.11627197265625
 20
-0.0478006998697917
 30
0.0
 10
-0.11007080078125
 20
-0.0839742024739583
 30
0.0
 10
-0.1024915907118056
 20
-0.1428853352864583
 30
0.0
 10
-0.0399631076388889
 20
-0.1800923665364583
 30
0.0
 10
-0.0239434136284722
 20
-0.1893941243489583
 30
0.0
 10
0.0089572482638889
 20
-0.1816426595052083
 30
0.0
 10
0.0254937065972222
 20
-0.1812981499565972
 30
0.0
 10
0.0490926106770833
 20
-0.1800923665364583
 30
0.0
 10
0.0956013997395833
 20
-0.1842264811197917
 30
0.0
 10
0.1169609917534722
 20
-0.169757080078125
 30
0.0
 10
0.2165242513020833
 20
-0.1022332085503472
 30
0.0
 10
0.2315104166666666
 20
0.0753614637586806
 30
0.0
 10
0.1357367621527778
 20
0.1439188639322916
 30
0.0
  0
ENDBLK
  5
B9
330
B4
100
AcDbEntity
  8
LAYER_1
100
AcDbBlockEnd
  0
BLOCK
  5
BE
330
BC
100
AcDbEntity
  8
LAYER_1
 62
     7
100
AcDbBlockBegin
  2
AI9-BLK27
 70
     0
 10
0.0
 20
0.0
 30
0.0
  3
AI9-BLK27
  1

  4

  0
SPLINE
  5
C0
330
BC
100
AcDbEntity
  8
LAYER_1
 62
     7
100
AcDbSpline
210
0.0
220
0.0
230
1.0
 70
    11
 71
     3
 72
    29
 73
    25
 74
     0
 42
0.00000001
 43
0.00000001
 40
0.0
 40
0.0
 40
0.0
 40
0.0
 40
1.0
 40
1.0
 40
1.0
 40
2.0
 40
2.0
 40
2.0
 40
3.0
 40
3.0
 40
3.0
 40
4.0
 40
4.0
 40
4.0
 40
5.0
 40
5.0
 40
5.0
 40
6.0
 40
6.0
 40
6.0
 40
7.0
 40
7.0
 40
7.0
 40
8.0
 40
8.0
 40
8.0
 40
8.0
 10
0.0350538465711806
 20
0.2637220594618056
 30
0.0
 10
0.0936204698350694
 20
0.2706122504340278
 30
0.0
 10
0.1074008517795139
 20
0.2516642252604167
 30
0.0
 10
0.137200927734375
 20
0.2373670789930555
 30
0.0
 10
0.163555908203125
 20
0.22479248046875
 30
0.0
 10
0.1940450032552083
 20
0.2232421875
 30
0.0
 10
0.211614990234375
 20
0.2015380859375
 30
0.0
 10
0.3342603895399305
 20
0.0501261393229167
 30
0.0
 10
0.1644171820746528
 20
-0.24029541015625
 30
0.0
 10
0.0243740505642361
 20
-0.2637220594618056
 30
0.0
 10
-0.169757080078125
 20
-0.2959337022569444
 30
0.0
 10
-0.2228115505642361
 20
-0.1712212456597222
 30
0.0
 10
-0.2105814615885417
 20
-0.0175699869791667
 30
0.0
 10
-0.2088589138454861
 20
0.006201171875
 30
0.0
 10
-0.2174716525607639
 20
0.0337619357638889
 30
0.0
 10
-0.211614990234375
 20
0.0564995659722222
 30
0.0
 10
-0.2076531304253472
 20
0.0732082790798611
 30
0.0
 10
-0.1828484429253472
 20
0.0964626736111111
 30
0.0
 10
-0.1754414876302083
 20
0.1124823676215278
 30
0.0
 10
-0.1699293348524305
 20
0.1259182400173611
 30
0.0
 10
-0.1752692328559028
 20
0.1376315646701389
 30
0.0
 10
-0.1668287489149306
 20
0.1496893988715278
 30
0.0
 10
-0.1416795518663194
 20
0.1867241753472222
 30
0.0
 10
-0.022479248046875
 20
0.2570041232638889
 30
0.0
 10
0.0350538465711806
 20
0.2637220594618056
 30
0.0
  0
SPLINE
  5
BF
330
BC
100
AcDbEntity
  8
LAYER_1
 62
     7
100
AcDbSpline
210
0.0
220
0.0
230
1.0
 70
    11
 71
     3
 72
    17
 73
    13
 74
     0
 42
0.00000001
 43
0.00000001
 40
0.0
 40
0.0
 40
0.0
 40
0.0
 40
1.0
 40
1.0
 40
1.0
 40
2.0
 40
2.0
 40
2.0
 40
3.0
 40
3.0
 40
3.0
 40
4.0
 40
4.0
 40
4.0
 40
4.0
 10
0.0083543565538194
 20
0.1893079969618055
 30
0.0
 10
-0.1478807237413194
 20
0.1588189019097222
 30
0.0
 10
-0.2123040093315972
 20
-0.2358167860243055
 30
0.0
 10
0.0047370062934028
 20
-0.1899970160590278
 30
0.0
 10
0.0245463053385417
 20
-0.1856906467013889
 30
0.0
 10
0.0452168782552083
 20
-0.1536512586805555
 30
0.0
 10
0.0595140245225694
 20
-0.1429714626736111
 30
0.0
 10
0.0832851833767361
 20
-0.1247124565972222
 30
0.0
 10
0.1173916286892361
 20
-0.1114488389756944
 30
0.0
 10
0.1327223036024305
 20
-0.0864718967013889
 30
0.0
 10
0.1921502007378472
 20
0.0130913628472222
 30
0.0
 10
0.1833652072482639
 20
0.2235866970486111
 30
0.0
 10
0.0083543565538194
 20
0.1893079969618055
 30
0.0
  0
ENDBLK
  5
C1
330
BC
100
AcDbEntity
  8
LAYER_1
100
AcDbBlockEnd
  0
BLOCK
  5
C4
330
C2
100
AcDbEntity
  8
LAYER_1
 62
     7
100
AcDbBlockBegin
  2
AI9-BLK28
 70
     0
 10
0.0
 20
0.0
 30
0.0
  3
AI9-BLK28
  1

  4

  0
SPLINE
  5
C6
330
C2
100
AcDbEntity
  8
LAYER_1
 62
     7
100
AcDbSpline
210
0.0
220
0.0
230
1.0
 70
    11
 71
     3
 72
    38
 73
    34
 74
     0
 42
0.00000001
 43
0.00000001
 40
0.0
 40
0.0
 40
0.0
 40
0.0
 40
1.0
 40
1.0
 40
1.0
 40
2.0
 40
2.0
 40
2.0
 40
3.0
 40
3.0
 40
3.0
 40
4.0
 40
4.0
 40
4.0
 40
5.0
 40
5.0
 40
5.0
 40
6.0
 40
6.0
 40
6.0
 40
7.0
 40
7.0
 40
7.0
 40
8.0
 40
8.0
 40
8.0
 40
9.0
 40
9.0
 40
9.0
 40
10.0
 40
10.0
 40
10.0
 40
11.0
 40
11.0
 40
11.0
 40
11.0
 10
-0.0124884711371528
 20
0.2311659071180555
 30
0.0
 10
0.0452168782552083
 20
0.2387451171875
 30
0.0
 10
0.1823316786024306
 20
0.2008490668402778
 30
0.0
 10
0.2012797037760417
 20
0.1696709526909722
 30
0.0
 10
0.2216057671440972
 20
0.1359090169270833
 30
0.0
 10
0.2145433213975694
 20
0.0949123806423611
 30
0.0
 10
0.2216057671440972
 20
0.049609375
 30
0.0
 10
0.2498555501302083
 20
0.0501261393229167
 30
0.0
 10
0.2143710666232639
 20
-0.0892279730902778
 30
0.0
 10
0.2143710666232639
 20
-0.0892279730902778
 30
0.0
 10
0.2136820475260416
 20
-0.0900892469618056
 30
0.0
 10
0.1141187879774305
 20
-0.1924085828993055
 30
0.0
 10
0.1141187879774305
 20
-0.1924085828993055
 30
0.0
 10
0.1034389919704861
 20
-0.1967149522569444
 30
0.0
 10
0.0960320366753472
 20
-0.1872409396701389
 30
0.0
 10
0.0863857693142361
 20
-0.1929253472222222
 30
0.0
 10
0.0648539225260417
 20
-0.2044664171006944
 30
0.0
 10
0.0391879611545139
 20
-0.2290988498263889
 30
0.0
 10
0.0037034776475694
 20
-0.2311659071180555
 30
0.0
 10
-0.0507290310329861
 20
-0.2335774739583333
 30
0.0
 10
-0.0863857693142361
 20
-0.20618896484375
 30
0.0
 10
-0.1172193739149306
 20
-0.1865519205729166
 30
0.0
 10
-0.1427130805121528
 20
-0.1705322265625
 30
0.0
 10
-0.1859490288628472
 20
-0.1572686089409722
 30
0.0
 10
-0.2012797037760417
 20
-0.1322916666666666
 30
0.0
 10
-0.205413818359375
 20
-0.1254014756944444
 30
0.0
 10
-0.2002461751302083
 20
-0.1112765842013889
 30
0.0
 10
-0.2017964680989583
 20
-0.1045586480034722
 30
0.0
 10
-0.2081698947482639
 20
-0.0804429796006944
 30
0.0
 10
-0.2272901746961805
 20
-0.055810546875
 30
0.0
 10
-0.2216057671440972
 20
-0.01240234375
 30
0.0
 10
-0.2107537163628472
 20
0.0752753363715278
 30
0.0
 10
-0.1001661512586805
 20
0.2201416015625
 30
0.0
 10
-0.0124884711371528
 20
0.2311659071180555
 30
0.0
  0
SPLINE
  5
C5
330
C2
100
AcDbEntity
  8
LAYER_1
 62
     7
100
AcDbSpline
210
0.0
220
0.0
230
1.0
 70
    11
 71
     3
 72
    17
 73
    13
 74
     0
 42
0.00000001
 43
0.00000001
 40
0.0
 40
0.0
 40
0.0
 40
0.0
 40
1.0
 40
1.0
 40
1.0
 40
2.0
 40
2.0
 40
2.0
 40
3.0
 40
3.0
 40
3.0
 40
4.0
 40
4.0
 40
4.0
 40
4.0
 10
-0.0207567003038194
 20
0.1663981119791667
 30
0.0
 10
-0.0915534125434028
 20
0.1484836154513889
 30
0.0
 10
-0.1788865831163194
 20
0.0122300889756944
 30
0.0
 10
-0.1373731825086806
 20
-0.0850938585069444
 30
0.0
 10
-0.1277269151475694
 20
-0.1074869791666667
 30
0.0
 10
-0.101544189453125
 20
-0.1159274631076389
 30
0.0
 10
-0.0810458713107639
 20
-0.1305691189236111
 30
0.0
 10
-0.0583082411024305
 20
-0.1469333224826389
 30
0.0
 10
-0.0422885470920139
 20
-0.1701877170138889
 30
0.0
 10
0.0026699490017361
 20
-0.1663981119791667
 30
0.0
 10
0.2071363661024305
 20
-0.1484836154513889
 30
0.0
 10
0.2398647732204861
 20
0.2320271809895833
 30
0.0
 10
-0.0207567003038194
 20
0.1663981119791667
 30
0.0
  0
ENDBLK
  5
C7
330
C2
100
AcDbEntity
  8
LAYER_1
100
AcDbBlockEnd
  0
BLOCK
  5
CA
330
C8
100
AcDbEntity
  8
LAYER_1
 62
     7
100
AcDbBlockBegin
  2
AI9-BLK29
 70
     0
 10
0.0
 20
0.0
 30
0.0
  3
AI9-BLK29
  1

  4

  0
SPLINE
  5
CC
330
C8
100
AcDbEntity
  8
LAYER_1
 62
     7
100
AcDbSpline
210
0.0
220
0.0
230
1.0
 70
    11
 71
     3
 72
    32
 73
    28
 74
     0
 42
0.00000001
 43
0.00000001
 40
0.0
 40
0.0
 40
0.0
 40
0.0
 40
1.0
 40
1.0
 40
1.0
 40
2.0
 40
2.0
 40
2.0
 40
3.0
 40
3.0
 40
3.0
 40
4.0
 40
4.0
 40
4.0
 40
5.0
 40
5.0
 40
5.0
 40
6.0
 40
6.0
 40
6.0
 40
7.0
 40
7.0
 40
7.0
 40
8.0
 40
8.0
 40
8.0
 40
9.0
 40
9.0
 40
9.0
 40
9.0
 10
0.0460781521267361
 20
0.2967088487413194
 30
0.0
 10
0.0998216417100694
 20
0.2980868869357639
 30
0.0
 10
0.1285881890190972
 20
0.267425537109375
 30
0.0
 10
0.1578715006510417
 20
0.2429653591579861
 30
0.0
 10
0.1918056911892361
 20
0.214715576171875
 30
0.0
 10
0.2359029134114583
 20
0.1616611056857639
 30
0.0
 10
0.2431376139322916
 20
0.1055060492621528
 30
0.0
 10
0.2558844672309028
 20
0.000775146484375
 30
0.0
 10
0.1888773600260417
 20
-0.134100341796875
 30
0.0
 10
0.1458136664496528
 20
-0.1919779459635417
 30
0.0
 10
0.1347893608940972
 20
-0.2062750922309028
 30
0.0
 10
0.0965488009982639
 20
-0.2219502766927083
 30
0.0
 10
0.0910366482204861
 20
-0.2390034993489583
 30
0.0
 10
0.0910366482204861
 20
-0.2390034993489583
 30
0.0
 10
0.0912089029947917
 20
-0.2576070149739583
 30
0.0
 10
0.0912089029947917
 20
-0.2576070149739583
 30
0.0
 10
0.0651984320746528
 20
-0.2762105305989583
 30
0.0
 10
-0.0188618977864583
 20
-0.2994649251302083
 30
0.0
 10
-0.0562411838107639
 20
-0.2967088487413194
 30
0.0
 10
-0.0972378200954861
 20
-0.2932637532552083
 30
0.0
 10
-0.1415072970920139
 20
-0.2543341742621528
 30
0.0
 10
-0.1680345323350694
 20
-0.2336636013454861
 30
0.0
 10
-0.1893941243489583
 20
-0.2169548882378472
 30
0.0
 10
-0.2322855631510417
 20
-0.1938727484809028
 30
0.0
 10
-0.2431376139322916
 20
-0.1701015896267361
 30
0.0
 10
-0.3302985297309027
 20
0.020928955078125
 30
0.0
 10
-0.1244540744357639
 20
0.2925747341579861
 30
0.0
 10
0.0460781521267361
 20
0.2967088487413194
 30
0.0
  0
SPLINE
  5
CB
330
C8
100
AcDbEntity
  8
LAYER_1
 62
     7
100
AcDbSpline
210
0.0
220
0.0
230
1.0
 70
    11
 71
     3
 72
    29
 73
    25
 74
     0
 42
0.00000001
 43
0.00000001
 40
0.0
 40
0.0
 40
0.0
 40
0.0
 40
1.0
 40
1.0
 40
1.0
 40
2.0
 40
2.0
 40
2.0
 40
3.0
 40
3.0
 40
3.0
 40
4.0
 40
4.0
 40
4.0
 40
5.0
 40
5.0
 40
5.0
 40
6.0
 40
6.0
 40
6.0
 40
7.0
 40
7.0
 40
7.0
 40
8.0
 40
8.0
 40
8.0
 40
8.0
 10
-0.0081821017795139
 20
0.2126485188802083
 30
0.0
 10
-0.0293694390190972
 20
0.2078253851996528
 30
0.0
 10
-0.0391879611545139
 20
0.1781975640190972
 30
0.0
 10
-0.0538296169704861
 20
0.1657952202690972
 30
0.0
 10
-0.1385789659288194
 20
0.0956875271267361
 30
0.0
 10
-0.2128207736545139
 20
-0.0297139485677083
 30
0.0
 10
-0.1323777940538194
 20
-0.1499477810329861
 30
0.0
 10
-0.1067118326822917
 20
-0.1885328504774305
 30
0.0
 10
-0.0850077311197917
 20
-0.2248786078559028
 30
0.0
 10
-0.0112826877170139
 20
-0.2128207736545139
 30
0.0
 10
0.0366041395399306
 20
-0.2048970540364583
 30
0.0
 10
0.0462504069010417
 20
-0.1688958062065972
 30
0.0
 10
0.0708828396267361
 20
-0.1375454372829861
 30
0.0
 10
0.0927591959635417
 20
-0.1089511447482639
 30
0.0
 10
0.1299662272135417
 20
-0.0812181260850694
 30
0.0
 10
0.1435743543836806
 20
-0.0440110948350694
 30
0.0
 10
0.1699293348524305
 20
0.0297139485677083
 30
0.0
 10
0.1644171820746528
 20
0.1644171820746528
 30
0.0
 10
0.103094482421875
 20
0.1959398057725694
 30
0.0
 10
0.0820793999565972
 20
0.2064473470052083
 30
0.0
 10
0.0667487250434028
 20
0.1999016655815972
 30
0.0
 10
0.0381544325086806
 20
0.2042080349392361
 30
0.0
 10
0.0322977701822917
 20
0.2052415635850694
 30
0.0
 10
0.0112826877170139
 20
0.2176439073350694
 30
0.0
 10
-0.0081821017795139
 20
0.2126485188802083
 30
0.0
  0
ENDBLK
  5
CD
330
C8
100
AcDbEntity
  8
LAYER_1
100
AcDbBlockEnd
  0
BLOCK
  5
D0
330
CE
100
AcDbEntity
  8
LAYER_1
 62
     7
100
AcDbBlockBegin
  2
AI9-BLK30
 70
     0
 10
0.0
 20
0.0
 30
0.0
  3
AI9-BLK30
  1

  4

  0
SPLINE
  5
D2
330
CE
100
AcDbEntity
  8
LAYER_1
 62
     7
100
AcDbSpline
210
0.0
220
0.0
230
1.0
 70
    11
 71
     3
 72
    35
 73
    31
 74
     0
 42
0.00000001
 43
0.00000001
 40
0.0
 40
0.0
 40
0.0
 40
0.0
 40
1.0
 40
1.0
 40
1.0
 40
2.0
 40
2.0
 40
2.0
 40
3.0
 40
3.0
 40
3.0
 40
4.0
 40
4.0
 40
4.0
 40
5.0
 40
5.0
 40
5.0
 40
6.0
 40
6.0
 40
6.0
 40
7.0
 40
7.0
 40
7.0
 40
8.0
 40
8.0
 40
8.0
 40
9.0
 40
9.0
 40
9.0
 40
10.0
 40
10.0
 40
10.0
 40
10.0
 10
0.0071485731336806
 20
0.3006707085503472
 30
0.0
 10
0.1918056911892361
 20
0.3273701985677083
 30
0.0
 10
0.2390034993489583
 20
0.104644775390625
 30
0.0
 10
0.206964111328125
 20
-0.0664042154947917
 30
0.0
 10
0.206964111328125
 20
-0.0664042154947917
 30
0.0
 10
0.1888773600260417
 20
-0.0944817437065972
 30
0.0
 10
0.1888773600260417
 20
-0.0944817437065972
 30
0.0
 10
0.1869825575086805
 20
-0.1039557562934028
 30
0.0
 10
0.1933559841579861
 20
-0.1223870171440972
 30
0.0
 10
0.1893941243489583
 20
-0.1313442654079861
 30
0.0
 10
0.1725131564670139
 20
-0.166656494140625
 30
0.0
 10
0.0388434516059028
 20
-0.2908521864149306
 30
0.0
 10
-0.002325439453125
 20
-0.3006707085503472
 30
0.0
 10
-0.0353983561197917
 20
-0.3084221733940972
 30
0.0
 10
-0.0856967502170139
 20
-0.2958475748697916
 30
0.0
 10
-0.1043002658420139
 20
-0.2929192437065972
 30
0.0
 10
-0.1189419216579861
 20
-0.2903354220920139
 30
0.0
 10
-0.1359951443142361
 20
-0.2975701226128472
 30
0.0
 10
-0.1504645453559028
 20
-0.293780517578125
 30
0.0
 10
-0.1750969780815972
 20
-0.2868903266059028
 30
0.0
 10
-0.1933559841579861
 20
-0.2515780978732639
 30
0.0
 10
-0.206964111328125
 20
-0.2297017415364583
 30
0.0
 10
-0.2827562120225694
 20
-0.1086066351996528
 30
0.0
 10
-0.2588127983940972
 20
0.0738111707899305
 30
0.0
 10
-0.185260009765625
 20
0.177508544921875
 30
0.0
 10
-0.1563212076822917
 20
0.2186774359809028
 30
0.0
 10
-0.1149800618489583
 20
0.2390034993489583
 30
0.0
 10
-0.0662319607204861
 20
0.2626024034288194
 30
0.0
 10
-0.0464226616753472
 20
0.2724209255642361
 30
0.0
 10
-0.0205844455295139
 20
0.296881103515625
 30
0.0
 10
0.0071485731336806
 20
0.3006707085503472
 30
0.0
  0
SPLINE
  5
D1
330
CE
100
AcDbEntity
  8
LAYER_1
 62
     7
100
AcDbSpline
210
0.0
220
0.0
230
1.0
 70
    11
 71
     3
 72
    23
 73
    19
 74
     0
 42
0.00000001
 43
0.00000001
 40
0.0
 40
0.0
 40
0.0
 40
0.0
 40
1.0
 40
1.0
 40
1.0
 40
2.0
 40
2.0
 40
2.0
 40
3.0
 40
3.0
 40
3.0
 40
4.0
 40
4.0
 40
4.0
 40
5.0
 40
5.0
 40
5.0
 40
6.0
 40
6.0
 40
6.0
 40
6.0
 10
-0.000775146484375
 20
0.2172993977864583
 30
0.0
 10
-0.0136942545572917
 20
0.214715576171875
 30
0.0
 10
-0.0293694390190972
 20
0.1943895128038194
 30
0.0
 10
-0.0372931586371528
 20
0.1890496148003472
 30
0.0
 10
-0.0703660753038194
 20
0.1683790418836806
 30
0.0
 10
-0.1196309407552083
 20
0.137200927734375
 30
0.0
 10
-0.1378899468315972
 20
0.1043002658420139
 30
0.0
 10
-0.1905999077690972
 20
0.0109381781684028
 30
0.0
 10
-0.1968010796440972
 20
-0.2489942762586805
 30
0.0
 10
-0.0403937445746528
 20
-0.2272901746961805
 30
0.0
 10
-0.0145555284288194
 20
-0.2235005696614583
 30
0.0
 10
0.1043002658420139
 20
-0.1254876030815972
 30
0.0
 10
0.1149800618489583
 20
-0.1048170301649306
 30
0.0
 10
0.1301384819878472
 20
-0.0741556803385417
 30
0.0
 10
0.1470194498697917
 20
0.1113627115885417
 30
0.0
 10
0.129449462890625
 20
0.1637281629774305
 30
0.0
 10
0.1194586859809028
 20
0.1924947102864583
 30
0.0
 10
0.0522793240017361
 20
0.2284959581163194
 30
0.0
 10
-0.000775146484375
 20
0.2172993977864583
 30
0.0
  0
ENDBLK
  5
D3
330
CE
100
AcDbEntity
  8
LAYER_1
100
AcDbBlockEnd
  0
BLOCK
  5
D6
330
D4
100
AcDbEntity
  8
LAYER_1
 62
     7
100
AcDbBlockBegin
  2
AI9-BLK31
 70
     0
 10
0.0
 20
0.0
 30
0.0
  3
AI9-BLK31
  1

  4

  0
SPLINE
  5
D8
330
D4
100
AcDbEntity
  8
LAYER_1
 62
     7
100
AcDbSpline
210
0.0
220
0.0
230
1.0
 70
    11
 71
     3
 72
    35
 73
    31
 74
     0
 42
0.00000001
 43
0.00000001
 40
0.0
 40
0.0
 40
0.0
 40
0.0
 40
1.0
 40
1.0
 40
1.0
 40
2.0
 40
2.0
 40
2.0
 40
3.0
 40
3.0
 40
3.0
 40
4.0
 40
4.0
 40
4.0
 40
5.0
 40
5.0
 40
5.0
 40
6.0
 40
6.0
 40
6.0
 40
7.0
 40
7.0
 40
7.0
 40
8.0
 40
8.0
 40
8.0
 40
9.0
 40
9.0
 40
9.0
 40
10.0
 40
10.0
 40
10.0
 40
10.0
 10
-0.0014641655815972
 20
0.2818088107638889
 30
0.0
 10
0.0655429416232639
 20
0.29610595703125
 30
0.0
 10
0.1446078830295139
 20
0.2761244032118055
 30
0.0
 10
0.1749247233072916
 20
0.2473578559027778
 30
0.0
 10
0.1897386338975694
 20
0.2330607096354166
 30
0.0
 10
0.1911166720920139
 20
0.2013658311631944
 30
0.0
 10
0.2035190158420139
 20
0.1831068250868055
 30
0.0
 10
0.203863525390625
 20
0.1827623155381944
 30
0.0
 10
0.2221225314670139
 20
0.1741495768229167
 30
0.0
 10
0.2221225314670139
 20
0.1741495768229167
 30
0.0
 10
0.2390034993489583
 20
0.1314303927951389
 30
0.0
 10
0.2284959581163194
 20
0.0804429796006944
 30
0.0
 10
0.2336636013454861
 20
0.0261827256944444
 30
0.0
 10
0.2367641872829861
 20
-0.0115410698784722
 30
0.0
 10
0.2489942762586805
 20
-0.0689019097222222
 30
0.0
 10
0.2357306586371528
 20
-0.1124823676215278
 30
0.0
 10
0.2128207736545139
 20
-0.1865519205729166
 30
0.0
 10
0.130999755859375
 20
-0.2602769639756944
 30
0.0
 10
0.0531405978732639
 20
-0.2818088107638889
 30
0.0
 10
-0.0006028917100694
 20
-0.29610595703125
 30
0.0
 10
-0.0777730305989583
 20
-0.2974839952256944
 30
0.0
 10
-0.1227315266927083
 20
-0.2750908745659722
 30
0.0
 10
-0.1334113226996528
 20
-0.2694064670138889
 30
0.0
 10
-0.1413350423177083
 20
-0.2456353081597222
 30
0.0
 10
-0.1509813096788194
 20
-0.2385728624131944
 30
0.0
 10
-0.1874993218315972
 20
-0.2115288628472222
 30
0.0
 10
-0.2253953721788194
 20
-0.1889634874131944
 30
0.0
 10
-0.2357306586371528
 20
-0.13797607421875
 30
0.0
 10
-0.2675977918836806
 20
0.0187757703993056
 30
0.0
 10
-0.1051615397135417
 20
0.2599324544270833
 30
0.0
 10
-0.0014641655815972
 20
0.2818088107638889
 30
0.0
  0
SPLINE
  5
D7
330
D4
100
AcDbEntity
  8
LAYER_1
 62
     7
100
AcDbSpline
210
0.0
220
0.0
230
1.0
 70
    11
 71
     3
 72
    26
 73
    22
 74
     0
 42
0.00000001
 43
0.00000001
 40
0.0
 40
0.0
 40
0.0
 40
0.0
 40
1.0
 40
1.0
 40
1.0
 40
2.0
 40
2.0
 40
2.0
 40
3.0
 40
3.0
 40
3.0
 40
4.0
 40
4.0
 40
4.0
 40
5.0
 40
5.0
 40
5.0
 40
6.0
 40
6.0
 40
6.0
 40
7.0
 40
7.0
 40
7.0
 40
7.0
 10
0.0460781521267361
 20
0.1992987738715278
 30
0.0
 10
-0.0762227376302083
 20
0.1812120225694444
 30
0.0
 10
-0.220916748046875
 20
-0.0823377821180556
 30
0.0
 10
-0.0870747884114583
 20
-0.1820732964409722
 30
0.0
 10
-0.0610643174913194
 20
-0.2013658311631944
 30
0.0
 10
-0.0386711968315972
 20
-0.2228976779513889
 30
0.0
 10
0.0243740505642361
 20
-0.2080837673611111
 30
0.0
 10
0.0453891330295139
 20
-0.2029161241319444
 30
0.0
 10
0.072088623046875
 20
-0.1727715386284722
 30
0.0
 10
0.0884528266059028
 20
-0.1610582139756944
 30
0.0
 10
0.0884528266059028
 20
-0.1610582139756944
 30
0.0
 10
0.1068840874565972
 20
-0.1607137044270833
 30
0.0
 10
0.1068840874565972
 20
-0.1607137044270833
 30
0.0
 10
0.1206644694010417
 20
-0.1555460611979166
 30
0.0
 10
0.1266933865017361
 20
-0.1276407877604167
 30
0.0
 10
0.1339280870225694
 20
-0.1140326605902778
 30
0.0
 10
0.1888773600260417
 20
-0.0103352864583333
 30
0.0
 10
0.1599385579427083
 20
0.1040418836805555
 30
0.0
 10
0.110845947265625
 20
0.2001600477430555
 30
0.0
 10
0.0908643934461806
 20
0.1998155381944444
 30
0.0
 10
0.0657151963975694
 20
0.2023993598090278
 30
0.0
 10
0.0460781521267361
 20
0.1992987738715278
 30
0.0
  0
ENDBLK
  5
D9
330
D4
100
AcDbEntity
  8
LAYER_1
100
AcDbBlockEnd
  0
BLOCK
  5
DC
330
DA
100
AcDbEntity
  8
LAYER_1
 62
     7
100
AcDbBlockBegin
  2
AI9-BLK32
 70
     0
 10
0.0
 20
0.0
 30
0.0
  3
AI9-BLK32
  1

  4

  0
SPLINE
  5
DE
330
DA
100
AcDbEntity
  8
LAYER_1
 62
     7
100
AcDbSpline
210
0.0
220
0.0
230
1.0
 70
    11
 71
     3
 72
    32
 73
    28
 74
     0
 42
0.00000001
 43
0.00000001
 40
0.0
 40
0.0
 40
0.0
 40
0.0
 40
1.0
 40
1.0
 40
1.0
 40
2.0
 40
2.0
 40
2.0
 40
3.0
 40
3.0
 40
3.0
 40
4.0
 40
4.0
 40
4.0
 40
5.0
 40
5.0
 40
5.0
 40
6.0
 40
6.0
 40
6.0
 40
7.0
 40
7.0
 40
7.0
 40
8.0
 40
8.0
 40
8.0
 40
9.0
 40
9.0
 40
9.0
 40
9.0
 10
0.0093878851996528
 20
0.2593295627170139
 30
0.0
 10
0.0202399359809028
 20
0.2591573079427083
 30
0.0
 10
0.0388434516059028
 20
0.2436543782552083
 30
0.0
 10
0.0467671712239583
 20
0.2414150661892361
 30
0.0
 10
0.0913811577690972
 20
0.2290127224392361
 30
0.0
 10
0.1516703287760416
 20
0.2191942003038194
 30
0.0
 10
0.1769917805989583
 20
0.1878438313802083
 30
0.0
 10
0.1881883409288194
 20
0.1738911946614583
 30
0.0
 10
0.1788865831163194
 20
0.1609720865885417
 30
0.0
 10
0.1869825575086805
 20
0.1416795518663194
 30
0.0
 10
0.1905999077690972
 20
0.1328945583767361
 30
0.0
 10
0.2212612575954861
 20
0.0960320366753472
 30
0.0
 10
0.2248786078559028
 20
0.0776007758246528
 30
0.0
 10
0.2588127983940972
 20
-0.101544189453125
 30
0.0
 10
0.1189419216579861
 20
-0.2634636773003472
 30
0.0
 10
-0.0290249294704861
 20
-0.2593295627170139
 30
0.0
 10
-0.0412550184461806
 20
-0.2588127983940972
 30
0.0
 10
-0.0951707628038194
 20
-0.2483052571614583
 30
0.0
 10
-0.1125684950086806
 20
-0.2419318305121528
 30
0.0
 10
-0.1125684950086806
 20
-0.2419318305121528
 30
0.0
 10
-0.1220425075954861
 20
-0.2236728244357639
 30
0.0
 10
-0.1220425075954861
 20
-0.2236728244357639
 30
0.0
 10
-0.160455322265625
 20
-0.2059305826822916
 30
0.0
 10
-0.2035190158420139
 20
-0.1935282389322917
 30
0.0
 10
-0.2248786078559028
 20
-0.160455322265625
 30
0.0
 10
-0.3234083387586805
 20
-0.0071485731336806
 30
0.0
 10
-0.1680345323350694
 20
0.2651862250434028
 30
0.0
 10
0.0093878851996528
 20
0.2593295627170139
 30
0.0
  0
SPLINE
  5
DD
330
DA
100
AcDbEntity
  8
LAYER_1
 62
     7
100
AcDbSpline
210
0.0
220
0.0
230
1.0
 70
    11
 71
     3
 72
    26
 73
    22
 74
     0
 42
0.00000001
 43
0.00000001
 40
0.0
 40
0.0
 40
0.0
 40
0.0
 40
1.0
 40
1.0
 40
1.0
 40
2.0
 40
2.0
 40
2.0
 40
3.0
 40
3.0
 40
3.0
 40
4.0
 40
4.0
 40
4.0
 40
5.0
 40
5.0
 40
5.0
 40
6.0
 40
6.0
 40
6.0
 40
7.0
 40
7.0
 40
7.0
 40
7.0
 10
-0.0262688530815972
 20
0.1756137424045139
 30
0.0
 10
-0.0400492350260417
 20
0.1730299207899305
 30
0.0
 10
-0.0545186360677083
 20
0.1528761121961806
 30
0.0
 10
-0.0629591200086806
 20
0.1471917046440972
 30
0.0
 10
-0.1690680609809028
 20
0.0794955783420139
 30
0.0
 10
-0.2524393717447916
 20
-0.109295654296875
 30
0.0
 10
-0.076739501953125
 20
-0.1673455132378472
 30
0.0
 10
-0.0526238335503472
 20
-0.1750969780815972
 30
0.0
 10
-0.0243740505642361
 20
-0.1909444173177083
 30
0.0
 10
0.0161058213975694
 20
-0.1845709906684028
 30
0.0
 10
0.1218702528211805
 20
-0.1671732584635416
 30
0.0
 10
0.1895663791232639
 20
0.0042202419704861
 30
0.0
 10
0.1320332845052083
 20
0.1039557562934028
 30
0.0
 10
0.1220425075954861
 20
0.1211812337239583
 30
0.0
 10
0.110845947265625
 20
0.152703857421875
 30
0.0
 10
0.0943094889322917
 20
0.158905029296875
 30
0.0
 10
0.0831129286024306
 20
0.1630391438802083
 30
0.0
 10
0.0772562662760417
 20
0.1545986599392361
 30
0.0
 10
0.0664042154947917
 20
0.1583882649739583
 30
0.0
 10
0.0434943305121528
 20
0.1670010036892361
 30
0.0
 10
0.0157613118489583
 20
0.1840542263454861
 30
0.0
 10
-0.0262688530815972
 20
0.1756137424045139
 30
0.0
  0
ENDBLK
  5
DF
330
DA
100
AcDbEntity
  8
LAYER_1
100
AcDbBlockEnd
  0
BLOCK
  5
E2
330
E0
100
AcDbEntity
  8
LAYER_1
 62
     7
100
AcDbBlockBegin
  2
AI9-BLK33
 70
     0
 10
0.0
 20
0.0
 30
0.0
  3
AI9-BLK33
  1

  4

  0
SPLINE
  5
E4
330
E0
100
AcDbEntity
  8
LAYER_1
 62
     7
100
AcDbSpline
210
0.0
220
0.0
230
1.0
 70
    11
 71
     3
 72
    14
 73
    10
 74
     0
 42
0.00000001
 43
0.00000001
 40
0.0
 40
0.0
 40
0.0
 40
0.0
 40
1.0
 40
1.0
 40
1.0
 40
2.0
 40
2.0
 40
2.0
 40
3.0
 40
3.0
 40
3.0
 40
3.0
 10
-0.0954291449652778
 20
0.2215196397569444
 30
0.0
 10
0.1955091688368055
 20
0.2539035373263889
 30
0.0
 10
0.2973117404513889
 20
-0.1894802517361111
 30
0.0
 10
-0.0332451714409722
 20
-0.2215196397569444
 30
0.0
 10
-0.3014458550347222
 20
-0.2475301106770833
 30
0.0
 10
-0.3574286566840277
 20
0.0749308268229167
 30
0.0
 10
-0.1688096788194444
 20
0.1834513346354167
 30
0.0
 10
-0.1495171440972222
 20
0.1948201497395833
 30
0.0
 10
-0.1267795138888889
 20
0.2182467990451389
 30
0.0
 10
-0.0954291449652778
 20
0.2215196397569444
 30
0.0
  0
SPLINE
  5
E3
330
E0
100
AcDbEntity
  8
LAYER_1
 62
     7
100
AcDbSpline
210
0.0
220
0.0
230
1.0
 70
    11
 71
     3
 72
    11
 73
     7
 74
     0
 42
0.00000001
 43
0.00000001
 40
0.0
 40
0.0
 40
0.0
 40
0.0
 40
1.0
 40
1.0
 40
1.0
 40
2.0
 40
2.0
 40
2.0
 40
2.0
 10
-0.05736083984375
 20
0.1574408637152778
 30
0.0
 10
-0.2068779839409722
 20
0.13642578125
 30
0.0
 10
-0.2702677408854167
 20
-0.2022271050347222
 30
0.0
 10
-0.0156751844618056
 20
-0.1657090928819444
 30
0.0
 10
0.2117011176215278
 20
-0.1329806857638889
 30
0.0
 10
0.1247124565972222
 20
0.1834513346354167
 30
0.0
 10
-0.05736083984375
 20
0.1574408637152778
 30
0.0
  0
ENDBLK
  5
E5
330
E0
100
AcDbEntity
  8
LAYER_1
100
AcDbBlockEnd
  0
BLOCK
  5
E8
330
E6
100
AcDbEntity
  8
LAYER_1
 62
     7
100
AcDbBlockBegin
  2
AI9-BLK34
 70
     0
 10
0.0
 20
0.0
 30
0.0
  3
AI9-BLK34
  1

  4

  0
SPLINE
  5
EA
330
E6
100
AcDbEntity
  8
LAYER_1
 62
     7
100
AcDbSpline
210
0.0
220
0.0
230
1.0
 70
    11
 71
     3
 72
    32
 73
    28
 74
     0
 42
0.00000001
 43
0.00000001
 40
0.0
 40
0.0
 40
0.0
 40
0.0
 40
1.0
 40
1.0
 40
1.0
 40
2.0
 40
2.0
 40
2.0
 40
3.0
 40
3.0
 40
3.0
 40
4.0
 40
4.0
 40
4.0
 40
5.0
 40
5.0
 40
5.0
 40
6.0
 40
6.0
 40
6.0
 40
7.0
 40
7.0
 40
7.0
 40
8.0
 40
8.0
 40
8.0
 40
9.0
 40
9.0
 40
9.0
 40
9.0
 10
-0.0358289930555556
 20
0.2478746202256944
 30
0.0
 10
0.0003445095486111
 20
0.2532145182291666
 30
0.0
 10
0.0678683810763889
 20
0.2595879448784722
 30
0.0
 10
0.1028361002604167
 20
0.2499416775173611
 30
0.0
 10
0.1233344184027778
 20
0.2446017795138889
 30
0.0
 10
0.1433159722222222
 20
0.20928955078125
 30
0.0
 10
0.1591634114583333
 20
0.1953369140625
 30
0.0
 10
0.17828369140625
 20
0.1788004557291666
 30
0.0
 10
0.2018825954861111
 20
0.1710489908854166
 30
0.0
 10
0.21549072265625
 20
0.1498616536458333
 30
0.0
 10
0.2213473849826389
 20
0.1407321506076389
 30
0.0
 10
0.2189358181423611
 20
0.12247314453125
 30
0.0
 10
0.2251369900173611
 20
0.1129991319444444
 30
0.0
 10
0.2251369900173611
 20
0.1129991319444444
 30
0.0
 10
0.2439127604166667
 20
0.1040418836805555
 30
0.0
 10
0.2439127604166667
 20
0.1040418836805555
 30
0.0
 10
0.3021348741319444
 20
-0.0490926106770833
 30
0.0
 10
0.1856906467013889
 20
-0.2272040473090278
 30
0.0
 10
0.0733805338541667
 20
-0.2499416775173611
 30
0.0
 10
-0.0425469292534722
 20
-0.2731960720486111
 30
0.0
 10
-0.1908582899305555
 20
-0.2172132703993056
 30
0.0
 10
-0.2239312065972222
 20
-0.1619194878472222
 30
0.0
 10
-0.241845703125
 20
-0.1322916666666666
 30
0.0
 10
-0.2378838433159722
 20
-0.10076904296875
 30
0.0
 10
-0.2439127604166667
 20
-0.06046142578125
 30
0.0
 10
-0.2714735243055556
 20
0.1204060872395833
 30
0.0
 10
-0.1984375
 20
0.2256537543402778
 30
0.0
 10
-0.0358289930555556
 20
0.2478746202256944
 30
0.0
  0
SPLINE
  5
E9
330
E6
100
AcDbEntity
  8
LAYER_1
 62
     7
100
AcDbSpline
210
0.0
220
0.0
230
1.0
 70
    11
 71
     3
 72
    17
 73
    13
 74
     0
 42
0.00000001
 43
0.00000001
 40
0.0
 40
0.0
 40
0.0
 40
0.0
 40
1.0
 40
1.0
 40
1.0
 40
2.0
 40
2.0
 40
2.0
 40
3.0
 40
3.0
 40
3.0
 40
4.0
 40
4.0
 40
4.0
 40
4.0
 10
0.0022393120659722
 20
0.1744940863715278
 30
0.0
 10
-0.00775146484375
 20
0.17208251953125
 30
0.0
 10
-0.0175699869791667
 20
0.1515842013888889
 30
0.0
 10
-0.0249769422743056
 20
0.1464165581597222
 30
0.0
 10
-0.0504706488715278
 20
0.1291910807291667
 30
0.0
 10
-0.0869886610243056
 20
0.1092095269097222
 30
0.0
 10
-0.0980129665798611
 20
0.0804429796006944
 30
0.0
 10
-0.1526177300347222
 20
-0.0582221137152778
 30
0.0
 10
-0.0844048394097222
 20
-0.2175577799479166
 30
0.0
 10
0.0723470052083333
 20
-0.1851738823784722
 30
0.0
 10
0.2413289388020833
 20
-0.1500339084201389
 30
0.0
 10
0.2327162000868056
 20
0.2354722764756944
 30
0.0
 10
0.0022393120659722
 20
0.1744940863715278
 30
0.0
  0
ENDBLK
  5
EB
330
E6
100
AcDbEntity
  8
LAYER_1
100
AcDbBlockEnd
  0
BLOCK
  5
EE
330
EC
100
AcDbEntity
  8
LAYER_1
 62
     7
100
AcDbBlockBegin
  2
AI9-BLK35
 70
     0
 10
0.0
 20
0.0
 30
0.0
  3
AI9-BLK35
  1

  4

  0
SPLINE
  5
F0
330
EC
100
AcDbEntity
  8
LAYER_1
 62
     7
100
AcDbSpline
210
0.0
220
0.0
230
1.0
 70
    11
 71
     3
 72
    32
 73
    28
 74
     0
 42
0.00000001
 43
0.00000001
 40
0.0
 40
0.0
 40
0.0
 40
0.0
 40
1.0
 40
1.0
 40
1.0
 40
2.0
 40
2.0
 40
2.0
 40
3.0
 40
3.0
 40
3.0
 40
4.0
 40
4.0
 40
4.0
 40
5.0
 40
5.0
 40
5.0
 40
6.0
 40
6.0
 40
6.0
 40
7.0
 40
7.0
 40
7.0
 40
8.0
 40
8.0
 40
8.0
 40
9.0
 40
9.0
 40
9.0
 40
9.0
 10
-0.0409966362847222
 20
0.2210028754340278
 30
0.0
 10
0.0823377821180556
 20
0.2413289388020833
 30
0.0
 10
0.1924085828993055
 20
0.1741495768229167
 30
0.0
 10
0.2197970920138889
 20
0.0954291449652778
 30
0.0
 10
0.2304768880208333
 20
0.0645955403645833
 30
0.0
 10
0.2251369900173611
 20
0.0437527126736111
 30
0.0
 10
0.2303046332465278
 20
0.0122300889756944
 30
0.0
 10
0.2373670789930555
 20
-0.0318671332465278
 30
0.0
 10
0.2458075629340278
 20
-0.0950846354166667
 30
0.0
 10
0.2232421875
 20
-0.1357367621527778
 30
0.0
 10
0.2125623914930555
 20
-0.1545125325520833
 30
0.0
 10
0.1863796657986111
 20
-0.1598524305555555
 30
0.0
 10
0.1682929144965278
 20
-0.1736328125
 30
0.0
 10
0.1477945963541666
 20
-0.1889634874131944
 30
0.0
 10
0.1285020616319444
 20
-0.2146294487847222
 30
0.0
 10
0.0950846354166667
 20
-0.2210028754340278
 30
0.0
 10
0.0303168402777778
 20
-0.2323716905381944
 30
0.0
 10
-0.0313503689236111
 20
-0.2122178819444444
 30
0.0
 10
-0.0718302408854167
 20
-0.2049831814236111
 30
0.0
 10
-0.1229899088541667
 20
-0.1956814236111111
 30
0.0
 10
-0.1576131184895833
 20
-0.20308837890625
 30
0.0
 10
-0.1924085828993055
 20
-0.1789727105034722
 30
0.0
 10
-0.2113566080729167
 20
-0.1657090928819444
 30
0.0
 10
-0.2192803276909722
 20
-0.1365980360243055
 30
0.0
 10
-0.2303046332465278
 20
-0.1148939344618055
 30
0.0
 10
-0.3112643771701389
 20
0.0453030056423611
 30
0.0
 10
-0.1872409396701389
 20
0.1974039713541667
 30
0.0
 10
-0.0409966362847222
 20
0.2210028754340278
 30
0.0
  0
SPLINE
  5
EF
330
EC
100
AcDbEntity
  8
LAYER_1
 62
     7
100
AcDbSpline
210
0.0
220
0.0
230
1.0
 70
    11
 71
     3
 72
    23
 73
    19
 74
     0
 42
0.00000001
 43
0.00000001
 40
0.0
 40
0.0
 40
0.0
 40
0.0
 40
1.0
 40
1.0
 40
1.0
 40
2.0
 40
2.0
 40
2.0
 40
3.0
 40
3.0
 40
3.0
 40
4.0
 40
4.0
 40
4.0
 40
5.0
 40
5.0
 40
5.0
 40
6.0
 40
6.0
 40
6.0
 40
6.0
 10
-0.0403076171875
 20
0.1655368381076389
 30
0.0
 10
-0.0439249674479167
 20
0.1643310546875
 30
0.0
 10
-0.0551215277777778
 20
0.14107666015625
 30
0.0
 10
-0.0583943684895833
 20
0.1374593098958333
 30
0.0
 10
-0.1400431315104166
 20
0.0577053493923611
 30
0.0
 10
-0.1264350043402778
 20
-0.0265272352430556
 30
0.0
 10
-0.08216552734375
 20
-0.1310858832465278
 30
0.0
 10
-0.0775146484375
 20
-0.1310858832465278
 30
0.0
 10
-0.0590833875868056
 20
-0.1276407877604167
 30
0.0
 10
-0.0544325086805556
 20
-0.1307413736979167
 30
0.0
 10
-0.0453030056423611
 20
-0.1369425455729167
 30
0.0
 10
-0.0451307508680555
 20
-0.1522732204861111
 30
0.0
 10
-0.0354844835069444
 20
-0.1581298828125
 30
0.0
 10
-0.0144694010416667
 20
-0.1708767361111111
 30
0.0
 10
0.0680406358506944
 20
-0.1753553602430555
 30
0.0
 10
0.1033528645833333
 20
-0.1653645833333333
 30
0.0
 10
0.2387451171875
 20
-0.1257459852430556
 30
0.0
 10
0.1915473090277778
 20
0.2444295247395833
 30
0.0
 10
-0.0403076171875
 20
0.1655368381076389
 30
0.0
  0
ENDBLK
  5
F1
330
EC
100
AcDbEntity
  8
LAYER_1
100
AcDbBlockEnd
  0
BLOCK
  5
F4
330
F2
100
AcDbEntity
  8
LAYER_1
 62
     7
100
AcDbBlockBegin
  2
AI9-BLK36
 70
     0
 10
0.0
 20
0.0
 30
0.0
  3
AI9-BLK36
  1

  4

  0
SPLINE
  5
F6
330
F2
100
AcDbEntity
  8
LAYER_1
 62
     7
100
AcDbSpline
210
0.0
220
0.0
230
1.0
 70
    11
 71
     3
 72
    20
 73
    16
 74
     0
 42
0.00000001
 43
0.00000001
 40
0.0
 40
0.0
 40
0.0
 40
0.0
 40
1.0
 40
1.0
 40
1.0
 40
2.0
 40
2.0
 40
2.0
 40
3.0
 40
3.0
 40
3.0
 40
4.0
 40
4.0
 40
4.0
 40
5.0
 40
5.0
 40
5.0
 40
5.0
 10
-0.0282497829861111
 20
0.2446017795138889
 30
0.0
 10
0.0146416558159722
 20
0.2525254991319444
 30
0.0
 10
0.0795817057291667
 20
0.24959716796875
 30
0.0
 10
0.1105875651041667
 20
0.2373670789930555
 30
0.0
 10
0.1663981119791667
 20
0.2156629774305555
 30
0.0
 10
0.2656168619791666
 20
0.0621839735243055
 30
0.0
 10
0.2442572699652778
 20
-0.0473700629340278
 30
0.0
 10
0.2303046332465278
 20
-0.117822265625
 30
0.0
 10
0.1202338324652778
 20
-0.2347832573784722
 30
0.0
 10
0.0437527126736111
 20
-0.2446017795138889
 30
0.0
 10
0.0044786241319444
 20
-0.2492526584201389
 30
0.0
 10
-0.05736083984375
 20
-0.2273763020833333
 30
0.0
 10
-0.0861273871527778
 20
-0.2187635633680555
 30
0.0
 10
-0.3639743381076389
 20
-0.1357367621527778
 30
0.0
 10
-0.2490804036458333
 20
0.2056722005208333
 30
0.0
 10
-0.0282497829861111
 20
0.2446017795138889
 30
0.0
  0
SPLINE
  5
F5
330
F2
100
AcDbEntity
  8
LAYER_1
 62
     7
100
AcDbSpline
210
0.0
220
0.0
230
1.0
 70
    11
 71
     3
 72
    11
 73
     7
 74
     0
 42
0.00000001
 43
0.00000001
 40
0.0
 40
0.0
 40
0.0
 40
0.0
 40
1.0
 40
1.0
 40
1.0
 40
2.0
 40
2.0
 40
2.0
 40
2.0
 10
0.0094740125868056
 20
0.1896525065104167
 30
0.0
 10
-0.1526177300347222
 20
0.1641587999131944
 30
0.0
 10
-0.1865519205729166
 20
-0.2101508246527778
 30
0.0
 10
0.0518486870659722
 20
-0.1705322265625
 30
0.0
 10
0.2375393337673611
 20
-0.1393541124131944
 30
0.0
 10
0.2241034613715278
 20
0.2237589518229166
 30
0.0
 10
0.0094740125868056
 20
0.1896525065104167
 30
0.0
  0
ENDBLK
  5
F7
330
F2
100
AcDbEntity
  8
LAYER_1
100
AcDbBlockEnd
  0
BLOCK
  5
FA
330
F8
100
AcDbEntity
  8
LAYER_1
 62
     7
100
AcDbBlockBegin
  2
AI9-BLK37
 70
     0
 10
0.0
 20
0.0
 30
0.0
  3
AI9-BLK37
  1

  4

  0
SPLINE
  5
FC
330
F8
100
AcDbEntity
  8
LAYER_1
 62
     7
100
AcDbSpline
210
0.0
220
0.0
230
1.0
 70
    11
 71
     3
 72
    41
 73
    37
 74
     0
 42
0.00000001
 43
0.00000001
 40
0.0
 40
0.0
 40
0.0
 40
0.0
 40
1.0
 40
1.0
 40
1.0
 40
2.0
 40
2.0
 40
2.0
 40
3.0
 40
3.0
 40
3.0
 40
4.0
 40
4.0
 40
4.0
 40
5.0
 40
5.0
 40
5.0
 40
6.0
 40
6.0
 40
6.0
 40
7.0
 40
7.0
 40
7.0
 40
8.0
 40
8.0
 40
8.0
 40
9.0
 40
9.0
 40
9.0
 40
10.0
 40
10.0
 40
10.0
 40
11.0
 40
11.0
 40
11.0
 40
12.0
 40
12.0
 40
12.0
 40
12.0
 10
0.070538330078125
 20
0.2456353081597222
 30
0.0
 10
0.1261766221788194
 20
0.2430514865451389
 30
0.0
 10
0.1937004937065972
 20
0.1918918185763889
 30
0.0
 10
0.2200554741753472
 20
0.1553738064236111
 30
0.0
 10
0.255023193359375
 20
0.1061089409722222
 30
0.0
 10
0.2570902506510416
 20
0.0487481011284722
 30
0.0
 10
0.250372314453125
 20
-0.0199815538194444
 30
0.0
 10
0.2452046712239583
 20
-0.0694186740451389
 30
0.0
 10
0.2527838812934027
 20
-0.1045586480034722
 30
0.0
 10
0.2336636013454861
 20
-0.1403876410590278
 30
0.0
 10
0.2248786078559028
 20
-0.1564073350694444
 30
0.0
 10
0.1695848253038194
 20
-0.2101508246527778
 30
0.0
 10
0.1514980740017361
 20
-0.2156629774305555
 30
0.0
 10
0.1408182779947917
 20
-0.2184190538194444
 30
0.0
 10
0.124798583984375
 20
-0.2129069010416667
 30
0.0
 10
0.1144632975260417
 20
-0.2161797417534722
 30
0.0
 10
0.0917256673177083
 20
-0.2225531684027778
 30
0.0
 10
0.0293694390190972
 20
-0.2452907986111111
 30
0.0
 10
0.003875732421875
 20
-0.2456353081597222
 30
0.0
 10
-0.0254075792100694
 20
-0.2458075629340278
 30
0.0
 10
-0.0583082411024305
 20
-0.2254814995659722
 30
0.0
 10
-0.079840087890625
 20
-0.2191080729166667
 30
0.0
 10
-0.1065395779079861
 20
-0.2111843532986111
 30
0.0
 10
-0.1322055392795139
 20
-0.2137681749131944
 30
0.0
 10
-0.1539096408420139
 20
-0.2017103407118056
 30
0.0
 10
-0.2088589138454861
 20
-0.1707044813368056
 30
0.0
 10
-0.2772440592447916
 20
-0.0554660373263889
 30
0.0
 10
-0.250372314453125
 20
0.0559828016493056
 30
0.0
 10
-0.2470994737413194
 20
0.0559828016493056
 30
0.0
 10
-0.2439988878038194
 20
0.0559828016493056
 30
0.0
 10
-0.241070556640625
 20
0.0559828016493056
 30
0.0
 10
-0.2288404676649306
 20
0.0842325846354167
 30
0.0
 10
-0.2119594997829861
 20
0.1159274631076389
 30
0.0
 10
-0.196112060546875
 20
0.1400431315104166
 30
0.0
 10
-0.1502922905815972
 20
0.2096340603298611
 30
0.0
 10
-0.048834228515625
 20
0.2516642252604167
 30
0.0
 10
0.070538330078125
 20
0.2456353081597222
 30
0.0
  0
SPLINE
  5
FB
330
F8
100
AcDbEntity
  8
LAYER_1
 62
     7
100
AcDbSpline
210
0.0
220
0.0
230
1.0
 70
    11
 71
     3
 72
    32
 73
    28
 74
     0
 42
0.00000001
 43
0.00000001
 40
0.0
 40
0.0
 40
0.0
 40
0.0
 40
1.0
 40
1.0
 40
1.0
 40
2.0
 40
2.0
 40
2.0
 40
3.0
 40
3.0
 40
3.0
 40
4.0
 40
4.0
 40
4.0
 40
5.0
 40
5.0
 40
5.0
 40
6.0
 40
6.0
 40
6.0
 40
7.0
 40
7.0
 40
7.0
 40
8.0
 40
8.0
 40
8.0
 40
9.0
 40
9.0
 40
9.0
 40
9.0
 10
-0.020928955078125
 20
0.1794894748263889
 30
0.0
 10
-0.0431498209635417
 20
0.1727715386284722
 30
0.0
 10
-0.0453891330295139
 20
0.1510674370659722
 30
0.0
 10
-0.0572747124565972
 20
0.1328084309895833
 30
0.0
 10
-0.0979268391927083
 20
0.0706244574652778
 30
0.0
 10
-0.1339280870225694
 20
-0.0973239474826389
 30
0.0
 10
-0.0529683430989583
 20
-0.1539957682291667
 30
0.0
 10
-0.0331590440538194
 20
-0.1677761501736111
 30
0.0
 10
-0.0130052354600694
 20
-0.1617472330729167
 30
0.0
 10
0.0121439615885417
 20
-0.1713935004340278
 30
0.0
 10
0.0121439615885417
 20
-0.1746663411458333
 30
0.0
 10
0.0121439615885417
 20
-0.1777669270833333
 30
0.0
 10
0.0121439615885417
 20
-0.1806952582465278
 30
0.0
 10
0.0505567762586806
 20
-0.1746663411458333
 30
0.0
 10
0.0789788140190972
 20
-0.1834513346354167
 30
0.0
 10
0.1137742784288194
 20
-0.1700154622395833
 30
0.0
 10
0.1287604437934028
 20
-0.1639865451388889
 30
0.0
 10
0.180609130859375
 20
-0.1181667751736111
 30
0.0
 10
0.186810302734375
 20
-0.1042141384548611
 30
0.0
 10
0.2190219455295139
 20
-0.0292833116319444
 30
0.0
 10
0.1857767740885417
 20
0.1386650933159722
 30
0.0
 10
0.1366841634114583
 20
0.1634697808159722
 30
0.0
 10
0.1144632975260417
 20
0.1746663411458333
 30
0.0
 10
0.0986158582899306
 20
0.167431640625
 30
0.0
 10
0.0717441134982639
 20
0.1717380099826389
 30
0.0
 10
0.0555521647135417
 20
0.1743218315972222
 30
0.0
 10
0.0093878851996528
 20
0.1889634874131944
 30
0.0
 10
-0.020928955078125
 20
0.1794894748263889
 30
0.0
  0
ENDBLK
  5
FD
330
F8
100
AcDbEntity
  8
LAYER_1
100
AcDbBlockEnd
  0
BLOCK
  5
100
330
FE
100
AcDbEntity
  8
LAYER_1
 62
     7
100
AcDbBlockBegin
  2
AI9-BLK38
 70
     0
 10
0.0
 20
0.0
 30
0.0
  3
AI9-BLK38
  1

  4

  0
SPLINE
  5
102
330
FE
100
AcDbEntity
  8
LAYER_1
 62
     7
100
AcDbSpline
210
0.0
220
0.0
230
1.0
 70
    11
 71
     3
 72
    29
 73
    25
 74
     0
 42
0.00000001
 43
0.00000001
 40
0.0
 40
0.0
 40
0.0
 40
0.0
 40
1.0
 40
1.0
 40
1.0
 40
2.0
 40
2.0
 40
2.0
 40
3.0
 40
3.0
 40
3.0
 40
4.0
 40
4.0
 40
4.0
 40
5.0
 40
5.0
 40
5.0
 40
6.0
 40
6.0
 40
6.0
 40
7.0
 40
7.0
 40
7.0
 40
8.0
 40
8.0
 40
8.0
 40
8.0
 10
-0.0840603298611111
 20
0.2532145182291666
 30
0.0
 10
0.3067857530381944
 20
0.3224609375
 30
0.0
 10
0.3531222873263888
 20
-0.2056722005208333
 30
0.0
 10
0.0713134765625
 20
-0.2532145182291666
 30
0.0
 10
0.0198092990451389
 20
-0.2616550021701389
 30
0.0
 10
-0.0256659613715278
 20
-0.2439127604166667
 30
0.0
 10
-0.0583943684895833
 20
-0.2365058051215278
 30
0.0
 10
-0.1055921766493056
 20
-0.2256537543402778
 30
0.0
 10
-0.1467610677083333
 20
-0.2258260091145833
 30
0.0
 10
-0.1791449652777778
 20
-0.2013658311631944
 30
0.0
 10
-0.1932698567708333
 20
-0.1908582899305555
 30
0.0
 10
-0.18758544921875
 20
-0.1784559461805556
 30
0.0
 10
-0.1982652452256944
 20
-0.1646755642361111
 30
0.0
 10
-0.21083984375
 20
-0.1477945963541666
 30
0.0
 10
-0.2366780598958333
 20
-0.1400431315104166
 30
0.0
 10
-0.2451185438368055
 20
-0.1190280490451389
 30
0.0
 10
-0.2504584418402778
 20
-0.1059366861979167
 30
0.0
 10
-0.2435682508680555
 20
-0.0869886610243056
 30
0.0
 10
-0.2458075629340278
 20
-0.07286376953125
 30
0.0
 10
-0.2706122504340278
 20
0.0782036675347222
 30
0.0
 10
-0.2580376519097222
 20
0.142626953125
 30
0.0
 10
-0.1483113606770833
 20
0.2153184678819444
 30
0.0
 10
-0.1291910807291667
 20
0.2284098307291667
 30
0.0
 10
-0.1143771701388889
 20
0.2482191297743055
 30
0.0
 10
-0.0840603298611111
 20
0.2532145182291666
 30
0.0
  0
SPLINE
  5
101
330
FE
100
AcDbEntity
  8
LAYER_1
 62
     7
100
AcDbSpline
210
0.0
220
0.0
230
1.0
 70
    11
 71
     3
 72
    20
 73
    16
 74
     0
 42
0.00000001
 43
0.00000001
 40
0.0
 40
0.0
 40
0.0
 40
0.0
 40
1.0
 40
1.0
 40
1.0
 40
2.0
 40
2.0
 40
2.0
 40
3.0
 40
3.0
 40
3.0
 40
4.0
 40
4.0
 40
4.0
 40
5.0
 40
5.0
 40
5.0
 40
5.0
 10
-0.0091295030381944
 20
0.1896525065104167
 30
0.0
 10
-0.0091295030381944
 20
0.1896525065104167
 30
0.0
 10
-0.0273885091145833
 20
0.1708767361111111
 30
0.0
 10
-0.0273885091145833
 20
0.1708767361111111
 30
0.0
 10
-0.1734605577256944
 20
0.0952568901909722
 30
0.0
 10
-0.1717380099826389
 20
-0.2471856011284722
 30
0.0
 10
0.0706244574652778
 20
-0.1975762261284722
 30
0.0
 10
0.1040418836805555
 20
-0.1905137803819444
 30
0.0
 10
0.1229899088541667
 20
-0.1610582139756944
 30
0.0
 10
0.1436604817708333
 20
-0.14107666015625
 30
0.0
 10
0.1536512586805555
 20
-0.1310858832465278
 30
0.0
 10
0.1837958441840278
 20
-0.1152384440104167
 30
0.0
 10
0.1893079969618055
 20
-0.1033528645833333
 30
0.0
 10
0.2508029513888889
 20
0.0296278211805556
 30
0.0
 10
0.1276407877604167
 20
0.2244479709201389
 30
0.0
 10
-0.0091295030381944
 20
0.1896525065104167
 30
0.0
  0
ENDBLK
  5
103
330
FE
100
AcDbEntity
  8
LAYER_1
100
AcDbBlockEnd
  0
BLOCK
  5
106
330
104
100
AcDbEntity
  8
LAYER_1
 62
     7
100
AcDbBlockBegin
  2
AI9-BLK39
 70
     0
 10
0.0
 20
0.0
 30
0.0
  3
AI9-BLK39
  1

  4

  0
SPLINE
  5
108
330
104
100
AcDbEntity
  8
LAYER_1
 62
     7
100
AcDbSpline
210
0.0
220
0.0
230
1.0
 70
    11
 71
     3
 72
    23
 73
    19
 74
     0
 42
0.00000001
 43
0.00000001
 40
0.0
 40
0.0
 40
0.0
 40
0.0
 40
1.0
 40
1.0
 40
1.0
 40
2.0
 40
2.0
 40
2.0
 40
3.0
 40
3.0
 40
3.0
 40
4.0
 40
4.0
 40
4.0
 40
5.0
 40
5.0
 40
5.0
 40
6.0
 40
6.0
 40
6.0
 40
6.0
 10
-0.0745001898871528
 20
0.234869384765625
 30
0.0
 10
0.2817226833767361
 20
0.3054938422309028
 30
0.0
 10
0.3113505045572916
 20
-0.1843987358940972
 30
0.0
 10
0.0620978461371528
 20
-0.234869384765625
 30
0.0
 10
0.0138665093315972
 20
-0.2445156521267361
 30
0.0
 10
-0.1096401638454861
 20
-0.2408983018663194
 30
0.0
 10
-0.1415072970920139
 20
-0.228668212890625
 30
0.0
 10
-0.1439188639322916
 20
-0.2274624294704861
 30
0.0
 10
-0.1487419976128472
 20
-0.211614990234375
 30
0.0
 10
-0.151153564453125
 20
-0.2102369520399305
 30
0.0
 10
-0.2433098687065972
 20
-0.1523593478732639
 30
0.0
 10
-0.2946417914496528
 20
0.0130052354600694
 30
0.0
 10
-0.220916748046875
 20
0.130999755859375
 30
0.0
 10
-0.199212646484375
 20
0.1663119845920139
 30
0.0
 10
-0.1592495388454861
 20
0.185260009765625
 30
0.0
 10
-0.1203199598524306
 20
0.2064473470052083
 30
0.0
 10
-0.1067118326822917
 20
0.2141988118489583
 30
0.0
 10
-0.0929314507378472
 20
0.2314242892795139
 30
0.0
 10
-0.0745001898871528
 20
0.234869384765625
 30
0.0
  0
SPLINE
  5
107
330
104
100
AcDbEntity
  8
LAYER_1
 62
     7
100
AcDbSpline
210
0.0
220
0.0
230
1.0
 70
    11
 71
     3
 72
    23
 73
    19
 74
     0
 42
0.00000001
 43
0.00000001
 40
0.0
 40
0.0
 40
0.0
 40
0.0
 40
1.0
 40
1.0
 40
1.0
 40
2.0
 40
2.0
 40
2.0
 40
3.0
 40
3.0
 40
3.0
 40
4.0
 40
4.0
 40
4.0
 40
5.0
 40
5.0
 40
5.0
 40
6.0
 40
6.0
 40
6.0
 40
6.0
 10
-0.045733642578125
 20
0.1706183539496528
 30
0.0
 10
-0.0505567762586806
 20
0.1690680609809028
 30
0.0
 10
-0.0602030436197917
 20
0.1466749403211805
 30
0.0
 10
-0.0638203938802083
 20
0.1425408257378472
 30
0.0
 10
-0.0746724446614583
 20
0.1322055392795139
 30
0.0
 10
-0.1022332085503472
 20
0.1179083930121528
 30
0.0
 10
-0.1094679090711806
 20
0.1048170301649306
 30
0.0
 10
-0.1785420735677083
 20
-0.0126607259114583
 30
0.0
 10
-0.1196309407552083
 20
-0.2112704806857639
 30
0.0
 10
0.0428053114149306
 20
-0.1797478569878472
 30
0.0
 10
0.0874192979600694
 20
-0.1709628634982639
 30
0.0
 10
0.1013719346788194
 20
-0.1354783799913194
 30
0.0
 10
0.124798583984375
 20
-0.1044725206163194
 30
0.0
 10
0.1344448513454861
 20
-0.0910366482204861
 30
0.0
 10
0.1659674750434028
 20
-0.0734666612413194
 30
0.0
 10
0.1704460991753472
 20
-0.0574469672309028
 30
0.0
 10
0.2031745062934028
 20
0.0698493109809028
 30
0.0
 10
0.0839742024739583
 20
0.214715576171875
 30
0.0
 10
-0.045733642578125
 20
0.1706183539496528
 30
0.0
  0
ENDBLK
  5
109
330
104
100
AcDbEntity
  8
LAYER_1
100
AcDbBlockEnd
  0
BLOCK
  5
10C
330
10A
100
AcDbEntity
  8
LAYER_1
 62
     7
100
AcDbBlockBegin
  2
AI9-BLK40
 70
     0
 10
0.0
 20
0.0
 30
0.0
  3
AI9-BLK40
  1

  4

  0
SPLINE
  5
10E
330
10A
100
AcDbEntity
  8
LAYER_1
 62
     7
100
AcDbSpline
210
0.0
220
0.0
230
1.0
 70
    11
 71
     3
 72
    29
 73
    25
 74
     0
 42
0.00000001
 43
0.00000001
 40
0.0
 40
0.0
 40
0.0
 40
0.0
 40
1.0
 40
1.0
 40
1.0
 40
2.0
 40
2.0
 40
2.0
 40
3.0
 40
3.0
 40
3.0
 40
4.0
 40
4.0
 40
4.0
 40
5.0
 40
5.0
 40
5.0
 40
6.0
 40
6.0
 40
6.0
 40
7.0
 40
7.0
 40
7.0
 40
8.0
 40
8.0
 40
8.0
 40
8.0
 10
-0.0087849934895833
 20
0.2635498046875
 30
0.0
 10
0.0508151584201389
 20
0.2649278428819444
 30
0.0
 10
0.0873331705729167
 20
0.2337497287326389
 30
0.0
 10
0.1216118706597222
 20
0.2099785698784722
 30
0.0
 10
0.1779391818576389
 20
0.1708767361111111
 30
0.0
 10
0.241845703125
 20
0.1073147243923611
 30
0.0
 10
0.2537312825520833
 20
0.0268717447916667
 30
0.0
 10
0.2752631293402778
 20
-0.1198893229166667
 30
0.0
 10
0.1474500868055556
 20
-0.2718180338541666
 30
0.0
 10
0.0082682291666667
 20
-0.2635498046875
 30
0.0
 10
-0.0058566623263889
 20
-0.2625162760416667
 30
0.0
 10
-0.0484035915798611
 20
-0.2394341362847222
 30
0.0
 10
-0.0568440755208333
 20
-0.2366780598958333
 30
0.0
 10
-0.1160997178819444
 20
-0.2161797417534722
 30
0.0
 10
-0.18603515625
 20
-0.1949924045138889
 30
0.0
 10
-0.21549072265625
 20
-0.1465888129340278
 30
0.0
 10
-0.2270317925347222
 20
-0.1274685329861111
 30
0.0
 10
-0.2172132703993056
 20
-0.1238511827256944
 30
0.0
 10
-0.2253092447916666
 20
-0.1004245334201389
 30
0.0
 10
-0.2289265950520833
 20
-0.0906060112847222
 30
0.0
 10
-0.2521809895833333
 20
-0.0623562282986111
 30
0.0
 10
-0.2537312825520833
 20
-0.0546047634548611
 30
0.0
 10
-0.2952446831597222
 20
0.1297078450520833
 30
0.0
 10
-0.155029296875
 20
0.2602769639756944
 30
0.0
 10
-0.0087849934895833
 20
0.2635498046875
 30
0.0
  0
SPLINE
  5
10D
330
10A
100
AcDbEntity
  8
LAYER_1
 62
     7
100
AcDbSpline
210
0.0
220
0.0
230
1.0
 70
    11
 71
     3
 72
    26
 73
    22
 74
     0
 42
0.00000001
 43
0.00000001
 40
0.0
 40
0.0
 40
0.0
 40
0.0
 40
1.0
 40
1.0
 40
1.0
 40
2.0
 40
2.0
 40
2.0
 40
3.0
 40
3.0
 40
3.0
 40
4.0
 40
4.0
 40
4.0
 40
5.0
 40
5.0
 40
5.0
 40
6.0
 40
6.0
 40
6.0
 40
7.0
 40
7.0
 40
7.0
 40
7.0
 10
-0.0072347005208333
 20
0.1617472330729167
 30
0.0
 10
-0.0838880750868055
 20
0.1427992078993055
 30
0.0
 10
-0.1951646592881944
 20
-0.0132636176215278
 30
0.0
 10
-0.1417656792534722
 20
-0.1269517686631944
 30
0.0
 10
-0.1250569661458333
 20
-0.1626085069444444
 30
0.0
 10
-0.0799262152777778
 20
-0.16588134765625
 30
0.0
 10
-0.0391018337673611
 20
-0.1810397677951389
 30
0.0
 10
-0.0110243055555556
 20
-0.1912027994791667
 30
0.0
 10
0.0191202799479167
 20
-0.21859130859375
 30
0.0
 10
0.0721747504340278
 20
-0.2070502387152778
 30
0.0
 10
0.1028361002604167
 20
-0.2003323025173611
 30
0.0
 10
0.1190280490451389
 20
-0.1645033094618056
 30
0.0
 10
0.1359090169270833
 20
-0.1414211697048611
 30
0.0
 10
0.1603691948784722
 20
-0.1071424696180555
 30
0.0
 10
0.1672593858506944
 20
-0.1009412977430556
 30
0.0
 10
0.1808675130208333
 20
-0.0482313368055556
 30
0.0
 10
0.1808675130208333
 20
-0.0482313368055556
 30
0.0
 10
0.1991265190972222
 20
-0.02945556640625
 30
0.0
 10
0.1991265190972222
 20
-0.02945556640625
 30
0.0
 10
0.2080837673611111
 20
0.0673516167534722
 30
0.0
 10
0.1059366861979167
 20
0.19068603515625
 30
0.0
 10
-0.0072347005208333
 20
0.1617472330729167
 30
0.0
  0
ENDBLK
  5
10F
330
10A
100
AcDbEntity
  8
LAYER_1
100
AcDbBlockEnd
  0
BLOCK
  5
112
330
110
100
AcDbEntity
  8
LAYER_1
 62
     7
100
AcDbBlockBegin
  2
AI9-BLK41
 70
     0
 10
0.0
 20
0.0
 30
0.0
  3
AI9-BLK41
  1

  4

  0
SPLINE
  5
114
330
110
100
AcDbEntity
  8
LAYER_1
 62
     7
100
AcDbSpline
210
0.0
220
0.0
230
1.0
 70
    11
 71
     3
 72
    20
 73
    16
 74
     0
 42
0.00000001
 43
0.00000001
 40
0.0
 40
0.0
 40
0.0
 40
0.0
 40
1.0
 40
1.0
 40
1.0
 40
2.0
 40
2.0
 40
2.0
 40
3.0
 40
3.0
 40
3.0
 40
4.0
 40
4.0
 40
4.0
 40
5.0
 40
5.0
 40
5.0
 40
5.0
 10
-0.0474561903211806
 20
0.2210028754340278
 30
0.0
 10
0.0111104329427083
 20
0.2299601236979167
 30
0.0
 10
0.1024054633246528
 20
0.2158352322048611
 30
0.0
 10
0.1378899468315972
 20
0.1960259331597222
 30
0.0
 10
0.2040357801649305
 20
0.1595079210069444
 30
0.0
 10
0.2913689507378472
 20
-0.0144694010416667
 30
0.0
 10
0.2259121365017361
 20
-0.1264350043402778
 30
0.0
 10
0.2107537163628472
 20
-0.1521009657118055
 30
0.0
 10
0.1781975640190972
 20
-0.1569240993923611
 30
0.0
 10
0.152703857421875
 20
-0.1738050672743055
 30
0.0
 10
0.1366841634114583
 20
-0.1837958441840278
 30
0.0
 10
0.110845947265625
 20
-0.2156629774305555
 30
0.0
 10
0.0886250813802083
 20
-0.2210028754340278
 30
0.0
 10
-0.2805168999565972
 20
-0.303857421875
 30
0.0
 10
-0.335638427734375
 20
0.1772501627604167
 30
0.0
 10
-0.0474561903211806
 20
0.2210028754340278
 30
0.0
  0
SPLINE
  5
113
330
110
100
AcDbEntity
  8
LAYER_1
 62
     7
100
AcDbSpline
210
0.0
220
0.0
230
1.0
 70
    11
 71
     3
 72
    11
 73
     7
 74
     0
 42
0.00000001
 43
0.00000001
 40
0.0
 40
0.0
 40
0.0
 40
0.0
 40
1.0
 40
1.0
 40
1.0
 40
2.0
 40
2.0
 40
2.0
 40
2.0
 10
-0.0188618977864583
 20
0.1567518446180556
 30
0.0
 10
-0.1483974880642361
 20
0.12557373046875
 30
0.0
 10
-0.1726854112413194
 20
-0.2413289388020833
 30
0.0
 10
0.0877638075086805
 20
-0.1653645833333333
 30
0.0
 10
0.2210890028211806
 20
-0.1264350043402778
 30
0.0
 10
0.2203999837239583
 20
0.2149739583333333
 30
0.0
 10
-0.0188618977864583
 20
0.1567518446180556
 30
0.0
  0
ENDBLK
  5
115
330
110
100
AcDbEntity
  8
LAYER_1
100
AcDbBlockEnd
  0
BLOCK
  5
118
330
116
100
AcDbEntity
  8
LAYER_1
 62
     7
100
AcDbBlockBegin
  2
AI9-BLK42
 70
     0
 10
0.0
 20
0.0
 30
0.0
  3
AI9-BLK42
  1

  4

  0
SPLINE
  5
11A
330
116
100
AcDbEntity
  8
LAYER_1
 62
     7
100
AcDbSpline
210
0.0
220
0.0
230
1.0
 70
    11
 71
     3
 72
    17
 73
    13
 74
     0
 42
0.00000001
 43
0.00000001
 40
0.0
 40
0.0
 40
0.0
 40
0.0
 40
1.0
 40
1.0
 40
1.0
 40
2.0
 40
2.0
 40
2.0
 40
3.0
 40
3.0
 40
3.0
 40
4.0
 40
4.0
 40
4.0
 40
4.0
 10
-0.06976318359375
 20
0.2346971299913194
 30
0.0
 10
0.3098863389756944
 20
0.3018764919704861
 30
0.0
 10
0.3004123263888889
 20
-0.1911166720920139
 30
0.0
 10
0.0850938585069444
 20
-0.2346971299913194
 30
0.0
 10
0.01395263671875
 20
-0.2491665310329861
 30
0.0
 10
-0.0430636935763889
 20
-0.2228115505642361
 30
0.0
 10
-0.0816487630208333
 20
-0.2095479329427083
 30
0.0
 10
-0.1415934244791667
 20
-0.1887051052517361
 30
0.0
 10
-0.19688720703125
 20
-0.1828484429253472
 30
0.0
 10
-0.2308213975694444
 20
-0.1377176920572917
 30
0.0
 10
-0.3372748480902778
 20
0.0043924967447917
 30
0.0
 10
-0.1898247612847222
 20
0.2138543023003472
 30
0.0
 10
-0.06976318359375
 20
0.2346971299913194
 30
0.0
  0
SPLINE
  5
119
330
116
100
AcDbEntity
  8
LAYER_1
 62
     7
100
AcDbSpline
210
0.0
220
0.0
230
1.0
 70
    11
 71
     3
 72
    14
 73
    10
 74
     0
 42
0.00000001
 43
0.00000001
 40
0.0
 40
0.0
 40
0.0
 40
0.0
 40
1.0
 40
1.0
 40
1.0
 40
2.0
 40
2.0
 40
2.0
 40
3.0
 40
3.0
 40
3.0
 40
3.0
 10
-0.0320393880208333
 20
0.1797478569878472
 30
0.0
 10
-0.0320393880208333
 20
0.1797478569878472
 30
0.0
 10
-0.0406521267361111
 20
0.1616611056857639
 30
0.0
 10
-0.0409966362847222
 20
0.1611443413628472
 30
0.0
 10
-0.1657090928819444
 20
0.0781175401475694
 30
0.0
 10
-0.1471055772569444
 20
-0.2202277289496528
 30
0.0
 10
0.0751030815972222
 20
-0.1794033474392361
 30
0.0
 10
0.23719482421875
 20
-0.1492587619357639
 30
0.0
 10
0.2141126844618055
 20
0.2539896647135416
 30
0.0
 10
-0.0320393880208333
 20
0.1797478569878472
 30
0.0
  0
ENDBLK
  5
11B
330
116
100
AcDbEntity
  8
LAYER_1
100
AcDbBlockEnd
  0
BLOCK
  5
11E
330
11C
100
AcDbEntity
  8
LAYER_1
 62
     7
100
AcDbBlockBegin
  2
AI9-BLK43
 70
     0
 10
0.0
 20
0.0
 30
0.0
  3
AI9-BLK43
  1

  4

  0
SPLINE
  5
120
330
11C
100
AcDbEntity
  8
LAYER_1
 62
     7
100
AcDbSpline
210
0.0
220
0.0
230
1.0
 70
    11
 71
     3
 72
    14
 73
    10
 74
     0
 42
0.00000001
 43
0.00000001
 40
0.0
 40
0.0
 40
0.0
 40
0.0
 40
1.0
 40
1.0
 40
1.0
 40
2.0
 40
2.0
 40
2.0
 40
3.0
 40
3.0
 40
3.0
 40
3.0
 10
-0.0464226616753472
 20
0.2351277669270833
 30
0.0
 10
0.0810458713107639
 20
0.2499416775173611
 30
0.0
 10
0.2212612575954861
 20
0.1541680230034722
 30
0.0
 10
0.2427931043836805
 20
0.06356201171875
 30
0.0
 10
0.278277587890625
 20
-0.0861273871527778
 30
0.0
 10
0.1597663031684028
 20
-0.2177300347222222
 30
0.0
 10
0.0529683430989583
 20
-0.2351277669270833
 30
0.0
 10
-0.2987759060329861
 20
-0.2924886067708333
 30
0.0
 10
-0.3509691026475694
 20
0.19998779296875
 30
0.0
 10
-0.0464226616753472
 20
0.2351277669270833
 30
0.0
  0
SPLINE
  5
11F
330
11C
100
AcDbEntity
  8
LAYER_1
 62
     7
100
AcDbSpline
210
0.0
220
0.0
230
1.0
 70
    11
 71
     3
 72
    29
 73
    25
 74
     0
 42
0.00000001
 43
0.00000001
 40
0.0
 40
0.0
 40
0.0
 40
0.0
 40
1.0
 40
1.0
 40
1.0
 40
2.0
 40
2.0
 40
2.0
 40
3.0
 40
3.0
 40
3.0
 40
4.0
 40
4.0
 40
4.0
 40
5.0
 40
5.0
 40
5.0
 40
6.0
 40
6.0
 40
6.0
 40
7.0
 40
7.0
 40
7.0
 40
8.0
 40
8.0
 40
8.0
 40
8.0
 10
-0.036431884765625
 20
0.1796617296006944
 30
0.0
 10
-0.0514180501302083
 20
0.1765611436631944
 30
0.0
 10
-0.0712273491753472
 20
0.1512396918402778
 30
0.0
 10
-0.0820793999565972
 20
0.1421101888020833
 30
0.0
 10
-0.1535651312934028
 20
0.0837158203125
 30
0.0
 10
-0.144952392578125
 20
0.0179144965277778
 30
0.0
 10
-0.1158413357204861
 20
-0.0804429796006944
 30
0.0
 10
-0.1075731065538194
 20
-0.1090372721354167
 30
0.0
 10
-0.1156690809461805
 20
-0.12867431640625
 30
0.0
 10
-0.0963765462239583
 20
-0.1448662651909722
 30
0.0
 10
-0.067437744140625
 20
-0.16898193359375
 30
0.0
 10
0.0126607259114583
 20
-0.1805230034722222
 30
0.0
 10
0.070538330078125
 20
-0.1701877170138889
 30
0.0
 10
0.1406460232204861
 20
-0.1572686089409722
 30
0.0
 10
0.2231560601128472
 20
-0.0485758463541667
 30
0.0
 10
0.1968010796440972
 20
0.0537434895833333
 30
0.0
 10
0.1968010796440972
 20
0.0537434895833333
 30
0.0
 10
0.1781975640190972
 20
0.0627007378472222
 30
0.0
 10
0.1781975640190972
 20
0.0627007378472222
 30
0.0
 10
0.1718241373697917
 20
0.0721747504340278
 30
0.0
 10
0.1742357042100694
 20
0.0904337565104167
 30
0.0
 10
0.168206787109375
 20
0.0995632595486111
 30
0.0
 10
0.1408182779947917
 20
0.1424546983506944
 30
0.0
 10
0.045733642578125
 20
0.1979207356770833
 30
0.0
 10
-0.036431884765625
 20
0.1796617296006944
 30
0.0
  0
ENDBLK
  5
121
330
11C
100
AcDbEntity
  8
LAYER_1
100
AcDbBlockEnd
  0
BLOCK
  5
124
330
122
100
AcDbEntity
  8
LAYER_1
 62
     7
100
AcDbBlockBegin
  2
AI9-BLK44
 70
     0
 10
0.0
 20
0.0
 30
0.0
  3
AI9-BLK44
  1

  4

  0
SPLINE
  5
126
330
122
100
AcDbEntity
  8
LAYER_1
 62
     7
100
AcDbSpline
210
0.0
220
0.0
230
1.0
 70
    11
 71
     3
 72
    32
 73
    28
 74
     0
 42
0.00000001
 43
0.00000001
 40
0.0
 40
0.0
 40
0.0
 40
0.0
 40
1.0
 40
1.0
 40
1.0
 40
2.0
 40
2.0
 40
2.0
 40
3.0
 40
3.0
 40
3.0
 40
4.0
 40
4.0
 40
4.0
 40
5.0
 40
5.0
 40
5.0
 40
6.0
 40
6.0
 40
6.0
 40
7.0
 40
7.0
 40
7.0
 40
8.0
 40
8.0
 40
8.0
 40
9.0
 40
9.0
 40
9.0
 40
9.0
 10
-0.0462504069010417
 20
0.2399509006076389
 30
0.0
 10
-0.0078375922309028
 20
0.2435682508680555
 30
0.0
 10
0.0198954264322917
 20
0.2290988498263889
 30
0.0
 10
0.0465949164496528
 20
0.2228976779513889
 30
0.0
 10
0.1645894368489583
 20
0.1960259331597222
 30
0.0
 10
0.1856045193142361
 20
0.1477945963541666
 30
0.0
 10
0.2159213595920139
 20
0.0311781141493056
 30
0.0
 10
0.2202277289496528
 20
0.01395263671875
 30
0.0
 10
0.2377977159288194
 20
-0.01705322265625
 30
0.0
 10
0.2355584038628472
 20
-0.0425469292534722
 30
0.0
 10
0.2283237033420139
 20
-0.1181667751736111
 30
0.0
 10
0.1099846733940972
 20
-0.2349555121527778
 30
0.0
 10
0.0257520887586806
 20
-0.2399509006076389
 30
0.0
 10
-0.0159335666232639
 20
-0.2423624674479167
 30
0.0
 10
-0.0509012858072917
 20
-0.2204861111111111
 30
0.0
 10
-0.0763949924045139
 20
-0.2137681749131944
 30
0.0
 10
-0.1187696668836805
 20
-0.2018825954861111
 30
0.0
 10
-0.146502685546875
 20
-0.2080837673611111
 30
0.0
 10
-0.1785420735677083
 20
-0.1874131944444444
 30
0.0
 10
-0.2081698947482639
 20
-0.1682929144965278
 30
0.0
 10
-0.2202277289496528
 20
-0.1305691189236111
 30
0.0
 10
-0.2355584038628472
 20
-0.0957736545138889
 30
0.0
 10
-0.3006707085503472
 20
0.0532267252604167
 30
0.0
 10
-0.2505445692274305
 20
0.1632975260416666
 30
0.0
 10
-0.1198031955295139
 20
0.2111843532986111
 30
0.0
 10
-0.104644775390625
 20
0.2168687608506944
 30
0.0
 10
-0.0667487250434028
 20
0.2382283528645833
 30
0.0
 10
-0.0462504069010417
 20
0.2399509006076389
 30
0.0
  0
SPLINE
  5
125
330
122
100
AcDbEntity
  8
LAYER_1
 62
     7
100
AcDbSpline
210
0.0
220
0.0
230
1.0
 70
    11
 71
     3
 72
    26
 73
    22
 74
     0
 42
0.00000001
 43
0.00000001
 40
0.0
 40
0.0
 40
0.0
 40
0.0
 40
1.0
 40
1.0
 40
1.0
 40
2.0
 40
2.0
 40
2.0
 40
3.0
 40
3.0
 40
3.0
 40
4.0
 40
4.0
 40
4.0
 40
5.0
 40
5.0
 40
5.0
 40
6.0
 40
6.0
 40
6.0
 40
7.0
 40
7.0
 40
7.0
 40
7.0
 10
-0.0453891330295139
 20
0.18448486328125
 30
0.0
 10
-0.0543463812934028
 20
0.1829345703125
 30
0.0
 10
-0.0741556803385417
 20
0.16123046875
 30
0.0
 10
-0.0819071451822917
 20
0.1562350802951389
 30
0.0
 10
-0.1446078830295139
 20
0.117822265625
 30
0.0
 10
-0.1962843153211805
 20
0.0065456814236111
 30
0.0
 10
-0.1430575900607639
 20
-0.0850938585069444
 30
0.0
 10
-0.130999755859375
 20
-0.1064534505208333
 30
0.0
 10
-0.0993048773871528
 20
-0.1160997178819444
 30
0.0
 10
-0.0777730305989583
 20
-0.1303968641493055
 30
0.0
 10
-0.047283935546875
 20
-0.1505506727430555
 30
0.0
 10
0.0009474012586806
 20
-0.1853461371527778
 30
0.0
 10
0.0708828396267361
 20
-0.1651923285590278
 30
0.0
 10
0.0886250813802083
 20
-0.1598524305555555
 30
0.0
 10
0.1053337944878472
 20
-0.1305691189236111
 30
0.0
 10
0.1163581000434028
 20
-0.1183390299479167
 30
0.0
 10
0.1316887749565972
 20
-0.1002522786458333
 30
0.0
 10
0.1664842393663194
 20
-0.0692464192708333
 30
0.0
 10
0.1707906087239583
 20
-0.0435804578993056
 30
0.0
 10
0.1895663791232639
 20
0.0752753363715278
 30
0.0
 10
0.0701938205295139
 20
0.2075670030381944
 30
0.0
 10
-0.0453891330295139
 20
0.18448486328125
 30
0.0
  0
ENDBLK
  5
127
330
122
100
AcDbEntity
  8
LAYER_1
100
AcDbBlockEnd
  0
BLOCK
  5
12A
330
128
100
AcDbEntity
  8
LAYER_1
 62
     7
100
AcDbBlockBegin
  2
AI9-BLK45
 70
     0
 10
0.0
 20
0.0
 30
0.0
  3
AI9-BLK45
  1

  4

  0
SPLINE
  5
12C
330
128
100
AcDbEntity
  8
LAYER_1
 62
     7
100
AcDbSpline
210
0.0
220
0.0
230
1.0
 70
    11
 71
     3
 72
   410
 73
   406
 74
     0
 42
0.00000001
 43
0.00000001
 40
0.0
 40
0.0
 40
0.0
 40
0.0
 40
1.0
 40
1.0
 40
1.0
 40
2.0
 40
2.0
 40
2.0
 40
3.0
 40
3.0
 40
3.0
 40
4.0
 40
4.0
 40
4.0
 40
5.0
 40
5.0
 40
5.0
 40
6.0
 40
6.0
 40
6.0
 40
7.0
 40
7.0
 40
7.0
 40
8.0
 40
8.0
 40
8.0
 40
9.0
 40
9.0
 40
9.0
 40
10.0
 40
10.0
 40
10.0
 40
11.0
 40
11.0
 40
11.0
 40
12.0
 40
12.0
 40
12.0
 40
13.0
 40
13.0
 40
13.0
 40
14.0
 40
14.0
 40
14.0
 40
15.0
 40
15.0
 40
15.0
 40
16.0
 40
16.0
 40
16.0
 40
17.0
 40
17.0
 40
17.0
 40
18.0
 40
18.0
 40
18.0
 40
19.0
 40
19.0
 40
19.0
 40
20.0
 40
20.0
 40
20.0
 40
21.0
 40
21.0
 40
21.0
 40
22.0
 40
22.0
 40
22.0
 40
23.0
 40
23.0
 40
23.0
 40
24.0
 40
24.0
 40
24.0
 40
25.0
 40
25.0
 40
25.0
 40
26.0
 40
26.0
 40
26.0
 40
27.0
 40
27.0
 40
27.0
 40
28.0
 40
28.0
 40
28.0
 40
29.0
 40
29.0
 40
29.0
 40
30.0
 40
30.0
 40
30.0
 40
31.0
 40
31.0
 40
31.0
 40
32.0
 40
32.0
 40
32.0
 40
33.0
 40
33.0
 40
33.0
 40
34.0
 40
34.0
 40
34.0
 40
35.0
 40
35.0
 40
35.0
 40
36.0
 40
36.0
 40
36.0
 40
37.0
 40
37.0
 40
37.0
 40
38.0
 40
38.0
 40
38.0
 40
39.0
 40
39.0
 40
39.0
 40
40.0
 40
40.0
 40
40.0
 40
41.0
 40
41.0
 40
41.0
 40
42.0
 40
42.0
 40
42.0
 40
43.0
 40
43.0
 40
43.0
 40
44.0
 40
44.0
 40
44.0
 40
45.0
 40
45.0
 40
45.0
 40
46.0
 40
46.0
 40
46.0
 40
47.0
 40
47.0
 40
47.0
 40
48.0
 40
48.0
 40
48.0
 40
49.0
 40
49.0
 40
49.0
 40
50.0
 40
50.0
 40
50.0
 40
51.0
 40
51.0
 40
51.0
 40
52.0
 40
52.0
 40
52.0
 40
53.0
 40
53.0
 40
53.0
 40
54.0
 40
54.0
 40
54.0
 40
55.0
 40
55.0
 40
55.0
 40
56.0
 40
56.0
 40
56.0
 40
57.0
 40
57.0
 40
57.0
 40
58.0
 40
58.0
 40
58.0
 40
59.0
 40
59.0
 40
59.0
 40
60.0
 40
60.0
 40
60.0
 40
61.0
 40
61.0
 40
61.0
 40
62.0
 40
62.0
 40
62.0
 40
63.0
 40
63.0
 40
63.0
 40
64.0
 40
64.0
 40
64.0
 40
65.0
 40
65.0
 40
65.0
 40
66.0
 40
66.0
 40
66.0
 40
67.0
 40
67.0
 40
67.0
 40
68.0
 40
68.0
 40
68.0
 40
69.0
 40
69.0
 40
69.0
 40
70.0
 40
70.0
 40
70.0
 40
71.0
 40
71.0
 40
71.0
 40
72.0
 40
72.0
 40
72.0
 40
73.0
 40
73.0
 40
73.0
 40
74.0
 40
74.0
 40
74.0
 40
75.0
 40
75.0
 40
75.0
 40
76.0
 40
76.0
 40
76.0
 40
77.0
 40
77.0
 40
77.0
 40
78.0
 40
78.0
 40
78.0
 40
79.0
 40
79.0
 40
79.0
 40
80.0
 40
80.0
 40
80.0
 40
81.0
 40
81.0
 40
81.0
 40
82.0
 40
82.0
 40
82.0
 40
83.0
 40
83.0
 40
83.0
 40
84.0
 40
84.0
 40
84.0
 40
85.0
 40
85.0
 40
85.0
 40
86.0
 40
86.0
 40
86.0
 40
87.0
 40
87.0
 40
87.0
 40
88.0
 40
88.0
 40
88.0
 40
89.0
 40
89.0
 40
89.0
 40
90.0
 40
90.0
 40
90.0
 40
91.0
 40
91.0
 40
91.0
 40
92.0
 40
92.0
 40
92.0
 40
93.0
 40
93.0
 40
93.0
 40
94.0
 40
94.0
 40
94.0
 40
95.0
 40
95.0
 40
95.0
 40
96.0
 40
96.0
 40
96.0
 40
97.0
 40
97.0
 40
97.0
 40
98.0
 40
98.0
 40
98.0
 40
99.0
 40
99.0
 40
99.0
 40
100.0
 40
100.0
 40
100.0
 40
101.0
 40
101.0
 40
101.0
 40
102.0
 40
102.0
 40
102.0
 40
103.0
 40
103.0
 40
103.0
 40
104.0
 40
104.0
 40
104.0
 40
105.0
 40
105.0
 40
105.0
 40
106.0
 40
106.0
 40
106.0
 40
107.0
 40
107.0
 40
107.0
 40
108.0
 40
108.0
 40
108.0
 40
109.0
 40
109.0
 40
109.0
 40
110.0
 40
110.0
 40
110.0
 40
111.0
 40
111.0
 40
111.0
 40
112.0
 40
112.0
 40
112.0
 40
113.0
 40
113.0
 40
113.0
 40
114.0
 40
114.0
 40
114.0
 40
115.0
 40
115.0
 40
115.0
 40
116.0
 40
116.0
 40
116.0
 40
117.0
 40
117.0
 40
117.0
 40
118.0
 40
118.0
 40
118.0
 40
119.0
 40
119.0
 40
119.0
 40
120.0
 40
120.0
 40
120.0
 40
121.0
 40
121.0
 40
121.0
 40
122.0
 40
122.0
 40
122.0
 40
123.0
 40
123.0
 40
123.0
 40
124.0
 40
124.0
 40
124.0
 40
125.0
 40
125.0
 40
125.0
 40
126.0
 40
126.0
 40
126.0
 40
127.0
 40
127.0
 40
127.0
 40
128.0
 40
128.0
 40
128.0
 40
129.0
 40
129.0
 40
129.0
 40
130.0
 40
130.0
 40
130.0
 40
131.0
 40
131.0
 40
131.0
 40
132.0
 40
132.0
 40
132.0
 40
133.0
 40
133.0
 40
133.0
 40
134.0
 40
134.0
 40
134.0
 40
135.0
 40
135.0
 40
135.0
 40
135.0
 10
3.444492594401041
 20
2.964763047960069
 30
0.0
 10
3.497030300564236
 20
2.96820814344618
 30
0.0
 10
3.506504313151041
 20
2.952360704210069
 30
0.0
 10
3.537337917751736
 20
2.938408067491319
 30
0.0
 10
3.538888210720486
 20
2.832299126519097
 30
0.0
 10
3.545950656467014
 20
2.705864122178819
 30
0.0
 10
3.532859293619791
 20
2.614569091796875
 30
0.0
 10
3.53096449110243
 20
2.60388929578993
 30
0.0
 10
3.54181654188368
 20
2.590970187717014
 30
0.0
 10
3.542333306206597
 20
2.59613783094618
 30
0.0
 10
3.540610758463541
 20
2.584079996744792
 30
0.0
 10
3.52321302625868
 20
2.558930799696181
 30
0.0
 10
3.543022325303819
 20
2.559275309244792
 30
0.0
 10
3.547156439887152
 20
2.278844536675347
 30
0.0
 10
3.554391140407986
 20
2.025802273220486
 30
0.0
 10
3.536476643880208
 20
1.74502699110243
 30
0.0
 10
3.539749484592014
 20
1.74502699110243
 30
0.0
 10
3.542850070529513
 20
1.745199245876736
 30
0.0
 10
3.545778401692708
 20
1.745199245876736
 30
0.0
 10
3.535787624782986
 20
1.663550482855903
 30
0.0
 10
3.562487114800347
 20
1.531775580512153
 30
0.0
 10
3.541127522786458
 20
1.439791531032986
 30
0.0
 10
3.538026936848958
 20
1.427733696831597
 30
0.0
 10
3.523902045355903
 20
1.431178792317708
 30
0.0
 10
3.52321302625868
 20
1.402584499782986
 30
0.0
 10
3.522351752387153
 20
1.381397162543403
 30
0.0
 10
3.534926350911458
 20
1.285623508029514
 30
0.0
 10
3.543883599175347
 20
1.254962158203125
 30
0.0
 10
3.543883599175347
 20
1.254962158203125
 30
0.0
 10
3.562487114800347
 20
1.236703152126736
 30
0.0
 10
3.562487114800347
 20
1.236703152126736
 30
0.0
 10
3.573339165581597
 20
1.190883382161458
 30
0.0
 10
3.566448974609375
 20
1.166423204210069
 30
0.0
 10
3.582640923394097
 20
1.125943332248264
 30
0.0
 10
3.586086018880208
 20
1.116986083984375
 30
0.0
 10
3.607445610894097
 20
1.09855482313368
 30
0.0
 10
3.611062961154514
 20
1.089425320095486
 30
0.0
 10
3.631389024522569
 20
1.033098008897569
 30
0.0
 10
3.627771674262152
 20
0.9890007866753472
 30
0.0
 10
3.65033704969618
 20
0.9326734754774305
 30
0.0
 10
3.653265380859375
 20
0.9249220106336805
 30
0.0
 10
3.675830756293403
 20
0.9047682020399305
 30
0.0
 10
3.678586832682291
 20
0.8961554633246527
 30
0.0
 10
3.693228488498264
 20
0.8486131456163194
 30
0.0
 10
3.685821533203125
 20
0.8155402289496527
 30
0.0
 10
3.699085150824653
 20
0.7669643825954861
 30
0.0
 10
3.702013481987847
 20
0.7554233127170138
 30
0.0
 10
3.724234347873264
 20
0.723556179470486
 30
0.0
 10
3.727679443359375
 20
0.7118428548177083
 30
0.0
 10
3.735775417751736
 20
0.6834208170572916
 30
0.0
 10
3.727507188585069
 20
0.6661953396267361
 30
0.0
 10
3.738014729817708
 20
0.6379455566406249
 30
0.0
 10
3.741632080078125
 20
0.6279547797309028
 30
0.0
 10
3.762991672092014
 20
0.6114183213975694
 30
0.0
 10
3.766264512803819
 20
0.6014275444878472
 30
0.0
 10
3.792274983723958
 20
0.5194342719184028
 30
0.0
 10
3.792102728949653
 20
0.4538052029079861
 30
0.0
 10
3.815873887803819
 20
0.3709506564670139
 30
0.0
 10
3.815873887803819
 20
0.3709506564670139
 30
0.0
 10
3.834649658203125
 20
0.3526916503906249
 30
0.0
 10
3.834649658203125
 20
0.3526916503906249
 30
0.0
 10
3.861693657769097
 20
0.2484775119357639
 30
0.0
 10
3.845501708984375
 20
0.0579637315538194
 30
0.0
 10
3.849291314019097
 20
-0.0078375922309028
 30
0.0
 10
3.864794243706597
 20
-0.2886128743489583
 30
0.0
 10
3.871339925130208
 20
-0.6498311360677083
 30
0.0
 10
3.853942192925347
 20
-0.942147488064236
 30
0.0
 10
3.851358371310764
 20
-0.9821105957031249
 30
0.0
 10
3.865655517578125
 20
-1.032408989800347
 30
0.0
 10
3.855836995442708
 20
-1.071683078342014
 30
0.0
 10
3.854114447699653
 20
-1.077195231119792
 30
0.0
 10
3.829309760199652
 20
-1.096660020616319
 30
0.0
 10
3.828448486328125
 20
-1.099760606553819
 30
0.0
 10
3.828448486328125
 20
-1.099760606553819
 30
0.0
 10
3.828792995876736
 20
-1.118364122178819
 30
0.0
 10
3.828792995876736
 20
-1.118364122178819
 30
0.0
 10
3.779528130425347
 20
-1.165906439887153
 30
0.0
 10
3.684788004557291
 20
-1.155054389105903
 30
0.0
 10
3.598316107855903
 20
-1.167973497178819
 30
0.0
 10
3.529069688585069
 20
-1.177964274088542
 30
0.0
 10
3.435707600911458
 20
-1.206558566623264
 30
0.0
 10
3.367666965060764
 20
-1.217582872178819
 30
0.0
 10
3.255873616536458
 20
-1.235841878255208
 30
0.0
 10
3.14184095594618
 20
-1.228262668185764
 30
0.0
 10
3.072766791449653
 20
-1.286829291449653
 30
0.0
 10
3.017989773220486
 20
-1.33264906141493
 30
0.0
 10
3.04262220594618
 20
-1.397589111328125
 30
0.0
 10
3.038660346137152
 20
-1.48147718641493
 30
0.0
 10
3.037454562717014
 20
-1.502664523654514
 30
0.0
 10
3.035559760199653
 20
-1.567087809244792
 30
0.0
 10
3.031081136067708
 20
-1.601883273654514
 30
0.0
 10
3.029186333550347
 20
-1.615835910373264
 30
0.0
 10
3.006276448567708
 20
-1.658382839626736
 30
0.0
 10
3.004381646050347
 20
-1.676297336154514
 30
0.0
 10
3.000075276692708
 20
-1.714193386501736
 30
0.0
 10
3.010755072699653
 20
-1.748988850911458
 30
0.0
 10
3.006104193793402
 20
-1.787229410807292
 30
0.0
 10
2.999558512369791
 20
-1.837355550130208
 30
0.0
 10
2.960801188151041
 20
-1.929339599609375
 30
0.0
 10
2.925316704644097
 20
-1.955005560980903
 30
0.0
 10
2.854692247178819
 20
-2.00547620985243
 30
0.0
 10
2.720333523220486
 20
-2.009954833984375
 30
0.0
 10
2.611813015407986
 20
-2.024424235026042
 30
0.0
 10
2.560825602213542
 20
-2.030969916449652
 30
0.0
 10
2.487445068359375
 20
-2.054913330078125
 30
0.0
 10
2.436629909939236
 20
-2.064042833116319
 30
0.0
 10
2.337411159939236
 20
-2.081268310546875
 30
0.0
 10
2.264891899956597
 20
-2.081957329644097
 30
0.0
 10
2.159644232855903
 20
-2.095909966362847
 30
0.0
 10
2.082301839192708
 20
-2.105728488498264
 30
0.0
 10
1.987389458550347
 20
-2.151892768012153
 30
0.0
 10
1.891960313585069
 20
-2.136906602647569
 30
0.0
 10
1.846829562717014
 20
-2.129327392578125
 30
0.0
 10
1.674919297960069
 20
-2.019256591796875
 30
0.0
 10
1.649253336588542
 20
-1.992384847005208
 30
0.0
 10
1.649253336588542
 20
-1.992384847005208
 30
0.0
 10
1.649081081814236
 20
-1.973953586154514
 30
0.0
 10
1.649081081814236
 20
-1.973953586154514
 30
0.0
 10
1.647014024522569
 20
-1.968096923828125
 30
0.0
 10
1.624620903862847
 20
-1.961551242404514
 30
0.0
 10
1.62100355360243
 20
-1.95586683485243
 30
0.0
 10
1.608945719401042
 20
-1.936918809678819
 30
0.0
 10
1.595509847005208
 20
-1.893166097005208
 30
0.0
 10
1.592064751519097
 20
-1.873012288411458
 30
0.0
 10
1.577250840928819
 20
-1.788262939453125
 30
0.0
 10
1.601366509331597
 20
-1.678881157769097
 30
0.0
 10
1.569843885633681
 20
-1.623587375217014
 30
0.0
 10
1.565020751953125
 20
-1.615319146050347
 30
0.0
 10
1.547450764973958
 20
-1.61325208875868
 30
0.0
 10
1.541766357421875
 20
-1.60550062391493
 30
0.0
 10
1.531258816189236
 20
-1.590514458550347
 30
0.0
 10
1.528847249348958
 20
-1.566915554470486
 30
0.0
 10
1.513344319661458
 20
-1.559680853949653
 30
0.0
 10
1.428594970703125
 20
-1.519028727213541
 30
0.0
 10
1.119742160373264
 20
-1.602744547526042
 30
0.0
 10
1.033098008897569
 20
-1.613079833984375
 30
0.0
 10
0.9245775010850693
 20
-1.62565443250868
 30
0.0
 10
0.8508524576822916
 20
-1.62720472547743
 30
0.0
 10
0.746810574001736
 20
-1.644946967230903
 30
0.0
 10
0.698751491970486
 20
-1.653042941623264
 30
0.0
 10
0.6482808430989583
 20
-1.690077718098958
 30
0.0
 10
0.6090067545572916
 20
-1.702652316623264
 30
0.0
 10
0.5828240288628471
 20
-1.710403781467014
 30
0.0
 10
0.5556077745225694
 20
-1.700413004557292
 30
0.0
 10
0.5351094563802082
 20
-1.712987603081597
 30
0.0
 10
0.5175394694010417
 20
-1.722978379991319
 30
0.0
 10
0.5180562337239583
 20
-1.749850124782986
 30
0.0
 10
0.5080654568142361
 20
-1.768798149956597
 30
0.0
 10
0.5065151638454861
 20
-1.771381971571181
 30
0.0
 10
0.4810214572482638
 20
-1.795842149522569
 30
0.0
 10
0.4808492024739583
 20
-1.797047932942708
 30
0.0
 10
0.4741312662760416
 20
-1.819613308376736
 30
0.0
 10
0.4849833170572916
 20
-1.847001817491319
 30
0.0
 10
0.4818827311197916
 20
-1.870945231119792
 30
0.0
 10
0.4818827311197916
 20
-1.870945231119792
 30
0.0
 10
0.4639682345920139
 20
-1.908324517144097
 30
0.0
 10
0.4639682345920139
 20
-1.908324517144097
 30
0.0
 10
0.4489820692274305
 20
-2.008749050564236
 30
0.0
 10
0.4861891004774305
 20
-2.02218492296007
 30
0.0
 10
0.4670688205295139
 20
-2.120886908637153
 30
0.0
 10
0.4515658908420139
 20
-2.199779595269097
 30
0.0
 10
0.3781853569878472
 20
-2.32173597547743
 30
0.0
 10
0.3227193196614583
 20
-2.36359388563368
 30
0.0
 10
0.2231560601128472
 20
-2.438180202907986
 30
0.0
 10
0.0641649034288194
 20
-2.432495795355903
 30
0.0
 10
-0.092242431640625
 20
-2.452994113498264
 30
0.0
 10
-0.1935282389322917
 20
-2.466085476345486
 30
0.0
 10
-0.3251308865017361
 20
-2.498641628689236
 30
0.0
 10
-0.4243496365017361
 20
-2.513455539279514
 30
0.0
 10
-0.4806769476996528
 20
-2.521551513671875
 30
0.0
 10
-0.5163336859809027
 20
-2.515694851345486
 30
0.0
 10
-0.5721442328559028
 20
-2.52482435438368
 30
0.0
 10
-0.6760138617621527
 20
-2.541533067491319
 30
0.0
 10
-0.8365553114149305
 20
-2.600271945529514
 30
0.0
 10
-0.9598897298177083
 20
-2.586147054036458
 30
0.0
 10
-0.9803880479600694
 20
-2.583563232421875
 30
0.0
 10
-1.001575385199653
 20
-2.558758544921875
 30
0.0
 10
-1.015872531467014
 20
-2.549973551432291
 30
0.0
 10
-1.071338568793403
 20
-2.515178087022569
 30
0.0
 10
-1.12646009657118
 20
-2.461090087890625
 30
0.0
 10
-1.147647433810764
 20
-2.39459974500868
 30
0.0
 10
-1.195534261067708
 20
-2.245082600911458
 30
0.0
 10
-1.128871663411458
 20
-2.145863850911458
 30
0.0
 10
-1.217582872178819
 20
-2.04423353407118
 30
0.0
 10
-1.232396782769097
 20
-2.027524820963542
 30
0.0
 10
-1.240492757161458
 20
-2.004098171657986
 30
0.0
 10
-1.264608425564236
 20
-1.998586018880208
 30
0.0
 10
-1.324725341796875
 20
-1.984461127387153
 30
0.0
 10
-1.422393798828125
 20
-2.005303955078125
 30
0.0
 10
-1.467869059244792
 20
-2.010816107855903
 30
0.0
 10
-1.596371120876736
 20
-2.025802273220486
 30
0.0
 10
-1.686977132161458
 20
-2.033553738064236
 30
0.0
 10
-1.809622531467014
 20
-2.053018527560764
 30
0.0
 10
-1.837183295355903
 20
-2.057152642144097
 30
0.0
 10
-1.889893256293403
 20
-2.078684488932292
 30
0.0
 10
-1.92021009657118
 20
-2.082301839192708
 30
0.0
 10
-2.013572184244791
 20
-2.093326144748264
 30
0.0
 10
-2.102627902560764
 20
-2.074033610026042
 30
0.0
 10
-2.197540283203125
 20
-2.095737711588542
 30
0.0
 10
-2.197540283203125
 20
-2.095737711588542
 30
0.0
 10
-2.215627034505208
 20
-2.114513481987847
 30
0.0
 10
-2.215627034505208
 20
-2.114513481987847
 30
0.0
 10
-2.27522718641493
 20
-2.13845689561632
 30
0.0
 10
-2.289352077907986
 20
-2.143107774522569
 30
0.0
 10
-2.316223822699653
 20
-2.19926283094618
 30
0.0
 10
-2.316223822699653
 20
-2.19926283094618
 30
0.0
 10
-2.334482828776042
 20
-2.218038601345486
 30
0.0
 10
-2.334482828776042
 20
-2.218038601345486
 30
0.0
 10
-2.343612331814236
 20
-2.261791314019097
 30
0.0
 10
-2.343095567491319
 20
-2.467980278862847
 30
0.0
 10
-2.339478217230903
 20
-2.504842800564236
 30
0.0
 10
-2.338100179036458
 20
-2.518795437282986
 30
0.0
 10
-2.317774115668402
 20
-2.543255615234375
 30
0.0
 10
-2.319841172960069
 20
-2.578567843967014
 30
0.0
 10
-2.321219211154514
 20
-2.598893907335069
 30
0.0
 10
-2.352052815755208
 20
-2.69845716688368
 30
0.0
 10
-2.363938395182291
 20
-2.717921956380208
 30
0.0
 10
-2.363938395182291
 20
-2.717921956380208
 30
0.0
 10
-2.382369656032986
 20
-2.727568223741319
 30
0.0
 10
-2.382369656032986
 20
-2.727568223741319
 30
0.0
 10
-2.396150037977431
 20
-2.753061930338542
 30
0.0
 10
-2.397528076171875
 20
-2.784067789713542
 30
0.0
 10
-2.418198649088541
 20
-2.801982286241319
 30
0.0
 10
-2.476420762803819
 20
-2.851247151692708
 30
0.0
 10
-2.597515869140625
 20
-2.843323432074652
 30
0.0
 10
-2.685710313585069
 20
-2.861582438151042
 30
0.0
 10
-2.898961724175347
 20
-2.904301622178819
 30
0.0
 10
-3.168368191189236
 20
-2.961145697699652
 30
0.0
 10
-3.405735270182291
 20
-2.964763047960069
 30
0.0
 10
-3.427611626519097
 20
-2.793369547526042
 30
0.0
 10
-3.479977077907986
 20
-2.658838568793402
 30
0.0
 10
-3.495996771918402
 20
-2.485033501519097
 30
0.0
 10
-3.512188720703125
 20
-2.311745198567708
 30
0.0
 10
-3.508054606119791
 20
-2.007371012369791
 30
0.0
 10
-3.496685791015625
 20
-1.818924289279514
 30
0.0
 10
-3.486350504557291
 20
-1.641674126519097
 30
0.0
 10
-3.499269612630208
 20
-1.522129313151042
 30
0.0
 10
-3.512533230251736
 20
-1.375195990668403
 30
0.0
 10
-3.515633816189236
 20
-1.34350111219618
 30
0.0
 10
-3.526830376519097
 20
-1.210003662109375
 30
0.0
 10
-3.505815294053819
 20
-1.19932386610243
 30
0.0
 10
-3.486695014105902
 20
-1.189160834418403
 30
0.0
 10
-3.515289306640625
 20
-1.190194363064236
 30
0.0
 10
-3.515289306640625
 20
-1.190194363064236
 30
0.0
 10
-3.518045383029514
 20
-1.007604302300347
 30
0.0
 10
-3.513049994574653
 20
-0.8365553114149305
 30
0.0
 10
-3.523557535807291
 20
-0.6353617350260417
 30
0.0
 10
-3.52786390516493
 20
-0.5552632649739583
 30
0.0
 10
-3.578334554036458
 20
-0.5011752658420139
 30
0.0
 10
-3.600383165147569
 20
-0.4422641330295138
 30
0.0
 10
-3.620536973741319
 20
-0.388348388671875
 30
0.0
 10
-3.611751980251736
 20
-0.3530361599392361
 30
0.0
 10
-3.630355495876736
 20
-0.2946417914496528
 30
0.0
 10
-3.635523139105902
 20
-0.2791388617621528
 30
0.0
 10
-3.661533610026041
 20
-0.2548509385850694
 30
0.0
 10
-3.668079291449653
 20
-0.2396925184461805
 30
0.0
 10
-3.692022705078125
 20
-0.1862935384114583
 30
0.0
 10
-3.695984564887152
 20
-0.1501200358072917
 30
0.0
 10
-3.716655137803819
 20
-0.0924146864149305
 30
0.0
 10
-3.722684054904514
 20
-0.0762227376302083
 30
0.0
 10
-3.749383544921875
 20
-0.0445278591579861
 30
0.0
 10
-3.754551188151041
 20
-0.0281636555989583
 30
0.0
 10
-3.760235595703125
 20
-0.0105936686197917
 30
0.0
 10
-3.750761583116319
 20
0.0097323947482639
 30
0.0
 10
-3.755412462022569
 20
0.0273023817274306
 30
0.0
 10
-3.755412462022569
 20
0.0273023817274306
 30
0.0
 10
-3.774015977647569
 20
0.0362596299913194
 30
0.0
 10
-3.774015977647569
 20
0.0362596299913194
 30
0.0
 10
-3.789002143012152
 20
0.0731221516927083
 30
0.0
 10
-3.78211195203993
 20
0.0980990939670139
 30
0.0
 10
-3.793997531467014
 20
0.1377176920572917
 30
0.0
 10
-3.802438015407986
 20
0.1652784559461805
 30
0.0
 10
-3.836716715494791
 20
0.2140265570746528
 30
0.0
 10
-3.841712103949652
 20
0.2388312445746528
 30
0.0
 10
-3.862554931640625
 20
0.3370164659288194
 30
0.0
 10
-3.83947279188368
 20
0.4787821451822916
 30
0.0
 10
-3.837233479817708
 20
0.5626702202690972
 30
0.0
 10
-3.866516791449652
 20
0.5766228569878472
 30
0.0
 10
-3.841539849175347
 20
0.8487854003906249
 30
0.0
 10
-3.842917887369791
 20
0.9418029785156249
 30
0.0
 10
-3.855836995442708
 20
0.9297451443142361
 30
0.0
 10
-3.85187513563368
 20
0.957650417751736
 30
0.0
 10
-3.852391899956597
 20
0.9602342393663194
 30
0.0
 10
-3.851358371310764
 20
0.9486931694878471
 30
0.0
 10
-3.83327162000868
 20
0.9774597167968749
 30
0.0
 10
-3.843434651692708
 20
0.9788377549913193
 30
0.0
 10
-3.86117689344618
 20
0.9817660861545138
 30
0.0
 10
-3.864449734157986
 20
1.131799994574653
 30
0.0
 10
-3.855836995442708
 20
1.182098388671875
 30
0.0
 10
-3.855836995442708
 20
1.183648681640625
 30
0.0
 10
-3.841539849175347
 20
1.223611789279514
 30
0.0
 10
-3.83792249891493
 20
1.228607177734375
 30
0.0
 10
-3.797442626953125
 20
1.289413113064236
 30
0.0
 10
-3.494101969401041
 20
1.294236246744792
 30
0.0
 10
-3.385753716362847
 20
1.30939466688368
 30
0.0
 10
-3.302382405598958
 20
1.321280246310764
 30
0.0
 10
-3.182320827907986
 20
1.356247965494792
 30
0.0
 10
-3.09998304578993
 20
1.369167073567708
 30
0.0
 10
-3.029530843098958
 20
1.380363633897569
 30
0.0
 10
-2.965796576605903
 20
1.369683837890625
 30
0.0
 10
-2.915325927734375
 20
1.399656168619792
 30
0.0
 10
-2.807322184244792
 20
1.464768473307291
 30
0.0
 10
-2.865544297960069
 20
1.687321641710069
 30
0.0
 10
-2.847974310980903
 20
1.844590250651041
 30
0.0
 10
-2.839017062717014
 20
1.926583523220486
 30
0.0
 10
-2.795781114366319
 20
1.993762885199653
 30
0.0
 10
-2.749100070529514
 20
2.040271674262153
 30
0.0
 10
-2.741176350911458
 20
2.048539903428819
 30
0.0
 10
-2.732219102647569
 20
2.071794297960069
 30
0.0
 10
-2.721883816189236
 20
2.077650960286458
 30
0.0
 10
-2.61939222547743
 20
2.139662679036458
 30
0.0
 10
-2.418198649088541
 20
2.130016411675347
 30
0.0
 10
-2.269715033637153
 20
2.149136691623264
 30
0.0
 10
-2.172218831380208
 20
2.161883544921875
 30
0.0
 10
-2.034242757161458
 20
2.19616224500868
 30
0.0
 10
-1.937607828776041
 20
2.209598117404514
 30
0.0
 10
-1.807727728949653
 20
2.228029378255208
 30
0.0
 10
-1.722289360894097
 20
2.233369276258681
 30
0.0
 10
-1.595854356553819
 20
2.251800537109375
 30
0.0
 10
-1.572772216796875
 20
2.255245632595486
 30
0.0
 10
-1.535909695095486
 20
2.274882676866319
 30
0.0
 10
-1.503698052300347
 20
2.271609836154514
 30
0.0
 10
-1.455983479817708
 20
2.266786702473958
 30
0.0
 10
-1.434623887803819
 20
2.231302218967014
 30
0.0
 10
-1.41016370985243
 20
2.198918321397569
 30
0.0
 10
-1.398105875651042
 20
2.182726372612847
 30
0.0
 10
-1.371234130859375
 20
2.166017659505208
 30
0.0
 10
-1.362965901692708
 20
2.144141303168403
 30
0.0
 10
-1.326275634765625
 20
2.043544514973958
 30
0.0
 10
-1.347807481553819
 20
1.913664415147569
 30
0.0
 10
-1.339711507161458
 20
1.820819091796875
 30
0.0
 10
-1.342467583550347
 20
1.850963677300347
 30
0.0
 10
-1.354525417751736
 20
1.769659423828125
 30
0.0
 10
-1.338161214192708
 20
1.709714762369792
 30
0.0
 10
-1.328859456380208
 20
1.67526380750868
 30
0.0
 10
-1.298887125651042
 20
1.644774712456597
 30
0.0
 10
-1.281317138671875
 20
1.618075222439236
 30
0.0
 10
-1.025174289279514
 20
1.642190890842014
 30
0.0
 10
-0.760763210720486
 20
1.702135552300347
 30
0.0
 10
-0.5151279025607638
 20
1.731246609157986
 30
0.0
 10
-0.3792188856336805
 20
1.747610812717014
 30
0.0
 10
-0.1876715766059028
 20
1.735208468967014
 30
0.0
 10
-0.0998216417100694
 20
1.802215576171875
 30
0.0
 10
0.0204121907552083
 20
1.894371880425347
 30
0.0
 10
-0.0838019476996528
 20
2.186515977647569
 30
0.0
 10
-0.0245463053385417
 20
2.339822726779514
 30
0.0
 10
-0.0121439615885417
 20
2.372895643446181
 30
0.0
 10
0.0650261773003472
 20
2.473492431640625
 30
0.0
 10
0.0934482150607639
 20
2.489512125651042
 30
0.0
 10
0.1003384060329861
 20
2.493646240234375
 30
0.0
 10
0.113946533203125
 20
2.488478597005208
 30
0.0
 10
0.1211812337239583
 20
2.489856635199653
 30
0.0
 10
0.1523593478732639
 20
2.498297119140625
 30
0.0
 10
0.2148878309461805
 20
2.523963080512153
 30
0.0
 10
0.2502000596788194
 20
2.528786214192708
 30
0.0
 10
0.3302985297309027
 20
2.540499538845486
 30
0.0
 10
0.396099853515625
 20
2.531370035807291
 30
0.0
 10
0.472064208984375
 20
2.541360812717014
 30
0.0
 10
0.5500956217447917
 20
2.552040608723958
 30
0.0
 10
0.6517259385850693
 20
2.582529703776042
 30
0.0
 10
0.7302741156684027
 20
2.59148695203993
 30
0.0
 10
0.8015875922309027
 20
2.600099690755208
 30
0.0
 10
0.851885986328125
 20
2.594415283203125
 30
0.0
 10
0.9242329915364582
 20
2.603544786241319
 30
0.0
 10
1.007432047526042
 20
2.61474134657118
 30
0.0
 10
1.128182644314236
 20
2.657805040147569
 30
0.0
 10
1.238425699869792
 20
2.636100938585069
 30
0.0
 10
1.249105495876736
 20
2.633861626519097
 30
0.0
 10
1.268398030598958
 20
2.612502034505208
 30
0.0
 10
1.275804985894097
 20
2.608884684244791
 30
0.0
 10
1.328514946831597
 20
2.582529703776042
 30
0.0
 10
1.375540500217014
 20
2.54497816297743
 30
0.0
 10
1.388631863064236
 20
2.481071641710069
 30
0.0
 10
1.414642333984375
 20
2.351880560980903
 30
0.0
 10
1.341778564453125
 20
2.055257839626736
 30
0.0
 10
1.460117594401042
 20
2.02873060438368
 30
0.0
 10
1.548312038845486
 20
2.009265814887153
 30
0.0
 10
1.649081081814236
 20
2.053363037109375
 30
0.0
 10
1.71867201063368
 20
2.060425482855903
 30
0.0
 10
1.862677001953125
 20
2.075583902994791
 30
0.0
 10
1.972575547960069
 20
2.080579291449653
 30
0.0
 10
2.115891520182291
 20
2.103316921657986
 30
0.0
 10
2.133116997612847
 20
2.106072998046875
 30
0.0
 10
2.175319417317708
 20
2.129844156901041
 30
0.0
 10
2.189444308810764
 20
2.132083468967014
 30
0.0
 10
2.272126600477431
 20
2.146897379557291
 30
0.0
 10
2.341200764973958
 20
2.136734347873264
 30
0.0
 10
2.410963948567708
 20
2.163089328342014
 30
0.0
 10
2.439385986328125
 20
2.174285888671875
 30
0.0
 10
2.495024278428819
 20
2.225445556640625
 30
0.0
 10
2.502086724175347
 20
2.256968180338542
 30
0.0
 10
2.515867106119791
 20
2.319668918185764
 30
0.0
 10
2.495024278428819
 20
2.396494547526042
 30
0.0
 10
2.499158393012153
 20
2.460401068793403
 30
0.0
 10
2.507598876953125
 20
2.607162136501736
 30
0.0
 10
2.513627794053819
 20
2.745138210720486
 30
0.0
 10
2.604922824435764
 20
2.813523356119791
 30
0.0
 10
2.680542670355902
 20
2.870711941189236
 30
0.0
 10
2.777694363064236
 20
2.867094590928819
 30
0.0
 10
2.899822998046875
 20
2.882769775390625
 30
0.0
 10
2.991807047526041
 20
2.894655354817708
 30
0.0
 10
3.090853542751736
 20
2.91239759657118
 30
0.0
 10
3.204541693793403
 20
2.924283175998264
 30
0.0
 10
3.269481743706597
 20
2.931173366970486
 30
0.0
 10
3.379208034939236
 20
2.960973442925347
 30
0.0
 10
3.444492594401041
 20
2.964763047960069
 30
0.0
  0
SPLINE
  5
12B
330
128
100
AcDbEntity
  8
LAYER_1
 62
     7
100
AcDbSpline
210
0.0
220
0.0
230
1.0
 70
    11
 71
     3
 72
   395
 73
   391
 74
     0
 42
0.00000001
 43
0.00000001
 40
0.0
 40
0.0
 40
0.0
 40
0.0
 40
1.0
 40
1.0
 40
1.0
 40
2.0
 40
2.0
 40
2.0
 40
3.0
 40
3.0
 40
3.0
 40
4.0
 40
4.0
 40
4.0
 40
5.0
 40
5.0
 40
5.0
 40
6.0
 40
6.0
 40
6.0
 40
7.0
 40
7.0
 40
7.0
 40
8.0
 40
8.0
 40
8.0
 40
9.0
 40
9.0
 40
9.0
 40
10.0
 40
10.0
 40
10.0
 40
11.0
 40
11.0
 40
11.0
 40
12.0
 40
12.0
 40
12.0
 40
13.0
 40
13.0
 40
13.0
 40
14.0
 40
14.0
 40
14.0
 40
15.0
 40
15.0
 40
15.0
 40
16.0
 40
16.0
 40
16.0
 40
17.0
 40
17.0
 40
17.0
 40
18.0
 40
18.0
 40
18.0
 40
19.0
 40
19.0
 40
19.0
 40
20.0
 40
20.0
 40
20.0
 40
21.0
 40
21.0
 40
21.0
 40
22.0
 40
22.0
 40
22.0
 40
23.0
 40
23.0
 40
23.0
 40
24.0
 40
24.0
 40
24.0
 40
25.0
 40
25.0
 40
25.0
 40
26.0
 40
26.0
 40
26.0
 40
27.0
 40
27.0
 40
27.0
 40
28.0
 40
28.0
 40
28.0
 40
29.0
 40
29.0
 40
29.0
 40
30.0
 40
30.0
 40
30.0
 40
31.0
 40
31.0
 40
31.0
 40
32.0
 40
32.0
 40
32.0
 40
33.0
 40
33.0
 40
33.0
 40
34.0
 40
34.0
 40
34.0
 40
35.0
 40
35.0
 40
35.0
 40
36.0
 40
36.0
 40
36.0
 40
37.0
 40
37.0
 40
37.0
 40
38.0
 40
38.0
 40
38.0
 40
39.0
 40
39.0
 40
39.0
 40
40.0
 40
40.0
 40
40.0
 40
41.0
 40
41.0
 40
41.0
 40
42.0
 40
42.0
 40
42.0
 40
43.0
 40
43.0
 40
43.0
 40
44.0
 40
44.0
 40
44.0
 40
45.0
 40
45.0
 40
45.0
 40
46.0
 40
46.0
 40
46.0
 40
47.0
 40
47.0
 40
47.0
 40
48.0
 40
48.0
 40
48.0
 40
49.0
 40
49.0
 40
49.0
 40
50.0
 40
50.0
 40
50.0
 40
51.0
 40
51.0
 40
51.0
 40
52.0
 40
52.0
 40
52.0
 40
53.0
 40
53.0
 40
53.0
 40
54.0
 40
54.0
 40
54.0
 40
55.0
 40
55.0
 40
55.0
 40
56.0
 40
56.0
 40
56.0
 40
57.0
 40
57.0
 40
57.0
 40
58.0
 40
58.0
 40
58.0
 40
59.0
 40
59.0
 40
59.0
 40
60.0
 40
60.0
 40
60.0
 40
61.0
 40
61.0
 40
61.0
 40
62.0
 40
62.0
 40
62.0
 40
63.0
 40
63.0
 40
63.0
 40
64.0
 40
64.0
 40
64.0
 40
65.0
 40
65.0
 40
65.0
 40
66.0
 40
66.0
 40
66.0
 40
67.0
 40
67.0
 40
67.0
 40
68.0
 40
68.0
 40
68.0
 40
69.0
 40
69.0
 40
69.0
 40
70.0
 40
70.0
 40
70.0
 40
71.0
 40
71.0
 40
71.0
 40
72.0
 40
72.0
 40
72.0
 40
73.0
 40
73.0
 40
73.0
 40
74.0
 40
74.0
 40
74.0
 40
75.0
 40
75.0
 40
75.0
 40
76.0
 40
76.0
 40
76.0
 40
77.0
 40
77.0
 40
77.0
 40
78.0
 40
78.0
 40
78.0
 40
79.0
 40
79.0
 40
79.0
 40
80.0
 40
80.0
 40
80.0
 40
81.0
 40
81.0
 40
81.0
 40
82.0
 40
82.0
 40
82.0
 40
83.0
 40
83.0
 40
83.0
 40
84.0
 40
84.0
 40
84.0
 40
85.0
 40
85.0
 40
85.0
 40
86.0
 40
86.0
 40
86.0
 40
87.0
 40
87.0
 40
87.0
 40
88.0
 40
88.0
 40
88.0
 40
89.0
 40
89.0
 40
89.0
 40
90.0
 40
90.0
 40
90.0
 40
91.0
 40
91.0
 40
91.0
 40
92.0
 40
92.0
 40
92.0
 40
93.0
 40
93.0
 40
93.0
 40
94.0
 40
94.0
 40
94.0
 40
95.0
 40
95.0
 40
95.0
 40
96.0
 40
96.0
 40
96.0
 40
97.0
 40
97.0
 40
97.0
 40
98.0
 40
98.0
 40
98.0
 40
99.0
 40
99.0
 40
99.0
 40
100.0
 40
100.0
 40
100.0
 40
101.0
 40
101.0
 40
101.0
 40
102.0
 40
102.0
 40
102.0
 40
103.0
 40
103.0
 40
103.0
 40
104.0
 40
104.0
 40
104.0
 40
105.0
 40
105.0
 40
105.0
 40
106.0
 40
106.0
 40
106.0
 40
107.0
 40
107.0
 40
107.0
 40
108.0
 40
108.0
 40
108.0
 40
109.0
 40
109.0
 40
109.0
 40
110.0
 40
110.0
 40
110.0
 40
111.0
 40
111.0
 40
111.0
 40
112.0
 40
112.0
 40
112.0
 40
113.0
 40
113.0
 40
113.0
 40
114.0
 40
114.0
 40
114.0
 40
115.0
 40
115.0
 40
115.0
 40
116.0
 40
116.0
 40
116.0
 40
117.0
 40
117.0
 40
117.0
 40
118.0
 40
118.0
 40
118.0
 40
119.0
 40
119.0
 40
119.0
 40
120.0
 40
120.0
 40
120.0
 40
121.0
 40
121.0
 40
121.0
 40
122.0
 40
122.0
 40
122.0
 40
123.0
 40
123.0
 40
123.0
 40
124.0
 40
124.0
 40
124.0
 40
125.0
 40
125.0
 40
125.0
 40
126.0
 40
126.0
 40
126.0
 40
127.0
 40
127.0
 40
127.0
 40
128.0
 40
128.0
 40
128.0
 40
129.0
 40
129.0
 40
129.0
 40
130.0
 40
130.0
 40
130.0
 40
130.0
 10
3.243643527560764
 20
2.785962592230903
 30
0.0
 10
3.194723171657986
 20
2.781828477647569
 30
0.0
 10
3.110490587022569
 20
2.776316324869792
 30
0.0
 10
3.058814154730903
 20
2.764775254991319
 30
0.0
 10
3.058814154730903
 20
2.764775254991319
 30
0.0
 10
3.031425645616319
 20
2.745827229817708
 30
0.0
 10
3.031425645616319
 20
2.745827229817708
 30
0.0
 10
2.888970947265625
 20
2.723606363932292
 30
0.0
 10
2.822652859157986
 20
2.764430745442708
 30
0.0
 10
2.745654975043403
 20
2.676925320095486
 30
0.0
 10
2.735147433810764
 20
2.665211995442708
 30
0.0
 10
2.714649115668403
 20
2.65504896375868
 30
0.0
 10
2.709136962890625
 20
2.639373779296875
 30
0.0
 10
2.687260606553819
 20
2.580979410807291
 30
0.0
 10
2.70930921766493
 20
2.498641628689236
 30
0.0
 10
2.70310804578993
 20
2.426466878255208
 30
0.0
 10
2.700179714626736
 20
2.395288764105902
 30
0.0
 10
2.681748453776041
 20
2.343956841362847
 30
0.0
 10
2.676925320095486
 20
2.315190294053819
 30
0.0
 10
2.664522976345486
 20
2.243532307942708
 30
0.0
 10
2.666417778862847
 20
2.127088080512153
 30
0.0
 10
2.634378390842014
 20
2.074033610026042
 30
0.0
 10
2.600099690755208
 20
2.018223063151042
 30
0.0
 10
2.510010443793403
 20
2.022012668185764
 30
0.0
 10
2.43180677625868
 20
2.006165228949653
 30
0.0
 10
2.365833197699653
 20
1.99307386610243
 30
0.0
 10
2.281256103515625
 20
1.956900363498264
 30
0.0
 10
2.210631646050347
 20
1.947426350911458
 30
0.0
 10
2.095909966362847
 20
1.932784695095486
 30
0.0
 10
2.007887776692708
 20
1.940019395616319
 30
0.0
 10
1.896438937717014
 20
1.924171956380208
 30
0.0
 10
1.87370130750868
 20
1.921243625217014
 30
0.0
 10
1.826848008897569
 20
1.899022759331597
 30
0.0
 10
1.804454888237847
 20
1.895060899522569
 30
0.0
 10
1.717293972439236
 20
1.88145277235243
 30
0.0
 10
1.660277642144097
 20
1.884897867838542
 30
0.0
 10
1.573461235894097
 20
1.873184543185764
 30
0.0
 10
1.522990587022569
 20
1.866638861762153
 30
0.0
 10
1.459084065755208
 20
1.843212212456597
 30
0.0
 10
1.388804117838542
 20
1.85199720594618
 30
0.0
 10
1.325586615668403
 20
1.859920925564236
 30
0.0
 10
1.304399278428819
 20
1.887998453776042
 30
0.0
 10
1.276494004991319
 20
1.933473714192708
 30
0.0
 10
1.255823432074653
 20
1.967063395182292
 30
0.0
 10
1.22257826063368
 20
2.022357177734375
 30
0.0
 10
1.218960910373264
 20
2.071449788411458
 30
0.0
 10
1.216893853081597
 20
2.098838297526041
 30
0.0
 10
1.234119330512153
 20
2.142246500651042
 30
0.0
 10
1.236014133029514
 20
2.164122856987847
 30
0.0
 10
1.24583265516493
 20
2.275916205512153
 30
0.0
 10
1.241181776258681
 20
2.431117757161458
 30
0.0
 10
1.166939968532986
 20
2.459195285373264
 30
0.0
 10
1.125082058376736
 20
2.475042724609375
 30
0.0
 10
1.071855333116319
 20
2.460401068793403
 30
0.0
 10
1.037576633029514
 20
2.457300482855902
 30
0.0
 10
0.8933993869357638
 20
2.444381374782986
 30
0.0
 10
0.7838453504774305
 20
2.423538547092014
 30
0.0
 10
0.6589606391059028
 20
2.40545179578993
 30
0.0
 10
0.5335591634114583
 20
2.387709554036458
 30
0.0
 10
0.3378777398003472
 20
2.398044840494792
 30
0.0
 10
0.2434821234809028
 20
2.353086344401041
 30
0.0
 10
0.1943895128038194
 20
2.329659695095486
 30
0.0
 10
0.1826761881510416
 20
2.285390218098958
 30
0.0
 10
0.162005615234375
 20
2.231474473741319
 30
0.0
 10
0.154254150390625
 20
2.211837429470486
 30
0.0
 10
0.1296217176649306
 20
2.173252360026042
 30
0.0
 10
0.126348876953125
 20
2.147758653428819
 30
0.0
 10
0.0994771321614583
 20
1.950526936848958
 30
0.0
 10
0.1947340223524305
 20
1.758807373046875
 30
0.0
 10
0.031781005859375
 20
1.655971272786458
 30
0.0
 10
-0.0266133626302083
 20
1.619625515407986
 30
0.0
 10
-0.0679545084635417
 20
1.619625515407986
 30
0.0
 10
-0.1525316026475694
 20
1.60705091688368
 30
0.0
 10
-0.2012797037760417
 20
1.599988471137153
 30
0.0
 10
-0.2663920084635417
 20
1.573288981119791
 30
0.0
 10
-0.3184129503038194
 20
1.567604573567708
 30
0.0
 10
-0.4746480305989583
 20
1.551412624782986
 30
0.0
 10
-0.5854078504774305
 20
1.553307427300347
 30
0.0
 10
-0.7342359754774305
 20
1.533670383029514
 30
0.0
 10
-0.7867736816406249
 20
1.527124701605903
 30
0.0
 10
-0.864632839626736
 20
1.501458740234375
 30
0.0
 10
-0.9185485839843749
 20
1.494051784939236
 30
0.0
 10
-0.9688469780815971
 20
1.487506103515625
 30
0.0
 10
-1.003986952039931
 20
1.494051784939236
 30
0.0
 10
-1.048084174262153
 20
1.482682969835069
 30
0.0
 10
-1.076161702473958
 20
1.475792778862847
 30
0.0
 10
-1.125771077473958
 20
1.44892103407118
 30
0.0
 10
-1.158327229817708
 20
1.444097900390625
 30
0.0
 10
-1.255306667751736
 20
1.430489773220486
 30
0.0
 10
-1.365032958984375
 20
1.44116956922743
 30
0.0
 10
-1.41791517469618
 20
1.477343071831597
 30
0.0
 10
-1.426011149088541
 20
1.48302747938368
 30
0.0
 10
-1.430662027994792
 20
1.497324625651042
 30
0.0
 10
-1.436863199869792
 20
1.50473158094618
 30
0.0
 10
-1.436863199869792
 20
1.50473158094618
 30
0.0
 10
-1.455466715494792
 20
1.513688829210069
 30
0.0
 10
-1.455466715494792
 20
1.513688829210069
 30
0.0
 10
-1.455811225043403
 20
1.51403333875868
 30
0.0
 10
-1.464940728081597
 20
1.532120090060764
 30
0.0
 10
-1.464940728081597
 20
1.532120090060764
 30
0.0
 10
-1.468558078342014
 20
1.54038831922743
 30
0.0
 10
-1.473381212022569
 20
1.548484293619792
 30
0.0
 10
-1.474586995442708
 20
1.550551350911458
 30
0.0
 10
-1.481649441189236
 20
1.562781439887153
 30
0.0
 10
-1.501286485460069
 20
1.603778076171875
 30
0.0
 10
-1.50318128797743
 20
1.61480238172743
 30
0.0
 10
-1.515755886501736
 20
1.681120469835069
 30
0.0
 10
-1.505420600043403
 20
1.760185411241319
 30
0.0
 10
-1.50628187391493
 20
1.827537027994792
 30
0.0
 10
-1.50628187391493
 20
1.827537027994792
 30
0.0
 10
-1.535220675998264
 20
1.826848008897569
 30
0.0
 10
-1.515755886501736
 20
1.836666531032986
 30
0.0
 10
-1.497152370876736
 20
1.846485053168403
 30
0.0
 10
-1.511794026692708
 20
1.97292005750868
 30
0.0
 10
-1.517995198567708
 20
1.984633382161458
 30
0.0
 10
-1.522990587022569
 20
1.993762885199653
 30
0.0
 10
-1.549173312717014
 20
2.004442681206597
 30
0.0
 10
-1.555374484592014
 20
2.011849636501736
 30
0.0
 10
-1.568810356987847
 20
2.028041585286458
 30
0.0
 10
-1.566571044921875
 20
2.046989610460069
 30
0.0
 10
-1.58379652235243
 20
2.057669406467014
 30
0.0
 10
-1.665789794921875
 20
2.109345838758681
 30
0.0
 10
-2.068865966796875
 20
2.023046196831597
 30
0.0
 10
-2.175147162543403
 20
2.011849636501736
 30
0.0
 10
-2.282461886935764
 20
2.000653076171875
 30
0.0
 10
-2.385470241970486
 20
2.00668199327257
 30
0.0
 10
-2.47986585828993
 20
1.979465738932291
 30
0.0
 10
-2.520862494574653
 20
1.967924669053819
 30
0.0
 10
-2.559103054470486
 20
1.936746554904514
 30
0.0
 10
-2.589936659071181
 20
1.913147650824653
 30
0.0
 10
-2.729979790581597
 20
1.806521945529514
 30
0.0
 10
-2.652809651692708
 20
1.662516954210069
 30
0.0
 10
-2.666590033637152
 20
1.468041314019097
 30
0.0
 10
-2.67210218641493
 20
1.393627251519097
 30
0.0
 10
-2.750994873046875
 20
1.287518310546875
 30
0.0
 10
-2.802154541015625
 20
1.253239610460069
 30
0.0
 10
-2.872262234157986
 20
1.206903076171875
 30
0.0
 10
-2.970447455512153
 20
1.214310031467014
 30
0.0
 10
-3.078967963324653
 20
1.202941216362847
 30
0.0
 10
-3.122031656901041
 20
1.198462592230903
 30
0.0
 10
-3.192139350043402
 20
1.176930745442708
 30
0.0
 10
-3.235719807942708
 20
1.172796630859375
 30
0.0
 10
-3.408146837022569
 20
1.15746595594618
 30
0.0
 10
-3.558353000217013
 20
1.151264784071181
 30
0.0
 10
-3.678586832682291
 20
1.092181396484375
 30
0.0
 10
-3.677036539713541
 20
0.9833163791232638
 30
0.0
 10
-3.669285074869791
 20
0.9640238444010416
 30
0.0
 10
-3.67514173719618
 20
0.8610154893663193
 30
0.0
 10
-3.68289320203993
 20
0.7357862684461805
 30
0.0
 10
-3.680137125651041
 20
0.5759338378906249
 30
0.0
 10
-3.678070068359375
 20
0.4353739420572916
 30
0.0
 10
-3.677381049262153
 20
0.3905877007378472
 30
0.0
 10
-3.687027316623264
 20
0.330987548828125
 30
0.0
 10
-3.676003011067708
 20
0.287579345703125
 30
0.0
 10
-3.672557915581597
 20
0.273626708984375
 30
0.0
 10
-3.642757839626736
 20
0.2529561360677083
 30
0.0
 10
-3.638279215494791
 20
0.2417595757378472
 30
0.0
 10
-3.633111572265625
 20
0.2283237033420139
 30
0.0
 10
-3.64103529188368
 20
0.2102369520399305
 30
0.0
 10
-3.637590196397569
 20
0.1955952962239583
 30
0.0
 10
-3.628805202907986
 20
0.1549431694878472
 30
0.0
 10
-3.593492974175347
 20
0.1010274251302083
 30
0.0
 10
-3.580229356553819
 20
0.0669209798177083
 30
0.0
 10
-3.562142605251736
 20
0.0200676812065972
 30
0.0
 10
-3.567999267578125
 20
-0.0130052354600694
 30
0.0
 10
-3.550429280598958
 20
-0.0620978461371528
 30
0.0
 10
-3.548706732855902
 20
-0.0676099989149306
 30
0.0
 10
-3.523902045355903
 20
-0.0863857693142361
 30
0.0
 10
-3.522351752387153
 20
-0.0894863552517361
 30
0.0
 10
-3.518389892578125
 20
-0.0986158582899306
 30
0.0
 10
-3.523902045355903
 20
-0.1163581000434028
 30
0.0
 10
-3.521834988064236
 20
-0.1265211317274305
 30
0.0
 10
-3.51391126844618
 20
-0.1668287489149306
 30
0.0
 10
-3.481871880425347
 20
-0.2412428114149305
 30
0.0
 10
-3.463785129123264
 20
-0.292230224609375
 30
0.0
 10
-3.450521511501736
 20
-0.3304707845052083
 30
0.0
 10
-3.419171142578125
 20
-0.3831807454427083
 30
0.0
 10
-3.406424289279514
 20
-0.4207322862413194
 30
0.0
 10
-3.389715576171875
 20
-0.4712029351128472
 30
0.0
 10
-3.391954888237847
 20
-0.5066874186197916
 30
0.0
 10
-3.376624213324653
 20
-0.559225124782986
 30
0.0
 10
-3.376624213324653
 20
-0.559225124782986
 30
0.0
 10
-3.357676188151042
 20
-0.5866136338975694
 30
0.0
 10
-3.357676188151042
 20
-0.5866136338975694
 30
0.0
 10
-3.352853054470486
 20
-0.6157246907552083
 30
0.0
 10
-3.36508314344618
 20
-0.6555155436197916
 30
0.0
 10
-3.365772162543403
 20
-0.6699849446614583
 30
0.0
 10
-3.383169894748264
 20
-0.9593729654947916
 30
0.0
 10
-3.358537462022569
 20
-1.292513699001736
 30
0.0
 10
-3.343206787109375
 20
-1.566915554470486
 30
0.0
 10
-3.343206787109375
 20
-1.566915554470486
 30
0.0
 10
-3.35113050672743
 20
-1.592409261067708
 30
0.0
 10
-3.352336290147569
 20
-1.576217312282986
 30
0.0
 10
-3.347513156467014
 20
-1.895060899522569
 30
0.0
 10
-3.319780137803819
 20
-2.226306830512153
 30
0.0
 10
-3.318918863932292
 20
-2.574950493706597
 30
0.0
 10
-3.318746609157986
 20
-2.681748453776041
 30
0.0
 10
-3.350269232855903
 20
-2.700179714626736
 30
0.0
 10
-3.306516520182291
 20
-2.796642388237847
 30
0.0
 10
-3.251222737630208
 20
-2.795953369140625
 30
0.0
 10
-3.195067681206597
 20
-2.80232679578993
 30
0.0
 10
-3.139946153428819
 20
-2.794230821397569
 30
0.0
 10
-3.097571478949653
 20
-2.787857394748264
 30
0.0
 10
-3.033148193359375
 20
-2.759952121310764
 30
0.0
 10
-2.983194308810764
 20
-2.754956732855903
 30
0.0
 10
-2.927211507161458
 20
-2.748927815755208
 30
0.0
 10
-2.872262234157986
 20
-2.76201917860243
 30
0.0
 10
-2.816796196831597
 20
-2.752372911241319
 30
0.0
 10
-2.754439968532986
 20
-2.741348605685764
 30
0.0
 10
-2.558414035373264
 20
-2.674686008029514
 30
0.0
 10
-2.531886800130208
 20
-2.628004964192708
 30
0.0
 10
-2.522240532769097
 20
-2.610434977213541
 30
0.0
 10
-2.490201144748264
 20
-2.450410291883681
 30
0.0
 10
-2.488478597005208
 20
-2.433012559678819
 30
0.0
 10
-2.47986585828993
 20
-2.334310574001736
 30
0.0
 10
-2.510354953342014
 20
-2.285390218098958
 30
0.0
 10
-2.492095947265625
 20
-2.192544894748264
 30
0.0
 10
-2.487961832682291
 20
-2.171357557508681
 30
0.0
 10
-2.46281263563368
 20
-2.135873074001736
 30
0.0
 10
-2.456094699435764
 20
-2.118130832248264
 30
0.0
 10
-2.448170979817708
 20
-2.095048692491319
 30
0.0
 10
-2.458678521050347
 20
-2.089708794487847
 30
0.0
 10
-2.447654215494791
 20
-2.071622043185764
 30
0.0
 10
-2.421643744574653
 20
-2.027869330512153
 30
0.0
 10
-2.326386854383681
 20
-1.98222181532118
 30
0.0
 10
-2.273332383897569
 20
-1.967407904730903
 30
0.0
 10
-2.167740207248264
 20
-1.936918809678819
 30
0.0
 10
-2.039410400390625
 20
-1.949321153428819
 30
0.0
 10
-1.922277153862847
 20
-1.934334988064236
 30
0.0
 10
-1.875596110026041
 20
-1.928133816189236
 30
0.0
 10
-1.814101155598958
 20
-1.902812364366319
 30
0.0
 10
-1.765697564019097
 20
-1.895060899522569
 30
0.0
 10
-1.683704291449653
 20
-1.881797281901042
 30
0.0
 10
-1.617730712890625
 20
-1.887309434678819
 30
0.0
 10
-1.534703911675347
 20
-1.873184543185764
 30
0.0
 10
-1.449954562717014
 20
-1.85819837782118
 30
0.0
 10
-1.358487277560764
 20
-1.812723117404514
 30
0.0
 10
-1.258062744140625
 20
-1.813584391276041
 30
0.0
 10
-1.121292453342014
 20
-1.814445665147569
 30
0.0
 10
-1.080812581380208
 20
-1.853719753689236
 30
0.0
 10
-1.033959282769097
 20
-1.958278401692708
 30
0.0
 10
-1.031203206380208
 20
-1.964824083116319
 30
0.0
 10
-1.007432047526042
 20
-1.987561713324653
 30
0.0
 10
-1.005709499782986
 20
-1.994796413845486
 30
0.0
 10
-0.9688469780815971
 20
-2.161883544921875
 30
0.0
 10
-1.048256429036458
 20
-2.273160129123264
 30
0.0
 10
-0.9352572970920138
 20
-2.373067898220486
 30
0.0
 10
-0.9259555392795138
 20
-2.381163872612847
 30
0.0
 10
-0.9113138834635416
 20
-2.405968560112847
 30
0.0
 10
-0.8977057562934027
 20
-2.409413655598958
 30
0.0
 10
-0.8362108018663194
 20
-2.425261094835069
 30
0.0
 10
-0.7676534016927082
 20
-2.392877197265625
 30
0.0
 10
-0.7223503960503471
 20
-2.388398573133681
 30
0.0
 10
-0.6059061686197916
 20
-2.376168484157986
 30
0.0
 10
-0.5209845648871527
 20
-2.375479465060764
 30
0.0
 10
-0.4081576877170138
 20
-2.356014675564236
 30
0.0
 10
-0.3168626573350694
 20
-2.339822726779514
 30
0.0
 10
-0.1980068630642361
 20
-2.303132459852431
 30
0.0
 10
-0.1039557562934028
 20
-2.286596001519097
 30
0.0
 10
-0.042633056640625
 20
-2.275743950737847
 30
0.0
 10
0.0052537706163194
 20
-2.285562472873264
 30
0.0
 10
0.0715718587239583
 20
-2.274882676866319
 30
0.0
 10
0.123248291015625
 20
-2.26592542860243
 30
0.0
 10
0.2641526963975694
 20
-2.213043212890625
 30
0.0
 10
0.292230224609375
 20
-2.179109022352431
 30
0.0
 10
0.3430453830295139
 20
-2.116752794053819
 30
0.0
 10
0.3239251030815972
 20
-1.977398681640625
 30
0.0
 10
0.315484619140625
 20
-1.882658555772569
 30
0.0
 10
0.3037712944878472
 20
-1.753639729817708
 30
0.0
 10
0.3445956759982639
 20
-1.657004801432292
 30
0.0
 10
0.413153076171875
 20
-1.603778076171875
 30
0.0
 10
0.4195265028211805
 20
-1.598782687717014
 30
0.0
 10
0.4241773817274305
 20
-1.579490152994792
 30
0.0
 10
0.4312398274739583
 20
-1.575700547960069
 30
0.0
 10
0.4739590115017361
 20
-1.551757134331597
 30
0.0
 10
0.517022705078125
 20
-1.551584879557292
 30
0.0
 10
0.5693881564670138
 20
-1.536598714192708
 30
0.0
 10
0.5693881564670138
 20
-1.536598714192708
 30
0.0
 10
0.5969489203559028
 20
-1.517650689019097
 30
0.0
 10
0.5969489203559028
 20
-1.517650689019097
 30
0.0
 10
0.6825595431857638
 20
-1.501114230685764
 30
0.0
 10
0.7412984212239583
 20
-1.509210205078125
 30
0.0
 10
0.8279425726996527
 20
-1.495774332682291
 30
0.0
 10
0.8703172471788194
 20
-1.488884141710069
 30
0.0
 10
0.9418029785156249
 20
-1.462356906467014
 30
0.0
 10
0.9845221625434026
 20
-1.456500244140625
 30
0.0
 10
1.109234619140625
 20
-1.438758002387153
 30
0.0
 10
1.197945827907986
 20
-1.435312906901042
 30
0.0
 10
1.316973876953125
 20
-1.414642333984375
 30
0.0
 10
1.387598334418403
 20
-1.401895480685764
 30
0.0
 10
1.497669135199653
 20
-1.361932373046875
 30
0.0
 10
1.584830050998264
 20
-1.392076958550347
 30
0.0
 10
1.617730712890625
 20
-1.403445773654514
 30
0.0
 10
1.647186279296875
 20
-1.438930257161458
 30
0.0
 10
1.669234890407986
 20
-1.464768473307291
 30
0.0
 10
1.689560953776041
 20
-1.488884141710069
 30
0.0
 10
1.727284749348958
 20
-1.521440294053819
 30
0.0
 10
1.735380723741319
 20
-1.556408013237847
 30
0.0
 10
1.761563449435764
 20
-1.671646457248264
 30
0.0
 10
1.708681233723958
 20
-1.821508110894097
 30
0.0
 10
1.768109130859375
 20
-1.898161485460069
 30
0.0
 10
1.777066379123264
 20
-1.909530300564236
 30
0.0
 10
1.863538275824653
 20
-1.95741712782118
 30
0.0
 10
1.889376491970486
 20
-1.961034478081597
 30
0.0
 10
1.993418375651042
 20
-1.975159369574653
 30
0.0
 10
2.101077609592014
 20
-1.931406656901042
 30
0.0
 10
2.184793429904514
 20
-1.919693332248264
 30
0.0
 10
2.216143798828125
 20
-1.915214708116319
 30
0.0
 10
2.254728868272569
 20
-1.922449408637153
 30
0.0
 10
2.286596001519097
 20
-1.918143039279514
 30
0.0
 10
2.43180677625868
 20
-1.897472466362847
 30
0.0
 10
2.59923841688368
 20
-1.858715142144097
 30
0.0
 10
2.738248019748264
 20
-1.818924289279514
 30
0.0
 10
2.738248019748264
 20
-1.818924289279514
 30
0.0
 10
2.756507025824653
 20
-1.800320773654514
 30
0.0
 10
2.756507025824653
 20
-1.800320773654514
 30
0.0
 10
2.778383382161458
 20
-1.792397054036458
 30
0.0
 10
2.791819254557292
 20
-1.801526557074653
 30
0.0
 10
2.811800808376736
 20
-1.790157741970486
 30
0.0
 10
2.963212754991319
 20
-1.70316908094618
 30
0.0
 10
2.771665445963541
 20
-1.280283610026042
 30
0.0
 10
2.968897162543402
 20
-1.149542236328125
 30
0.0
 10
3.068288167317708
 20
-1.083396402994792
 30
0.0
 10
3.234341769748264
 20
-1.090458848741319
 30
0.0
 10
3.384031168619791
 20
-1.069443766276042
 30
0.0
 10
3.438463677300347
 20
-1.061692301432292
 30
0.0
 10
3.510638427734375
 20
-1.031719970703125
 30
0.0
 10
3.568343777126736
 20
-1.020351155598958
 30
0.0
 10
3.613474527994792
 20
-1.011049397786458
 30
0.0
 10
3.66894056532118
 20
-1.016561550564236
 30
0.0
 10
3.697362603081597
 20
-0.9907233344184027
 30
0.0
 10
3.706836615668403
 20
-0.9819383409288194
 30
0.0
 10
3.702357991536458
 20
-0.9602342393663194
 30
0.0
 10
3.705975341796875
 20
-0.9443868001302083
 30
0.0
 10
3.722684054904514
 20
-0.8663553873697916
 30
0.0
 10
3.731296793619791
 20
-0.739059109157986
 30
0.0
 10
3.72940199110243
 20
-0.6572380913628472
 30
0.0
 10
3.728023952907986
 20
-0.5984992133246527
 30
0.0
 10
3.705975341796875
 20
-0.4980746799045138
 30
0.0
 10
3.707870144314236
 20
-0.4539774576822916
 30
0.0
 10
3.707870144314236
 20
-0.4539774576822916
 30
0.0
 10
3.715277099609375
 20
-0.4066073947482639
 30
0.0
 10
3.716138373480903
 20
-0.3892096625434027
 30
0.0
 10
3.716138373480903
 20
-0.3892096625434027
 30
0.0
 10
3.716827392578125
 20
-0.3342603895399305
 30
0.0
 10
3.714932590060764
 20
-0.3058383517795139
 30
0.0
 10
3.70304701063368
 20
-0.1303107367621528
 30
0.0
 10
3.712865532769097
 20
0.0157613118489583
 30
0.0
 10
3.698568386501736
 20
0.1749247233072916
 30
0.0
 10
3.693056233723958
 20
0.2331468370225694
 30
0.0
 10
3.705458577473958
 20
0.2932637532552083
 30
0.0
 10
3.695984564887152
 20
0.3506245930989583
 30
0.0
 10
3.681687418619791
 20
0.4357184516059027
 30
0.0
 10
3.621570502387153
 20
0.518572998046875
 30
0.0
 10
3.599694146050347
 20
0.5990159776475694
 30
0.0
 10
3.587291802300347
 20
0.6450080023871527
 30
0.0
 10
3.592631700303819
 20
0.6751525878906249
 30
0.0
 10
3.579540337456597
 20
0.7189053005642361
 30
0.0
 10
3.542161051432291
 20
0.8424119737413194
 30
0.0
 10
3.477393256293403
 20
0.9786655002170138
 30
0.0
 10
3.444320339626736
 20
1.105445014105903
 30
0.0
 10
3.432607014973958
 20
1.14971449110243
 30
0.0
 10
3.438463677300347
 20
1.182442898220486
 30
0.0
 10
3.42399427625868
 20
1.225334337022569
 30
0.0
 10
3.422099473741319
 20
1.230501980251736
 30
0.0
 10
3.395744493272569
 20
1.261680094401042
 30
0.0
 10
3.395744493272569
 20
1.261852349175347
 30
0.0
 10
3.38058607313368
 20
1.328514946831597
 30
0.0
 10
3.393332926432291
 20
1.416020372178819
 30
0.0
 10
3.392471652560764
 20
1.483888753255208
 30
0.0
 10
3.390232340494791
 20
1.628065999348958
 30
0.0
 10
3.379380289713541
 20
1.774827067057291
 30
0.0
 10
3.385925971137152
 20
1.918487548828125
 30
0.0
 10
3.386442735460069
 20
1.937091064453125
 30
0.0
 10
3.381619601779514
 20
1.939847140842014
 30
0.0
 10
3.394710964626736
 20
1.946392822265625
 30
0.0
 10
3.414003499348958
 20
1.956555853949653
 30
0.0
 10
3.385409206814236
 20
1.955522325303819
 30
0.0
 10
3.385409206814236
 20
1.955522325303819
 30
0.0
 10
3.382997639973958
 20
2.11399671766493
 30
0.0
 10
3.368700493706597
 20
2.278844536675347
 30
0.0
 10
3.378346761067708
 20
2.43645765516493
 30
0.0
 10
3.382825385199653
 20
2.516728379991319
 30
0.0
 10
3.407457817925347
 20
2.668140326605903
 30
0.0
 10
3.382653130425347
 20
2.760296630859375
 30
0.0
 10
3.38213636610243
 20
2.762363688151042
 30
0.0
 10
3.365255398220486
 20
2.781828477647569
 30
0.0
 10
3.363877360026041
 20
2.787857394748264
 30
0.0
 10
3.323569742838541
 20
2.787168375651041
 30
0.0
 10
3.283434380425347
 20
2.789752197265625
 30
0.0
 10
3.243643527560764
 20
2.785962592230903
 30
0.0
  0
ENDBLK
  5
12D
330
128
100
AcDbEntity
  8
LAYER_1
100
AcDbBlockEnd
  0
BLOCK
  5
130
330
12E
100
AcDbEntity
  8
LAYER_1
 62
     7
100
AcDbBlockBegin
  2
AI9-BLK46
 70
     0
 10
0.0
 20
0.0
 30
0.0
  3
AI9-BLK46
  1

  4

  0
SPLINE
  5
132
330
12E
100
AcDbEntity
  8
LAYER_1
 62
     7
100
AcDbSpline
210
0.0
220
0.0
230
1.0
 70
    11
 71
     3
 72
    38
 73
    34
 74
     0
 42
0.00000001
 43
0.00000001
 40
0.0
 40
0.0
 40
0.0
 40
0.0
 40
1.0
 40
1.0
 40
1.0
 40
2.0
 40
2.0
 40
2.0
 40
3.0
 40
3.0
 40
3.0
 40
4.0
 40
4.0
 40
4.0
 40
5.0
 40
5.0
 40
5.0
 40
6.0
 40
6.0
 40
6.0
 40
7.0
 40
7.0
 40
7.0
 40
8.0
 40
8.0
 40
8.0
 40
9.0
 40
9.0
 40
9.0
 40
10.0
 40
10.0
 40
10.0
 40
11.0
 40
11.0
 40
11.0
 40
11.0
 10
-0.0300584581163194
 20
0.2353000217013889
 30
0.0
 10
0.0154168023003472
 20
0.2437405056423611
 30
0.0
 10
0.0464226616753472
 20
0.2263427734375
 30
0.0
 10
0.0719163682725694
 20
0.2182467990451389
 30
0.0
 10
0.1037835015190972
 20
0.2084282769097222
 30
0.0
 10
0.1461581759982639
 20
0.2058444552951389
 30
0.0
 10
0.1649339463975694
 20
0.1825900607638889
 30
0.0
 10
0.1764750162760417
 20
0.1684651692708333
 30
0.0
 10
0.1670010036892361
 20
0.1567518446180556
 30
0.0
 10
0.1749247233072916
 20
0.1365980360243055
 30
0.0
 10
0.1749247233072916
 20
0.1365980360243055
 30
0.0
 10
0.1937004937065972
 20
0.1183390299479167
 30
0.0
 10
0.1937004937065972
 20
0.1183390299479167
 30
0.0
 10
0.233319091796875
 20
-0.0204983181423611
 30
0.0
 10
0.1532206217447917
 20
-0.2110120985243055
 30
0.0
 10
0.0509012858072917
 20
-0.2353000217013889
 30
0.0
 10
-0.1423685709635417
 20
-0.2809475368923611
 30
0.0
 10
-0.2453769259982639
 20
-0.13642578125
 30
0.0
 10
-0.1937004937065972
 20
0.0385850694444444
 30
0.0
 10
-0.1937004937065972
 20
0.0385850694444444
 30
0.0
 10
-0.1752692328559028
 20
0.04805908203125
 30
0.0
 10
-0.1752692328559028
 20
0.04805908203125
 30
0.0
 10
-0.1683790418836806
 20
0.0678683810763889
 30
0.0
 10
-0.1768195258246528
 20
0.0854383680555555
 30
0.0
 10
-0.1670010036892361
 20
0.1036973741319444
 30
0.0
 10
-0.1633836534288194
 20
0.1112765842013889
 30
0.0
 10
-0.143402099609375
 20
0.1154106987847222
 30
0.0
 10
-0.1394402398003472
 20
0.1226453993055555
 30
0.0
 10
-0.1301384819878472
 20
0.1407321506076389
 30
0.0
 10
-0.1404737684461805
 20
0.1533067491319444
 30
0.0
 10
-0.1308275010850694
 20
0.16898193359375
 30
0.0
 10
-0.123248291015625
 20
0.1820732964409722
 30
0.0
 10
-0.0496955023871528
 20
0.2318549262152778
 30
0.0
 10
-0.0300584581163194
 20
0.2353000217013889
 30
0.0
  0
SPLINE
  5
131
330
12E
100
AcDbEntity
  8
LAYER_1
 62
     7
100
AcDbSpline
210
0.0
220
0.0
230
1.0
 70
    11
 71
     3
 72
    11
 73
     7
 74
     0
 42
0.00000001
 43
0.00000001
 40
0.0
 40
0.0
 40
0.0
 40
0.0
 40
1.0
 40
1.0
 40
1.0
 40
2.0
 40
2.0
 40
2.0
 40
2.0
 10
-0.0288526746961806
 20
0.1521009657118055
 30
0.0
 10
-0.1322055392795139
 20
0.1247124565972222
 30
0.0
 10
-0.2014519585503472
 20
-0.2156629774305555
 30
0.0
 10
0.0219624837239583
 20
-0.1617472330729167
 30
0.0
 10
0.1289326985677083
 20
-0.1359090169270833
 30
0.0
 10
0.1830206976996528
 20
0.2084282769097222
 30
0.0
 10
-0.0288526746961806
 20
0.1521009657118055
 30
0.0
  0
ENDBLK
  5
133
330
12E
100
AcDbEntity
  8
LAYER_1
100
AcDbBlockEnd
  0
BLOCK
  5
136
330
134
100
AcDbEntity
  8
LAYER_1
 62
     7
100
AcDbBlockBegin
  2
AI9-BLK47
 70
     0
 10
0.0
 20
0.0
 30
0.0
  3
AI9-BLK47
  1

  4

  0
SPLINE
  5
138
330
134
100
AcDbEntity
  8
LAYER_1
 62
     7
100
AcDbSpline
210
0.0
220
0.0
230
1.0
 70
    11
 71
     3
 72
    26
 73
    22
 74
     0
 42
0.00000001
 43
0.00000001
 40
0.0
 40
0.0
 40
0.0
 40
0.0
 40
1.0
 40
1.0
 40
1.0
 40
2.0
 40
2.0
 40
2.0
 40
3.0
 40
3.0
 40
3.0
 40
4.0
 40
4.0
 40
4.0
 40
5.0
 40
5.0
 40
5.0
 40
6.0
 40
6.0
 40
6.0
 40
7.0
 40
7.0
 40
7.0
 40
7.0
 10
0.0115410698784722
 20
0.2498555501302083
 30
0.0
 10
0.0559828016493056
 20
0.2564012315538194
 30
0.0
 10
0.0713134765625
 20
0.2326300726996528
 30
0.0
 10
0.0952568901909722
 20
0.2233283148871528
 30
0.0
 10
0.1345309787326389
 20
0.2083421495225694
 30
0.0
 10
0.1750108506944444
 20
0.2086866590711805
 30
0.0
 10
0.1975762261284722
 20
0.1787143283420139
 30
0.0
 10
0.2742296006944444
 20
0.0774285210503472
 30
0.0
 10
0.1808675130208333
 20
-0.1766472710503472
 30
0.0
 10
0.1111043294270833
 20
-0.2203999837239583
 30
0.0
 10
0.0895724826388889
 20
-0.2334913465711805
 30
0.0
 10
0.0237711588541667
 20
-0.2465827094184028
 30
0.0
 10
0.0005167643229167
 20
-0.2498555501302083
 30
0.0
 10
-0.1610582139756944
 20
-0.2706983778211806
 30
0.0
 10
-0.2397786458333333
 20
-0.1308275010850694
 30
0.0
 10
-0.1975762261284722
 20
0.0062872992621528
 30
0.0
 10
-0.1810397677951389
 20
0.0605475531684028
 30
0.0
 10
-0.130224609375
 20
0.1053337944878472
 30
0.0
 10
-0.0980129665798611
 20
0.146502685546875
 30
0.0
 10
-0.0699354383680555
 20
0.1830206976996528
 30
0.0
 10
-0.0439249674479167
 20
0.2424485948350694
 30
0.0
 10
0.0115410698784722
 20
0.2498555501302083
 30
0.0
  0
SPLINE
  5
137
330
134
100
AcDbEntity
  8
LAYER_1
 62
     7
100
AcDbSpline
210
0.0
220
0.0
230
1.0
 70
    11
 71
     3
 72
    17
 73
    13
 74
     0
 42
0.00000001
 43
0.00000001
 40
0.0
 40
0.0
 40
0.0
 40
0.0
 40
1.0
 40
1.0
 40
1.0
 40
2.0
 40
2.0
 40
2.0
 40
3.0
 40
3.0
 40
3.0
 40
4.0
 40
4.0
 40
4.0
 40
4.0
 10
0.0217041015625
 20
0.185260009765625
 30
0.0
 10
-0.0596001519097222
 20
0.171307373046875
 30
0.0
 10
-0.2645833333333333
 20
-0.2197109646267361
 30
0.0
 10
-0.0098185221354167
 20
-0.185260009765625
 30
0.0
 10
0.07906494140625
 20
-0.172857666015625
 30
0.0
 10
0.1998155381944444
 20
-0.0124884711371528
 30
0.0
 10
0.1521009657118055
 20
0.1225592719184028
 30
0.0
 10
0.1464165581597222
 20
0.1382344563802083
 30
0.0
 10
0.11162109375
 20
0.1499477810329861
 30
0.0
 10
0.0961181640625
 20
0.1585605197482639
 30
0.0
 10
0.0771701388888889
 20
0.1694125705295139
 30
0.0
 10
0.0601169162326389
 20
0.1921502007378472
 30
0.0
 10
0.0217041015625
 20
0.185260009765625
 30
0.0
  0
ENDBLK
  5
139
330
134
100
AcDbEntity
  8
LAYER_1
100
AcDbBlockEnd
  0
BLOCK
  5
13C
330
13A
100
AcDbEntity
  8
LAYER_1
 62
     7
100
AcDbBlockBegin
  2
AI9-BLK48
 70
     0
 10
0.0
 20
0.0
 30
0.0
  3
AI9-BLK48
  1

  4

  0
SPLINE
  5
13E
330
13A
100
AcDbEntity
  8
LAYER_1
 62
     7
100
AcDbSpline
210
0.0
220
0.0
230
1.0
 70
    11
 71
     3
 72
    29
 73
    25
 74
     0
 42
0.00000001
 43
0.00000001
 40
0.0
 40
0.0
 40
0.0
 40
0.0
 40
1.0
 40
1.0
 40
1.0
 40
2.0
 40
2.0
 40
2.0
 40
3.0
 40
3.0
 40
3.0
 40
4.0
 40
4.0
 40
4.0
 40
5.0
 40
5.0
 40
5.0
 40
6.0
 40
6.0
 40
6.0
 40
7.0
 40
7.0
 40
7.0
 40
8.0
 40
8.0
 40
8.0
 40
8.0
 10
-0.0165364583333333
 20
0.2452907986111111
 30
0.0
 10
0.0633897569444444
 20
0.2576931423611111
 30
0.0
 10
0.1793172200520833
 20
0.2244479709201389
 30
0.0
 10
0.2065334743923611
 20
0.1837958441840278
 30
0.0
 10
0.2289265950520833
 20
0.1500339084201389
 30
0.0
 10
0.2280653211805555
 20
0.1121378580729167
 30
0.0
 10
0.2359890407986111
 20
0.0639065212673611
 30
0.0
 10
0.2375393337673611
 20
0.0530544704861111
 30
0.0
 10
0.2516642252604167
 20
0.0160196940104167
 30
0.0
 10
0.2463243272569444
 20
-0.0098185221354167
 30
0.0
 10
0.2408121744791666
 20
-0.0346232096354167
 30
0.0
 10
0.2053276909722222
 20
-0.0561550564236111
 30
0.0
 10
0.1917195638020833
 20
-0.0754475911458333
 30
0.0
 10
0.13797607421875
 20
-0.1502061631944444
 30
0.0
 10
0.0871609157986111
 20
-0.2330607096354166
 30
0.0
 10
-0.0277330186631944
 20
-0.2452907986111111
 30
0.0
 10
-0.0718302408854167
 20
-0.24959716796875
 30
0.0
 10
-0.10697021484375
 20
-0.2390896267361111
 30
0.0
 10
-0.1574408637152778
 20
-0.2378838433159722
 30
0.0
 10
-0.1591634114583333
 20
-0.2344387478298611
 30
0.0
 10
-0.1651923285590278
 20
-0.2201416015625
 30
0.0
 10
-0.1669148763020833
 20
-0.2196248372395833
 30
0.0
 10
-0.4227132161458333
 20
-0.1250569661458333
 30
0.0
 10
-0.1727715386284722
 20
0.2215196397569444
 30
0.0
 10
-0.0165364583333333
 20
0.2452907986111111
 30
0.0
  0
SPLINE
  5
13D
330
13A
100
AcDbEntity
  8
LAYER_1
 62
     7
100
AcDbSpline
210
0.0
220
0.0
230
1.0
 70
    11
 71
     3
 72
    32
 73
    28
 74
     0
 42
0.00000001
 43
0.00000001
 40
0.0
 40
0.0
 40
0.0
 40
0.0
 40
1.0
 40
1.0
 40
1.0
 40
2.0
 40
2.0
 40
2.0
 40
3.0
 40
3.0
 40
3.0
 40
4.0
 40
4.0
 40
4.0
 40
5.0
 40
5.0
 40
5.0
 40
6.0
 40
6.0
 40
6.0
 40
7.0
 40
7.0
 40
7.0
 40
8.0
 40
8.0
 40
8.0
 40
9.0
 40
9.0
 40
9.0
 40
9.0
 10
-0.0153306749131944
 20
0.1712212456597222
 30
0.0
 10
-0.0251491970486111
 20
0.1688096788194444
 30
0.0
 10
-0.0428914388020833
 20
0.1398708767361111
 30
0.0
 10
-0.0518486870659722
 20
0.1336697048611111
 30
0.0
 10
-0.06356201171875
 20
0.1262627495659722
 30
0.0
 10
-0.0771701388888889
 20
0.1316026475694444
 30
0.0
 10
-0.0887112087673611
 20
0.1238511827256944
 30
0.0
 10
-0.1212673611111111
 20
0.1031806098090278
 30
0.0
 10
-0.2285820855034722
 20
-0.03720703125
 30
0.0
 10
-0.2054999457465278
 20
-0.1090372721354167
 30
0.0
 10
-0.1972317165798611
 20
-0.1355645073784722
 30
0.0
 10
-0.1517564561631944
 20
-0.1445217556423611
 30
0.0
 10
-0.1216118706597222
 20
-0.1539957682291667
 30
0.0
 10
-0.0942233615451389
 20
-0.1626085069444444
 30
0.0
 10
-0.0571885850694444
 20
-0.1815565321180555
 30
0.0
 10
-0.0103352864583333
 20
-0.1710489908854166
 30
0.0
 10
0.0254937065972222
 20
-0.1626085069444444
 30
0.0
 10
0.1502061631944444
 20
-0.0358289930555556
 30
0.0
 10
0.1629530164930556
 20
-0.0018948025173611
 30
0.0
 10
0.1667426215277778
 20
0.0091295030381944
 30
0.0
 10
0.1583021375868055
 20
0.0151584201388889
 30
0.0
 10
0.1624362521701389
 20
0.0258382161458333
 30
0.0
 10
0.1624362521701389
 20
0.0258382161458333
 30
0.0
 10
0.1808675130208333
 20
0.0353122287326389
 30
0.0
 10
0.1808675130208333
 20
0.0353122287326389
 30
0.0
 10
0.1925808376736111
 20
0.1202338324652778
 30
0.0
 10
0.0828545464409722
 20
0.1984375
 30
0.0
 10
-0.0153306749131944
 20
0.1712212456597222
 30
0.0
  0
ENDBLK
  5
13F
330
13A
100
AcDbEntity
  8
LAYER_1
100
AcDbBlockEnd
  0
BLOCK
  5
142
330
140
100
AcDbEntity
  8
LAYER_1
 62
     7
100
AcDbBlockBegin
  2
AI9-BLK49
 70
     0
 10
0.0
 20
0.0
 30
0.0
  3
AI9-BLK49
  1

  4

  0
SPLINE
  5
144
330
140
100
AcDbEntity
  8
LAYER_1
 62
     7
100
AcDbSpline
210
0.0
220
0.0
230
1.0
 70
    11
 71
     3
 72
    50
 73
    46
 74
     0
 42
0.00000001
 43
0.00000001
 40
0.0
 40
0.0
 40
0.0
 40
0.0
 40
1.0
 40
1.0
 40
1.0
 40
2.0
 40
2.0
 40
2.0
 40
3.0
 40
3.0
 40
3.0
 40
4.0
 40
4.0
 40
4.0
 40
5.0
 40
5.0
 40
5.0
 40
6.0
 40
6.0
 40
6.0
 40
7.0
 40
7.0
 40
7.0
 40
8.0
 40
8.0
 40
8.0
 40
9.0
 40
9.0
 40
9.0
 40
10.0
 40
10.0
 40
10.0
 40
11.0
 40
11.0
 40
11.0
 40
12.0
 40
12.0
 40
12.0
 40
13.0
 40
13.0
 40
13.0
 40
14.0
 40
14.0
 40
14.0
 40
15.0
 40
15.0
 40
15.0
 40
15.0
 10
-0.0149861653645833
 20
0.2677700466579861
 30
0.0
 10
0.0616672092013889
 20
0.279827880859375
 30
0.0
 10
0.0859551323784722
 20
0.239520263671875
 30
0.0
 10
0.1245402018229167
 20
0.2143710666232639
 30
0.0
 10
0.1484836154513889
 20
0.1986958821614583
 30
0.0
 10
0.1829345703125
 20
0.1923224555121528
 30
0.0
 10
0.1992987738715278
 20
0.1690680609809028
 30
0.0
 10
0.2106675889756944
 20
0.1521870930989583
 30
0.0
 10
0.2005045572916666
 20
0.1451246473524306
 30
0.0
 10
0.2091172960069444
 20
0.1230760362413194
 30
0.0
 10
0.23564453125
 20
0.0557244194878472
 30
0.0
 10
0.2595879448784722
 20
-0.0553799099392361
 30
0.0
 10
0.2129069010416667
 20
-0.1266933865017361
 30
0.0
 10
0.204638671875
 20
-0.1385789659288194
 30
0.0
 10
0.18448486328125
 20
-0.1427130805121528
 30
0.0
 10
0.1762166341145833
 20
-0.1549431694878472
 30
0.0
 10
0.1651923285590278
 20
-0.1704460991753472
 30
0.0
 10
0.16278076171875
 20
-0.1990403917100694
 30
0.0
 10
0.1493448893229167
 20
-0.2109259711371528
 30
0.0
 10
0.1350477430555555
 20
-0.2229838053385417
 30
0.0
 10
0.11937255859375
 20
-0.2197109646267361
 30
0.0
 10
0.1033528645833333
 20
-0.2300462510850694
 30
0.0
 10
0.0919840494791667
 20
-0.2371086968315972
 30
0.0
 10
0.0723470052083333
 20
-0.2638081868489583
 30
0.0
 10
0.0577053493923611
 20
-0.2677700466579861
 30
0.0
 10
-0.0330729166666667
 20
-0.2905076768663194
 30
0.0
 10
-0.1341864691840278
 20
-0.2495110405815972
 30
0.0
 10
-0.1651923285590278
 20
-0.2062750922309028
 30
0.0
 10
-0.1788004557291666
 20
-0.1874993218315972
 30
0.0
 10
-0.1736328125
 20
-0.1714796278211805
 30
0.0
 10
-0.18448486328125
 20
-0.151153564453125
 30
0.0
 10
-0.1884467230902778
 20
-0.1442633734809028
 30
0.0
 10
-0.2103230794270833
 20
-0.1254876030815972
 30
0.0
 10
-0.2129069010416667
 20
-0.1144632975260417
 30
0.0
 10
-0.2222086588541667
 20
-0.0741556803385417
 30
0.0
 10
-0.2080837673611111
 20
-0.010076904296875
 30
0.0
 10
-0.2054999457465278
 20
0.0150722927517361
 30
0.0
 10
-0.2037773980034722
 20
0.0357428656684028
 30
0.0
 10
-0.2120456271701389
 20
0.0600307888454861
 30
0.0
 10
-0.2065334743923611
 20
0.079840087890625
 30
0.0
 10
-0.1903415256076389
 20
0.1408182779947917
 30
0.0
 10
-0.1365980360243055
 20
0.1866380479600694
 30
0.0
 10
-0.08836669921875
 20
0.2203999837239583
 30
0.0
 10
-0.0668348524305556
 20
0.2357306586371528
 30
0.0
 10
-0.0487481011284722
 20
0.2626024034288194
 30
0.0
 10
-0.0149861653645833
 20
0.2677700466579861
 30
0.0
  0
SPLINE
  5
143
330
140
100
AcDbEntity
  8
LAYER_1
 62
     7
100
AcDbSpline
210
0.0
220
0.0
230
1.0
 70
    11
 71
     3
 72
    44
 73
    40
 74
     0
 42
0.00000001
 43
0.00000001
 40
0.0
 40
0.0
 40
0.0
 40
0.0
 40
1.0
 40
1.0
 40
1.0
 40
2.0
 40
2.0
 40
2.0
 40
3.0
 40
3.0
 40
3.0
 40
4.0
 40
4.0
 40
4.0
 40
5.0
 40
5.0
 40
5.0
 40
6.0
 40
6.0
 40
6.0
 40
7.0
 40
7.0
 40
7.0
 40
8.0
 40
8.0
 40
8.0
 40
9.0
 40
9.0
 40
9.0
 40
10.0
 40
10.0
 40
10.0
 40
11.0
 40
11.0
 40
11.0
 40
12.0
 40
12.0
 40
12.0
 40
13.0
 40
13.0
 40
13.0
 40
13.0
 10
-0.0323838975694444
 20
0.1935282389322917
 30
0.0
 10
-0.0349677191840278
 20
0.1928392198350694
 30
0.0
 10
-0.0385850694444444
 20
0.175958251953125
 30
0.0
 10
-0.0413411458333333
 20
0.1747524685329861
 30
0.0
 10
-0.0523654513888889
 20
0.1706183539496528
 30
0.0
 10
-0.0585666232638889
 20
0.1788865831163194
 30
0.0
 10
-0.0690741644965278
 20
0.174407958984375
 30
0.0
 10
-0.0732082790798611
 20
0.172857666015625
 30
0.0
 10
-0.0838880750868055
 20
0.1499477810329861
 30
0.0
 10
-0.0871609157986111
 20
0.1463304307725694
 30
0.0
 10
-0.1316026475694444
 20
0.1029222276475694
 30
0.0
 10
-0.1887912326388889
 20
-0.0433220757378472
 30
0.0
 10
-0.1384928385416667
 20
-0.1411627875434028
 30
0.0
 10
-0.1278130425347222
 20
-0.1621778700086805
 30
0.0
 10
-0.0876776801215278
 20
-0.1763027615017361
 30
0.0
 10
-0.0637342664930556
 20
-0.1862935384114583
 30
0.0
 10
-0.0618394639756944
 20
-0.1871548122829861
 30
0.0
 10
-0.0559828016493056
 20
-0.2011074490017361
 30
0.0
 10
-0.05426025390625
 20
-0.2045525444878472
 30
0.0
 10
-0.0287665473090278
 20
-0.2042080349392361
 30
0.0
 10
0.0039618598090278
 20
-0.2086866590711805
 30
0.0
 10
0.0289388020833333
 20
-0.2033467610677083
 30
0.0
 10
0.0289388020833333
 20
-0.2033467610677083
 30
0.0
 10
0.0471978081597222
 20
-0.1847432454427083
 30
0.0
 10
0.0471978081597222
 20
-0.1847432454427083
 30
0.0
 10
0.0578776041666667
 20
-0.1800923665364583
 30
0.0
 10
0.0640787760416667
 20
-0.188360595703125
 30
0.0
 10
0.0749308268229167
 20
-0.1842264811197917
 30
0.0
 10
0.0749308268229167
 20
-0.1842264811197917
 30
0.0
 10
0.1562350802951389
 20
-0.0910366482204861
 30
0.0
 10
0.1567518446180556
 20
-0.0905198838975694
 30
0.0
 10
0.1615749782986111
 20
-0.0774285210503472
 30
0.0
 10
0.1539957682291667
 20
-0.0584804958767361
 30
0.0
 10
0.1562350802951389
 20
-0.0443556043836806
 30
0.0
 10
0.16123046875
 20
-0.0045647515190972
 30
0.0
 10
0.1734605577256944
 20
0.0707105848524306
 30
0.0
 10
0.1538235134548611
 20
0.1129130045572917
 30
0.0
 10
0.1353922526041667
 20
0.1523593478732639
 30
0.0
 10
0.0461642795138889
 20
0.2140265570746528
 30
0.0
 10
-0.0323838975694444
 20
0.1935282389322917
 30
0.0
  0
ENDBLK
  5
145
330
140
100
AcDbEntity
  8
LAYER_1
100
AcDbBlockEnd
  0
BLOCK
  5
148
330
146
100
AcDbEntity
  8
LAYER_1
 62
     7
100
AcDbBlockBegin
  2
AI9-BLK50
 70
     0
 10
0.0
 20
0.0
 30
0.0
  3
AI9-BLK50
  1

  4

  0
SPLINE
  5
14A
330
146
100
AcDbEntity
  8
LAYER_1
 62
     7
100
AcDbSpline
210
0.0
220
0.0
230
1.0
 70
    11
 71
     3
 72
    35
 73
    31
 74
     0
 42
0.00000001
 43
0.00000001
 40
0.0
 40
0.0
 40
0.0
 40
0.0
 40
1.0
 40
1.0
 40
1.0
 40
2.0
 40
2.0
 40
2.0
 40
3.0
 40
3.0
 40
3.0
 40
4.0
 40
4.0
 40
4.0
 40
5.0
 40
5.0
 40
5.0
 40
6.0
 40
6.0
 40
6.0
 40
7.0
 40
7.0
 40
7.0
 40
8.0
 40
8.0
 40
8.0
 40
9.0
 40
9.0
 40
9.0
 40
10.0
 40
10.0
 40
10.0
 40
10.0
 10
-0.0330729166666667
 20
0.2958475748697916
 30
0.0
 10
0.0451307508680555
 20
0.3070441351996527
 30
0.0
 10
0.0816487630208333
 20
0.2775885687934028
 30
0.0
 10
0.1157552083333333
 20
0.2424485948350694
 30
0.0
 10
0.1157552083333333
 20
0.2424485948350694
 30
0.0
 10
0.1341864691840278
 20
0.2427931043836805
 30
0.0
 10
0.1341864691840278
 20
0.2427931043836805
 30
0.0
 10
0.1341864691840278
 20
0.2427931043836805
 30
0.0
 10
0.2005045572916666
 20
0.1420240614149305
 30
0.0
 10
0.2005045572916666
 20
0.1420240614149305
 30
0.0
 10
0.2094618055555556
 20
0.117047119140625
 30
0.0
 10
0.2013658311631944
 20
0.0772562662760417
 30
0.0
 10
0.2013658311631944
 20
0.0772562662760417
 30
0.0
 10
0.2268595377604167
 20
-0.0784620496961806
 30
0.0
 10
0.1603691948784722
 20
-0.1973178439670139
 30
0.0
 10
0.0583943684895833
 20
-0.2579515245225694
 30
0.0
 10
0.0401353624131944
 20
-0.2686313205295139
 30
0.0
 10
0.0192925347222222
 20
-0.2929192437065972
 30
0.0
 10
-0.0058566623263889
 20
-0.2958475748697916
 30
0.0
 10
-0.0218763563368056
 20
-0.2975701226128472
 30
0.0
 10
-0.0845770941840278
 20
-0.2874070909288194
 30
0.0
 10
-0.0985297309027778
 20
-0.2786220974392361
 30
0.0
 10
-0.0985297309027778
 20
-0.2786220974392361
 30
0.0
 10
-0.1081759982638889
 20
-0.2603630913628472
 30
0.0
 10
-0.1081759982638889
 20
-0.2603630913628472
 30
0.0
 10
-0.1424546983506944
 20
-0.2439988878038194
 30
0.0
 10
-0.18138427734375
 20
-0.2353861490885416
 30
0.0
 10
-0.2013658311631944
 20
-0.2062750922309028
 30
0.0
 10
-0.3079915364583333
 20
-0.0522793240017361
 30
0.0
 10
-0.1779391818576389
 20
0.275177001953125
 30
0.0
 10
-0.0330729166666667
 20
0.2958475748697916
 30
0.0
  0
SPLINE
  5
149
330
146
100
AcDbEntity
  8
LAYER_1
 62
     7
100
AcDbSpline
210
0.0
220
0.0
230
1.0
 70
    11
 71
     3
 72
    38
 73
    34
 74
     0
 42
0.00000001
 43
0.00000001
 40
0.0
 40
0.0
 40
0.0
 40
0.0
 40
1.0
 40
1.0
 40
1.0
 40
2.0
 40
2.0
 40
2.0
 40
3.0
 40
3.0
 40
3.0
 40
4.0
 40
4.0
 40
4.0
 40
5.0
 40
5.0
 40
5.0
 40
6.0
 40
6.0
 40
6.0
 40
7.0
 40
7.0
 40
7.0
 40
8.0
 40
8.0
 40
8.0
 40
9.0
 40
9.0
 40
9.0
 40
10.0
 40
10.0
 40
10.0
 40
11.0
 40
11.0
 40
11.0
 40
11.0
 10
-0.0597724066840278
 20
0.2214335123697916
 30
0.0
 10
-0.0807874891493055
 20
0.2138543023003472
 30
0.0
 10
-0.0850938585069444
 20
0.1764750162760417
 30
0.0
 10
-0.0957736545138889
 20
0.1561489529079861
 30
0.0
 10
-0.11007080078125
 20
0.1292772081163194
 30
0.0
 10
-0.1415934244791667
 20
0.0918979220920139
 30
0.0
 10
-0.1498616536458333
 20
0.062786865234375
 30
0.0
 10
-0.1867241753472222
 20
-0.0608920627170139
 30
0.0
 10
-0.13487548828125
 20
-0.2624301486545139
 30
0.0
 10
0.0115410698784722
 20
-0.2216057671440972
 30
0.0
 10
0.0115410698784722
 20
-0.2216057671440972
 30
0.0
 10
0.0204983181423611
 20
-0.2030022515190972
 30
0.0
 10
0.0204983181423611
 20
-0.2030022515190972
 30
0.0
 10
0.0411688910590278
 20
-0.1890496148003472
 30
0.0
 10
0.0621839735243055
 20
-0.1849155002170139
 30
0.0
 10
0.0754475911458333
 20
-0.165106201171875
 30
0.0
 10
0.1026638454861111
 20
-0.1227315266927083
 30
0.0
 10
0.1505506727430555
 20
0.020928955078125
 30
0.0
 10
0.1269517686631944
 20
0.1039557562934028
 30
0.0
 10
0.1269517686631944
 20
0.1039557562934028
 30
0.0
 10
0.1081759982638889
 20
0.1222147623697917
 30
0.0
 10
0.1081759982638889
 20
0.1222147623697917
 30
0.0
 10
0.1052476671006944
 20
0.1322055392795139
 30
0.0
 10
0.1121378580729167
 20
0.1499477810329861
 30
0.0
 10
0.1076592339409722
 20
0.1590772840711806
 30
0.0
 10
0.1031806098090278
 20
0.1676900227864583
 30
0.0
 10
0.0776869032118055
 20
0.1792310926649305
 30
0.0
 10
0.0702799479166667
 20
0.1862935384114583
 30
0.0
 10
0.0632175021701389
 20
0.1931837293836805
 30
0.0
 10
0.0554660373263889
 20
0.2155768500434028
 30
0.0
 10
0.0513319227430556
 20
0.2229838053385417
 30
0.0
 10
0.0199815538194444
 20
0.2226392957899305
 30
0.0
 10
-0.031005859375
 20
0.2321133083767361
 30
0.0
 10
-0.0597724066840278
 20
0.2214335123697916
 30
0.0
  0
ENDBLK
  5
14B
330
146
100
AcDbEntity
  8
LAYER_1
100
AcDbBlockEnd
  0
BLOCK
  5
14E
330
14C
100
AcDbEntity
  8
LAYER_1
 62
     7
100
AcDbBlockBegin
  2
AI9-BLK51
 70
     0
 10
0.0
 20
0.0
 30
0.0
  3
AI9-BLK51
  1

  4

  0
SPLINE
  5
150
330
14C
100
AcDbEntity
  8
LAYER_1
 62
     7
100
AcDbSpline
210
0.0
220
0.0
230
1.0
 70
    11
 71
     3
 72
    20
 73
    16
 74
     0
 42
0.00000001
 43
0.00000001
 40
0.0
 40
0.0
 40
0.0
 40
0.0
 40
1.0
 40
1.0
 40
1.0
 40
2.0
 40
2.0
 40
2.0
 40
3.0
 40
3.0
 40
3.0
 40
4.0
 40
4.0
 40
4.0
 40
5.0
 40
5.0
 40
5.0
 40
5.0
 10
-0.0169670952690972
 20
0.2772440592447916
 30
0.0
 10
0.2021409776475694
 20
0.3192742241753472
 30
0.0
 10
0.2670810275607639
 20
0.051934814453125
 30
0.0
 10
0.1924947102864583
 20
-0.1173916286892361
 30
0.0
 10
0.175958251953125
 20
-0.1540818956163194
 30
0.0
 10
0.1354783799913194
 20
-0.1814704047309028
 30
0.0
 10
0.1105014377170139
 20
-0.2110982259114583
 30
0.0
 10
0.1105014377170139
 20
-0.2110982259114583
 30
0.0
 10
0.110845947265625
 20
-0.2295294867621528
 30
0.0
 10
0.110845947265625
 20
-0.2295294867621528
 30
0.0
 10
0.0872470431857639
 20
-0.2408983018663194
 30
0.0
 10
0.0493509928385417
 20
-0.2719041612413194
 30
0.0
 10
0.0190341525607639
 20
-0.2772440592447916
 30
0.0
 10
-0.3313320583767361
 20
-0.3382222493489583
 30
0.0
 10
-0.1825039333767361
 20
0.2458936903211805
 30
0.0
 10
-0.0169670952690972
 20
0.2772440592447916
 30
0.0
  0
SPLINE
  5
14F
330
14C
100
AcDbEntity
  8
LAYER_1
 62
     7
100
AcDbSpline
210
0.0
220
0.0
230
1.0
 70
    11
 71
     3
 72
    17
 73
    13
 74
     0
 42
0.00000001
 43
0.00000001
 40
0.0
 40
0.0
 40
0.0
 40
0.0
 40
1.0
 40
1.0
 40
1.0
 40
2.0
 40
2.0
 40
2.0
 40
3.0
 40
3.0
 40
3.0
 40
4.0
 40
4.0
 40
4.0
 40
4.0
 10
0.0024976942274306
 20
0.2128207736545139
 30
0.0
 10
-0.0939649793836806
 20
0.1897386338975694
 30
0.0
 10
-0.2188496907552083
 20
-0.2655307345920139
 30
0.0
 10
-0.0004306369357639
 20
-0.2128207736545139
 30
0.0
 10
0.0093878851996528
 20
-0.2102369520399305
 30
0.0
 10
0.019378662109375
 20
-0.1893941243489583
 30
0.0
 10
0.0269578721788194
 20
-0.1845709906684028
 30
0.0
 10
0.075189208984375
 20
-0.1514980740017361
 30
0.0
 10
0.1175638834635417
 20
-0.1025777180989583
 30
0.0
 10
0.1358228895399306
 20
-0.044183349609375
 30
0.0
 10
0.1676900227864583
 20
0.0603752983940972
 30
0.0
 10
0.126348876953125
 20
0.2429653591579861
 30
0.0
 10
0.0024976942274306
 20
0.2128207736545139
 30
0.0
  0
ENDBLK
  5
151
330
14C
100
AcDbEntity
  8
LAYER_1
100
AcDbBlockEnd
  0
BLOCK
  5
154
330
152
100
AcDbEntity
  8
LAYER_1
 62
     7
100
AcDbBlockBegin
  2
AI9-BLK52
 70
     0
 10
0.0
 20
0.0
 30
0.0
  3
AI9-BLK52
  1

  4

  0
SPLINE
  5
156
330
152
100
AcDbEntity
  8
LAYER_1
 62
     7
100
AcDbSpline
210
0.0
220
0.0
230
1.0
 70
    11
 71
     3
 72
    35
 73
    31
 74
     0
 42
0.00000001
 43
0.00000001
 40
0.0
 40
0.0
 40
0.0
 40
0.0
 40
1.0
 40
1.0
 40
1.0
 40
2.0
 40
2.0
 40
2.0
 40
3.0
 40
3.0
 40
3.0
 40
4.0
 40
4.0
 40
4.0
 40
5.0
 40
5.0
 40
5.0
 40
6.0
 40
6.0
 40
6.0
 40
7.0
 40
7.0
 40
7.0
 40
8.0
 40
8.0
 40
8.0
 40
9.0
 40
9.0
 40
9.0
 40
10.0
 40
10.0
 40
10.0
 40
10.0
 10
0.0150722927517361
 20
0.3058383517795139
 30
0.0
 10
0.0269578721788194
 20
0.3058383517795139
 30
0.0
 10
0.0622701009114583
 20
0.2825839572482639
 30
0.0
 10
0.0710550944010417
 20
0.2789666069878472
 30
0.0
 10
0.0927591959635417
 20
0.2703538682725694
 30
0.0
 10
0.1103291829427083
 20
0.2741434733072917
 30
0.0
 10
0.1266933865017361
 20
0.261224365234375
 30
0.0
 10
0.1358228895399306
 20
0.2541619194878472
 30
0.0
 10
0.1292772081163194
 20
0.2445156521267361
 30
0.0
 10
0.1363396538628472
 20
0.2336636013454861
 30
0.0
 10
0.1416795518663194
 20
0.2253953721788194
 30
0.0
 10
0.1595940483940972
 20
0.224017333984375
 30
0.0
 10
0.1644171820746528
 20
0.2155768500434028
 30
0.0
 10
0.1676900227864583
 20
0.2098924424913194
 30
0.0
 10
0.1926669650607639
 20
0.1347893608940972
 30
0.0
 10
0.1933559841579861
 20
0.1328945583767361
 30
0.0
 10
0.1957675509982639
 20
0.1204922146267361
 30
0.0
 10
0.1828484429253472
 20
0.1242818196614583
 30
0.0
 10
0.1845709906684028
 20
0.1049892849392361
 30
0.0
 10
0.1869825575086805
 20
0.0763949924045139
 30
0.0
 10
0.2064473470052083
 20
0.0300584581163194
 30
0.0
 10
0.2047247992621528
 20
-0.0057705349392361
 30
0.0
 10
0.203863525390625
 20
-0.022479248046875
 30
0.0
 10
0.1816426595052083
 20
-0.0662319607204861
 30
0.0
 10
0.1780253092447917
 20
-0.0801845974392361
 30
0.0
 10
0.146502685546875
 20
-0.194561767578125
 30
0.0
 10
0.0967210557725694
 20
-0.3268534342447916
 30
0.0
 10
-0.0682990180121528
 20
-0.3058383517795139
 30
0.0
 10
-0.3368442111545139
 20
-0.2717319064670138
 30
0.0
 10
-0.1911166720920139
 20
0.3089389377170139
 30
0.0
 10
0.0150722927517361
 20
0.3058383517795139
 30
0.0
  0
SPLINE
  5
155
330
152
100
AcDbEntity
  8
LAYER_1
 62
     7
100
AcDbSpline
210
0.0
220
0.0
230
1.0
 70
    11
 71
     3
 72
    23
 73
    19
 74
     0
 42
0.00000001
 43
0.00000001
 40
0.0
 40
0.0
 40
0.0
 40
0.0
 40
1.0
 40
1.0
 40
1.0
 40
2.0
 40
2.0
 40
2.0
 40
3.0
 40
3.0
 40
3.0
 40
4.0
 40
4.0
 40
4.0
 40
5.0
 40
5.0
 40
5.0
 40
6.0
 40
6.0
 40
6.0
 40
6.0
 10
-0.0112826877170139
 20
0.2129930284288194
 30
0.0
 10
-0.041082763671875
 20
0.2055860731336806
 30
0.0
 10
-0.0586527506510417
 20
0.1618333604600694
 30
0.0
 10
-0.0750169542100694
 20
0.1380622016059028
 30
0.0
 10
-0.0886250813802083
 20
0.1194586859809028
 30
0.0
 10
-0.1211812337239583
 20
0.0946539984809028
 30
0.0
 10
-0.129449462890625
 20
0.0724331325954861
 30
0.0
 10
-0.135650634765625
 20
0.0574469672309028
 30
0.0
 10
-0.1253153483072917
 20
0.0422885470920139
 30
0.0
 10
-0.1287604437934028
 20
0.0262688530815972
 30
0.0
 10
-0.1287604437934028
 20
0.0262688530815972
 30
0.0
 10
-0.1470194498697917
 20
0.0074930826822917
 30
0.0
 10
-0.1470194498697917
 20
0.0074930826822917
 30
0.0
 10
-0.180609130859375
 20
-0.1239373101128472
 30
0.0
 10
-0.1184251573350694
 20
-0.2641526963975694
 30
0.0
 10
0.0228237575954861
 20
-0.2212612575954861
 30
0.0
 10
0.1420240614149305
 20
-0.1847432454427083
 30
0.0
 10
0.1652784559461805
 20
0.2579515245225694
 30
0.0
 10
-0.0112826877170139
 20
0.2129930284288194
 30
0.0
  0
ENDBLK
  5
157
330
152
100
AcDbEntity
  8
LAYER_1
100
AcDbBlockEnd
  0
ENDSEC
  0
SECTION
  2
ENTITIES
  0
LWPOLYLINE
  5
282
330
A
100
AcDbEntity
  8
LAYER_1
 62
     7
100
AcDbPolyline
 90
       59
 70
     0
 43
0.0
 10
111.6150648328993
 20
159.1954508463542
 10
108.574079047309
 20
158.8674777560764
 10
96.72467312282986
 20
162.7383870442708
 10
94.57407226562499
 20
162.5106662326389
 10
94.58854166666666
 20
160.0741224500868
 10
94.22801242404513
 20
159.4379855685764
 10
95.06138102213541
 20
158.9933959960937
 10
94.54323866102429
 20
158.7246785481771
 10
94.6364284939236
 20
157.5364651150173
 10
85.9761474609375
 20
156.6720906575521
 10
78.46583930121527
 20
160.1504313151042
 10
76.28216552734375
 20
159.9549221462673
 10
76.26321750217014
 20
155.3384941948785
 10
75.77280815972222
 20
154.6973619249132
 10
76.69884982638888
 20
153.8584811740451
 10
76.1846693250868
 20
153.3286254882812
 10
76.28285454644096
 20
147.6938273111979
 10
79.20171169704861
 20
145.7368408203125
 10
78.96176079644097
 20
143.5140652126736
 10
75.02815077039929
 20
143.0093587239583
 10
74.9756130642361
 20
140.6773735894097
 10
72.58712836371527
 20
140.3543958875868
 10
72.60263129340277
 20
138.2904391818576
 10
73.8561292860243
 20
137.1985161675347
 10
73.8594021267361
 20
136.3415486653646
 10
74.8825954861111
 20
136.2412963867187
 10
75.99002143012152
 20
135.2968234592014
 10
80.22869466145832
 20
135.9072943793403
 10
80.2340345594618
 20
134.8195054796007
 10
79.57963867187499
 20
134.1897420247396
 10
80.24178602430555
 20
133.5577392578125
 10
81.05379503038193
 20
133.0802490234375
 10
80.26004503038193
 20
132.3288736979167
 10
80.30793185763888
 20
125.432826063368
 10
81.10357666015624
 20
124.5960123697917
 10
84.4103515625
 20
125.1563571506076
 10
85.6600599500868
 20
123.9674546983507
 10
88.10073784722222
 20
124.4278917100694
 10
88.09057481553819
 20
125.8419311523437
 10
104.7973931206597
 20
128.9289089626736
 10
105.731703016493
 20
128.2791639539931
 10
105.9651082356771
 20
128.67431640625
 10
106.3628445095486
 20
126.7982896592882
 10
107.5894707573785
 20
126.9688218858507
 10
108.326032172309
 20
126.4467176649306
 10
110.6046183268229
 20
126.8503106011285
 10
110.5684448242187
 20
130.0153198242188
 10
117.8260552300347
 20
131.3630411783854
 10
115.8950792100694
 20
137.7797037760417
 10
116.3448364257812
 20
138.2678738064236
 10
114.80849609375
 20
138.9792860243055
 10
115.3466200086806
 20
139.5584065755208
 10
114.8407077365451
 20
141.215325249566
 10
116.6211330837674
 20
141.4511420355903
 10
114.3425469292535
 20
149.7340128580729
 10
114.7254692925347
 20
150.4519707573785
 10
113.1924018012153
 20
151.1254869249132
 10
113.7021036783854
 20
151.9733249240451
 10
111.6152370876736
 20
159.1871826171875
  0
SPLINE
  5
281
330
A
100
AcDbEntity
  8
LAYER_1
 62
     7
100
AcDbSpline
210
0.0
220
0.0
230
1.0
 70
    11
 71
     3
 72
   113
 73
   109
 74
     0
 42
0.00000001
 43
0.00000001
 40
0.0
 40
0.0
 40
0.0
 40
0.0
 40
1.0
 40
1.0
 40
1.0
 40
2.0
 40
2.0
 40
2.0
 40
3.0
 40
3.0
 40
3.0
 40
4.0
 40
4.0
 40
4.0
 40
5.0
 40
5.0
 40
5.0
 40
6.0
 40
6.0
 40
6.0
 40
7.0
 40
7.0
 40
7.0
 40
8.0
 40
8.0
 40
8.0
 40
9.0
 40
9.0
 40
9.0
 40
10.0
 40
10.0
 40
10.0
 40
11.0
 40
11.0
 40
11.0
 40
12.0
 40
12.0
 40
12.0
 40
13.0
 40
13.0
 40
13.0
 40
14.0
 40
14.0
 40
14.0
 40
15.0
 40
15.0
 40
15.0
 40
16.0
 40
16.0
 40
16.0
 40
17.0
 40
17.0
 40
17.0
 40
18.0
 40
18.0
 40
18.0
 40
19.0
 40
19.0
 40
19.0
 40
20.0
 40
20.0
 40
20.0
 40
21.0
 40
21.0
 40
21.0
 40
22.0
 40
22.0
 40
22.0
 40
23.0
 40
23.0
 40
23.0
 40
24.0
 40
24.0
 40
24.0
 40
25.0
 40
25.0
 40
25.0
 40
26.0
 40
26.0
 40
26.0
 40
27.0
 40
27.0
 40
27.0
 40
28.0
 40
28.0
 40
28.0
 40
29.0
 40
29.0
 40
29.0
 40
30.0
 40
30.0
 40
30.0
 40
31.0
 40
31.0
 40
31.0
 40
32.0
 40
32.0
 40
32.0
 40
33.0
 40
33.0
 40
33.0
 40
34.0
 40
34.0
 40
34.0
 40
35.0
 40
35.0
 40
35.0
 40
36.0
 40
36.0
 40
36.0
 40
36.0
 10
113.0797471788194
 20
159.4238606770833
 30
0.0
 10
113.0797471788194
 20
159.4238606770833
 30
0.0
 10
116.3660237630208
 20
159.7378811306423
 30
0.0
 10
116.3660237630208
 20
159.7378811306423
 30
0.0
 10
116.3660237630208
 20
159.7378811306423
 30
0.0
 10
116.3517266167535
 20
160.3535196940104
 30
0.0
 10
116.3517266167535
 20
160.3535196940104
 30
0.0
 10
116.3517266167535
 20
160.3535196940104
 30
0.0
 10
116.6731540256076
 20
160.6845933702257
 30
0.0
 10
116.6731540256076
 20
160.6845933702257
 30
0.0
 10
116.6731540256076
 20
160.6845933702257
 30
0.0
 10
116.0132459852431
 20
161.1643229166667
 30
0.0
 10
116.0132459852431
 20
161.1643229166667
 30
0.0
 10
116.0132459852431
 20
161.1643229166667
 30
0.0
 10
116.4425048828125
 20
161.5391493055556
 30
0.0
 10
116.4425048828125
 20
161.5391493055556
 30
0.0
 10
116.4425048828125
 20
161.5391493055556
 30
0.0
 10
116.4295857747396
 20
163.8980061848958
 30
0.0
 10
116.4295857747396
 20
163.8980061848958
 30
0.0
 10
116.4295857747396
 20
163.8980061848958
 30
0.0
 10
118.4830349392361
 20
164.072844780816
 30
0.0
 10
118.4830349392361
 20
164.072844780816
 30
0.0
 10
118.4830349392361
 20
164.072844780816
 30
0.0
 10
130.1128160264757
 20
161.0797458224826
 30
0.0
 10
130.1128160264757
 20
161.0797458224826
 30
0.0
 10
130.1128160264757
 20
161.0797458224826
 30
0.0
 10
133.5985636393229
 20
161.4904012044271
 30
0.0
 10
133.5985636393229
 20
161.4904012044271
 30
0.0
 10
133.5985636393229
 20
161.4904012044271
 30
0.0
 10
135.3888075086805
 20
160.9476264105903
 30
0.0
 10
135.3888075086805
 20
160.9476264105903
 30
0.0
 10
135.3888075086805
 20
160.9476264105903
 30
0.0
 10
137.1399495442708
 20
155.0349812825521
 30
0.0
 10
137.1399495442708
 20
155.0349812825521
 30
0.0
 10
137.1399495442708
 20
155.0349812825521
 30
0.0
 10
136.8037082248264
 20
154.4236490885417
 30
0.0
 10
136.8037082248264
 20
154.4236490885417
 30
0.0
 10
136.8037082248264
 20
154.4236490885417
 30
0.0
 10
137.868931749132
 20
154.0004191080729
 30
0.0
 10
137.868931749132
 20
154.0004191080729
 30
0.0
 10
137.868931749132
 20
154.0004191080729
 30
0.0
 10
137.5681749131944
 20
153.4884779188368
 30
0.0
 10
137.5681749131944
 20
153.4884779188368
 30
0.0
 10
137.5681749131944
 20
153.4884779188368
 30
0.0
 10
138.6011867947049
 20
149.8487345377604
 30
0.0
 10
138.6011867947049
 20
149.8487345377604
 30
0.0
 10
138.6011867947049
 20
149.8487345377604
 30
0.0
 10
140.5421535915799
 20
149.1500691731771
 30
0.0
 10
140.5421535915799
 20
149.1500691731771
 30
0.0
 10
140.5421535915799
 20
149.1500691731771
 30
0.0
 10
140.6101942274306
 20
147.976325141059
 30
0.0
 10
140.6101942274306
 20
147.976325141059
 30
0.0
 10
140.6101942274306
 20
147.976325141059
 30
0.0
 10
141.9854763454861
 20
147.4504313151041
 30
0.0
 10
141.9854763454861
 20
147.4504313151041
 30
0.0
 10
141.9854763454861
 20
147.4504313151041
 30
0.0
 10
142.0001180013021
 20
145.4703626844618
 30
0.0
 10
142.0001180013021
 20
145.4703626844618
 30
0.0
 10
142.0001180013021
 20
145.4703626844618
 30
0.0
 10
132.4549641927083
 20
143.9863878038194
 30
0.0
 10
132.4549641927083
 20
143.9863878038194
 30
0.0
 10
132.4549641927083
 20
143.9863878038194
 30
0.0
 10
132.3781385633681
 20
133.765478515625
 30
0.0
 10
132.3781385633681
 20
133.765478515625
 30
0.0
 10
132.3781385633681
 20
133.765478515625
 30
0.0
 10
130.3600016276042
 20
133.4092556423611
 30
0.0
 10
130.3600016276042
 20
133.4092556423611
 30
0.0
 10
130.3600016276042
 20
133.4092556423611
 30
0.0
 10
129.4723727756076
 20
133.8528116861979
 30
0.0
 10
129.4723727756076
 20
133.8528116861979
 30
0.0
 10
129.4723727756076
 20
133.8528116861979
 30
0.0
 10
128.3001790364583
 20
133.6722886827257
 30
0.0
 10
128.3001790364583
 20
133.6722886827257
 30
0.0
 10
128.3001790364583
 20
133.6722886827257
 30
0.0
 10
127.8008124457465
 20
135.0355129665799
 30
0.0
 10
127.8008124457465
 20
135.0355129665799
 30
0.0
 10
127.5436360677083
 20
134.7707573784722
 30
0.0
 10
127.3019626193576
 20
134.9629937065972
 30
0.0
 10
127.3019626193576
 20
134.9629937065972
 30
0.0
 10
127.3019626193576
 20
134.9629937065972
 30
0.0
 10
125.4765787760417
 20
135.9148735894097
 30
0.0
 10
125.4765787760417
 20
135.9148735894097
 30
0.0
 10
125.4765787760417
 20
135.9148735894097
 30
0.0
 10
125.5997409396701
 20
142.9004937065972
 30
0.0
 10
125.5997409396701
 20
142.9004937065972
 30
0.0
 10
125.5997409396701
 20
142.9004937065972
 30
0.0
 10
123.3053073459201
 20
142.5890570746528
 30
0.0
 10
123.3053073459201
 20
142.5890570746528
 30
0.0
 10
122.7813083224826
 20
142.5222222222222
 30
0.0
 10
119.8867390950521
 20
142.0488661024305
 30
0.0
 10
119.8867390950521
 20
142.0488661024305
 30
0.0
 10
119.8867390950521
 20
142.0488661024305
 30
0.0
 10
118.0310384114583
 20
141.7439751519097
 30
0.0
 10
118.0310384114583
 20
141.7439751519097
 30
0.0
 10
118.0310384114583
 20
141.7439751519097
 30
0.0
 10
115.6988810221354
 20
150.001869032118
 30
0.0
 10
115.6988810221354
 20
150.001869032118
 30
0.0
 10
115.6988810221354
 20
150.001869032118
 30
0.0
 10
116.2368326822917
 20
150.8498792860243
 30
0.0
 10
116.2368326822917
 20
150.8498792860243
 30
0.0
 10
116.2368326822917
 20
150.8498792860243
 30
0.0
 10
114.7447618272569
 20
151.5022081163194
 30
0.0
 10
114.7447618272569
 20
151.5022081163194
 30
0.0
 10
114.7447618272569
 20
151.5022081163194
 30
0.0
 10
115.1488715277778
 20
152.1324883355035
 30
0.0
 10
115.1488715277778
 20
152.1324883355035
 30
0.0
 10
115.1488715277778
 20
152.1324883355035
 30
0.0
 10
113.0797471788194
 20
159.4238606770833
 30
0.0
 10
113.0797471788194
 20
159.4238606770833
 30
0.0
  0
SPLINE
  5
280
330
A
100
AcDbEntity
  8
LAYER_1
 62
     7
100
AcDbSpline
210
0.0
220
0.0
230
1.0
 70
    11
 71
     3
 72
   143
 73
   139
 74
     0
 42
0.00000001
 43
0.00000001
 40
0.0
 40
0.0
 40
0.0
 40
0.0
 40
1.0
 40
1.0
 40
1.0
 40
2.0
 40
2.0
 40
2.0
 40
3.0
 40
3.0
 40
3.0
 40
4.0
 40
4.0
 40
4.0
 40
5.0
 40
5.0
 40
5.0
 40
6.0
 40
6.0
 40
6.0
 40
7.0
 40
7.0
 40
7.0
 40
8.0
 40
8.0
 40
8.0
 40
9.0
 40
9.0
 40
9.0
 40
10.0
 40
10.0
 40
10.0
 40
11.0
 40
11.0
 40
11.0
 40
12.0
 40
12.0
 40
12.0
 40
13.0
 40
13.0
 40
13.0
 40
14.0
 40
14.0
 40
14.0
 40
15.0
 40
15.0
 40
15.0
 40
16.0
 40
16.0
 40
16.0
 40
17.0
 40
17.0
 40
17.0
 40
18.0
 40
18.0
 40
18.0
 40
19.0
 40
19.0
 40
19.0
 40
20.0
 40
20.0
 40
20.0
 40
21.0
 40
21.0
 40
21.0
 40
22.0
 40
22.0
 40
22.0
 40
23.0
 40
23.0
 40
23.0
 40
24.0
 40
24.0
 40
24.0
 40
25.0
 40
25.0
 40
25.0
 40
26.0
 40
26.0
 40
26.0
 40
27.0
 40
27.0
 40
27.0
 40
28.0
 40
28.0
 40
28.0
 40
29.0
 40
29.0
 40
29.0
 40
30.0
 40
30.0
 40
30.0
 40
31.0
 40
31.0
 40
31.0
 40
32.0
 40
32.0
 40
32.0
 40
33.0
 40
33.0
 40
33.0
 40
34.0
 40
34.0
 40
34.0
 40
35.0
 40
35.0
 40
35.0
 40
36.0
 40
36.0
 40
36.0
 40
37.0
 40
37.0
 40
37.0
 40
38.0
 40
38.0
 40
38.0
 40
39.0
 40
39.0
 40
39.0
 40
40.0
 40
40.0
 40
40.0
 40
41.0
 40
41.0
 40
41.0
 40
42.0
 40
42.0
 40
42.0
 40
43.0
 40
43.0
 40
43.0
 40
44.0
 40
44.0
 40
44.0
 40
45.0
 40
45.0
 40
45.0
 40
46.0
 40
46.0
 40
46.0
 40
46.0
 10
94.99023980034721
 20
143.9912109375
 30
0.0
 10
94.99023980034721
 20
143.9912109375
 30
0.0
 10
95.78243950737847
 20
144.1117892795139
 30
0.0
 10
95.78243950737847
 20
144.1117892795139
 30
0.0
 10
95.78243950737847
 20
144.1117892795139
 30
0.0
 10
96.02101236979166
 20
144.1696668836806
 30
0.0
 10
95.97415907118055
 20
144.3973876953125
 30
0.0
 10
95.97415907118055
 20
144.3973876953125
 30
0.0
 10
95.97036946614583
 20
144.6475016276042
 30
0.0
 10
95.97036946614583
 20
144.6475016276042
 30
0.0
 10
95.97036946614583
 20
144.6475016276042
 30
0.0
 10
96.01119384765624
 20
144.8331922743055
 30
0.0
 10
96.16329481336804
 20
144.8462836371528
 30
0.0
 10
96.16329481336804
 20
144.8462836371528
 30
0.0
 10
97.03180338541665
 20
144.9678955078125
 30
0.0
 10
97.03180338541665
 20
144.9678955078125
 30
0.0
 10
97.03180338541665
 20
144.9678955078125
 30
0.0
 10
97.30258789062499
 20
145.0481662326389
 30
0.0
 10
97.29604220920137
 20
144.7542995876736
 30
0.0
 10
97.29604220920137
 20
144.7542995876736
 30
0.0
 10
97.2998318142361
 20
144.4933336046007
 30
0.0
 10
97.2998318142361
 20
144.4933336046007
 30
0.0
 10
97.2998318142361
 20
144.4933336046007
 30
0.0
 10
97.32480875651041
 20
144.2761203342014
 30
0.0
 10
97.53048095703124
 20
144.3443332248264
 30
0.0
 10
97.53048095703124
 20
144.3443332248264
 30
0.0
 10
98.5619425455729
 20
144.4793809678819
 30
0.0
 10
98.5619425455729
 20
144.4793809678819
 30
0.0
 10
98.5619425455729
 20
144.4793809678819
 30
0.0
 10
98.81136745876735
 20
144.5265787760417
 30
0.0
 10
98.77553846571179
 20
144.7436197916667
 30
0.0
 10
98.77553846571179
 20
144.7436197916667
 30
0.0
 10
98.77140435112847
 20
145.0262898763021
 30
0.0
 10
98.77140435112847
 20
145.0262898763021
 30
0.0
 10
98.77140435112847
 20
145.0262898763021
 30
0.0
 10
98.82325303819444
 20
145.2011284722222
 30
0.0
 10
98.96381293402777
 20
145.2467759874132
 30
0.0
 10
98.96381293402777
 20
145.2467759874132
 30
0.0
 10
99.76738145616318
 20
145.3458224826389
 30
0.0
 10
99.76738145616318
 20
145.3458224826389
 30
0.0
 10
99.76738145616318
 20
145.3458224826389
 30
0.0
 10
100.070549858941
 20
145.4481418185764
 30
0.0
 10
100.0424723307292
 20
145.1322265625
 30
0.0
 10
100.0424723307292
 20
145.1322265625
 30
0.0
 10
100.035065375434
 20
144.9036444769965
 30
0.0
 10
100.035065375434
 20
144.9036444769965
 30
0.0
 10
100.035065375434
 20
144.9036444769965
 30
0.0
 10
100.0385104709201
 20
144.6752346462673
 30
0.0
 10
100.2982706705729
 20
144.7553331163194
 30
0.0
 10
100.2982706705729
 20
144.7553331163194
 30
0.0
 10
101.1774590386285
 20
144.8879692925347
 30
0.0
 10
101.1774590386285
 20
144.8879692925347
 30
0.0
 10
101.1774590386285
 20
144.8879692925347
 30
0.0
 10
101.3398952907986
 20
144.9448133680556
 30
0.0
 10
101.3262871636285
 20
145.1294704861111
 30
0.0
 10
101.3262871636285
 20
145.1294704861111
 30
0.0
 10
101.3433403862847
 20
145.4343614366319
 30
0.0
 10
101.3433403862847
 20
145.4343614366319
 30
0.0
 10
101.3433403862847
 20
145.4343614366319
 30
0.0
 10
101.3734849717882
 20
145.6088555230035
 30
0.0
 10
101.5366102430556
 20
145.6112670898438
 30
0.0
 10
101.5366102430556
 20
145.6112670898438
 30
0.0
 10
102.1989298502604
 20
145.6972222222222
 30
0.0
 10
102.1989298502604
 20
145.6972222222222
 30
0.0
 10
102.1989298502604
 20
145.6972222222222
 30
0.0
 10
102.2006523980035
 20
144.1198852539062
 30
0.0
 10
102.2006523980035
 20
144.1198852539062
 30
0.0
 10
102.2006523980035
 20
144.1198852539062
 30
0.0
 10
102.4971028645833
 20
143.199700249566
 30
0.0
 10
102.4971028645833
 20
143.199700249566
 30
0.0
 10
102.4971028645833
 20
143.199700249566
 30
0.0
 10
102.5270751953125
 20
141.9165744357639
 30
0.0
 10
102.5270751953125
 20
141.9165744357639
 30
0.0
 10
102.5270751953125
 20
141.9165744357639
 30
0.0
 10
102.5949435763889
 20
141.7326063368055
 30
0.0
 10
102.3451741536458
 20
141.7071126302083
 30
0.0
 10
102.3451741536458
 20
141.7071126302083
 30
0.0
 10
101.9217719184028
 20
141.6464789496528
 30
0.0
 10
101.9217719184028
 20
141.6464789496528
 30
0.0
 10
101.9217719184028
 20
141.6464789496528
 30
0.0
 10
101.6826822916667
 20
141.6320095486111
 30
0.0
 10
101.6864718967014
 20
141.3818956163194
 30
0.0
 10
101.6864718967014
 20
141.3818956163194
 30
0.0
 10
101.6794094509549
 20
141.1207573784722
 30
0.0
 10
101.6794094509549
 20
141.1207573784722
 30
0.0
 10
101.6794094509549
 20
141.1207573784722
 30
0.0
 10
101.6604614257812
 20
140.9245591905382
 30
0.0
 10
101.4868286132813
 20
140.9002712673611
 30
0.0
 10
101.4868286132813
 20
140.9002712673611
 30
0.0
 10
100.7924696180556
 20
140.781243218316
 30
0.0
 10
100.7924696180556
 20
140.781243218316
 30
0.0
 10
100.7924696180556
 20
140.781243218316
 30
0.0
 10
100.3918050130208
 20
140.6554972330729
 30
0.0
 10
100.3852593315972
 20
141.0906127929687
 30
0.0
 10
100.3852593315972
 20
141.0906127929687
 30
0.0
 10
100.4346964518229
 20
141.4285766601562
 30
0.0
 10
100.0991441514757
 20
141.3147162543403
 30
0.0
 10
100.0991441514757
 20
141.3147162543403
 30
0.0
 10
99.42614474826388
 20
141.219287109375
 30
0.0
 10
99.42614474826388
 20
141.219287109375
 30
0.0
 10
99.42614474826388
 20
141.219287109375
 30
0.0
 10
99.05614149305555
 20
141.223248969184
 30
0.0
 10
99.12711046006943
 20
140.8435994466146
 30
0.0
 10
99.12711046006943
 20
140.8435994466146
 30
0.0
 10
99.20841471354166
 20
140.4966783311632
 30
0.0
 10
98.8499525282118
 20
140.4586100260416
 30
0.0
 10
98.8499525282118
 20
140.4586100260416
 30
0.0
 10
97.92735595703124
 20
140.3252848307292
 30
0.0
 10
97.92735595703124
 20
140.3252848307292
 30
0.0
 10
97.92735595703124
 20
140.3252848307292
 30
0.0
 10
97.64571940104166
 20
140.2450141059028
 30
0.0
 10
97.64020724826388
 20
140.6146728515625
 30
0.0
 10
97.64020724826388
 20
140.6146728515625
 30
0.0
 10
97.71083170572916
 20
140.9857096354166
 30
0.0
 10
97.34237874348958
 20
140.8932088216146
 30
0.0
 10
97.34237874348958
 20
140.8932088216146
 30
0.0
 10
96.58256293402776
 20
140.7839992947048
 30
0.0
 10
96.58256293402776
 20
140.7839992947048
 30
0.0
 10
96.58256293402776
 20
140.7839992947048
 30
0.0
 10
96.28835177951387
 20
140.812249077691
 30
0.0
 10
96.31591254340277
 20
140.421058485243
 30
0.0
 10
96.31591254340277
 20
140.421058485243
 30
0.0
 10
96.39790581597221
 20
140.0307291666667
 30
0.0
 10
96.04977891710068
 20
140.0255615234375
 30
0.0
 10
96.04977891710068
 20
140.0255615234375
 30
0.0
 10
95.38780381944444
 20
139.9177300347222
 30
0.0
 10
95.38780381944444
 20
139.9177300347222
 30
0.0
 10
95.38780381944444
 20
139.9177300347222
 30
0.0
 10
95.33113199869791
 20
140.0693142361111
 30
0.0
 10
95.33113199869791
 20
140.0693142361111
 30
0.0
 10
95.33113199869791
 20
140.0693142361111
 30
0.0
 10
95.29788682725693
 20
142.2226711697049
 30
0.0
 10
95.29788682725693
 20
142.2226711697049
 30
0.0
 10
95.29788682725693
 20
142.2226711697049
 30
0.0
 10
94.96009521484375
 20
143.0879069010417
 30
0.0
 10
94.96009521484375
 20
143.0879069010417
 30
0.0
 10
94.96009521484375
 20
143.0879069010417
 30
0.0
 10
94.99023980034721
 20
143.9912109375
 30
0.0
 10
94.99023980034721
 20
143.9912109375
 30
0.0
  0
LINE
  5
27F
330
A
100
AcDbEntity
  8
LAYER_1
 62
     7
100
AcDbLine
 10
108.4571180555555
 20
158.8822916666667
 30
0.0
 11
96.72467312282986
 21
162.7383870442708
 31
0.0
  0
LWPOLYLINE
  5
276
330
A
100
AcDbEntity
  8
LAYER_1
 62
     7
100
AcDbPolyline
 90
        7
 70
     0
 43
0.0
 10
96.72467312282986
 20
162.7383870442708
 10
94.57407226562499
 20
162.5106662326389
 10
94.65330946180555
 20
160.0968600802951
 10
94.22801242404513
 20
159.4379855685764
 10
95.06138102213541
 20
158.9933959960937
 10
94.54323866102429
 20
158.7246785481771
 10
94.62592095269096
 20
157.550934516059
  0
LWPOLYLINE
  5
270
330
A
100
AcDbEntity
  8
LAYER_1
 62
     7
100
AcDbPolyline
 90
        4
 70
     0
 43
0.0
 10
111.6150648328993
 20
159.1954508463542
 10
85.87055528428819
 20
156.7032687717014
 10
78.46583930121527
 20
160.1504313151042
 10
76.28216552734375
 20
159.9549221462673
  0
LINE
  5
26F
330
A
100
AcDbEntity
  8
LAYER_1
 62
     7
100
AcDbLine
 10
76.27372504340278
 20
159.8894653320312
 30
0.0
 11
76.27510308159721
 21
155.2988755967882
 31
0.0
  0
LWPOLYLINE
  5
267
330
A
100
AcDbEntity
  8
LAYER_1
 62
     7
100
AcDbPolyline
 90
        6
 70
     0
 43
0.0
 10
76.27510308159721
 20
155.2988755967882
 10
75.76230061848958
 20
154.6713514539931
 10
76.69884982638888
 20
153.8584811740451
 10
76.1846693250868
 20
153.3286254882812
 10
76.27889268663193
 20
147.7060574001736
 10
79.19154866536458
 20
145.6932603624132
  0
LINE
  5
266
330
A
100
AcDbEntity
  8
LAYER_1
 62
     7
100
AcDbLine
 10
75.03228488498263
 20
143.0098754882812
 30
0.0
 11
75.00093451605902
 21
140.724915907118
 31
0.0
  0
LINE
  5
265
330
A
100
AcDbEntity
  8
LAYER_1
 62
     7
100
AcDbLine
 10
75.00093451605902
 20
140.724915907118
 30
0.0
 11
72.60452609592014
 21
140.3957370334201
 31
0.0
  0
LINE
  5
264
330
A
100
AcDbEntity
  8
LAYER_1
 62
     7
100
AcDbLine
 10
72.60452609592014
 20
140.3957370334201
 30
0.0
 11
72.60004747178819
 21
138.306975640191
 31
0.0
  0
LINE
  5
263
330
A
100
AcDbEntity
  8
LAYER_1
 62
     7
100
AcDbLine
 10
72.60004747178819
 20
138.306975640191
 30
0.0
 11
73.84562174479166
 21
137.2050618489583
 31
0.0
  0
SPLINE
  5
262
330
A
100
AcDbEntity
  8
LAYER_1
 62
     7
100
AcDbSpline
210
0.0
220
0.0
230
1.0
 70
     8
 71
     3
 72
     8
 73
     4
 74
     0
 42
0.00000001
 43
0.00000001
 40
0.0
 40
0.0
 40
0.0
 40
0.0
 40
1.0
 40
1.0
 40
1.0
 40
1.0
 10
73.84562174479166
 20
137.2050618489583
 30
0.0
 10
73.88989122178819
 20
137.1621704101563
 30
0.0
 10
73.89075249565971
 20
137.0968858506944
 30
0.0
 10
73.93502197265624
 20
137.0539944118924
 30
0.0
  0
SPLINE
  5
261
330
A
100
AcDbEntity
  8
LAYER_1
 62
     7
100
AcDbSpline
210
0.0
220
0.0
230
1.0
 70
     8
 71
     3
 72
     8
 73
     4
 74
     0
 42
0.00000001
 43
0.00000001
 40
0.0
 40
0.0
 40
0.0
 40
0.0
 40
1.0
 40
1.0
 40
1.0
 40
1.0
 10
73.93502197265624
 20
137.0539944118924
 30
0.0
 10
74.28642171223957
 20
136.8199001736111
 30
0.0
 10
74.57322591145832
 20
136.5630683051215
 30
0.0
 10
74.90257703993055
 20
136.3505059136285
 30
0.0
  0
LINE
  5
260
330
A
100
AcDbEntity
  8
LAYER_1
 62
     7
100
AcDbLine
 10
73.82529568142361
 20
138.575348578559
 30
0.0
 11
73.88007269965277
 21
136.3570515950521
 31
0.0
  0
LWPOLYLINE
  5
25B
330
A
100
AcDbEntity
  8
LAYER_1
 62
     7
100
AcDbPolyline
 90
        3
 70
     0
 43
0.0
 10
73.88007269965277
 20
136.3570515950521
 10
74.8825954861111
 20
136.2412963867187
 10
75.98433702256943
 20
135.3004408094618
  0
LINE
  5
25A
330
A
100
AcDbEntity
  8
LAYER_1
 62
     7
100
AcDbLine
 10
104.8528591579861
 20
128.8536336263021
 30
0.0
 11
105.6521213107639
 21
128.3134426540798
 31
0.0
  0
LINE
  5
259
330
A
100
AcDbEntity
  8
LAYER_1
 62
     7
100
AcDbLine
 10
105.6521213107639
 20
128.3134426540798
 30
0.0
 11
105.974065483941
 21
128.8048855251736
 31
0.0
  0
LINE
  5
258
330
A
100
AcDbEntity
  8
LAYER_1
 62
     7
100
AcDbLine
 10
105.9566677517361
 20
128.7015326605903
 30
0.0
 11
106.3628445095486
 21
126.7939832899305
 31
0.0
  0
LINE
  5
257
330
A
100
AcDbEntity
  8
LAYER_1
 62
     7
100
AcDbLine
 10
106.3631890190972
 20
126.7750352647569
 30
0.0
 11
107.5348659939236
 21
126.977434624566
 31
0.0
  0
LINE
  5
256
330
A
100
AcDbEntity
  8
LAYER_1
 62
     7
100
AcDbLine
 10
108.3148356119792
 20
126.4747951931424
 30
0.0
 11
106.924567328559
 21
127.4390774197048
 31
0.0
  0
LINE
  5
255
330
A
100
AcDbEntity
  8
LAYER_1
 62
     7
100
AcDbLine
 10
106.9049302842882
 20
127.4861029730903
 30
0.0
 11
106.3266710069444
 21
126.7839925130208
 31
0.0
  0
LINE
  5
254
330
A
100
AcDbEntity
  8
LAYER_1
 62
     7
100
AcDbLine
 10
108.431452094184
 20
126.4596367730035
 30
0.0
 11
110.5982449001736
 21
126.8232666015625
 31
0.0
  0
LINE
  5
253
330
A
100
AcDbEntity
  8
LAYER_1
 62
     7
100
AcDbLine
 10
110.6047905815972
 20
126.8284342447917
 30
0.0
 11
110.599622938368
 21
130.0156643337674
 31
0.0
  0
LINE
  5
252
330
A
100
AcDbEntity
  8
LAYER_1
 62
     7
100
AcDbLine
 10
76.02791748046874
 20
135.301129828559
 30
0.0
 11
80.25918375651041
 21
135.94208984375
 31
0.0
  0
LINE
  5
251
330
A
100
AcDbEntity
  8
LAYER_1
 62
     7
100
AcDbLine
 10
114.9059922960069
 20
141.2080905490451
 30
0.0
 11
116.6211330837674
 21
141.4511420355903
 31
0.0
  0
LINE
  5
250
330
A
100
AcDbEntity
  8
LAYER_1
 62
     7
100
AcDbLine
 10
117.1471991644965
 20
139.7237711588542
 30
0.0
 11
114.3447862413194
 21
149.7066243489583
 31
0.0
  0
LWPOLYLINE
  5
249
330
A
100
AcDbEntity
  8
LAYER_1
 62
     7
100
AcDbPolyline
 90
        5
 70
     0
 43
0.0
 10
114.3447862413194
 20
149.7066243489583
 10
114.7254692925347
 20
150.4519707573785
 10
113.1924018012153
 20
151.1254869249132
 10
113.7021036783854
 20
151.9733249240451
 10
111.2002753363715
 20
160.7557345920139
  0
LINE
  5
248
330
A
100
AcDbEntity
  8
LAYER_1
 62
     7
100
AcDbLine
 10
113.1348687065972
 20
159.4136976453993
 30
0.0
 11
127.7985731336806
 21
160.8821695963542
 31
0.0
  0
LWPOLYLINE
  5
23F
330
A
100
AcDbEntity
  8
LAYER_1
 62
     7
100
AcDbPolyline
 90
        7
 70
     0
 43
0.0
 10
116.4144273546007
 20
159.7886962890625
 10
116.3517266167535
 20
160.3535196940104
 10
116.7496351453993
 20
160.663922797309
 10
116.0132459852431
 20
161.1643229166667
 10
116.4530124240451
 20
161.5951321072049
 10
116.4400933159722
 20
163.9228108723958
 10
118.4830349392361
 20
164.072844780816
  0
LWPOLYLINE
  5
23A
330
A
100
AcDbEntity
  8
LAYER_1
 62
     7
100
AcDbPolyline
 90
        3
 70
     0
 43
0.0
 10
118.4830349392361
 20
164.072844780816
 10
130.1198784722222
 20
161.0761284722222
 10
127.7496527777778
 20
160.8666666666667
  0
LWPOLYLINE
  5
235
330
A
100
AcDbEntity
  8
LAYER_1
 62
     7
100
AcDbPolyline
 90
        3
 70
     0
 43
0.0
 10
130.1128160264757
 20
161.0797458224826
 10
133.5985636393229
 20
161.4904012044271
 10
135.4018988715278
 20
160.9297119140625
  0
LINE
  5
234
330
A
100
AcDbEntity
  8
LAYER_1
 62
     7
100
AcDbLine
 10
135.4018988715278
 20
160.9297119140625
 30
0.0
 11
137.1750895182292
 21
155.0491061740451
 31
0.0
  0
LWPOLYLINE
  5
22E
330
A
100
AcDbEntity
  8
LAYER_1
 62
     7
100
AcDbPolyline
 90
        4
 70
     0
 43
0.0
 10
137.1750895182292
 20
155.0491061740451
 10
136.8800170898437
 20
154.4138305664062
 10
137.9087226019965
 20
153.9940456814236
 10
137.6027981228299
 20
153.3585978190104
  0
LINE
  5
22D
330
A
100
AcDbEntity
  8
LAYER_1
 62
     7
100
AcDbLine
 10
137.6027981228299
 20
153.3585978190104
 30
0.0
 11
138.9098673502604
 21
148.8417331271701
 31
0.0
  0
LINE
  5
22C
330
A
100
AcDbEntity
  8
LAYER_1
 62
     7
100
AcDbLine
 10
138.6011867947049
 20
149.8487345377604
 30
0.0
 11
140.5530056423611
 21
149.1760796440972
 31
0.0
  0
LINE
  5
22B
330
A
100
AcDbEntity
  8
LAYER_1
 62
     7
100
AcDbLine
 10
140.6189792209201
 20
149.1281928168403
 30
0.0
 11
140.5976196289062
 21
147.267668999566
 31
0.0
  0
LWPOLYLINE
  5
226
330
A
100
AcDbEntity
  8
LAYER_1
 62
     7
100
AcDbPolyline
 90
        3
 70
     0
 43
0.0
 10
140.6194959852431
 20
147.9859714084201
 10
141.9982231987847
 20
147.45146484375
 10
142.0359469943576
 20
145.4558932834201
  0
LINE
  5
225
330
A
100
AcDbEntity
  8
LAYER_1
 62
     7
100
AcDbLine
 10
132.4926879882812
 20
143.9328165690104
 30
0.0
 11
132.4244750976562
 21
133.7661675347222
 31
0.0
  0
LINE
  5
224
330
A
100
AcDbEntity
  8
LAYER_1
 62
     7
100
AcDbLine
 10
132.4432508680555
 20
133.7663397894965
 30
0.0
 11
130.4581868489583
 21
133.3942694769965
 31
0.0
  0
LWPOLYLINE
  5
21F
330
A
100
AcDbEntity
  8
LAYER_1
 62
     7
100
AcDbPolyline
 90
        3
 70
     0
 43
0.0
 10
130.4173624674479
 20
133.3937527126736
 10
128.6255683051215
 20
134.2891330295139
 10
128.2826090494792
 20
133.7535929361979
  0
LINE
  5
21E
330
A
100
AcDbEntity
  8
LAYER_1
 62
     7
100
AcDbLine
 10
129.4723727756076
 20
133.8528116861979
 30
0.0
 11
128.333251953125
 21
133.6400770399305
 31
0.0
  0
LINE
  5
21D
330
A
100
AcDbEntity
  8
LAYER_1
 62
     7
100
AcDbLine
 10
128.3003512912326
 20
133.6535129123264
 30
0.0
 11
127.7801418728298
 21
135.1821017795139
 31
0.0
  0
SPLINE
  5
21C
330
A
100
AcDbEntity
  8
LAYER_1
 62
     7
100
AcDbSpline
210
0.0
220
0.0
230
1.0
 70
     8
 71
     3
 72
     8
 73
     4
 74
     0
 42
0.00000001
 43
0.00000001
 40
0.0
 40
0.0
 40
0.0
 40
0.0
 40
1.0
 40
1.0
 40
1.0
 40
1.0
 10
127.7801418728298
 20
135.1821017795139
 30
0.0
 10
127.6864352756076
 20
134.7202867296007
 30
0.0
 10
127.3019626193576
 20
134.9629937065972
 30
0.0
 10
127.3019626193576
 20
134.9629937065972
 30
0.0
  0
LINE
  5
21B
330
A
100
AcDbEntity
  8
LAYER_1
 62
     7
100
AcDbLine
 10
127.3019626193576
 20
134.9629937065972
 30
0.0
 11
125.4765787760417
 21
135.9148735894097
 31
0.0
  0
LINE
  5
21A
330
A
100
AcDbEntity
  8
LAYER_1
 62
     7
100
AcDbLine
 10
125.4765787760417
 20
135.9148735894097
 30
0.0
 11
125.6021525065104
 21
142.8515733506944
 31
0.0
  0
LWPOLYLINE
  5
214
330
A
100
AcDbEntity
  8
LAYER_1
 62
     7
100
AcDbPolyline
 90
        4
 70
     0
 43
0.0
 10
141.9436184353299
 20
145.4436631944444
 10
123.4172729492187
 20
142.5580512152778
 10
119.8495320638021
 20
141.9885769314236
 10
118.080475531684
 20
141.7038397894965
  0
LWPOLYLINE
  5
20D
330
A
100
AcDbEntity
  8
LAYER_1
 62
     7
100
AcDbPolyline
 90
        5
 70
     0
 43
0.0
 10
118.5300604926215
 20
140.0054077148437
 10
115.7331597222222
 20
149.9882609049479
 10
116.2857530381944
 20
150.8665879991319
 10
114.7533745659722
 20
151.4966959635416
 10
115.1791883680556
 20
152.1338663736979
  0
LINE
  5
20C
330
A
100
AcDbEntity
  8
LAYER_1
 62
     7
100
AcDbLine
 10
115.1791883680556
 20
152.1338663736979
 30
0.0
 11
113.0816419813368
 21
159.4841498480903
 31
0.0
  0
LINE
  5
20B
330
A
100
AcDbEntity
  8
LAYER_1
 62
     7
100
AcDbLine
 10
113.0816419813368
 20
159.4841498480903
 30
0.0
 11
112.6320570203993
 21
161.0380601671007
 31
0.0
  0
LINE
  5
20A
330
A
100
AcDbEntity
  8
LAYER_1
 62
     7
100
AcDbLine
 10
115.3948513454861
 20
145.6536417643229
 30
0.0
 11
102.3792805989583
 21
143.8070705837673
 31
0.0
  0
LINE
  5
209
330
A
100
AcDbEntity
  8
LAYER_1
 62
     7
100
AcDbLine
 10
94.68224826388888
 20
162.5557969835069
 30
0.0
 11
106.0097222222222
 21
158.6912611219618
 31
0.0
  0
LINE
  5
208
330
A
100
AcDbEntity
  8
LAYER_1
 62
     7
100
AcDbLine
 10
116.5057223849826
 20
163.9021402994792
 30
0.0
 11
127.7496527777778
 21
160.9107638888889
 31
0.0
  0
LINE
  5
207
330
A
100
AcDbEntity
  8
LAYER_1
 62
     7
100
AcDbLine
 10
135.2835598415799
 20
160.8301486545139
 30
0.0
 11
113.409270562066
 21
158.5040201822916
 31
0.0
  0
LWPOLYLINE
  5
1FF
330
A
100
AcDbEntity
  8
LAYER_1
 62
     7
100
AcDbPolyline
 90
        6
 70
     0
 43
0.0
 10
95.04088270399305
 20
142.773541937934
 10
78.46394449869791
 20
140.4717013888889
 10
78.46618381076388
 20
138.1221462673611
 10
77.37632785373263
 20
138.9978895399306
 10
77.39768744574653
 20
141.2173923068576
 10
78.46394449869791
 20
140.4717013888889
  0
LWPOLYLINE
  5
1FA
330
A
100
AcDbEntity
  8
LAYER_1
 62
     7
100
AcDbPolyline
 90
        3
 70
     0
 43
0.0
 10
85.92343749999999
 20
156.6994791666667
 10
83.58628472222222
 20
156.5010416666667
 10
76.28216552734375
 20
159.9549221462673
  0
LWPOLYLINE
  5
1F4
330
A
100
AcDbEntity
  8
LAYER_1
 62
     7
100
AcDbPolyline
 90
        4
 70
     0
 43
0.0
 10
78.78778347439236
 20
156.0433607313368
 10
78.03313530815971
 20
150.4516262478298
 10
80.28157687717014
 20
147.7436089409722
 10
79.34847276475693
 20
146.8485731336805
  0
LWPOLYLINE
  5
1EB
330
A
100
AcDbEntity
  8
LAYER_1
 62
     7
100
AcDbPolyline
 90
        7
 70
     0
 43
0.0
 10
80.17167833116319
 20
155.1500474717882
 10
79.40324978298611
 20
149.7539944118923
 10
81.76382921006943
 20
146.8191175672743
 10
80.76595730251735
 20
145.8906643337674
 10
80.09106309678819
 20
140.7895114474826
 10
78.72594401041665
 20
141.878850640191
 10
79.38120117187499
 20
146.8382378472222
  0
LINE
  5
1EA
330
A
100
AcDbEntity
  8
LAYER_1
 62
     7
100
AcDbLine
 10
80.6898206922743
 20
145.8894585503472
 30
0.0
 11
79.38120117187499
 21
146.8382378472222
 31
0.0
  0
LINE
  5
1E9
330
A
100
AcDbEntity
  8
LAYER_1
 62
     7
100
AcDbLine
 10
78.0761990017361
 20
150.4848714192708
 30
0.0
 11
79.40324978298611
 21
149.7539944118923
 31
0.0
  0
LINE
  5
1E8
330
A
100
AcDbEntity
  8
LAYER_1
 62
     7
100
AcDbLine
 10
80.28157687717014
 20
147.7436089409722
 30
0.0
 11
81.76382921006943
 21
146.8191175672743
 31
0.0
  0
LINE
  5
1E7
330
A
100
AcDbEntity
  8
LAYER_1
 62
     7
100
AcDbLine
 10
123.2448459201389
 20
146.6621934678819
 30
0.0
 11
140.5380194769965
 21
149.077894422743
 31
0.0
  0
LINE
  5
1E6
330
A
100
AcDbEntity
  8
LAYER_1
 62
     7
100
AcDbLine
 10
122.9265190972222
 20
144.6557698567708
 30
0.0
 11
141.9982231987847
 21
147.45146484375
 31
0.0
  0
LINE
  5
1E5
330
A
100
AcDbEntity
  8
LAYER_1
 62
     7
100
AcDbLine
 10
116.9261962890625
 20
145.8286526150174
 30
0.0
 11
119.3684244791667
 21
146.1857367621528
 31
0.0
  0
LINE
  5
1E4
330
A
100
AcDbEntity
  8
LAYER_1
 62
     7
100
AcDbLine
 10
117.5433851453993
 20
143.8144775390625
 30
0.0
 11
119.2364773220486
 21
144.0788886176215
 31
0.0
  0
LINE
  5
1E3
330
A
100
AcDbEntity
  8
LAYER_1
 62
     7
100
AcDbLine
 10
130.4690388997396
 20
143.6580702039931
 30
0.0
 11
130.4173624674479
 21
133.3937527126736
 31
0.0
  0
LINE
  5
1E2
330
A
100
AcDbEntity
  8
LAYER_1
 62
     7
100
AcDbLine
 10
75.9709011501736
 20
137.6717000325521
 30
0.0
 11
80.30396999782985
 21
138.3185167100695
 31
0.0
  0
LINE
  5
1E1
330
A
100
AcDbEntity
  8
LAYER_1
 62
     7
100
AcDbLine
 10
114.2372992621528
 20
143.3847018771701
 30
0.0
 11
115.9360758463542
 21
143.6382609049479
 31
0.0
  0
LWPOLYLINE
  5
1D8
330
A
100
AcDbEntity
  8
LAYER_1
 62
     7
100
AcDbPolyline
 90
        7
 70
     0
 43
0.0
 10
72.61331108940972
 20
140.3523288302951
 10
73.96757812499999
 20
139.2519653320312
 10
74.72963324652777
 20
139.2197536892361
 10
73.82529568142361
 20
138.575348578559
 10
74.95735405815971
 20
138.5269449869792
 10
75.9709011501736
 20
137.6717000325521
 10
76.02722846137152
 20
135.344538031684
  0
LINE
  5
1D7
330
A
100
AcDbEntity
  8
LAYER_1
 62
     7
100
AcDbLine
 10
74.95735405815971
 20
138.5269449869792
 30
0.0
 11
75.003173828125
 21
136.1779066297743
 31
0.0
  0
SPLINE
  5
1D6
330
A
100
AcDbEntity
  8
LAYER_1
 62
     7
100
AcDbSpline
210
0.0
220
0.0
230
1.0
 70
     8
 71
     3
 72
    20
 73
    16
 74
     0
 42
0.00000001
 43
0.00000001
 40
0.0
 40
0.0
 40
0.0
 40
0.0
 40
1.0
 40
1.0
 40
1.0
 40
2.0
 40
2.0
 40
2.0
 40
3.0
 40
3.0
 40
3.0
 40
4.0
 40
4.0
 40
4.0
 40
5.0
 40
5.0
 40
5.0
 40
5.0
 10
76.42530924479166
 20
140.7678073459201
 30
0.0
 10
76.44718560112847
 20
140.7681518554687
 30
0.0
 10
76.46888970269096
 20
140.7684963650173
 30
0.0
 10
76.49059380425346
 20
140.768840874566
 30
0.0
 10
76.61823459201388
 20
140.9664171006944
 30
0.0
 10
76.813916015625
 20
140.9693454318576
 30
0.0
 10
76.98599853515624
 20
141.1024983723958
 30
0.0
 10
77.02923448350694
 20
141.1248914930555
 30
0.0
 10
77.05007731119791
 20
141.190520562066
 30
0.0
 10
77.0931410047743
 20
141.2129136827257
 30
0.0
 10
77.1580810546875
 20
141.235651312934
 30
0.0
 10
77.29846869574652
 20
141.3138549804687
 30
0.0
 10
77.3630642361111
 20
141.3582967122396
 30
0.0
 10
77.38476833767361
 20
141.3586412217882
 30
0.0
 10
77.35324571397568
 20
141.2819878472222
 30
0.0
 10
77.36444227430555
 20
141.260456000434
 30
0.0
  0
LINE
  5
1D5
330
A
100
AcDbEntity
  8
LAYER_1
 62
     7
100
AcDbLine
 10
77.36444227430555
 20
141.260456000434
 30
0.0
 11
77.73978542751735
 21
141.6249471028646
 31
0.0
  0
LINE
  5
1D4
330
A
100
AcDbEntity
  8
LAYER_1
 62
     7
100
AcDbLine
 10
77.73978542751735
 20
141.6249471028646
 30
0.0
 11
76.35881890190971
 21
141.5827446831597
 31
0.0
  0
LINE
  5
1D3
330
A
100
AcDbEntity
  8
LAYER_1
 62
     7
100
AcDbLine
 10
76.35881890190971
 20
141.5827446831597
 30
0.0
 11
76.53865288628471
 21
141.9334554036458
 31
0.0
  0
LINE
  5
1D2
330
A
100
AcDbEntity
  8
LAYER_1
 62
     7
100
AcDbLine
 10
76.52728407118055
 20
141.9660115559896
 30
0.0
 11
75.11927354600694
 21
143.0110812717014
 31
0.0
  0
LINE
  5
1D1
330
A
100
AcDbEntity
  8
LAYER_1
 62
     7
100
AcDbLine
 10
75.06466878255208
 20
143.0320963541666
 30
0.0
 11
78.85410156249999
 21
143.5125149197048
 31
0.0
  0
LINE
  5
1D0
330
A
100
AcDbEntity
  8
LAYER_1
 62
     7
100
AcDbLine
 10
108.3358506944444
 20
129.623095703125
 30
0.0
 11
108.3480807834201
 21
126.4360378689236
 31
0.0
  0
LWPOLYLINE
  5
1CA
330
A
100
AcDbEntity
  8
LAYER_1
 62
     7
100
AcDbPolyline
 90
        4
 70
     0
 43
0.0
 10
83.77008056640624
 20
156.5156833224826
 10
78.78778347439236
 20
156.0433607313368
 10
80.23765190972222
 20
155.1075005425347
 10
111.8023057725694
 20
158.3060994466146
  0
LWPOLYLINE
  5
1C5
330
A
100
AcDbEntity
  8
LAYER_1
 62
     7
100
AcDbPolyline
 90
        3
 70
     0
 43
0.0
 10
76.35881890190971
 20
141.5827446831597
 10
76.35899115668403
 20
139.3744384765625
 10
77.2731472439236
 20
139.3444661458333
  0
LINE
  5
1C4
330
A
100
AcDbEntity
  8
LAYER_1
 62
     7
100
AcDbLine
 10
75.05433349609375
 20
140.7910617404514
 30
0.0
 11
76.28526611328124
 21
139.9390896267361
 31
0.0
  0
SPLINE
  5
1C3
330
A
100
AcDbEntity
  8
LAYER_1
 62
     7
100
AcDbSpline
210
0.0
220
0.0
230
1.0
 70
     8
 71
     3
 72
    11
 73
     7
 74
     0
 42
0.00000001
 43
0.00000001
 40
0.0
 40
0.0
 40
0.0
 40
0.0
 40
1.0
 40
1.0
 40
1.0
 40
2.0
 40
2.0
 40
2.0
 40
2.0
 10
75.52751736111111
 20
142.6255750868056
 30
0.0
 10
75.48531494140624
 20
142.537897406684
 30
0.0
 10
75.7815931532118
 20
142.368226453993
 30
0.0
 10
75.7815931532118
 20
142.368226453993
 30
0.0
 10
76.0017347547743
 20
142.1975219726562
 30
0.0
 10
76.08493381076389
 20
141.7200317382813
 30
0.0
 10
76.30438639322917
 20
141.5927354600694
 30
0.0
  0
SPLINE
  5
1C2
330
A
100
AcDbEntity
  8
LAYER_1
 62
     7
100
AcDbSpline
210
0.0
220
0.0
230
1.0
 70
     8
 71
     3
 72
    14
 73
    10
 74
     0
 42
0.00000001
 43
0.00000001
 40
0.0
 40
0.0
 40
0.0
 40
0.0
 40
1.0
 40
1.0
 40
1.0
 40
2.0
 40
2.0
 40
2.0
 40
3.0
 40
3.0
 40
3.0
 40
3.0
 10
75.06949191623264
 20
142.7058458116319
 30
0.0
 10
75.07069769965277
 20
142.6188571506076
 30
0.0
 10
75.20385064019096
 20
142.4467746310764
 30
0.0
 10
75.24794786241318
 20
142.4038831922743
 30
0.0
 10
75.33631456163194
 20
142.3181003146701
 30
0.0
 10
75.42623155381943
 20
142.1236246744792
 30
0.0
 10
75.42743733723958
 20
142.0366360134549
 30
0.0
 10
75.6079603407118
 20
141.6042765299479
 30
0.0
 10
75.96246066623263
 20
141.1743286132812
 30
0.0
 10
76.27217475043402
 20
140.830852593316
 30
0.0
  0
SPLINE
  5
1C1
330
A
100
AcDbEntity
  8
LAYER_1
 62
     7
100
AcDbSpline
210
0.0
220
0.0
230
1.0
 70
     8
 71
     3
 72
    11
 73
     7
 74
     0
 42
0.00000001
 43
0.00000001
 40
0.0
 40
0.0
 40
0.0
 40
0.0
 40
1.0
 40
1.0
 40
1.0
 40
2.0
 40
2.0
 40
2.0
 40
2.0
 10
75.05863986545138
 20
141.9658393012153
 30
0.0
 10
75.37042100694444
 20
141.4919664171007
 30
0.0
 10
75.81173773871527
 20
141.0633965386285
 30
0.0
 10
76.03773600260416
 20
140.5009847005208
 30
0.0
 10
76.0389417860243
 20
140.4139960394965
 30
0.0
 10
76.28182101779514
 20
140.1783515082465
 30
0.0
 10
76.37018771701388
 20
140.0925686306424
 30
0.0
  0
SPLINE
  5
1C0
330
A
100
AcDbEntity
  8
LAYER_1
 62
     7
100
AcDbSpline
210
0.0
220
0.0
230
1.0
 70
     8
 71
     3
 72
    11
 73
     7
 74
     0
 42
0.00000001
 43
0.00000001
 40
0.0
 40
0.0
 40
0.0
 40
0.0
 40
1.0
 40
1.0
 40
1.0
 40
2.0
 40
2.0
 40
2.0
 40
2.0
 10
75.06604682074652
 20
141.465611436632
 30
0.0
 10
75.08654513888888
 20
141.3536458333333
 30
0.0
 10
75.90509982638888
 20
140.2782592773438
 30
0.0
 10
75.86634250217013
 20
140.3244235568576
 30
0.0
 10
76.06564127604166
 20
140.0880900065104
 30
0.0
 10
75.62311876085069
 20
140.5819444444445
 30
0.0
 10
75.60227593315972
 20
140.516315375434
 30
0.0
  0
SPLINE
  5
1BF
330
A
100
AcDbEntity
  8
LAYER_1
 62
     7
100
AcDbSpline
210
0.0
220
0.0
230
1.0
 70
     8
 71
     3
 72
    11
 73
     7
 74
     0
 42
0.00000001
 43
0.00000001
 40
0.0
 40
0.0
 40
0.0
 40
0.0
 40
1.0
 40
1.0
 40
1.0
 40
2.0
 40
2.0
 40
2.0
 40
2.0
 10
76.35175645616319
 20
141.3324584960938
 30
0.0
 10
76.3521009657118
 20
141.3107543945312
 30
0.0
 10
76.3521009657118
 20
141.3107543945312
 30
0.0
 10
76.35244547526041
 20
141.2888780381944
 30
0.0
 10
76.54743787977429
 20
141.3353868272569
 30
0.0
 10
76.87127685546875
 20
141.5141872829861
 30
0.0
 10
77.04422064887152
 20
141.5820556640625
 30
0.0
  0
SPLINE
  5
1BE
330
A
100
AcDbEntity
  8
LAYER_1
 62
     7
100
AcDbSpline
210
0.0
220
0.0
230
1.0
 70
     8
 71
     3
 72
     8
 73
     4
 74
     0
 42
0.00000001
 43
0.00000001
 40
0.0
 40
0.0
 40
0.0
 40
0.0
 40
1.0
 40
1.0
 40
1.0
 40
1.0
 10
76.41032307942707
 20
140.3108154296875
 30
0.0
 10
76.71228569878471
 20
140.489271375868
 30
0.0
 10
77.01493733723957
 20
140.6243191189236
 30
0.0
 10
77.31724446614582
 20
140.7810709635417
 30
0.0
  0
SPLINE
  5
1BD
330
A
100
AcDbEntity
  8
LAYER_1
 62
     7
100
AcDbSpline
210
0.0
220
0.0
230
1.0
 70
     8
 71
     3
 72
    14
 73
    10
 74
     0
 42
0.00000001
 43
0.00000001
 40
0.0
 40
0.0
 40
0.0
 40
0.0
 40
1.0
 40
1.0
 40
1.0
 40
2.0
 40
2.0
 40
2.0
 40
3.0
 40
3.0
 40
3.0
 40
3.0
 10
76.3519287109375
 20
139.8529622395833
 30
0.0
 10
76.45941569010417
 20
139.9416734483507
 30
0.0
 10
76.56724717881944
 20
140.0085083007812
 30
0.0
 10
76.69729953342014
 20
140.0321072048611
 30
0.0
 10
76.80547553168402
 20
140.0772379557292
 30
0.0
 10
76.89091389973957
 20
140.1873087565104
 30
0.0
 10
76.99891764322916
 20
140.2324395073785
 30
0.0
 10
77.10709364149305
 20
140.2775702582465
 30
0.0
 10
77.19304877387152
 20
140.3440606011285
 30
0.0
 10
77.30122477213541
 20
140.3891913519965
 30
0.0
  0
SPLINE
  5
1BC
330
A
100
AcDbEntity
  8
LAYER_1
 62
     7
100
AcDbSpline
210
0.0
220
0.0
230
1.0
 70
     8
 71
     3
 72
     8
 73
     4
 74
     0
 42
0.00000001
 43
0.00000001
 40
0.0
 40
0.0
 40
0.0
 40
0.0
 40
1.0
 40
1.0
 40
1.0
 40
1.0
 10
76.48956027560763
 20
139.3763332790799
 30
0.0
 10
76.76964653862846
 20
139.5546169704861
 30
0.0
 10
77.02751193576388
 20
139.7759643554687
 30
0.0
 10
77.32981906467013
 20
139.9327162000868
 30
0.0
  0
SPLINE
  5
1BB
330
A
100
AcDbEntity
  8
LAYER_1
 62
     7
100
AcDbSpline
210
0.0
220
0.0
230
1.0
 70
     8
 71
     3
 72
    17
 73
    13
 74
     0
 42
0.00000001
 43
0.00000001
 40
0.0
 40
0.0
 40
0.0
 40
0.0
 40
1.0
 40
1.0
 40
1.0
 40
2.0
 40
2.0
 40
2.0
 40
3.0
 40
3.0
 40
3.0
 40
4.0
 40
4.0
 40
4.0
 40
4.0
 10
77.61851806640624
 20
141.0031073676215
 30
0.0
 10
77.66192626953125
 20
141.0037963867187
 30
0.0
 10
77.70619574652777
 20
140.9609049479167
 30
0.0
 10
77.70654025607638
 20
140.9392008463541
 30
0.0
 10
77.75149875217014
 20
140.8310248480903
 30
0.0
 10
77.7752699110243
 20
140.7008002387153
 30
0.0
 10
77.88534071180555
 20
140.615534125434
 30
0.0
 10
77.88534071180555
 20
140.615534125434
 30
0.0
 10
77.90807834201388
 20
140.5505940755208
 30
0.0
 10
77.93047146267361
 20
140.5073581271701
 30
0.0
 10
78.0637966579861
 20
140.3135715060764
 30
0.0
 10
78.23984103732639
 20
140.1855862087674
 30
0.0
 10
78.37316623263888
 20
139.9917995876736
 30
0.0
  0
SPLINE
  5
1BA
330
A
100
AcDbEntity
  8
LAYER_1
 62
     7
100
AcDbSpline
210
0.0
220
0.0
230
1.0
 70
     8
 71
     3
 72
    23
 73
    19
 74
     0
 42
0.00000001
 43
0.00000001
 40
0.0
 40
0.0
 40
0.0
 40
0.0
 40
1.0
 40
1.0
 40
1.0
 40
2.0
 40
2.0
 40
2.0
 40
3.0
 40
3.0
 40
3.0
 40
4.0
 40
4.0
 40
4.0
 40
5.0
 40
5.0
 40
5.0
 40
6.0
 40
6.0
 40
6.0
 40
6.0
 10
77.40974527994791
 20
140.4126180013021
 30
0.0
 10
77.40905626085069
 20
140.4561984592014
 30
0.0
 10
77.45315348307291
 20
140.413134765625
 30
0.0
 10
77.4746853298611
 20
140.4353556315104
 30
0.0
 10
77.47485758463542
 20
140.4134792751736
 30
0.0
 10
77.47520209418403
 20
140.3917751736111
 30
0.0
 10
77.47554660373264
 20
140.3700710720486
 30
0.0
 10
77.49793972439235
 20
140.3268351236979
 30
0.0
 10
77.56322428385415
 20
140.3278686523437
 30
0.0
 10
77.58561740451388
 20
140.2846327039931
 30
0.0
 10
77.67484537760416
 20
140.1337375217014
 30
0.0
 10
77.78560519748264
 20
140.0048909505208
 30
0.0
 10
77.87483317057291
 20
139.8538235134548
 30
0.0
 10
77.96406114366319
 20
139.7029283311632
 30
0.0
 10
78.07482096354165
 20
139.5739095052083
 30
0.0
 10
78.18558078342014
 20
139.4450629340278
 30
0.0
 10
78.27377522786458
 20
139.3592800564236
 30
0.0
 10
78.31890597873263
 20
139.251276312934
 30
0.0
 10
78.40727267795138
 20
139.1654934353298
 30
0.0
  0
SPLINE
  5
1B9
330
A
100
AcDbEntity
  8
LAYER_1
 62
     7
100
AcDbSpline
210
0.0
220
0.0
230
1.0
 70
     8
 71
     3
 72
    17
 73
    13
 74
     0
 42
0.00000001
 43
0.00000001
 40
0.0
 40
0.0
 40
0.0
 40
0.0
 40
1.0
 40
1.0
 40
1.0
 40
2.0
 40
2.0
 40
2.0
 40
3.0
 40
3.0
 40
3.0
 40
4.0
 40
4.0
 40
4.0
 40
4.0
 10
77.39475911458332
 20
139.9554538302951
 30
0.0
 10
77.39527587890625
 20
139.9120456271701
 30
0.0
 10
77.39562038845486
 20
139.8901692708333
 30
0.0
 10
77.39630940755208
 20
139.8467610677083
 30
0.0
 10
77.43954535590277
 20
139.869154188368
 30
0.0
 10
77.483642578125
 20
139.826262749566
 30
0.0
 10
77.5056911892361
 20
139.8049031575521
 30
0.0
 10
77.50638020833333
 20
139.7613226996528
 30
0.0
 10
77.52877332899305
 20
139.7180867513021
 30
0.0
 10
77.52946234809028
 20
139.6746785481771
 30
0.0
 10
77.79680175781249
 20
139.2435248480903
 30
0.0
 10
78.10651584201388
 20
138.900048828125
 30
0.0
 10
78.39521484375
 20
138.5126478407118
 30
0.0
  0
SPLINE
  5
1B8
330
A
100
AcDbEntity
  8
LAYER_1
 62
     7
100
AcDbSpline
210
0.0
220
0.0
230
1.0
 70
     8
 71
     3
 72
    17
 73
    13
 74
     0
 42
0.00000001
 43
0.00000001
 40
0.0
 40
0.0
 40
0.0
 40
0.0
 40
1.0
 40
1.0
 40
1.0
 40
2.0
 40
2.0
 40
2.0
 40
3.0
 40
3.0
 40
3.0
 40
4.0
 40
4.0
 40
4.0
 40
4.0
 10
77.44712456597222
 20
139.3470499674479
 30
0.0
 10
77.40371636284722
 20
139.346533203125
 30
0.0
 10
77.44746907552083
 20
139.3253458658854
 30
0.0
 10
77.42610948350693
 20
139.3032972547743
 30
0.0
 10
77.47003445095486
 20
139.2821099175347
 30
0.0
 10
77.47055121527777
 20
139.2387017144097
 30
0.0
 10
77.49259982638888
 20
139.2171698676215
 30
0.0
 10
77.49363335503472
 20
139.1518853081597
 30
0.0
 10
77.49466688368055
 20
139.0867730034722
 30
0.0
 10
77.53841959635416
 20
139.0655856662326
 30
0.0
 10
77.62747531467014
 20
138.9363945855035
 30
0.0
 10
77.71670328776041
 20
138.7854994032118
 30
0.0
 10
77.82694634331597
 20
138.6783569335937
 30
0.0
  0
SPLINE
  5
1B7
330
A
100
AcDbEntity
  8
LAYER_1
 62
     7
100
AcDbSpline
210
0.0
220
0.0
230
1.0
 70
     8
 71
     3
 72
    17
 73
    13
 74
     0
 42
0.00000001
 43
0.00000001
 40
0.0
 40
0.0
 40
0.0
 40
0.0
 40
1.0
 40
1.0
 40
1.0
 40
2.0
 40
2.0
 40
2.0
 40
3.0
 40
3.0
 40
3.0
 40
4.0
 40
4.0
 40
4.0
 40
4.0
 10
72.67497829861111
 20
139.8636420355903
 30
0.0
 10
72.71838650173611
 20
139.8643310546875
 30
0.0
 10
72.7833265516493
 20
139.8870686848958
 30
0.0
 10
72.80537516276041
 20
139.8657090928819
 30
0.0
 10
72.87169325086805
 20
139.801458062066
 30
0.0
 10
73.03516303168402
 20
139.7819932725694
 30
0.0
 10
73.10096435546875
 20
139.739446343316
 30
0.0
 10
73.2547878689236
 20
139.6329928927951
 30
0.0
 10
73.30990939670139
 20
139.5902737087673
 30
0.0
 10
73.46338840060763
 20
139.505524359809
 30
0.0
 10
73.59499104817708
 20
139.4423068576389
 30
0.0
 10
73.70471733940971
 20
139.3785725911458
 30
0.0
 10
73.85767957899304
 20
139.3374037000868
 30
0.0
  0
SPLINE
  5
1B6
330
A
100
AcDbEntity
  8
LAYER_1
 62
     7
100
AcDbSpline
210
0.0
220
0.0
230
1.0
 70
     8
 71
     3
 72
    17
 73
    13
 74
     0
 42
0.00000001
 43
0.00000001
 40
0.0
 40
0.0
 40
0.0
 40
0.0
 40
1.0
 40
1.0
 40
1.0
 40
2.0
 40
2.0
 40
2.0
 40
3.0
 40
3.0
 40
3.0
 40
4.0
 40
4.0
 40
4.0
 40
4.0
 10
72.57059190538193
 20
139.5575453016493
 30
0.0
 10
72.61382785373263
 20
139.579938422309
 30
0.0
 10
72.65792507595485
 20
139.5370469835069
 30
0.0
 10
72.70150553385416
 20
139.5377360026042
 30
0.0
 10
72.85498453776042
 20
139.4529866536458
 30
0.0
 10
73.00898030598958
 20
139.346533203125
 30
0.0
 10
73.16245930989582
 20
139.2617838541667
 30
0.0
 10
73.33781467013888
 20
139.1773790147569
 30
0.0
 10
73.47958034939235
 20
139.1467176649306
 30
0.0
 10
73.65493570963541
 20
139.0623128255208
 30
0.0
 10
73.76431749131943
 20
139.0204549153646
 30
0.0
 10
73.9059109157986
 20
139.011669921875
 30
0.0
 10
73.99462212456596
 20
138.9041829427083
 30
0.0
  0
SPLINE
  5
1B5
330
A
100
AcDbEntity
  8
LAYER_1
 62
     7
100
AcDbSpline
210
0.0
220
0.0
230
1.0
 70
     8
 71
     3
 72
    23
 73
    19
 74
     0
 42
0.00000001
 43
0.00000001
 40
0.0
 40
0.0
 40
0.0
 40
0.0
 40
1.0
 40
1.0
 40
1.0
 40
2.0
 40
2.0
 40
2.0
 40
3.0
 40
3.0
 40
3.0
 40
4.0
 40
4.0
 40
4.0
 40
5.0
 40
5.0
 40
5.0
 40
6.0
 40
6.0
 40
6.0
 40
6.0
 10
72.66481526692708
 20
139.0803995768229
 30
0.0
 10
72.66481526692708
 20
139.0803995768229
 30
0.0
 10
72.64276665581596
 20
139.1017591688368
 30
0.0
 10
72.66481526692708
 20
139.0803995768229
 30
0.0
 10
72.77385253906249
 20
139.0602457682292
 30
0.0
 10
72.86239149305555
 20
138.9527587890625
 30
0.0
 10
73.01466471354166
 20
138.9549981011285
 30
0.0
 10
73.10217013888888
 20
138.9344997829861
 30
0.0
 10
73.21189643012153
 20
138.8600857204861
 30
0.0
 10
73.27752549913194
 20
138.8392428927951
 30
0.0
 10
73.40861138237847
 20
138.7975572374132
 30
0.0
 10
73.45391438802082
 20
138.6787014431424
 30
0.0
 10
73.58448350694444
 20
138.6805962456597
 30
0.0
 10
73.58534478081596
 20
138.6153116861979
 30
0.0
 10
73.65028483072916
 20
138.6380493164062
 30
0.0
 10
73.67285020616319
 20
138.5948133680556
 30
0.0
 10
73.71591389973958
 20
138.6172064887153
 30
0.0
 10
73.7383070203993
 20
138.5741427951389
 30
0.0
 10
73.7600111219618
 20
138.5744873046875
 30
0.0
  0
SPLINE
  5
1B4
330
A
100
AcDbEntity
  8
LAYER_1
 62
     7
100
AcDbSpline
210
0.0
220
0.0
230
1.0
 70
     8
 71
     3
 72
    17
 73
    13
 74
     0
 42
0.00000001
 43
0.00000001
 40
0.0
 40
0.0
 40
0.0
 40
0.0
 40
1.0
 40
1.0
 40
1.0
 40
2.0
 40
2.0
 40
2.0
 40
3.0
 40
3.0
 40
3.0
 40
4.0
 40
4.0
 40
4.0
 40
4.0
 10
72.67067192925346
 20
138.6888644748264
 30
0.0
 10
72.80072428385417
 20
138.7124633789063
 30
0.0
 10
72.86755913628471
 20
138.6048041449653
 30
0.0
 10
72.93422173394096
 20
138.5186767578125
 30
0.0
 10
72.95592583550346
 20
138.5190212673611
 30
0.0
 10
73.02155490451388
 20
138.4981784396701
 30
0.0
 10
73.06496310763889
 20
138.4988674587673
 30
0.0
 10
73.1088880750868
 20
138.4776801215278
 30
0.0
 10
73.25099826388889
 20
138.4254869249132
 30
0.0
 10
73.2947509765625
 20
138.4042995876736
 30
0.0
 10
73.46976182725693
 20
138.3415988498264
 30
0.0
 10
73.56846381293403
 20
138.2887166341146
 30
0.0
 10
73.74381917317707
 20
138.2043117947048
 30
0.0
  0
SPLINE
  5
1B3
330
A
100
AcDbEntity
  8
LAYER_1
 62
     7
100
AcDbSpline
210
0.0
220
0.0
230
1.0
 70
     8
 71
     3
 72
    20
 73
    16
 74
     0
 42
0.00000001
 43
0.00000001
 40
0.0
 40
0.0
 40
0.0
 40
0.0
 40
1.0
 40
1.0
 40
1.0
 40
2.0
 40
2.0
 40
2.0
 40
3.0
 40
3.0
 40
3.0
 40
4.0
 40
4.0
 40
4.0
 40
5.0
 40
5.0
 40
5.0
 40
5.0
 10
72.72148708767361
 20
138.189153374566
 30
0.0
 10
72.7431911892361
 20
138.1894978841146
 30
0.0
 10
72.78677164713541
 20
138.1901869032118
 30
0.0
 10
72.80847574869792
 20
138.1905314127604
 30
0.0
 10
72.93990614149305
 20
138.127141655816
 30
0.0
 10
73.02827284071179
 20
138.0415310329861
 30
0.0
 10
73.15918646918402
 20
138.0215494791667
 30
0.0
 10
73.31197645399305
 20
137.9803805881076
 30
0.0
 10
73.42273627387152
 20
137.8515340169271
 30
0.0
 10
73.57535400390624
 20
137.8318969726562
 30
0.0
 10
73.59740261501736
 20
137.8105373806424
 30
0.0
 10
73.59809163411458
 20
137.7669569227431
 30
0.0
 10
73.64184434678819
 20
137.7459418402778
 30
0.0
 10
73.7074734157986
 20
137.7250990125868
 30
0.0
 10
73.7727579752604
 20
137.7261325412326
 30
0.0
 10
73.83821478949652
 20
137.7052897135417
 30
0.0
  0
SPLINE
  5
1B2
330
A
100
AcDbEntity
  8
LAYER_1
 62
     7
100
AcDbSpline
210
0.0
220
0.0
230
1.0
 70
     8
 71
     3
 72
     8
 73
     4
 74
     0
 42
0.00000001
 43
0.00000001
 40
0.0
 40
0.0
 40
0.0
 40
0.0
 40
1.0
 40
1.0
 40
1.0
 40
1.0
 10
74.20718451605902
 20
139.2337063259548
 30
0.0
 10
74.23061116536458
 20
139.1253580729166
 30
0.0
 10
74.33930392795138
 20
139.1269083658854
 30
0.0
 10
74.38374565972221
 20
139.0623128255208
 30
0.0
  0
SPLINE
  5
1B1
330
A
100
AcDbEntity
  8
LAYER_1
 62
     7
100
AcDbSpline
210
0.0
220
0.0
230
1.0
 70
     8
 71
     3
 72
    11
 73
     7
 74
     0
 42
0.00000001
 43
0.00000001
 40
0.0
 40
0.0
 40
0.0
 40
0.0
 40
1.0
 40
1.0
 40
1.0
 40
2.0
 40
2.0
 40
2.0
 40
2.0
 10
74.60939941406249
 20
138.52177734375
 30
0.0
 10
74.60974392361111
 20
138.5000732421875
 30
0.0
 10
74.61008843315972
 20
138.4781968858507
 30
0.0
 10
74.61043294270833
 20
138.4564927842882
 30
0.0
 10
74.71998697916666
 20
138.3929307725694
 30
0.0
 10
74.78699408637152
 20
138.2850992838542
 30
0.0
 10
74.89672037760415
 20
138.2213650173611
 30
0.0
  0
SPLINE
  5
1B0
330
A
100
AcDbEntity
  8
LAYER_1
 62
     7
100
AcDbSpline
210
0.0
220
0.0
230
1.0
 70
     8
 71
     3
 72
    20
 73
    16
 74
     0
 42
0.00000001
 43
0.00000001
 40
0.0
 40
0.0
 40
0.0
 40
0.0
 40
1.0
 40
1.0
 40
1.0
 40
2.0
 40
2.0
 40
2.0
 40
3.0
 40
3.0
 40
3.0
 40
4.0
 40
4.0
 40
4.0
 40
5.0
 40
5.0
 40
5.0
 40
5.0
 10
74.02166612413194
 20
138.5348687065972
 30
0.0
 10
74.02269965277777
 20
138.4695841471354
 30
0.0
 10
74.13139241536457
 20
138.4711344401042
 30
0.0
 10
74.13173692491318
 20
138.4494303385417
 30
0.0
 10
74.17686767578124
 20
138.3412543402778
 30
0.0
 10
74.28573269314235
 20
138.3429768880208
 30
0.0
 10
74.33017442491318
 20
138.2783813476563
 30
0.0
 10
74.37461615668403
 20
138.2136135525174
 30
0.0
 10
74.39735378689235
 20
138.1486735026041
 30
0.0
 10
74.44127875434027
 20
138.1276584201389
 30
0.0
 10
74.48503146701388
 20
138.1064710828993
 30
0.0
 10
74.52878417968749
 20
138.085456000434
 30
0.0
 10
74.57270914713541
 20
138.0642686631944
 30
0.0
 10
74.70448404947916
 20
137.9791748046875
 30
0.0
 10
74.77166341145832
 20
137.8496392144097
 30
0.0
 10
74.92445339626735
 20
137.8084703233507
 30
0.0
  0
SPLINE
  5
1AF
330
A
100
AcDbEntity
  8
LAYER_1
 62
     7
100
AcDbSpline
210
0.0
220
0.0
230
1.0
 70
     8
 71
     3
 72
    14
 73
    10
 74
     0
 42
0.00000001
 43
0.00000001
 40
0.0
 40
0.0
 40
0.0
 40
0.0
 40
1.0
 40
1.0
 40
1.0
 40
2.0
 40
2.0
 40
2.0
 40
3.0
 40
3.0
 40
3.0
 40
3.0
 10
73.89695366753472
 20
138.141266547309
 30
0.0
 10
73.9644775390625
 20
137.9900268554687
 30
0.0
 10
74.07437608506943
 20
137.9154405381945
 30
0.0
 10
74.20632324218749
 20
137.8194946289062
 30
0.0
 10
74.36376410590277
 20
137.7051174587674
 30
0.0
 10
74.42784288194444
 20
137.5618014865451
 30
0.0
 10
74.58132188585068
 20
137.4770521375868
 30
0.0
 10
74.71292453342014
 20
137.4136623806423
 30
0.0
 10
74.82230631510416
 20
137.3718044704861
 30
0.0
 10
74.9322048611111
 20
137.2863661024306
 30
0.0
  0
SPLINE
  5
1AE
330
A
100
AcDbEntity
  8
LAYER_1
 62
     7
100
AcDbSpline
210
0.0
220
0.0
230
1.0
 70
     8
 71
     3
 72
    20
 73
    16
 74
     0
 42
0.00000001
 43
0.00000001
 40
0.0
 40
0.0
 40
0.0
 40
0.0
 40
1.0
 40
1.0
 40
1.0
 40
2.0
 40
2.0
 40
2.0
 40
3.0
 40
3.0
 40
3.0
 40
4.0
 40
4.0
 40
4.0
 40
5.0
 40
5.0
 40
5.0
 40
5.0
 10
73.88369004991318
 20
137.5754096137153
 30
0.0
 10
73.8623304578993
 20
137.5533610026042
 30
0.0
 10
73.83976508246528
 20
137.5965969509549
 30
0.0
 10
73.8404541015625
 20
137.5530164930555
 30
0.0
 10
73.88369004991318
 20
137.5754096137153
 30
0.0
 10
73.9277872721354
 20
137.5326904296875
 30
0.0
 10
73.97171223958333
 20
137.5115030924479
 30
0.0
 10
74.01580946180555
 20
137.4686116536458
 30
0.0
 10
74.03854709201389
 20
137.4036716037326
 30
0.0
 10
74.08229980468749
 20
137.3826565212673
 30
0.0
 10
74.25731065538194
 20
137.3199557834201
 30
0.0
 10
74.4111341688368
 20
137.2135023328993
 30
0.0
 10
74.54394259982638
 20
137.0631239149305
 30
0.0
 10
74.65401340060764
 20
136.977685546875
 30
0.0
 10
74.78561604817708
 20
136.9144680447049
 30
0.0
 10
74.91704644097221
 20
136.8510782877604
 30
0.0
  0
SPLINE
  5
1AD
330
A
100
AcDbEntity
  8
LAYER_1
 62
     7
100
AcDbSpline
210
0.0
220
0.0
230
1.0
 70
     8
 71
     3
 72
     8
 73
     4
 74
     0
 42
0.00000001
 43
0.00000001
 40
0.0
 40
0.0
 40
0.0
 40
0.0
 40
1.0
 40
1.0
 40
1.0
 40
1.0
 10
73.89695366753472
 20
136.6836466471354
 30
0.0
 10
74.05112169053818
 20
136.5554890950521
 30
0.0
 10
74.20597873263888
 20
136.3835788302951
 30
0.0
 10
74.42405327690972
 20
136.3434434678819
 30
0.0
  0
SPLINE
  5
1AC
330
A
100
AcDbEntity
  8
LAYER_1
 62
     7
100
AcDbSpline
210
0.0
220
0.0
230
1.0
 70
     8
 71
     3
 72
    17
 73
    13
 74
     0
 42
0.00000001
 43
0.00000001
 40
0.0
 40
0.0
 40
0.0
 40
0.0
 40
1.0
 40
1.0
 40
1.0
 40
2.0
 40
2.0
 40
2.0
 40
3.0
 40
3.0
 40
3.0
 40
4.0
 40
4.0
 40
4.0
 40
4.0
 10
74.98491482204861
 20
138.1357543945312
 30
0.0
 10
75.0284952799479
 20
138.1362711588542
 30
0.0
 10
75.0498548719618
 20
138.1584920247396
 30
0.0
 10
75.07190348307292
 20
138.1369601779514
 30
0.0
 10
75.18128526475694
 20
138.0951022677951
 30
0.0
 10
75.22624376085069
 20
138.008802625868
 30
0.0
 10
75.33562554253471
 20
137.9669447157118
 30
0.0
 10
75.37903374565971
 20
137.9674614800347
 30
0.0
 10
75.44431830512153
 20
137.9684950086806
 30
0.0
 10
75.48807101779514
 20
137.947307671441
 30
0.0
 10
75.53199598524304
 20
137.9262925889757
 30
0.0
 10
75.57540418836805
 20
137.9269816080729
 30
0.0
 10
75.59779730902777
 20
137.8837456597222
 30
0.0
  0
SPLINE
  5
1AB
330
A
100
AcDbEntity
  8
LAYER_1
 62
     7
100
AcDbSpline
210
0.0
220
0.0
230
1.0
 70
     8
 71
     3
 72
    17
 73
    13
 74
     0
 42
0.00000001
 43
0.00000001
 40
0.0
 40
0.0
 40
0.0
 40
0.0
 40
1.0
 40
1.0
 40
1.0
 40
2.0
 40
2.0
 40
2.0
 40
3.0
 40
3.0
 40
3.0
 40
4.0
 40
4.0
 40
4.0
 40
4.0
 10
74.99042697482638
 20
137.7659233940972
 30
0.0
 10
75.12065158420138
 20
137.7896945529514
 30
0.0
 10
75.16578233506944
 20
137.6815185546875
 30
0.0
 10
75.25363226996527
 20
137.6176120334201
 30
0.0
 10
75.29755723741319
 20
137.5964246961806
 30
0.0
 10
75.38385687934027
 20
137.6412109375
 30
0.0
 10
75.42778184678819
 20
137.6201958550347
 30
0.0
 10
75.58091634114582
 20
137.5571506076389
 30
0.0
 10
75.7133802625868
 20
137.4286485460069
 30
0.0
 10
75.88770209418402
 20
137.4093560112847
 30
0.0
 10
75.88839111328124
 20
137.3659478081597
 30
0.0
 10
75.91009521484375
 20
137.366120062934
 30
0.0
 10
75.93231608072917
 20
137.3447604709201
 30
0.0
  0
SPLINE
  5
1AA
330
A
100
AcDbEntity
  8
LAYER_1
 62
     7
100
AcDbSpline
210
0.0
220
0.0
230
1.0
 70
     8
 71
     3
 72
     8
 73
     4
 74
     0
 42
0.00000001
 43
0.00000001
 40
0.0
 40
0.0
 40
0.0
 40
0.0
 40
1.0
 40
1.0
 40
1.0
 40
1.0
 10
75.06053466796874
 20
137.4407063802083
 30
0.0
 10
75.34630533854165
 20
137.2491590711805
 30
0.0
 10
75.65309109157985
 20
137.1013644748264
 30
0.0
 10
75.95936008029513
 20
136.9752739800347
 30
0.0
  0
SPLINE
  5
1A9
330
A
100
AcDbEntity
  8
LAYER_1
 62
     7
100
AcDbSpline
210
0.0
220
0.0
230
1.0
 70
     8
 71
     3
 72
    17
 73
    13
 74
     0
 42
0.00000001
 43
0.00000001
 40
0.0
 40
0.0
 40
0.0
 40
0.0
 40
1.0
 40
1.0
 40
1.0
 40
2.0
 40
2.0
 40
2.0
 40
3.0
 40
3.0
 40
3.0
 40
4.0
 40
4.0
 40
4.0
 40
4.0
 10
75.06759711371527
 20
136.9621826171875
 30
0.0
 10
75.04623752170139
 20
136.9399617513021
 30
0.0
 10
75.00196804470485
 20
136.9828531901042
 30
0.0
 10
75.02453342013888
 20
136.9396172417535
 30
0.0
 10
75.04658203125
 20
136.9182576497396
 30
0.0
 10
75.11117757161458
 20
136.9626993815104
 30
0.0
 10
75.13322618272569
 20
136.9413397894965
 30
0.0
 10
75.33149142795138
 20
136.7701185438368
 30
0.0
 10
75.55042724609375
 20
136.6864027235243
 30
0.0
 10
75.77005208333333
 20
136.53740234375
 30
0.0
 10
75.83568115234374
 20
136.516559516059
 30
0.0
 10
75.90165473090278
 20
136.4740125868055
 30
0.0
 10
75.96659478081597
 20
136.4967502170139
 30
0.0
  0
SPLINE
  5
1A8
330
A
100
AcDbEntity
  8
LAYER_1
 62
     7
100
AcDbSpline
210
0.0
220
0.0
230
1.0
 70
     8
 71
     3
 72
    14
 73
    10
 74
     0
 42
0.00000001
 43
0.00000001
 40
0.0
 40
0.0
 40
0.0
 40
0.0
 40
1.0
 40
1.0
 40
1.0
 40
2.0
 40
2.0
 40
2.0
 40
3.0
 40
3.0
 40
3.0
 40
3.0
 10
74.98646511501735
 20
136.5692694769965
 30
0.0
 10
75.02987331814235
 20
136.5699584960937
 30
0.0
 10
75.09515787760417
 20
136.5708197699653
 30
0.0
 10
75.11720648871527
 20
136.5494601779514
 30
0.0
 10
75.22934434678818
 20
136.3336249457465
 30
0.0
 10
75.48996582031249
 20
136.3591186523437
 30
0.0
 10
75.62242974175346
 20
136.2306165907118
 30
0.0
 10
75.71027967664929
 20
136.1665378146701
 30
0.0
 10
75.8405042860243
 20
136.1903089735243
 30
0.0
 10
75.92887098524305
 20
136.1045260959201
 30
0.0
  0
SPLINE
  5
1A7
330
A
100
AcDbEntity
  8
LAYER_1
 62
     7
100
AcDbSpline
210
0.0
220
0.0
230
1.0
 70
     8
 71
     3
 72
    11
 73
     7
 74
     0
 42
0.00000001
 43
0.00000001
 40
0.0
 40
0.0
 40
0.0
 40
0.0
 40
1.0
 40
1.0
 40
1.0
 40
2.0
 40
2.0
 40
2.0
 40
2.0
 10
78.81276041666666
 20
142.6307427300347
 30
0.0
 10
78.81534423828124
 20
142.4567654079861
 30
0.0
 10
78.81792805989582
 20
142.2827880859375
 30
0.0
 10
78.90646701388889
 20
142.1753011067708
 30
0.0
 10
78.99535047743055
 20
142.0461100260417
 30
0.0
 10
79.02015516493054
 20
141.8506008572049
 30
0.0
 10
79.02204996744791
 20
141.7202039930556
 30
0.0
  0
SPLINE
  5
1A6
330
A
100
AcDbEntity
  8
LAYER_1
 62
     7
100
AcDbSpline
210
0.0
220
0.0
230
1.0
 70
     8
 71
     3
 72
    17
 73
    13
 74
     0
 42
0.00000001
 43
0.00000001
 40
0.0
 40
0.0
 40
0.0
 40
0.0
 40
1.0
 40
1.0
 40
1.0
 40
2.0
 40
2.0
 40
2.0
 40
3.0
 40
3.0
 40
3.0
 40
4.0
 40
4.0
 40
4.0
 40
4.0
 10
78.95728217230902
 20
143.1550862630208
 30
0.0
 10
78.95211452907985
 20
143.5030409071181
 30
0.0
 10
79.09422471788194
 20
142.7182481553819
 30
0.0
 10
79.0961195203993
 20
142.591468641493
 30
0.0
 10
79.10094265407986
 20
142.2652180989583
 30
0.0
 10
79.16691623263888
 20
142.2226711697049
 30
0.0
 10
79.21325276692707
 20
142.0275065104167
 30
0.0
 10
79.28112114800346
 20
141.8545627170139
 30
0.0
 10
79.19706081814235
 20
141.6575032552083
 30
0.0
 10
79.30833740234374
 20
141.4850762261285
 30
0.0
 10
79.30833740234374
 20
141.4850762261285
 30
0.0
 10
79.33004150390624
 20
141.4854207356771
 30
0.0
 10
79.35191786024305
 20
141.4857652452257
 30
0.0
  0
SPLINE
  5
1A5
330
A
100
AcDbEntity
  8
LAYER_1
 62
     7
100
AcDbSpline
210
0.0
220
0.0
230
1.0
 70
     8
 71
     3
 72
    26
 73
    22
 74
     0
 42
0.00000001
 43
0.00000001
 40
0.0
 40
0.0
 40
0.0
 40
0.0
 40
1.0
 40
1.0
 40
1.0
 40
2.0
 40
2.0
 40
2.0
 40
3.0
 40
3.0
 40
3.0
 40
4.0
 40
4.0
 40
4.0
 40
5.0
 40
5.0
 40
5.0
 40
6.0
 40
6.0
 40
6.0
 40
7.0
 40
7.0
 40
7.0
 40
7.0
 10
79.1116224500868
 20
144.4845486111111
 30
0.0
 10
79.11351725260415
 20
144.3539794921875
 30
0.0
 10
79.18551974826389
 20
143.898193359375
 30
0.0
 10
79.20929090711805
 20
143.76796875
 30
0.0
 10
79.25562744140625
 20
143.5729763454861
 30
0.0
 10
79.25717773437499
 20
143.464111328125
 30
0.0
 10
79.34675021701388
 20
143.2915120442708
 30
0.0
 10
79.36948784722222
 20
143.2265719943576
 30
0.0
 10
79.32831895616319
 20
143.0736097547743
 30
0.0
 10
79.32918023003471
 20
143.0083251953125
 30
0.0
 10
79.37499999999999
 20
142.8567409939236
 30
0.0
 10
79.39859890407985
 20
142.7373684353298
 30
0.0
 10
79.46577826605902
 20
142.6078328450521
 30
0.0
 10
79.48834364149305
 20
142.5428927951389
 30
0.0
 10
79.46887885199652
 20
142.4012993706597
 30
0.0
 10
79.49178873697916
 20
142.3144829644097
 30
0.0
 10
79.5612074110243
 20
142.0326741536458
 30
0.0
 10
79.63028157552083
 20
141.78359375
 30
0.0
 10
79.69935574001735
 20
141.5234890407986
 30
0.0
 10
79.76653510199652
 20
141.3939534505208
 30
0.0
 10
79.81338840060764
 20
141.1662326388889
 30
0.0
 10
79.88074001736111
 20
141.0366970486111
 30
0.0
  0
SPLINE
  5
1A4
330
A
100
AcDbEntity
  8
LAYER_1
 62
     7
100
AcDbSpline
210
0.0
220
0.0
230
1.0
 70
     8
 71
     3
 72
    23
 73
    19
 74
     0
 42
0.00000001
 43
0.00000001
 40
0.0
 40
0.0
 40
0.0
 40
0.0
 40
1.0
 40
1.0
 40
1.0
 40
2.0
 40
2.0
 40
2.0
 40
3.0
 40
3.0
 40
3.0
 40
4.0
 40
4.0
 40
4.0
 40
5.0
 40
5.0
 40
5.0
 40
6.0
 40
6.0
 40
6.0
 40
6.0
 10
79.2918009440104
 20
145.5315131293403
 30
0.0
 10
79.38275146484374
 20
145.2717529296875
 30
0.0
 10
79.38619656032985
 20
145.0324910481771
 30
0.0
 10
79.43356662326389
 20
144.7722140842014
 30
0.0
 10
79.5271009657118
 20
144.3384765625
 30
0.0
 10
79.55500623914929
 20
143.9254096137153
 30
0.0
 10
79.6483683268229
 20
143.4916720920139
 30
0.0
 10
79.67179497612847
 20
143.3833238389757
 30
0.0
 10
79.73897433810764
 20
143.2536159939236
 30
0.0
 10
79.76240098741319
 20
143.1452677408854
 30
0.0
 10
79.83509250217013
 20
142.6459011501736
 30
0.0
 10
79.90743950737847
 20
142.1684109157986
 30
0.0
 10
80.06711968315972
 20
141.6704223632812
 30
0.0
 10
80.08968505859374
 20
141.605482313368
 30
0.0
 10
80.04748263888888
 20
141.5178046332465
 30
0.0
 10
80.07022026909722
 20
141.4528645833333
 30
0.0
 10
80.09226888020832
 20
141.4315049913194
 30
0.0
 10
80.09330240885416
 20
141.3662204318576
 30
0.0
 10
80.15858696831596
 20
141.3670817057292
 30
0.0
  0
SPLINE
  5
1A3
330
A
100
AcDbEntity
  8
LAYER_1
 62
     7
100
AcDbSpline
210
0.0
220
0.0
230
1.0
 70
     8
 71
     3
 72
    26
 73
    22
 74
     0
 42
0.00000001
 43
0.00000001
 40
0.0
 40
0.0
 40
0.0
 40
0.0
 40
1.0
 40
1.0
 40
1.0
 40
2.0
 40
2.0
 40
2.0
 40
3.0
 40
3.0
 40
3.0
 40
4.0
 40
4.0
 40
4.0
 40
5.0
 40
5.0
 40
5.0
 40
6.0
 40
6.0
 40
6.0
 40
7.0
 40
7.0
 40
7.0
 40
7.0
 10
79.66921115451389
 20
146.4944173177083
 30
0.0
 10
79.60874972873263
 20
146.1671332465278
 30
0.0
 10
79.71003553602429
 20
145.9402737087673
 30
0.0
 10
79.75843912760416
 20
145.6145399305555
 30
0.0
 10
79.75930040147568
 20
145.5494276258681
 30
0.0
 10
79.72967258029513
 20
145.3422051323785
 30
0.0
 10
79.77463107638889
 20
145.2559054904514
 30
0.0
 10
79.82027859157985
 20
145.1043212890625
 30
0.0
 10
79.75740559895833
 20
144.9510145399306
 30
0.0
 10
79.80305311414929
 20
144.7994303385416
 30
0.0
 10
79.84852837456596
 20
144.6695502387153
 30
0.0
 10
79.87195502387152
 20
144.5610297309028
 30
0.0
 10
79.89555392795138
 20
144.4308051215278
 30
0.0
 10
79.91966959635415
 20
144.2788764105903
 30
0.0
 10
79.87832845052083
 20
144.1260864257812
 30
0.0
 10
79.9455078125
 20
143.9965508355035
 30
0.0
 10
79.98994954427083
 20
143.9319552951389
 30
0.0
 10
80.01268717447915
 20
143.8670152452257
 30
0.0
 10
80.01372070312499
 20
143.8017306857639
 30
0.0
 10
80.08641221788194
 20
143.3023640950521
 30
0.0
 10
80.07194281684028
 20
142.8017917209201
 30
0.0
 10
80.25281032986111
 20
142.3475558810764
 30
0.0
  0
SPLINE
  5
1A2
330
A
100
AcDbEntity
  8
LAYER_1
 62
     7
100
AcDbSpline
210
0.0
220
0.0
230
1.0
 70
     8
 71
     3
 72
    17
 73
    13
 74
     0
 42
0.00000001
 43
0.00000001
 40
0.0
 40
0.0
 40
0.0
 40
0.0
 40
1.0
 40
1.0
 40
1.0
 40
2.0
 40
2.0
 40
2.0
 40
3.0
 40
3.0
 40
3.0
 40
4.0
 40
4.0
 40
4.0
 40
4.0
 10
80.02095540364583
 20
146.2384467230903
 30
0.0
 10
80.02422824435763
 20
146.0210611979167
 30
0.0
 10
80.11328396267361
 20
145.8918701171875
 30
0.0
 10
80.11638454861111
 20
145.6743123372396
 30
0.0
 10
80.18166910807291
 20
145.6751736111111
 30
0.0
 10
80.09657524956596
 20
145.5435709635416
 30
0.0
 10
80.11879611545139
 20
145.5220391167535
 30
0.0
 10
80.25367160373263
 20
145.2193874782986
 30
0.0
 10
80.0852064344618
 20
144.84697265625
 30
0.0
 10
80.26349012586805
 20
144.5668863932291
 30
0.0
 10
80.41955295138888
 20
144.3081597222222
 30
0.0
 10
80.33669840494791
 20
144.0241115993923
 30
0.0
 10
80.42764892578124
 20
143.7643513997396
 30
0.0
  0
SPLINE
  5
1A1
330
A
100
AcDbEntity
  8
LAYER_1
 62
     7
100
AcDbSpline
210
0.0
220
0.0
230
1.0
 70
     8
 71
     3
 72
    14
 73
    10
 74
     0
 42
0.00000001
 43
0.00000001
 40
0.0
 40
0.0
 40
0.0
 40
0.0
 40
1.0
 40
1.0
 40
1.0
 40
2.0
 40
2.0
 40
2.0
 40
3.0
 40
3.0
 40
3.0
 40
3.0
 10
80.41645236545138
 20
145.9833374023438
 30
0.0
 10
80.35254584418402
 20
145.8953152126736
 30
0.0
 10
80.39767659505208
 20
145.787311469184
 30
0.0
 10
80.42058648003471
 20
145.700495062934
 30
0.0
 10
80.46778428819444
 20
145.4619222005208
 30
0.0
 10
80.44883626302082
 20
145.2658962673611
 30
0.0
 10
80.49586181640625
 20
145.0271511501736
 30
0.0
 10
80.49689534505208
 20
144.9620388454861
 30
0.0
 10
80.51997748480902
 20
144.8752224392361
 30
0.0
 10
80.56441921657985
 20
144.8106268988715
 30
0.0
  0
SPLINE
  5
1A0
330
A
100
AcDbEntity
  8
LAYER_1
 62
     7
100
AcDbSpline
210
0.0
220
0.0
230
1.0
 70
     8
 71
     3
 72
    14
 73
    10
 74
     0
 42
0.00000001
 43
0.00000001
 40
0.0
 40
0.0
 40
0.0
 40
0.0
 40
1.0
 40
1.0
 40
1.0
 40
2.0
 40
2.0
 40
2.0
 40
3.0
 40
3.0
 40
3.0
 40
3.0
 10
79.7536159939236
 20
146.6697726779514
 30
0.0
 10
79.79650743272569
 20
146.7138699001736
 30
0.0
 10
79.86179199218749
 20
146.7149034288194
 30
0.0
 10
79.90451117621527
 20
146.7590006510417
 30
0.0
 10
79.94636908637152
 20
146.8683824327257
 30
0.0
 10
79.98857150607638
 20
146.9560601128472
 30
0.0
 10
80.05265028211805
 20
147.0440823025174
 30
0.0
 10
80.18063557942708
 20
147.2199544270833
 30
0.0
 10
80.35289035373263
 20
147.3312310112847
 30
0.0
 10
80.41507432725693
 20
147.5498223198785
 30
0.0
  0
SPLINE
  5
19F
330
A
100
AcDbEntity
  8
LAYER_1
 62
     7
100
AcDbSpline
210
0.0
220
0.0
230
1.0
 70
     8
 71
     3
 72
    11
 73
     7
 74
     0
 42
0.00000001
 43
0.00000001
 40
0.0
 40
0.0
 40
0.0
 40
0.0
 40
1.0
 40
1.0
 40
1.0
 40
2.0
 40
2.0
 40
2.0
 40
2.0
 10
80.11724582248263
 20
146.3486897786458
 30
0.0
 10
80.18098008897569
 20
146.4584160698785
 30
0.0
 10
80.22852240668402
 20
146.6151679144965
 30
0.0
 10
80.31843939887152
 20
146.7216213650173
 30
0.0
 10
80.60713840060764
 20
147.063030327691
 30
0.0
 10
80.5285902235243
 20
147.2251220703125
 30
0.0
 10
80.78800591362847
 20
147.3377766927083
 30
0.0
  0
SPLINE
  5
19E
330
A
100
AcDbEntity
  8
LAYER_1
 62
     7
100
AcDbSpline
210
0.0
220
0.0
230
1.0
 70
     8
 71
     3
 72
    11
 73
     7
 74
     0
 42
0.00000001
 43
0.00000001
 40
0.0
 40
0.0
 40
0.0
 40
0.0
 40
1.0
 40
1.0
 40
1.0
 40
2.0
 40
2.0
 40
2.0
 40
2.0
 10
80.50154622395833
 20
146.1151123046875
 30
0.0
 10
80.50016818576388
 20
146.2021009657118
 30
0.0
 10
80.56441921657985
 20
146.2792711046007
 30
0.0
 10
80.60662163628471
 20
146.3669487847222
 30
0.0
 10
80.75458848741319
 20
146.6518581814236
 30
0.0
 10
80.85949164496527
 20
146.9145467122396
 30
0.0
 10
81.07377658420138
 20
147.135205078125
 30
0.0
  0
SPLINE
  5
19D
330
A
100
AcDbEntity
  8
LAYER_1
 62
     7
100
AcDbSpline
210
0.0
220
0.0
230
1.0
 70
     8
 71
     3
 72
    14
 73
    10
 74
     0
 42
0.00000001
 43
0.00000001
 40
0.0
 40
0.0
 40
0.0
 40
0.0
 40
1.0
 40
1.0
 40
1.0
 40
2.0
 40
2.0
 40
2.0
 40
3.0
 40
3.0
 40
3.0
 40
3.0
 10
80.8510511610243
 20
146.0224392361111
 30
0.0
 10
80.87120496961805
 20
146.1314765082465
 30
0.0
 10
81.01021457248264
 20
146.2858167860243
 30
0.0
 10
81.03002387152777
 20
146.4167304144965
 30
0.0
 10
81.05000542534721
 20
146.5474717881944
 30
0.0
 10
81.10288764105903
 20
146.6461737738715
 30
0.0
 10
81.16610514322916
 20
146.7776041666667
 30
0.0
 10
81.18660346137152
 20
146.8651095920139
 30
0.0
 10
81.22880588107638
 20
146.9526150173611
 30
0.0
 10
81.24930419921874
 20
147.039948187934
 30
0.0
  0
SPLINE
  5
19C
330
A
100
AcDbEntity
  8
LAYER_1
 62
     7
100
AcDbSpline
210
0.0
220
0.0
230
1.0
 70
     8
 71
     3
 72
     8
 73
     4
 74
     0
 42
0.00000001
 43
0.00000001
 40
0.0
 40
0.0
 40
0.0
 40
0.0
 40
1.0
 40
1.0
 40
1.0
 40
1.0
 10
81.40863986545138
 20
146.5636637369792
 30
0.0
 10
81.47254638671875
 20
146.6516859266493
 30
0.0
 10
81.54661593967013
 20
146.794140625
 30
0.0
 10
81.54541015624999
 20
146.8813015407986
 30
0.0
  0
SPLINE
  5
19B
330
A
100
AcDbEntity
  8
LAYER_1
 62
     7
100
AcDbSpline
210
0.0
220
0.0
230
1.0
 70
     8
 71
     3
 72
    23
 73
    19
 74
     0
 42
0.00000001
 43
0.00000001
 40
0.0
 40
0.0
 40
0.0
 40
0.0
 40
1.0
 40
1.0
 40
1.0
 40
2.0
 40
2.0
 40
2.0
 40
3.0
 40
3.0
 40
3.0
 40
4.0
 40
4.0
 40
4.0
 40
5.0
 40
5.0
 40
5.0
 40
6.0
 40
6.0
 40
6.0
 40
6.0
 10
79.72674424913194
 20
148.4751749674479
 30
0.0
 10
79.77032470703124
 20
148.4756917317708
 30
0.0
 10
79.79202880859374
 20
148.4760362413194
 30
0.0
 10
79.83526475694444
 20
148.4984293619792
 30
0.0
 10
79.87970648871527
 20
148.4338338216146
 30
0.0
 10
79.9241482204861
 20
148.36923828125
 30
0.0
 10
79.96807318793402
 20
148.3482231987847
 30
0.0
 10
80.25246582031249
 20
148.2434922960069
 30
0.0
 10
80.38682454427082
 20
147.9844211154514
 30
0.0
 10
80.58543429904513
 20
147.7916680230035
 30
0.0
 10
80.67345648871527
 20
147.7277615017361
 30
0.0
 10
80.73994683159721
 20
147.6416341145833
 30
0.0
 10
80.84932861328124
 20
147.5997762044271
 30
0.0
 10
81.04604356553818
 20
147.5374199761285
 30
0.0
 10
81.15783691406249
 20
147.3432888454861
 30
0.0
 10
81.31234944661458
 20
147.193254937066
 30
0.0
 10
81.31200493706596
 20
147.2149590386285
 30
0.0
 10
81.31200493706596
 20
147.2149590386285
 30
0.0
 10
81.31166042751735
 20
147.236663140191
 30
0.0
  0
SPLINE
  5
19A
330
A
100
AcDbEntity
  8
LAYER_1
 62
     7
100
AcDbSpline
210
0.0
220
0.0
230
1.0
 70
     8
 71
     3
 72
    32
 73
    28
 74
     0
 42
0.00000001
 43
0.00000001
 40
0.0
 40
0.0
 40
0.0
 40
0.0
 40
1.0
 40
1.0
 40
1.0
 40
2.0
 40
2.0
 40
2.0
 40
3.0
 40
3.0
 40
3.0
 40
4.0
 40
4.0
 40
4.0
 40
5.0
 40
5.0
 40
5.0
 40
6.0
 40
6.0
 40
6.0
 40
7.0
 40
7.0
 40
7.0
 40
8.0
 40
8.0
 40
8.0
 40
9.0
 40
9.0
 40
9.0
 40
9.0
 10
78.90870632595485
 20
149.3548800998264
 30
0.0
 10
78.95228678385416
 20
149.3555691189236
 30
0.0
 10
78.99552273220485
 20
149.3779622395833
 30
0.0
 10
79.03927544487847
 20
149.356947157118
 30
0.0
 10
79.10524902343749
 20
149.3144002278646
 30
0.0
 10
79.10679931640624
 20
149.2057074652778
 30
0.0
 10
79.17242838541667
 20
149.1848646375868
 30
0.0
 10
79.25941704644096
 20
149.1860704210069
 30
0.0
 10
79.35811903211805
 20
149.1223361545139
 30
0.0
 10
79.42409261067708
 20
149.0797892252604
 30
0.0
 10
79.53450792100693
 20
148.9726467556424
 30
0.0
 10
79.63372667100694
 20
148.8870361328125
 30
0.0
 10
79.72226562499999
 20
148.7797214084201
 30
0.0
 10
79.83233642578124
 20
148.6942830403646
 30
0.0
 10
79.94275173611111
 20
148.5871405707465
 30
0.0
 10
80.05247802734374
 20
148.5234063042535
 30
0.0
 10
80.11827935112846
 20
148.480859375
 30
0.0
 10
80.21749810112847
 20
148.3954210069444
 30
0.0
 10
80.28312717013888
 20
148.3745781792535
 30
0.0
 10
80.3272243923611
 20
148.3316867404514
 30
0.0
 10
80.36012505425346
 20
148.3104994032118
 30
0.0
 10
80.4047390407986
 20
148.2459038628472
 30
0.0
 10
80.47122938368055
 20
148.1597764756944
 30
0.0
 10
80.54822726779513
 20
148.0956976996528
 30
0.0
 10
80.63590494791666
 20
148.0534952799479
 30
0.0
 10
80.70187852647568
 20
148.0109483506944
 30
0.0
 10
80.77835964626735
 20
147.9902777777778
 30
0.0
 10
80.86569281684027
 20
147.9697794596354
 30
0.0
  0
SPLINE
  5
199
330
A
100
AcDbEntity
  8
LAYER_1
 62
     7
100
AcDbSpline
210
0.0
220
0.0
230
1.0
 70
     8
 71
     3
 72
    14
 73
    10
 74
     0
 42
0.00000001
 43
0.00000001
 40
0.0
 40
0.0
 40
0.0
 40
0.0
 40
1.0
 40
1.0
 40
1.0
 40
2.0
 40
2.0
 40
2.0
 40
3.0
 40
3.0
 40
3.0
 40
3.0
 10
80.21405300564236
 20
147.8948486328125
 30
0.0
 10
80.34462212456596
 20
147.8969156901042
 30
0.0
 10
80.38992513020833
 20
147.7670355902778
 30
0.0
 10
80.47794731987847
 20
147.7029568142361
 30
0.0
 10
80.52152777777778
 20
147.7036458333333
 30
0.0
 10
80.56528049045139
 20
147.682630750868
 30
0.0
 10
80.60920545789929
 20
147.6614434136285
 30
0.0
 10
80.69671088324652
 20
147.6192409939236
 30
0.0
 10
80.65485297309027
 20
147.5098592122396
 30
0.0
 10
80.6992947048611
 20
147.445263671875
 30
0.0
  0
SPLINE
  5
198
330
A
100
AcDbEntity
  8
LAYER_1
 62
     7
100
AcDbSpline
210
0.0
220
0.0
230
1.0
 70
     8
 71
     3
 72
    17
 73
    13
 74
     0
 42
0.00000001
 43
0.00000001
 40
0.0
 40
0.0
 40
0.0
 40
0.0
 40
1.0
 40
1.0
 40
1.0
 40
2.0
 40
2.0
 40
2.0
 40
3.0
 40
3.0
 40
3.0
 40
4.0
 40
4.0
 40
4.0
 40
4.0
 10
78.89940456814236
 20
149.9856770833333
 30
0.0
 10
78.96434461805555
 20
150.0084147135416
 30
0.0
 10
79.00844184027777
 20
149.9656955295139
 30
0.0
 10
79.00878634982638
 20
149.9438191731771
 30
0.0
 10
79.05322808159721
 20
149.8792236328125
 30
0.0
 10
79.09766981336804
 20
149.8146280924479
 30
0.0
 10
79.14228379991319
 20
149.7500325520833
 30
0.0
 10
79.34123806423611
 20
149.5354031032986
 30
0.0
 10
79.51814371744791
 20
149.3423055013021
 30
0.0
 10
79.73828531901042
 20
149.171428765191
 30
0.0
 10
79.80374213324652
 20
149.1507581922743
 30
0.0
 10
79.84818386501735
 20
149.0861626519097
 30
0.0
 10
79.91346842447916
 20
149.0870239257812
 30
0.0
  0
SPLINE
  5
197
330
A
100
AcDbEntity
  8
LAYER_1
 62
     7
100
AcDbSpline
210
0.0
220
0.0
230
1.0
 70
     8
 71
     3
 72
    29
 73
    25
 74
     0
 42
0.00000001
 43
0.00000001
 40
0.0
 40
0.0
 40
0.0
 40
0.0
 40
1.0
 40
1.0
 40
1.0
 40
2.0
 40
2.0
 40
2.0
 40
3.0
 40
3.0
 40
3.0
 40
4.0
 40
4.0
 40
4.0
 40
5.0
 40
5.0
 40
5.0
 40
6.0
 40
6.0
 40
6.0
 40
7.0
 40
7.0
 40
7.0
 40
8.0
 40
8.0
 40
8.0
 40
8.0
 10
78.26343994140625
 20
151.7929741753472
 30
0.0
 10
78.26378445095486
 20
151.7712700737847
 30
0.0
 10
78.29840766059027
 20
151.641217719184
 30
0.0
 10
78.32011176215278
 20
151.6415622287326
 30
0.0
 10
78.32131754557291
 20
151.5545735677083
 30
0.0
 10
78.34388292100694
 20
151.5004855685764
 30
0.0
 10
78.34526095920138
 20
151.4134969075521
 30
0.0
 10
78.34560546874999
 20
151.3917928059896
 30
0.0
 10
78.39039171006944
 20
151.3053209092882
 30
0.0
 10
78.39056396484374
 20
151.2836168077257
 30
0.0
 10
78.39125298394096
 20
151.2402086046007
 30
0.0
 10
78.38177897135417
 20
151.1420233832465
 30
0.0
 10
78.40434434678819
 20
151.0989596896701
 30
0.0
 10
78.53698052300346
 20
150.9701131184896
 30
0.0
 10
78.42759874131944
 20
150.9904391818576
 30
0.0
 10
78.42759874131944
 20
150.9904391818576
 30
0.0
 10
78.45102539062499
 20
150.8820909288194
 30
0.0
 10
78.3862575954861
 20
150.8485012478299
 30
0.0
 10
78.43104383680554
 20
150.7620293511285
 30
0.0
 10
78.47583007812499
 20
150.6757297092014
 30
0.0
 10
78.43397216796875
 20
150.5663479275173
 30
0.0
 10
78.45688205295139
 20
150.4797037760417
 30
0.0
 10
78.47961968315971
 20
150.4147637261285
 30
0.0
 10
78.50201280381944
 20
150.3715277777778
 30
0.0
 10
78.50304633246527
 20
150.306243218316
 30
0.0
  0
SPLINE
  5
196
330
A
100
AcDbEntity
  8
LAYER_1
 62
     7
100
AcDbSpline
210
0.0
220
0.0
230
1.0
 70
     8
 71
     3
 72
    23
 73
    19
 74
     0
 42
0.00000001
 43
0.00000001
 40
0.0
 40
0.0
 40
0.0
 40
0.0
 40
1.0
 40
1.0
 40
1.0
 40
2.0
 40
2.0
 40
2.0
 40
3.0
 40
3.0
 40
3.0
 40
4.0
 40
4.0
 40
4.0
 40
5.0
 40
5.0
 40
5.0
 40
6.0
 40
6.0
 40
6.0
 40
6.0
 10
78.35886908637153
 20
152.6973117404514
 30
0.0
 10
78.42380913628472
 20
152.7200493706597
 30
0.0
 10
78.46825086805555
 20
152.6554538302951
 30
0.0
 10
78.49064398871528
 20
152.6122178819444
 30
0.0
 10
78.51389838324653
 20
152.5038696289062
 30
0.0
 10
78.47238498263889
 20
152.3726114908854
 30
0.0
 10
78.51751573350694
 20
152.2646077473958
 30
0.0
 10
78.56333550347222
 20
152.1130235460069
 30
0.0
 10
78.58727891710069
 20
151.9609225802951
 30
0.0
 10
78.63309868706597
 20
151.8093383789062
 30
0.0
 10
78.72353244357639
 20
151.5714545355903
 30
0.0
 10
78.74885389539929
 20
151.3325371636284
 30
0.0
 10
78.75247124565972
 20
151.0931030273437
 30
0.0
 10
78.77899848090277
 20
150.7671969943576
 30
0.0
 10
78.87115478515624
 20
150.4204481336805
 30
0.0
 10
78.8542738172743
 20
150.0938530815972
 30
0.0
 10
78.8542738172743
 20
150.0938530815972
 30
0.0
 10
78.87563340928818
 20
150.1159016927083
 30
0.0
 10
78.87563340928818
 20
150.1159016927083
 30
0.0
  0
SPLINE
  5
195
330
A
100
AcDbEntity
  8
LAYER_1
 62
     7
100
AcDbSpline
210
0.0
220
0.0
230
1.0
 70
     8
 71
     3
 72
    26
 73
    22
 74
     0
 42
0.00000001
 43
0.00000001
 40
0.0
 40
0.0
 40
0.0
 40
0.0
 40
1.0
 40
1.0
 40
1.0
 40
2.0
 40
2.0
 40
2.0
 40
3.0
 40
3.0
 40
3.0
 40
4.0
 40
4.0
 40
4.0
 40
5.0
 40
5.0
 40
5.0
 40
6.0
 40
6.0
 40
6.0
 40
7.0
 40
7.0
 40
7.0
 40
7.0
 10
78.74110243055554
 20
154.7915852864583
 30
0.0
 10
78.71939832899305
 20
154.7912407769097
 30
0.0
 10
78.68150227864582
 20
154.4100409613715
 30
0.0
 10
78.68184678819443
 20
154.3881646050347
 30
0.0
 10
78.66238199869791
 20
154.2357191297743
 30
0.0
 10
78.66341552734374
 20
154.1595825195312
 30
0.0
 10
78.6871866861979
 20
154.0293579101563
 30
0.0
 10
78.84841715494791
 20
153.4225043402778
 30
0.0
 10
78.74833713107638
 20
152.8335652669271
 30
0.0
 10
78.86650390624999
 20
152.2044908311632
 30
0.0
 10
78.89113633897568
 20
152.0089816623264
 30
0.0
 10
78.93695610894096
 20
151.8573974609375
 30
0.0
 10
78.98329264322916
 20
151.6622328016493
 30
0.0
 10
79.00706380208332
 20
151.5321804470486
 30
0.0
 10
79.03135172526041
 20
151.3583753797743
 30
0.0
 10
79.05495062934027
 20
151.2281507703993
 30
0.0
 10
79.07768825954861
 20
151.1632107204861
 30
0.0
 10
79.07768825954861
 20
151.1632107204861
 30
0.0
 10
79.10042588975693
 20
151.0984429253472
 30
0.0
 10
79.23702392578124
 20
150.6870985243056
 30
0.0
 10
79.19998914930555
 20
150.2512939453125
 30
0.0
 10
79.29352349175346
 20
149.8175564236111
 30
0.0
  0
SPLINE
  5
194
330
A
100
AcDbEntity
  8
LAYER_1
 62
     7
100
AcDbSpline
210
0.0
220
0.0
230
1.0
 70
     8
 71
     3
 72
    20
 73
    16
 74
     0
 42
0.00000001
 43
0.00000001
 40
0.0
 40
0.0
 40
0.0
 40
0.0
 40
1.0
 40
1.0
 40
1.0
 40
2.0
 40
2.0
 40
2.0
 40
3.0
 40
3.0
 40
3.0
 40
4.0
 40
4.0
 40
4.0
 40
5.0
 40
5.0
 40
5.0
 40
5.0
 10
79.0620130750868
 20
155.8950493706597
 30
0.0
 10
78.99758978949652
 20
155.8289035373264
 30
0.0
 10
78.92420925564235
 20
155.6428683810764
 30
0.0
 10
78.92524278428819
 20
155.5775838216146
 30
0.0
 10
78.99535047743055
 20
155.2521945529514
 30
0.0
 10
79.0651136610243
 20
154.948681640625
 30
0.0
 10
79.02618408203124
 20
154.6434461805555
 30
0.0
 10
79.02618408203124
 20
154.6434461805555
 30
0.0
 10
79.02704535590277
 20
154.5783338758681
 30
0.0
 10
79.02704535590277
 20
154.5783338758681
 30
0.0
 10
79.04547661675346
 20
153.3384440104167
 30
0.0
 10
79.23736843532986
 20
152.1338663736979
 30
0.0
 10
79.36449245876736
 20
150.8955268012153
 30
0.0
 10
79.38826361762152
 20
150.7654744466146
 30
0.0
 10
79.36914333767361
 20
150.5801283094618
 30
0.0
 10
79.47955864800346
 20
150.4729858398437
 30
0.0
  0
SPLINE
  5
193
330
A
100
AcDbEntity
  8
LAYER_1
 62
     7
100
AcDbSpline
210
0.0
220
0.0
230
1.0
 70
     8
 71
     3
 72
    17
 73
    13
 74
     0
 42
0.00000001
 43
0.00000001
 40
0.0
 40
0.0
 40
0.0
 40
0.0
 40
1.0
 40
1.0
 40
1.0
 40
2.0
 40
2.0
 40
2.0
 40
3.0
 40
3.0
 40
3.0
 40
4.0
 40
4.0
 40
4.0
 40
4.0
 10
79.40445556640624
 20
155.5412380642361
 30
0.0
 10
79.43546142578124
 20
154.9106133355035
 30
0.0
 10
79.40135498046874
 20
154.2792995876736
 30
0.0
 10
79.45423719618054
 20
153.6491916232639
 30
0.0
 10
79.5055691189236
 20
153.127776421441
 30
0.0
 10
79.49109971788194
 20
152.6270317925347
 30
0.0
 10
79.58583984374999
 20
152.106305609809
 30
0.0
 10
79.60892198350693
 20
152.0196614583333
 30
0.0
 10
79.59169650607639
 20
151.7147705078125
 30
0.0
 10
79.61477864583333
 20
151.6281263563368
 30
0.0
 10
79.63613823784722
 20
151.6501749674479
 30
0.0
 10
79.67644585503471
 20
151.868421766493
 30
0.0
 10
79.69797770182291
 20
151.8904703776042
 30
0.0
  0
SPLINE
  5
192
330
A
100
AcDbEntity
  8
LAYER_1
 62
     7
100
AcDbSpline
210
0.0
220
0.0
230
1.0
 70
     8
 71
     3
 72
    11
 73
     7
 74
     0
 42
0.00000001
 43
0.00000001
 40
0.0
 40
0.0
 40
0.0
 40
0.0
 40
1.0
 40
1.0
 40
1.0
 40
2.0
 40
2.0
 40
2.0
 40
2.0
 10
79.66800537109374
 20
155.3710503472222
 30
0.0
 10
79.68970947265625
 20
155.3713948567708
 30
0.0
 10
79.71158582899305
 20
155.3717393663194
 30
0.0
 10
79.71158582899305
 20
155.3717393663194
 30
0.0
 10
79.80753173828124
 20
154.7638522677951
 30
0.0
 10
79.68609212239582
 20
154.1528645833333
 30
0.0
 10
79.91226264105902
 20
153.5689208984375
 30
0.0
  0
SPLINE
  5
191
330
A
100
AcDbEntity
  8
LAYER_1
 62
     7
100
AcDbSpline
210
0.0
220
0.0
230
1.0
 70
     8
 71
     3
 72
    14
 73
    10
 74
     0
 42
0.00000001
 43
0.00000001
 40
0.0
 40
0.0
 40
0.0
 40
0.0
 40
1.0
 40
1.0
 40
1.0
 40
2.0
 40
2.0
 40
2.0
 40
3.0
 40
3.0
 40
3.0
 40
3.0
 10
75.29910753038193
 20
136.0299397786458
 30
0.0
 10
75.40745578342013
 20
136.0533664279514
 30
0.0
 10
75.49547797309027
 20
135.9892876519097
 30
0.0
 10
75.5833279079861
 20
135.9253811306423
 30
0.0
 10
75.62725287543402
 20
135.9043660481771
 30
0.0
 10
75.65050726996527
 20
135.7958455403646
 30
0.0
 10
75.71613633897569
 20
135.7751749674479
 30
0.0
 10
75.78142089843749
 20
135.7760362413195
 30
0.0
 10
75.84739447699653
 20
135.733489312066
 30
0.0
 10
75.89149169921875
 20
135.6905978732639
 30
0.0
  0
SPLINE
  5
190
330
A
100
AcDbEntity
  8
LAYER_1
 62
     7
100
AcDbSpline
210
0.0
220
0.0
230
1.0
 70
     8
 71
     3
 72
     8
 73
     4
 74
     0
 42
0.00000001
 43
0.00000001
 40
0.0
 40
0.0
 40
0.0
 40
0.0
 40
1.0
 40
1.0
 40
1.0
 40
1.0
 10
74.08763970269096
 20
139.2211317274305
 30
0.0
 10
74.01339789496527
 20
139.1003811306424
 30
0.0
 10
74.02631700303819
 20
138.9591322157118
 30
0.0
 10
74.03923611111111
 20
138.8178833007812
 30
0.0
  0
SPLINE
  5
18F
330
A
100
AcDbEntity
  8
LAYER_1
 62
     7
100
AcDbSpline
210
0.0
220
0.0
230
1.0
 70
     8
 71
     3
 72
    17
 73
    13
 74
     0
 42
0.00000001
 43
0.00000001
 40
0.0
 40
0.0
 40
0.0
 40
0.0
 40
1.0
 40
1.0
 40
1.0
 40
2.0
 40
2.0
 40
2.0
 40
3.0
 40
3.0
 40
3.0
 40
4.0
 40
4.0
 40
4.0
 40
4.0
 10
79.5674085828993
 20
146.7540052625868
 30
0.0
 10
79.58825141059027
 20
146.8196343315972
 30
0.0
 10
79.61977403428818
 20
146.8852634006076
 30
0.0
 10
79.64061686197915
 20
146.9508924696181
 30
0.0
 10
79.66145968967014
 20
147.0163492838541
 30
0.0
 10
79.75861138237846
 20
147.0613077799479
 30
0.0
 10
79.80115831163194
 20
147.1272813585069
 30
0.0
 10
79.81149359809027
 20
147.160009765625
 30
0.0
 10
79.83285319010416
 20
147.1930826822917
 30
0.0
 10
79.84318847656249
 20
147.2258110894097
 30
0.0
 10
79.85404052734374
 20
147.2368353949653
 30
0.0
 10
79.87540011935764
 20
147.2588840060764
 30
0.0
 10
79.88607991536458
 20
147.2699083116319
 30
0.0
  0
SPLINE
  5
18E
330
A
100
AcDbEntity
  8
LAYER_1
 62
     7
100
AcDbSpline
210
0.0
220
0.0
230
1.0
 70
     8
 71
     3
 72
    11
 73
     7
 74
     0
 42
0.00000001
 43
0.00000001
 40
0.0
 40
0.0
 40
0.0
 40
0.0
 40
1.0
 40
1.0
 40
1.0
 40
2.0
 40
2.0
 40
2.0
 40
2.0
 10
78.7581556532118
 20
155.8361382378472
 30
0.0
 10
78.90009358723958
 20
155.8056491427951
 30
0.0
 10
78.87683919270833
 20
155.9031453450521
 30
0.0
 10
79.01894938151041
 20
155.8618041992187
 30
0.0
 10
79.07355414496527
 20
155.8409613715278
 30
0.0
 10
79.27147488064236
 20
155.7022962782118
 30
0.0
 10
79.32607964409722
 20
155.6923055013021
 30
0.0
  0
SPLINE
  5
18D
330
A
100
AcDbEntity
  8
LAYER_1
 62
     7
100
AcDbSpline
210
0.0
220
0.0
230
1.0
 70
     8
 71
     3
 72
     8
 73
     4
 74
     0
 42
0.00000001
 43
0.00000001
 40
0.0
 40
0.0
 40
0.0
 40
0.0
 40
1.0
 40
1.0
 40
1.0
 40
1.0
 10
128.529450141059
 20
134.1652818467882
 30
0.0
 10
128.6377983940972
 20
134.0037068684896
 30
0.0
 10
128.6875800238715
 20
133.955475531684
 30
0.0
 10
128.7470079210069
 20
133.8013075086805
 30
0.0
  0
SPLINE
  5
18C
330
A
100
AcDbEntity
  8
LAYER_1
 62
     7
100
AcDbSpline
210
0.0
220
0.0
230
1.0
 70
     8
 71
     3
 72
     8
 73
     4
 74
     0
 42
0.00000001
 43
0.00000001
 40
0.0
 40
0.0
 40
0.0
 40
0.0
 40
1.0
 40
1.0
 40
1.0
 40
1.0
 10
128.9134060329861
 20
134.127385796441
 30
0.0
 10
128.9147840711806
 20
134.0403971354167
 30
0.0
 10
129.0143473307292
 20
133.9194742838542
 30
0.0
 10
129.0966851128472
 20
133.8717597113715
 30
0.0
  0
LINE
  5
18B
330
A
100
AcDbEntity
  8
LAYER_1
 62
     7
100
AcDbLine
 10
105.6765814887153
 20
128.3218831380208
 30
0.0
 11
105.9918077256944
 21
128.3389363606771
 31
0.0
  0
LINE
  5
18A
330
A
100
AcDbEntity
  8
LAYER_1
 62
     7
100
AcDbLine
 10
105.9449544270833
 20
128.5652791341146
 30
0.0
 11
105.816796875
 21
128.4000868055555
 31
0.0
  0
LINE
  5
189
330
A
100
AcDbEntity
  8
LAYER_1
 62
     7
100
AcDbLine
 10
84.43515624999999
 20
125.1322414822049
 30
0.0
 11
85.6600599500868
 21
123.9660766601562
 31
0.0
  0
LINE
  5
188
330
A
100
AcDbEntity
  8
LAYER_1
 62
     7
100
AcDbLine
 10
85.6600599500868
 20
123.9660766601562
 30
0.0
 11
88.06198052300347
 21
124.3865505642361
 31
0.0
  0
LINE
  5
187
330
A
100
AcDbEntity
  8
LAYER_1
 62
     7
100
AcDbLine
 10
88.08075629340277
 20
124.3867228190104
 30
0.0
 11
88.09660373263888
 21
125.8095472547743
 31
0.0
  0
LINE
  5
186
330
A
100
AcDbEntity
  8
LAYER_1
 62
     7
100
AcDbLine
 10
85.64731309678818
 20
125.3704698350694
 30
0.0
 11
85.65988769531249
 21
124.0652954101562
 31
0.0
  0
LINE
  5
185
330
A
100
AcDbEntity
  8
LAYER_1
 62
     7
100
AcDbLine
 10
80.31361626519096
 20
140.6298312717014
 30
0.0
 11
80.32653537326388
 21
134.8944363064236
 31
0.0
  0
LINE
  5
184
330
A
100
AcDbEntity
  8
LAYER_1
 62
     7
100
AcDbLine
 10
80.2123304578993
 20
135.9124620225694
 30
0.0
 11
80.20630154079861
 21
134.7619723849826
 31
0.0
  0
LINE
  5
183
330
A
100
AcDbEntity
  8
LAYER_1
 62
     7
100
AcDbLine
 10
80.28519422743055
 20
134.852922905816
 30
0.0
 11
79.56224093967013
 21
134.1732055664062
 31
0.0
  0
LINE
  5
182
330
A
100
AcDbEntity
  8
LAYER_1
 62
     7
100
AcDbLine
 10
79.56224093967013
 20
134.1732055664062
 30
0.0
 11
80.2154310438368
 21
133.5847832573785
 31
0.0
  0
LINE
  5
181
330
A
100
AcDbEntity
  8
LAYER_1
 62
     7
100
AcDbLine
 10
80.20595703124999
 20
133.5846110026042
 30
0.0
 11
81.84289415147569
 21
132.5984524197048
 31
0.0
  0
LINE
  5
180
330
A
100
AcDbEntity
  8
LAYER_1
 62
     7
100
AcDbLine
 10
112.9366034613715
 20
145.2745090060764
 30
0.0
 11
113.6929741753472
 21
144.885902235243
 31
0.0
  0
LINE
  5
17F
330
A
100
AcDbEntity
  8
LAYER_1
 62
     7
100
AcDbLine
 10
113.6929741753472
 20
144.885902235243
 30
0.0
 11
115.339557562934
 21
139.5677083333333
 31
0.0
  0
LWPOLYLINE
  5
17A
330
A
100
AcDbEntity
  8
LAYER_1
 62
     7
100
AcDbPolyline
 90
        3
 70
     0
 43
0.0
 10
115.3214708116319
 20
139.520166015625
 10
114.8277886284722
 20
138.9646443684896
 10
116.3365681966146
 20
138.2677015516493
  0
LINE
  5
179
330
A
100
AcDbEntity
  8
LAYER_1
 62
     7
100
AcDbLine
 10
116.3558607313368
 20
138.2490980360243
 30
0.0
 11
115.8871554904514
 21
137.7647176106771
 31
0.0
  0
LINE
  5
178
330
A
100
AcDbEntity
  8
LAYER_1
 62
     7
100
AcDbLine
 10
115.8873277452257
 20
137.7552435980903
 30
0.0
 11
117.8351847330729
 21
131.3876736111111
 31
0.0
  0
LINE
  5
177
330
A
100
AcDbEntity
  8
LAYER_1
 62
     7
100
AcDbLine
 10
117.8258829752604
 20
131.3687255859375
 30
0.0
 11
81.10650499131944
 21
124.5839545355903
 31
0.0
  0
LINE
  5
176
330
A
100
AcDbEntity
  8
LAYER_1
 62
     7
100
AcDbLine
 10
81.08721245659721
 20
124.6025580512153
 30
0.0
 11
80.29466824001736
 21
125.4135335286458
 31
0.0
  0
LINE
  5
175
330
A
100
AcDbEntity
  8
LAYER_1
 62
     7
100
AcDbLine
 10
80.29397922092014
 20
125.451429578993
 30
0.0
 11
80.25160454644096
 21
132.2486029730903
 31
0.0
  0
LWPOLYLINE
  5
16F
330
A
100
AcDbEntity
  8
LAYER_1
 62
     7
100
AcDbPolyline
 90
        4
 70
     0
 43
0.0
 10
80.22645534939235
 20
132.2086398654514
 10
80.31947292751735
 20
132.343170844184
 10
80.32119547526041
 20
132.4222357855903
 10
81.03140190972222
 20
133.0364963107639
  0
LINE
  5
16E
330
A
100
AcDbEntity
  8
LAYER_1
 62
     7
100
AcDbLine
 10
80.36994357638888
 20
140.6794406467014
 30
0.0
 11
81.03054063585068
 21
140.1507907443576
 31
0.0
  0
LINE
  5
16D
330
A
100
AcDbEntity
  8
LAYER_1
 62
     7
100
AcDbLine
 10
80.48673231336805
 20
140.5099419487847
 30
0.0
 11
80.49982367621527
 21
134.8561957465278
 31
0.0
  0
LINE
  5
16C
330
A
100
AcDbEntity
  8
LAYER_1
 62
     7
100
AcDbLine
 10
80.30052490234374
 20
134.9183797200521
 30
0.0
 11
80.96973470052083
 21
134.3571736653646
 31
0.0
  0
LINE
  5
16B
330
A
100
AcDbEntity
  8
LAYER_1
 62
     7
100
AcDbLine
 10
79.78238254123264
 20
134.0936238606771
 30
0.0
 11
80.48328721788194
 21
134.6915201822917
 31
0.0
  0
LINE
  5
16A
330
A
100
AcDbEntity
  8
LAYER_1
 62
     7
100
AcDbLine
 10
79.90795627170138
 20
133.966155327691
 30
0.0
 11
80.61695692274304
 21
134.5723198784722
 31
0.0
  0
LINE
  5
169
330
A
100
AcDbEntity
  8
LAYER_1
 62
     7
100
AcDbLine
 10
80.04162597656249
 20
133.837653266059
 30
0.0
 11
80.76664632161457
 21
134.468450249566
 31
0.0
  0
LINE
  5
168
330
A
100
AcDbEntity
  8
LAYER_1
 62
     7
100
AcDbLine
 10
80.2400634765625
 20
133.6691880967882
 30
0.0
 11
81.00521918402777
 21
134.3334025065104
 31
0.0
  0
LINE
  5
167
330
A
100
AcDbEntity
  8
LAYER_1
 62
     7
100
AcDbLine
 10
80.72909478081597
 20
134.622962782118
 30
0.0
 11
80.71789822048611
 21
140.3256293402778
 31
0.0
  0
LINE
  5
166
330
A
100
AcDbEntity
  8
LAYER_1
 62
     7
100
AcDbLine
 10
80.99850124782985
 20
140.1096218532986
 30
0.0
 11
81.00211859809028
 21
134.3659586588542
 31
0.0
  0
LINE
  5
165
330
A
100
AcDbEntity
  8
LAYER_1
 62
     7
100
AcDbLine
 10
80.33824869791665
 20
132.367975531684
 30
0.0
 11
80.96680636935763
 21
131.8034966362847
 31
0.0
  0
LINE
  5
164
330
A
100
AcDbEntity
  8
LAYER_1
 62
     7
100
AcDbLine
 10
81.82963053385416
 20
132.5750257703993
 30
0.0
 11
80.99867350260416
 21
131.8529337565104
 31
0.0
  0
LINE
  5
163
330
A
100
AcDbEntity
  8
LAYER_1
 62
     7
100
AcDbLine
 10
80.82521294487846
 20
131.9972832573785
 30
0.0
 11
81.63326009114583
 21
132.6945705837674
 31
0.0
  0
LINE
  5
162
330
A
100
AcDbEntity
  8
LAYER_1
 62
     7
100
AcDbLine
 10
80.73994683159721
 20
132.2489474826389
 30
0.0
 11
81.40881212022569
 21
132.8029188368055
 31
0.0
  0
LINE
  5
161
330
A
100
AcDbEntity
  8
LAYER_1
 62
     7
100
AcDbLine
 10
80.48656005859374
 20
132.2778862847222
 30
0.0
 11
81.2356960720486
 21
132.9252197265625
 31
0.0
  0
LINE
  5
160
330
A
100
AcDbEntity
  8
LAYER_1
 62
     7
100
AcDbLine
 10
81.00022379557291
 20
131.7469970703125
 30
0.0
 11
81.0308851453993
 21
124.7308878580729
 31
0.0
  0
LINE
  5
15F
330
A
100
AcDbEntity
  8
LAYER_1
 62
     7
100
AcDbLine
 10
80.78352728949652
 20
124.9884087456597
 30
0.0
 11
80.74459771050347
 21
131.9307929144965
 31
0.0
  0
LINE
  5
15E
330
A
100
AcDbEntity
  8
LAYER_1
 62
     7
100
AcDbLine
 10
80.51429307725694
 20
132.1393934461806
 30
0.0
 11
80.53651394314235
 21
125.2293931749132
 31
0.0
  0
LINE
  5
15D
330
A
100
AcDbEntity
  8
LAYER_1
 62
     7
100
AcDbLine
 10
81.07946099175346
 20
140.1583699544271
 30
0.0
 11
95.23725314670138
 21
142.1809855143229
 31
0.0
  0
LINE
  5
15C
330
A
100
AcDbEntity
  8
LAYER_1
 62
     7
100
AcDbLine
 10
95.21830512152776
 20
142.3683987087674
 30
0.0
 11
80.89738769531249
 21
140.3321750217014
 31
0.0
  0
LINE
  5
15B
330
A
100
AcDbEntity
  8
LAYER_1
 62
     7
100
AcDbLine
 10
80.66604953342014
 20
140.520793999566
 30
0.0
 11
95.11753607855901
 21
142.5625298394097
 31
0.0
  0
LINE
  5
15A
330
A
100
AcDbEntity
  8
LAYER_1
 62
     7
100
AcDbLine
 10
102.4042575412326
 20
143.5912353515625
 30
0.0
 11
113.0719957139757
 21
145.1201687282986
 31
0.0
  0
LINE
  5
159
330
A
100
AcDbEntity
  8
LAYER_1
 62
     7
100
AcDbLine
 10
102.4722981770833
 20
143.3965874565972
 30
0.0
 11
113.3898057725694
 21
144.9522203233507
 31
0.0
  0
LINE
  5
158
330
A
100
AcDbEntity
  8
LAYER_1
 62
     7
100
AcDbLine
 10
102.507610405816
 20
143.2270887586805
 30
0.0
 11
113.6450873480903
 21
144.8144165039062
 31
0.0
  0
INSERT
  5
153
330
A
100
AcDbEntity
  8
LAYER_1
 62
     7
100
AcDbBlockReference
  2
AI9-BLK52
 10
87.24075588650173
 20
126.7713317871094
 30
0.0
  0
INSERT
  5
14D
330
A
100
AcDbEntity
  8
LAYER_1
 62
     7
100
AcDbBlockReference
  2
AI9-BLK51
 10
87.26693861219617
 20
130.934901936849
 30
0.0
  0
INSERT
  5
147
330
A
100
AcDbEntity
  8
LAYER_1
 62
     7
100
AcDbBlockReference
  2
AI9-BLK50
 10
87.27804904513889
 20
134.9958082411024
 30
0.0
  0
INSERT
  5
141
330
A
100
AcDbEntity
  8
LAYER_1
 62
     7
100
AcDbBlockReference
  2
AI9-BLK49
 10
87.1764187282986
 20
137.5388054741754
 30
0.0
  0
INSERT
  5
13B
330
A
100
AcDbEntity
  8
LAYER_1
 62
     7
100
AcDbBlockReference
  2
AI9-BLK48
 10
81.96261121961805
 20
139.2877943250868
 30
0.0
  0
INSERT
  5
135
330
A
100
AcDbEntity
  8
LAYER_1
 62
     7
100
AcDbBlockReference
  2
AI9-BLK47
 10
87.18572048611111
 20
140.1288282606337
 30
0.0
  0
INSERT
  5
12F
330
A
100
AcDbEntity
  8
LAYER_1
 62
     7
100
AcDbBlockReference
  2
AI9-BLK46
 10
92.48126288519964
 20
140.8041531032986
 30
0.0
  0
INSERT
  5
129
330
A
100
AcDbEntity
  8
LAYER_1
 62
     7
100
AcDbBlockReference
  2
AI9-BLK45
 10
98.73307766384548
 20
142.8072177463108
 30
0.0
  0
INSERT
  5
123
330
A
100
AcDbEntity
  8
LAYER_1
 62
     7
100
AcDbBlockReference
  2
AI9-BLK44
 10
95.77701348198784
 20
140.4687730577257
 30
0.0
  0
INSERT
  5
11D
330
A
100
AcDbEntity
  8
LAYER_1
 62
     7
100
AcDbBlockReference
  2
AI9-BLK43
 10
98.43559366861979
 20
140.8739162868924
 30
0.0
  0
INSERT
  5
117
330
A
100
AcDbEntity
  8
LAYER_1
 62
     7
100
AcDbBlockReference
  2
AI9-BLK42
 10
101.0797905815972
 20
141.3017110188802
 30
0.0
  0
INSERT
  5
111
330
A
100
AcDbEntity
  8
LAYER_1
 62
     7
100
AcDbBlockReference
  2
AI9-BLK41
 10
96.9821078830295
 20
141.6526801215278
 30
0.0
  0
INSERT
  5
10B
330
A
100
AcDbEntity
  8
LAYER_1
 62
     7
100
AcDbBlockReference
  2
AI9-BLK40
 10
99.82146945529513
 20
142.1616929796007
 30
0.0
  0
INSERT
  5
105
330
A
100
AcDbEntity
  8
LAYER_1
 62
     7
100
AcDbBlockReference
  2
AI9-BLK39
 10
101.9921379937066
 20
142.4713209364149
 30
0.0
  0
INSERT
  5
FF
330
A
100
AcDbEntity
  8
LAYER_1
 62
     7
100
AcDbBlockReference
  2
AI9-BLK38
 10
95.54024929470485
 20
143.3838406032986
 30
0.0
  0
INSERT
  5
F9
330
A
100
AcDbEntity
  8
LAYER_1
 62
     7
100
AcDbBlockReference
  2
AI9-BLK37
 10
98.12880791558159
 20
143.672711859809
 30
0.0
  0
INSERT
  5
F3
330
A
100
AcDbEntity
  8
LAYER_1
 62
     7
100
AcDbBlockReference
  2
AI9-BLK36
 10
100.7655978732639
 20
144.0814724392361
 30
0.0
  0
INSERT
  5
ED
330
A
100
AcDbEntity
  8
LAYER_1
 62
     7
100
AcDbBlockReference
  2
AI9-BLK35
 10
96.71244303385416
 20
144.4332166883681
 30
0.0
  0
INSERT
  5
E7
330
A
100
AcDbEntity
  8
LAYER_1
 62
     7
100
AcDbBlockReference
  2
AI9-BLK34
 10
99.51261664496526
 20
144.8641981336805
 30
0.0
  0
INSERT
  5
E1
330
A
100
AcDbEntity
  8
LAYER_1
 62
     7
100
AcDbBlockReference
  2
AI9-BLK33
 10
101.7779391818576
 20
145.2378187391493
 30
0.0
  0
INSERT
  5
DB
330
A
100
AcDbEntity
  8
LAYER_1
 62
     7
100
AcDbBlockReference
  2
AI9-BLK32
 10
109.9429016113281
 20
130.8825364854601
 30
0.0
  0
INSERT
  5
D5
330
A
100
AcDbEntity
  8
LAYER_1
 62
     7
100
AcDbBlockReference
  2
AI9-BLK31
 10
109.9127570258247
 20
134.8742824978299
 30
0.0
  0
INSERT
  5
CF
330
A
100
AcDbEntity
  8
LAYER_1
 62
     7
100
AcDbBlockReference
  2
AI9-BLK30
 10
109.9141350640191
 20
138.5464959038629
 30
0.0
  0
INSERT
  5
C9
330
A
100
AcDbEntity
  8
LAYER_1
 62
     7
100
AcDbBlockReference
  2
AI9-BLK29
 10
109.9694288465712
 20
140.9384256998698
 30
0.0
  0
INSERT
  5
C3
330
A
100
AcDbEntity
  8
LAYER_1
 62
     7
100
AcDbBlockReference
  2
AI9-BLK28
 10
104.333597140842
 20
142.5938802083333
 30
0.0
  0
INSERT
  5
BD
330
A
100
AcDbEntity
  8
LAYER_1
 62
     7
100
AcDbBlockReference
  2
AI9-BLK27
 10
109.8800286187066
 20
143.3752278645833
 30
0.0
  0
INSERT
  5
70
330
A
100
AcDbEntity
  8
LAYER_1
 62
     7
100
AcDbBlockReference
  2
AI9-BLK14
 10
121.4991299099392
 20
146.1608459472656
 30
0.0
  0
INSERT
  5
23
330
A
100
AcDbEntity
  8
LAYER_1
 62
     7
100
AcDbBlockReference
  2
AI9-BLK1
 10
86.33882988823784
 20
141.4572570800781
 30
0.0
  0
ENDSEC
  0
SECTION
  2
OBJECTS
  0
DICTIONARY
  5
19
330
0
100
AcDbDictionary
281
     1
  3
ACAD_COLOR
350
2C5
  3
ACAD_GROUP
350
1A
  3
ACAD_LAYOUT
350
2C1
  3
ACAD_MATERIAL
350
2C7
  3
ACAD_MLINESTYLE
350
1B
  3
ACDBHEADERROUNDTRIPXREC
350
2C4
  0
DICTIONARY
  5
2C5
102
{ACAD_REACTORS
330
19
102
}
330
19
100
AcDbDictionary
281
     1
  0
DICTIONARY
  5
1A
102
{ACAD_REACTORS
330
19
102
}
330
19
100
AcDbDictionary
281
     1
  0
DICTIONARY
  5
2C1
102
{ACAD_REACTORS
330
19
102
}
330
19
100
AcDbDictionary
281
     1
  3
Layout1
350
2C3
  3
Model
350
2C2
  0
DICTIONARY
  5
2C7
102
{ACAD_REACTORS
330
19
102
}
330
19
100
AcDbDictionary
281
     1
  0
DICTIONARY
  5
1B
102
{ACAD_REACTORS
330
19
102
}
330
19
100
AcDbDictionary
281
     1
  3
STANDARD
350
1C
  0
DICTIONARY
  5
2C4
102
{ACAD_REACTORS
330
19
102
}
330
19
100
AcDbDictionary
281
     1
  3
COLORDICT
350
2C6
  3
MATERIALDICT
350
2C8
  0
LAYOUT
  5
2C3
102
{ACAD_REACTORS
330
2C1
102
}
102
{ACAD_XDICTIONARY
360
2C9
102
}
330
2C1
100
AcDbPlotSettings
  1

  2

  4

  6

 40
0.0
 41
0.0
 42
0.0
 43
0.0
 44
0.0
 45
0.0
 46
0.0
 47
0.0
 48
0.0
 49
0.0
140
0.0
141
0.0
142
1.0
143
1.0
 70
   688
 72
     0
 73
     0
 74
     5
  7

 75
    16
147
1.0
148
0.0
149
0.0
100
AcDbLayout
  1
Layout1
 70
     1
 71
     1
 10
0.0
 20
0.0
 11
0.0
 21
0.0
 12
0.0
 22
0.0
 32
0.0
 14
0.0
 24
0.0
 34
0.0
 15
0.0
 25
0.0
 35
0.0
146
0.0
 13
0.0
 23
0.0
 33
0.0
 16
1.0
 26
0.0
 36
0.0
 17
0.0
 27
1.0
 37
0.0
 76
     0
330
B
  0
LAYOUT
  5
2C2
102
{ACAD_REACTORS
330
2C1
102
}
102
{ACAD_XDICTIONARY
360
2CB
102
}
330
2C1
100
AcDbPlotSettings
  1

  2

  4

  6

 40
0.0
 41
0.0
 42
0.0
 43
0.0
 44
0.0
 45
0.0
 46
0.0
 47
0.0
 48
0.0
 49
0.0
140
0.0
141
0.0
142
1.0
143
1.0
 70
   688
 72
     0
 73
     0
 74
     5
  7

 75
    16
147
1.0
148
0.0
149
0.0
100
AcDbLayout
  1
Model
 70
     1
 71
     0
 10
0.0
 20
0.0
 11
0.0
 21
0.0
 12
0.0
 22
0.0
 32
0.0
 14
0.0
 24
0.0
 34
0.0
 15
0.0
 25
0.0
 35
0.0
146
0.0
 13
0.0
 23
0.0
 33
0.0
 16
1.0
 26
0.0
 36
0.0
 17
0.0
 27
1.0
 37
0.0
 76
     0
330
A
  0
MLINESTYLE
  5
1C
102
{ACAD_REACTORS
330
1B
102
}
330
1B
100
AcDbMlineStyle
  2
STANDARD
 70
     0
  3

 62
     0
 51
90.0000000000002
 52
90.0000000000002
 71
     2
 49
0.5
 62
   256
  6
BYLAYER
 49
-0.5
 62
   256
  6
BYLAYER
  0
XRECORD
  5
2C6
102
{ACAD_REACTORS
330
2C4
102
}
330
2C4
100
AcDbXrecord
340
2C5
  0
XRECORD
  5
2C8
102
{ACAD_REACTORS
330
2C4
102
}
330
2C4
100
AcDbXrecord
340
2C7
  0
DICTIONARY
  5
2C9
330
2C3
100
AcDbDictionary
280
     1
281
     1
  3
ACAD_XREC_ROUNDTRIP
360
2CA
  0
DICTIONARY
  5
2CB
330
2C2
100
AcDbDictionary
280
     1
281
     1
  3
ACAD_XREC_ROUNDTRIP
360
2CC
  0
XRECORD
  5
2CA
102
{ACAD_REACTORS
330
2C9
102
}
330
2C9
100
AcDbXrecord
102
SHADEPLOT
 70
     0
102
SHADEPLOTRESLEVEL
 70
     0
102
SHADEPLOTCUSTOMDPI
 70
     0
  0
XRECORD
  5
2CC
102
{ACAD_REACTORS
330
2CB
102
}
330
2CB
100
AcDbXrecord
102
SHADEPLOT
 70
-23928
102
SHADEPLOTRESLEVEL
 70
-24448
102
SHADEPLOTCUSTOMDPI
 70
 23008
  0
ENDSEC
  0
EOF
