  0
SECTION
  2
HEADER
  9
$ACADVER
  1
AC1015
  9
$ACADMAINTVER
 70
     6
  9
$DWGCODEPAGE
  3
ASCII
  9
$INSBASE
 10
0.0
 20
0.0
 30
0.0
  9
$EXTMIN
 10
0.997059
 20
1.740358
 30
0.0
  9
$EXTMAX
 10
7.638822
 20
8.601486
 30
0.0
  9
$LIMMIN
 10
0.0
 20
0.0
  9
$LIMMAX
 10
8.5
 20
11.0
  9
$ORTHOMODE
 70
     0
  9
$REGENMODE
 70
     1
  9
$FILLMODE
 70
     1
  9
$QTEXTMODE
 70
     0
  9
$MIRRTEXT
 70
     1
  9
$LTSCALE
 40
0.2
  9
$ATTMODE
 70
     1
  9
$TEXTSIZE
 40
0.22
  9
$TRACEWID
 40
0.05
  9
$TEXTSTYLE
  7
STANDARD
  9
$CLAYER
  8
0
  9
$CELTYPE
  6
ByLayer
  9
$CECOLOR
 62
   256
  9
$CELTSCALE
 40
1.0
  9
$DISPSILH
 70
     0
  9
$DIMSCALE
 40
1.0
  9
$DIMASZ
 40
0.2
  9
$DIMEXO
 40
0.0625
  9
$DIMDLI
 40
0.38
  9
$DIMRND
 40
0.0
  9
$DIMDLE
 40
0.0
  9
$DIMEXE
 40
0.075
  9
$DIMTP
 40
0.0
  9
$DIMTM
 40
0.0
  9
$DIMTXT
 40
0.1
  9
$DIMCEN
 40
0.09
  9
$DIMTSZ
 40
0.0
  9
$DIMTOL
 70
     0
  9
$DIMLIM
 70
     0
  9
$DIMTIH
 70
     0
  9
$DIMTOH
 70
     0
  9
$DIMSE1
 70
     0
  9
$DIMSE2
 70
     0
  9
$DIMTAD
 70
     1
  9
$DIMZIN
 70
     0
  9
$DIMBLK
  1

  9
$DIMASO
 70
     0
  9
$DIMSHO
 70
     1
  9
$DIMPOST
  1

  9
$DIMAPOST
  1

  9
$DIMALT
 70
     0
  9
$DIMALTD
 70
     2
  9
$DIMALTF
 40
25.4
  9
$DIMLFAC
 40
1.0
  9
$DIMTOFL
 70
     0
  9
$DIMTVP
 40
0.0
  9
$DIMTIX
 70
     0
  9
$DIMSOXD
 70
     0
  9
$DIMSAH
 70
     0
  9
$DIMBLK1
  1

  9
$DIMBLK2
  1

  9
$DIMSTYLE
  2
Standard
  9
$DIMCLRD
 70
     0
  9
$DIMCLRE
 70
     0
  9
$DIMCLRT
 70
     0
  9
$DIMTFAC
 40
1.0
  9
$DIMGAP
 40
0.09
  9
$DIMJUST
 70
     0
  9
$DIMSD1
 70
     0
  9
$DIMSD2
 70
     0
  9
$DIMTOLJ
 70
     1
  9
$DIMTZIN
 70
     0
  9
$DIMALTZ
 70
     0
  9
$DIMALTTZ
 70
     0
  9
$DIMUPT
 70
     0
  9
$DIMDEC
 70
     4
  9
$DIMTDEC
 70
     4
  9
$DIMALTU
 70
     2
  9
$DIMALTTD
 70
     2
  9
$DIMTXSTY
  7
STANDARD
  9
$DIMAUNIT
 70
     0
  9
$DIMADEC
 70
     0
  9
$DIMALTRND
 40
0.0
  9
$DIMAZIN
 70
     0
  9
$DIMDSEP
 70
    46
  9
$DIMATFIT
 70
     3
  9
$DIMFRAC
 70
     0
  9
$DIMLDRBLK
  1

  9
$DIMLUNIT
 70
     2
  9
$DIMLWD
 70
    -2
  9
$DIMLWE
 70
    -2
  9
$DIMTMOVE
 70
     0
  9
$LUNITS
 70
     2
  9
$LUPREC
 70
     4
  9
$SKETCHINC
 40
0.1
  9
$FILLETRAD
 40
0.01
  9
$AUNITS
 70
     0
  9
$AUPREC
 70
     0
  9
$MENU
  1
acad
  9
$ELEVATION
 40
0.0
  9
$PELEVATION
 40
0.0
  9
$THICKNESS
 40
0.0
  9
$LIMCHECK
 70
     0
  9
$CHAMFERA
 40
0.02
  9
$CHAMFERB
 40
0.02
  9
$CHAMFERC
 40
1.0
  9
$CHAMFERD
 40
0.0
  9
$SKPOLY
 70
     0
  9
$TDCREATE
 40
2453955.561391204
  9
$TDUCREATE
 40
2453955.894724537
  9
$TDUPDATE
 40
2453955.603057882
  9
$TDUUPDATE
 40
2453955.894724549
  9
$TDINDWG
 40
0.0000000116
  9
$TDUSRTIMER
 40
0.0000000116
  9
$USRTIMER
 70
     1
  9
$ANGBASE
 50
0.0
  9
$ANGDIR
 70
     0
  9
$PDMODE
 70
     0
  9
$PDSIZE
 40
0.0
  9
$PLINEWID
 40
0.0
  9
$SPLFRAME
 70
     0
  9
$SPLINETYPE
 70
     6
  9
$SPLINESEGS
 70
     8
  9
$HANDSEED
  5
602
  9
$SURFTAB1
 70
     6
  9
$SURFTAB2
 70
     6
  9
$SURFTYPE
 70
     6
  9
$SURFU
 70
     6
  9
$SURFV
 70
     6
  9
$UCSBASE
  2

  9
$UCSNAME
  2

  9
$UCSORG
 10
0.0
 20
0.0
 30
0.0
  9
$UCSXDIR
 10
1.0
 20
0.0
 30
0.0
  9
$UCSYDIR
 10
0.0
 20
1.0
 30
0.0
  9
$UCSORTHOREF
  2

  9
$UCSORTHOVIEW
 70
     0
  9
$UCSORGTOP
 10
0.0
 20
0.0
 30
0.0
  9
$UCSORGBOTTOM
 10
0.0
 20
0.0
 30
0.0
  9
$UCSORGLEFT
 10
0.0
 20
0.0
 30
0.0
  9
$UCSORGRIGHT
 10
0.0
 20
0.0
 30
0.0
  9
$UCSORGFRONT
 10
0.0
 20
0.0
 30
0.0
  9
$UCSORGBACK
 10
0.0
 20
0.0
 30
0.0
  9
$PUCSBASE
  2

  9
$PUCSNAME
  2

  9
$PUCSORG
 10
0.0
 20
0.0
 30
0.0
  9
$PUCSXDIR
 10
1.0
 20
0.0
 30
0.0
  9
$PUCSYDIR
 10
0.0
 20
1.0
 30
0.0
  9
$PUCSORTHOREF
  2

  9
$PUCSORTHOVIEW
 70
     0
  9
$PUCSORGTOP
 10
0.0
 20
0.0
 30
0.0
  9
$PUCSORGBOTTOM
 10
0.0
 20
0.0
 30
0.0
  9
$PUCSORGLEFT
 10
0.0
 20
0.0
 30
0.0
  9
$PUCSORGRIGHT
 10
0.0
 20
0.0
 30
0.0
  9
$PUCSORGFRONT
 10
0.0
 20
0.0
 30
0.0
  9
$PUCSORGBACK
 10
0.0
 20
0.0
 30
0.0
  9
$USERI1
 70
     0
  9
$USERI2
 70
     0
  9
$USERI3
 70
     0
  9
$USERI4
 70
     0
  9
$USERI5
 70
     0
  9
$USERR1
 40
0.0
  9
$USERR2
 40
0.0
  9
$USERR3
 40
0.0
  9
$USERR4
 40
0.0
  9
$USERR5
 40
0.0
  9
$WORLDVIEW
 70
     1
  9
$SHADEDGE
 70
     3
  9
$SHADEDIF
 70
    70
  9
$TILEMODE
 70
     1
  9
$MAXACTVP
 70
    16
  9
$PINSBASE
 10
0.0
 20
0.0
 30
0.0
  9
$PLIMCHECK
 70
     0
  9
$PEXTMIN
 10
1.000000000000000E+20
 20
1.000000000000000E+20
 30
1.000000000000000E+20
  9
$PEXTMAX
 10
-1.000000000000000E+20
 20
-1.000000000000000E+20
 30
-1.000000000000000E+20
  9
$PLIMMIN
 10
0.0
 20
0.0
  9
$PLIMMAX
 10
12.0
 20
9.0
  9
$UNITMODE
 70
     0
  9
$VISRETAIN
 70
     0
  9
$PLINEGEN
 70
     0
  9
$PSLTSCALE
 70
     1
  9
$TREEDEPTH
 70
  3020
  9
$CMLSTYLE
  2
Standard
  9
$CMLJUST
 70
     0
  9
$CMLSCALE
 40
1.0
  9
$PROXYGRAPHICS
 70
     1
  9
$MEASUREMENT
 70
     0
  9
$CELWEIGHT
370
    -1
  9
$ENDCAPS
280
     0
  9
$JOINSTYLE
280
     0
  9
$LWDISPLAY
290
     0
  9
$INSUNITS
 70
     1
  9
$HYPERLINKBASE
  1

  9
$STYLESHEET
  1

  9
$XEDIT
290
     1
  9
$CEPSNTYPE
380
     0
  9
$PSTYLEMODE
290
     0
  9
$FINGERPRINTGUID
  2
{FAEB1C30-E019-11D5-929B-00C0DF256EC4}
  9
$VERSIONGUID
  2
{FAEB1C32-E019-11D5-929B-00C0DF256EC4}
  9
$EXTNAMES
290
     1
  9
$PSVPSCALE
 40
0.0
  9
$OLESTARTUP
290
     0
  0
ENDSEC
  0
SECTION
  2
CLASSES
  0
CLASS
  1
ACDBDICTIONARYWDFLT
  2
AcDbDictionaryWithDefault
  3
AutoCAD 2000
 90
        0
280
     0
281
     0
  0
CLASS
  1
ACDBPLACEHOLDER
  2
AcDbPlaceHolder
  3
ObjectDBX Classes
 90
        0
280
     0
281
     0
  0
CLASS
  1
LAYOUT
  2
AcDbLayout
  3
ObjectDBX Classes
 90
        0
280
     0
281
     0
  0
ENDSEC
  0
SECTION
  2
TABLES
  0
TABLE
  2
VPORT
  5
8
330
0
100
AcDbSymbolTable
 70
     2
  0
VPORT
  5
1E
330
8
100
AcDbSymbolTableRecord
100
AcDbViewportTableRecord
  2
*ACTIVE
 70
     0
 10
0.0
 20
0.0
 11
1.0
 21
1.0
 12
7.630750605326877
 22
5.5
 13
0.0
 23
0.0
 14
1.0
 24
1.0
 15
0.0
 25
0.0
 16
0.0
 26
0.0
 36
1.0
 17
0.0
 27
0.0
 37
0.0
 40
11.0
 41
0.7207678883071553
 42
50.0
 43
0.0
 44
0.0
 50
0.0
 51
0.0
 71
     0
 72
  2000
 73
     1
 74
     0
 75
     0
 76
     0
 77
     0
 78
     0
281
     0
 65
     1
110
0.0
120
0.0
130
0.0
111
1.0
121
0.0
131
0.0
112
0.0
122
1.0
132
0.0
 79
     0
146
0.0
  0
ENDTAB
  0
TABLE
  2
LTYPE
  5
5
330
0
100
AcDbSymbolTable
 70
     1
  0
LTYPE
  5
10
330
5
100
AcDbSymbolTableRecord
100
AcDbLinetypeTableRecord
  2
ByBlock
 70
     0
  3

 72
    65
 73
     0
 40
0.0
  0
LTYPE
  5
11
330
5
100
AcDbSymbolTableRecord
100
AcDbLinetypeTableRecord
  2
ByLayer
 70
     0
  3

 72
    65
 73
     0
 40
0.0
  0
LTYPE
  5
1B
330
5
100
AcDbSymbolTableRecord
100
AcDbLinetypeTableRecord
  2
CONTINUOUS
 70
     0
  3
Solid line
 72
    65
 73
     0
 40
0.0
  0
ENDTAB
  0
TABLE
  2
LAYER
  5
2
330
0
100
AcDbSymbolTable
 70
     1
  0
LAYER
  5
1C
330
2
100
AcDbSymbolTableRecord
100
AcDbLayerTableRecord
  2
0
 70
     0
 62
     7
  6
CONTINUOUS
370
    -3
390
F
  0
ENDTAB
  0
TABLE
  2
STYLE
  5
3
330
0
100
AcDbSymbolTable
 70
     1
  0
STYLE
  5
21
330
3
100
AcDbSymbolTableRecord
100
AcDbTextStyleTableRecord
  2
STANDARD
 70
     0
 40
0.0
 41
1.0
 50
0.0
 71
     0
 42
0.22
  3
ROMANS.SHX
  4

  0
ENDTAB
  0
TABLE
  2
VIEW
  5
6
330
0
100
AcDbSymbolTable
 70
     1
  0
VIEW
  5
20
330
6
100
AcDbSymbolTableRecord
100
AcDbViewTableRecord
  2
1
 70
     0
 40
9.518711
 10
7.95274
 20
6.15346
 41
13.077108
 11
0.0
 21
0.0
 31
1.0
 12
0.0
 22
0.0
 32
0.0
 42
50.0
 43
0.0
 44
0.0
 50
0.0
 71
     0
281
     0
 72
     0
  0
ENDTAB
  0
TABLE
  2
UCS
  5
7
330
0
100
AcDbSymbolTable
 70
     0
  0
ENDTAB
  0
TABLE
  2
APPID
  5
9
330
0
100
AcDbSymbolTable
 70
     1
  0
APPID
  5
1F
330
9
100
AcDbSymbolTableRecord
100
AcDbRegAppTableRecord
  2
ACAD
 70
     0
  0
ENDTAB
  0
TABLE
  2
DIMSTYLE
  5
A
330
0
100
AcDbSymbolTable
 70
     1
100
AcDbDimStyleTable
  0
DIMSTYLE
105
22
330
A
100
AcDbSymbolTableRecord
100
AcDbDimStyleTableRecord
  2
Standard
 70
     0
  3

  4

340
21
  0
ENDTAB
  0
TABLE
  2
BLOCK_RECORD
  5
1
330
0
100
AcDbSymbolTable
 70
     0
  0
BLOCK_RECORD
  5
18
330
1
100
AcDbSymbolTableRecord
100
AcDbBlockTableRecord
  2
*Model_Space
340
19
  0
BLOCK_RECORD
  5
16
330
1
100
AcDbSymbolTableRecord
100
AcDbBlockTableRecord
  2
*Paper_Space
340
17
  0
ENDTAB
  0
ENDSEC
  0
SECTION
  2
BLOCKS
  0
BLOCK
  5
5F7
330
18
100
AcDbEntity
  8
0
100
AcDbBlockBegin
  2
*Model_Space
 70
     0
 10
0.0
 20
0.0
 30
0.0
  3
*Model_Space
  1

  4

  0
ENDBLK
  5
5F8
330
18
100
AcDbEntity
  8
0
100
AcDbBlockEnd
  0
BLOCK
  5
5F5
330
16
100
AcDbEntity
 67
     1
  8
0
100
AcDbBlockBegin
  2
*Paper_Space
 70
     0
 10
0.0
 20
0.0
 30
0.0
  3
*Paper_Space
  1

  4

  0
ENDBLK
  5
5F6
330
16
100
AcDbEntity
 67
     1
  8
0
100
AcDbBlockEnd
  0
ENDSEC
  0
SECTION
  2
ENTITIES
  0
LINE
  5
23
330
18
100
AcDbEntity
  8
0
100
AcDbLine
 10
7.013005000000001
 20
7.92548
 30
0.0
 11
7.013005000000001
 21
3.275912
 31
0.0
  0
LINE
  5
24
330
18
100
AcDbEntity
  8
0
100
AcDbLine
 10
7.013005000000001
 20
7.92548
 30
0.0
 11
3.46352
 21
8.331474999999999
 31
0.0
  0
LINE
  5
25
330
18
100
AcDbEntity
  8
0
100
AcDbLine
 10
7.013005000000001
 20
7.92548
 30
0.0
 11
7.638822
 21
8.277137
 31
0.0
  0
LINE
  5
26
330
18
100
AcDbEntity
  8
0
100
AcDbLine
 10
7.638822
 20
8.277137
 30
0.0
 11
7.638822
 21
4.455744
 31
0.0
  0
LINE
  5
27
330
18
100
AcDbEntity
  8
0
100
AcDbLine
 10
7.638822
 20
4.455744
 30
0.0
 11
7.620155000000001
 21
4.423658000000001
 31
0.0
  0
LINE
  5
28
330
18
100
AcDbEntity
  8
0
100
AcDbLine
 10
7.620155000000001
 20
4.423658000000001
 30
0.0
 11
7.583113000000001
 21
4.385535
 31
0.0
  0
LINE
  5
29
330
18
100
AcDbEntity
  8
0
100
AcDbLine
 10
7.583113000000001
 20
4.385535
 30
0.0
 11
7.552080999999999
 21
4.34442
 31
0.0
  0
LINE
  5
2A
330
18
100
AcDbEntity
  8
0
100
AcDbLine
 10
7.552080999999999
 20
4.34442
 30
0.0
 11
7.533064
 21
4.312339
 31
0.0
  0
LINE
  5
2B
330
18
100
AcDbEntity
  8
0
100
AcDbLine
 10
7.533064
 20
4.312339
 30
0.0
 11
7.505028
 21
4.294262000000001
 31
0.0
  0
LINE
  5
2C
330
18
100
AcDbEntity
  8
0
100
AcDbLine
 10
7.505028
 20
4.294262000000001
 30
0.0
 11
7.46497
 21
4.287177
 31
0.0
  0
LINE
  5
2D
330
18
100
AcDbEntity
  8
0
100
AcDbLine
 10
7.46497
 20
4.287177
 30
0.0
 11
7.44194
 21
4.273115
 31
0.0
  0
LINE
  5
2E
330
18
100
AcDbEntity
  8
0
100
AcDbLine
 10
7.44194
 20
4.273115
 30
0.0
 11
7.418921000000001
 21
4.22901
 31
0.0
  0
LINE
  5
2F
330
18
100
AcDbEntity
  8
0
100
AcDbLine
 10
7.418921000000001
 20
4.22901
 30
0.0
 11
7.399916
 21
4.162881
 31
0.0
  0
LINE
  5
30
330
18
100
AcDbEntity
  8
0
100
AcDbLine
 10
7.399916
 20
4.162881
 30
0.0
 11
7.383907000000001
 21
4.121794
 31
0.0
  0
LINE
  5
31
330
18
100
AcDbEntity
  8
0
100
AcDbLine
 10
7.383907000000001
 20
4.121794
 30
0.0
 11
7.352869
 21
4.095699
 31
0.0
  0
LINE
  5
32
330
18
100
AcDbEntity
  8
0
100
AcDbLine
 10
7.352869
 20
4.095699
 30
0.0
 11
7.319824000000001
 21
4.083621
 31
0.0
  0
LINE
  5
33
330
18
100
AcDbEntity
  8
0
100
AcDbLine
 10
7.319824000000001
 20
4.083621
 30
0.0
 11
7.292789999999999
 21
4.063542
 31
0.0
  0
LINE
  5
34
330
18
100
AcDbEntity
  8
0
100
AcDbLine
 10
7.292789999999999
 20
4.063542
 30
0.0
 11
7.262759
 21
4.022429
 31
0.0
  0
LINE
  5
35
330
18
100
AcDbEntity
  8
0
100
AcDbLine
 10
7.262759
 20
4.022429
 30
0.0
 11
7.252762
 21
3.971338
 31
0.0
  0
LINE
  5
36
330
18
100
AcDbEntity
  8
0
100
AcDbLine
 10
7.252762
 20
3.971338
 30
0.0
 11
7.256794
 21
3.900245
 31
0.0
  0
LINE
  5
37
330
18
100
AcDbEntity
  8
0
100
AcDbLine
 10
7.256794
 20
3.900245
 30
0.0
 11
7.245814
 21
3.797079
 31
0.0
  0
LINE
  5
38
330
18
100
AcDbEntity
  8
0
100
AcDbLine
 10
7.245814
 20
3.797079
 30
0.0
 11
7.206772999999999
 21
3.745934
 31
0.0
  0
LINE
  5
39
330
18
100
AcDbEntity
  8
0
100
AcDbLine
 10
7.206772999999999
 20
3.745934
 30
0.0
 11
7.166736
 21
3.678765
 31
0.0
  0
LINE
  5
3A
330
18
100
AcDbEntity
  8
0
100
AcDbLine
 10
7.166736
 20
3.678765
 30
0.0
 11
7.137703999999999
 21
3.645665
 31
0.0
  0
LINE
  5
3B
330
18
100
AcDbEntity
  8
0
100
AcDbLine
 10
7.137703999999999
 20
3.645665
 30
0.0
 11
7.098652
 21
3.626565
 31
0.0
  0
LINE
  5
3C
330
18
100
AcDbEntity
  8
0
100
AcDbLine
 10
7.098652
 20
3.626565
 30
0.0
 11
7.081635
 21
3.6025
 31
0.0
  0
LINE
  5
3D
330
18
100
AcDbEntity
  8
0
100
AcDbLine
 10
7.081635
 20
3.6025
 30
0.0
 11
7.075646000000001
 21
3.547411
 31
0.0
  0
LINE
  5
3E
330
18
100
AcDbEntity
  8
0
100
AcDbLine
 10
7.075646000000001
 20
3.547411
 30
0.0
 11
7.075663000000001
 21
3.49734
 31
0.0
  0
LINE
  5
3F
330
18
100
AcDbEntity
  8
0
100
AcDbLine
 10
7.075663000000001
 20
3.49734
 30
0.0
 11
7.066665
 21
3.454262
 31
0.0
  0
LINE
  5
40
330
18
100
AcDbEntity
  8
0
100
AcDbLine
 10
7.066665
 20
3.454262
 30
0.0
 11
7.040646000000001
 21
3.398135
 31
0.0
  0
LINE
  5
41
330
18
100
AcDbEntity
  8
0
100
AcDbLine
 10
7.040646000000001
 20
3.398135
 30
0.0
 11
7.013005000000001
 21
3.275912
 31
0.0
  0
LINE
  5
42
330
18
100
AcDbEntity
  8
0
100
AcDbLine
 10
7.638822
 20
8.277137
 30
0.0
 11
4.342747
 21
8.601486
 31
0.0
  0
LINE
  5
43
330
18
100
AcDbEntity
  8
0
100
AcDbLine
 10
4.342747
 20
8.601486
 30
0.0
 11
4.239597
 21
8.588275999999999
 31
0.0
  0
LINE
  5
44
330
18
100
AcDbEntity
  8
0
100
AcDbLine
 10
4.239597
 20
8.588275999999999
 30
0.0
 11
4.20054
 21
8.582195000000001
 31
0.0
  0
LINE
  5
45
330
18
100
AcDbEntity
  8
0
100
AcDbLine
 10
4.20054
 20
8.582195000000001
 30
0.0
 11
4.172507
 21
8.558109
 31
0.0
  0
LINE
  5
46
330
18
100
AcDbEntity
  8
0
100
AcDbLine
 10
4.172507
 20
8.558109
 30
0.0
 11
4.019287
 21
8.527782
 31
0.0
  0
LINE
  5
47
330
18
100
AcDbEntity
  8
0
100
AcDbLine
 10
4.019287
 20
8.527782
 30
0.0
 11
3.955193
 21
8.519652000000001
 31
0.0
  0
LINE
  5
48
330
18
100
AcDbEntity
  8
0
100
AcDbLine
 10
3.955193
 20
8.519652000000001
 30
0.0
 11
3.934168
 21
8.501586999999999
 31
0.0
  0
LINE
  5
49
330
18
100
AcDbEntity
  8
0
100
AcDbLine
 10
3.934168
 20
8.501586999999999
 30
0.0
 11
3.948198000000001
 21
8.477578999999999
 31
0.0
  0
LINE
  5
4A
330
18
100
AcDbEntity
  8
0
100
AcDbLine
 10
3.948198000000001
 20
8.477578999999999
 30
0.0
 11
3.976246
 21
8.458605
 31
0.0
  0
LINE
  5
4B
330
18
100
AcDbEntity
  8
0
100
AcDbLine
 10
3.976246
 20
8.458605
 30
0.0
 11
4.01531
 21
8.444657000000001
 31
0.0
  0
LINE
  5
4C
330
18
100
AcDbEntity
  8
0
100
AcDbLine
 10
4.01531
 20
8.444657000000001
 30
0.0
 11
4.060384
 21
8.428718
 31
0.0
  0
LINE
  5
4D
330
18
100
AcDbEntity
  8
0
100
AcDbLine
 10
4.060384
 20
8.428718
 30
0.0
 11
4.092437
 21
8.414758000000001
 31
0.0
  0
LINE
  5
4E
330
18
100
AcDbEntity
  8
0
100
AcDbLine
 10
4.092437
 20
8.414758000000001
 30
0.0
 11
4.107465
 21
8.399764999999999
 31
0.0
  0
LINE
  5
4F
330
18
100
AcDbEntity
  8
0
100
AcDbLine
 10
4.107465
 20
8.399764999999999
 30
0.0
 11
4.090444000000001
 21
8.384712
 31
0.0
  0
LINE
  5
50
330
18
100
AcDbEntity
  8
0
100
AcDbLine
 10
4.090444000000001
 20
8.384712
 30
0.0
 11
4.05239
 21
8.375629
 31
0.0
  0
LINE
  5
51
330
18
100
AcDbEntity
  8
0
100
AcDbLine
 10
4.05239
 20
8.375629
 30
0.0
 11
4.029353
 21
8.384598
 31
0.0
  0
LINE
  5
52
330
18
100
AcDbEntity
  8
0
100
AcDbLine
 10
4.029353
 20
8.384598
 30
0.0
 11
4.005312
 21
8.397572
 31
0.0
  0
LINE
  5
53
330
18
100
AcDbEntity
  8
0
100
AcDbLine
 10
4.005312
 20
8.397572
 30
0.0
 11
3.936204
 21
8.409461
 31
0.0
  0
LINE
  5
54
330
18
100
AcDbEntity
  8
0
100
AcDbLine
 10
3.936204
 20
8.409461
 30
0.0
 11
3.883124
 21
8.409362
 31
0.0
  0
LINE
  5
55
330
18
100
AcDbEntity
  8
0
100
AcDbLine
 10
3.883124
 20
8.409362
 30
0.0
 11
3.843065
 21
8.405282000000002
 31
0.0
  0
LINE
  5
56
330
18
100
AcDbEntity
  8
0
100
AcDbLine
 10
3.843065
 20
8.405282000000002
 30
0.0
 11
3.795995
 21
8.403192000000001
 31
0.0
  0
LINE
  5
57
330
18
100
AcDbEntity
  8
0
100
AcDbLine
 10
3.795995
 20
8.403192000000001
 30
0.0
 11
3.766951
 21
8.40414
 31
0.0
  0
LINE
  5
58
330
18
100
AcDbEntity
  8
0
100
AcDbLine
 10
3.766951
 20
8.40414
 30
0.0
 11
3.741909
 21
8.41611
 31
0.0
  0
LINE
  5
59
330
18
100
AcDbEntity
  8
0
100
AcDbLine
 10
3.741909
 20
8.41611
 30
0.0
 11
3.720875
 21
8.421078
 31
0.0
  0
LINE
  5
5A
330
18
100
AcDbEntity
  8
0
100
AcDbLine
 10
3.720875
 20
8.421078
 30
0.0
 11
3.666795
 21
8.416972
 31
0.0
  0
LINE
  5
5B
330
18
100
AcDbEntity
  8
0
100
AcDbLine
 10
3.666795
 20
8.416972
 30
0.0
 11
3.64176
 21
8.411919000000001
 31
0.0
  0
LINE
  5
5C
330
18
100
AcDbEntity
  8
0
100
AcDbLine
 10
3.64176
 20
8.411919000000001
 30
0.0
 11
3.629745
 21
8.400881
 31
0.0
  0
LINE
  5
5D
330
18
100
AcDbEntity
  8
0
100
AcDbLine
 10
3.629745
 20
8.400881
 30
0.0
 11
3.611729
 21
8.371805999999999
 31
0.0
  0
LINE
  5
5E
330
18
100
AcDbEntity
  8
0
100
AcDbLine
 10
3.611729
 20
8.371805999999999
 30
0.0
 11
3.576683
 21
8.352714000000001
 31
0.0
  0
LINE
  5
5F
330
18
100
AcDbEntity
  8
0
100
AcDbLine
 10
3.576683
 20
8.352714000000001
 30
0.0
 11
3.539629
 21
8.347638999999999
 31
0.0
  0
LINE
  5
60
330
18
100
AcDbEntity
  8
0
100
AcDbLine
 10
3.539629
 20
8.347638999999999
 30
0.0
 11
3.46352
 21
8.331474999999999
 31
0.0
  0
LINE
  5
61
330
18
100
AcDbEntity
  8
0
100
AcDbLine
 10
3.934168
 20
8.501586999999999
 30
0.0
 11
3.903139
 21
8.451459
 31
0.0
  0
LINE
  5
62
330
18
100
AcDbEntity
  8
0
100
AcDbLine
 10
3.903139
 20
8.451459
 30
0.0
 11
3.894135
 21
8.425406000000001
 31
0.0
  0
LINE
  5
63
330
18
100
AcDbEntity
  8
0
100
AcDbLine
 10
3.894135
 20
8.425406000000001
 30
0.0
 11
3.890133
 21
8.409375000000001
 31
0.0
  0
LINE
  5
64
330
18
100
AcDbEntity
  8
0
100
AcDbLine
 10
3.543603
 20
5.606774
 30
0.0
 11
4.464541000000001
 21
5.421602
 31
0.0
  0
LINE
  5
65
330
18
100
AcDbEntity
  8
0
100
AcDbLine
 10
6.455191
 20
5.021343
 30
0.0
 11
6.772567
 21
5.31034
 31
0.0
  0
LINE
  5
66
330
18
100
AcDbEntity
  8
0
100
AcDbLine
 10
6.772567
 20
5.31034
 30
0.0
 11
6.772567
 21
6.707309
 31
0.0
  0
LINE
  5
67
330
18
100
AcDbEntity
  8
0
100
AcDbLine
 10
6.772567
 20
6.707309
 30
0.0
 11
5.606222
 21
6.885459
 31
0.0
  0
LINE
  5
68
330
18
100
AcDbEntity
  8
0
100
AcDbLine
 10
3.384792
 20
7.224765
 30
0.0
 11
2.962226
 21
7.027703999999999
 31
0.0
  0
LINE
  5
69
330
18
100
AcDbEntity
  8
0
100
AcDbLine
 10
2.962226
 20
7.027703999999999
 30
0.0
 11
4.564257
 21
6.771164
 31
0.0
  0
LINE
  5
6A
330
18
100
AcDbEntity
  8
0
100
AcDbLine
 10
6.44266
 20
6.470367
 30
0.0
 11
6.455191
 21
5.021343
 31
0.0
  0
LINE
  5
6B
330
18
100
AcDbEntity
  8
0
100
AcDbLine
 10
6.44266
 20
6.470367
 30
0.0
 11
6.772567
 21
6.707309
 31
0.0
  0
LINE
  5
6C
330
18
100
AcDbEntity
  8
0
100
AcDbLine
 10
2.962226
 20
7.027703999999999
 30
0.0
 11
2.962226
 21
6.497939
 31
0.0
  0
LINE
  5
6D
330
18
100
AcDbEntity
  8
0
100
AcDbLine
 10
2.962226
 20
6.497939
 30
0.0
 11
3.074618
 21
6.398022
 31
0.0
  0
LINE
  5
6E
330
18
100
AcDbEntity
  8
0
100
AcDbLine
 10
3.074618
 20
6.398022
 30
0.0
 11
2.80126
 21
6.2453
 31
0.0
  0
LINE
  5
6F
330
18
100
AcDbEntity
  8
0
100
AcDbLine
 10
2.80126
 20
6.2453
 30
0.0
 11
2.962226
 21
6.129418
 31
0.0
  0
LINE
  5
70
330
18
100
AcDbEntity
  8
0
100
AcDbLine
 10
2.962226
 20
6.129418
 30
0.0
 11
2.962226
 21
5.91812
 31
0.0
  0
LINE
  5
71
330
18
100
AcDbEntity
  8
0
100
AcDbLine
 10
5.589112
 20
4.386841
 30
0.0
 11
5.589112
 21
4.589118
 31
0.0
  0
LINE
  5
72
330
18
100
AcDbEntity
  8
0
100
AcDbLine
 10
5.589112
 20
4.589118
 30
0.0
 11
2.682575
 21
2.019109
 31
0.0
  0
LINE
  5
73
330
18
100
AcDbEntity
  8
0
100
AcDbLine
 10
2.682575
 20
1.740358
 30
0.0
 11
2.682575
 21
2.019109
 31
0.0
  0
LINE
  5
74
330
18
100
AcDbEntity
  8
0
100
AcDbLine
 10
5.589112
 20
4.386841
 30
0.0
 11
4.306679
 21
3.21915
 31
0.0
  0
LINE
  5
75
330
18
100
AcDbEntity
  8
0
100
AcDbLine
 10
5.589112
 20
4.589118
 30
0.0
 11
5.120298
 21
4.695408000000001
 31
0.0
  0
LINE
  5
76
330
18
100
AcDbEntity
  8
0
100
AcDbLine
 10
5.120298
 20
4.695408000000001
 30
0.0
 11
4.226792
 21
3.956549
 31
0.0
  0
LINE
  5
77
330
18
100
AcDbEntity
  8
0
100
AcDbLine
 10
2.11265
 20
2.20832
 30
0.0
 11
2.283001
 21
2.151765
 31
0.0
  0
LINE
  5
78
330
18
100
AcDbEntity
  8
0
100
AcDbLine
 10
2.11265
 20
1.929569
 30
0.0
 11
2.22688
 21
1.891646
 31
0.0
  0
LINE
  5
79
330
18
100
AcDbEntity
  8
0
100
AcDbLine
 10
2.11265
 20
2.20832
 30
0.0
 11
2.11265
 21
1.929569
 31
0.0
  0
LINE
  5
7A
330
18
100
AcDbEntity
  8
0
100
AcDbLine
 10
5.354705
 20
4.642263
 30
0.0
 11
2.354189
 21
2.073102
 31
0.0
  0
LINE
  5
7B
330
18
100
AcDbEntity
  8
0
100
AcDbLine
 10
2.283001
 20
2.151765
 30
0.0
 11
2.22688
 21
2.046303
 31
0.0
  0
LINE
  5
7C
330
18
100
AcDbEntity
  8
0
100
AcDbLine
 10
2.22688
 20
2.046303
 30
0.0
 11
2.620443
 21
2.12915
 31
0.0
  0
LINE
  5
7D
330
18
100
AcDbEntity
  8
0
100
AcDbLine
 10
2.620443
 20
2.12915
 30
0.0
 11
2.56271
 21
2.058904
 31
0.0
  0
LINE
  5
7E
330
18
100
AcDbEntity
  8
0
100
AcDbLine
 10
2.22688
 20
1.767552
 30
0.0
 11
2.56271
 21
1.838246
 31
0.0
  0
LINE
  5
7F
330
18
100
AcDbEntity
  8
0
100
AcDbLine
 10
2.22688
 20
2.046303
 30
0.0
 11
2.22688
 21
1.767552
 31
0.0
  0
LINE
  5
80
330
18
100
AcDbEntity
  8
0
100
AcDbLine
 10
2.56271
 20
2.058904
 30
0.0
 11
2.56271
 21
1.780153
 31
0.0
  0
LINE
  5
81
330
18
100
AcDbEntity
  8
0
100
AcDbLine
 10
2.56271
 20
1.780153
 30
0.0
 11
2.682575
 21
1.740358
 31
0.0
  0
LINE
  5
82
330
18
100
AcDbEntity
  8
0
100
AcDbLine
 10
2.56271
 20
2.058904
 30
0.0
 11
2.682575
 21
2.019109
 31
0.0
  0
LINE
  5
83
330
18
100
AcDbEntity
  8
0
100
AcDbLine
 10
2.354189
 20
2.073102
 30
0.0
 11
2.354189
 21
1.794351
 31
0.0
  0
LINE
  5
84
330
18
100
AcDbEntity
  8
0
100
AcDbLine
 10
5.345358
 20
4.644382
 30
0.0
 11
4.100708
 21
3.578664
 31
0.0
  0
LINE
  5
85
330
18
100
AcDbEntity
  8
0
100
AcDbLine
 10
2.338512
 20
2.069802
 30
0.0
 11
2.338512
 21
1.791051
 31
0.0
  0
LINE
  5
86
330
18
100
AcDbEntity
  8
0
100
AcDbLine
 10
5.606222
 20
6.978535000000001
 30
0.0
 11
5.606222
 21
6.860358
 31
0.0
  0
LINE
  5
87
330
18
100
AcDbEntity
  8
0
100
AcDbLine
 10
5.606222
 20
6.860358
 30
0.0
 11
1.518978
 21
4.413335
 31
0.0
  0
LINE
  5
88
330
18
100
AcDbEntity
  8
0
100
AcDbLine
 10
1.518978
 20
4.413335
 30
0.0
 11
1.518978
 21
4.659683
 31
0.0
  0
LINE
  5
89
330
18
100
AcDbEntity
  8
0
100
AcDbLine
 10
1.518978
 20
4.659683
 30
0.0
 11
2.048751
 21
4.963908999999999
 31
0.0
  0
LINE
  5
8A
330
18
100
AcDbEntity
  8
0
100
AcDbLine
 10
4.755845
 20
6.35124
 30
0.0
 11
3.965258
 21
3.828244
 31
0.0
  0
LINE
  5
8B
330
18
100
AcDbEntity
  8
0
100
AcDbLine
 10
2.928563
 20
5.257251
 30
0.0
 11
3.920835
 21
3.821505
 31
0.0
  0
LINE
  5
8C
330
18
100
AcDbEntity
  8
0
100
AcDbLine
 10
2.685391
 20
5.111664
 30
0.0
 11
3.835561
 21
3.546416
 31
0.0
  0
LINE
  5
8D
330
18
100
AcDbEntity
  8
0
100
AcDbLine
 10
3.827025
 20
3.334203
 30
0.0
 11
3.853129
 21
3.468062
 31
0.0
  0
ARC
  5
8E
330
18
100
AcDbEntity
  8
0
100
AcDbCircle
 10
3.754978
 20
3.487202
 30
0.0
 40
0.1
100
AcDbArc
 50
348.965371
 51
36.309078
  0
LINE
  5
8F
330
18
100
AcDbEntity
  8
0
100
AcDbLine
 10
3.829395
 20
3.346355
 30
0.0
 11
2.338512
 21
2.069802
 31
0.0
  0
LINE
  5
90
330
18
100
AcDbEntity
  8
0
100
AcDbLine
 10
3.795971
 20
3.600294
 30
0.0
 11
2.11265
 21
2.20832
 31
0.0
  0
ARC
  5
91
330
18
100
AcDbEntity
  8
0
100
AcDbCircle
 10
3.941402
 20
3.835719
 30
0.0
 40
0.025
100
AcDbArc
 50
214.649124
 51
342.601483
  0
ARC
  5
92
330
18
100
AcDbEntity
  8
0
100
AcDbCircle
 10
3.858091
 20
3.669924
 30
0.0
 40
0.150542
100
AcDbArc
 50
349.254197
 51
35.325876
  0
ARC
  5
93
330
18
100
AcDbEntity
  8
0
100
AcDbCircle
 10
3.978704
 20
3.590728
 30
0.0
 40
0.038238
100
AcDbArc
 50
264.407555
 51
341.796812
  0
LINE
  5
94
330
18
100
AcDbEntity
  8
0
100
AcDbLine
 10
4.822651000000001
 20
6.391236
 30
0.0
 11
4.502962999999999
 21
5.313088
 31
0.0
  0
LINE
  5
95
330
18
100
AcDbEntity
  8
0
100
AcDbLine
 10
4.650235
 20
5.384264
 30
0.0
 11
6.455191
 21
5.021343
 31
0.0
  0
LINE
  5
96
330
18
100
AcDbEntity
  8
0
100
AcDbLine
 10
4.340569
 20
4.765414
 30
0.0
 11
4.327095
 21
4.719973
 31
0.0
  0
LINE
  5
97
330
18
100
AcDbEntity
  8
0
100
AcDbLine
 10
4.392999
 20
4.942235
 30
0.0
 11
4.37401
 21
4.878193
 31
0.0
  0
LINE
  5
98
330
18
100
AcDbEntity
  8
0
100
AcDbLine
 10
4.483269
 20
5.246671
 30
0.0
 11
4.41908
 21
5.030192
 31
0.0
  0
LINE
  5
99
330
18
100
AcDbEntity
  8
0
100
AcDbLine
 10
2.751153
 20
5.151035
 30
0.0
 11
3.220749
 21
4.501023
 31
0.0
  0
LINE
  5
9A
330
18
100
AcDbEntity
  8
0
100
AcDbLine
 10
3.263988
 20
4.441172
 30
0.0
 11
3.379992
 21
4.280599
 31
0.0
  0
LINE
  5
9B
330
18
100
AcDbEntity
  8
0
100
AcDbLine
 10
3.450058
 20
4.183614
 30
0.0
 11
3.484033
 21
4.136586
 31
0.0
  0
LINE
  5
9C
330
18
100
AcDbEntity
  8
0
100
AcDbLine
 10
2.526882
 20
5.016765
 30
0.0
 11
2.179558
 21
2.756218
 31
0.0
  0
LINE
  5
9D
330
18
100
AcDbEntity
  8
0
100
AcDbLine
 10
2.219126
 20
4.832512
 30
0.0
 11
1.897983
 21
3.184301
 31
0.0
  0
ARC
  5
9E
330
18
100
AcDbEntity
  8
0
100
AcDbCircle
 10
2.878055
 20
3.522306
 30
0.0
 40
1.036721
100
AcDbArc
 50
199.02817
 51
227.64231
  0
LINE
  5
9F
330
18
100
AcDbEntity
  8
0
100
AcDbLine
 10
2.302143
 20
4.882214
 30
0.0
 11
2.169687
 21
4.071801
 31
0.0
  0
LINE
  5
A0
330
18
100
AcDbEntity
  8
0
100
AcDbLine
 10
2.159274
 20
4.008091
 30
0.0
 11
2.128514
 21
3.819889
 31
0.0
  0
LINE
  5
A1
330
18
100
AcDbEntity
  8
0
100
AcDbLine
 10
2.116827
 20
3.748386
 30
0.0
 11
2.111116
 21
3.713444
 31
0.0
  0
LINE
  5
A2
330
18
100
AcDbEntity
  8
0
100
AcDbLine
 10
1.540751
 20
5.08258
 30
0.0
 11
0.997059
 21
4.791903
 31
0.0
  0
LINE
  5
A3
330
18
100
AcDbEntity
  8
0
100
AcDbLine
 10
0.997059
 20
4.791903
 30
0.0
 11
0.997059
 21
4.549549
 31
0.0
  0
LINE
  5
A4
330
18
100
AcDbEntity
  8
0
100
AcDbLine
 10
0.997059
 20
4.549549
 30
0.0
 11
1.152337
 21
4.509024
 31
0.0
  0
LINE
  5
A5
330
18
100
AcDbEntity
  8
0
100
AcDbLine
 10
0.997059
 20
4.791903
 30
0.0
 11
1.174314
 21
4.746998000000001
 31
0.0
  0
LINE
  5
A6
330
18
100
AcDbEntity
  8
0
100
AcDbLine
 10
1.174314
 20
4.746998000000001
 30
0.0
 11
1.152337
 21
4.667014
 31
0.0
  0
LINE
  5
A7
330
18
100
AcDbEntity
  8
0
100
AcDbLine
 10
1.152337
 20
4.667014
 30
0.0
 11
1.438743
 21
4.735642
 31
0.0
  0
LINE
  5
A8
330
18
100
AcDbEntity
  8
0
100
AcDbLine
 10
1.438743
 20
4.735642
 30
0.0
 11
1.388493
 21
4.692739
 31
0.0
  0
LINE
  5
A9
330
18
100
AcDbEntity
  8
0
100
AcDbLine
 10
1.152337
 20
4.420666000000001
 30
0.0
 11
1.388493
 21
4.477253
 31
0.0
  0
LINE
  5
AA
330
18
100
AcDbEntity
  8
0
100
AcDbLine
 10
1.152337
 20
4.667014
 30
0.0
 11
1.152337
 21
4.420666000000001
 31
0.0
  0
LINE
  5
AB
330
18
100
AcDbEntity
  8
0
100
AcDbLine
 10
1.388493
 20
4.692739
 30
0.0
 11
1.388493
 21
4.446391
 31
0.0
  0
LINE
  5
AC
330
18
100
AcDbEntity
  8
0
100
AcDbLine
 10
1.388493
 20
4.692739
 30
0.0
 11
1.518978
 21
4.659683
 31
0.0
  0
LINE
  5
AD
330
18
100
AcDbEntity
  8
0
100
AcDbLine
 10
1.389389
 20
4.447156
 30
0.0
 11
1.518978
 21
4.413335
 31
0.0
  0
LINE
  5
AE
330
18
100
AcDbEntity
  8
0
100
AcDbLine
 10
1.79329
 20
5.023586
 30
0.0
 11
1.223877
 21
4.684156
 31
0.0
  0
LINE
  5
AF
330
18
100
AcDbEntity
  8
0
100
AcDbLine
 10
1.223877
 20
4.684156
 30
0.0
 11
1.223877
 21
4.437808
 31
0.0
  0
LINE
  5
B0
330
18
100
AcDbEntity
  8
0
100
AcDbLine
 10
1.779259
 20
5.026863
 30
0.0
 11
1.191219
 21
4.676330999999999
 31
0.0
  0
LINE
  5
B1
330
18
100
AcDbEntity
  8
0
100
AcDbLine
 10
1.191219
 20
4.676330999999999
 30
0.0
 11
1.191219
 21
4.429983
 31
0.0
  0
LINE
  5
B2
330
18
100
AcDbEntity
  8
0
100
AcDbLine
 10
5.161423
 20
7.350471000000001
 30
0.0
 11
5.161423
 21
7.091867
 31
0.0
  0
LINE
  5
B3
330
18
100
AcDbEntity
  8
0
100
AcDbLine
 10
5.161423
 20
7.091867
 30
0.0
 11
1.540751
 21
5.147412999999999
 31
0.0
  0
LINE
  5
B4
330
18
100
AcDbEntity
  8
0
100
AcDbLine
 10
1.540751
 20
5.147412999999999
 30
0.0
 11
1.540751
 21
5.08258
 31
0.0
  0
LINE
  5
B5
330
18
100
AcDbEntity
  8
0
100
AcDbLine
 10
1.540751
 20
5.147412999999999
 30
0.0
 11
2.110656
 21
5.014281
 31
0.0
  0
LINE
  5
B6
330
18
100
AcDbEntity
  8
0
100
AcDbLine
 10
2.110656
 20
5.014281
 30
0.0
 11
5.672296
 21
7.051761
 31
0.0
  0
LINE
  5
B7
330
18
100
AcDbEntity
  8
0
100
AcDbLine
 10
5.672296
 20
7.051761
 30
0.0
 11
5.672296
 21
7.35583
 31
0.0
  0
LINE
  5
B8
330
18
100
AcDbEntity
  8
0
100
AcDbLine
 10
2.110656
 20
5.014281
 30
0.0
 11
2.110656
 21
4.949448
 31
0.0
  0
LINE
  5
B9
330
18
100
AcDbEntity
  8
0
100
AcDbLine
 10
1.540751
 20
5.08258
 30
0.0
 11
2.110656
 21
4.949448
 31
0.0
  0
LINE
  5
BA
330
18
100
AcDbEntity
  8
0
100
AcDbLine
 10
2.110656
 20
4.949448
 30
0.0
 11
5.702296
 21
7.037346
 31
0.0
  0
LINE
  5
BB
330
18
100
AcDbEntity
  8
0
100
AcDbLine
 10
5.702296
 20
7.037346
 30
0.0
 11
5.702296
 21
7.378831
 31
0.0
  0
LINE
  5
BC
330
18
100
AcDbEntity
  8
0
100
AcDbLine
 10
5.587468
 20
7.026792
 30
0.0
 11
5.161423
 21
7.091867
 31
0.0
  0
LINE
  5
BD
330
18
100
AcDbEntity
  8
0
100
AcDbLine
 10
5.587468
 20
7.328061999999999
 30
0.0
 11
5.587468
 21
7.026792
 31
0.0
  0
LINE
  5
BE
330
18
100
AcDbEntity
  8
0
100
AcDbLine
 10
5.268797
 20
6.658343
 30
0.0
 11
6.44266
 21
6.470367
 31
0.0
  0
LINE
  5
BF
330
18
100
AcDbEntity
  8
0
100
AcDbLine
 10
4.960682
 20
6.98406
 30
0.0
 11
3.384792
 21
7.224765
 31
0.0
  0
LINE
  5
C0
330
18
100
AcDbEntity
  8
0
100
AcDbLine
 10
5.587468
 20
7.026792
 30
0.0
 11
5.65627
 21
7.06615
 31
0.0
  0
LINE
  5
C1
330
18
100
AcDbEntity
  8
0
100
AcDbLine
 10
5.587468
 20
7.328061999999999
 30
0.0
 11
5.65627
 21
7.367421
 31
0.0
  0
LINE
  5
C2
330
18
100
AcDbEntity
  8
0
100
AcDbLine
 10
5.65627
 20
7.06615
 30
0.0
 11
5.65627
 21
7.367421
 31
0.0
  0
LINE
  5
C3
330
18
100
AcDbEntity
  8
0
100
AcDbLine
 10
5.550951
 20
7.301307
 30
0.0
 11
5.116352
 21
7.356160000000001
 31
0.0
  0
LINE
  5
C4
330
18
100
AcDbEntity
  8
0
100
AcDbLine
 10
5.116352
 20
7.356160000000001
 30
0.0
 11
5.116352
 21
7.402464
 31
0.0
  0
LINE
  5
C5
330
18
100
AcDbEntity
  8
0
100
AcDbLine
 10
5.133238
 20
7.429446
 30
0.0
 11
5.201715
 21
7.462728
 31
0.0
  0
LINE
  5
C6
330
18
100
AcDbEntity
  8
0
100
AcDbLine
 10
5.218007
 20
7.465577000000001
 30
0.0
 11
5.674399
 21
7.416956
 31
0.0
  0
LINE
  5
C7
330
18
100
AcDbEntity
  8
0
100
AcDbLine
 10
5.550951
 20
7.301307
 30
0.0
 11
5.550951
 21
7.343818
 31
0.0
  0
LINE
  5
C8
330
18
100
AcDbEntity
  8
0
100
AcDbLine
 10
5.585986
 20
7.340938
 30
0.0
 11
5.642365
 21
7.373189999999999
 31
0.0
  0
LINE
  5
C9
330
18
100
AcDbEntity
  8
0
100
AcDbLine
 10
5.580951
 20
7.318469
 30
0.0
 11
5.580951
 21
7.332258
 31
0.0
  0
LINE
  5
CA
330
18
100
AcDbEntity
  8
0
100
AcDbLine
 10
5.566055
 20
7.369858
 30
0.0
 11
5.642434
 21
7.413552
 31
0.0
  0
LINE
  5
CB
330
18
100
AcDbEntity
  8
0
100
AcDbLine
 10
5.550951
 20
7.301307
 30
0.0
 11
5.580951
 21
7.318469
 31
0.0
  0
ARC
  5
CC
330
18
100
AcDbEntity
  8
0
100
AcDbCircle
 10
5.662296
 20
7.378831
 30
0.0
 40
0.04
100
AcDbArc
 50
0.0
 51
119.772246
  0
ARC
  5
CD
330
18
100
AcDbEntity
  8
0
100
AcDbCircle
 10
5.652296
 20
7.35583
 30
0.0
 40
0.02
100
AcDbArc
 50
0.0
 51
119.772246
  0
LINE
  5
CE
330
18
100
AcDbEntity
  8
0
100
AcDbLine
 10
5.515042
 20
7.365751
 30
0.0
 11
5.164989
 21
7.409933000000001
 31
0.0
  0
LINE
  5
CF
330
18
100
AcDbEntity
  8
0
100
AcDbLine
 10
5.587468
 20
7.328061999999999
 30
0.0
 11
5.580951
 21
7.329058
 31
0.0
  0
LINE
  5
D0
330
18
100
AcDbEntity
  8
0
100
AcDbLine
 10
5.65627
 20
7.367421
 30
0.0
 11
5.637336
 21
7.370313
 31
0.0
  0
LINE
  5
D1
330
18
100
AcDbEntity
  8
0
100
AcDbLine
 10
2.56271
 20
2.007872
 30
0.0
 11
2.682575
 21
1.965027
 31
0.0
  0
LINE
  5
D2
330
18
100
AcDbEntity
  8
0
100
AcDbLine
 10
2.56271
 20
1.859661
 30
0.0
 11
2.682575
 21
1.822832
 31
0.0
  0
LINE
  5
D3
330
18
100
AcDbEntity
  8
0
100
AcDbLine
 10
2.56271
 20
1.929757
 30
0.0
 11
2.682575
 21
1.892929
 31
0.0
  0
LINE
  5
D4
330
18
100
AcDbEntity
  8
0
100
AcDbLine
 10
2.22688
 20
1.99223
 30
0.0
 11
2.338512
 21
2.001424
 31
0.0
  0
LINE
  5
D5
330
18
100
AcDbEntity
  8
0
100
AcDbLine
 10
2.22688
 20
1.938156
 30
0.0
 11
2.338512
 21
1.943355
 31
0.0
  0
LINE
  5
D6
330
18
100
AcDbEntity
  8
0
100
AcDbLine
 10
2.22688
 20
1.856045
 30
0.0
 11
2.338512
 21
1.866898
 31
0.0
  0
LINE
  5
D7
330
18
100
AcDbEntity
  8
0
100
AcDbLine
 10
2.354189
 20
1.868422
 30
0.0
 11
2.56271
 21
1.888693
 31
0.0
  0
LINE
  5
D8
330
18
100
AcDbEntity
  8
0
100
AcDbLine
 10
2.354189
 20
1.944085
 30
0.0
 11
2.56271
 21
1.953796
 31
0.0
  0
LINE
  5
D9
330
18
100
AcDbEntity
  8
0
100
AcDbLine
 10
2.354189
 20
2.002716
 30
0.0
 11
2.56271
 21
2.019889
 31
0.0
  0
LINE
  5
DA
330
18
100
AcDbEntity
  8
0
100
AcDbLine
 10
2.11265
 20
2.145235
 30
0.0
 11
2.162753
 21
2.132306
 31
0.0
  0
LINE
  5
DB
330
18
100
AcDbEntity
  8
0
100
AcDbLine
 10
2.162753
 20
2.132306
 30
0.0
 11
2.195808
 21
2.116344
 31
0.0
  0
LINE
  5
DC
330
18
100
AcDbEntity
  8
0
100
AcDbLine
 10
2.195808
 20
2.116344
 30
0.0
 11
2.24917
 21
2.08819
 31
0.0
  0
LINE
  5
DD
330
18
100
AcDbEntity
  8
0
100
AcDbLine
 10
2.11265
 20
2.069125
 30
0.0
 11
2.22688
 21
2.033279
 31
0.0
  0
LINE
  5
DE
330
18
100
AcDbEntity
  8
0
100
AcDbLine
 10
2.11265
 20
2.003027
 30
0.0
 11
2.22688
 21
1.960194
 31
0.0
  0
LINE
  5
DF
330
18
100
AcDbEntity
  8
0
100
AcDbLine
 10
1.388493
 20
4.6354
 30
0.0
 11
1.518978
 21
4.602595
 31
0.0
  0
LINE
  5
E0
330
18
100
AcDbEntity
  8
0
100
AcDbLine
 10
1.388493
 20
4.515232
 30
0.0
 11
1.518978
 21
4.479421
 31
0.0
  0
LINE
  5
E1
330
18
100
AcDbEntity
  8
0
100
AcDbLine
 10
1.388493
 20
4.576328
 30
0.0
 11
1.518978
 21
4.53751
 31
0.0
  0
LINE
  5
E2
330
18
100
AcDbEntity
  8
0
100
AcDbLine
 10
1.152337
 20
4.601929
 30
0.0
 11
1.191219
 21
4.608265
 31
0.0
  0
LINE
  5
E3
330
18
100
AcDbEntity
  8
0
100
AcDbLine
 10
1.152337
 20
4.543849
 30
0.0
 11
1.191219
 21
4.550021
 31
0.0
  0
LINE
  5
E4
330
18
100
AcDbEntity
  8
0
100
AcDbLine
 10
1.152337
 20
4.483757
 30
0.0
 11
1.191219
 21
4.489268
 31
0.0
  0
LINE
  5
E5
330
18
100
AcDbEntity
  8
0
100
AcDbLine
 10
1.223877
 20
4.493896
 30
0.0
 11
1.388493
 21
4.517227
 31
0.0
  0
LINE
  5
E6
330
18
100
AcDbEntity
  8
0
100
AcDbLine
 10
1.223877
 20
4.555205
 30
0.0
 11
1.388493
 21
4.581335
 31
0.0
  0
LINE
  5
E7
330
18
100
AcDbEntity
  8
0
100
AcDbLine
 10
1.223877
 20
4.613587
 30
0.0
 11
1.388493
 21
4.640411
 31
0.0
  0
LINE
  5
E8
330
18
100
AcDbEntity
  8
0
100
AcDbLine
 10
0.997059
 20
4.735831
 30
0.0
 11
1.15748
 21
4.685734
 31
0.0
  0
LINE
  5
E9
330
18
100
AcDbEntity
  8
0
100
AcDbLine
 10
0.997059
 20
4.673739
 30
0.0
 11
1.152337
 21
4.626955000000001
 31
0.0
  0
LINE
  5
EA
330
18
100
AcDbEntity
  8
0
100
AcDbLine
 10
0.997059
 20
4.603633
 30
0.0
 11
1.152337
 21
4.559858999999999
 31
0.0
  0
LINE
  5
EB
330
18
100
AcDbEntity
  8
0
100
AcDbLine
 10
5.324730000000001
 20
7.254403
 30
0.0
 11
5.264495
 21
7.219872000000001
 31
0.0
  0
LINE
  5
EC
330
18
100
AcDbEntity
  8
0
100
AcDbLine
 10
5.264495
 20
7.219872000000001
 30
0.0
 11
5.264495
 21
7.19272
 31
0.0
  0
LINE
  5
ED
330
18
100
AcDbEntity
  8
0
100
AcDbLine
 10
5.295966
 20
7.114419
 30
0.0
 11
5.324730000000001
 21
7.092174000000001
 31
0.0
  0
LINE
  5
EE
330
18
100
AcDbEntity
  8
0
100
AcDbLine
 10
5.324730000000001
 20
7.092174000000001
 30
0.0
 11
5.384964
 21
7.125702
 31
0.0
  0
LINE
  5
EF
330
18
100
AcDbEntity
  8
0
100
AcDbLine
 10
5.384964
 20
7.125702
 30
0.0
 11
5.384964
 21
7.206817
 31
0.0
  0
LINE
  5
F0
330
18
100
AcDbEntity
  8
0
100
AcDbLine
 10
5.384964
 20
7.206817
 30
0.0
 11
5.324730000000001
 21
7.254403
 31
0.0
  0
LINE
  5
F1
330
18
100
AcDbEntity
  8
0
100
AcDbLine
 10
5.384964
 20
7.125702
 30
0.0
 11
5.425748000000001
 21
7.149033
 31
0.0
  0
LINE
  5
F2
330
18
100
AcDbEntity
  8
0
100
AcDbLine
 10
5.425748000000001
 20
7.149033
 30
0.0
 11
5.425748000000001
 21
7.230148
 31
0.0
  0
LINE
  5
F3
330
18
100
AcDbEntity
  8
0
100
AcDbLine
 10
5.425748000000001
 20
7.230148
 30
0.0
 11
5.365514
 21
7.277734
 31
0.0
  0
LINE
  5
F4
330
18
100
AcDbEntity
  8
0
100
AcDbLine
 10
5.365514
 20
7.277734
 30
0.0
 11
5.324766
 21
7.254374
 31
0.0
  0
LINE
  5
F5
330
18
100
AcDbEntity
  8
0
100
AcDbLine
 10
5.384964
 20
7.206817
 30
0.0
 11
5.425748000000001
 21
7.230148
 31
0.0
  0
LINE
  5
F6
330
18
100
AcDbEntity
  8
0
100
AcDbLine
 10
5.266245
 20
7.193485000000001
 30
0.0
 11
5.309982
 21
7.215292999999999
 31
0.0
  0
LINE
  5
F7
330
18
100
AcDbEntity
  8
0
100
AcDbLine
 10
5.33426
 20
7.133467
 30
0.0
 11
5.289619999999999
 21
7.111262
 31
0.0
  0
LINE
  5
F8
330
18
100
AcDbEntity
  8
0
100
AcDbLine
 10
4.160412
 20
3.289703
 30
0.0
 11
4.214623000000001
 21
3.33253
 31
0.0
  0
LINE
  5
F9
330
18
100
AcDbEntity
  8
0
100
AcDbLine
 10
4.214623000000001
 20
3.33253
 30
0.0
 11
4.251296
 21
3.311506
 31
0.0
  0
LINE
  5
FA
330
18
100
AcDbEntity
  8
0
100
AcDbLine
 10
4.251329
 20
3.311532
 30
0.0
 11
4.305540000000001
 21
3.280455
 31
0.0
  0
LINE
  5
FB
330
18
100
AcDbEntity
  8
0
100
AcDbLine
 10
4.197118
 20
3.268705
 30
0.0
 11
4.251329
 21
3.311532
 31
0.0
  0
LINE
  5
FC
330
18
100
AcDbEntity
  8
0
100
AcDbLine
 10
4.197118
 20
3.195702
 30
0.0
 11
4.197118
 21
3.268705
 31
0.0
  0
LINE
  5
FD
330
18
100
AcDbEntity
  8
0
100
AcDbLine
 10
4.251329
 20
3.165526
 30
0.0
 11
4.197118
 21
3.195702
 31
0.0
  0
LINE
  5
FE
330
18
100
AcDbEntity
  8
0
100
AcDbLine
 10
4.160412
 20
3.2167
 30
0.0
 11
4.160412
 21
3.289703
 31
0.0
  0
LINE
  5
FF
330
18
100
AcDbEntity
  8
0
100
AcDbLine
 10
4.197118
 20
3.268705
 30
0.0
 11
4.160412
 21
3.289703
 31
0.0
  0
LINE
  5
100
330
18
100
AcDbEntity
  8
0
100
AcDbLine
 10
4.197118
 20
3.195702
 30
0.0
 11
4.160412
 21
3.2167
 31
0.0
  0
LINE
  5
101
330
18
100
AcDbEntity
  8
0
100
AcDbLine
 10
4.242751999999999
 20
3.20269
 30
0.0
 11
4.270892
 21
3.188692
 31
0.0
  0
LINE
  5
102
330
18
100
AcDbEntity
  8
0
100
AcDbLine
 10
4.294873
 20
3.261239
 30
0.0
 11
4.264602
 21
3.276334
 31
0.0
  0
LINE
  5
103
330
18
100
AcDbEntity
  8
0
100
AcDbLine
 10
4.305540000000001
 20
3.280455
 30
0.0
 11
4.305540000000001
 21
3.246578
 31
0.0
  0
LINE
  5
104
330
18
100
AcDbEntity
  8
0
100
AcDbLine
 10
4.279025
 20
3.186946
 30
0.0
 11
4.251329
 21
3.165526
 31
0.0
  0
LINE
  5
105
330
18
100
AcDbEntity
  8
0
100
AcDbLine
 10
4.24913
 20
3.16675
 30
0.0
 11
2.682575
 21
1.740358
 31
0.0
  0
LINE
  5
106
330
18
100
AcDbEntity
  8
0
100
AcDbLine
 10
2.745109
 20
5.288859
 30
0.0
 11
2.755521
 21
5.288864
 31
0.0
  0
LINE
  5
107
330
18
100
AcDbEntity
  8
0
100
AcDbLine
 10
2.74542
 20
5.200737999999999
 30
0.0
 11
2.756396
 21
5.20076
 31
0.0
  0
LINE
  5
108
330
18
100
AcDbEntity
  8
0
100
AcDbLine
 10
1.707406
 20
5.179023
 30
0.0
 11
1.707405
 21
5.189206
 31
0.0
  0
LINE
  5
109
330
18
100
AcDbEntity
  8
0
100
AcDbLine
 10
1.816061
 20
5.165236
 30
0.0
 11
1.816091
 21
5.176019
 31
0.0
  0
LINE
  5
10A
330
18
100
AcDbEntity
  8
0
100
AcDbLine
 10
2.088703
 20
5.101545
 30
0.0
 11
2.088734
 21
5.112329
 31
0.0
  0
LINE
  5
10B
330
18
100
AcDbEntity
  8
0
100
AcDbLine
 10
1.980048
 20
5.115333000000001
 30
0.0
 11
1.980047
 21
5.125516
 31
0.0
  0
LINE
  5
10C
330
18
100
AcDbEntity
  8
0
100
AcDbLine
 10
2.414627
 20
5.326436
 30
0.0
 11
2.414627
 21
5.33662
 31
0.0
  0
LINE
  5
10D
330
18
100
AcDbEntity
  8
0
100
AcDbLine
 10
2.523282
 20
5.312649
 30
0.0
 11
2.523313
 21
5.323433000000001
 31
0.0
  0
LINE
  5
10E
330
18
100
AcDbEntity
  8
0
100
AcDbLine
 10
2.25064
 20
5.376339
 30
0.0
 11
2.250671
 21
5.387123
 31
0.0
  0
LINE
  5
10F
330
18
100
AcDbEntity
  8
0
100
AcDbLine
 10
2.141985
 20
5.390127
 30
0.0
 11
2.141985
 21
5.40031
 31
0.0
  0
LINE
  5
110
330
18
100
AcDbEntity
  8
0
100
AcDbLine
 10
2.491428
 20
5.602369
 30
0.0
 11
2.491427
 21
5.612349
 31
0.0
  0
LINE
  5
111
330
18
100
AcDbEntity
  8
0
100
AcDbLine
 10
2.59791
 20
5.588857
 30
0.0
 11
2.59794
 21
5.599426
 31
0.0
  0
LINE
  5
112
330
18
100
AcDbEntity
  8
0
100
AcDbLine
 10
2.86019
 20
5.530357
 30
0.0
 11
2.86022
 21
5.540926
 31
0.0
  0
LINE
  5
113
330
18
100
AcDbEntity
  8
0
100
AcDbLine
 10
2.753708
 20
5.543869
 30
0.0
 11
2.753708
 21
5.553849
 31
0.0
  0
LINE
  5
114
330
18
100
AcDbEntity
  8
0
100
AcDbLine
 10
3.011968
 20
5.787568
 30
0.0
 11
3.011997
 21
5.797925
 31
0.0
  0
LINE
  5
115
330
18
100
AcDbEntity
  8
0
100
AcDbLine
 10
2.907616
 20
5.80081
 30
0.0
 11
2.907615
 21
5.81059
 31
0.0
  0
LINE
  5
116
330
18
100
AcDbEntity
  8
0
100
AcDbLine
 10
3.269003
 20
5.730238
 30
0.0
 11
3.269032
 21
5.740595
 31
0.0
  0
LINE
  5
117
330
18
100
AcDbEntity
  8
0
100
AcDbLine
 10
3.16465
 20
5.74348
 30
0.0
 11
3.16465
 21
5.75326
 31
0.0
  0
LINE
  5
118
330
18
100
AcDbEntity
  8
0
100
AcDbLine
 10
3.330755
 20
5.981082
 30
0.0
 11
3.330784
 21
5.991232
 31
0.0
  0
LINE
  5
119
330
18
100
AcDbEntity
  8
0
100
AcDbLine
 10
3.228489
 20
5.994059
 30
0.0
 11
3.228489
 21
6.003643
 31
0.0
  0
LINE
  5
11A
330
18
100
AcDbEntity
  8
0
100
AcDbLine
 10
3.575638
 20
5.924886
 30
0.0
 11
3.575667
 21
5.935035
 31
0.0
  0
LINE
  5
11B
330
18
100
AcDbEntity
  8
0
100
AcDbLine
 10
3.473373000000001
 20
5.937862
 30
0.0
 11
3.473373000000001
 21
5.947447
 31
0.0
  0
LINE
  5
11C
330
18
100
AcDbEntity
  8
0
100
AcDbLine
 10
3.727606
 20
6.189769
 30
0.0
 11
3.727634
 21
6.199716
 31
0.0
  0
LINE
  5
11D
330
18
100
AcDbEntity
  8
0
100
AcDbLine
 10
3.627386
 20
6.202486
 30
0.0
 11
3.627386
 21
6.211879
 31
0.0
  0
LINE
  5
11E
330
18
100
AcDbEntity
  8
0
100
AcDbLine
 10
3.960721
 20
6.135665
 30
0.0
 11
3.96075
 21
6.145612
 31
0.0
  0
LINE
  5
11F
330
18
100
AcDbEntity
  8
0
100
AcDbLine
 10
3.860501
 20
6.148382
 30
0.0
 11
3.860501
 21
6.157775
 31
0.0
  0
LINE
  5
120
330
18
100
AcDbEntity
  8
0
100
AcDbLine
 10
4.239763
 20
6.319134
 30
0.0
 11
4.239791
 21
6.328882
 31
0.0
  0
LINE
  5
121
330
18
100
AcDbEntity
  8
0
100
AcDbLine
 10
4.141547
 20
6.331597
 30
0.0
 11
4.141547
 21
6.340802
 31
0.0
  0
LINE
  5
122
330
18
100
AcDbEntity
  8
0
100
AcDbLine
 10
3.9288
 20
6.378759
 30
0.0
 11
3.9288
 21
6.387965
 31
0.0
  0
LINE
  5
123
330
18
100
AcDbEntity
  8
0
100
AcDbLine
 10
4.027016000000001
 20
6.366297
 30
0.0
 11
4.027043
 21
6.376045
 31
0.0
  0
LINE
  5
124
330
18
100
AcDbEntity
  8
0
100
AcDbLine
 10
4.601251
 20
6.512877
 30
0.0
 11
4.601278
 21
6.522429
 31
0.0
  0
LINE
  5
125
330
18
100
AcDbEntity
  8
0
100
AcDbLine
 10
4.505
 20
6.525090000000001
 30
0.0
 11
4.505
 21
6.534111
 31
0.0
  0
LINE
  5
126
330
18
100
AcDbEntity
  8
0
100
AcDbLine
 10
4.405517
 20
6.562064
 30
0.0
 11
4.405544
 21
6.571617
 31
0.0
  0
LINE
  5
127
330
18
100
AcDbEntity
  8
0
100
AcDbLine
 10
4.309266
 20
6.574277
 30
0.0
 11
4.309265
 21
6.583297999999999
 31
0.0
  0
LINE
  5
128
330
18
100
AcDbEntity
  8
0
100
AcDbLine
 10
4.882668
 20
6.680317
 30
0.0
 11
4.882695
 21
6.689678999999999
 31
0.0
  0
LINE
  5
129
330
18
100
AcDbEntity
  8
0
100
AcDbLine
 10
4.788342
 20
6.692286999999999
 30
0.0
 11
4.788341
 21
6.701127000000001
 31
0.0
  0
LINE
  5
12A
330
18
100
AcDbEntity
  8
0
100
AcDbLine
 10
4.690848
 20
6.728521000000001
 30
0.0
 11
4.690875
 21
6.737883
 31
0.0
  0
LINE
  5
12B
330
18
100
AcDbEntity
  8
0
100
AcDbLine
 10
4.596522
 20
6.740489999999999
 30
0.0
 11
4.596522
 21
6.749331
 31
0.0
  0
CIRCLE
  5
12C
330
18
100
AcDbEntity
  8
0
100
AcDbCircle
 10
3.982605
 20
4.641223
 30
0.0
 40
0.002238
  0
CIRCLE
  5
12D
330
18
100
AcDbEntity
  8
0
100
AcDbCircle
 10
4.005667
 20
4.562154000000001
 30
0.0
 40
0.002238
  0
CIRCLE
  5
12E
330
18
100
AcDbEntity
  8
0
100
AcDbCircle
 10
4.112814
 20
4.604413
 30
0.0
 40
0.002238
  0
CIRCLE
  5
12F
330
18
100
AcDbEntity
  8
0
100
AcDbCircle
 10
4.058697
 20
4.704454
 30
0.0
 40
0.002238
  0
CIRCLE
  5
130
330
18
100
AcDbEntity
  8
0
100
AcDbCircle
 10
4.130786
 20
4.760667
 30
0.0
 40
0.002238
  0
CIRCLE
  5
131
330
18
100
AcDbEntity
  8
0
100
AcDbCircle
 10
4.04261
 20
4.882676
 30
0.0
 40
0.002238
  0
CIRCLE
  5
132
330
18
100
AcDbEntity
  8
0
100
AcDbCircle
 10
3.740194
 20
4.770957
 30
0.0
 40
0.002238
  0
CIRCLE
  5
133
330
18
100
AcDbEntity
  8
0
100
AcDbCircle
 10
3.688147
 20
4.681735
 30
0.0
 40
0.002238
  0
CIRCLE
  5
134
330
18
100
AcDbEntity
  8
0
100
AcDbCircle
 10
3.977419
 20
5.145927
 30
0.0
 40
0.002238
  0
CIRCLE
  5
135
330
18
100
AcDbEntity
  8
0
100
AcDbCircle
 10
4.03149
 20
5.173065
 30
0.0
 40
0.002238
  0
CIRCLE
  5
136
330
18
100
AcDbEntity
  8
0
100
AcDbCircle
 10
4.083565
 20
5.183176
 30
0.0
 40
0.002238
  0
CIRCLE
  5
137
330
18
100
AcDbEntity
  8
0
100
AcDbCircle
 10
4.194769
 20
5.081238
 30
0.0
 40
0.002238
  0
CIRCLE
  5
138
330
18
100
AcDbEntity
  8
0
100
AcDbCircle
 10
4.232847000000001
 20
5.020222
 30
0.0
 40
0.002238
  0
CIRCLE
  5
139
330
18
100
AcDbEntity
  8
0
100
AcDbCircle
 10
4.213708000000001
 20
5.332628
 30
0.0
 40
0.002238
  0
CIRCLE
  5
13A
330
18
100
AcDbEntity
  8
0
100
AcDbCircle
 10
4.11255
 20
5.350466
 30
0.0
 40
0.002238
  0
CIRCLE
  5
13B
330
18
100
AcDbEntity
  8
0
100
AcDbCircle
 10
3.83714
 20
5.337937999999999
 30
0.0
 40
0.002238
  0
CIRCLE
  5
13C
330
18
100
AcDbEntity
  8
0
100
AcDbCircle
 10
3.776038
 20
5.364863
 30
0.0
 40
0.002238
  0
CIRCLE
  5
13D
330
18
100
AcDbEntity
  8
0
100
AcDbCircle
 10
4.784617
 20
5.192489
 30
0.0
 40
0.002238
  0
CIRCLE
  5
13E
330
18
100
AcDbEntity
  8
0
100
AcDbCircle
 10
4.825685
 20
5.173538
 30
0.0
 40
0.002238
  0
CIRCLE
  5
13F
330
18
100
AcDbEntity
  8
0
100
AcDbCircle
 10
4.967855999999999
 20
5.294973000000001
 30
0.0
 40
0.002238
  0
CIRCLE
  5
140
330
18
100
AcDbEntity
  8
0
100
AcDbCircle
 10
5.26534
 20
5.194382
 30
0.0
 40
0.002238
  0
CIRCLE
  5
141
330
18
100
AcDbEntity
  8
0
100
AcDbCircle
 10
5.202273
 20
5.115153
 30
0.0
 40
0.002238
  0
CIRCLE
  5
142
330
18
100
AcDbEntity
  8
0
100
AcDbCircle
 10
5.127158000000001
 20
5.11902
 30
0.0
 40
0.002238
  0
CIRCLE
  5
143
330
18
100
AcDbEntity
  8
0
100
AcDbCircle
 10
4.958929
 20
5.052614
 30
0.0
 40
0.002238
  0
CIRCLE
  5
144
330
18
100
AcDbEntity
  8
0
100
AcDbCircle
 10
4.944891
 20
5.098653
 30
0.0
 40
0.002238
  0
CIRCLE
  5
145
330
18
100
AcDbEntity
  8
0
100
AcDbCircle
 10
4.839769
 20
4.997315
 30
0.0
 40
0.002238
  0
CIRCLE
  5
146
330
18
100
AcDbEntity
  8
0
100
AcDbCircle
 10
4.866852
 20
4.878197
 30
0.0
 40
0.002238
  0
CIRCLE
  5
147
330
18
100
AcDbEntity
  8
0
100
AcDbCircle
 10
4.692682
 20
4.616504
 30
0.0
 40
0.002238
  0
CIRCLE
  5
148
330
18
100
AcDbEntity
  8
0
100
AcDbCircle
 10
4.711704
 20
4.635567
 30
0.0
 40
0.002238
  0
CIRCLE
  5
149
330
18
100
AcDbEntity
  8
0
100
AcDbCircle
 10
5.587969999999999
 20
4.785402
 30
0.0
 40
0.002238
  0
CIRCLE
  5
14A
330
18
100
AcDbEntity
  8
0
100
AcDbCircle
 10
5.673042
 20
4.942782
 30
0.0
 40
0.002238
  0
CIRCLE
  5
14B
330
18
100
AcDbEntity
  8
0
100
AcDbCircle
 10
5.721165
 20
4.798668
 30
0.0
 40
0.002238
  0
CIRCLE
  5
14C
330
18
100
AcDbEntity
  8
0
100
AcDbCircle
 10
5.862377
 20
4.800933000000001
 30
0.0
 40
0.002238
  0
CIRCLE
  5
14D
330
18
100
AcDbEntity
  8
0
100
AcDbCircle
 10
5.808357
 20
4.627587999999999
 30
0.0
 40
0.002238
  0
CIRCLE
  5
14E
330
18
100
AcDbEntity
  8
0
100
AcDbCircle
 10
5.784374
 20
4.47633
 30
0.0
 40
0.002238
  0
CIRCLE
  5
14F
330
18
100
AcDbEntity
  8
0
100
AcDbCircle
 10
6.002637
 20
4.662998
 30
0.0
 40
0.002238
  0
CIRCLE
  5
150
330
18
100
AcDbEntity
  8
0
100
AcDbCircle
 10
6.10774
 20
4.817411
 30
0.0
 40
0.002238
  0
CIRCLE
  5
151
330
18
100
AcDbEntity
  8
0
100
AcDbCircle
 10
6.153879
 20
4.621219
 30
0.0
 40
0.002238
  0
CIRCLE
  5
152
330
18
100
AcDbEntity
  8
0
100
AcDbCircle
 10
6.309108999999999
 20
4.632523
 30
0.0
 40
0.002238
  0
CIRCLE
  5
153
330
18
100
AcDbEntity
  8
0
100
AcDbCircle
 10
6.14192
 20
4.455964
 30
0.0
 40
0.002238
  0
CIRCLE
  5
154
330
18
100
AcDbEntity
  8
0
100
AcDbCircle
 10
6.298217
 20
4.280005
 30
0.0
 40
0.002238
  0
CIRCLE
  5
155
330
18
100
AcDbEntity
  8
0
100
AcDbCircle
 10
6.539590000000001
 20
4.253415
 30
0.0
 40
0.002238
  0
CIRCLE
  5
156
330
18
100
AcDbEntity
  8
0
100
AcDbCircle
 10
6.696772999999999
 20
4.40492
 30
0.0
 40
0.002238
  0
CIRCLE
  5
157
330
18
100
AcDbEntity
  8
0
100
AcDbCircle
 10
6.514624
 20
4.050081
 30
0.0
 40
0.002238
  0
CIRCLE
  5
158
330
18
100
AcDbEntity
  8
0
100
AcDbCircle
 10
6.414516000000001
 20
3.928724
 30
0.0
 40
0.002238
  0
CIRCLE
  5
159
330
18
100
AcDbEntity
  8
0
100
AcDbCircle
 10
6.220155
 20
4.123639
 30
0.0
 40
0.002238
  0
CIRCLE
  5
15A
330
18
100
AcDbEntity
  8
0
100
AcDbCircle
 10
6.033922000000001
 20
3.989104
 30
0.0
 40
0.002238
  0
CIRCLE
  5
15B
330
18
100
AcDbEntity
  8
0
100
AcDbCircle
 10
6.014946
 20
3.840859
 30
0.0
 40
0.002238
  0
CIRCLE
  5
15C
330
18
100
AcDbEntity
  8
0
100
AcDbCircle
 10
5.935834
 20
3.820684
 30
0.0
 40
0.002238
  0
CIRCLE
  5
15D
330
18
100
AcDbEntity
  8
0
100
AcDbCircle
 10
5.79665
 20
3.747323
 30
0.0
 40
0.002238
  0
CIRCLE
  5
15E
330
18
100
AcDbEntity
  8
0
100
AcDbCircle
 10
6.113213
 20
3.504566000000001
 30
0.0
 40
0.002238
  0
CIRCLE
  5
15F
330
18
100
AcDbEntity
  8
0
100
AcDbCircle
 10
6.442663
 20
3.633359
 30
0.0
 40
0.002238
  0
CIRCLE
  5
160
330
18
100
AcDbEntity
  8
0
100
AcDbCircle
 10
6.852359
 20
3.408801
 30
0.0
 40
0.002238
  0
CIRCLE
  5
161
330
18
100
AcDbEntity
  8
0
100
AcDbCircle
 10
6.694114999999999
 20
3.425531
 30
0.0
 40
0.002238
  0
CIRCLE
  5
162
330
18
100
AcDbEntity
  8
0
100
AcDbCircle
 10
6.584973
 20
3.36224
 30
0.0
 40
0.002238
  0
CIRCLE
  5
163
330
18
100
AcDbEntity
  8
0
100
AcDbCircle
 10
5.556321
 20
3.655748
 30
0.0
 40
0.002238
  0
CIRCLE
  5
164
330
18
100
AcDbEntity
  8
0
100
AcDbCircle
 10
5.448139
 20
3.710625
 30
0.0
 40
0.002238
  0
CIRCLE
  5
165
330
18
100
AcDbEntity
  8
0
100
AcDbCircle
 10
5.349024
 20
3.613304
 30
0.0
 40
0.002238
  0
CIRCLE
  5
166
330
18
100
AcDbEntity
  8
0
100
AcDbCircle
 10
5.169758
 20
3.601955
 30
0.0
 40
0.002238
  0
CIRCLE
  5
167
330
18
100
AcDbEntity
  8
0
100
AcDbCircle
 10
5.144672
 20
3.739103
 30
0.0
 40
0.002238
  0
CIRCLE
  5
168
330
18
100
AcDbEntity
  8
0
100
AcDbCircle
 10
5.113582
 20
3.86322
 30
0.0
 40
0.002238
  0
CIRCLE
  5
169
330
18
100
AcDbEntity
  8
0
100
AcDbCircle
 10
5.192678
 20
3.927458
 30
0.0
 40
0.002238
  0
CIRCLE
  5
16A
330
18
100
AcDbEntity
  8
0
100
AcDbCircle
 10
5.328883
 20
3.925708
 30
0.0
 40
0.002238
  0
CIRCLE
  5
16B
330
18
100
AcDbEntity
  8
0
100
AcDbCircle
 10
5.412022
 20
3.88881
 30
0.0
 40
0.002238
  0
CIRCLE
  5
16C
330
18
100
AcDbEntity
  8
0
100
AcDbCircle
 10
5.257736
 20
4.038735
 30
0.0
 40
0.002238
  0
CIRCLE
  5
16D
330
18
100
AcDbEntity
  8
0
100
AcDbCircle
 10
5.456005
 20
4.124224
 30
0.0
 40
0.002238
  0
CIRCLE
  5
16E
330
18
100
AcDbEntity
  8
0
100
AcDbCircle
 10
5.511112000000001
 20
4.05623
 30
0.0
 40
0.002238
  0
CIRCLE
  5
16F
330
18
100
AcDbEntity
  8
0
100
AcDbCircle
 10
5.606243
 20
4.090454
 30
0.0
 40
0.002238
  0
CIRCLE
  5
170
330
18
100
AcDbEntity
  8
0
100
AcDbCircle
 10
5.670312
 20
4.165679
 30
0.0
 40
0.002238
  0
CIRCLE
  5
171
330
18
100
AcDbEntity
  8
0
100
AcDbCircle
 10
5.766457
 20
4.165858
 30
0.0
 40
0.002238
  0
CIRCLE
  5
172
330
18
100
AcDbEntity
  8
0
100
AcDbCircle
 10
7.175683
 20
3.867048000000001
 30
0.0
 40
0.002238
  0
CIRCLE
  5
173
330
18
100
AcDbEntity
  8
0
100
AcDbCircle
 10
7.095542999999999
 20
3.922978
 30
0.0
 40
0.002238
  0
CIRCLE
  5
174
330
18
100
AcDbEntity
  8
0
100
AcDbCircle
 10
7.135571000000001
 20
4.01318
 30
0.0
 40
0.002238
  0
CIRCLE
  5
175
330
18
100
AcDbEntity
  8
0
100
AcDbCircle
 10
7.181628
 20
4.049316
 30
0.0
 40
0.002238
  0
CIRCLE
  5
176
330
18
100
AcDbEntity
  8
0
100
AcDbCircle
 10
7.109502
 20
4.098252
 30
0.0
 40
0.002238
  0
CIRCLE
  5
177
330
18
100
AcDbEntity
  8
0
100
AcDbCircle
 10
7.084431
 20
4.192338
 30
0.0
 40
0.002238
  0
CIRCLE
  5
178
330
18
100
AcDbEntity
  8
0
100
AcDbCircle
 10
7.092387
 20
4.349575
 30
0.0
 40
0.002238
  0
CIRCLE
  5
179
330
18
100
AcDbEntity
  8
0
100
AcDbCircle
 10
7.367785000000001
 20
4.396151000000001
 30
0.0
 40
0.002238
  0
CIRCLE
  5
17A
330
18
100
AcDbEntity
  8
0
100
AcDbCircle
 10
7.405827
 20
4.439283000000001
 30
0.0
 40
0.002238
  0
CIRCLE
  5
17B
330
18
100
AcDbEntity
  8
0
100
AcDbCircle
 10
7.343711
 20
4.503258
 30
0.0
 40
0.002238
  0
CIRCLE
  5
17C
330
18
100
AcDbEntity
  8
0
100
AcDbCircle
 10
7.446828999999999
 20
4.610601
 30
0.0
 40
0.002238
  0
CIRCLE
  5
17D
330
18
100
AcDbEntity
  8
0
100
AcDbCircle
 10
7.357686
 20
4.635471
 30
0.0
 40
0.002238
  0
CIRCLE
  5
17E
330
18
100
AcDbEntity
  8
0
100
AcDbCircle
 10
7.434760000000001
 20
4.753781
 30
0.0
 40
0.002238
  0
CIRCLE
  5
17F
330
18
100
AcDbEntity
  8
0
100
AcDbCircle
 10
7.541910000000001
 20
4.784022
 30
0.0
 40
0.002238
  0
CIRCLE
  5
180
330
18
100
AcDbEntity
  8
0
100
AcDbCircle
 10
7.507845
 20
4.824015
 30
0.0
 40
0.002238
  0
CIRCLE
  5
181
330
18
100
AcDbEntity
  8
0
100
AcDbCircle
 10
7.487763
 20
4.970185
 30
0.0
 40
0.002238
  0
CIRCLE
  5
182
330
18
100
AcDbEntity
  8
0
100
AcDbCircle
 10
7.403635
 20
4.974034
 30
0.0
 40
0.002238
  0
CIRCLE
  5
183
330
18
100
AcDbEntity
  8
0
100
AcDbCircle
 10
7.368583999999999
 20
4.968962
 30
0.0
 40
0.002238
  0
CIRCLE
  5
184
330
18
100
AcDbEntity
  8
0
100
AcDbCircle
 10
7.228394000000001
 20
4.909618
 30
0.0
 40
0.002238
  0
CIRCLE
  5
185
330
18
100
AcDbEntity
  8
0
100
AcDbCircle
 10
7.095144
 20
5.05057
 30
0.0
 40
0.002238
  0
CIRCLE
  5
186
330
18
100
AcDbEntity
  8
0
100
AcDbCircle
 10
7.079069000000001
 20
5.193743
 30
0.0
 40
0.002238
  0
CIRCLE
  5
187
330
18
100
AcDbEntity
  8
0
100
AcDbCircle
 10
7.129147
 20
5.187827
 30
0.0
 40
0.002238
  0
CIRCLE
  5
188
330
18
100
AcDbEntity
  8
0
100
AcDbCircle
 10
7.152181
 20
5.188872
 30
0.0
 40
0.002238
  0
CIRCLE
  5
189
330
18
100
AcDbEntity
  8
0
100
AcDbCircle
 10
7.245321000000001
 20
5.190046
 30
0.0
 40
0.002238
  0
CIRCLE
  5
18A
330
18
100
AcDbEntity
  8
0
100
AcDbCircle
 10
7.455557000000001
 20
5.416756
 30
0.0
 40
0.002238
  0
CIRCLE
  5
18B
330
18
100
AcDbEntity
  8
0
100
AcDbCircle
 10
7.530652000000001
 20
5.467967
 30
0.0
 40
0.002238
  0
CIRCLE
  5
18C
330
18
100
AcDbEntity
  8
0
100
AcDbCircle
 10
7.464524000000001
 20
5.548959
 30
0.0
 40
0.002238
  0
CIRCLE
  5
18D
330
18
100
AcDbEntity
  8
0
100
AcDbCircle
 10
7.088956
 20
5.557275
 30
0.0
 40
0.002238
  0
CIRCLE
  5
18E
330
18
100
AcDbEntity
  8
0
100
AcDbCircle
 10
7.042869000000001
 20
5.60726
 30
0.0
 40
0.002238
  0
CIRCLE
  5
18F
330
18
100
AcDbEntity
  8
0
100
AcDbCircle
 10
7.137969
 20
5.728608
 30
0.0
 40
0.002238
  0
CIRCLE
  5
190
330
18
100
AcDbEntity
  8
0
100
AcDbCircle
 10
7.215058999999999
 20
5.802855999999999
 30
0.0
 40
0.002238
  0
CIRCLE
  5
191
330
18
100
AcDbEntity
  8
0
100
AcDbCircle
 10
7.252106
 20
5.825957
 30
0.0
 40
0.002238
  0
CIRCLE
  5
192
330
18
100
AcDbEntity
  8
0
100
AcDbCircle
 10
7.312198
 20
5.823064
 30
0.0
 40
0.002238
  0
CIRCLE
  5
193
330
18
100
AcDbEntity
  8
0
100
AcDbCircle
 10
7.371245
 20
5.941341
 30
0.0
 40
0.002238
  0
CIRCLE
  5
194
330
18
100
AcDbEntity
  8
0
100
AcDbCircle
 10
7.307105
 20
6.063394000000001
 30
0.0
 40
0.002238
  0
CIRCLE
  5
195
330
18
100
AcDbEntity
  8
0
100
AcDbCircle
 10
7.191959
 20
5.987073000000001
 30
0.0
 40
0.002238
  0
CIRCLE
  5
196
330
18
100
AcDbEntity
  8
0
100
AcDbCircle
 10
7.185933
 20
6.035130000000001
 30
0.0
 40
0.002238
  0
CIRCLE
  5
197
330
18
100
AcDbEntity
  8
0
100
AcDbCircle
 10
7.110814
 20
6.050012000000001
 30
0.0
 40
0.002238
  0
CIRCLE
  5
198
330
18
100
AcDbEntity
  8
0
100
AcDbCircle
 10
7.075805
 20
5.927773999999999
 30
0.0
 40
0.002238
  0
CIRCLE
  5
199
330
18
100
AcDbEntity
  8
0
100
AcDbCircle
 10
7.095858
 20
5.863721
 30
0.0
 40
0.002238
  0
CIRCLE
  5
19A
330
18
100
AcDbEntity
  8
0
100
AcDbCircle
 10
7.5324
 20
6.188989
 30
0.0
 40
0.002238
  0
CIRCLE
  5
19B
330
18
100
AcDbEntity
  8
0
100
AcDbCircle
 10
7.162849000000001
 20
6.173282
 30
0.0
 40
0.002238
  0
CIRCLE
  5
19C
330
18
100
AcDbEntity
  8
0
100
AcDbCircle
 10
7.039650999999999
 20
6.208103
 30
0.0
 40
0.002238
  0
CIRCLE
  5
19D
330
18
100
AcDbEntity
  8
0
100
AcDbCircle
 10
7.155796000000001
 20
6.29444
 30
0.0
 40
0.002238
  0
CIRCLE
  5
19E
330
18
100
AcDbEntity
  8
0
100
AcDbCircle
 10
7.077644
 20
6.390431
 30
0.0
 40
0.002238
  0
CIRCLE
  5
19F
330
18
100
AcDbEntity
  8
0
100
AcDbCircle
 10
7.157752
 20
6.426631
 30
0.0
 40
0.002238
  0
CIRCLE
  5
1A0
330
18
100
AcDbEntity
  8
0
100
AcDbCircle
 10
7.180743
 20
6.549847
 30
0.0
 40
0.002238
  0
CIRCLE
  5
1A1
330
18
100
AcDbEntity
  8
0
100
AcDbCircle
 10
7.093615
 20
6.541674
 30
0.0
 40
0.002238
  0
CIRCLE
  5
1A2
330
18
100
AcDbEntity
  8
0
100
AcDbCircle
 10
7.061528999999999
 20
6.647765
 30
0.0
 40
0.002238
  0
CIRCLE
  5
1A3
330
18
100
AcDbEntity
  8
0
100
AcDbCircle
 10
7.133642
 20
6.633878999999999
 30
0.0
 40
0.002238
  0
CIRCLE
  5
1A4
330
18
100
AcDbEntity
  8
0
100
AcDbCircle
 10
7.305964
 20
6.456948000000001
 30
0.0
 40
0.002238
  0
CIRCLE
  5
1A5
330
18
100
AcDbEntity
  8
0
100
AcDbCircle
 10
7.300892
 20
6.640198
 30
0.0
 40
0.002238
  0
CIRCLE
  5
1A6
330
18
100
AcDbEntity
  8
0
100
AcDbCircle
 10
7.464115
 20
6.703589999999999
 30
0.0
 40
0.002238
  0
CIRCLE
  5
1A7
330
18
100
AcDbEntity
  8
0
100
AcDbCircle
 10
7.506172
 20
6.721692999999999
 30
0.0
 40
0.002238
  0
CIRCLE
  5
1A8
330
18
100
AcDbEntity
  8
0
100
AcDbCircle
 10
7.565237
 20
6.788898
 30
0.0
 40
0.002238
  0
CIRCLE
  5
1A9
330
18
100
AcDbEntity
  8
0
100
AcDbCircle
 10
7.56018
 20
6.929086
 30
0.0
 40
0.002238
  0
CIRCLE
  5
1AA
330
18
100
AcDbEntity
  8
0
100
AcDbCircle
 10
7.578193
 20
6.970178
 30
0.0
 40
0.002238
  0
CIRCLE
  5
1AB
330
18
100
AcDbEntity
  8
0
100
AcDbCircle
 10
7.484045
 20
6.988028999999999
 30
0.0
 40
0.002238
  0
CIRCLE
  5
1AC
330
18
100
AcDbEntity
  8
0
100
AcDbCircle
 10
7.457017
 20
6.949925
 30
0.0
 40
0.002238
  0
CIRCLE
  5
1AD
330
18
100
AcDbEntity
  8
0
100
AcDbCircle
 10
7.480064
 20
6.914917999999999
 30
0.0
 40
0.002238
  0
CIRCLE
  5
1AE
330
18
100
AcDbEntity
  8
0
100
AcDbCircle
 10
7.227717
 20
6.824322
 30
0.0
 40
0.002238
  0
CIRCLE
  5
1AF
330
18
100
AcDbEntity
  8
0
100
AcDbCircle
 10
7.2107
 20
6.799255000000001
 30
0.0
 40
0.002238
  0
CIRCLE
  5
1B0
330
18
100
AcDbEntity
  8
0
100
AcDbCircle
 10
7.203716
 20
6.725138
 30
0.0
 40
0.002238
  0
CIRCLE
  5
1B1
330
18
100
AcDbEntity
  8
0
100
AcDbCircle
 10
7.136581
 20
6.819146000000001
 30
0.0
 40
0.002238
  0
CIRCLE
  5
1B2
330
18
100
AcDbEntity
  8
0
100
AcDbCircle
 10
7.108453
 20
7.061436000000001
 30
0.0
 40
0.002238
  0
CIRCLE
  5
1B3
330
18
100
AcDbEntity
  8
0
100
AcDbCircle
 10
7.219591
 20
7.144760000000001
 30
0.0
 40
0.002238
  0
CIRCLE
  5
1B4
330
18
100
AcDbEntity
  8
0
100
AcDbCircle
 10
7.229581
 20
7.215878999999999
 30
0.0
 40
0.002238
  0
CIRCLE
  5
1B5
330
18
100
AcDbEntity
  8
0
100
AcDbCircle
 10
7.215544
 20
7.261918
 30
0.0
 40
0.002238
  0
CIRCLE
  5
1B6
330
18
100
AcDbEntity
  8
0
100
AcDbCircle
 10
7.158435000000001
 20
7.327905
 30
0.0
 40
0.002238
  0
CIRCLE
  5
1B7
330
18
100
AcDbEntity
  8
0
100
AcDbCircle
 10
7.226526
 20
7.359075
 30
0.0
 40
0.002238
  0
CIRCLE
  5
1B8
330
18
100
AcDbEntity
  8
0
100
AcDbCircle
 10
7.367758
 20
7.30426
 30
0.0
 40
0.002238
  0
CIRCLE
  5
1B9
330
18
100
AcDbEntity
  8
0
100
AcDbCircle
 10
7.339742
 20
7.231103999999999
 30
0.0
 40
0.002238
  0
CIRCLE
  5
1BA
330
18
100
AcDbEntity
  8
0
100
AcDbCircle
 10
7.45494
 20
7.159216000000001
 30
0.0
 40
0.002238
  0
CIRCLE
  5
1BB
330
18
100
AcDbEntity
  8
0
100
AcDbCircle
 10
7.574119000000001
 20
7.162442
 30
0.0
 40
0.002238
  0
CIRCLE
  5
1BC
330
18
100
AcDbEntity
  8
0
100
AcDbCircle
 10
7.536014999999999
 20
7.294558
 30
0.0
 40
0.002238
  0
CIRCLE
  5
1BD
330
18
100
AcDbEntity
  8
0
100
AcDbCircle
 10
7.46385
 20
7.451646
 30
0.0
 40
0.002238
  0
CIRCLE
  5
1BE
330
18
100
AcDbEntity
  8
0
100
AcDbCircle
 10
7.409797999999999
 20
7.368428
 30
0.0
 40
0.002238
  0
CIRCLE
  5
1BF
330
18
100
AcDbEntity
  8
0
100
AcDbCircle
 10
7.369684
 20
7.520569
 30
0.0
 40
0.002238
  0
CIRCLE
  5
1C0
330
18
100
AcDbEntity
  8
0
100
AcDbCircle
 10
7.256506
 20
7.544393
 30
0.0
 40
0.002238
  0
CIRCLE
  5
1C1
330
18
100
AcDbEntity
  8
0
100
AcDbCircle
 10
7.123166
 20
7.938703
 30
0.0
 40
0.002238
  0
CIRCLE
  5
1C2
330
18
100
AcDbEntity
  8
0
100
AcDbCircle
 10
7.194289
 20
7.89277
 30
0.0
 40
0.002238
  0
CIRCLE
  5
1C3
330
18
100
AcDbEntity
  8
0
100
AcDbCircle
 10
7.256373
 20
7.918922
 30
0.0
 40
0.002238
  0
CIRCLE
  5
1C4
330
18
100
AcDbEntity
  8
0
100
AcDbCircle
 10
7.303421000000001
 20
7.985102
 30
0.0
 40
0.002238
  0
CIRCLE
  5
1C5
330
18
100
AcDbEntity
  8
0
100
AcDbCircle
 10
7.373500999999999
 20
8.055330999999999
 30
0.0
 40
0.002238
  0
CIRCLE
  5
1C6
330
18
100
AcDbEntity
  8
0
100
AcDbCircle
 10
7.378492
 20
8.103408999999999
 30
0.0
 40
0.002238
  0
CIRCLE
  5
1C7
330
18
100
AcDbEntity
  8
0
100
AcDbCircle
 10
7.443583
 20
8.122555999999999
 30
0.0
 40
0.002238
  0
CIRCLE
  5
1C8
330
18
100
AcDbEntity
  8
0
100
AcDbCircle
 10
7.460628999999999
 20
8.064506
 30
0.0
 40
0.002238
  0
CIRCLE
  5
1C9
330
18
100
AcDbEntity
  8
0
100
AcDbCircle
 10
7.485682000000001
 20
8.020489999999999
 30
0.0
 40
0.002238
  0
CIRCLE
  5
1CA
330
18
100
AcDbEntity
  8
0
100
AcDbCircle
 10
7.536788000000001
 20
7.93947
 30
0.0
 40
0.002238
  0
CIRCLE
  5
1CB
330
18
100
AcDbEntity
  8
0
100
AcDbCircle
 10
7.559792999999999
 20
8.021628999999999
 30
0.0
 40
0.002238
  0
CIRCLE
  5
1CC
330
18
100
AcDbEntity
  8
0
100
AcDbCircle
 10
7.617857000000001
 20
8.088832
 30
0.0
 40
0.002238
  0
CIRCLE
  5
1CD
330
18
100
AcDbEntity
  8
0
100
AcDbCircle
 10
7.580761999999999
 20
8.198919
 30
0.0
 40
0.002238
  0
CIRCLE
  5
1CE
330
18
100
AcDbEntity
  8
0
100
AcDbCircle
 10
7.150089
 20
8.270221000000001
 30
0.0
 40
0.002238
  0
CIRCLE
  5
1CF
330
18
100
AcDbEntity
  8
0
100
AcDbCircle
 10
6.965895
 20
8.033545
 30
0.0
 40
0.002238
  0
CIRCLE
  5
1D0
330
18
100
AcDbEntity
  8
0
100
AcDbCircle
 10
6.863744000000001
 20
8.027347000000001
 30
0.0
 40
0.002238
  0
CIRCLE
  5
1D1
330
18
100
AcDbEntity
  8
0
100
AcDbCircle
 10
6.814630999999999
 20
8.137411999999999
 30
0.0
 40
0.002238
  0
CIRCLE
  5
1D2
330
18
100
AcDbEntity
  8
0
100
AcDbCircle
 10
6.659387
 20
8.168167
 30
0.0
 40
0.002238
  0
CIRCLE
  5
1D3
330
18
100
AcDbEntity
  8
0
100
AcDbCircle
 10
6.901727
 20
8.236713
 30
0.0
 40
0.002238
  0
CIRCLE
  5
1D4
330
18
100
AcDbEntity
  8
0
100
AcDbCircle
 10
6.208694
 20
8.209389999999999
 30
0.0
 40
0.002238
  0
CIRCLE
  5
1D5
330
18
100
AcDbEntity
  8
0
100
AcDbCircle
 10
6.034418
 20
8.248122
 30
0.0
 40
0.002238
  0
CIRCLE
  5
1D6
330
18
100
AcDbEntity
  8
0
100
AcDbCircle
 10
5.761977
 20
8.334739000000001
 30
0.0
 40
0.002238
  0
CIRCLE
  5
1D7
330
18
100
AcDbEntity
  8
0
100
AcDbCircle
 10
5.808105
 20
8.170592999999998
 30
0.0
 40
0.002238
  0
CIRCLE
  5
1D8
330
18
100
AcDbEntity
  8
0
100
AcDbCircle
 10
5.364376
 20
8.344016
 30
0.0
 40
0.002238
  0
CIRCLE
  5
1D9
330
18
100
AcDbEntity
  8
0
100
AcDbCircle
 10
3.603823
 20
8.070366
 30
0.0
 40
0.002238
  0
CIRCLE
  5
1DA
330
18
100
AcDbEntity
  8
0
100
AcDbCircle
 10
3.908425
 20
7.663355
 30
0.0
 40
0.002238
  0
CIRCLE
  5
1DB
330
18
100
AcDbEntity
  8
0
100
AcDbCircle
 10
3.918507
 20
7.475108000000001
 30
0.0
 40
0.002238
  0
CIRCLE
  5
1DC
330
18
100
AcDbEntity
  8
0
100
AcDbCircle
 10
4.006647
 20
7.453241
 30
0.0
 40
0.002238
  0
CIRCLE
  5
1DD
330
18
100
AcDbEntity
  8
0
100
AcDbCircle
 10
4.252981
 20
7.556844
 30
0.0
 40
0.002238
  0
CIRCLE
  5
1DE
330
18
100
AcDbEntity
  8
0
100
AcDbCircle
 10
4.235983999999999
 20
7.4777
 30
0.0
 40
0.002238
  0
CIRCLE
  5
1DF
330
18
100
AcDbEntity
  8
0
100
AcDbCircle
 10
4.439277
 20
7.51513
 30
0.0
 40
0.002238
  0
CIRCLE
  5
1E0
330
18
100
AcDbEntity
  8
0
100
AcDbCircle
 10
4.518346
 20
7.655475
 30
0.0
 40
0.002238
  0
CIRCLE
  5
1E1
330
18
100
AcDbEntity
  8
0
100
AcDbCircle
 10
4.596473000000001
 20
7.62758
 30
0.0
 40
0.002238
  0
CIRCLE
  5
1E2
330
18
100
AcDbEntity
  8
0
100
AcDbCircle
 10
4.86204
 20
7.155405
 30
0.0
 40
0.002238
  0
CIRCLE
  5
1E3
330
18
100
AcDbEntity
  8
0
100
AcDbCircle
 10
4.71183
 20
7.109061
 30
0.0
 40
0.002238
  0
CIRCLE
  5
1E4
330
18
100
AcDbEntity
  8
0
100
AcDbCircle
 10
4.889114
 20
7.060321000000001
 30
0.0
 40
0.002238
  0
CIRCLE
  5
1E5
330
18
100
AcDbEntity
  8
0
100
AcDbCircle
 10
5.048198999999999
 20
7.497233000000001
 30
0.0
 40
0.002238
  0
CIRCLE
  5
1E6
330
18
100
AcDbEntity
  8
0
100
AcDbCircle
 10
5.047186
 20
7.529277
 30
0.0
 40
0.002238
  0
CIRCLE
  5
1E7
330
18
100
AcDbEntity
  8
0
100
AcDbCircle
 10
5.338598
 20
7.605925
 30
0.0
 40
0.002238
  0
CIRCLE
  5
1E8
330
18
100
AcDbEntity
  8
0
100
AcDbCircle
 10
5.349558999999999
 20
7.762166000000001
 30
0.0
 40
0.002238
  0
CIRCLE
  5
1E9
330
18
100
AcDbEntity
  8
0
100
AcDbCircle
 10
5.341481
 20
7.947413
 30
0.0
 40
0.002238
  0
CIRCLE
  5
1EA
330
18
100
AcDbEntity
  8
0
100
AcDbCircle
 10
5.140177
 20
7.953048
 30
0.0
 40
0.002238
  0
CIRCLE
  5
1EB
330
18
100
AcDbEntity
  8
0
100
AcDbCircle
 10
5.715105
 20
7.774862
 30
0.0
 40
0.002238
  0
CIRCLE
  5
1EC
330
18
100
AcDbEntity
  8
0
100
AcDbCircle
 10
5.680092
 20
7.662638
 30
0.0
 40
0.002238
  0
CIRCLE
  5
1ED
330
18
100
AcDbEntity
  8
0
100
AcDbCircle
 10
5.763209
 20
7.684823
 30
0.0
 40
0.002238
  0
CIRCLE
  5
1EE
330
18
100
AcDbEntity
  8
0
100
AcDbCircle
 10
5.808312
 20
7.583764
 30
0.0
 40
0.002238
  0
CIRCLE
  5
1EF
330
18
100
AcDbEntity
  8
0
100
AcDbCircle
 10
5.891448000000001
 20
7.554878
 30
0.0
 40
0.002238
  0
CIRCLE
  5
1F0
330
18
100
AcDbEntity
  8
0
100
AcDbCircle
 10
5.896514
 20
7.388652
 30
0.0
 40
0.002238
  0
CIRCLE
  5
1F1
330
18
100
AcDbEntity
  8
0
100
AcDbCircle
 10
5.97265
 20
7.32971
 30
0.0
 40
0.002238
  0
CIRCLE
  5
1F2
330
18
100
AcDbEntity
  8
0
100
AcDbCircle
 10
6.008721
 20
7.279706
 30
0.0
 40
0.002238
  0
CIRCLE
  5
1F3
330
18
100
AcDbEntity
  8
0
100
AcDbCircle
 10
6.066873
 20
7.099558999999999
 30
0.0
 40
0.002238
  0
CIRCLE
  5
1F4
330
18
100
AcDbEntity
  8
0
100
AcDbCircle
 10
6.154022
 20
7.046646000000001
 30
0.0
 40
0.002238
  0
CIRCLE
  5
1F5
330
18
100
AcDbEntity
  8
0
100
AcDbCircle
 10
6.127961
 20
7.109686999999999
 30
0.0
 40
0.002238
  0
CIRCLE
  5
1F6
330
18
100
AcDbEntity
  8
0
100
AcDbCircle
 10
6.243134
 20
7.109901
 30
0.0
 40
0.002238
  0
CIRCLE
  5
1F7
330
18
100
AcDbEntity
  8
0
100
AcDbCircle
 10
6.196000000000001
 20
7.289066
 30
0.0
 40
0.002238
  0
CIRCLE
  5
1F8
330
18
100
AcDbEntity
  8
0
100
AcDbCircle
 10
6.090823
 20
7.341946000000001
 30
0.0
 40
0.002238
  0
CIRCLE
  5
1F9
330
18
100
AcDbEntity
  8
0
100
AcDbCircle
 10
6.261011
 20
7.535535
 30
0.0
 40
0.002238
  0
CIRCLE
  5
1FA
330
18
100
AcDbEntity
  8
0
100
AcDbCircle
 10
6.366127
 20
7.653897
 30
0.0
 40
0.002238
  0
CIRCLE
  5
1FB
330
18
100
AcDbEntity
  8
0
100
AcDbCircle
 10
6.292095
 20
7.429442999999999
 30
0.0
 40
0.002238
  0
CIRCLE
  5
1FC
330
18
100
AcDbEntity
  8
0
100
AcDbCircle
 10
6.311145
 20
7.370394999999999
 30
0.0
 40
0.002238
  0
CIRCLE
  5
1FD
330
18
100
AcDbEntity
  8
0
100
AcDbCircle
 10
6.36522
 20
7.387519
 30
0.0
 40
0.002238
  0
CIRCLE
  5
1FE
330
18
100
AcDbEntity
  8
0
100
AcDbCircle
 10
6.400254
 20
7.438656
 30
0.0
 40
0.002238
  0
CIRCLE
  5
1FF
330
18
100
AcDbEntity
  8
0
100
AcDbCircle
 10
6.489391
 20
7.431812
 30
0.0
 40
0.002238
  0
CIRCLE
  5
200
330
18
100
AcDbEntity
  8
0
100
AcDbCircle
 10
6.453366
 20
7.350630000000001
 30
0.0
 40
0.002238
  0
CIRCLE
  5
201
330
18
100
AcDbEntity
  8
0
100
AcDbCircle
 10
6.35225
 20
7.247297000000001
 30
0.0
 40
0.002238
  0
CIRCLE
  5
202
330
18
100
AcDbEntity
  8
0
100
AcDbCircle
 10
6.406381
 20
7.106198
 30
0.0
 40
0.002238
  0
CIRCLE
  5
203
330
18
100
AcDbEntity
  8
0
100
AcDbCircle
 10
6.59175
 20
6.852183
 30
0.0
 40
0.002238
  0
CIRCLE
  5
204
330
18
100
AcDbEntity
  8
0
100
AcDbCircle
 10
6.469586
 20
6.796878
 30
0.0
 40
0.002238
  0
CIRCLE
  5
205
330
18
100
AcDbEntity
  8
0
100
AcDbCircle
 10
6.601581
 20
7.370933999999999
 30
0.0
 40
0.002238
  0
CIRCLE
  5
206
330
18
100
AcDbEntity
  8
0
100
AcDbCircle
 10
6.68772
 20
7.346058
 30
0.0
 40
0.002238
  0
CIRCLE
  5
207
330
18
100
AcDbEntity
  8
0
100
AcDbCircle
 10
6.623588000000001
 20
7.446081
 30
0.0
 40
0.002238
  0
CIRCLE
  5
208
330
18
100
AcDbEntity
  8
0
100
AcDbCircle
 10
6.805816
 20
7.575602000000001
 30
0.0
 40
0.002238
  0
CIRCLE
  5
209
330
18
100
AcDbEntity
  8
0
100
AcDbCircle
 10
6.868894999999999
 20
7.622785
 30
0.0
 40
0.002238
  0
LINE
  5
20A
330
18
100
AcDbEntity
  8
0
100
AcDbLine
 10
6.480551
 20
4.110103
 30
0.0
 11
6.529619
 21
4.128219000000001
 31
0.0
  0
ARC
  5
20B
330
18
100
AcDbEntity
  8
0
100
AcDbCircle
 10
5.327105
 20
7.150719000000001
 30
0.0
 40
0.018677
100
AcDbArc
 50
292.525131
 51
312.465275
  0
ARC
  5
20C
330
18
100
AcDbEntity
  8
0
100
AcDbCircle
 10
5.317766000000001
 20
7.160923
 30
0.0
 40
0.03251
100
AcDbArc
 50
312.465275
 51
336.933687
  0
ARC
  5
20D
330
18
100
AcDbEntity
  8
0
100
AcDbCircle
 10
5.304815000000001
 20
7.166438
 30
0.0
 40
0.046585
100
AcDbArc
 50
336.933687
 51
354.905545
  0
ARC
  5
20E
330
18
100
AcDbEntity
  8
0
100
AcDbCircle
 10
5.285555
 20
7.168155000000001
 30
0.0
 40
0.065922
100
AcDbArc
 50
354.905545
 51
9.995092999999999
  0
ARC
  5
20F
330
18
100
AcDbEntity
  8
0
100
AcDbCircle
 10
5.285555
 20
7.168155000000001
 30
0.0
 40
0.065922
100
AcDbArc
 50
9.995092999999999
 51
25.08464200000001
  0
ARC
  5
210
330
18
100
AcDbEntity
  8
0
100
AcDbCircle
 10
5.303068
 20
7.176353
 30
0.0
 40
0.046585
100
AcDbArc
 50
25.08464200000001
 51
43.056499
  0
ARC
  5
211
330
18
100
AcDbEntity
  8
0
100
AcDbCircle
 10
5.313353
 20
7.185963
 30
0.0
 40
0.03251
100
AcDbArc
 50
43.056499
 51
67.524912
  0
ARC
  5
212
330
18
100
AcDbEntity
  8
0
100
AcDbCircle
 10
5.318641
 20
7.198745
 30
0.0
 40
0.018677
100
AcDbArc
 50
67.524912
 51
99.99509300000001
  0
LINE
  5
213
330
18
100
AcDbEntity
  8
0
100
AcDbLine
 10
4.720707
 20
3.596134
 30
0.0
 11
4.781191000000001
 21
3.554168
 31
0.0
  0
LINE
  5
214
330
18
100
AcDbEntity
  8
0
100
AcDbLine
 10
4.781191000000001
 20
3.554168
 30
0.0
 11
4.817257
 21
3.520186
 31
0.0
  0
LINE
  5
215
330
18
100
AcDbEntity
  8
0
100
AcDbLine
 10
4.817257
 20
3.520186
 30
0.0
 11
4.877347
 21
3.521299
 31
0.0
  0
LINE
  5
216
330
18
100
AcDbEntity
  8
0
100
AcDbLine
 10
4.877347
 20
3.521299
 30
0.0
 11
4.933463
 21
3.431276
 31
0.0
  0
LINE
  5
217
330
18
100
AcDbEntity
  8
0
100
AcDbLine
 10
4.933463
 20
3.431276
 30
0.0
 11
4.962517
 21
3.403291
 31
0.0
  0
LINE
  5
218
330
18
100
AcDbEntity
  8
0
100
AcDbLine
 10
4.962517
 20
3.403291
 30
0.0
 11
5.009595
 21
3.381347
 31
0.0
  0
LINE
  5
219
330
18
100
AcDbEntity
  8
0
100
AcDbLine
 10
5.009595
 20
3.381347
 30
0.0
 11
5.046639
 21
3.415464
 31
0.0
  0
LINE
  5
21A
330
18
100
AcDbEntity
  8
0
100
AcDbLine
 10
5.046639
 20
3.415464
 30
0.0
 11
5.071666000000001
 21
3.444551
 31
0.0
  0
LINE
  5
21B
330
18
100
AcDbEntity
  8
0
100
AcDbLine
 10
5.071666000000001
 20
3.444551
 30
0.0
 11
5.113728
 21
3.450638
 31
0.0
  0
LINE
  5
21C
330
18
100
AcDbEntity
  8
0
100
AcDbLine
 10
5.113728
 20
3.450638
 30
0.0
 11
5.159802
 21
3.435702
 31
0.0
  0
LINE
  5
21D
330
18
100
AcDbEntity
  8
0
100
AcDbLine
 10
5.159802
 20
3.435702
 30
0.0
 11
5.221886000000001
 21
3.462855
 31
0.0
  0
LINE
  5
21E
330
18
100
AcDbEntity
  8
0
100
AcDbLine
 10
5.221886000000001
 20
3.462855
 30
0.0
 11
5.324036
 21
3.474061
 31
0.0
  0
LINE
  5
21F
330
18
100
AcDbEntity
  8
0
100
AcDbLine
 10
5.324036
 20
3.474061
 30
0.0
 11
5.398159
 21
3.44015
 31
0.0
  0
LINE
  5
220
330
18
100
AcDbEntity
  8
0
100
AcDbLine
 10
5.398159
 20
3.44015
 30
0.0
 11
5.462269
 21
3.402215
 31
0.0
  0
LINE
  5
221
330
18
100
AcDbEntity
  8
0
100
AcDbLine
 10
5.462269
 20
3.402215
 30
0.0
 11
5.515367
 21
3.352243
 31
0.0
  0
LINE
  5
222
330
18
100
AcDbEntity
  8
0
100
AcDbLine
 10
5.515367
 20
3.352243
 30
0.0
 11
5.576478
 21
3.29828
 31
0.0
  0
LINE
  5
223
330
18
100
AcDbEntity
  8
0
100
AcDbLine
 10
5.576478
 20
3.29828
 30
0.0
 11
5.65161
 21
3.243342
 31
0.0
  0
LINE
  5
224
330
18
100
AcDbEntity
  8
0
100
AcDbLine
 10
5.65161
 20
3.243342
 30
0.0
 11
5.745740000000001
 21
3.275562
 31
0.0
  0
LINE
  5
225
330
18
100
AcDbEntity
  8
0
100
AcDbLine
 10
5.745740000000001
 20
3.275562
 30
0.0
 11
5.802823
 21
3.285682
 31
0.0
  0
LINE
  5
226
330
18
100
AcDbEntity
  8
0
100
AcDbLine
 10
5.802823
 20
3.285682
 30
0.0
 11
5.957063
 21
3.262936
 31
0.0
  0
LINE
  5
227
330
18
100
AcDbEntity
  8
0
100
AcDbLine
 10
5.957063
 20
3.262936
 30
0.0
 11
6.078242
 21
3.272173
 31
0.0
  0
LINE
  5
228
330
18
100
AcDbEntity
  8
0
100
AcDbLine
 10
6.078242
 20
3.272173
 30
0.0
 11
6.203428
 21
3.279415
 31
0.0
  0
LINE
  5
229
330
18
100
AcDbEntity
  8
0
100
AcDbLine
 10
6.203428
 20
3.279415
 30
0.0
 11
6.303577
 21
3.282606
 31
0.0
  0
LINE
  5
22A
330
18
100
AcDbEntity
  8
0
100
AcDbLine
 10
6.303577
 20
3.282606
 30
0.0
 11
6.472852
 21
3.226841
 31
0.0
  0
LINE
  5
22B
330
18
100
AcDbEntity
  8
0
100
AcDbLine
 10
6.472852
 20
3.226841
 30
0.0
 11
6.621071000000001
 21
3.23713
 31
0.0
  0
LINE
  5
22C
330
18
100
AcDbEntity
  8
0
100
AcDbLine
 10
6.621071000000001
 20
3.23713
 30
0.0
 11
6.693178
 21
3.243272
 31
0.0
  0
LINE
  5
22D
330
18
100
AcDbEntity
  8
0
100
AcDbLine
 10
6.693178
 20
3.243272
 30
0.0
 11
6.761274
 21
3.261424
 31
0.0
  0
LINE
  5
22E
330
18
100
AcDbEntity
  8
0
100
AcDbLine
 10
6.761274
 20
3.261424
 30
0.0
 11
6.874439999999999
 21
3.273651
 31
0.0
  0
LINE
  5
22F
330
18
100
AcDbEntity
  8
0
100
AcDbLine
 10
6.874439999999999
 20
3.273651
 30
0.0
 11
7.013005000000001
 21
3.275912
 31
0.0
  0
LINE
  5
230
330
18
100
AcDbEntity
  8
0
100
AcDbLine
 10
3.46352
 20
8.331474999999999
 30
0.0
 11
3.467597
 21
8.129196
 31
0.0
  0
LINE
  5
231
330
18
100
AcDbEntity
  8
0
100
AcDbLine
 10
3.467597
 20
8.129196
 30
0.0
 11
3.400558
 21
7.954826
 31
0.0
  0
LINE
  5
232
330
18
100
AcDbEntity
  8
0
100
AcDbLine
 10
3.400558
 20
7.954826
 30
0.0
 11
3.433634
 21
7.880783
 31
0.0
  0
LINE
  5
233
330
18
100
AcDbEntity
  8
0
100
AcDbLine
 10
3.433634
 20
7.880783
 30
0.0
 11
3.449677
 21
7.828739
 31
0.0
  0
LINE
  5
234
330
18
100
AcDbEntity
  8
0
100
AcDbLine
 10
3.449677
 20
7.828739
 30
0.0
 11
3.438691
 21
7.741594999999999
 31
0.0
  0
LINE
  5
235
330
18
100
AcDbEntity
  8
0
100
AcDbLine
 10
3.438691
 20
7.741594999999999
 30
0.0
 11
3.416681
 21
7.675461
 31
0.0
  0
LINE
  5
236
330
18
100
AcDbEntity
  8
0
100
AcDbLine
 10
3.416681
 20
7.675461
 30
0.0
 11
3.411681
 21
7.654422
 31
0.0
  0
LINE
  5
237
330
18
100
AcDbEntity
  8
0
100
AcDbLine
 10
3.411681
 20
7.654422
 30
0.0
 11
3.434745
 21
7.570346000000001
 31
0.0
  0
LINE
  5
238
330
18
100
AcDbEntity
  8
0
100
AcDbLine
 10
3.434745
 20
7.570346000000001
 30
0.0
 11
3.400725
 21
7.484161
 31
0.0
  0
LINE
  5
239
330
18
100
AcDbEntity
  8
0
100
AcDbLine
 10
3.400725
 20
7.484161
 30
0.0
 11
3.364696
 21
7.412994
 31
0.0
  0
LINE
  5
23A
330
18
100
AcDbEntity
  8
0
100
AcDbLine
 10
3.364696
 20
7.412994
 30
0.0
 11
3.364709
 21
7.373939
 31
0.0
  0
LINE
  5
23B
330
18
100
AcDbEntity
  8
0
100
AcDbLine
 10
3.364709
 20
7.373939
 30
0.0
 11
3.370739
 21
7.315867999999999
 31
0.0
  0
LINE
  5
23C
330
18
100
AcDbEntity
  8
0
100
AcDbLine
 10
3.370739
 20
7.315867999999999
 30
0.0
 11
3.384792
 21
7.224765
 31
0.0
  0
LINE
  5
23D
330
18
100
AcDbEntity
  8
0
100
AcDbLine
 10
3.384495
 20
5.530216
 30
0.0
 11
3.428481
 21
5.461355
 31
0.0
  0
LINE
  5
23E
330
18
100
AcDbEntity
  8
0
100
AcDbLine
 10
3.428481
 20
5.461355
 30
0.0
 11
3.444521
 21
5.417322
 31
0.0
  0
LINE
  5
23F
330
18
100
AcDbEntity
  8
0
100
AcDbLine
 10
3.444521
 20
5.417322
 30
0.0
 11
3.459562000000001
 21
5.364275
 31
0.0
  0
LINE
  5
240
330
18
100
AcDbEntity
  8
0
100
AcDbLine
 10
3.459562000000001
 20
5.364275
 30
0.0
 11
3.461581
 21
5.319215
 31
0.0
  0
LINE
  5
241
330
18
100
AcDbEntity
  8
0
100
AcDbLine
 10
3.461581
 20
5.319215
 30
0.0
 11
3.454583
 21
5.283151
 31
0.0
  0
LINE
  5
242
330
18
100
AcDbEntity
  8
0
100
AcDbLine
 10
3.454583
 20
5.283151
 30
0.0
 11
3.45159
 21
5.251101
 31
0.0
  0
LINE
  5
243
330
18
100
AcDbEntity
  8
0
100
AcDbLine
 10
3.45159
 20
5.251101
 30
0.0
 11
3.495663
 21
5.233157
 31
0.0
  0
LINE
  5
244
330
18
100
AcDbEntity
  8
0
100
AcDbLine
 10
3.495663
 20
5.233157
 30
0.0
 11
3.53273
 21
5.202182
 31
0.0
  0
LINE
  5
245
330
18
100
AcDbEntity
  8
0
100
AcDbLine
 10
3.53273
 20
5.202182
 30
0.0
 11
3.555774
 21
5.174185
 31
0.0
  0
LINE
  5
246
330
18
100
AcDbEntity
  8
0
100
AcDbLine
 10
3.555774
 20
5.174185
 30
0.0
 11
3.605852
 21
5.167268
 31
0.0
  0
LINE
  5
247
330
18
100
AcDbEntity
  8
0
100
AcDbLine
 10
3.605852
 20
5.167268
 30
0.0
 11
3.634914
 21
5.115249
 31
0.0
  0
LINE
  5
248
330
18
100
AcDbEntity
  8
0
100
AcDbLine
 10
3.634914
 20
5.115249
 30
0.0
 11
3.645944
 21
5.076214
 31
0.0
  0
LINE
  5
249
330
18
100
AcDbEntity
  8
0
100
AcDbLine
 10
3.645944
 20
5.076214
 30
0.0
 11
3.608896
 21
5.055115
 31
0.0
  0
LINE
  5
24A
330
18
100
AcDbEntity
  8
0
100
AcDbLine
 10
3.608896
 20
5.055115
 30
0.0
 11
3.587875
 21
5.026035
 31
0.0
  0
LINE
  5
24B
330
18
100
AcDbEntity
  8
0
100
AcDbLine
 10
3.587875
 20
5.026035
 30
0.0
 11
3.588893
 21
4.979972
 31
0.0
  0
LINE
  5
24C
330
18
100
AcDbEntity
  8
0
100
AcDbLine
 10
3.588893
 20
4.979972
 30
0.0
 11
3.570886
 21
4.922858
 31
0.0
  0
LINE
  5
24D
330
18
100
AcDbEntity
  8
0
100
AcDbLine
 10
3.570886
 20
4.922858
 30
0.0
 11
3.562885
 21
4.891799
 31
0.0
  0
LINE
  5
24E
330
18
100
AcDbEntity
  8
0
100
AcDbLine
 10
3.562885
 20
4.891799
 30
0.0
 11
3.581935
 21
4.83175
 31
0.0
  0
LINE
  5
24F
330
18
100
AcDbEntity
  8
0
100
AcDbLine
 10
3.581935
 20
4.83175
 30
0.0
 11
3.596982
 21
4.762680000000001
 31
0.0
  0
LINE
  5
250
330
18
100
AcDbEntity
  8
0
100
AcDbLine
 10
3.596982
 20
4.762680000000001
 30
0.0
 11
3.594003
 21
4.690573000000001
 31
0.0
  0
LINE
  5
251
330
18
100
AcDbEntity
  8
0
100
AcDbLine
 10
3.594003
 20
4.690573000000001
 30
0.0
 11
3.599033
 21
4.626491000000001
 31
0.0
  0
LINE
  5
252
330
18
100
AcDbEntity
  8
0
100
AcDbLine
 10
3.599033
 20
4.626491000000001
 30
0.0
 11
3.602043
 21
4.609473
 31
0.0
  0
LINE
  5
253
330
18
100
AcDbEntity
  8
0
100
AcDbLine
 10
3.602043
 20
4.609473
 30
0.0
 11
3.6371
 21
4.597521
 31
0.0
  0
LINE
  5
254
330
18
100
AcDbEntity
  8
0
100
AcDbLine
 10
3.6371
 20
4.597521
 30
0.0
 11
3.680179
 21
4.559547
 31
0.0
  0
LINE
  5
255
330
18
100
AcDbEntity
  8
0
100
AcDbLine
 10
3.680179
 20
4.559547
 30
0.0
 11
3.701216000000001
 21
4.542562
 31
0.0
  0
LINE
  5
256
330
18
100
AcDbEntity
  8
0
100
AcDbLine
 10
3.701216000000001
 20
4.542562
 30
0.0
 11
3.711245
 21
4.503526
 31
0.0
  0
LINE
  5
257
330
18
100
AcDbEntity
  8
0
100
AcDbLine
 10
3.711245
 20
4.503526
 30
0.0
 11
3.774367
 21
4.426533999999999
 31
0.0
  0
LINE
  5
258
330
18
100
AcDbEntity
  8
0
100
AcDbLine
 10
3.774367
 20
4.426533999999999
 30
0.0
 11
3.836472
 21
4.394604
 31
0.0
  0
LINE
  5
259
330
18
100
AcDbEntity
  8
0
100
AcDbLine
 10
3.836472
 20
4.394604
 30
0.0
 11
3.883558
 21
4.351630999999999
 31
0.0
  0
LINE
  5
25A
330
18
100
AcDbEntity
  8
0
100
AcDbLine
 10
3.883558
 20
4.351630999999999
 30
0.0
 11
3.89759
 21
4.320613
 31
0.0
  0
LINE
  5
25B
330
18
100
AcDbEntity
  8
0
100
AcDbLine
 10
3.89759
 20
4.320613
 30
0.0
 11
3.914627
 21
4.288599
 31
0.0
  0
LINE
  5
25C
330
18
100
AcDbEntity
  8
0
100
AcDbLine
 10
3.914627
 20
4.288599
 30
0.0
 11
3.979735
 21
4.259679
 31
0.0
  0
LINE
  5
25D
330
18
100
AcDbEntity
  8
0
100
AcDbLine
 10
3.979735
 20
4.259679
 30
0.0
 11
4.031827
 21
4.221722
 31
0.0
  0
LINE
  5
25E
330
18
100
AcDbEntity
  8
0
100
AcDbLine
 10
4.031827
 20
4.221722
 30
0.0
 11
4.076664
 21
4.183774
 31
0.0
  0
LINE
  5
25F
330
18
100
AcDbEntity
  8
0
100
AcDbLine
 10
4.976146
 20
6.483134
 30
0.0
 11
4.158193
 21
3.725255
 31
0.0
  0
ARC
  5
260
330
18
100
AcDbEntity
  8
0
100
AcDbCircle
 10
3.850621
 20
3.816477
 30
0.0
 40
0.320815
100
AcDbArc
 50
319.933668
 51
343.480276
  0
ARC
  5
261
330
18
100
AcDbEntity
  8
0
100
AcDbCircle
 10
4.107498000000001
 20
3.600424
 30
0.0
 40
0.014842
100
AcDbArc
 50
139.933668
 51
205.858189
  0
LINE
  5
262
330
18
100
AcDbEntity
  8
0
100
AcDbLine
 10
4.094143
 20
3.59395
 30
0.0
 11
4.103886
 21
3.571263
 31
0.0
  0
LINE
  5
263
330
18
100
AcDbEntity
  8
0
100
AcDbLine
 10
4.263272
 20
4.079548
 30
0.0
 11
4.306702
 21
4.022629
 31
0.0
  0
ARC
  5
264
330
18
100
AcDbEntity
  8
0
100
AcDbCircle
 10
4.249191000000001
 20
3.218217
 30
0.0
 40
0.016809
100
AcDbArc
 50
227.534725
 51
247.474869
  0
ARC
  5
265
330
18
100
AcDbEntity
  8
0
100
AcDbCircle
 10
4.257597000000001
 20
3.227401
 30
0.0
 40
0.029259
100
AcDbArc
 50
203.066313
 51
227.534725
  0
ARC
  5
266
330
18
100
AcDbEntity
  8
0
100
AcDbCircle
 10
4.269252
 20
3.232364
 30
0.0
 40
0.041927
100
AcDbArc
 50
185.094455
 51
203.066313
  0
ARC
  5
267
330
18
100
AcDbEntity
  8
0
100
AcDbCircle
 10
4.286586
 20
3.233909
 30
0.0
 40
0.05933
100
AcDbArc
 50
170.004907
 51
185.094455
  0
ARC
  5
268
330
18
100
AcDbEntity
  8
0
100
AcDbCircle
 10
4.286586
 20
3.233909
 30
0.0
 40
0.05933
100
AcDbArc
 50
154.915358
 51
170.004907
  0
ARC
  5
269
330
18
100
AcDbEntity
  8
0
100
AcDbCircle
 10
4.270824
 20
3.241287
 30
0.0
 40
0.041927
100
AcDbArc
 50
136.943501
 51
154.915358
  0
ARC
  5
26A
330
18
100
AcDbEntity
  8
0
100
AcDbCircle
 10
4.261568000000001
 20
3.249936
 30
0.0
 40
0.029259
100
AcDbArc
 50
112.475088
 51
136.943501
  0
ARC
  5
26B
330
18
100
AcDbEntity
  8
0
100
AcDbCircle
 10
4.256809
 20
3.26144
 30
0.0
 40
0.016809
100
AcDbArc
 50
80.00490699999999
 51
112.475088
  0
ARC
  5
26C
330
18
100
AcDbEntity
  8
0
100
AcDbCircle
 10
4.256809
 20
3.26144
 30
0.0
 40
0.016809
100
AcDbArc
 50
62.37938100000001
 51
80.00490699999999
  0
ARC
  5
26D
330
18
100
AcDbEntity
  8
0
100
AcDbCircle
 10
4.285996
 20
3.246966
 30
0.0
 40
0.016809
100
AcDbArc
 50
47.534725
 51
80.00490699999999
  0
ARC
  5
26E
330
18
100
AcDbEntity
  8
0
100
AcDbCircle
 10
4.27759
 20
3.237782
 30
0.0
 40
0.029259
100
AcDbArc
 50
23.066313
 51
47.534725
  0
ARC
  5
26F
330
18
100
AcDbEntity
  8
0
100
AcDbCircle
 10
4.265935
 20
3.232819
 30
0.0
 40
0.041927
100
AcDbArc
 50
5.094455
 51
23.066313
  0
ARC
  5
270
330
18
100
AcDbEntity
  8
0
100
AcDbCircle
 10
4.248601
 20
3.231273
 30
0.0
 40
0.05933
100
AcDbArc
 50
350.004907
 51
5.094455
  0
ARC
  5
271
330
18
100
AcDbEntity
  8
0
100
AcDbCircle
 10
4.248601
 20
3.231273
 30
0.0
 40
0.05933
100
AcDbArc
 50
334.915358
 51
350.004907
  0
ARC
  5
272
330
18
100
AcDbEntity
  8
0
100
AcDbCircle
 10
4.264362
 20
3.223895
 30
0.0
 40
0.041927
100
AcDbArc
 50
316.943501
 51
334.915358
  0
ARC
  5
273
330
18
100
AcDbEntity
  8
0
100
AcDbCircle
 10
4.273619
 20
3.215246
 30
0.0
 40
0.029259
100
AcDbArc
 50
292.475088
 51
316.943501
  0
ARC
  5
274
330
18
100
AcDbEntity
  8
0
100
AcDbCircle
 10
4.278378
 20
3.203742
 30
0.0
 40
0.016809
100
AcDbArc
 50
260.004907
 51
292.475088
  0
ARC
  5
275
330
18
100
AcDbEntity
  8
0
100
AcDbCircle
 10
4.278378
 20
3.203742
 30
0.0
 40
0.016809
100
AcDbArc
 50
227.534725
 51
260.004907
  0
ARC
  5
276
330
18
100
AcDbEntity
  8
0
100
AcDbCircle
 10
4.286783
 20
3.212926
 30
0.0
 40
0.029259
100
AcDbArc
 50
203.066313
 51
227.534725
  0
ARC
  5
277
330
18
100
AcDbEntity
  8
0
100
AcDbCircle
 10
4.298439
 20
3.21789
 30
0.0
 40
0.041927
100
AcDbArc
 50
185.094455
 51
203.066313
  0
ARC
  5
278
330
18
100
AcDbEntity
  8
0
100
AcDbCircle
 10
4.315773
 20
3.219435
 30
0.0
 40
0.05933
100
AcDbArc
 50
170.004907
 51
185.094455
  0
ARC
  5
279
330
18
100
AcDbEntity
  8
0
100
AcDbCircle
 10
4.315773
 20
3.219435
 30
0.0
 40
0.05933
100
AcDbArc
 50
154.915358
 51
170.004907
  0
ARC
  5
27A
330
18
100
AcDbEntity
  8
0
100
AcDbCircle
 10
4.300011000000001
 20
3.226813
 30
0.0
 40
0.041927
100
AcDbArc
 50
136.943501
 51
154.915358
  0
ARC
  5
27B
330
18
100
AcDbEntity
  8
0
100
AcDbCircle
 10
4.290755
 20
3.235462
 30
0.0
 40
0.029259
100
AcDbArc
 50
112.475088
 51
136.943501
  0
ARC
  5
27C
330
18
100
AcDbEntity
  8
0
100
AcDbCircle
 10
4.285996
 20
3.246966
 30
0.0
 40
0.016809
100
AcDbArc
 50
80.00490699999999
 51
112.475088
  0
ARC
  5
27D
330
18
100
AcDbEntity
  8
0
100
AcDbCircle
 10
4.266947
 20
3.214631
 30
0.0
 40
0.022378
100
AcDbArc
 50
202.361999
 51
226.973384
  0
ARC
  5
27E
330
18
100
AcDbEntity
  8
0
100
AcDbCircle
 10
4.284827
 20
3.222544
 30
0.0
 40
0.041927
100
AcDbArc
 50
185.094455
 51
203.066313
  0
ARC
  5
27F
330
18
100
AcDbEntity
  8
0
100
AcDbCircle
 10
4.302161
 20
3.22409
 30
0.0
 40
0.05933
100
AcDbArc
 50
170.004907
 51
185.094455
  0
ARC
  5
280
330
18
100
AcDbEntity
  8
0
100
AcDbCircle
 10
4.302161
 20
3.22409
 30
0.0
 40
0.05933
100
AcDbArc
 50
154.915358
 51
170.004907
  0
ARC
  5
281
330
18
100
AcDbEntity
  8
0
100
AcDbCircle
 10
4.2864
 20
3.231468
 30
0.0
 40
0.041927
100
AcDbArc
 50
136.943501
 51
154.915358
  0
ARC
  5
282
330
18
100
AcDbEntity
  8
0
100
AcDbCircle
 10
4.277143
 20
3.240116
 30
0.0
 40
0.029259
100
AcDbArc
 50
112.475088
 51
136.943501
  0
ARC
  5
283
330
18
100
AcDbEntity
  8
0
100
AcDbCircle
 10
4.274714
 20
3.239165
 30
0.0
 40
0.029325
100
AcDbArc
 50
74.860669
 51
107.371399
  0
ARC
  5
284
330
18
100
AcDbEntity
  8
0
100
AcDbCircle
 10
5.272838
 20
7.176010000000001
 30
0.0
 40
0.018677
100
AcDbArc
 50
99.99509300000001
 51
132.465275
  0
ARC
  5
285
330
18
100
AcDbEntity
  8
0
100
AcDbCircle
 10
5.282177
 20
7.165806
 30
0.0
 40
0.03251
100
AcDbArc
 50
132.465275
 51
156.933687
  0
ARC
  5
286
330
18
100
AcDbEntity
  8
0
100
AcDbCircle
 10
5.295127
 20
7.160291
 30
0.0
 40
0.046585
100
AcDbArc
 50
156.933687
 51
174.905545
  0
ARC
  5
287
330
18
100
AcDbEntity
  8
0
100
AcDbCircle
 10
5.314387
 20
7.158574000000001
 30
0.0
 40
0.065922
100
AcDbArc
 50
174.905545
 51
189.995093
  0
ARC
  5
288
330
18
100
AcDbEntity
  8
0
100
AcDbCircle
 10
5.314387
 20
7.158574000000001
 30
0.0
 40
0.065922
100
AcDbArc
 50
189.995093
 51
205.084642
  0
ARC
  5
289
330
18
100
AcDbEntity
  8
0
100
AcDbCircle
 10
5.296875
 20
7.150376
 30
0.0
 40
0.046585
100
AcDbArc
 50
205.084642
 51
223.056499
  0
ARC
  5
28A
330
18
100
AcDbEntity
  8
0
100
AcDbCircle
 10
5.28659
 20
7.140766
 30
0.0
 40
0.03251
100
AcDbArc
 50
223.056499
 51
247.524912
  0
ARC
  5
28B
330
18
100
AcDbEntity
  8
0
100
AcDbCircle
 10
5.281301999999999
 20
7.127984
 30
0.0
 40
0.018677
100
AcDbArc
 50
247.524912
 51
279.995093
  0
ARC
  5
28C
330
18
100
AcDbEntity
  8
0
100
AcDbCircle
 10
5.281301999999999
 20
7.127984
 30
0.0
 40
0.018677
100
AcDbArc
 50
279.995093
 51
312.465275
  0
ARC
  5
28D
330
18
100
AcDbEntity
  8
0
100
AcDbCircle
 10
5.271962
 20
7.138188
 30
0.0
 40
0.03251
100
AcDbArc
 50
312.465275
 51
336.933687
  0
ARC
  5
28E
330
18
100
AcDbEntity
  8
0
100
AcDbCircle
 10
5.259012
 20
7.143703
 30
0.0
 40
0.046585
100
AcDbArc
 50
336.933687
 51
354.905545
  0
ARC
  5
28F
330
18
100
AcDbEntity
  8
0
100
AcDbCircle
 10
5.239751999999999
 20
7.14542
 30
0.0
 40
0.065922
100
AcDbArc
 50
354.905545
 51
9.995092999999999
  0
ARC
  5
290
330
18
100
AcDbEntity
  8
0
100
AcDbCircle
 10
5.239751999999999
 20
7.14542
 30
0.0
 40
0.065922
100
AcDbArc
 50
9.995092999999999
 51
25.08464200000001
  0
ARC
  5
291
330
18
100
AcDbEntity
  8
0
100
AcDbCircle
 10
5.257265
 20
7.153617999999999
 30
0.0
 40
0.046585
100
AcDbArc
 50
25.08464200000001
 51
43.056499
  0
ARC
  5
292
330
18
100
AcDbEntity
  8
0
100
AcDbCircle
 10
5.267549
 20
7.163228
 30
0.0
 40
0.03251
100
AcDbArc
 50
43.056499
 51
67.524912
  0
ARC
  5
293
330
18
100
AcDbEntity
  8
0
100
AcDbCircle
 10
5.272838
 20
7.176010000000001
 30
0.0
 40
0.018677
100
AcDbArc
 50
67.524912
 51
99.99509300000001
  0
ARC
  5
294
330
18
100
AcDbEntity
  8
0
100
AcDbCircle
 10
5.318641
 20
7.198745
 30
0.0
 40
0.018677
100
AcDbArc
 50
99.99509300000001
 51
117.620619
  0
ARC
  5
295
330
18
100
AcDbEntity
  8
0
100
AcDbCircle
 10
4.517444
 20
6.525182
 30
0.0
 40
0.012445
100
AcDbArc
 50
179.581929
 51
211.081618
  0
ARC
  5
296
330
18
100
AcDbEntity
  8
0
100
AcDbCircle
 10
4.53667
 20
6.536771
 30
0.0
 40
0.034894
100
AcDbArc
 50
211.081618
 51
234.769172
  0
ARC
  5
297
330
18
100
AcDbEntity
  8
0
100
AcDbCircle
 10
4.551688
 20
6.558035
 30
0.0
 40
0.060926
100
AcDbArc
 50
234.769172
 51
249.403669
  0
ARC
  5
298
330
18
100
AcDbEntity
  8
0
100
AcDbCircle
 10
4.565036
 20
6.593556
 30
0.0
 40
0.098873
100
AcDbArc
 50
249.403669
 51
260.879575
  0
ARC
  5
299
330
18
100
AcDbEntity
  8
0
100
AcDbCircle
 10
4.565036
 20
6.593556
 30
0.0
 40
0.098873
100
AcDbArc
 50
260.879575
 51
272.35548
  0
ARC
  5
29A
330
18
100
AcDbEntity
  8
0
100
AcDbCircle
 10
4.566596
 20
6.555642
 30
0.0
 40
0.060926
100
AcDbArc
 50
272.35548
 51
286.989978
  0
ARC
  5
29B
330
18
100
AcDbEntity
  8
0
100
AcDbCircle
 10
4.574203
 20
6.530746
 30
0.0
 40
0.034894
100
AcDbArc
 50
286.989978
 51
310.677532
  0
ARC
  5
29C
330
18
100
AcDbEntity
  8
0
100
AcDbCircle
 10
4.588835
 20
6.513721
 30
0.0
 40
0.012445
100
AcDbArc
 50
310.677532
 51
350.879575
  0
ARC
  5
29D
330
18
100
AcDbEntity
  8
0
100
AcDbCircle
 10
4.588835
 20
6.513721
 30
0.0
 40
0.012445
100
AcDbArc
 50
350.879575
 51
3.561794
  0
ARC
  5
29E
330
18
100
AcDbEntity
  8
0
100
AcDbCircle
 10
4.517444
 20
6.534076
 30
0.0
 40
0.012445
100
AcDbArc
 50
170.879575
 51
211.081618
  0
ARC
  5
29F
330
18
100
AcDbEntity
  8
0
100
AcDbCircle
 10
4.53667
 20
6.545666000000001
 30
0.0
 40
0.034894
100
AcDbArc
 50
211.081618
 51
234.769172
  0
ARC
  5
2A0
330
18
100
AcDbEntity
  8
0
100
AcDbCircle
 10
4.551688
 20
6.56693
 30
0.0
 40
0.060926
100
AcDbArc
 50
234.769172
 51
249.403669
  0
ARC
  5
2A1
330
18
100
AcDbEntity
  8
0
100
AcDbCircle
 10
4.565036
 20
6.602450999999999
 30
0.0
 40
0.098873
100
AcDbArc
 50
249.403669
 51
260.879575
  0
ARC
  5
2A2
330
18
100
AcDbEntity
  8
0
100
AcDbCircle
 10
4.565036
 20
6.602450999999999
 30
0.0
 40
0.098873
100
AcDbArc
 50
260.879575
 51
272.35548
  0
ARC
  5
2A3
330
18
100
AcDbEntity
  8
0
100
AcDbCircle
 10
4.566596
 20
6.564537
 30
0.0
 40
0.060926
100
AcDbArc
 50
272.35548
 51
286.989978
  0
ARC
  5
2A4
330
18
100
AcDbEntity
  8
0
100
AcDbCircle
 10
4.574203
 20
6.53964
 30
0.0
 40
0.034894
100
AcDbArc
 50
286.989978
 51
310.677532
  0
ARC
  5
2A5
330
18
100
AcDbEntity
  8
0
100
AcDbCircle
 10
4.588835
 20
6.522615
 30
0.0
 40
0.012445
100
AcDbArc
 50
310.677532
 51
350.879575
  0
ARC
  5
2A6
330
18
100
AcDbEntity
  8
0
100
AcDbCircle
 10
4.588835
 20
6.522615
 30
0.0
 40
0.012445
100
AcDbArc
 50
350.879575
 51
31.081618
  0
ARC
  5
2A7
330
18
100
AcDbEntity
  8
0
100
AcDbCircle
 10
4.569609
 20
6.511026
 30
0.0
 40
0.034894
100
AcDbArc
 50
31.081618
 51
54.76917200000001
  0
ARC
  5
2A8
330
18
100
AcDbEntity
  8
0
100
AcDbCircle
 10
4.554592
 20
6.489762000000001
 30
0.0
 40
0.060926
100
AcDbArc
 50
54.76917200000001
 51
69.40366899999999
  0
ARC
  5
2A9
330
18
100
AcDbEntity
  8
0
100
AcDbCircle
 10
4.541243
 20
6.454241000000001
 30
0.0
 40
0.098873
100
AcDbArc
 50
69.40366899999999
 51
80.879575
  0
ARC
  5
2AA
330
18
100
AcDbEntity
  8
0
100
AcDbCircle
 10
4.541243
 20
6.454241000000001
 30
0.0
 40
0.098873
100
AcDbArc
 50
80.879575
 51
92.35547999999999
  0
ARC
  5
2AB
330
18
100
AcDbEntity
  8
0
100
AcDbCircle
 10
4.539683
 20
6.492155
 30
0.0
 40
0.060926
100
AcDbArc
 50
92.35547999999999
 51
106.989978
  0
ARC
  5
2AC
330
18
100
AcDbEntity
  8
0
100
AcDbCircle
 10
4.532076
 20
6.517052
 30
0.0
 40
0.034894
100
AcDbArc
 50
106.989978
 51
130.677532
  0
ARC
  5
2AD
330
18
100
AcDbEntity
  8
0
100
AcDbCircle
 10
4.517444
 20
6.534076
 30
0.0
 40
0.012445
100
AcDbArc
 50
130.677532
 51
170.879575
  0
ARC
  5
2AE
330
18
100
AcDbEntity
  8
0
100
AcDbCircle
 10
4.32171
 20
6.574369
 30
0.0
 40
0.012445
100
AcDbArc
 50
179.581929
 51
211.081618
  0
ARC
  5
2AF
330
18
100
AcDbEntity
  8
0
100
AcDbCircle
 10
4.340936
 20
6.585958
 30
0.0
 40
0.034894
100
AcDbArc
 50
211.081618
 51
234.769172
  0
ARC
  5
2B0
330
18
100
AcDbEntity
  8
0
100
AcDbCircle
 10
4.355953
 20
6.607222999999999
 30
0.0
 40
0.060926
100
AcDbArc
 50
234.769172
 51
249.403669
  0
ARC
  5
2B1
330
18
100
AcDbEntity
  8
0
100
AcDbCircle
 10
4.369301999999999
 20
6.642744
 30
0.0
 40
0.098873
100
AcDbArc
 50
249.403669
 51
260.879575
  0
ARC
  5
2B2
330
18
100
AcDbEntity
  8
0
100
AcDbCircle
 10
4.369301999999999
 20
6.642744
 30
0.0
 40
0.098873
100
AcDbArc
 50
260.879575
 51
272.35548
  0
ARC
  5
2B3
330
18
100
AcDbEntity
  8
0
100
AcDbCircle
 10
4.370862000000001
 20
6.604829
 30
0.0
 40
0.060926
100
AcDbArc
 50
272.35548
 51
286.989978
  0
ARC
  5
2B4
330
18
100
AcDbEntity
  8
0
100
AcDbCircle
 10
4.378469
 20
6.579933000000001
 30
0.0
 40
0.034894
100
AcDbArc
 50
286.989978
 51
310.677532
  0
ARC
  5
2B5
330
18
100
AcDbEntity
  8
0
100
AcDbCircle
 10
4.393101000000001
 20
6.562908
 30
0.0
 40
0.012445
100
AcDbArc
 50
310.677532
 51
350.879575
  0
ARC
  5
2B6
330
18
100
AcDbEntity
  8
0
100
AcDbCircle
 10
4.393101000000001
 20
6.562908
 30
0.0
 40
0.012445
100
AcDbArc
 50
350.879575
 51
3.561794
  0
ARC
  5
2B7
330
18
100
AcDbEntity
  8
0
100
AcDbCircle
 10
4.32171
 20
6.583264
 30
0.0
 40
0.012445
100
AcDbArc
 50
170.879575
 51
211.081618
  0
ARC
  5
2B8
330
18
100
AcDbEntity
  8
0
100
AcDbCircle
 10
4.340936
 20
6.594853
 30
0.0
 40
0.034894
100
AcDbArc
 50
211.081618
 51
234.769172
  0
ARC
  5
2B9
330
18
100
AcDbEntity
  8
0
100
AcDbCircle
 10
4.355953
 20
6.616117
 30
0.0
 40
0.060926
100
AcDbArc
 50
234.769172
 51
249.403669
  0
ARC
  5
2BA
330
18
100
AcDbEntity
  8
0
100
AcDbCircle
 10
4.369301999999999
 20
6.651638
 30
0.0
 40
0.098873
100
AcDbArc
 50
249.403669
 51
260.879575
  0
ARC
  5
2BB
330
18
100
AcDbEntity
  8
0
100
AcDbCircle
 10
4.369301999999999
 20
6.651638
 30
0.0
 40
0.098873
100
AcDbArc
 50
260.879575
 51
272.35548
  0
ARC
  5
2BC
330
18
100
AcDbEntity
  8
0
100
AcDbCircle
 10
4.370862000000001
 20
6.613724
 30
0.0
 40
0.060926
100
AcDbArc
 50
272.35548
 51
286.989978
  0
ARC
  5
2BD
330
18
100
AcDbEntity
  8
0
100
AcDbCircle
 10
4.378469
 20
6.588827
 30
0.0
 40
0.034894
100
AcDbArc
 50
286.989978
 51
310.677532
  0
ARC
  5
2BE
330
18
100
AcDbEntity
  8
0
100
AcDbCircle
 10
4.393101000000001
 20
6.571803
 30
0.0
 40
0.012445
100
AcDbArc
 50
310.677532
 51
350.879575
  0
ARC
  5
2BF
330
18
100
AcDbEntity
  8
0
100
AcDbCircle
 10
4.393101000000001
 20
6.571803
 30
0.0
 40
0.012445
100
AcDbArc
 50
350.879575
 51
31.081618
  0
ARC
  5
2C0
330
18
100
AcDbEntity
  8
0
100
AcDbCircle
 10
4.373875
 20
6.560213
 30
0.0
 40
0.034894
100
AcDbArc
 50
31.081618
 51
54.76917200000001
  0
ARC
  5
2C1
330
18
100
AcDbEntity
  8
0
100
AcDbCircle
 10
4.358857
 20
6.538949
 30
0.0
 40
0.060926
100
AcDbArc
 50
54.76917200000001
 51
69.40366899999999
  0
ARC
  5
2C2
330
18
100
AcDbEntity
  8
0
100
AcDbCircle
 10
4.345509
 20
6.503428
 30
0.0
 40
0.098873
100
AcDbArc
 50
69.40366899999999
 51
80.879575
  0
ARC
  5
2C3
330
18
100
AcDbEntity
  8
0
100
AcDbCircle
 10
4.345509
 20
6.503428
 30
0.0
 40
0.098873
100
AcDbArc
 50
80.879575
 51
92.35547999999999
  0
ARC
  5
2C4
330
18
100
AcDbEntity
  8
0
100
AcDbCircle
 10
4.343948999999999
 20
6.541342
 30
0.0
 40
0.060926
100
AcDbArc
 50
92.35547999999999
 51
106.989978
  0
ARC
  5
2C5
330
18
100
AcDbEntity
  8
0
100
AcDbCircle
 10
4.336342
 20
6.566239
 30
0.0
 40
0.034894
100
AcDbArc
 50
106.989978
 51
130.677532
  0
ARC
  5
2C6
330
18
100
AcDbEntity
  8
0
100
AcDbCircle
 10
4.32171
 20
6.583264
 30
0.0
 40
0.012445
100
AcDbArc
 50
130.677532
 51
170.879575
  0
ARC
  5
2C7
330
18
100
AcDbEntity
  8
0
100
AcDbCircle
 10
4.800537
 20
6.692375999999999
 30
0.0
 40
0.012196
100
AcDbArc
 50
179.581929
 51
211.081618
  0
ARC
  5
2C8
330
18
100
AcDbEntity
  8
0
100
AcDbCircle
 10
4.819378
 20
6.703734
 30
0.0
 40
0.034196
100
AcDbArc
 50
211.081618
 51
234.769172
  0
ARC
  5
2C9
330
18
100
AcDbEntity
  8
0
100
AcDbCircle
 10
4.834096
 20
6.724573
 30
0.0
 40
0.059708
100
AcDbArc
 50
234.769172
 51
249.403669
  0
ARC
  5
2CA
330
18
100
AcDbEntity
  8
0
100
AcDbCircle
 10
4.847178
 20
6.759384
 30
0.0
 40
0.096895
100
AcDbArc
 50
249.403669
 51
260.879575
  0
ARC
  5
2CB
330
18
100
AcDbEntity
  8
0
100
AcDbCircle
 10
4.847178
 20
6.759384
 30
0.0
 40
0.096895
100
AcDbArc
 50
260.879575
 51
272.35548
  0
ARC
  5
2CC
330
18
100
AcDbEntity
  8
0
100
AcDbCircle
 10
4.848706
 20
6.722228
 30
0.0
 40
0.059708
100
AcDbArc
 50
272.35548
 51
286.989978
  0
ARC
  5
2CD
330
18
100
AcDbEntity
  8
0
100
AcDbCircle
 10
4.856161
 20
6.697829
 30
0.0
 40
0.034196
100
AcDbArc
 50
286.989978
 51
310.677532
  0
ARC
  5
2CE
330
18
100
AcDbEntity
  8
0
100
AcDbCircle
 10
4.8705
 20
6.681145
 30
0.0
 40
0.012196
100
AcDbArc
 50
310.677532
 51
350.879575
  0
ARC
  5
2CF
330
18
100
AcDbEntity
  8
0
100
AcDbCircle
 10
4.8705
 20
6.681145
 30
0.0
 40
0.012196
100
AcDbArc
 50
350.879575
 51
3.561794
  0
ARC
  5
2D0
330
18
100
AcDbEntity
  8
0
100
AcDbCircle
 10
4.800537
 20
6.701092999999999
 30
0.0
 40
0.012196
100
AcDbArc
 50
170.879575
 51
211.081618
  0
ARC
  5
2D1
330
18
100
AcDbEntity
  8
0
100
AcDbCircle
 10
4.819378
 20
6.712451
 30
0.0
 40
0.034196
100
AcDbArc
 50
211.081618
 51
234.769172
  0
ARC
  5
2D2
330
18
100
AcDbEntity
  8
0
100
AcDbCircle
 10
4.834096
 20
6.733289999999999
 30
0.0
 40
0.059708
100
AcDbArc
 50
234.769172
 51
249.403669
  0
ARC
  5
2D3
330
18
100
AcDbEntity
  8
0
100
AcDbCircle
 10
4.847178
 20
6.768101
 30
0.0
 40
0.096895
100
AcDbArc
 50
249.403669
 51
260.879575
  0
ARC
  5
2D4
330
18
100
AcDbEntity
  8
0
100
AcDbCircle
 10
4.847178
 20
6.768101
 30
0.0
 40
0.096895
100
AcDbArc
 50
260.879575
 51
272.35548
  0
ARC
  5
2D5
330
18
100
AcDbEntity
  8
0
100
AcDbCircle
 10
4.848706
 20
6.730944999999999
 30
0.0
 40
0.059708
100
AcDbArc
 50
272.35548
 51
286.989978
  0
ARC
  5
2D6
330
18
100
AcDbEntity
  8
0
100
AcDbCircle
 10
4.856161
 20
6.706546
 30
0.0
 40
0.034196
100
AcDbArc
 50
286.989978
 51
310.677532
  0
ARC
  5
2D7
330
18
100
AcDbEntity
  8
0
100
AcDbCircle
 10
4.8705
 20
6.689861000000001
 30
0.0
 40
0.012196
100
AcDbArc
 50
310.677532
 51
350.879575
  0
ARC
  5
2D8
330
18
100
AcDbEntity
  8
0
100
AcDbCircle
 10
4.8705
 20
6.689861000000001
 30
0.0
 40
0.012196
100
AcDbArc
 50
350.879575
 51
31.081618
  0
ARC
  5
2D9
330
18
100
AcDbEntity
  8
0
100
AcDbCircle
 10
4.851659
 20
6.678503999999999
 30
0.0
 40
0.034196
100
AcDbArc
 50
31.081618
 51
54.76917200000001
  0
ARC
  5
2DA
330
18
100
AcDbEntity
  8
0
100
AcDbCircle
 10
4.836942
 20
6.657665
 30
0.0
 40
0.059708
100
AcDbArc
 50
54.76917200000001
 51
69.40366899999999
  0
ARC
  5
2DB
330
18
100
AcDbEntity
  8
0
100
AcDbCircle
 10
4.82386
 20
6.622853999999999
 30
0.0
 40
0.096895
100
AcDbArc
 50
69.40366899999999
 51
80.879575
  0
ARC
  5
2DC
330
18
100
AcDbEntity
  8
0
100
AcDbCircle
 10
4.82386
 20
6.622853999999999
 30
0.0
 40
0.096895
100
AcDbArc
 50
80.879575
 51
92.35547999999999
  0
ARC
  5
2DD
330
18
100
AcDbEntity
  8
0
100
AcDbCircle
 10
4.822331
 20
6.660010000000001
 30
0.0
 40
0.059708
100
AcDbArc
 50
92.35547999999999
 51
106.989978
  0
ARC
  5
2DE
330
18
100
AcDbEntity
  8
0
100
AcDbCircle
 10
4.814877
 20
6.684409
 30
0.0
 40
0.034196
100
AcDbArc
 50
106.989978
 51
130.677532
  0
ARC
  5
2DF
330
18
100
AcDbEntity
  8
0
100
AcDbCircle
 10
4.800537
 20
6.701092999999999
 30
0.0
 40
0.012196
100
AcDbArc
 50
130.677532
 51
170.879575
  0
ARC
  5
2E0
330
18
100
AcDbEntity
  8
0
100
AcDbCircle
 10
4.608718
 20
6.740580000000001
 30
0.0
 40
0.012196
100
AcDbArc
 50
179.581929
 51
211.081618
  0
ARC
  5
2E1
330
18
100
AcDbEntity
  8
0
100
AcDbCircle
 10
4.627559
 20
6.751937
 30
0.0
 40
0.034196
100
AcDbArc
 50
211.081618
 51
234.769172
  0
ARC
  5
2E2
330
18
100
AcDbEntity
  8
0
100
AcDbCircle
 10
4.642276
 20
6.772777000000001
 30
0.0
 40
0.059708
100
AcDbArc
 50
234.769172
 51
249.403669
  0
ARC
  5
2E3
330
18
100
AcDbEntity
  8
0
100
AcDbCircle
 10
4.655358000000001
 20
6.807587
 30
0.0
 40
0.096895
100
AcDbArc
 50
249.403669
 51
260.879575
  0
ARC
  5
2E4
330
18
100
AcDbEntity
  8
0
100
AcDbCircle
 10
4.655358000000001
 20
6.807587
 30
0.0
 40
0.096895
100
AcDbArc
 50
260.879575
 51
272.35548
  0
ARC
  5
2E5
330
18
100
AcDbEntity
  8
0
100
AcDbCircle
 10
4.656886
 20
6.770430999999999
 30
0.0
 40
0.059708
100
AcDbArc
 50
272.35548
 51
286.989978
  0
ARC
  5
2E6
330
18
100
AcDbEntity
  8
0
100
AcDbCircle
 10
4.664341
 20
6.746032000000001
 30
0.0
 40
0.034196
100
AcDbArc
 50
286.989978
 51
310.677532
  0
ARC
  5
2E7
330
18
100
AcDbEntity
  8
0
100
AcDbCircle
 10
4.678681
 20
6.729348
 30
0.0
 40
0.012196
100
AcDbArc
 50
310.677532
 51
350.879575
  0
ARC
  5
2E8
330
18
100
AcDbEntity
  8
0
100
AcDbCircle
 10
4.678681
 20
6.729348
 30
0.0
 40
0.012196
100
AcDbArc
 50
350.879575
 51
3.561794
  0
ARC
  5
2E9
330
18
100
AcDbEntity
  8
0
100
AcDbCircle
 10
4.608718
 20
6.749297
 30
0.0
 40
0.012196
100
AcDbArc
 50
170.879575
 51
211.081618
  0
ARC
  5
2EA
330
18
100
AcDbEntity
  8
0
100
AcDbCircle
 10
4.627559
 20
6.760654
 30
0.0
 40
0.034196
100
AcDbArc
 50
211.081618
 51
234.769172
  0
ARC
  5
2EB
330
18
100
AcDbEntity
  8
0
100
AcDbCircle
 10
4.642276
 20
6.781492999999999
 30
0.0
 40
0.059708
100
AcDbArc
 50
234.769172
 51
249.403669
  0
ARC
  5
2EC
330
18
100
AcDbEntity
  8
0
100
AcDbCircle
 10
4.655358000000001
 20
6.816304
 30
0.0
 40
0.096895
100
AcDbArc
 50
249.403669
 51
260.879575
  0
ARC
  5
2ED
330
18
100
AcDbEntity
  8
0
100
AcDbCircle
 10
4.655358000000001
 20
6.816304
 30
0.0
 40
0.096895
100
AcDbArc
 50
260.879575
 51
272.35548
  0
ARC
  5
2EE
330
18
100
AcDbEntity
  8
0
100
AcDbCircle
 10
4.656886
 20
6.779147999999999
 30
0.0
 40
0.059708
100
AcDbArc
 50
272.35548
 51
286.989978
  0
ARC
  5
2EF
330
18
100
AcDbEntity
  8
0
100
AcDbCircle
 10
4.664341
 20
6.754749
 30
0.0
 40
0.034196
100
AcDbArc
 50
286.989978
 51
310.677532
  0
ARC
  5
2F0
330
18
100
AcDbEntity
  8
0
100
AcDbCircle
 10
4.678681
 20
6.738065
 30
0.0
 40
0.012196
100
AcDbArc
 50
310.677532
 51
350.879575
  0
ARC
  5
2F1
330
18
100
AcDbEntity
  8
0
100
AcDbCircle
 10
4.678681
 20
6.738065
 30
0.0
 40
0.012196
100
AcDbArc
 50
350.879575
 51
31.081618
  0
ARC
  5
2F2
330
18
100
AcDbEntity
  8
0
100
AcDbCircle
 10
4.659839
 20
6.726707000000001
 30
0.0
 40
0.034196
100
AcDbArc
 50
31.081618
 51
54.76917200000001
  0
ARC
  5
2F3
330
18
100
AcDbEntity
  8
0
100
AcDbCircle
 10
4.645122
 20
6.705868
 30
0.0
 40
0.059708
100
AcDbArc
 50
54.76917200000001
 51
69.40366899999999
  0
ARC
  5
2F4
330
18
100
AcDbEntity
  8
0
100
AcDbCircle
 10
4.63204
 20
6.671058
 30
0.0
 40
0.096895
100
AcDbArc
 50
69.40366899999999
 51
80.879575
  0
ARC
  5
2F5
330
18
100
AcDbEntity
  8
0
100
AcDbCircle
 10
4.63204
 20
6.671058
 30
0.0
 40
0.096895
100
AcDbArc
 50
80.879575
 51
92.35547999999999
  0
ARC
  5
2F6
330
18
100
AcDbEntity
  8
0
100
AcDbCircle
 10
4.630512
 20
6.708214
 30
0.0
 40
0.059708
100
AcDbArc
 50
92.35547999999999
 51
106.989978
  0
ARC
  5
2F7
330
18
100
AcDbEntity
  8
0
100
AcDbCircle
 10
4.623057
 20
6.732612
 30
0.0
 40
0.034196
100
AcDbArc
 50
106.989978
 51
130.677532
  0
ARC
  5
2F8
330
18
100
AcDbEntity
  8
0
100
AcDbCircle
 10
4.608718
 20
6.749297
 30
0.0
 40
0.012196
100
AcDbArc
 50
130.677532
 51
170.879575
  0
LINE
  5
2F9
330
18
100
AcDbEntity
  8
0
100
AcDbLine
 10
4.658633
 20
7.441432000000001
 30
0.0
 11
4.604563
 21
7.409287
 31
0.0
  0
LINE
  5
2FA
330
18
100
AcDbEntity
  8
0
100
AcDbLine
 10
4.604563
 20
7.409287
 30
0.0
 11
4.595558000000001
 21
7.383233000000001
 31
0.0
  0
LINE
  5
2FB
330
18
100
AcDbEntity
  8
0
100
AcDbLine
 10
4.595558000000001
 20
7.383233000000001
 30
0.0
 11
4.661658999999999
 21
7.380352
 31
0.0
  0
LINE
  5
2FC
330
18
100
AcDbEntity
  8
0
100
AcDbLine
 10
4.661658999999999
 20
7.380352
 30
0.0
 11
4.696708
 21
7.389429
 31
0.0
  0
LINE
  5
2FD
330
18
100
AcDbEntity
  8
0
100
AcDbLine
 10
4.696708
 20
7.389429
 30
0.0
 11
4.6937
 21
7.401441
 31
0.0
  0
LINE
  5
2FE
330
18
100
AcDbEntity
  8
0
100
AcDbLine
 10
4.6937
 20
7.401441
 30
0.0
 11
4.658633
 21
7.441432000000001
 31
0.0
  0
LINE
  5
2FF
330
18
100
AcDbEntity
  8
0
100
AcDbLine
 10
4.391255999999999
 20
7.369836
 30
0.0
 11
4.370229
 21
7.355777000000001
 31
0.0
  0
LINE
  5
300
330
18
100
AcDbEntity
  8
0
100
AcDbLine
 10
4.370229
 20
7.355777000000001
 30
0.0
 11
4.371235
 21
7.343762
 31
0.0
  0
LINE
  5
301
330
18
100
AcDbEntity
  8
0
100
AcDbLine
 10
4.371235
 20
7.343762
 30
0.0
 11
4.385261
 21
7.329768
 31
0.0
  0
LINE
  5
302
330
18
100
AcDbEntity
  8
0
100
AcDbLine
 10
4.385261
 20
7.329768
 30
0.0
 11
4.412298000000001
 21
7.340834
 31
0.0
  0
LINE
  5
303
330
18
100
AcDbEntity
  8
0
100
AcDbLine
 10
4.412298000000001
 20
7.340834
 30
0.0
 11
4.412296
 21
7.345841
 31
0.0
  0
LINE
  5
304
330
18
100
AcDbEntity
  8
0
100
AcDbLine
 10
4.412296
 20
7.345841
 30
0.0
 11
4.391255999999999
 21
7.369836
 31
0.0
  0
LINE
  5
305
330
18
100
AcDbEntity
  8
0
100
AcDbLine
 10
4.683643
 20
7.519589
 30
0.0
 11
4.67464
 21
7.488529
 31
0.0
  0
LINE
  5
306
330
18
100
AcDbEntity
  8
0
100
AcDbLine
 10
4.67464
 20
7.488529
 30
0.0
 11
4.727723
 21
7.479614
 31
0.0
  0
LINE
  5
307
330
18
100
AcDbEntity
  8
0
100
AcDbLine
 10
4.727723
 20
7.479614
 30
0.0
 11
4.720707
 21
7.495624
 31
0.0
  0
LINE
  5
308
330
18
100
AcDbEntity
  8
0
100
AcDbLine
 10
4.720707
 20
7.495624
 30
0.0
 11
4.683643
 21
7.519589
 31
0.0
  0
LINE
  5
309
330
18
100
AcDbEntity
  8
0
100
AcDbLine
 10
4.654569
 20
7.604155
 30
0.0
 11
4.644056
 21
7.597125
 31
0.0
  0
LINE
  5
30A
330
18
100
AcDbEntity
  8
0
100
AcDbLine
 10
4.644056
 20
7.597125
 30
0.0
 11
4.644558999999999
 21
7.591117999999999
 31
0.0
  0
LINE
  5
30B
330
18
100
AcDbEntity
  8
0
100
AcDbLine
 10
4.644558999999999
 20
7.591117999999999
 30
0.0
 11
4.651572
 21
7.584121000000001
 31
0.0
  0
LINE
  5
30C
330
18
100
AcDbEntity
  8
0
100
AcDbLine
 10
4.651572
 20
7.584121000000001
 30
0.0
 11
4.66509
 21
7.589654
 31
0.0
  0
LINE
  5
30D
330
18
100
AcDbEntity
  8
0
100
AcDbLine
 10
4.66509
 20
7.589654
 30
0.0
 11
4.665089
 21
7.592157
 31
0.0
  0
LINE
  5
30E
330
18
100
AcDbEntity
  8
0
100
AcDbLine
 10
4.665089
 20
7.592157
 30
0.0
 11
4.654569
 21
7.604155
 31
0.0
  0
LINE
  5
30F
330
18
100
AcDbEntity
  8
0
100
AcDbLine
 10
3.985495
 20
7.794183
 30
0.0
 11
3.974982
 21
7.787153999999999
 31
0.0
  0
LINE
  5
310
330
18
100
AcDbEntity
  8
0
100
AcDbLine
 10
3.974982
 20
7.787153999999999
 30
0.0
 11
3.975485
 21
7.781146000000001
 31
0.0
  0
LINE
  5
311
330
18
100
AcDbEntity
  8
0
100
AcDbLine
 10
3.975485
 20
7.781146000000001
 30
0.0
 11
3.982498000000001
 21
7.774149
 31
0.0
  0
LINE
  5
312
330
18
100
AcDbEntity
  8
0
100
AcDbLine
 10
3.982498000000001
 20
7.774149
 30
0.0
 11
3.996016000000001
 21
7.779682000000001
 31
0.0
  0
LINE
  5
313
330
18
100
AcDbEntity
  8
0
100
AcDbLine
 10
3.996016000000001
 20
7.779682000000001
 30
0.0
 11
3.996015
 21
7.782186
 31
0.0
  0
LINE
  5
314
330
18
100
AcDbEntity
  8
0
100
AcDbLine
 10
3.996015
 20
7.782186
 30
0.0
 11
3.985495
 21
7.794183
 31
0.0
  0
ARC
  5
315
330
18
100
AcDbEntity
  8
0
100
AcDbCircle
 10
2.755529
 20
5.271751
 30
0.0
 40
0.017113
100
AcDbArc
 50
90.0
 51
124.002727
  0
ARC
  5
316
330
18
100
AcDbEntity
  8
0
100
AcDbCircle
 10
2.764213
 20
5.258879
 30
0.0
 40
0.03264
100
AcDbArc
 50
124.002727
 51
148.448668
  0
ARC
  5
317
330
18
100
AcDbEntity
  8
0
100
AcDbCircle
 10
2.778054
 20
5.250380000000001
 30
0.0
 40
0.048883
100
AcDbArc
 50
148.448668
 51
165.729899
  0
ARC
  5
318
330
18
100
AcDbEntity
  8
0
100
AcDbCircle
 10
2.799989
 20
5.244801
 30
0.0
 40
0.071516
100
AcDbArc
 50
165.729899
 51
180.0
  0
ARC
  5
319
330
18
100
AcDbEntity
  8
0
100
AcDbCircle
 10
2.799989
 20
5.244801
 30
0.0
 40
0.071516
100
AcDbArc
 50
180.0
 51
194.270101
  0
ARC
  5
31A
330
18
100
AcDbEntity
  8
0
100
AcDbCircle
 10
2.778054
 20
5.239222
 30
0.0
 40
0.048883
100
AcDbArc
 50
194.270101
 51
211.551332
  0
ARC
  5
31B
330
18
100
AcDbEntity
  8
0
100
AcDbCircle
 10
2.764213
 20
5.230723
 30
0.0
 40
0.03264
100
AcDbArc
 50
211.551332
 51
235.997273
  0
ARC
  5
31C
330
18
100
AcDbEntity
  8
0
100
AcDbCircle
 10
2.755529
 20
5.21785
 30
0.0
 40
0.017113
100
AcDbArc
 50
235.997273
 51
270.0
  0
ARC
  5
31D
330
18
100
AcDbEntity
  8
0
100
AcDbCircle
 10
2.755529
 20
5.21785
 30
0.0
 40
0.017113
100
AcDbArc
 50
270.0
 51
304.002727
  0
ARC
  5
31E
330
18
100
AcDbEntity
  8
0
100
AcDbCircle
 10
2.746846
 20
5.230723
 30
0.0
 40
0.03264
100
AcDbArc
 50
304.002727
 51
328.448668
  0
ARC
  5
31F
330
18
100
AcDbEntity
  8
0
100
AcDbCircle
 10
2.733005
 20
5.239222
 30
0.0
 40
0.048883
100
AcDbArc
 50
328.448668
 51
345.7298990000001
  0
ARC
  5
320
330
18
100
AcDbEntity
  8
0
100
AcDbCircle
 10
2.71107
 20
5.244801
 30
0.0
 40
0.071516
100
AcDbArc
 50
345.7298990000001
 51
0.0
  0
ARC
  5
321
330
18
100
AcDbEntity
  8
0
100
AcDbCircle
 10
2.71107
 20
5.244801
 30
0.0
 40
0.071516
100
AcDbArc
 50
0.0
 51
14.270101
  0
ARC
  5
322
330
18
100
AcDbEntity
  8
0
100
AcDbCircle
 10
2.733005
 20
5.250380000000001
 30
0.0
 40
0.048883
100
AcDbArc
 50
14.270101
 51
31.551332
  0
ARC
  5
323
330
18
100
AcDbEntity
  8
0
100
AcDbCircle
 10
2.746846
 20
5.258879
 30
0.0
 40
0.03264
100
AcDbArc
 50
31.551332
 51
55.99727299999999
  0
ARC
  5
324
330
18
100
AcDbEntity
  8
0
100
AcDbCircle
 10
2.755529
 20
5.271751
 30
0.0
 40
0.017113
100
AcDbArc
 50
55.99727299999999
 51
90.0
  0
ARC
  5
325
330
18
100
AcDbEntity
  8
0
100
AcDbCircle
 10
2.745514
 20
5.271751
 30
0.0
 40
0.017113
100
AcDbArc
 50
90.0
 51
124.002727
  0
ARC
  5
326
330
18
100
AcDbEntity
  8
0
100
AcDbCircle
 10
2.754197
 20
5.258879
 30
0.0
 40
0.03264
100
AcDbArc
 50
124.002727
 51
148.448668
  0
ARC
  5
327
330
18
100
AcDbEntity
  8
0
100
AcDbCircle
 10
2.768038
 20
5.250380000000001
 30
0.0
 40
0.048883
100
AcDbArc
 50
148.448668
 51
165.729899
  0
ARC
  5
328
330
18
100
AcDbEntity
  8
0
100
AcDbCircle
 10
2.789973
 20
5.244801
 30
0.0
 40
0.071516
100
AcDbArc
 50
165.729899
 51
180.0
  0
ARC
  5
329
330
18
100
AcDbEntity
  8
0
100
AcDbCircle
 10
2.789973
 20
5.244801
 30
0.0
 40
0.071516
100
AcDbArc
 50
180.0
 51
194.270101
  0
ARC
  5
32A
330
18
100
AcDbEntity
  8
0
100
AcDbCircle
 10
2.768038
 20
5.239222
 30
0.0
 40
0.048883
100
AcDbArc
 50
194.270101
 51
211.551332
  0
ARC
  5
32B
330
18
100
AcDbEntity
  8
0
100
AcDbCircle
 10
2.754197
 20
5.230723
 30
0.0
 40
0.03264
100
AcDbArc
 50
211.551332
 51
235.997273
  0
ARC
  5
32C
330
18
100
AcDbEntity
  8
0
100
AcDbCircle
 10
2.745514
 20
5.21785
 30
0.0
 40
0.017113
100
AcDbArc
 50
235.997273
 51
270.0
  0
ARC
  5
32D
330
18
100
AcDbEntity
  8
0
100
AcDbCircle
 10
2.745514
 20
5.21785
 30
0.0
 40
0.017113
100
AcDbArc
 50
270.0
 51
270.541117
  0
ARC
  5
32E
330
18
100
AcDbEntity
  8
0
100
AcDbCircle
 10
2.745514
 20
5.271751
 30
0.0
 40
0.017113
100
AcDbArc
 50
88.69864699999999
 51
90.0
  0
ARC
  5
32F
330
18
100
AcDbEntity
  8
0
100
AcDbCircle
 10
2.767475
 20
5.54397
 30
0.0
 40
0.013768
100
AcDbArc
 50
179.581929
 51
211.081618
  0
ARC
  5
330
330
18
100
AcDbEntity
  8
0
100
AcDbCircle
 10
2.788745
 20
5.556792
 30
0.0
 40
0.038602
100
AcDbArc
 50
211.081618
 51
234.769172
  0
ARC
  5
331
330
18
100
AcDbEntity
  8
0
100
AcDbCircle
 10
2.805358
 20
5.580316000000001
 30
0.0
 40
0.067402
100
AcDbArc
 50
234.769172
 51
249.403669
  0
ARC
  5
332
330
18
100
AcDbEntity
  8
0
100
AcDbCircle
 10
2.820126
 20
5.619612999999999
 30
0.0
 40
0.109382
100
AcDbArc
 50
249.403669
 51
260.879575
  0
ARC
  5
333
330
18
100
AcDbEntity
  8
0
100
AcDbCircle
 10
2.820126
 20
5.619612999999999
 30
0.0
 40
0.109382
100
AcDbArc
 50
260.879575
 51
272.35548
  0
ARC
  5
334
330
18
100
AcDbEntity
  8
0
100
AcDbCircle
 10
2.821851
 20
5.577669
 30
0.0
 40
0.067402
100
AcDbArc
 50
272.35548
 51
286.989978
  0
ARC
  5
335
330
18
100
AcDbEntity
  8
0
100
AcDbCircle
 10
2.830267
 20
5.550126000000001
 30
0.0
 40
0.038602
100
AcDbArc
 50
286.989978
 51
310.677532
  0
ARC
  5
336
330
18
100
AcDbEntity
  8
0
100
AcDbCircle
 10
2.846454
 20
5.531291
 30
0.0
 40
0.013768
100
AcDbArc
 50
310.677532
 51
350.879575
  0
ARC
  5
337
330
18
100
AcDbEntity
  8
0
100
AcDbCircle
 10
2.846454
 20
5.531291
 30
0.0
 40
0.013768
100
AcDbArc
 50
350.879575
 51
3.561794
  0
ARC
  5
338
330
18
100
AcDbEntity
  8
0
100
AcDbCircle
 10
2.767475
 20
5.553811000000001
 30
0.0
 40
0.013768
100
AcDbArc
 50
170.879575
 51
211.081618
  0
ARC
  5
339
330
18
100
AcDbEntity
  8
0
100
AcDbCircle
 10
2.788745
 20
5.566632
 30
0.0
 40
0.038602
100
AcDbArc
 50
211.081618
 51
234.769172
  0
ARC
  5
33A
330
18
100
AcDbEntity
  8
0
100
AcDbCircle
 10
2.805358
 20
5.590157
 30
0.0
 40
0.067402
100
AcDbArc
 50
234.769172
 51
249.403669
  0
ARC
  5
33B
330
18
100
AcDbEntity
  8
0
100
AcDbCircle
 10
2.820126
 20
5.629453
 30
0.0
 40
0.109382
100
AcDbArc
 50
249.403669
 51
260.879575
  0
ARC
  5
33C
330
18
100
AcDbEntity
  8
0
100
AcDbCircle
 10
2.820126
 20
5.629453
 30
0.0
 40
0.109382
100
AcDbArc
 50
260.879575
 51
272.35548
  0
ARC
  5
33D
330
18
100
AcDbEntity
  8
0
100
AcDbCircle
 10
2.821851
 20
5.587509
 30
0.0
 40
0.067402
100
AcDbArc
 50
272.35548
 51
286.989978
  0
ARC
  5
33E
330
18
100
AcDbEntity
  8
0
100
AcDbCircle
 10
2.830267
 20
5.559966
 30
0.0
 40
0.038602
100
AcDbArc
 50
286.989978
 51
310.677532
  0
ARC
  5
33F
330
18
100
AcDbEntity
  8
0
100
AcDbCircle
 10
2.846454
 20
5.541131
 30
0.0
 40
0.013768
100
AcDbArc
 50
310.677532
 51
350.879575
  0
ARC
  5
340
330
18
100
AcDbEntity
  8
0
100
AcDbCircle
 10
2.846454
 20
5.541131
 30
0.0
 40
0.013768
100
AcDbArc
 50
350.879575
 51
31.081618
  0
ARC
  5
341
330
18
100
AcDbEntity
  8
0
100
AcDbCircle
 10
2.825185
 20
5.52831
 30
0.0
 40
0.038602
100
AcDbArc
 50
31.081618
 51
54.76917200000001
  0
ARC
  5
342
330
18
100
AcDbEntity
  8
0
100
AcDbCircle
 10
2.808571
 20
5.504786
 30
0.0
 40
0.067402
100
AcDbArc
 50
54.76917200000001
 51
69.40366899999999
  0
ARC
  5
343
330
18
100
AcDbEntity
  8
0
100
AcDbCircle
 10
2.793803
 20
5.465489
 30
0.0
 40
0.109382
100
AcDbArc
 50
69.40366899999999
 51
80.879575
  0
ARC
  5
344
330
18
100
AcDbEntity
  8
0
100
AcDbCircle
 10
2.793803
 20
5.465489
 30
0.0
 40
0.109382
100
AcDbArc
 50
80.879575
 51
92.35547999999999
  0
ARC
  5
345
330
18
100
AcDbEntity
  8
0
100
AcDbCircle
 10
2.792078
 20
5.507433
 30
0.0
 40
0.067402
100
AcDbArc
 50
92.35547999999999
 51
106.989978
  0
ARC
  5
346
330
18
100
AcDbEntity
  8
0
100
AcDbCircle
 10
2.783663
 20
5.534976
 30
0.0
 40
0.038602
100
AcDbArc
 50
106.989978
 51
130.677532
  0
ARC
  5
347
330
18
100
AcDbEntity
  8
0
100
AcDbCircle
 10
2.767475
 20
5.553811000000001
 30
0.0
 40
0.013768
100
AcDbArc
 50
130.677532
 51
170.879575
  0
ARC
  5
348
330
18
100
AcDbEntity
  8
0
100
AcDbCircle
 10
2.921107
 20
5.800909
 30
0.0
 40
0.013492
100
AcDbArc
 50
179.581929
 51
211.081618
  0
ARC
  5
349
330
18
100
AcDbEntity
  8
0
100
AcDbCircle
 10
2.941951
 20
5.813473999999999
 30
0.0
 40
0.03783
100
AcDbArc
 50
211.081618
 51
234.769172
  0
ARC
  5
34A
330
18
100
AcDbEntity
  8
0
100
AcDbCircle
 10
2.958233
 20
5.836528
 30
0.0
 40
0.066054
100
AcDbArc
 50
234.769172
 51
249.403669
  0
ARC
  5
34B
330
18
100
AcDbEntity
  8
0
100
AcDbCircle
 10
2.972705
 20
5.875039
 30
0.0
 40
0.107194
100
AcDbArc
 50
249.403669
 51
260.879575
  0
ARC
  5
34C
330
18
100
AcDbEntity
  8
0
100
AcDbCircle
 10
2.972705
 20
5.875039
 30
0.0
 40
0.107194
100
AcDbArc
 50
260.879575
 51
272.35548
  0
ARC
  5
34D
330
18
100
AcDbEntity
  8
0
100
AcDbCircle
 10
2.974396
 20
5.833933
 30
0.0
 40
0.066054
100
AcDbArc
 50
272.35548
 51
286.989978
  0
ARC
  5
34E
330
18
100
AcDbEntity
  8
0
100
AcDbCircle
 10
2.982643
 20
5.806941
 30
0.0
 40
0.03783
100
AcDbArc
 50
286.989978
 51
310.677532
  0
ARC
  5
34F
330
18
100
AcDbEntity
  8
0
100
AcDbCircle
 10
2.998507
 20
5.788483
 30
0.0
 40
0.013492
100
AcDbArc
 50
310.677532
 51
350.879575
  0
ARC
  5
350
330
18
100
AcDbEntity
  8
0
100
AcDbCircle
 10
2.998507
 20
5.788483
 30
0.0
 40
0.013492
100
AcDbArc
 50
350.879575
 51
3.561794
  0
ARC
  5
351
330
18
100
AcDbEntity
  8
0
100
AcDbCircle
 10
2.921107
 20
5.810552
 30
0.0
 40
0.013492
100
AcDbArc
 50
170.879575
 51
211.081618
  0
ARC
  5
352
330
18
100
AcDbEntity
  8
0
100
AcDbCircle
 10
2.941951
 20
5.823117
 30
0.0
 40
0.03783
100
AcDbArc
 50
211.081618
 51
234.769172
  0
ARC
  5
353
330
18
100
AcDbEntity
  8
0
100
AcDbCircle
 10
2.958233
 20
5.846171
 30
0.0
 40
0.066054
100
AcDbArc
 50
234.769172
 51
249.403669
  0
ARC
  5
354
330
18
100
AcDbEntity
  8
0
100
AcDbCircle
 10
2.972705
 20
5.884682
 30
0.0
 40
0.107194
100
AcDbArc
 50
249.403669
 51
260.879575
  0
ARC
  5
355
330
18
100
AcDbEntity
  8
0
100
AcDbCircle
 10
2.972705
 20
5.884682
 30
0.0
 40
0.107194
100
AcDbArc
 50
260.879575
 51
272.35548
  0
ARC
  5
356
330
18
100
AcDbEntity
  8
0
100
AcDbCircle
 10
2.974396
 20
5.843577
 30
0.0
 40
0.066054
100
AcDbArc
 50
272.35548
 51
286.989978
  0
ARC
  5
357
330
18
100
AcDbEntity
  8
0
100
AcDbCircle
 10
2.982643
 20
5.816585
 30
0.0
 40
0.03783
100
AcDbArc
 50
286.989978
 51
310.677532
  0
ARC
  5
358
330
18
100
AcDbEntity
  8
0
100
AcDbCircle
 10
2.998507
 20
5.798127
 30
0.0
 40
0.013492
100
AcDbArc
 50
310.677532
 51
350.879575
  0
ARC
  5
359
330
18
100
AcDbEntity
  8
0
100
AcDbCircle
 10
2.998507
 20
5.798127
 30
0.0
 40
0.013492
100
AcDbArc
 50
350.879575
 51
31.081618
  0
ARC
  5
35A
330
18
100
AcDbEntity
  8
0
100
AcDbCircle
 10
2.977663
 20
5.785562000000001
 30
0.0
 40
0.03783
100
AcDbArc
 50
31.081618
 51
54.76917200000001
  0
ARC
  5
35B
330
18
100
AcDbEntity
  8
0
100
AcDbCircle
 10
2.961381
 20
5.762508
 30
0.0
 40
0.066054
100
AcDbArc
 50
54.76917200000001
 51
69.40366899999999
  0
ARC
  5
35C
330
18
100
AcDbEntity
  8
0
100
AcDbCircle
 10
2.946909
 20
5.723997
 30
0.0
 40
0.107194
100
AcDbArc
 50
69.40366899999999
 51
80.879575
  0
ARC
  5
35D
330
18
100
AcDbEntity
  8
0
100
AcDbCircle
 10
2.946909
 20
5.723997
 30
0.0
 40
0.107194
100
AcDbArc
 50
80.879575
 51
92.35547999999999
  0
ARC
  5
35E
330
18
100
AcDbEntity
  8
0
100
AcDbCircle
 10
2.945218
 20
5.765103
 30
0.0
 40
0.066054
100
AcDbArc
 50
92.35547999999999
 51
106.989978
  0
ARC
  5
35F
330
18
100
AcDbEntity
  8
0
100
AcDbCircle
 10
2.936971
 20
5.792095
 30
0.0
 40
0.03783
100
AcDbArc
 50
106.989978
 51
130.677532
  0
ARC
  5
360
330
18
100
AcDbEntity
  8
0
100
AcDbCircle
 10
2.921107
 20
5.810552
 30
0.0
 40
0.013492
100
AcDbArc
 50
130.677532
 51
170.879575
  0
ARC
  5
361
330
18
100
AcDbEntity
  8
0
100
AcDbCircle
 10
3.178142
 20
5.743579
 30
0.0
 40
0.013492
100
AcDbArc
 50
179.581929
 51
211.081618
  0
ARC
  5
362
330
18
100
AcDbEntity
  8
0
100
AcDbCircle
 10
3.198986
 20
5.756144
 30
0.0
 40
0.03783
100
AcDbArc
 50
211.081618
 51
234.769172
  0
ARC
  5
363
330
18
100
AcDbEntity
  8
0
100
AcDbCircle
 10
3.215268
 20
5.779198
 30
0.0
 40
0.066054
100
AcDbArc
 50
234.769172
 51
249.403669
  0
ARC
  5
364
330
18
100
AcDbEntity
  8
0
100
AcDbCircle
 10
3.22974
 20
5.817709
 30
0.0
 40
0.107194
100
AcDbArc
 50
249.403669
 51
260.879575
  0
ARC
  5
365
330
18
100
AcDbEntity
  8
0
100
AcDbCircle
 10
3.22974
 20
5.817709
 30
0.0
 40
0.107194
100
AcDbArc
 50
260.879575
 51
272.35548
  0
ARC
  5
366
330
18
100
AcDbEntity
  8
0
100
AcDbCircle
 10
3.231431
 20
5.776603
 30
0.0
 40
0.066054
100
AcDbArc
 50
272.35548
 51
286.989978
  0
ARC
  5
367
330
18
100
AcDbEntity
  8
0
100
AcDbCircle
 10
3.239678
 20
5.749611
 30
0.0
 40
0.03783
100
AcDbArc
 50
286.989978
 51
310.677532
  0
ARC
  5
368
330
18
100
AcDbEntity
  8
0
100
AcDbCircle
 10
3.255542
 20
5.731153
 30
0.0
 40
0.013492
100
AcDbArc
 50
310.677532
 51
350.879575
  0
ARC
  5
369
330
18
100
AcDbEntity
  8
0
100
AcDbCircle
 10
3.255542
 20
5.731153
 30
0.0
 40
0.013492
100
AcDbArc
 50
350.879575
 51
3.561794
  0
ARC
  5
36A
330
18
100
AcDbEntity
  8
0
100
AcDbCircle
 10
3.178142
 20
5.753223
 30
0.0
 40
0.013492
100
AcDbArc
 50
170.879575
 51
211.081618
  0
ARC
  5
36B
330
18
100
AcDbEntity
  8
0
100
AcDbCircle
 10
3.198986
 20
5.765787
 30
0.0
 40
0.03783
100
AcDbArc
 50
211.081618
 51
234.769172
  0
ARC
  5
36C
330
18
100
AcDbEntity
  8
0
100
AcDbCircle
 10
3.215268
 20
5.788841000000001
 30
0.0
 40
0.066054
100
AcDbArc
 50
234.769172
 51
249.403669
  0
ARC
  5
36D
330
18
100
AcDbEntity
  8
0
100
AcDbCircle
 10
3.22974
 20
5.827351999999999
 30
0.0
 40
0.107194
100
AcDbArc
 50
249.403669
 51
260.879575
  0
ARC
  5
36E
330
18
100
AcDbEntity
  8
0
100
AcDbCircle
 10
3.22974
 20
5.827351999999999
 30
0.0
 40
0.107194
100
AcDbArc
 50
260.879575
 51
272.35548
  0
ARC
  5
36F
330
18
100
AcDbEntity
  8
0
100
AcDbCircle
 10
3.231431
 20
5.786247
 30
0.0
 40
0.066054
100
AcDbArc
 50
272.35548
 51
286.989978
  0
ARC
  5
370
330
18
100
AcDbEntity
  8
0
100
AcDbCircle
 10
3.239678
 20
5.759255000000001
 30
0.0
 40
0.03783
100
AcDbArc
 50
286.989978
 51
310.677532
  0
ARC
  5
371
330
18
100
AcDbEntity
  8
0
100
AcDbCircle
 10
3.255542
 20
5.740797
 30
0.0
 40
0.013492
100
AcDbArc
 50
310.677532
 51
350.879575
  0
ARC
  5
372
330
18
100
AcDbEntity
  8
0
100
AcDbCircle
 10
3.255542
 20
5.740797
 30
0.0
 40
0.013492
100
AcDbArc
 50
350.879575
 51
31.081618
  0
ARC
  5
373
330
18
100
AcDbEntity
  8
0
100
AcDbCircle
 10
3.234698
 20
5.728232
 30
0.0
 40
0.03783
100
AcDbArc
 50
31.081618
 51
54.76917200000001
  0
ARC
  5
374
330
18
100
AcDbEntity
  8
0
100
AcDbCircle
 10
3.218416
 20
5.705178
 30
0.0
 40
0.066054
100
AcDbArc
 50
54.76917200000001
 51
69.40366899999999
  0
ARC
  5
375
330
18
100
AcDbEntity
  8
0
100
AcDbCircle
 10
3.203944
 20
5.666667
 30
0.0
 40
0.107194
100
AcDbArc
 50
69.40366899999999
 51
80.879575
  0
ARC
  5
376
330
18
100
AcDbEntity
  8
0
100
AcDbCircle
 10
3.203944
 20
5.666667
 30
0.0
 40
0.107194
100
AcDbArc
 50
80.879575
 51
92.35547999999999
  0
ARC
  5
377
330
18
100
AcDbEntity
  8
0
100
AcDbCircle
 10
3.202253
 20
5.707773
 30
0.0
 40
0.066054
100
AcDbArc
 50
92.35547999999999
 51
106.989978
  0
ARC
  5
378
330
18
100
AcDbEntity
  8
0
100
AcDbCircle
 10
3.194006
 20
5.734765
 30
0.0
 40
0.03783
100
AcDbArc
 50
106.989978
 51
130.677532
  0
ARC
  5
379
330
18
100
AcDbEntity
  8
0
100
AcDbCircle
 10
3.178142
 20
5.753223
 30
0.0
 40
0.013492
100
AcDbArc
 50
130.677532
 51
170.879575
  0
ARC
  5
37A
330
18
100
AcDbEntity
  8
0
100
AcDbCircle
 10
3.241711
 20
5.994155999999999
 30
0.0
 40
0.013222
100
AcDbArc
 50
179.581929
 51
211.081618
  0
ARC
  5
37B
330
18
100
AcDbEntity
  8
0
100
AcDbCircle
 10
3.262138
 20
6.006469999999999
 30
0.0
 40
0.037074
100
AcDbArc
 50
211.081618
 51
234.769172
  0
ARC
  5
37C
330
18
100
AcDbEntity
  8
0
100
AcDbCircle
 10
3.278094
 20
6.029063
 30
0.0
 40
0.064733
100
AcDbArc
 50
234.769172
 51
249.403669
  0
ARC
  5
37D
330
18
100
AcDbEntity
  8
0
100
AcDbCircle
 10
3.292277
 20
6.066803
 30
0.0
 40
0.10505
100
AcDbArc
 50
249.403669
 51
260.879575
  0
ARC
  5
37E
330
18
100
AcDbEntity
  8
0
100
AcDbCircle
 10
3.292277
 20
6.066803
 30
0.0
 40
0.10505
100
AcDbArc
 50
260.879575
 51
272.35548
  0
ARC
  5
37F
330
18
100
AcDbEntity
  8
0
100
AcDbCircle
 10
3.293934
 20
6.02652
 30
0.0
 40
0.064733
100
AcDbArc
 50
272.35548
 51
286.989978
  0
ARC
  5
380
330
18
100
AcDbEntity
  8
0
100
AcDbCircle
 10
3.302016000000001
 20
6.000068
 30
0.0
 40
0.037074
100
AcDbArc
 50
286.989978
 51
310.677532
  0
ARC
  5
381
330
18
100
AcDbEntity
  8
0
100
AcDbCircle
 10
3.317563
 20
5.981979
 30
0.0
 40
0.013222
100
AcDbArc
 50
310.677532
 51
350.879575
  0
ARC
  5
382
330
18
100
AcDbEntity
  8
0
100
AcDbCircle
 10
3.317563
 20
5.981979
 30
0.0
 40
0.013222
100
AcDbArc
 50
350.879575
 51
3.561794
  0
ARC
  5
383
330
18
100
AcDbEntity
  8
0
100
AcDbCircle
 10
3.241711
 20
6.003607
 30
0.0
 40
0.013222
100
AcDbArc
 50
170.879575
 51
211.081618
  0
ARC
  5
384
330
18
100
AcDbEntity
  8
0
100
AcDbCircle
 10
3.262138
 20
6.01592
 30
0.0
 40
0.037074
100
AcDbArc
 50
211.081618
 51
234.769172
  0
ARC
  5
385
330
18
100
AcDbEntity
  8
0
100
AcDbCircle
 10
3.278094
 20
6.038513
 30
0.0
 40
0.064733
100
AcDbArc
 50
234.769172
 51
249.403669
  0
ARC
  5
386
330
18
100
AcDbEntity
  8
0
100
AcDbCircle
 10
3.292277
 20
6.076253
 30
0.0
 40
0.10505
100
AcDbArc
 50
249.403669
 51
260.879575
  0
ARC
  5
387
330
18
100
AcDbEntity
  8
0
100
AcDbCircle
 10
3.292277
 20
6.076253
 30
0.0
 40
0.10505
100
AcDbArc
 50
260.879575
 51
272.35548
  0
ARC
  5
388
330
18
100
AcDbEntity
  8
0
100
AcDbCircle
 10
3.293934
 20
6.03597
 30
0.0
 40
0.064733
100
AcDbArc
 50
272.35548
 51
286.989978
  0
ARC
  5
389
330
18
100
AcDbEntity
  8
0
100
AcDbCircle
 10
3.302016000000001
 20
6.009518
 30
0.0
 40
0.037074
100
AcDbArc
 50
286.989978
 51
310.677532
  0
ARC
  5
38A
330
18
100
AcDbEntity
  8
0
100
AcDbCircle
 10
3.317563
 20
5.991429
 30
0.0
 40
0.013222
100
AcDbArc
 50
310.677532
 51
350.879575
  0
ARC
  5
38B
330
18
100
AcDbEntity
  8
0
100
AcDbCircle
 10
3.317563
 20
5.991429
 30
0.0
 40
0.013222
100
AcDbArc
 50
350.879575
 51
31.081618
  0
ARC
  5
38C
330
18
100
AcDbEntity
  8
0
100
AcDbCircle
 10
3.297136
 20
5.979116
 30
0.0
 40
0.037074
100
AcDbArc
 50
31.081618
 51
54.76917200000001
  0
ARC
  5
38D
330
18
100
AcDbEntity
  8
0
100
AcDbCircle
 10
3.28118
 20
5.956523000000001
 30
0.0
 40
0.064733
100
AcDbArc
 50
54.76917200000001
 51
69.40366899999999
  0
ARC
  5
38E
330
18
100
AcDbEntity
  8
0
100
AcDbCircle
 10
3.266997
 20
5.918782
 30
0.0
 40
0.10505
100
AcDbArc
 50
69.40366899999999
 51
80.879575
  0
ARC
  5
38F
330
18
100
AcDbEntity
  8
0
100
AcDbCircle
 10
3.266997
 20
5.918782
 30
0.0
 40
0.10505
100
AcDbArc
 50
80.879575
 51
92.35547999999999
  0
ARC
  5
390
330
18
100
AcDbEntity
  8
0
100
AcDbCircle
 10
3.26534
 20
5.959066
 30
0.0
 40
0.064733
100
AcDbArc
 50
92.35547999999999
 51
106.989978
  0
ARC
  5
391
330
18
100
AcDbEntity
  8
0
100
AcDbCircle
 10
3.257258
 20
5.985518
 30
0.0
 40
0.037074
100
AcDbArc
 50
106.989978
 51
130.677532
  0
ARC
  5
392
330
18
100
AcDbEntity
  8
0
100
AcDbCircle
 10
3.241711
 20
6.003607
 30
0.0
 40
0.013222
100
AcDbArc
 50
130.677532
 51
170.879575
  0
ARC
  5
393
330
18
100
AcDbEntity
  8
0
100
AcDbCircle
 10
3.486595
 20
5.93796
 30
0.0
 40
0.013222
100
AcDbArc
 50
179.581929
 51
211.081618
  0
ARC
  5
394
330
18
100
AcDbEntity
  8
0
100
AcDbCircle
 10
3.507022
 20
5.950273
 30
0.0
 40
0.037074
100
AcDbArc
 50
211.081618
 51
234.769172
  0
ARC
  5
395
330
18
100
AcDbEntity
  8
0
100
AcDbCircle
 10
3.522978
 20
5.972866000000001
 30
0.0
 40
0.064733
100
AcDbArc
 50
234.769172
 51
249.403669
  0
ARC
  5
396
330
18
100
AcDbEntity
  8
0
100
AcDbCircle
 10
3.537161
 20
6.010607
 30
0.0
 40
0.10505
100
AcDbArc
 50
249.403669
 51
260.879575
  0
ARC
  5
397
330
18
100
AcDbEntity
  8
0
100
AcDbCircle
 10
3.537161
 20
6.010607
 30
0.0
 40
0.10505
100
AcDbArc
 50
260.879575
 51
272.35548
  0
ARC
  5
398
330
18
100
AcDbEntity
  8
0
100
AcDbCircle
 10
3.538818
 20
5.970323000000001
 30
0.0
 40
0.064733
100
AcDbArc
 50
272.35548
 51
286.989978
  0
ARC
  5
399
330
18
100
AcDbEntity
  8
0
100
AcDbCircle
 10
3.5469
 20
5.943871
 30
0.0
 40
0.037074
100
AcDbArc
 50
286.989978
 51
310.677532
  0
ARC
  5
39A
330
18
100
AcDbEntity
  8
0
100
AcDbCircle
 10
3.562446
 20
5.925782
 30
0.0
 40
0.013222
100
AcDbArc
 50
310.677532
 51
350.879575
  0
ARC
  5
39B
330
18
100
AcDbEntity
  8
0
100
AcDbCircle
 10
3.562446
 20
5.925782
 30
0.0
 40
0.013222
100
AcDbArc
 50
350.879575
 51
3.561794
  0
ARC
  5
39C
330
18
100
AcDbEntity
  8
0
100
AcDbCircle
 10
3.486595
 20
5.94741
 30
0.0
 40
0.013222
100
AcDbArc
 50
170.879575
 51
211.081618
  0
ARC
  5
39D
330
18
100
AcDbEntity
  8
0
100
AcDbCircle
 10
3.507022
 20
5.959724
 30
0.0
 40
0.037074
100
AcDbArc
 50
211.081618
 51
234.769172
  0
ARC
  5
39E
330
18
100
AcDbEntity
  8
0
100
AcDbCircle
 10
3.522978
 20
5.982317
 30
0.0
 40
0.064733
100
AcDbArc
 50
234.769172
 51
249.403669
  0
ARC
  5
39F
330
18
100
AcDbEntity
  8
0
100
AcDbCircle
 10
3.537161
 20
6.020057
 30
0.0
 40
0.10505
100
AcDbArc
 50
249.403669
 51
260.879575
  0
ARC
  5
3A0
330
18
100
AcDbEntity
  8
0
100
AcDbCircle
 10
3.537161
 20
6.020057
 30
0.0
 40
0.10505
100
AcDbArc
 50
260.879575
 51
272.35548
  0
ARC
  5
3A1
330
18
100
AcDbEntity
  8
0
100
AcDbCircle
 10
3.538818
 20
5.979774
 30
0.0
 40
0.064733
100
AcDbArc
 50
272.35548
 51
286.989978
  0
ARC
  5
3A2
330
18
100
AcDbEntity
  8
0
100
AcDbCircle
 10
3.5469
 20
5.953322
 30
0.0
 40
0.037074
100
AcDbArc
 50
286.989978
 51
310.677532
  0
ARC
  5
3A3
330
18
100
AcDbEntity
  8
0
100
AcDbCircle
 10
3.562446
 20
5.935233
 30
0.0
 40
0.013222
100
AcDbArc
 50
310.677532
 51
350.879575
  0
ARC
  5
3A4
330
18
100
AcDbEntity
  8
0
100
AcDbCircle
 10
3.562446
 20
5.935233
 30
0.0
 40
0.013222
100
AcDbArc
 50
350.879575
 51
31.081618
  0
ARC
  5
3A5
330
18
100
AcDbEntity
  8
0
100
AcDbCircle
 10
3.542019
 20
5.922919
 30
0.0
 40
0.037074
100
AcDbArc
 50
31.081618
 51
54.76917200000001
  0
ARC
  5
3A6
330
18
100
AcDbEntity
  8
0
100
AcDbCircle
 10
3.526063
 20
5.900326000000001
 30
0.0
 40
0.064733
100
AcDbArc
 50
54.76917200000001
 51
69.40366899999999
  0
ARC
  5
3A7
330
18
100
AcDbEntity
  8
0
100
AcDbCircle
 10
3.511881
 20
5.862586
 30
0.0
 40
0.10505
100
AcDbArc
 50
69.40366899999999
 51
80.879575
  0
ARC
  5
3A8
330
18
100
AcDbEntity
  8
0
100
AcDbCircle
 10
3.511881
 20
5.862586
 30
0.0
 40
0.10505
100
AcDbArc
 50
80.879575
 51
92.35547999999999
  0
ARC
  5
3A9
330
18
100
AcDbEntity
  8
0
100
AcDbCircle
 10
3.510224
 20
5.902869
 30
0.0
 40
0.064733
100
AcDbArc
 50
92.35547999999999
 51
106.989978
  0
ARC
  5
3AA
330
18
100
AcDbEntity
  8
0
100
AcDbCircle
 10
3.502141
 20
5.929321
 30
0.0
 40
0.037074
100
AcDbArc
 50
106.989978
 51
130.677532
  0
ARC
  5
3AB
330
18
100
AcDbEntity
  8
0
100
AcDbCircle
 10
3.486595
 20
5.94741
 30
0.0
 40
0.013222
100
AcDbArc
 50
130.677532
 51
170.879575
  0
ARC
  5
3AC
330
18
100
AcDbEntity
  8
0
100
AcDbCircle
 10
3.640344
 20
6.202581
 30
0.0
 40
0.012958
100
AcDbArc
 50
179.581929
 51
211.081618
  0
ARC
  5
3AD
330
18
100
AcDbEntity
  8
0
100
AcDbCircle
 10
3.660362
 20
6.214649
 30
0.0
 40
0.036332
100
AcDbArc
 50
211.081618
 51
234.769172
  0
ARC
  5
3AE
330
18
100
AcDbEntity
  8
0
100
AcDbCircle
 10
3.675999
 20
6.23679
 30
0.0
 40
0.063438
100
AcDbArc
 50
234.769172
 51
249.403669
  0
ARC
  5
3AF
330
18
100
AcDbEntity
  8
0
100
AcDbCircle
 10
3.689898
 20
6.273775
 30
0.0
 40
0.102949
100
AcDbArc
 50
249.403669
 51
260.879575
  0
ARC
  5
3B0
330
18
100
AcDbEntity
  8
0
100
AcDbCircle
 10
3.689898
 20
6.273775
 30
0.0
 40
0.102949
100
AcDbArc
 50
260.879575
 51
272.35548
  0
ARC
  5
3B1
330
18
100
AcDbEntity
  8
0
100
AcDbCircle
 10
3.691522
 20
6.234298
 30
0.0
 40
0.063438
100
AcDbArc
 50
272.35548
 51
286.989978
  0
ARC
  5
3B2
330
18
100
AcDbEntity
  8
0
100
AcDbCircle
 10
3.699443
 20
6.208375
 30
0.0
 40
0.036332
100
AcDbArc
 50
286.989978
 51
310.677532
  0
ARC
  5
3B3
330
18
100
AcDbEntity
  8
0
100
AcDbCircle
 10
3.714678
 20
6.190648
 30
0.0
 40
0.012958
100
AcDbArc
 50
310.677532
 51
350.879575
  0
ARC
  5
3B4
330
18
100
AcDbEntity
  8
0
100
AcDbCircle
 10
3.714678
 20
6.190648
 30
0.0
 40
0.012958
100
AcDbArc
 50
350.879575
 51
3.561794
  0
ARC
  5
3B5
330
18
100
AcDbEntity
  8
0
100
AcDbCircle
 10
3.640344
 20
6.211843
 30
0.0
 40
0.012958
100
AcDbArc
 50
170.879575
 51
211.081618
  0
ARC
  5
3B6
330
18
100
AcDbEntity
  8
0
100
AcDbCircle
 10
3.660362
 20
6.22391
 30
0.0
 40
0.036332
100
AcDbArc
 50
211.081618
 51
234.769172
  0
ARC
  5
3B7
330
18
100
AcDbEntity
  8
0
100
AcDbCircle
 10
3.675999
 20
6.246051000000001
 30
0.0
 40
0.063438
100
AcDbArc
 50
234.769172
 51
249.403669
  0
ARC
  5
3B8
330
18
100
AcDbEntity
  8
0
100
AcDbCircle
 10
3.689898
 20
6.283037
 30
0.0
 40
0.102949
100
AcDbArc
 50
249.403669
 51
260.879575
  0
ARC
  5
3B9
330
18
100
AcDbEntity
  8
0
100
AcDbCircle
 10
3.689898
 20
6.283037
 30
0.0
 40
0.102949
100
AcDbArc
 50
260.879575
 51
272.35548
  0
ARC
  5
3BA
330
18
100
AcDbEntity
  8
0
100
AcDbCircle
 10
3.691522
 20
6.243558999999999
 30
0.0
 40
0.063438
100
AcDbArc
 50
272.35548
 51
286.989978
  0
ARC
  5
3BB
330
18
100
AcDbEntity
  8
0
100
AcDbCircle
 10
3.699443
 20
6.217636
 30
0.0
 40
0.036332
100
AcDbArc
 50
286.989978
 51
310.677532
  0
ARC
  5
3BC
330
18
100
AcDbEntity
  8
0
100
AcDbCircle
 10
3.714678
 20
6.199909
 30
0.0
 40
0.012958
100
AcDbArc
 50
310.677532
 51
350.879575
  0
ARC
  5
3BD
330
18
100
AcDbEntity
  8
0
100
AcDbCircle
 10
3.714678
 20
6.199909
 30
0.0
 40
0.012958
100
AcDbArc
 50
350.879575
 51
31.081618
  0
ARC
  5
3BE
330
18
100
AcDbEntity
  8
0
100
AcDbCircle
 10
3.694659
 20
6.187842
 30
0.0
 40
0.036332
100
AcDbArc
 50
31.081618
 51
54.76917200000001
  0
ARC
  5
3BF
330
18
100
AcDbEntity
  8
0
100
AcDbCircle
 10
3.679023
 20
6.165701
 30
0.0
 40
0.063438
100
AcDbArc
 50
54.76917200000001
 51
69.40366899999999
  0
ARC
  5
3C0
330
18
100
AcDbEntity
  8
0
100
AcDbCircle
 10
3.665123
 20
6.128715000000001
 30
0.0
 40
0.102949
100
AcDbArc
 50
69.40366899999999
 51
80.879575
  0
ARC
  5
3C1
330
18
100
AcDbEntity
  8
0
100
AcDbCircle
 10
3.665123
 20
6.128715000000001
 30
0.0
 40
0.102949
100
AcDbArc
 50
80.879575
 51
92.35547999999999
  0
ARC
  5
3C2
330
18
100
AcDbEntity
  8
0
100
AcDbCircle
 10
3.6635
 20
6.168193
 30
0.0
 40
0.063438
100
AcDbArc
 50
92.35547999999999
 51
106.989978
  0
ARC
  5
3C3
330
18
100
AcDbEntity
  8
0
100
AcDbCircle
 10
3.655579
 20
6.194116
 30
0.0
 40
0.036332
100
AcDbArc
 50
106.989978
 51
130.677532
  0
ARC
  5
3C4
330
18
100
AcDbEntity
  8
0
100
AcDbCircle
 10
3.640344
 20
6.211843
 30
0.0
 40
0.012958
100
AcDbArc
 50
130.677532
 51
170.879575
  0
ARC
  5
3C5
330
18
100
AcDbEntity
  8
0
100
AcDbCircle
 10
3.873459
 20
6.148478
 30
0.0
 40
0.012958
100
AcDbArc
 50
179.581929
 51
211.081618
  0
ARC
  5
3C6
330
18
100
AcDbEntity
  8
0
100
AcDbCircle
 10
3.893477
 20
6.160545
 30
0.0
 40
0.036332
100
AcDbArc
 50
211.081618
 51
234.769172
  0
ARC
  5
3C7
330
18
100
AcDbEntity
  8
0
100
AcDbCircle
 10
3.909114
 20
6.182686
 30
0.0
 40
0.063438
100
AcDbArc
 50
234.769172
 51
249.403669
  0
ARC
  5
3C8
330
18
100
AcDbEntity
  8
0
100
AcDbCircle
 10
3.923013
 20
6.219672
 30
0.0
 40
0.102949
100
AcDbArc
 50
249.403669
 51
260.879575
  0
ARC
  5
3C9
330
18
100
AcDbEntity
  8
0
100
AcDbCircle
 10
3.923013
 20
6.219672
 30
0.0
 40
0.102949
100
AcDbArc
 50
260.879575
 51
272.35548
  0
ARC
  5
3CA
330
18
100
AcDbEntity
  8
0
100
AcDbCircle
 10
3.924637
 20
6.180194
 30
0.0
 40
0.063438
100
AcDbArc
 50
272.35548
 51
286.989978
  0
ARC
  5
3CB
330
18
100
AcDbEntity
  8
0
100
AcDbCircle
 10
3.932558
 20
6.154271
 30
0.0
 40
0.036332
100
AcDbArc
 50
286.989978
 51
310.677532
  0
ARC
  5
3CC
330
18
100
AcDbEntity
  8
0
100
AcDbCircle
 10
3.947793
 20
6.136544000000001
 30
0.0
 40
0.012958
100
AcDbArc
 50
310.677532
 51
350.879575
  0
ARC
  5
3CD
330
18
100
AcDbEntity
  8
0
100
AcDbCircle
 10
3.947793
 20
6.136544000000001
 30
0.0
 40
0.012958
100
AcDbArc
 50
350.879575
 51
3.561794
  0
ARC
  5
3CE
330
18
100
AcDbEntity
  8
0
100
AcDbCircle
 10
3.873459
 20
6.157739
 30
0.0
 40
0.012958
100
AcDbArc
 50
170.879575
 51
211.081618
  0
ARC
  5
3CF
330
18
100
AcDbEntity
  8
0
100
AcDbCircle
 10
3.893477
 20
6.169806
 30
0.0
 40
0.036332
100
AcDbArc
 50
211.081618
 51
234.769172
  0
ARC
  5
3D0
330
18
100
AcDbEntity
  8
0
100
AcDbCircle
 10
3.909114
 20
6.191948
 30
0.0
 40
0.063438
100
AcDbArc
 50
234.769172
 51
249.403669
  0
ARC
  5
3D1
330
18
100
AcDbEntity
  8
0
100
AcDbCircle
 10
3.923013
 20
6.228933000000001
 30
0.0
 40
0.102949
100
AcDbArc
 50
249.403669
 51
260.879575
  0
ARC
  5
3D2
330
18
100
AcDbEntity
  8
0
100
AcDbCircle
 10
3.923013
 20
6.228933000000001
 30
0.0
 40
0.102949
100
AcDbArc
 50
260.879575
 51
272.35548
  0
ARC
  5
3D3
330
18
100
AcDbEntity
  8
0
100
AcDbCircle
 10
3.924637
 20
6.189456
 30
0.0
 40
0.063438
100
AcDbArc
 50
272.35548
 51
286.989978
  0
ARC
  5
3D4
330
18
100
AcDbEntity
  8
0
100
AcDbCircle
 10
3.932558
 20
6.163532
 30
0.0
 40
0.036332
100
AcDbArc
 50
286.989978
 51
310.677532
  0
ARC
  5
3D5
330
18
100
AcDbEntity
  8
0
100
AcDbCircle
 10
3.947793
 20
6.145805999999999
 30
0.0
 40
0.012958
100
AcDbArc
 50
310.677532
 51
350.879575
  0
ARC
  5
3D6
330
18
100
AcDbEntity
  8
0
100
AcDbCircle
 10
3.947793
 20
6.145805999999999
 30
0.0
 40
0.012958
100
AcDbArc
 50
350.879575
 51
31.081618
  0
ARC
  5
3D7
330
18
100
AcDbEntity
  8
0
100
AcDbCircle
 10
3.927775
 20
6.133738
 30
0.0
 40
0.036332
100
AcDbArc
 50
31.081618
 51
54.76917200000001
  0
ARC
  5
3D8
330
18
100
AcDbEntity
  8
0
100
AcDbCircle
 10
3.912138
 20
6.111597
 30
0.0
 40
0.063438
100
AcDbArc
 50
54.76917200000001
 51
69.40366899999999
  0
ARC
  5
3D9
330
18
100
AcDbEntity
  8
0
100
AcDbCircle
 10
3.898239
 20
6.074612
 30
0.0
 40
0.102949
100
AcDbArc
 50
69.40366899999999
 51
80.879575
  0
ARC
  5
3DA
330
18
100
AcDbEntity
  8
0
100
AcDbCircle
 10
3.898239
 20
6.074612
 30
0.0
 40
0.102949
100
AcDbArc
 50
80.879575
 51
92.35547999999999
  0
ARC
  5
3DB
330
18
100
AcDbEntity
  8
0
100
AcDbCircle
 10
3.896615
 20
6.114089
 30
0.0
 40
0.063438
100
AcDbArc
 50
92.35547999999999
 51
106.989978
  0
ARC
  5
3DC
330
18
100
AcDbEntity
  8
0
100
AcDbCircle
 10
3.888694
 20
6.140012000000001
 30
0.0
 40
0.036332
100
AcDbArc
 50
106.989978
 51
130.677532
  0
ARC
  5
3DD
330
18
100
AcDbEntity
  8
0
100
AcDbCircle
 10
3.873459
 20
6.157739
 30
0.0
 40
0.012958
100
AcDbArc
 50
130.677532
 51
170.879575
  0
ARC
  5
3DE
330
18
100
AcDbEntity
  8
0
100
AcDbCircle
 10
4.154246
 20
6.33169
 30
0.0
 40
0.012699
100
AcDbArc
 50
179.581929
 51
211.081618
  0
ARC
  5
3DF
330
18
100
AcDbEntity
  8
0
100
AcDbCircle
 10
4.173864
 20
6.343516
 30
0.0
 40
0.035606
100
AcDbArc
 50
211.081618
 51
234.769172
  0
ARC
  5
3E0
330
18
100
AcDbEntity
  8
0
100
AcDbCircle
 10
4.189188
 20
6.365215
 30
0.0
 40
0.06217
100
AcDbArc
 50
234.769172
 51
249.403669
  0
ARC
  5
3E1
330
18
100
AcDbEntity
  8
0
100
AcDbCircle
 10
4.202808999999999
 20
6.40146
 30
0.0
 40
0.10089
100
AcDbArc
 50
249.403669
 51
260.879575
  0
ARC
  5
3E2
330
18
100
AcDbEntity
  8
0
100
AcDbCircle
 10
4.202808999999999
 20
6.40146
 30
0.0
 40
0.10089
100
AcDbArc
 50
260.879575
 51
272.35548
  0
ARC
  5
3E3
330
18
100
AcDbEntity
  8
0
100
AcDbCircle
 10
4.204401
 20
6.362772000000001
 30
0.0
 40
0.06217
100
AcDbArc
 50
272.35548
 51
286.989978
  0
ARC
  5
3E4
330
18
100
AcDbEntity
  8
0
100
AcDbCircle
 10
4.212162999999999
 20
6.337368
 30
0.0
 40
0.035606
100
AcDbArc
 50
286.989978
 51
310.677532
  0
ARC
  5
3E5
330
18
100
AcDbEntity
  8
0
100
AcDbCircle
 10
4.227093
 20
6.319995
 30
0.0
 40
0.012699
100
AcDbArc
 50
310.677532
 51
350.879575
  0
ARC
  5
3E6
330
18
100
AcDbEntity
  8
0
100
AcDbCircle
 10
4.227093
 20
6.319995
 30
0.0
 40
0.012699
100
AcDbArc
 50
350.879575
 51
3.561794
  0
ARC
  5
3E7
330
18
100
AcDbEntity
  8
0
100
AcDbCircle
 10
4.154246
 20
6.340767
 30
0.0
 40
0.012699
100
AcDbArc
 50
170.879575
 51
211.081618
  0
ARC
  5
3E8
330
18
100
AcDbEntity
  8
0
100
AcDbCircle
 10
4.173864
 20
6.352593
 30
0.0
 40
0.035606
100
AcDbArc
 50
211.081618
 51
234.769172
  0
ARC
  5
3E9
330
18
100
AcDbEntity
  8
0
100
AcDbCircle
 10
4.189188
 20
6.374291
 30
0.0
 40
0.06217
100
AcDbArc
 50
234.769172
 51
249.403669
  0
ARC
  5
3EA
330
18
100
AcDbEntity
  8
0
100
AcDbCircle
 10
4.202808999999999
 20
6.410537000000001
 30
0.0
 40
0.10089
100
AcDbArc
 50
249.403669
 51
260.879575
  0
ARC
  5
3EB
330
18
100
AcDbEntity
  8
0
100
AcDbCircle
 10
4.202808999999999
 20
6.410537000000001
 30
0.0
 40
0.10089
100
AcDbArc
 50
260.879575
 51
272.35548
  0
ARC
  5
3EC
330
18
100
AcDbEntity
  8
0
100
AcDbCircle
 10
4.204401
 20
6.371849
 30
0.0
 40
0.06217
100
AcDbArc
 50
272.35548
 51
286.989978
  0
ARC
  5
3ED
330
18
100
AcDbEntity
  8
0
100
AcDbCircle
 10
4.212162999999999
 20
6.346444
 30
0.0
 40
0.035606
100
AcDbArc
 50
286.989978
 51
310.677532
  0
ARC
  5
3EE
330
18
100
AcDbEntity
  8
0
100
AcDbCircle
 10
4.227093
 20
6.329072
 30
0.0
 40
0.012699
100
AcDbArc
 50
310.677532
 51
350.879575
  0
ARC
  5
3EF
330
18
100
AcDbEntity
  8
0
100
AcDbCircle
 10
4.227093
 20
6.329072
 30
0.0
 40
0.012699
100
AcDbArc
 50
350.879575
 51
31.081618
  0
ARC
  5
3F0
330
18
100
AcDbEntity
  8
0
100
AcDbCircle
 10
4.207475
 20
6.317246
 30
0.0
 40
0.035606
100
AcDbArc
 50
31.081618
 51
54.76917200000001
  0
ARC
  5
3F1
330
18
100
AcDbEntity
  8
0
100
AcDbCircle
 10
4.192151
 20
6.295547
 30
0.0
 40
0.06217
100
AcDbArc
 50
54.76917200000001
 51
69.40366899999999
  0
ARC
  5
3F2
330
18
100
AcDbEntity
  8
0
100
AcDbCircle
 10
4.17853
 20
6.259302
 30
0.0
 40
0.10089
100
AcDbArc
 50
69.40366899999999
 51
80.879575
  0
ARC
  5
3F3
330
18
100
AcDbEntity
  8
0
100
AcDbCircle
 10
4.17853
 20
6.259302
 30
0.0
 40
0.10089
100
AcDbArc
 50
80.879575
 51
92.35547999999999
  0
ARC
  5
3F4
330
18
100
AcDbEntity
  8
0
100
AcDbCircle
 10
4.176939
 20
6.29799
 30
0.0
 40
0.06217
100
AcDbArc
 50
92.35547999999999
 51
106.989978
  0
ARC
  5
3F5
330
18
100
AcDbEntity
  8
0
100
AcDbCircle
 10
4.169176
 20
6.323394
 30
0.0
 40
0.035606
100
AcDbArc
 50
106.989978
 51
130.677532
  0
ARC
  5
3F6
330
18
100
AcDbEntity
  8
0
100
AcDbCircle
 10
4.154246
 20
6.340767
 30
0.0
 40
0.012699
100
AcDbArc
 50
130.677532
 51
170.879575
  0
ARC
  5
3F7
330
18
100
AcDbEntity
  8
0
100
AcDbCircle
 10
3.941498
 20
6.387929
 30
0.0
 40
0.012699
100
AcDbArc
 50
170.879575
 51
211.081618
  0
ARC
  5
3F8
330
18
100
AcDbEntity
  8
0
100
AcDbCircle
 10
3.961117
 20
6.399755
 30
0.0
 40
0.035606
100
AcDbArc
 50
211.081618
 51
234.769172
  0
ARC
  5
3F9
330
18
100
AcDbEntity
  8
0
100
AcDbCircle
 10
3.976441
 20
6.421453
 30
0.0
 40
0.06217
100
AcDbArc
 50
234.769172
 51
249.403669
  0
ARC
  5
3FA
330
18
100
AcDbEntity
  8
0
100
AcDbCircle
 10
3.990062
 20
6.457699
 30
0.0
 40
0.10089
100
AcDbArc
 50
249.403669
 51
260.879575
  0
ARC
  5
3FB
330
18
100
AcDbEntity
  8
0
100
AcDbCircle
 10
3.990062
 20
6.457699
 30
0.0
 40
0.10089
100
AcDbArc
 50
260.879575
 51
272.35548
  0
ARC
  5
3FC
330
18
100
AcDbEntity
  8
0
100
AcDbCircle
 10
3.991653
 20
6.419011
 30
0.0
 40
0.06217
100
AcDbArc
 50
272.35548
 51
286.989978
  0
ARC
  5
3FD
330
18
100
AcDbEntity
  8
0
100
AcDbCircle
 10
3.999415
 20
6.393607
 30
0.0
 40
0.035606
100
AcDbArc
 50
286.989978
 51
310.677532
  0
ARC
  5
3FE
330
18
100
AcDbEntity
  8
0
100
AcDbCircle
 10
4.014346
 20
6.376233999999999
 30
0.0
 40
0.012699
100
AcDbArc
 50
310.677532
 51
350.879575
  0
ARC
  5
3FF
330
18
100
AcDbEntity
  8
0
100
AcDbCircle
 10
4.014346
 20
6.376233999999999
 30
0.0
 40
0.012699
100
AcDbArc
 50
350.879575
 51
31.081618
  0
ARC
  5
400
330
18
100
AcDbEntity
  8
0
100
AcDbCircle
 10
3.994728
 20
6.364408
 30
0.0
 40
0.035606
100
AcDbArc
 50
31.081618
 51
54.76917200000001
  0
ARC
  5
401
330
18
100
AcDbEntity
  8
0
100
AcDbCircle
 10
3.979404
 20
6.34271
 30
0.0
 40
0.06217
100
AcDbArc
 50
54.76917200000001
 51
69.40366899999999
  0
ARC
  5
402
330
18
100
AcDbEntity
  8
0
100
AcDbCircle
 10
3.965783
 20
6.306464
 30
0.0
 40
0.10089
100
AcDbArc
 50
69.40366899999999
 51
80.879575
  0
ARC
  5
403
330
18
100
AcDbEntity
  8
0
100
AcDbCircle
 10
3.965783
 20
6.306464
 30
0.0
 40
0.10089
100
AcDbArc
 50
80.879575
 51
92.35547999999999
  0
ARC
  5
404
330
18
100
AcDbEntity
  8
0
100
AcDbCircle
 10
3.964191000000001
 20
6.345152
 30
0.0
 40
0.06217
100
AcDbArc
 50
92.35547999999999
 51
106.989978
  0
ARC
  5
405
330
18
100
AcDbEntity
  8
0
100
AcDbCircle
 10
3.956429
 20
6.370557
 30
0.0
 40
0.035606
100
AcDbArc
 50
106.989978
 51
130.677532
  0
ARC
  5
406
330
18
100
AcDbEntity
  8
0
100
AcDbCircle
 10
3.941498
 20
6.387929
 30
0.0
 40
0.012699
100
AcDbArc
 50
130.677532
 51
170.879575
  0
ARC
  5
407
330
18
100
AcDbEntity
  8
0
100
AcDbCircle
 10
3.941498
 20
6.378852999999999
 30
0.0
 40
0.012699
100
AcDbArc
 50
179.581929
 51
211.081618
  0
ARC
  5
408
330
18
100
AcDbEntity
  8
0
100
AcDbCircle
 10
3.961117
 20
6.390679
 30
0.0
 40
0.035606
100
AcDbArc
 50
211.081618
 51
234.769172
  0
ARC
  5
409
330
18
100
AcDbEntity
  8
0
100
AcDbCircle
 10
3.976441
 20
6.412376999999999
 30
0.0
 40
0.06217
100
AcDbArc
 50
234.769172
 51
249.403669
  0
ARC
  5
40A
330
18
100
AcDbEntity
  8
0
100
AcDbCircle
 10
3.990062
 20
6.448623
 30
0.0
 40
0.10089
100
AcDbArc
 50
249.403669
 51
260.879575
  0
ARC
  5
40B
330
18
100
AcDbEntity
  8
0
100
AcDbCircle
 10
3.990062
 20
6.448623
 30
0.0
 40
0.10089
100
AcDbArc
 50
260.879575
 51
272.35548
  0
ARC
  5
40C
330
18
100
AcDbEntity
  8
0
100
AcDbCircle
 10
3.991653
 20
6.409935
 30
0.0
 40
0.06217
100
AcDbArc
 50
272.35548
 51
286.989978
  0
ARC
  5
40D
330
18
100
AcDbEntity
  8
0
100
AcDbCircle
 10
3.999415
 20
6.384530000000001
 30
0.0
 40
0.035606
100
AcDbArc
 50
286.989978
 51
310.677532
  0
ARC
  5
40E
330
18
100
AcDbEntity
  8
0
100
AcDbCircle
 10
4.014346
 20
6.367158
 30
0.0
 40
0.012699
100
AcDbArc
 50
310.677532
 51
350.879575
  0
ARC
  5
40F
330
18
100
AcDbEntity
  8
0
100
AcDbCircle
 10
4.014346
 20
6.367158
 30
0.0
 40
0.012699
100
AcDbArc
 50
350.879575
 51
3.561794
  0
LINE
  5
410
330
18
100
AcDbEntity
  8
0
100
AcDbLine
 10
3.80206
 20
5.412979
 30
0.0
 11
3.787035
 21
5.421964
 31
0.0
  0
LINE
  5
411
330
18
100
AcDbEntity
  8
0
100
AcDbLine
 10
3.787035
 20
5.421964
 30
0.0
 11
3.77001
 21
5.417927
 31
0.0
  0
LINE
  5
412
330
18
100
AcDbEntity
  8
0
100
AcDbLine
 10
3.77001
 20
5.417927
 30
0.0
 11
3.76801
 21
5.409911
 31
0.0
  0
LINE
  5
413
330
18
100
AcDbEntity
  8
0
100
AcDbLine
 10
3.76801
 20
5.409911
 30
0.0
 11
3.772024
 21
5.387887999999999
 31
0.0
  0
LINE
  5
414
330
18
100
AcDbEntity
  8
0
100
AcDbLine
 10
3.772024
 20
5.387887999999999
 30
0.0
 11
3.791054
 21
5.384919
 31
0.0
  0
LINE
  5
415
330
18
100
AcDbEntity
  8
0
100
AcDbLine
 10
3.791054
 20
5.384919
 30
0.0
 11
3.8251
 21
5.400003
 31
0.0
  0
LINE
  5
416
330
18
100
AcDbEntity
  8
0
100
AcDbLine
 10
3.8251
 20
5.400003
 30
0.0
 11
3.8291
 21
5.415032
 31
0.0
  0
LINE
  5
417
330
18
100
AcDbEntity
  8
0
100
AcDbLine
 10
3.8291
 20
5.415032
 30
0.0
 11
3.80206
 21
5.412979
 31
0.0
  0
LINE
  5
418
330
18
100
AcDbEntity
  8
0
100
AcDbLine
 10
4.270839
 20
5.206556
 30
0.0
 11
4.250824
 21
5.16446
 31
0.0
  0
LINE
  5
419
330
18
100
AcDbEntity
  8
0
100
AcDbLine
 10
4.250824
 20
5.16446
 30
0.0
 11
4.247825
 21
5.146429
 31
0.0
  0
LINE
  5
41A
330
18
100
AcDbEntity
  8
0
100
AcDbLine
 10
4.247825
 20
5.146429
 30
0.0
 11
4.264851999999999
 21
5.143456
 31
0.0
  0
LINE
  5
41B
330
18
100
AcDbEntity
  8
0
100
AcDbLine
 10
4.264851999999999
 20
5.143456
 30
0.0
 11
4.292892
 21
5.148515
 31
0.0
  0
LINE
  5
41C
330
18
100
AcDbEntity
  8
0
100
AcDbLine
 10
4.292892
 20
5.148515
 30
0.0
 11
4.304905000000001
 21
5.165561
 31
0.0
  0
LINE
  5
41D
330
18
100
AcDbEntity
  8
0
100
AcDbLine
 10
4.304905000000001
 20
5.165561
 30
0.0
 11
4.294883000000001
 21
5.18457
 31
0.0
  0
LINE
  5
41E
330
18
100
AcDbEntity
  8
0
100
AcDbLine
 10
4.294883000000001
 20
5.18457
 30
0.0
 11
4.288872000000001
 21
5.190567
 31
0.0
  0
LINE
  5
41F
330
18
100
AcDbEntity
  8
0
100
AcDbLine
 10
4.288872000000001
 20
5.190567
 30
0.0
 11
4.282858999999999
 21
5.199569
 31
0.0
  0
LINE
  5
420
330
18
100
AcDbEntity
  8
0
100
AcDbLine
 10
4.282858999999999
 20
5.199569
 30
0.0
 11
4.270839
 21
5.206556
 31
0.0
  0
LINE
  5
421
330
18
100
AcDbEntity
  8
0
100
AcDbLine
 10
4.283829
 20
5.289698000000001
 30
0.0
 11
4.269807
 21
5.290673
 31
0.0
  0
LINE
  5
422
330
18
100
AcDbEntity
  8
0
100
AcDbLine
 10
4.269807
 20
5.290673
 30
0.0
 11
4.264803
 21
5.282652
 31
0.0
  0
LINE
  5
423
330
18
100
AcDbEntity
  8
0
100
AcDbLine
 10
4.264803
 20
5.282652
 30
0.0
 11
4.267812999999999
 21
5.266635
 31
0.0
  0
LINE
  5
424
330
18
100
AcDbEntity
  8
0
100
AcDbLine
 10
4.267812999999999
 20
5.266635
 30
0.0
 11
4.278834
 21
5.254639
 31
0.0
  0
LINE
  5
425
330
18
100
AcDbEntity
  8
0
100
AcDbLine
 10
4.278834
 20
5.254639
 30
0.0
 11
4.288847000000001
 21
5.258662999999999
 31
0.0
  0
LINE
  5
426
330
18
100
AcDbEntity
  8
0
100
AcDbLine
 10
4.288847000000001
 20
5.258662999999999
 30
0.0
 11
4.292852
 21
5.262676
 31
0.0
  0
LINE
  5
427
330
18
100
AcDbEntity
  8
0
100
AcDbLine
 10
4.292852
 20
5.262676
 30
0.0
 11
4.291848
 21
5.269684
 31
0.0
  0
LINE
  5
428
330
18
100
AcDbEntity
  8
0
100
AcDbLine
 10
4.291848
 20
5.269684
 30
0.0
 11
4.283829
 21
5.289698000000001
 31
0.0
  0
LINE
  5
429
330
18
100
AcDbEntity
  8
0
100
AcDbLine
 10
5.047129
 20
4.861507
 30
0.0
 11
5.009090000000001
 21
4.810365
 31
0.0
  0
LINE
  5
42A
330
18
100
AcDbEntity
  8
0
100
AcDbLine
 10
5.009090000000001
 20
4.810365
 30
0.0
 11
5.021111
 21
4.800373
 31
0.0
  0
LINE
  5
42B
330
18
100
AcDbEntity
  8
0
100
AcDbLine
 10
5.021111
 20
4.800373
 30
0.0
 11
5.045148
 21
4.798415
 31
0.0
  0
LINE
  5
42C
330
18
100
AcDbEntity
  8
0
100
AcDbLine
 10
5.045148
 20
4.798415
 30
0.0
 11
5.067177
 21
4.811474
 31
0.0
  0
LINE
  5
42D
330
18
100
AcDbEntity
  8
0
100
AcDbLine
 10
5.067177
 20
4.811474
 30
0.0
 11
5.082196
 21
4.819513
 31
0.0
  0
LINE
  5
42E
330
18
100
AcDbEntity
  8
0
100
AcDbLine
 10
5.082196
 20
4.819513
 30
0.0
 11
5.071172
 21
4.840522
 31
0.0
  0
LINE
  5
42F
330
18
100
AcDbEntity
  8
0
100
AcDbLine
 10
5.071172
 20
4.840522
 30
0.0
 11
5.047129
 21
4.861507
 31
0.0
  0
LINE
  5
430
330
18
100
AcDbEntity
  8
0
100
AcDbLine
 10
5.113185
 20
4.983803
 30
0.0
 11
5.088152
 21
4.970738
 31
0.0
  0
LINE
  5
431
330
18
100
AcDbEntity
  8
0
100
AcDbLine
 10
5.088152
 20
4.970738
 30
0.0
 11
5.089162
 21
4.946706
 31
0.0
  0
LINE
  5
432
330
18
100
AcDbEntity
  8
0
100
AcDbLine
 10
5.089162
 20
4.946706
 30
0.0
 11
5.104187000000001
 21
4.939724
 31
0.0
  0
LINE
  5
433
330
18
100
AcDbEntity
  8
0
100
AcDbLine
 10
5.104187000000001
 20
4.939724
 30
0.0
 11
5.117206
 21
4.942752
 31
0.0
  0
LINE
  5
434
330
18
100
AcDbEntity
  8
0
100
AcDbLine
 10
5.117206
 20
4.942752
 30
0.0
 11
5.124214
 21
4.947772000000001
 31
0.0
  0
LINE
  5
435
330
18
100
AcDbEntity
  8
0
100
AcDbLine
 10
5.124214
 20
4.947772000000001
 30
0.0
 11
5.133221
 21
4.967817
 31
0.0
  0
LINE
  5
436
330
18
100
AcDbEntity
  8
0
100
AcDbLine
 10
5.133221
 20
4.967817
 30
0.0
 11
5.125205
 21
4.979819
 31
0.0
  0
LINE
  5
437
330
18
100
AcDbEntity
  8
0
100
AcDbLine
 10
5.125205
 20
4.979819
 30
0.0
 11
5.113185
 21
4.983803
 31
0.0
  0
ARC
  5
438
330
18
100
AcDbEntity
  8
0
100
AcDbCircle
 10
1.721454
 20
5.189166999999999
 30
0.0
 40
0.014048
100
AcDbArc
 50
170.879575
 51
211.081618
  0
ARC
  5
439
330
18
100
AcDbEntity
  8
0
100
AcDbCircle
 10
1.743157
 20
5.20225
 30
0.0
 40
0.03939
100
AcDbArc
 50
211.081618
 51
234.769172
  0
ARC
  5
43A
330
18
100
AcDbEntity
  8
0
100
AcDbCircle
 10
1.76011
 20
5.226255
 30
0.0
 40
0.068778
100
AcDbArc
 50
234.769172
 51
249.403669
  0
ARC
  5
43B
330
18
100
AcDbEntity
  8
0
100
AcDbCircle
 10
1.775179
 20
5.266353
 30
0.0
 40
0.111614
100
AcDbArc
 50
249.403669
 51
260.879575
  0
ARC
  5
43C
330
18
100
AcDbEntity
  8
0
100
AcDbCircle
 10
1.775179
 20
5.266353
 30
0.0
 40
0.111614
100
AcDbArc
 50
260.879575
 51
272.35548
  0
ARC
  5
43D
330
18
100
AcDbEntity
  8
0
100
AcDbCircle
 10
1.77694
 20
5.223553
 30
0.0
 40
0.068778
100
AcDbArc
 50
272.35548
 51
286.989978
  0
ARC
  5
43E
330
18
100
AcDbEntity
  8
0
100
AcDbCircle
 10
1.785527
 20
5.195448000000001
 30
0.0
 40
0.03939
100
AcDbArc
 50
286.989978
 51
310.677532
  0
ARC
  5
43F
330
18
100
AcDbEntity
  8
0
100
AcDbCircle
 10
1.802045
 20
5.176229
 30
0.0
 40
0.014048
100
AcDbArc
 50
310.677532
 51
350.879575
  0
ARC
  5
440
330
18
100
AcDbEntity
  8
0
100
AcDbCircle
 10
1.802045
 20
5.176229
 30
0.0
 40
0.014048
100
AcDbArc
 50
350.879575
 51
31.081618
  0
ARC
  5
441
330
18
100
AcDbEntity
  8
0
100
AcDbCircle
 10
1.780341
 20
5.163146
 30
0.0
 40
0.03939
100
AcDbArc
 50
31.081618
 51
54.76917200000001
  0
ARC
  5
442
330
18
100
AcDbEntity
  8
0
100
AcDbCircle
 10
1.763388
 20
5.139142
 30
0.0
 40
0.068778
100
AcDbArc
 50
54.76917200000001
 51
69.40366899999999
  0
ARC
  5
443
330
18
100
AcDbEntity
  8
0
100
AcDbCircle
 10
1.748319
 20
5.099043
 30
0.0
 40
0.111614
100
AcDbArc
 50
69.40366899999999
 51
80.879575
  0
ARC
  5
444
330
18
100
AcDbEntity
  8
0
100
AcDbCircle
 10
1.748319
 20
5.099043
 30
0.0
 40
0.111614
100
AcDbArc
 50
80.879575
 51
92.35547999999999
  0
ARC
  5
445
330
18
100
AcDbEntity
  8
0
100
AcDbCircle
 10
1.746559
 20
5.141844
 30
0.0
 40
0.068778
100
AcDbArc
 50
92.35547999999999
 51
106.989978
  0
ARC
  5
446
330
18
100
AcDbEntity
  8
0
100
AcDbCircle
 10
1.737971
 20
5.169948000000001
 30
0.0
 40
0.03939
100
AcDbArc
 50
106.989978
 51
130.677532
  0
ARC
  5
447
330
18
100
AcDbEntity
  8
0
100
AcDbCircle
 10
1.721454
 20
5.189166999999999
 30
0.0
 40
0.014048
100
AcDbArc
 50
130.677532
 51
170.879575
  0
ARC
  5
448
330
18
100
AcDbEntity
  8
0
100
AcDbCircle
 10
1.721454
 20
5.179126
 30
0.0
 40
0.014048
100
AcDbArc
 50
179.581929
 51
211.081618
  0
ARC
  5
449
330
18
100
AcDbEntity
  8
0
100
AcDbCircle
 10
1.743157
 20
5.192209
 30
0.0
 40
0.03939
100
AcDbArc
 50
211.081618
 51
234.769172
  0
ARC
  5
44A
330
18
100
AcDbEntity
  8
0
100
AcDbCircle
 10
1.76011
 20
5.216214
 30
0.0
 40
0.068778
100
AcDbArc
 50
234.769172
 51
249.403669
  0
ARC
  5
44B
330
18
100
AcDbEntity
  8
0
100
AcDbCircle
 10
1.775179
 20
5.256312
 30
0.0
 40
0.111614
100
AcDbArc
 50
249.403669
 51
260.879575
  0
ARC
  5
44C
330
18
100
AcDbEntity
  8
0
100
AcDbCircle
 10
1.775179
 20
5.256312
 30
0.0
 40
0.111614
100
AcDbArc
 50
260.879575
 51
272.35548
  0
ARC
  5
44D
330
18
100
AcDbEntity
  8
0
100
AcDbCircle
 10
1.77694
 20
5.213512000000001
 30
0.0
 40
0.068778
100
AcDbArc
 50
272.35548
 51
286.989978
  0
ARC
  5
44E
330
18
100
AcDbEntity
  8
0
100
AcDbCircle
 10
1.785527
 20
5.185407
 30
0.0
 40
0.03939
100
AcDbArc
 50
286.989978
 51
310.677532
  0
ARC
  5
44F
330
18
100
AcDbEntity
  8
0
100
AcDbCircle
 10
1.802045
 20
5.166188
 30
0.0
 40
0.014048
100
AcDbArc
 50
310.677532
 51
350.879575
  0
ARC
  5
450
330
18
100
AcDbEntity
  8
0
100
AcDbCircle
 10
1.802045
 20
5.166188
 30
0.0
 40
0.014048
100
AcDbArc
 50
350.879575
 51
3.561794
  0
ARC
  5
451
330
18
100
AcDbEntity
  8
0
100
AcDbCircle
 10
1.994096
 20
5.115436
 30
0.0
 40
0.014048
100
AcDbArc
 50
179.581929
 51
211.081618
  0
ARC
  5
452
330
18
100
AcDbEntity
  8
0
100
AcDbCircle
 10
2.015799
 20
5.128519
 30
0.0
 40
0.03939
100
AcDbArc
 50
211.081618
 51
234.769172
  0
ARC
  5
453
330
18
100
AcDbEntity
  8
0
100
AcDbCircle
 10
2.032752
 20
5.152524
 30
0.0
 40
0.068778
100
AcDbArc
 50
234.769172
 51
249.403669
  0
ARC
  5
454
330
18
100
AcDbEntity
  8
0
100
AcDbCircle
 10
2.047821
 20
5.192622
 30
0.0
 40
0.111614
100
AcDbArc
 50
249.403669
 51
260.879575
  0
ARC
  5
455
330
18
100
AcDbEntity
  8
0
100
AcDbCircle
 10
2.047821
 20
5.192622
 30
0.0
 40
0.111614
100
AcDbArc
 50
260.879575
 51
272.35548
  0
ARC
  5
456
330
18
100
AcDbEntity
  8
0
100
AcDbCircle
 10
2.049582
 20
5.149822
 30
0.0
 40
0.068778
100
AcDbArc
 50
272.35548
 51
286.989978
  0
ARC
  5
457
330
18
100
AcDbEntity
  8
0
100
AcDbCircle
 10
2.058169
 20
5.121716999999999
 30
0.0
 40
0.03939
100
AcDbArc
 50
286.989978
 51
310.677532
  0
ARC
  5
458
330
18
100
AcDbEntity
  8
0
100
AcDbCircle
 10
2.074687
 20
5.102498000000001
 30
0.0
 40
0.014048
100
AcDbArc
 50
310.677532
 51
350.879575
  0
ARC
  5
459
330
18
100
AcDbEntity
  8
0
100
AcDbCircle
 10
2.074687
 20
5.102498000000001
 30
0.0
 40
0.014048
100
AcDbArc
 50
350.879575
 51
3.561794
  0
ARC
  5
45A
330
18
100
AcDbEntity
  8
0
100
AcDbCircle
 10
1.994096
 20
5.125477
 30
0.0
 40
0.014048
100
AcDbArc
 50
170.879575
 51
211.081618
  0
ARC
  5
45B
330
18
100
AcDbEntity
  8
0
100
AcDbCircle
 10
2.015799
 20
5.13856
 30
0.0
 40
0.03939
100
AcDbArc
 50
211.081618
 51
234.769172
  0
ARC
  5
45C
330
18
100
AcDbEntity
  8
0
100
AcDbCircle
 10
2.032752
 20
5.162565
 30
0.0
 40
0.068778
100
AcDbArc
 50
234.769172
 51
249.403669
  0
ARC
  5
45D
330
18
100
AcDbEntity
  8
0
100
AcDbCircle
 10
2.047821
 20
5.202662999999999
 30
0.0
 40
0.111614
100
AcDbArc
 50
249.403669
 51
260.879575
  0
ARC
  5
45E
330
18
100
AcDbEntity
  8
0
100
AcDbCircle
 10
2.047821
 20
5.202662999999999
 30
0.0
 40
0.111614
100
AcDbArc
 50
260.879575
 51
272.35548
  0
ARC
  5
45F
330
18
100
AcDbEntity
  8
0
100
AcDbCircle
 10
2.049582
 20
5.159863
 30
0.0
 40
0.068778
100
AcDbArc
 50
272.35548
 51
286.989978
  0
ARC
  5
460
330
18
100
AcDbEntity
  8
0
100
AcDbCircle
 10
2.058169
 20
5.131758000000001
 30
0.0
 40
0.03939
100
AcDbArc
 50
286.989978
 51
310.677532
  0
ARC
  5
461
330
18
100
AcDbEntity
  8
0
100
AcDbCircle
 10
2.074687
 20
5.112539
 30
0.0
 40
0.014048
100
AcDbArc
 50
310.677532
 51
350.879575
  0
ARC
  5
462
330
18
100
AcDbEntity
  8
0
100
AcDbCircle
 10
2.074687
 20
5.112539
 30
0.0
 40
0.014048
100
AcDbArc
 50
350.879575
 51
31.081618
  0
ARC
  5
463
330
18
100
AcDbEntity
  8
0
100
AcDbCircle
 10
2.052983
 20
5.099456
 30
0.0
 40
0.03939
100
AcDbArc
 50
31.081618
 51
54.76917200000001
  0
ARC
  5
464
330
18
100
AcDbEntity
  8
0
100
AcDbCircle
 10
2.03603
 20
5.075451999999999
 30
0.0
 40
0.068778
100
AcDbArc
 50
54.76917200000001
 51
69.40366899999999
  0
ARC
  5
465
330
18
100
AcDbEntity
  8
0
100
AcDbCircle
 10
2.020961
 20
5.035353
 30
0.0
 40
0.111614
100
AcDbArc
 50
69.40366899999999
 51
80.879575
  0
ARC
  5
466
330
18
100
AcDbEntity
  8
0
100
AcDbCircle
 10
2.020961
 20
5.035353
 30
0.0
 40
0.111614
100
AcDbArc
 50
80.879575
 51
92.35547999999999
  0
ARC
  5
467
330
18
100
AcDbEntity
  8
0
100
AcDbCircle
 10
2.019201
 20
5.078153
 30
0.0
 40
0.068778
100
AcDbArc
 50
92.35547999999999
 51
106.989978
  0
ARC
  5
468
330
18
100
AcDbEntity
  8
0
100
AcDbCircle
 10
2.010614
 20
5.106258
 30
0.0
 40
0.03939
100
AcDbArc
 50
106.989978
 51
130.677532
  0
ARC
  5
469
330
18
100
AcDbEntity
  8
0
100
AcDbCircle
 10
1.994096
 20
5.125477
 30
0.0
 40
0.014048
100
AcDbArc
 50
130.677532
 51
170.879575
  0
ARC
  5
46A
330
18
100
AcDbEntity
  8
0
100
AcDbCircle
 10
2.428675
 20
5.336581
 30
0.0
 40
0.014048
100
AcDbArc
 50
170.879575
 51
211.081618
  0
ARC
  5
46B
330
18
100
AcDbEntity
  8
0
100
AcDbCircle
 10
2.450379
 20
5.349664
 30
0.0
 40
0.03939
100
AcDbArc
 50
211.081618
 51
234.769172
  0
ARC
  5
46C
330
18
100
AcDbEntity
  8
0
100
AcDbCircle
 10
2.467331
 20
5.373669000000001
 30
0.0
 40
0.068778
100
AcDbArc
 50
234.769172
 51
249.403669
  0
ARC
  5
46D
330
18
100
AcDbEntity
  8
0
100
AcDbCircle
 10
2.482401
 20
5.413767
 30
0.0
 40
0.111614
100
AcDbArc
 50
249.403669
 51
260.879575
  0
ARC
  5
46E
330
18
100
AcDbEntity
  8
0
100
AcDbCircle
 10
2.482401
 20
5.413767
 30
0.0
 40
0.111614
100
AcDbArc
 50
260.879575
 51
272.35548
  0
ARC
  5
46F
330
18
100
AcDbEntity
  8
0
100
AcDbCircle
 10
2.484161
 20
5.370967
 30
0.0
 40
0.068778
100
AcDbArc
 50
272.35548
 51
286.989978
  0
ARC
  5
470
330
18
100
AcDbEntity
  8
0
100
AcDbCircle
 10
2.492748
 20
5.342862
 30
0.0
 40
0.03939
100
AcDbArc
 50
286.989978
 51
310.677532
  0
ARC
  5
471
330
18
100
AcDbEntity
  8
0
100
AcDbCircle
 10
2.509266
 20
5.323643
 30
0.0
 40
0.014048
100
AcDbArc
 50
310.677532
 51
350.879575
  0
ARC
  5
472
330
18
100
AcDbEntity
  8
0
100
AcDbCircle
 10
2.509266
 20
5.323643
 30
0.0
 40
0.014048
100
AcDbArc
 50
350.879575
 51
31.081618
  0
ARC
  5
473
330
18
100
AcDbEntity
  8
0
100
AcDbCircle
 10
2.487563
 20
5.31056
 30
0.0
 40
0.03939
100
AcDbArc
 50
31.081618
 51
54.76917200000001
  0
ARC
  5
474
330
18
100
AcDbEntity
  8
0
100
AcDbCircle
 10
2.47061
 20
5.286555
 30
0.0
 40
0.068778
100
AcDbArc
 50
54.76917200000001
 51
69.40366899999999
  0
ARC
  5
475
330
18
100
AcDbEntity
  8
0
100
AcDbCircle
 10
2.455541
 20
5.246457
 30
0.0
 40
0.111614
100
AcDbArc
 50
69.40366899999999
 51
80.879575
  0
ARC
  5
476
330
18
100
AcDbEntity
  8
0
100
AcDbCircle
 10
2.455541
 20
5.246457
 30
0.0
 40
0.111614
100
AcDbArc
 50
80.879575
 51
92.35547999999999
  0
ARC
  5
477
330
18
100
AcDbEntity
  8
0
100
AcDbCircle
 10
2.45378
 20
5.289257
 30
0.0
 40
0.068778
100
AcDbArc
 50
92.35547999999999
 51
106.989978
  0
ARC
  5
478
330
18
100
AcDbEntity
  8
0
100
AcDbCircle
 10
2.445193
 20
5.317362
 30
0.0
 40
0.03939
100
AcDbArc
 50
106.989978
 51
130.677532
  0
ARC
  5
479
330
18
100
AcDbEntity
  8
0
100
AcDbCircle
 10
2.428675
 20
5.336581
 30
0.0
 40
0.014048
100
AcDbArc
 50
130.677532
 51
170.879575
  0
ARC
  5
47A
330
18
100
AcDbEntity
  8
0
100
AcDbCircle
 10
2.428675
 20
5.326540000000001
 30
0.0
 40
0.014048
100
AcDbArc
 50
179.581929
 51
211.081618
  0
ARC
  5
47B
330
18
100
AcDbEntity
  8
0
100
AcDbCircle
 10
2.450379
 20
5.339623000000001
 30
0.0
 40
0.03939
100
AcDbArc
 50
211.081618
 51
234.769172
  0
ARC
  5
47C
330
18
100
AcDbEntity
  8
0
100
AcDbCircle
 10
2.467331
 20
5.363628
 30
0.0
 40
0.068778
100
AcDbArc
 50
234.769172
 51
249.403669
  0
ARC
  5
47D
330
18
100
AcDbEntity
  8
0
100
AcDbCircle
 10
2.482401
 20
5.403726
 30
0.0
 40
0.111614
100
AcDbArc
 50
249.403669
 51
260.879575
  0
ARC
  5
47E
330
18
100
AcDbEntity
  8
0
100
AcDbCircle
 10
2.482401
 20
5.403726
 30
0.0
 40
0.111614
100
AcDbArc
 50
260.879575
 51
272.35548
  0
ARC
  5
47F
330
18
100
AcDbEntity
  8
0
100
AcDbCircle
 10
2.484161
 20
5.360926
 30
0.0
 40
0.068778
100
AcDbArc
 50
272.35548
 51
286.989978
  0
ARC
  5
480
330
18
100
AcDbEntity
  8
0
100
AcDbCircle
 10
2.492748
 20
5.332821
 30
0.0
 40
0.03939
100
AcDbArc
 50
286.989978
 51
310.677532
  0
ARC
  5
481
330
18
100
AcDbEntity
  8
0
100
AcDbCircle
 10
2.509266
 20
5.313602
 30
0.0
 40
0.014048
100
AcDbArc
 50
310.677532
 51
350.879575
  0
ARC
  5
482
330
18
100
AcDbEntity
  8
0
100
AcDbCircle
 10
2.509266
 20
5.313602
 30
0.0
 40
0.014048
100
AcDbArc
 50
350.879575
 51
3.561794
  0
ARC
  5
483
330
18
100
AcDbEntity
  8
0
100
AcDbCircle
 10
2.156033
 20
5.39023
 30
0.0
 40
0.014048
100
AcDbArc
 50
179.581929
 51
211.081618
  0
ARC
  5
484
330
18
100
AcDbEntity
  8
0
100
AcDbCircle
 10
2.177737
 20
5.403313
 30
0.0
 40
0.03939
100
AcDbArc
 50
211.081618
 51
234.769172
  0
ARC
  5
485
330
18
100
AcDbEntity
  8
0
100
AcDbCircle
 10
2.194689
 20
5.427318
 30
0.0
 40
0.068778
100
AcDbArc
 50
234.769172
 51
249.403669
  0
ARC
  5
486
330
18
100
AcDbEntity
  8
0
100
AcDbCircle
 10
2.209758
 20
5.467416
 30
0.0
 40
0.111614
100
AcDbArc
 50
249.403669
 51
260.879575
  0
ARC
  5
487
330
18
100
AcDbEntity
  8
0
100
AcDbCircle
 10
2.209758
 20
5.467416
 30
0.0
 40
0.111614
100
AcDbArc
 50
260.879575
 51
272.35548
  0
ARC
  5
488
330
18
100
AcDbEntity
  8
0
100
AcDbCircle
 10
2.211519
 20
5.424616
 30
0.0
 40
0.068778
100
AcDbArc
 50
272.35548
 51
286.989978
  0
ARC
  5
489
330
18
100
AcDbEntity
  8
0
100
AcDbCircle
 10
2.220106
 20
5.396511
 30
0.0
 40
0.03939
100
AcDbArc
 50
286.989978
 51
310.677532
  0
ARC
  5
48A
330
18
100
AcDbEntity
  8
0
100
AcDbCircle
 10
2.236624
 20
5.377292
 30
0.0
 40
0.014048
100
AcDbArc
 50
310.677532
 51
350.879575
  0
ARC
  5
48B
330
18
100
AcDbEntity
  8
0
100
AcDbCircle
 10
2.236624
 20
5.377292
 30
0.0
 40
0.014048
100
AcDbArc
 50
350.879575
 51
3.561794
  0
ARC
  5
48C
330
18
100
AcDbEntity
  8
0
100
AcDbCircle
 10
2.156033
 20
5.400271
 30
0.0
 40
0.014048
100
AcDbArc
 50
170.879575
 51
211.081618
  0
ARC
  5
48D
330
18
100
AcDbEntity
  8
0
100
AcDbCircle
 10
2.177737
 20
5.413354
 30
0.0
 40
0.03939
100
AcDbArc
 50
211.081618
 51
234.769172
  0
ARC
  5
48E
330
18
100
AcDbEntity
  8
0
100
AcDbCircle
 10
2.194689
 20
5.437359
 30
0.0
 40
0.068778
100
AcDbArc
 50
234.769172
 51
249.403669
  0
ARC
  5
48F
330
18
100
AcDbEntity
  8
0
100
AcDbCircle
 10
2.209758
 20
5.477457
 30
0.0
 40
0.111614
100
AcDbArc
 50
249.403669
 51
260.879575
  0
ARC
  5
490
330
18
100
AcDbEntity
  8
0
100
AcDbCircle
 10
2.209758
 20
5.477457
 30
0.0
 40
0.111614
100
AcDbArc
 50
260.879575
 51
272.35548
  0
ARC
  5
491
330
18
100
AcDbEntity
  8
0
100
AcDbCircle
 10
2.211519
 20
5.434657
 30
0.0
 40
0.068778
100
AcDbArc
 50
272.35548
 51
286.989978
  0
ARC
  5
492
330
18
100
AcDbEntity
  8
0
100
AcDbCircle
 10
2.220106
 20
5.406552
 30
0.0
 40
0.03939
100
AcDbArc
 50
286.989978
 51
310.677532
  0
ARC
  5
493
330
18
100
AcDbEntity
  8
0
100
AcDbCircle
 10
2.236624
 20
5.387333
 30
0.0
 40
0.014048
100
AcDbArc
 50
310.677532
 51
350.879575
  0
ARC
  5
494
330
18
100
AcDbEntity
  8
0
100
AcDbCircle
 10
2.236624
 20
5.387333
 30
0.0
 40
0.014048
100
AcDbArc
 50
350.879575
 51
31.081618
  0
ARC
  5
495
330
18
100
AcDbEntity
  8
0
100
AcDbCircle
 10
2.21492
 20
5.37425
 30
0.0
 40
0.03939
100
AcDbArc
 50
31.081618
 51
54.76917200000001
  0
ARC
  5
496
330
18
100
AcDbEntity
  8
0
100
AcDbCircle
 10
2.197968
 20
5.350245
 30
0.0
 40
0.068778
100
AcDbArc
 50
54.76917200000001
 51
69.40366899999999
  0
ARC
  5
497
330
18
100
AcDbEntity
  8
0
100
AcDbCircle
 10
2.182899
 20
5.310147
 30
0.0
 40
0.111614
100
AcDbArc
 50
69.40366899999999
 51
80.879575
  0
ARC
  5
498
330
18
100
AcDbEntity
  8
0
100
AcDbCircle
 10
2.182899
 20
5.310147
 30
0.0
 40
0.111614
100
AcDbArc
 50
80.879575
 51
92.35547999999999
  0
ARC
  5
499
330
18
100
AcDbEntity
  8
0
100
AcDbCircle
 10
2.181138
 20
5.352947
 30
0.0
 40
0.068778
100
AcDbArc
 50
92.35547999999999
 51
106.989978
  0
ARC
  5
49A
330
18
100
AcDbEntity
  8
0
100
AcDbCircle
 10
2.172551
 20
5.381052
 30
0.0
 40
0.03939
100
AcDbArc
 50
106.989978
 51
130.677532
  0
ARC
  5
49B
330
18
100
AcDbEntity
  8
0
100
AcDbCircle
 10
2.156033
 20
5.400271
 30
0.0
 40
0.014048
100
AcDbArc
 50
130.677532
 51
170.879575
  0
ARC
  5
49C
330
18
100
AcDbEntity
  8
0
100
AcDbCircle
 10
2.505195
 20
5.612311
 30
0.0
 40
0.013768
100
AcDbArc
 50
170.879575
 51
211.081618
  0
ARC
  5
49D
330
18
100
AcDbEntity
  8
0
100
AcDbCircle
 10
2.526464
 20
5.625132
 30
0.0
 40
0.038602
100
AcDbArc
 50
211.081618
 51
234.769172
  0
ARC
  5
49E
330
18
100
AcDbEntity
  8
0
100
AcDbCircle
 10
2.543078
 20
5.648656
 30
0.0
 40
0.067402
100
AcDbArc
 50
234.769172
 51
249.403669
  0
ARC
  5
49F
330
18
100
AcDbEntity
  8
0
100
AcDbCircle
 10
2.557846
 20
5.687953
 30
0.0
 40
0.109382
100
AcDbArc
 50
249.403669
 51
260.879575
  0
ARC
  5
4A0
330
18
100
AcDbEntity
  8
0
100
AcDbCircle
 10
2.557846
 20
5.687953
 30
0.0
 40
0.109382
100
AcDbArc
 50
260.879575
 51
272.35548
  0
ARC
  5
4A1
330
18
100
AcDbEntity
  8
0
100
AcDbCircle
 10
2.559571
 20
5.646008999999999
 30
0.0
 40
0.067402
100
AcDbArc
 50
272.35548
 51
286.989978
  0
ARC
  5
4A2
330
18
100
AcDbEntity
  8
0
100
AcDbCircle
 10
2.567986
 20
5.618466000000001
 30
0.0
 40
0.038602
100
AcDbArc
 50
286.989978
 51
310.677532
  0
ARC
  5
4A3
330
18
100
AcDbEntity
  8
0
100
AcDbCircle
 10
2.584174
 20
5.599631
 30
0.0
 40
0.013768
100
AcDbArc
 50
310.677532
 51
350.879575
  0
ARC
  5
4A4
330
18
100
AcDbEntity
  8
0
100
AcDbCircle
 10
2.584174
 20
5.599631
 30
0.0
 40
0.013768
100
AcDbArc
 50
350.879575
 51
31.081618
  0
ARC
  5
4A5
330
18
100
AcDbEntity
  8
0
100
AcDbCircle
 10
2.562904
 20
5.58681
 30
0.0
 40
0.038602
100
AcDbArc
 50
31.081618
 51
54.76917200000001
  0
ARC
  5
4A6
330
18
100
AcDbEntity
  8
0
100
AcDbCircle
 10
2.546291
 20
5.563285
 30
0.0
 40
0.067402
100
AcDbArc
 50
54.76917200000001
 51
69.40366899999999
  0
ARC
  5
4A7
330
18
100
AcDbEntity
  8
0
100
AcDbCircle
 10
2.531523
 20
5.523989
 30
0.0
 40
0.109382
100
AcDbArc
 50
69.40366899999999
 51
80.879575
  0
ARC
  5
4A8
330
18
100
AcDbEntity
  8
0
100
AcDbCircle
 10
2.531523
 20
5.523989
 30
0.0
 40
0.109382
100
AcDbArc
 50
80.879575
 51
92.35547999999999
  0
ARC
  5
4A9
330
18
100
AcDbEntity
  8
0
100
AcDbCircle
 10
2.529797
 20
5.565933
 30
0.0
 40
0.067402
100
AcDbArc
 50
92.35547999999999
 51
106.989978
  0
ARC
  5
4AA
330
18
100
AcDbEntity
  8
0
100
AcDbCircle
 10
2.521382
 20
5.593476
 30
0.0
 40
0.038602
100
AcDbArc
 50
106.989978
 51
130.677532
  0
ARC
  5
4AB
330
18
100
AcDbEntity
  8
0
100
AcDbCircle
 10
2.505195
 20
5.612311
 30
0.0
 40
0.013768
100
AcDbArc
 50
130.677532
 51
170.879575
  0
ARC
  5
4AC
330
18
100
AcDbEntity
  8
0
100
AcDbCircle
 10
2.505195
 20
5.602469999999999
 30
0.0
 40
0.013768
100
AcDbArc
 50
179.581929
 51
211.081618
  0
ARC
  5
4AD
330
18
100
AcDbEntity
  8
0
100
AcDbCircle
 10
2.526464
 20
5.615292
 30
0.0
 40
0.038602
100
AcDbArc
 50
211.081618
 51
234.769172
  0
ARC
  5
4AE
330
18
100
AcDbEntity
  8
0
100
AcDbCircle
 10
2.543078
 20
5.638816
 30
0.0
 40
0.067402
100
AcDbArc
 50
234.769172
 51
249.403669
  0
ARC
  5
4AF
330
18
100
AcDbEntity
  8
0
100
AcDbCircle
 10
2.557846
 20
5.678113
 30
0.0
 40
0.109382
100
AcDbArc
 50
249.403669
 51
260.879575
  0
ARC
  5
4B0
330
18
100
AcDbEntity
  8
0
100
AcDbCircle
 10
2.557846
 20
5.678113
 30
0.0
 40
0.109382
100
AcDbArc
 50
260.879575
 51
272.35548
  0
ARC
  5
4B1
330
18
100
AcDbEntity
  8
0
100
AcDbCircle
 10
2.559571
 20
5.636168
 30
0.0
 40
0.067402
100
AcDbArc
 50
272.35548
 51
286.989978
  0
ARC
  5
4B2
330
18
100
AcDbEntity
  8
0
100
AcDbCircle
 10
2.567986
 20
5.608626
 30
0.0
 40
0.038602
100
AcDbArc
 50
286.989978
 51
310.677532
  0
ARC
  5
4B3
330
18
100
AcDbEntity
  8
0
100
AcDbCircle
 10
2.584174
 20
5.589791
 30
0.0
 40
0.013768
100
AcDbArc
 50
310.677532
 51
350.879575
  0
ARC
  5
4B4
330
18
100
AcDbEntity
  8
0
100
AcDbCircle
 10
2.584174
 20
5.589791
 30
0.0
 40
0.013768
100
AcDbArc
 50
350.879575
 51
3.561794
  0
LINE
  5
4B5
330
18
100
AcDbEntity
  8
0
100
AcDbLine
 10
7.180532
 20
4.316692
 30
0.0
 11
7.143489
 21
4.278569
 31
0.0
  0
LINE
  5
4B6
330
18
100
AcDbEntity
  8
0
100
AcDbLine
 10
7.143489
 20
4.278569
 30
0.0
 11
7.152506
 21
4.270575
 31
0.0
  0
LINE
  5
4B7
330
18
100
AcDbEntity
  8
0
100
AcDbLine
 10
7.152506
 20
4.270575
 30
0.0
 11
7.187561
 21
4.262629
 31
0.0
  0
LINE
  5
4B8
330
18
100
AcDbEntity
  8
0
100
AcDbLine
 10
7.187561
 20
4.262629
 30
0.0
 11
7.201575999999999
 21
4.281681
 31
0.0
  0
LINE
  5
4B9
330
18
100
AcDbEntity
  8
0
100
AcDbLine
 10
7.201575999999999
 20
4.281681
 30
0.0
 11
7.194559
 21
4.299694000000001
 31
0.0
  0
LINE
  5
4BA
330
18
100
AcDbEntity
  8
0
100
AcDbLine
 10
7.194559
 20
4.299694000000001
 30
0.0
 11
7.180532
 21
4.316692
 31
0.0
  0
LINE
  5
4BB
330
18
100
AcDbEntity
  8
0
100
AcDbLine
 10
5.758514
 20
3.971569
 30
0.0
 11
5.732489
 21
3.929461
 31
0.0
  0
LINE
  5
4BC
330
18
100
AcDbEntity
  8
0
100
AcDbLine
 10
5.732489
 20
3.929461
 30
0.0
 11
5.747516
 21
3.919475
 31
0.0
  0
LINE
  5
4BD
330
18
100
AcDbEntity
  8
0
100
AcDbLine
 10
5.747516
 20
3.919475
 30
0.0
 11
5.777562000000001
 21
3.917528
 31
0.0
  0
LINE
  5
4BE
330
18
100
AcDbEntity
  8
0
100
AcDbLine
 10
5.777562000000001
 20
3.917528
 30
0.0
 11
5.811605999999999
 21
3.936618
 31
0.0
  0
LINE
  5
4BF
330
18
100
AcDbEntity
  8
0
100
AcDbLine
 10
5.811605999999999
 20
3.936618
 30
0.0
 11
5.784555
 21
3.96661
 31
0.0
  0
LINE
  5
4C0
330
18
100
AcDbEntity
  8
0
100
AcDbLine
 10
5.784555
 20
3.96661
 30
0.0
 11
5.758514
 21
3.971569
 31
0.0
  0
LINE
  5
4C1
330
18
100
AcDbEntity
  8
0
100
AcDbLine
 10
5.818556
 20
4.108874
 30
0.0
 11
5.791519999999999
 21
4.094804
 31
0.0
  0
LINE
  5
4C2
330
18
100
AcDbEntity
  8
0
100
AcDbLine
 10
5.791519999999999
 20
4.094804
 30
0.0
 11
5.788524
 21
4.071766
 31
0.0
  0
LINE
  5
4C3
330
18
100
AcDbEntity
  8
0
100
AcDbLine
 10
5.788524
 20
4.071766
 30
0.0
 11
5.796539
 21
4.060765
 31
0.0
  0
LINE
  5
4C4
330
18
100
AcDbEntity
  8
0
100
AcDbLine
 10
5.796539
 20
4.060765
 30
0.0
 11
5.810557
 21
4.070805
 31
0.0
  0
LINE
  5
4C5
330
18
100
AcDbEntity
  8
0
100
AcDbLine
 10
5.810557
 20
4.070805
 30
0.0
 11
5.818567
 21
4.077830000000001
 31
0.0
  0
LINE
  5
4C6
330
18
100
AcDbEntity
  8
0
100
AcDbLine
 10
5.818567
 20
4.077830000000001
 30
0.0
 11
5.820564
 21
4.094858
 31
0.0
  0
LINE
  5
4C7
330
18
100
AcDbEntity
  8
0
100
AcDbLine
 10
5.820564
 20
4.094858
 30
0.0
 11
5.818556
 21
4.108874
 31
0.0
  0
LINE
  5
4C8
330
18
100
AcDbEntity
  8
0
100
AcDbLine
 10
7.417362
 20
4.223583000000001
 30
0.0
 11
7.337811
 21
4.196814
 31
0.0
  0
LINE
  5
4C9
330
18
100
AcDbEntity
  8
0
100
AcDbLine
 10
7.337811
 20
4.196814
 30
0.0
 11
7.268711
 21
4.184669
 31
0.0
  0
LINE
  5
4CA
330
18
100
AcDbEntity
  8
0
100
AcDbLine
 10
7.268711
 20
4.184669
 30
0.0
 11
7.243677000000001
 21
4.174608
 31
0.0
  0
LINE
  5
4CB
330
18
100
AcDbEntity
  8
0
100
AcDbLine
 10
7.243677000000001
 20
4.174608
 30
0.0
 11
7.227674
 21
4.115495
 31
0.0
  0
LINE
  5
4CC
330
18
100
AcDbEntity
  8
0
100
AcDbLine
 10
7.227674
 20
4.115495
 30
0.0
 11
7.232703
 21
4.053417
 31
0.0
  0
LINE
  5
4CD
330
18
100
AcDbEntity
  8
0
100
AcDbLine
 10
7.232703
 20
4.053417
 30
0.0
 11
7.258876
 21
4.00258
 31
0.0
  0
LINE
  5
4CE
330
18
100
AcDbEntity
  8
0
100
AcDbLine
 10
7.426288
 20
6.619600999999999
 30
0.0
 11
7.447123
 21
6.609225
 31
0.0
  0
LINE
  5
4CF
330
18
100
AcDbEntity
  8
0
100
AcDbLine
 10
7.447123
 20
6.609225
 30
0.0
 11
7.443925999999999
 21
6.587588
 31
0.0
  0
LINE
  5
4D0
330
18
100
AcDbEntity
  8
0
100
AcDbLine
 10
7.443925999999999
 20
6.587588
 30
0.0
 11
7.431908999999999
 21
6.582758999999999
 31
0.0
  0
LINE
  5
4D1
330
18
100
AcDbEntity
  8
0
100
AcDbLine
 10
7.431908999999999
 20
6.582758999999999
 30
0.0
 11
7.41188
 21
6.581921
 31
0.0
  0
LINE
  5
4D2
330
18
100
AcDbEntity
  8
0
100
AcDbLine
 10
7.41188
 20
6.581921
 30
0.0
 11
7.411871000000001
 21
6.605955000000001
 31
0.0
  0
LINE
  5
4D3
330
18
100
AcDbEntity
  8
0
100
AcDbLine
 10
7.411871000000001
 20
6.605955000000001
 30
0.0
 11
7.419078
 21
6.617184
 31
0.0
  0
LINE
  5
4D4
330
18
100
AcDbEntity
  8
0
100
AcDbLine
 10
7.419078
 20
6.617184
 30
0.0
 11
7.426288
 21
6.619600999999999
 31
0.0
  0
LINE
  5
4D5
330
18
100
AcDbEntity
  8
0
100
AcDbLine
 10
7.177578
 20
7.003482000000001
 30
0.0
 11
7.151553
 21
6.963377
 31
0.0
  0
LINE
  5
4D6
330
18
100
AcDbEntity
  8
0
100
AcDbLine
 10
7.151553
 20
6.963377
 30
0.0
 11
7.156567999999999
 21
6.943358
 31
0.0
  0
LINE
  5
4D7
330
18
100
AcDbEntity
  8
0
100
AcDbLine
 10
7.156567999999999
 20
6.943358
 30
0.0
 11
7.188615
 21
6.945421000000001
 31
0.0
  0
LINE
  5
4D8
330
18
100
AcDbEntity
  8
0
100
AcDbLine
 10
7.188615
 20
6.945421000000001
 30
0.0
 11
7.219653
 21
6.969512
 31
0.0
  0
LINE
  5
4D9
330
18
100
AcDbEntity
  8
0
100
AcDbLine
 10
7.219653
 20
6.969512
 30
0.0
 11
7.232667
 21
6.985558999999999
 31
0.0
  0
LINE
  5
4DA
330
18
100
AcDbEntity
  8
0
100
AcDbLine
 10
7.232667
 20
6.985558999999999
 30
0.0
 11
7.224649
 21
7.001567
 31
0.0
  0
LINE
  5
4DB
330
18
100
AcDbEntity
  8
0
100
AcDbLine
 10
7.224649
 20
7.001567
 30
0.0
 11
7.194601
 21
7.010524
 31
0.0
  0
LINE
  5
4DC
330
18
100
AcDbEntity
  8
0
100
AcDbLine
 10
7.194601
 20
7.010524
 30
0.0
 11
7.177578
 21
7.003482000000001
 31
0.0
  0
LINE
  5
4DD
330
18
100
AcDbEntity
  8
0
100
AcDbLine
 10
7.284695
 20
7.129859
 30
0.0
 11
7.257667
 21
7.092757000000001
 31
0.0
  0
LINE
  5
4DE
330
18
100
AcDbEntity
  8
0
100
AcDbLine
 10
7.257667
 20
7.092757000000001
 30
0.0
 11
7.25868
 21
7.060713000000001
 31
0.0
  0
LINE
  5
4DF
330
18
100
AcDbEntity
  8
0
100
AcDbLine
 10
7.25868
 20
7.060713000000001
 30
0.0
 11
7.269705999999999
 21
7.032694
 31
0.0
  0
LINE
  5
4E0
330
18
100
AcDbEntity
  8
0
100
AcDbLine
 10
7.269705999999999
 20
7.032694
 30
0.0
 11
7.299751
 21
7.033752000000001
 31
0.0
  0
LINE
  5
4E1
330
18
100
AcDbEntity
  8
0
100
AcDbLine
 10
7.299751
 20
7.033752000000001
 30
0.0
 11
7.332798
 21
7.041824
 31
0.0
  0
LINE
  5
4E2
330
18
100
AcDbEntity
  8
0
100
AcDbLine
 10
7.332798
 20
7.041824
 30
0.0
 11
7.327778
 21
7.077866
 31
0.0
  0
LINE
  5
4E3
330
18
100
AcDbEntity
  8
0
100
AcDbLine
 10
7.327778
 20
7.077866
 30
0.0
 11
7.310743
 21
7.102869999999999
 31
0.0
  0
LINE
  5
4E4
330
18
100
AcDbEntity
  8
0
100
AcDbLine
 10
7.310743
 20
7.102869999999999
 30
0.0
 11
7.284695
 21
7.129859
 31
0.0
  0
LINE
  5
4E5
330
18
100
AcDbEntity
  8
0
100
AcDbLine
 10
7.164277
 20
7.799582000000001
 30
0.0
 11
7.148269
 21
7.753488000000001
 31
0.0
  0
LINE
  5
4E6
330
18
100
AcDbEntity
  8
0
100
AcDbLine
 10
7.148269
 20
7.753488000000001
 30
0.0
 11
7.161301
 21
7.717461
 31
0.0
  0
LINE
  5
4E7
330
18
100
AcDbEntity
  8
0
100
AcDbLine
 10
7.161301
 20
7.717461
 30
0.0
 11
7.189349000000001
 21
7.700489
 31
0.0
  0
LINE
  5
4E8
330
18
100
AcDbEntity
  8
0
100
AcDbLine
 10
7.189349000000001
 20
7.700489
 30
0.0
 11
7.2244
 21
7.705561
 31
0.0
  0
LINE
  5
4E9
330
18
100
AcDbEntity
  8
0
100
AcDbLine
 10
7.2244
 20
7.705561
 30
0.0
 11
7.242421
 21
7.724621000000001
 31
0.0
  0
LINE
  5
4EA
330
18
100
AcDbEntity
  8
0
100
AcDbLine
 10
7.242421
 20
7.724621000000001
 30
0.0
 11
7.252422999999999
 21
7.761692
 31
0.0
  0
LINE
  5
4EB
330
18
100
AcDbEntity
  8
0
100
AcDbLine
 10
7.252422999999999
 20
7.761692
 30
0.0
 11
7.246403
 21
7.792725
 31
0.0
  0
LINE
  5
4EC
330
18
100
AcDbEntity
  8
0
100
AcDbLine
 10
7.246403
 20
7.792725
 30
0.0
 11
7.220357000000001
 21
7.811703
 31
0.0
  0
LINE
  5
4ED
330
18
100
AcDbEntity
  8
0
100
AcDbLine
 10
7.220357000000001
 20
7.811703
 30
0.0
 11
7.197321000000001
 21
7.813664
 31
0.0
  0
LINE
  5
4EE
330
18
100
AcDbEntity
  8
0
100
AcDbLine
 10
7.197321000000001
 20
7.813664
 30
0.0
 11
7.164277
 21
7.799582000000001
 31
0.0
  0
LINE
  5
4EF
330
18
100
AcDbEntity
  8
0
100
AcDbLine
 10
7.364592999999999
 20
7.756892999999999
 30
0.0
 11
7.393653
 21
7.710882000000001
 31
0.0
  0
LINE
  5
4F0
330
18
100
AcDbEntity
  8
0
100
AcDbLine
 10
7.393653
 20
7.710882000000001
 30
0.0
 11
7.365613000000001
 21
7.703819999999999
 31
0.0
  0
LINE
  5
4F1
330
18
100
AcDbEntity
  8
0
100
AcDbLine
 10
7.365613000000001
 20
7.703819999999999
 30
0.0
 11
7.353592
 21
7.714814
 31
0.0
  0
LINE
  5
4F2
330
18
100
AcDbEntity
  8
0
100
AcDbLine
 10
7.353592
 20
7.714814
 30
0.0
 11
7.364592999999999
 21
7.756892999999999
 31
0.0
  0
LINE
  5
4F3
330
18
100
AcDbEntity
  8
0
100
AcDbLine
 10
7.4878
 20
7.697037
 30
0.0
 11
7.46077
 21
7.665943
 31
0.0
  0
LINE
  5
4F4
330
18
100
AcDbEntity
  8
0
100
AcDbLine
 10
7.46077
 20
7.665943
 30
0.0
 11
7.462778999999999
 21
7.648923
 31
0.0
  0
LINE
  5
4F5
330
18
100
AcDbEntity
  8
0
100
AcDbLine
 10
7.462778999999999
 20
7.648923
 30
0.0
 11
7.4708
 21
7.624903999999999
 31
0.0
  0
LINE
  5
4F6
330
18
100
AcDbEntity
  8
0
100
AcDbLine
 10
7.4708
 20
7.624903999999999
 30
0.0
 11
7.494833
 21
7.633961
 31
0.0
  0
LINE
  5
4F7
330
18
100
AcDbEntity
  8
0
100
AcDbLine
 10
7.494833
 20
7.633961
 30
0.0
 11
7.504842999999999
 21
7.647999
 31
0.0
  0
LINE
  5
4F8
330
18
100
AcDbEntity
  8
0
100
AcDbLine
 10
7.504842999999999
 20
7.647999
 30
0.0
 11
7.507839
 21
7.672039
 31
0.0
  0
LINE
  5
4F9
330
18
100
AcDbEntity
  8
0
100
AcDbLine
 10
7.507839
 20
7.672039
 30
0.0
 11
7.501825999999999
 21
7.683043
 31
0.0
  0
LINE
  5
4FA
330
18
100
AcDbEntity
  8
0
100
AcDbLine
 10
7.501825999999999
 20
7.683043
 30
0.0
 11
7.494814999999999
 21
7.683030000000001
 31
0.0
  0
LINE
  5
4FB
330
18
100
AcDbEntity
  8
0
100
AcDbLine
 10
7.494814999999999
 20
7.683030000000001
 30
0.0
 11
7.4878
 21
7.697037
 31
0.0
  0
LINE
  5
4FC
330
18
100
AcDbEntity
  8
0
100
AcDbLine
 10
7.526116
 20
7.530072000000001
 30
0.0
 11
7.546950999999999
 21
7.519696000000001
 31
0.0
  0
LINE
  5
4FD
330
18
100
AcDbEntity
  8
0
100
AcDbLine
 10
7.546950999999999
 20
7.519696000000001
 30
0.0
 11
7.543753999999999
 21
7.498060000000001
 31
0.0
  0
LINE
  5
4FE
330
18
100
AcDbEntity
  8
0
100
AcDbLine
 10
7.543753999999999
 20
7.498060000000001
 30
0.0
 11
7.531738000000001
 21
7.493231
 31
0.0
  0
LINE
  5
4FF
330
18
100
AcDbEntity
  8
0
100
AcDbLine
 10
7.531738000000001
 20
7.493231
 30
0.0
 11
7.511708000000001
 21
7.492392
 31
0.0
  0
LINE
  5
500
330
18
100
AcDbEntity
  8
0
100
AcDbLine
 10
7.511708000000001
 20
7.492392
 30
0.0
 11
7.5117
 21
7.516425999999999
 31
0.0
  0
LINE
  5
501
330
18
100
AcDbEntity
  8
0
100
AcDbLine
 10
7.5117
 20
7.516425999999999
 30
0.0
 11
7.518905999999999
 21
7.527656
 31
0.0
  0
LINE
  5
502
330
18
100
AcDbEntity
  8
0
100
AcDbLine
 10
7.518905999999999
 20
7.527656
 30
0.0
 11
7.526116
 21
7.530072000000001
 31
0.0
  0
LINE
  5
503
330
18
100
AcDbEntity
  8
0
100
AcDbLine
 10
6.786803999999999
 20
7.5285
 30
0.0
 11
6.759763
 21
7.531453999999999
 31
0.0
  0
LINE
  5
504
330
18
100
AcDbEntity
  8
0
100
AcDbLine
 10
6.759763
 20
7.531453999999999
 30
0.0
 11
6.713698
 21
7.517349
 31
0.0
  0
LINE
  5
505
330
18
100
AcDbEntity
  8
0
100
AcDbLine
 10
6.713698
 20
7.517349
 30
0.0
 11
6.688667
 21
7.499277
 31
0.0
  0
LINE
  5
506
330
18
100
AcDbEntity
  8
0
100
AcDbLine
 10
6.688667
 20
7.499277
 30
0.0
 11
6.675656
 21
7.474216999999999
 31
0.0
  0
LINE
  5
507
330
18
100
AcDbEntity
  8
0
100
AcDbLine
 10
6.675656
 20
7.474216999999999
 30
0.0
 11
6.685680000000001
 21
7.4492
 31
0.0
  0
LINE
  5
508
330
18
100
AcDbEntity
  8
0
100
AcDbLine
 10
6.685680000000001
 20
7.4492
 30
0.0
 11
6.727752000000001
 21
7.424243
 31
0.0
  0
LINE
  5
509
330
18
100
AcDbEntity
  8
0
100
AcDbLine
 10
6.727752000000001
 20
7.424243
 30
0.0
 11
6.764805
 21
7.434326
 31
0.0
  0
LINE
  5
50A
330
18
100
AcDbEntity
  8
0
100
AcDbLine
 10
6.764805
 20
7.434326
 30
0.0
 11
6.78382
 21
7.471414
 31
0.0
  0
LINE
  5
50B
330
18
100
AcDbEntity
  8
0
100
AcDbLine
 10
6.78382
 20
7.471414
 30
0.0
 11
6.784814
 21
7.492445
 31
0.0
  0
LINE
  5
50C
330
18
100
AcDbEntity
  8
0
100
AcDbLine
 10
6.784814
 20
7.492445
 30
0.0
 11
6.786803999999999
 21
7.5285
 31
0.0
  0
LINE
  5
50D
330
18
100
AcDbEntity
  8
0
100
AcDbLine
 10
6.601641000000001
 20
7.202696
 30
0.0
 11
6.554579
 21
7.178575
 31
0.0
  0
LINE
  5
50E
330
18
100
AcDbEntity
  8
0
100
AcDbLine
 10
6.554579
 20
7.178575
 30
0.0
 11
6.545574
 21
7.154524
 31
0.0
  0
LINE
  5
50F
330
18
100
AcDbEntity
  8
0
100
AcDbLine
 10
6.545574
 20
7.154524
 30
0.0
 11
6.560604
 21
7.132521000000001
 31
0.0
  0
LINE
  5
510
330
18
100
AcDbEntity
  8
0
100
AcDbLine
 10
6.560604
 20
7.132521000000001
 30
0.0
 11
6.585642
 21
7.130565
 31
0.0
  0
LINE
  5
511
330
18
100
AcDbEntity
  8
0
100
AcDbLine
 10
6.585642
 20
7.130565
 30
0.0
 11
6.601660000000001
 21
7.147619000000001
 31
0.0
  0
LINE
  5
512
330
18
100
AcDbEntity
  8
0
100
AcDbLine
 10
6.601660000000001
 20
7.147619000000001
 30
0.0
 11
6.607666
 21
7.156642
 31
0.0
  0
LINE
  5
513
330
18
100
AcDbEntity
  8
0
100
AcDbLine
 10
6.607666
 20
7.156642
 30
0.0
 11
6.604657
 21
7.168653999999999
 31
0.0
  0
LINE
  5
514
330
18
100
AcDbEntity
  8
0
100
AcDbLine
 10
6.604657
 20
7.168653999999999
 30
0.0
 11
6.601641000000001
 21
7.202696
 31
0.0
  0
LINE
  5
515
330
18
100
AcDbEntity
  8
0
100
AcDbLine
 10
6.488663
 20
7.082217
 30
0.0
 11
6.50429
 21
7.074435
 31
0.0
  0
LINE
  5
516
330
18
100
AcDbEntity
  8
0
100
AcDbLine
 10
6.50429
 20
7.074435
 30
0.0
 11
6.501892
 21
7.058207
 31
0.0
  0
LINE
  5
517
330
18
100
AcDbEntity
  8
0
100
AcDbLine
 10
6.501892
 20
7.058207
 30
0.0
 11
6.49288
 21
7.054585
 31
0.0
  0
LINE
  5
518
330
18
100
AcDbEntity
  8
0
100
AcDbLine
 10
6.49288
 20
7.054585
 30
0.0
 11
6.477857
 21
7.053957000000001
 31
0.0
  0
LINE
  5
519
330
18
100
AcDbEntity
  8
0
100
AcDbLine
 10
6.477857
 20
7.053957000000001
 30
0.0
 11
6.477851
 21
7.071982000000001
 31
0.0
  0
LINE
  5
51A
330
18
100
AcDbEntity
  8
0
100
AcDbLine
 10
6.477851
 20
7.071982000000001
 30
0.0
 11
6.483256
 21
7.080404
 31
0.0
  0
LINE
  5
51B
330
18
100
AcDbEntity
  8
0
100
AcDbLine
 10
6.483256
 20
7.080404
 30
0.0
 11
6.488663
 21
7.082217
 31
0.0
  0
LINE
  5
51C
330
18
100
AcDbEntity
  8
0
100
AcDbLine
 10
6.6382
 20
7.248148
 30
0.0
 11
6.650701
 21
7.241923
 31
0.0
  0
LINE
  5
51D
330
18
100
AcDbEntity
  8
0
100
AcDbLine
 10
6.650701
 20
7.241923
 30
0.0
 11
6.648783
 21
7.228941000000001
 31
0.0
  0
LINE
  5
51E
330
18
100
AcDbEntity
  8
0
100
AcDbLine
 10
6.648783
 20
7.228941000000001
 30
0.0
 11
6.641572999999999
 21
7.226042999999999
 31
0.0
  0
LINE
  5
51F
330
18
100
AcDbEntity
  8
0
100
AcDbLine
 10
6.641572999999999
 20
7.226042999999999
 30
0.0
 11
6.629555
 21
7.22554
 31
0.0
  0
LINE
  5
520
330
18
100
AcDbEntity
  8
0
100
AcDbLine
 10
6.629555
 20
7.22554
 30
0.0
 11
6.62955
 21
7.239961
 31
0.0
  0
LINE
  5
521
330
18
100
AcDbEntity
  8
0
100
AcDbLine
 10
6.62955
 20
7.239961
 30
0.0
 11
6.633874000000001
 21
7.246697999999999
 31
0.0
  0
LINE
  5
522
330
18
100
AcDbEntity
  8
0
100
AcDbLine
 10
6.633874000000001
 20
7.246697999999999
 30
0.0
 11
6.6382
 21
7.248148
 31
0.0
  0
LINE
  5
523
330
18
100
AcDbEntity
  8
0
100
AcDbLine
 10
6.348229
 20
4.458349
 30
0.0
 11
6.33221
 21
4.445301000000001
 31
0.0
  0
LINE
  5
524
330
18
100
AcDbEntity
  8
0
100
AcDbLine
 10
6.33221
 20
4.445301000000001
 30
0.0
 11
6.327207
 21
4.430271
 31
0.0
  0
LINE
  5
525
330
18
100
AcDbEntity
  8
0
100
AcDbLine
 10
6.327207
 20
4.430271
 30
0.0
 11
6.33522
 21
4.428283
 31
0.0
  0
LINE
  5
526
330
18
100
AcDbEntity
  8
0
100
AcDbLine
 10
6.33522
 20
4.428283
 30
0.0
 11
6.349238
 21
4.438323000000001
 31
0.0
  0
LINE
  5
527
330
18
100
AcDbEntity
  8
0
100
AcDbLine
 10
6.349238
 20
4.438323000000001
 30
0.0
 11
6.35224
 21
4.444337
 31
0.0
  0
LINE
  5
528
330
18
100
AcDbEntity
  8
0
100
AcDbLine
 10
6.35224
 20
4.444337
 30
0.0
 11
6.348232
 21
4.450338
 31
0.0
  0
LINE
  5
529
330
18
100
AcDbEntity
  8
0
100
AcDbLine
 10
6.348232
 20
4.450338
 30
0.0
 11
6.348229
 21
4.458349
 31
0.0
  0
LINE
  5
52A
330
18
100
AcDbEntity
  8
0
100
AcDbLine
 10
6.456352
 20
4.570709
 30
0.0
 11
6.429312
 21
4.568656
 31
0.0
  0
LINE
  5
52B
330
18
100
AcDbEntity
  8
0
100
AcDbLine
 10
6.429312
 20
4.568656
 30
0.0
 11
6.405284
 21
4.545578
 31
0.0
  0
LINE
  5
52C
330
18
100
AcDbEntity
  8
0
100
AcDbLine
 10
6.405284
 20
4.545578
 30
0.0
 11
6.406292
 21
4.528556
 31
0.0
  0
LINE
  5
52D
330
18
100
AcDbEntity
  8
0
100
AcDbLine
 10
6.406292
 20
4.528556
 30
0.0
 11
6.414306
 21
4.522563
 31
0.0
  0
LINE
  5
52E
330
18
100
AcDbEntity
  8
0
100
AcDbLine
 10
6.414306
 20
4.522563
 30
0.0
 11
6.44135
 21
4.5136
 31
0.0
  0
LINE
  5
52F
330
18
100
AcDbEntity
  8
0
100
AcDbLine
 10
6.44135
 20
4.5136
 30
0.0
 11
6.461379
 21
4.516642
 31
0.0
  0
LINE
  5
530
330
18
100
AcDbEntity
  8
0
100
AcDbLine
 10
6.461379
 20
4.516642
 30
0.0
 11
6.486413
 21
4.525701000000001
 31
0.0
  0
LINE
  5
531
330
18
100
AcDbEntity
  8
0
100
AcDbLine
 10
6.486413
 20
4.525701000000001
 30
0.0
 11
6.492419
 21
4.534725
 31
0.0
  0
LINE
  5
532
330
18
100
AcDbEntity
  8
0
100
AcDbLine
 10
6.492419
 20
4.534725
 30
0.0
 11
6.492412
 21
4.554753
 31
0.0
  0
LINE
  5
533
330
18
100
AcDbEntity
  8
0
100
AcDbLine
 10
6.492412
 20
4.554753
 30
0.0
 11
6.481393
 21
4.562744
 31
0.0
  0
LINE
  5
534
330
18
100
AcDbEntity
  8
0
100
AcDbLine
 10
6.481393
 20
4.562744
 30
0.0
 11
6.456352
 21
4.570709
 31
0.0
  0
LINE
  5
535
330
18
100
AcDbEntity
  8
0
100
AcDbLine
 10
6.580411
 20
4.93245
 30
0.0
 11
6.566398
 21
4.909391
 31
0.0
  0
LINE
  5
536
330
18
100
AcDbEntity
  8
0
100
AcDbLine
 10
6.566398
 20
4.909391
 30
0.0
 11
6.572415
 21
4.888372
 31
0.0
  0
LINE
  5
537
330
18
100
AcDbEntity
  8
0
100
AcDbLine
 10
6.572415
 20
4.888372
 30
0.0
 11
6.587443
 21
4.872378
 31
0.0
  0
LINE
  5
538
330
18
100
AcDbEntity
  8
0
100
AcDbLine
 10
6.587443
 20
4.872378
 30
0.0
 11
6.611478999999999
 21
4.873424
 31
0.0
  0
LINE
  5
539
330
18
100
AcDbEntity
  8
0
100
AcDbLine
 10
6.611478999999999
 20
4.873424
 30
0.0
 11
6.628503
 21
4.877461
 31
0.0
  0
LINE
  5
53A
330
18
100
AcDbEntity
  8
0
100
AcDbLine
 10
6.628503
 20
4.877461
 30
0.0
 11
6.635508
 21
4.893497
 31
0.0
  0
LINE
  5
53B
330
18
100
AcDbEntity
  8
0
100
AcDbLine
 10
6.635508
 20
4.893497
 30
0.0
 11
6.629492999999999
 21
4.91051
 31
0.0
  0
LINE
  5
53C
330
18
100
AcDbEntity
  8
0
100
AcDbLine
 10
6.629492999999999
 20
4.91051
 30
0.0
 11
6.617469
 21
4.925508
 31
0.0
  0
LINE
  5
53D
330
18
100
AcDbEntity
  8
0
100
AcDbLine
 10
6.617469
 20
4.925508
 30
0.0
 11
6.613459
 21
4.936517
 31
0.0
  0
LINE
  5
53E
330
18
100
AcDbEntity
  8
0
100
AcDbLine
 10
6.613459
 20
4.936517
 30
0.0
 11
6.580411
 21
4.93245
 31
0.0
  0
LINE
  5
53F
330
18
100
AcDbEntity
  8
0
100
AcDbLine
 10
6.572496000000001
 20
4.657046
 30
0.0
 11
6.561489999999999
 21
4.628986
 31
0.0
  0
LINE
  5
540
330
18
100
AcDbEntity
  8
0
100
AcDbLine
 10
6.561489999999999
 20
4.628986
 30
0.0
 11
6.597550999999999
 21
4.608023
 31
0.0
  0
LINE
  5
541
330
18
100
AcDbEntity
  8
0
100
AcDbLine
 10
6.597550999999999
 20
4.608023
 30
0.0
 11
6.597541000000001
 21
4.637064
 31
0.0
  0
LINE
  5
542
330
18
100
AcDbEntity
  8
0
100
AcDbLine
 10
6.597541000000001
 20
4.637064
 30
0.0
 11
6.572496000000001
 21
4.657046
 31
0.0
  0
LINE
  5
543
330
18
100
AcDbEntity
  8
0
100
AcDbLine
 10
6.715641000000001
 20
4.856593
 30
0.0
 11
6.725656
 21
4.856612
 31
0.0
  0
LINE
  5
544
330
18
100
AcDbEntity
  8
0
100
AcDbLine
 10
6.725656
 20
4.856612
 30
0.0
 11
6.727666
 21
4.837587999999999
 31
0.0
  0
LINE
  5
545
330
18
100
AcDbEntity
  8
0
100
AcDbLine
 10
6.727666
 20
4.837587999999999
 30
0.0
 11
6.714649000000001
 21
4.829553
 31
0.0
  0
LINE
  5
546
330
18
100
AcDbEntity
  8
0
100
AcDbLine
 10
6.714649000000001
 20
4.829553
 30
0.0
 11
6.698624000000001
 21
4.833529
 31
0.0
  0
LINE
  5
547
330
18
100
AcDbEntity
  8
0
100
AcDbLine
 10
6.698624000000001
 20
4.833529
 30
0.0
 11
6.695617
 21
4.839532
 31
0.0
  0
LINE
  5
548
330
18
100
AcDbEntity
  8
0
100
AcDbLine
 10
6.345196
 20
4.539458
 30
0.0
 11
6.35521
 21
4.543483
 31
0.0
  0
LINE
  5
549
330
18
100
AcDbEntity
  8
0
100
AcDbLine
 10
6.35521
 20
4.543483
 30
0.0
 11
6.360215
 21
4.550502
 31
0.0
  0
LINE
  5
54A
330
18
100
AcDbEntity
  8
0
100
AcDbLine
 10
6.360215
 20
4.550502
 30
0.0
 11
6.361212999999999
 21
4.560518
 31
0.0
  0
LINE
  5
54B
330
18
100
AcDbEntity
  8
0
100
AcDbLine
 10
6.361212999999999
 20
4.560518
 30
0.0
 11
6.358204
 21
4.573531
 31
0.0
  0
LINE
  5
54C
330
18
100
AcDbEntity
  8
0
100
AcDbLine
 10
7.174482000000001
 20
4.432845
 30
0.0
 11
7.218553999999999
 21
4.414901
 31
0.0
  0
LINE
  5
54D
330
18
100
AcDbEntity
  8
0
100
AcDbLine
 10
7.218553999999999
 20
4.414901
 30
0.0
 11
7.237582000000001
 21
4.417941000000001
 31
0.0
  0
LINE
  5
54E
330
18
100
AcDbEntity
  8
0
100
AcDbLine
 10
7.237582000000001
 20
4.417941000000001
 30
0.0
 11
7.252597
 21
4.437997
 31
0.0
  0
LINE
  5
54F
330
18
100
AcDbEntity
  8
0
100
AcDbLine
 10
7.252597
 20
4.437997
 30
0.0
 11
7.248582000000001
 21
4.463025
 31
0.0
  0
LINE
  5
550
330
18
100
AcDbEntity
  8
0
100
AcDbLine
 10
7.248582000000001
 20
4.463025
 30
0.0
 11
7.220528
 21
4.498022
 31
0.0
  0
LINE
  5
551
330
18
100
AcDbEntity
  8
0
100
AcDbLine
 10
7.220528
 20
4.498022
 30
0.0
 11
7.202495
 21
4.515013
 31
0.0
  0
LINE
  5
552
330
18
100
AcDbEntity
  8
0
100
AcDbLine
 10
7.202495
 20
4.515013
 30
0.0
 11
7.173452
 21
4.510953
 31
0.0
  0
LINE
  5
553
330
18
100
AcDbEntity
  8
0
100
AcDbLine
 10
7.173452
 20
4.510953
 30
0.0
 11
7.155432000000001
 21
4.491893
 31
0.0
  0
LINE
  5
554
330
18
100
AcDbEntity
  8
0
100
AcDbLine
 10
7.155432000000001
 20
4.491893
 30
0.0
 11
7.150432
 21
4.471855000000001
 31
0.0
  0
LINE
  5
555
330
18
100
AcDbEntity
  8
0
100
AcDbLine
 10
7.150432
 20
4.471855000000001
 30
0.0
 11
7.174482000000001
 21
4.432845
 31
0.0
  0
LINE
  5
556
330
18
100
AcDbEntity
  8
0
100
AcDbLine
 10
7.551837
 20
5.033393
 30
0.0
 11
7.528801
 21
5.037356
 31
0.0
  0
LINE
  5
557
330
18
100
AcDbEntity
  8
0
100
AcDbLine
 10
7.528801
 20
5.037356
 30
0.0
 11
7.503767999999999
 21
5.024291000000001
 31
0.0
  0
LINE
  5
558
330
18
100
AcDbEntity
  8
0
100
AcDbLine
 10
7.503767999999999
 20
5.024291000000001
 30
0.0
 11
7.505775
 21
5.01428
 31
0.0
  0
LINE
  5
559
330
18
100
AcDbEntity
  8
0
100
AcDbLine
 10
7.505775
 20
5.01428
 30
0.0
 11
7.521800999999999
 21
5.008302
 31
0.0
  0
LINE
  5
55A
330
18
100
AcDbEntity
  8
0
100
AcDbLine
 10
7.521800999999999
 20
5.008302
 30
0.0
 11
7.538825999999999
 21
5.010336
 31
0.0
  0
LINE
  5
55B
330
18
100
AcDbEntity
  8
0
100
AcDbLine
 10
7.538825999999999
 20
5.010336
 30
0.0
 11
7.546834
 21
5.021366
 31
0.0
  0
LINE
  5
55C
330
18
100
AcDbEntity
  8
0
100
AcDbLine
 10
7.546834
 20
5.021366
 30
0.0
 11
7.551837
 21
5.033393
 31
0.0
  0
LINE
  5
55D
330
18
100
AcDbEntity
  8
0
100
AcDbLine
 10
7.216239
 20
5.297143
 30
0.0
 11
7.177181
 21
5.295068
 31
0.0
  0
LINE
  5
55E
330
18
100
AcDbEntity
  8
0
100
AcDbLine
 10
7.177181
 20
5.295068
 30
0.0
 11
7.172181
 21
5.27503
 31
0.0
  0
LINE
  5
55F
330
18
100
AcDbEntity
  8
0
100
AcDbLine
 10
7.172181
 20
5.27503
 30
0.0
 11
7.179196000000001
 21
5.262025
 31
0.0
  0
LINE
  5
560
330
18
100
AcDbEntity
  8
0
100
AcDbLine
 10
7.179196000000001
 20
5.262025
 30
0.0
 11
7.200231
 21
5.25205
 31
0.0
  0
LINE
  5
561
330
18
100
AcDbEntity
  8
0
100
AcDbLine
 10
7.200231
 20
5.25205
 30
0.0
 11
7.211244000000001
 21
5.261083
 31
0.0
  0
LINE
  5
562
330
18
100
AcDbEntity
  8
0
100
AcDbLine
 10
7.211244000000001
 20
5.261083
 30
0.0
 11
7.220254
 21
5.272115
 31
0.0
  0
LINE
  5
563
330
18
100
AcDbEntity
  8
0
100
AcDbLine
 10
7.220254
 20
5.272115
 30
0.0
 11
7.217246
 21
5.281123
 31
0.0
  0
LINE
  5
564
330
18
100
AcDbEntity
  8
0
100
AcDbLine
 10
7.096030000000001
 20
5.376032
 30
0.0
 11
7.082013000000001
 21
5.36499
 31
0.0
  0
LINE
  5
565
330
18
100
AcDbEntity
  8
0
100
AcDbLine
 10
7.082013000000001
 20
5.36499
 30
0.0
 11
7.075009
 21
5.347953
 31
0.0
  0
LINE
  5
566
330
18
100
AcDbEntity
  8
0
100
AcDbLine
 10
7.075009
 20
5.347953
 30
0.0
 11
7.076014999999999
 21
5.333934999999999
 31
0.0
  0
LINE
  5
567
330
18
100
AcDbEntity
  8
0
100
AcDbLine
 10
7.076014999999999
 20
5.333934999999999
 30
0.0
 11
7.087033
 21
5.330952
 31
0.0
  0
LINE
  5
568
330
18
100
AcDbEntity
  8
0
100
AcDbLine
 10
7.087033
 20
5.330952
 30
0.0
 11
7.107060000000001
 21
5.340001
 31
0.0
  0
LINE
  5
569
330
18
100
AcDbEntity
  8
0
100
AcDbLine
 10
7.107060000000001
 20
5.340001
 30
0.0
 11
7.116067999999999
 21
5.354038
 31
0.0
  0
LINE
  5
56A
330
18
100
AcDbEntity
  8
0
100
AcDbLine
 10
7.116067999999999
 20
5.354038
 30
0.0
 11
7.109054
 21
5.364039
 31
0.0
  0
LINE
  5
56B
330
18
100
AcDbEntity
  8
0
100
AcDbLine
 10
7.282196000000001
 20
5.698833000000001
 30
0.0
 11
7.262172000000001
 21
5.683775
 31
0.0
  0
LINE
  5
56C
330
18
100
AcDbEntity
  8
0
100
AcDbLine
 10
7.262172000000001
 20
5.683775
 30
0.0
 11
7.256169
 21
5.664737000000001
 31
0.0
  0
LINE
  5
56D
330
18
100
AcDbEntity
  8
0
100
AcDbLine
 10
7.256169
 20
5.664737000000001
 30
0.0
 11
7.253172999999999
 21
5.6427
 31
0.0
  0
LINE
  5
56E
330
18
100
AcDbEntity
  8
0
100
AcDbLine
 10
7.253172999999999
 20
5.6427
 30
0.0
 11
7.262191000000001
 21
5.629698
 31
0.0
  0
LINE
  5
56F
330
18
100
AcDbEntity
  8
0
100
AcDbLine
 10
7.262191000000001
 20
5.629698
 30
0.0
 11
7.281222000000001
 21
5.622724
 31
0.0
  0
LINE
  5
570
330
18
100
AcDbEntity
  8
0
100
AcDbLine
 10
7.281222000000001
 20
5.622724
 30
0.0
 11
7.308256
 21
5.640799
 31
0.0
  0
LINE
  5
571
330
18
100
AcDbEntity
  8
0
100
AcDbLine
 10
7.308256
 20
5.640799
 30
0.0
 11
7.322267999999999
 21
5.665861000000001
 31
0.0
  0
LINE
  5
572
330
18
100
AcDbEntity
  8
0
100
AcDbLine
 10
7.322267999999999
 20
5.665861000000001
 30
0.0
 11
7.311245
 21
5.683866
 31
0.0
  0
LINE
  5
573
330
18
100
AcDbEntity
  8
0
100
AcDbLine
 10
7.311245
 20
5.683866
 30
0.0
 11
7.292215
 21
5.688837
 31
0.0
  0
LINE
  5
574
330
18
100
AcDbEntity
  8
0
100
AcDbLine
 10
7.292215
 20
5.688837
 30
0.0
 11
7.282196000000001
 21
5.698833000000001
 31
0.0
  0
LINE
  5
575
330
18
100
AcDbEntity
  8
0
100
AcDbLine
 10
7.176056
 20
5.643558000000001
 30
0.0
 11
7.158033000000001
 21
5.632509
 31
0.0
  0
LINE
  5
576
330
18
100
AcDbEntity
  8
0
100
AcDbLine
 10
7.158033000000001
 20
5.632509
 30
0.0
 11
7.168055000000001
 21
5.6125
 31
0.0
  0
LINE
  5
577
330
18
100
AcDbEntity
  8
0
100
AcDbLine
 10
7.168055000000001
 20
5.6125
 30
0.0
 11
7.17707
 21
5.609512000000001
 31
0.0
  0
LINE
  5
578
330
18
100
AcDbEntity
  8
0
100
AcDbLine
 10
7.17707
 20
5.609512000000001
 30
0.0
 11
7.197094
 21
5.626573000000001
 31
0.0
  0
LINE
  5
579
330
18
100
AcDbEntity
  8
0
100
AcDbLine
 10
7.197094
 20
5.626573000000001
 30
0.0
 11
7.196089
 21
5.636585
 31
0.0
  0
LINE
  5
57A
330
18
100
AcDbEntity
  8
0
100
AcDbLine
 10
7.196089
 20
5.636585
 30
0.0
 11
7.188074
 21
5.645583
 31
0.0
  0
LINE
  5
57B
330
18
100
AcDbEntity
  8
0
100
AcDbLine
 10
7.188074
 20
5.645583
 30
0.0
 11
7.176056
 21
5.643558000000001
 31
0.0
  0
LINE
  5
57C
330
18
100
AcDbEntity
  8
0
100
AcDbLine
 10
7.483428999999999
 20
5.898488
 30
0.0
 11
7.509472
 21
5.885518
 31
0.0
  0
LINE
  5
57D
330
18
100
AcDbEntity
  8
0
100
AcDbLine
 10
7.509472
 20
5.885518
 30
0.0
 11
7.505476
 21
5.858472
 31
0.0
  0
LINE
  5
57E
330
18
100
AcDbEntity
  8
0
100
AcDbLine
 10
7.505476
 20
5.858472
 30
0.0
 11
7.490455
 21
5.852436
 31
0.0
  0
LINE
  5
57F
330
18
100
AcDbEntity
  8
0
100
AcDbLine
 10
7.490455
 20
5.852436
 30
0.0
 11
7.465418
 21
5.851388
 31
0.0
  0
LINE
  5
580
330
18
100
AcDbEntity
  8
0
100
AcDbLine
 10
7.465418
 20
5.851388
 30
0.0
 11
7.465408
 21
5.881431
 31
0.0
  0
LINE
  5
581
330
18
100
AcDbEntity
  8
0
100
AcDbLine
 10
7.465408
 20
5.881431
 30
0.0
 11
7.474416000000001
 21
5.895467
 31
0.0
  0
LINE
  5
582
330
18
100
AcDbEntity
  8
0
100
AcDbLine
 10
7.474416000000001
 20
5.895467
 30
0.0
 11
7.483428999999999
 21
5.898488
 31
0.0
  0
LINE
  5
583
330
18
100
AcDbEntity
  8
0
100
AcDbLine
 10
7.516649
 20
5.982869
 30
0.0
 11
7.537484
 21
5.972493
 31
0.0
  0
LINE
  5
584
330
18
100
AcDbEntity
  8
0
100
AcDbLine
 10
7.537484
 20
5.972493
 30
0.0
 11
7.534287
 21
5.950856
 31
0.0
  0
LINE
  5
585
330
18
100
AcDbEntity
  8
0
100
AcDbLine
 10
7.534287
 20
5.950856
 30
0.0
 11
7.52227
 21
5.946027
 31
0.0
  0
LINE
  5
586
330
18
100
AcDbEntity
  8
0
100
AcDbLine
 10
7.52227
 20
5.946027
 30
0.0
 11
7.50224
 21
5.945189
 31
0.0
  0
LINE
  5
587
330
18
100
AcDbEntity
  8
0
100
AcDbLine
 10
7.50224
 20
5.945189
 30
0.0
 11
7.502232000000001
 21
5.969223
 31
0.0
  0
LINE
  5
588
330
18
100
AcDbEntity
  8
0
100
AcDbLine
 10
7.502232000000001
 20
5.969223
 30
0.0
 11
7.509439
 21
5.980452
 31
0.0
  0
LINE
  5
589
330
18
100
AcDbEntity
  8
0
100
AcDbLine
 10
7.509439
 20
5.980452
 30
0.0
 11
7.516649
 21
5.982869
 31
0.0
  0
LINE
  5
58A
330
18
100
AcDbEntity
  8
0
100
AcDbLine
 10
7.551621000000001
 20
6.098457
 30
0.0
 11
7.568289
 21
6.090156
 31
0.0
  0
LINE
  5
58B
330
18
100
AcDbEntity
  8
0
100
AcDbLine
 10
7.568289
 20
6.090156
 30
0.0
 11
7.565731
 21
6.072847
 31
0.0
  0
LINE
  5
58C
330
18
100
AcDbEntity
  8
0
100
AcDbLine
 10
7.565731
 20
6.072847
 30
0.0
 11
7.556118
 21
6.068984
 31
0.0
  0
LINE
  5
58D
330
18
100
AcDbEntity
  8
0
100
AcDbLine
 10
7.556118
 20
6.068984
 30
0.0
 11
7.540094
 21
6.068313
 31
0.0
  0
LINE
  5
58E
330
18
100
AcDbEntity
  8
0
100
AcDbLine
 10
7.540094
 20
6.068313
 30
0.0
 11
7.540087
 21
6.08754
 31
0.0
  0
LINE
  5
58F
330
18
100
AcDbEntity
  8
0
100
AcDbLine
 10
7.540087
 20
6.08754
 30
0.0
 11
7.545853
 21
6.096524
 31
0.0
  0
LINE
  5
590
330
18
100
AcDbEntity
  8
0
100
AcDbLine
 10
7.545853
 20
6.096524
 30
0.0
 11
7.551621000000001
 21
6.098457
 31
0.0
  0
LINE
  5
591
330
18
100
AcDbEntity
  8
0
100
AcDbLine
 10
6.498404
 20
6.510402
 30
0.0
 11
6.526825
 21
6.364373000000001
 31
0.0
  0
LINE
  5
592
330
18
100
AcDbEntity
  8
0
100
AcDbLine
 10
6.526825
 20
6.364373000000001
 30
0.0
 11
6.52786
 21
6.267238
 31
0.0
  0
LINE
  5
593
330
18
100
AcDbEntity
  8
0
100
AcDbLine
 10
6.52786
 20
6.267238
 30
0.0
 11
6.505853
 21
6.193092
 31
0.0
  0
LINE
  5
594
330
18
100
AcDbEntity
  8
0
100
AcDbLine
 10
6.505853
 20
6.193092
 30
0.0
 11
6.506879000000001
 21
6.124998000000001
 31
0.0
  0
LINE
  5
595
330
18
100
AcDbEntity
  8
0
100
AcDbLine
 10
6.506879000000001
 20
6.124998000000001
 30
0.0
 11
6.528938
 21
6.051936
 31
0.0
  0
LINE
  5
596
330
18
100
AcDbEntity
  8
0
100
AcDbLine
 10
6.528938
 20
6.051936
 30
0.0
 11
6.533012
 21
5.860673
 31
0.0
  0
LINE
  5
597
330
18
100
AcDbEntity
  8
0
100
AcDbLine
 10
6.533012
 20
5.860673
 30
0.0
 11
6.52905
 21
5.734487000000001
 31
0.0
  0
LINE
  5
598
330
18
100
AcDbEntity
  8
0
100
AcDbLine
 10
6.52905
 20
5.734487000000001
 30
0.0
 11
6.527080000000001
 21
5.643355000000001
 31
0.0
  0
LINE
  5
599
330
18
100
AcDbEntity
  8
0
100
AcDbLine
 10
6.527080000000001
 20
5.643355000000001
 30
0.0
 11
6.520096
 21
5.567235
 31
0.0
  0
LINE
  5
59A
330
18
100
AcDbEntity
  8
0
100
AcDbLine
 10
6.520096
 20
5.567235
 30
0.0
 11
6.504102
 21
5.482085
 31
0.0
  0
LINE
  5
59B
330
18
100
AcDbEntity
  8
0
100
AcDbLine
 10
6.504102
 20
5.482085
 30
0.0
 11
6.502135
 21
5.379937
 31
0.0
  0
LINE
  5
59C
330
18
100
AcDbEntity
  8
0
100
AcDbLine
 10
6.502135
 20
5.379937
 30
0.0
 11
6.509193
 21
5.247763
 31
0.0
  0
LINE
  5
59D
330
18
100
AcDbEntity
  8
0
100
AcDbLine
 10
6.509193
 20
5.247763
 30
0.0
 11
6.509231
 21
5.138609
 31
0.0
  0
LINE
  5
59E
330
18
100
AcDbEntity
  8
0
100
AcDbLine
 10
6.509231
 20
5.138609
 30
0.0
 11
6.511917
 21
5.072997
 31
0.0
  0
LINE
  5
59F
330
18
100
AcDbEntity
  8
0
100
AcDbLine
 10
6.547894
 20
6.545947
 30
0.0
 11
6.57089
 21
6.366458000000001
 31
0.0
  0
LINE
  5
5A0
330
18
100
AcDbEntity
  8
0
100
AcDbLine
 10
6.57089
 20
6.366458000000001
 30
0.0
 11
6.590959
 21
6.25634
 31
0.0
  0
LINE
  5
5A1
330
18
100
AcDbEntity
  8
0
100
AcDbLine
 10
6.590959
 20
6.25634
 30
0.0
 11
6.587986999999999
 21
6.165205
 31
0.0
  0
LINE
  5
5A2
330
18
100
AcDbEntity
  8
0
100
AcDbLine
 10
6.587986999999999
 20
6.165205
 30
0.0
 11
6.583002000000001
 21
6.100104
 31
0.0
  0
LINE
  5
5A3
330
18
100
AcDbEntity
  8
0
100
AcDbLine
 10
6.583002000000001
 20
6.100104
 30
0.0
 11
6.604077
 21
5.979973
 31
0.0
  0
LINE
  5
5A4
330
18
100
AcDbEntity
  8
0
100
AcDbLine
 10
6.604077
 20
5.979973
 30
0.0
 11
6.607124000000001
 21
5.858808
 31
0.0
  0
LINE
  5
5A5
330
18
100
AcDbEntity
  8
0
100
AcDbLine
 10
6.607124000000001
 20
5.858808
 30
0.0
 11
6.60317
 21
5.712594
 31
0.0
  0
LINE
  5
5A6
330
18
100
AcDbEntity
  8
0
100
AcDbLine
 10
6.60317
 20
5.712594
 30
0.0
 11
6.596222
 21
5.535330999999999
 31
0.0
  0
LINE
  5
5A7
330
18
100
AcDbEntity
  8
0
100
AcDbLine
 10
6.596222
 20
5.535330999999999
 30
0.0
 11
6.590261999999999
 21
5.395121
 31
0.0
  0
LINE
  5
5A8
330
18
100
AcDbEntity
  8
0
100
AcDbLine
 10
6.590261999999999
 20
5.395121
 30
0.0
 11
6.589307000000001
 21
5.263934
 31
0.0
  0
LINE
  5
5A9
330
18
100
AcDbEntity
  8
0
100
AcDbLine
 10
6.589307000000001
 20
5.263934
 30
0.0
 11
6.596655999999999
 21
5.150158
 31
0.0
  0
LINE
  5
5AA
330
18
100
AcDbEntity
  8
0
100
AcDbLine
 10
6.626517
 20
6.602415
 30
0.0
 11
6.630965
 21
6.411633
 31
0.0
  0
LINE
  5
5AB
330
18
100
AcDbEntity
  8
0
100
AcDbLine
 10
6.630965
 20
6.411633
 30
0.0
 11
6.65004
 21
6.280483
 31
0.0
  0
LINE
  5
5AC
330
18
100
AcDbEntity
  8
0
100
AcDbLine
 10
6.65004
 20
6.280483
 30
0.0
 11
6.679129
 21
6.151355000000001
 31
0.0
  0
LINE
  5
5AD
330
18
100
AcDbEntity
  8
0
100
AcDbLine
 10
6.679129
 20
6.151355000000001
 30
0.0
 11
6.696194
 21
6.039228
 31
0.0
  0
LINE
  5
5AE
330
18
100
AcDbEntity
  8
0
100
AcDbLine
 10
6.696194
 20
6.039228
 30
0.0
 11
6.684224
 21
5.904015
 31
0.0
  0
LINE
  5
5AF
330
18
100
AcDbEntity
  8
0
100
AcDbLine
 10
6.684224
 20
5.904015
 30
0.0
 11
6.671238000000001
 21
5.808856
 31
0.0
  0
LINE
  5
5B0
330
18
100
AcDbEntity
  8
0
100
AcDbLine
 10
6.671238000000001
 20
5.808856
 30
0.0
 11
6.672289999999999
 21
5.665655999999999
 31
0.0
  0
LINE
  5
5B1
330
18
100
AcDbEntity
  8
0
100
AcDbLine
 10
6.672289999999999
 20
5.665655999999999
 30
0.0
 11
6.675353
 21
5.502431
 31
0.0
  0
LINE
  5
5B2
330
18
100
AcDbEntity
  8
0
100
AcDbLine
 10
6.675353
 20
5.502431
 30
0.0
 11
6.678398
 21
5.387274
 31
0.0
  0
LINE
  5
5B3
330
18
100
AcDbEntity
  8
0
100
AcDbLine
 10
6.678398
 20
5.387274
 30
0.0
 11
6.680432000000001
 21
5.299153
 31
0.0
  0
LINE
  5
5B4
330
18
100
AcDbEntity
  8
0
100
AcDbLine
 10
6.680432000000001
 20
5.299153
 30
0.0
 11
6.689621000000001
 21
5.234811
 31
0.0
  0
LINE
  5
5B5
330
18
100
AcDbEntity
  8
0
100
AcDbLine
 10
6.69986
 20
6.65509
 30
0.0
 11
6.702052
 21
6.466843
 31
0.0
  0
LINE
  5
5B6
330
18
100
AcDbEntity
  8
0
100
AcDbLine
 10
6.702052
 20
6.466843
 30
0.0
 11
6.711116000000001
 21
6.32566
 31
0.0
  0
LINE
  5
5B7
330
18
100
AcDbEntity
  8
0
100
AcDbLine
 10
6.711116000000001
 20
6.32566
 30
0.0
 11
6.728175
 21
6.230557
 31
0.0
  0
LINE
  5
5B8
330
18
100
AcDbEntity
  8
0
100
AcDbLine
 10
6.728175
 20
6.230557
 30
0.0
 11
6.749238
 21
6.141471
 31
0.0
  0
LINE
  5
5B9
330
18
100
AcDbEntity
  8
0
100
AcDbLine
 10
6.749238
 20
6.141471
 30
0.0
 11
6.762294
 21
6.039351
 31
0.0
  0
LINE
  5
5BA
330
18
100
AcDbEntity
  8
0
100
AcDbLine
 10
6.762294
 20
6.039351
 30
0.0
 11
6.768339
 21
5.938219
 31
0.0
  0
LINE
  5
5BB
330
18
100
AcDbEntity
  8
0
100
AcDbLine
 10
6.768339
 20
5.938219
 30
0.0
 11
6.761373
 21
5.811026
 31
0.0
  0
LINE
  5
5BC
330
18
100
AcDbEntity
  8
0
100
AcDbLine
 10
6.761373
 20
5.811026
 30
0.0
 11
6.748391000000001
 21
5.704852
 31
0.0
  0
LINE
  5
5BD
330
18
100
AcDbEntity
  8
0
100
AcDbLine
 10
6.748391000000001
 20
5.704852
 30
0.0
 11
6.751438
 21
5.585689
 31
0.0
  0
LINE
  5
5BE
330
18
100
AcDbEntity
  8
0
100
AcDbLine
 10
6.751438
 20
5.585689
 30
0.0
 11
6.757492
 21
5.45752
 31
0.0
  0
LINE
  5
5BF
330
18
100
AcDbEntity
  8
0
100
AcDbLine
 10
6.757492
 20
5.45752
 30
0.0
 11
6.765535000000001
 21
5.371413
 31
0.0
  0
LINE
  5
5C0
330
18
100
AcDbEntity
  8
0
100
AcDbLine
 10
6.765535000000001
 20
5.371413
 30
0.0
 11
6.768828
 21
5.306935
 31
0.0
  0
LINE
  5
5C1
330
18
100
AcDbEntity
  8
0
100
AcDbLine
 10
7.530268
 20
6.5535
 30
0.0
 11
7.490213000000001
 21
6.537403
 31
0.0
  0
LINE
  5
5C2
330
18
100
AcDbEntity
  8
0
100
AcDbLine
 10
7.490213000000001
 20
6.537403
 30
0.0
 11
7.483210000000001
 21
6.517362
 31
0.0
  0
LINE
  5
5C3
330
18
100
AcDbEntity
  8
0
100
AcDbLine
 10
7.483210000000001
 20
6.517362
 30
0.0
 11
7.485231
 21
6.464291
 31
0.0
  0
LINE
  5
5C4
330
18
100
AcDbEntity
  8
0
100
AcDbLine
 10
7.485231
 20
6.464291
 30
0.0
 11
7.482243
 21
6.419222
 31
0.0
  0
LINE
  5
5C5
330
18
100
AcDbEntity
  8
0
100
AcDbLine
 10
7.482243
 20
6.419222
 30
0.0
 11
7.494264
 21
6.40923
 31
0.0
  0
LINE
  5
5C6
330
18
100
AcDbEntity
  8
0
100
AcDbLine
 10
7.494264
 20
6.40923
 30
0.0
 11
7.523305000000001
 21
6.419298
 31
0.0
  0
LINE
  5
5C7
330
18
100
AcDbEntity
  8
0
100
AcDbLine
 10
7.523305000000001
 20
6.419298
 30
0.0
 11
7.545333
 21
6.432357
 31
0.0
  0
LINE
  5
5C8
330
18
100
AcDbEntity
  8
0
100
AcDbLine
 10
7.545333
 20
6.432357
 30
0.0
 11
7.563350999999999
 21
6.458427
 31
0.0
  0
LINE
  5
5C9
330
18
100
AcDbEntity
  8
0
100
AcDbLine
 10
7.563350999999999
 20
6.458427
 30
0.0
 11
7.563336
 21
6.501488
 31
0.0
  0
LINE
  5
5CA
330
18
100
AcDbEntity
  8
0
100
AcDbLine
 10
7.563336
 20
6.501488
 30
0.0
 11
7.556314
 21
6.533519999999999
 31
0.0
  0
LINE
  5
5CB
330
18
100
AcDbEntity
  8
0
100
AcDbLine
 10
7.556314
 20
6.533519999999999
 30
0.0
 11
7.530268
 21
6.5535
 31
0.0
  0
LINE
  5
5CC
330
18
100
AcDbEntity
  8
0
100
AcDbLine
 10
7.153919999999999
 20
6.500928
 30
0.0
 11
7.174755
 21
6.490552
 31
0.0
  0
LINE
  5
5CD
330
18
100
AcDbEntity
  8
0
100
AcDbLine
 10
7.174755
 20
6.490552
 30
0.0
 11
7.171558
 21
6.468916
 31
0.0
  0
LINE
  5
5CE
330
18
100
AcDbEntity
  8
0
100
AcDbLine
 10
7.171558
 20
6.468916
 30
0.0
 11
7.159541
 21
6.464087
 31
0.0
  0
LINE
  5
5CF
330
18
100
AcDbEntity
  8
0
100
AcDbLine
 10
7.159541
 20
6.464087
 30
0.0
 11
7.139512
 21
6.463248999999999
 31
0.0
  0
LINE
  5
5D0
330
18
100
AcDbEntity
  8
0
100
AcDbLine
 10
7.139512
 20
6.463248999999999
 30
0.0
 11
7.139503
 21
6.487282
 31
0.0
  0
LINE
  5
5D1
330
18
100
AcDbEntity
  8
0
100
AcDbLine
 10
7.139503
 20
6.487282
 30
0.0
 11
7.146710000000001
 21
6.498512
 31
0.0
  0
LINE
  5
5D2
330
18
100
AcDbEntity
  8
0
100
AcDbLine
 10
7.146710000000001
 20
6.498512
 30
0.0
 11
7.153919999999999
 21
6.500928
 31
0.0
  0
LINE
  5
5D3
330
18
100
AcDbEntity
  8
0
100
AcDbLine
 10
7.382557
 20
7.935179
 30
0.0
 11
7.365537
 21
7.921127
 31
0.0
  0
LINE
  5
5D4
330
18
100
AcDbEntity
  8
0
100
AcDbLine
 10
7.365537
 20
7.921127
 30
0.0
 11
7.358533
 21
7.900084
 31
0.0
  0
LINE
  5
5D5
330
18
100
AcDbEntity
  8
0
100
AcDbLine
 10
7.358533
 20
7.900084
 30
0.0
 11
7.363549000000001
 21
7.878063
 31
0.0
  0
LINE
  5
5D6
330
18
100
AcDbEntity
  8
0
100
AcDbLine
 10
7.363549000000001
 20
7.878063
 30
0.0
 11
7.383578999999999
 21
7.8781
 31
0.0
  0
LINE
  5
5D7
330
18
100
AcDbEntity
  8
0
100
AcDbLine
 10
7.383578999999999
 20
7.8781
 30
0.0
 11
7.402603
 21
7.892155000000001
 31
0.0
  0
LINE
  5
5D8
330
18
100
AcDbEntity
  8
0
100
AcDbLine
 10
7.402603
 20
7.892155000000001
 30
0.0
 11
7.412611999999999
 21
7.907195
 31
0.0
  0
LINE
  5
5D9
330
18
100
AcDbEntity
  8
0
100
AcDbLine
 10
7.412611999999999
 20
7.907195
 30
0.0
 11
7.415611
 21
7.923222999999999
 31
0.0
  0
LINE
  5
5DA
330
18
100
AcDbEntity
  8
0
100
AcDbLine
 10
7.415611
 20
7.923222999999999
 30
0.0
 11
7.40459
 21
7.935219
 31
0.0
  0
LINE
  5
5DB
330
18
100
AcDbEntity
  8
0
100
AcDbLine
 10
7.40459
 20
7.935219
 30
0.0
 11
7.382557
 21
7.935179
 31
0.0
  0
LINE
  5
5DC
330
18
100
AcDbEntity
  8
0
100
AcDbLine
 10
7.559499000000001
 20
7.864056
 30
0.0
 11
7.575125
 21
7.856274000000001
 31
0.0
  0
LINE
  5
5DD
330
18
100
AcDbEntity
  8
0
100
AcDbLine
 10
7.575125
 20
7.856274000000001
 30
0.0
 11
7.572727
 21
7.840047
 31
0.0
  0
LINE
  5
5DE
330
18
100
AcDbEntity
  8
0
100
AcDbLine
 10
7.572727
 20
7.840047
 30
0.0
 11
7.563714999999999
 21
7.836425
 31
0.0
  0
LINE
  5
5DF
330
18
100
AcDbEntity
  8
0
100
AcDbLine
 10
7.563714999999999
 20
7.836425
 30
0.0
 11
7.548692
 21
7.835796
 31
0.0
  0
LINE
  5
5E0
330
18
100
AcDbEntity
  8
0
100
AcDbLine
 10
7.548692
 20
7.835796
 30
0.0
 11
7.548686
 21
7.853822
 31
0.0
  0
LINE
  5
5E1
330
18
100
AcDbEntity
  8
0
100
AcDbLine
 10
7.548686
 20
7.853822
 30
0.0
 11
7.554091000000001
 21
7.862242999999999
 31
0.0
  0
LINE
  5
5E2
330
18
100
AcDbEntity
  8
0
100
AcDbLine
 10
7.554091000000001
 20
7.862242999999999
 30
0.0
 11
7.559499000000001
 21
7.864056
 31
0.0
  0
LINE
  5
5E3
330
18
100
AcDbEntity
  8
0
100
AcDbLine
 10
6.342898
 20
8.202629
 30
0.0
 11
6.36794
 21
8.190659
 31
0.0
  0
LINE
  5
5E4
330
18
100
AcDbEntity
  8
0
100
AcDbLine
 10
6.36794
 20
8.190659
 30
0.0
 11
6.422025
 21
8.180745
 31
0.0
  0
LINE
  5
5E5
330
18
100
AcDbEntity
  8
0
100
AcDbLine
 10
6.422025
 20
8.180745
 30
0.0
 11
6.434038
 21
8.195789
 31
0.0
  0
LINE
  5
5E6
330
18
100
AcDbEntity
  8
0
100
AcDbLine
 10
6.434038
 20
8.195789
 30
0.0
 11
6.422011
 21
8.220802000000001
 31
0.0
  0
LINE
  5
5E7
330
18
100
AcDbEntity
  8
0
100
AcDbLine
 10
6.422011
 20
8.220802000000001
 30
0.0
 11
6.342898
 21
8.202629
 31
0.0
  0
ARC
  5
5E8
330
18
100
AcDbEntity
  8
0
100
AcDbCircle
 10
5.580951
 20
7.343818
 30
0.0
 40
0.03
100
AcDbArc
 50
119.772246
 51
180.0
  0
ARC
  5
5E9
330
18
100
AcDbEntity
  8
0
100
AcDbCircle
 10
5.146351999999999
 20
7.402464
 30
0.0
 40
0.03
100
AcDbArc
 50
115.920936
 51
180.0
  0
ARC
  5
5EA
330
18
100
AcDbEntity
  8
0
100
AcDbCircle
 10
5.214829
 20
7.435746000000001
 30
0.0
 40
0.03
100
AcDbArc
 50
83.91901800000001
 51
115.920936
  0
ARC
  5
5EB
330
18
100
AcDbEntity
  8
0
100
AcDbCircle
 10
5.590951
 20
7.332258
 30
0.0
 40
0.01
100
AcDbArc
 50
119.772246
 51
180.0
  0
ARC
  5
5EC
330
18
100
AcDbEntity
  8
0
100
AcDbCircle
 10
5.305253
 20
7.145676
 30
0.0
 40
0.024864
100
AcDbArc
 50
313.026616
 51
337.638001
  0
ARC
  5
5ED
330
18
100
AcDbEntity
  8
0
100
AcDbCircle
 10
5.285386
 20
7.154468
 30
0.0
 40
0.046585
100
AcDbArc
 50
336.933687
 51
354.905545
  0
ARC
  5
5EE
330
18
100
AcDbEntity
  8
0
100
AcDbCircle
 10
5.266126
 20
7.156186
 30
0.0
 40
0.065922
100
AcDbArc
 50
354.905545
 51
9.995092999999999
  0
ARC
  5
5EF
330
18
100
AcDbEntity
  8
0
100
AcDbCircle
 10
5.266126
 20
7.156186
 30
0.0
 40
0.065922
100
AcDbArc
 50
9.995092999999999
 51
25.08464200000001
  0
ARC
  5
5F0
330
18
100
AcDbEntity
  8
0
100
AcDbCircle
 10
5.283639
 20
7.164383
 30
0.0
 40
0.046585
100
AcDbArc
 50
25.08464200000001
 51
43.056499
  0
ARC
  5
5F1
330
18
100
AcDbEntity
  8
0
100
AcDbCircle
 10
5.293924
 20
7.173992999999999
 30
0.0
 40
0.03251
100
AcDbArc
 50
43.056499
 51
67.524912
  0
ARC
  5
5F2
330
18
100
AcDbEntity
  8
0
100
AcDbCircle
 10
5.296623
 20
7.172936
 30
0.0
 40
0.032584
100
AcDbArc
 50
72.628601
 51
105.139331
  0
TEXT
  5
5F3
330
18
100
AcDbEntity
  8
0
100
AcDbText
 10
4.143189
 20
2.257757
 30
0.0
 40
0.22
  1
Simpson Strong-Tie
100
AcDbText
  0
TEXT
  5
5F4
330
18
100
AcDbEntity
  8
0
100
AcDbText
 10
4.143189
 20
1.901566
 30
0.0
 40
0.22
  1
LTTI31
100
AcDbText
  0
ENDSEC
  0
SECTION
  2
OBJECTS
  0
DICTIONARY
  5
C
330
0
100
AcDbDictionary
281
     1
  3
ACAD_COLOR
350
5FA
  3
ACAD_GROUP
350
D
  3
ACAD_LAYOUT
350
15
  3
ACAD_MATERIAL
350
5FC
  3
ACAD_MLINESTYLE
350
12
  3
ACAD_PLOTSETTINGS
350
14
  3
ACAD_PLOTSTYLENAME
350
E
  3
ACDBHEADERROUNDTRIPXREC
350
5F9
  0
DICTIONARY
  5
5FA
102
{ACAD_REACTORS
330
C
102
}
330
C
100
AcDbDictionary
281
     1
  0
DICTIONARY
  5
D
102
{ACAD_REACTORS
330
C
102
}
330
C
100
AcDbDictionary
281
     1
  0
DICTIONARY
  5
15
102
{ACAD_REACTORS
330
C
102
}
330
C
100
AcDbDictionary
281
     1
  3
Layout1
350
17
  3
Model
350
19
  0
DICTIONARY
  5
5FC
102
{ACAD_REACTORS
330
C
102
}
330
C
100
AcDbDictionary
281
     1
  0
DICTIONARY
  5
12
102
{ACAD_REACTORS
330
C
102
}
330
C
100
AcDbDictionary
281
     1
  3
Standard
350
13
  0
DICTIONARY
  5
14
102
{ACAD_REACTORS
330
C
102
}
330
C
100
AcDbDictionary
281
     1
  0
ACDBDICTIONARYWDFLT
  5
E
102
{ACAD_REACTORS
330
C
102
}
330
C
100
AcDbDictionary
281
     1
  3
Normal
350
F
100
AcDbDictionaryWithDefault
340
F
  0
DICTIONARY
  5
5F9
102
{ACAD_REACTORS
330
C
102
}
330
C
100
AcDbDictionary
281
     1
  3
COLORDICT
350
5FB
  3
MATERIALDICT
350
5FD
  0
LAYOUT
  5
17
102
{ACAD_REACTORS
330
15
102
}
102
{ACAD_XDICTIONARY
360
5FE
102
}
330
15
100
AcDbPlotSettings
  1

  2

  4

  6

 40
0.0
 41
0.0
 42
0.0
 43
0.0
 44
0.0
 45
0.0
 46
0.0
 47
0.0
 48
0.0
 49
0.0
140
0.0
141
0.0
142
1.0
143
1.0
 70
   688
 72
     0
 73
     0
 74
     5
  7

 75
    16
147
1.0
148
0.0
149
0.0
100
AcDbLayout
  1
Layout1
 70
     1
 71
     1
 10
0.0
 20
0.0
 11
12.0
 21
9.0
 12
0.0
 22
0.0
 32
0.0
 14
1.000000000000000E+20
 24
1.000000000000000E+20
 34
1.000000000000000E+20
 15
-1.000000000000000E+20
 25
-1.000000000000000E+20
 35
-1.000000000000000E+20
146
0.0
 13
0.0
 23
0.0
 33
0.0
 16
1.0
 26
0.0
 36
0.0
 17
0.0
 27
1.0
 37
0.0
 76
     0
330
16
  0
LAYOUT
  5
19
102
{ACAD_REACTORS
330
15
102
}
102
{ACAD_XDICTIONARY
360
600
102
}
330
15
100
AcDbPlotSettings
  1

  2

  4

  6

 40
0.0
 41
0.0
 42
0.0
 43
0.0
 44
0.0
 45
0.0
 46
0.0
 47
0.0
 48
0.0
 49
0.0
140
0.0
141
0.0
142
1.0
143
1.0
 70
  1712
 72
     0
 73
     0
 74
     0
  7

 75
     0
147
1.0
148
0.0
149
0.0
100
AcDbLayout
  1
Model
 70
     1
 71
     0
 10
0.0
 20
0.0
 11
0.0
 21
0.0
 12
0.0
 22
0.0
 32
0.0
 14
0.0
 24
0.0
 34
0.0
 15
0.0
 25
0.0
 35
0.0
146
0.0
 13
0.0
 23
0.0
 33
0.0
 16
1.0
 26
0.0
 36
0.0
 17
0.0
 27
1.0
 37
0.0
 76
     0
330
18
  0
MLINESTYLE
  5
13
102
{ACAD_REACTORS
330
12
102
}
330
12
100
AcDbMlineStyle
  2
Standard
 70
     0
  3

 62
   256
 51
90.0
 52
90.0
 71
     2
 49
0.5
 62
   256
  6
BYLAYER
 49
-0.5
 62
   256
  6
BYLAYER
  0
ACDBPLACEHOLDER
  5
F
102
{ACAD_REACTORS
330
E
102
}
330
E
  0
XRECORD
  5
5FB
102
{ACAD_REACTORS
330
5F9
102
}
330
5F9
100
AcDbXrecord
340
5FA
  0
XRECORD
  5
5FD
102
{ACAD_REACTORS
330
5F9
102
}
330
5F9
100
AcDbXrecord
340
5FC
  0
DICTIONARY
  5
5FE
330
17
100
AcDbDictionary
280
     1
281
     1
  3
ACAD_XREC_ROUNDTRIP
360
5FF
  0
DICTIONARY
  5
600
330
19
100
AcDbDictionary
280
     1
281
     1
  3
ACAD_XREC_ROUNDTRIP
360
601
  0
XRECORD
  5
5FF
102
{ACAD_REACTORS
330
5FE
102
}
330
5FE
100
AcDbXrecord
102
SHADEPLOT
 70
-21088
102
SHADEPLOTRESLEVEL
 70
  7968
102
SHADEPLOTCUSTOMDPI
 70
-21008
  0
XRECORD
  5
601
102
{ACAD_REACTORS
330
600
102
}
330
600
100
AcDbXrecord
102
SHADEPLOT
 70
     0
102
SHADEPLOTRESLEVEL
 70
     0
102
SHADEPLOTCUSTOMDPI
 70
     0
  0
ENDSEC
  0
EOF
