  0
SECTION
  2
HEADER
  9
$ACADVER
  1
AC1015
  9
$ACADMAINTVER
 70
     6
  9
$DWGCODEPAGE
  3
ANSI_1252
  9
$INSBASE
 10
0.0
 20
0.0
 30
0.0
  9
$EXTMIN
 10
66.99981988470152
 20
106.3621709756426
 30
-0.0015258207003612
  9
$EXTMAX
 10
147.0235145805245
 20
178.0832200074921
 30
0.0000000349246008
  9
$LIMMIN
 10
66.93562147352429
 20
106.4792887369792
  9
$LIMMAX
 10
146.3185451931423
 20
178.2123779296875
  9
$ORTHOMODE
 70
     0
  9
$REGENMODE
 70
     1
  9
$FILLMODE
 70
     1
  9
$QTEXTMODE
 70
     0
  9
$MIRRTEXT
 70
     1
  9
$LTSCALE
 40
1.0
  9
$ATTMODE
 70
     1
  9
$TEXTSIZE
 40
0.2
  9
$TRACEWID
 40
0.05
  9
$TEXTSTYLE
  7
STANDARD
  9
$CLAYER
  8
0
  9
$CELTYPE
  6
CONTINUOUS
  9
$CECOLOR
 62
   256
  9
$CELTSCALE
 40
1.0
  9
$DISPSILH
 70
     0
  9
$DIMSCALE
 40
1.0
  9
$DIMASZ
 40
0.18
  9
$DIMEXO
 40
0.0625
  9
$DIMDLI
 40
0.38
  9
$DIMRND
 40
0.0
  9
$DIMDLE
 40
0.0
  9
$DIMEXE
 40
0.18
  9
$DIMTP
 40
0.0
  9
$DIMTM
 40
0.0
  9
$DIMTXT
 40
0.18
  9
$DIMCEN
 40
0.09
  9
$DIMTSZ
 40
0.0
  9
$DIMTOL
 70
     0
  9
$DIMLIM
 70
     0
  9
$DIMTIH
 70
     1
  9
$DIMTOH
 70
     1
  9
$DIMSE1
 70
     0
  9
$DIMSE2
 70
     0
  9
$DIMTAD
 70
     0
  9
$DIMZIN
 70
     0
  9
$DIMBLK
  1

  9
$DIMASO
 70
     1
  9
$DIMSHO
 70
     1
  9
$DIMPOST
  1

  9
$DIMAPOST
  1

  9
$DIMALT
 70
     0
  9
$DIMALTD
 70
     2
  9
$DIMALTF
 40
25.4
  9
$DIMLFAC
 40
1.0
  9
$DIMTOFL
 70
     0
  9
$DIMTVP
 40
0.0
  9
$DIMTIX
 70
     0
  9
$DIMSOXD
 70
     0
  9
$DIMSAH
 70
     0
  9
$DIMBLK1
  1

  9
$DIMBLK2
  1

  9
$DIMSTYLE
  2
STANDARD
  9
$DIMCLRD
 70
     0
  9
$DIMCLRE
 70
     0
  9
$DIMCLRT
 70
     0
  9
$DIMTFAC
 40
1.0
  9
$DIMGAP
 40
0.09
  9
$DIMJUST
 70
     0
  9
$DIMSD1
 70
     0
  9
$DIMSD2
 70
     0
  9
$DIMTOLJ
 70
     1
  9
$DIMTZIN
 70
     0
  9
$DIMALTZ
 70
     0
  9
$DIMALTTZ
 70
     0
  9
$DIMUPT
 70
     0
  9
$DIMDEC
 70
     4
  9
$DIMTDEC
 70
     4
  9
$DIMALTU
 70
     2
  9
$DIMALTTD
 70
     2
  9
$DIMTXSTY
  7
STANDARD
  9
$DIMAUNIT
 70
     0
  9
$DIMADEC
 70
     0
  9
$DIMALTRND
 40
0.0
  9
$DIMAZIN
 70
     0
  9
$DIMDSEP
 70
    46
  9
$DIMATFIT
 70
     3
  9
$DIMFRAC
 70
     0
  9
$DIMLDRBLK
  1

  9
$DIMLUNIT
 70
     2
  9
$DIMLWD
 70
    -2
  9
$DIMLWE
 70
    -2
  9
$DIMTMOVE
 70
     0
  9
$LUNITS
 70
     2
  9
$LUPREC
 70
     4
  9
$SKETCHINC
 40
0.1
  9
$FILLETRAD
 40
0.0
  9
$AUNITS
 70
     0
  9
$AUPREC
 70
     0
  9
$MENU
  1
acad
  9
$ELEVATION
 40
0.0
  9
$PELEVATION
 40
0.0
  9
$THICKNESS
 40
0.0
  9
$LIMCHECK
 70
     0
  9
$CHAMFERA
 40
0.0
  9
$CHAMFERB
 40
0.0
  9
$CHAMFERC
 40
0.0
  9
$CHAMFERD
 40
0.0
  9
$SKPOLY
 70
     0
  9
$TDCREATE
 40
2444971.666666667
  9
$TDUCREATE
 40
2444972.0
  9
$TDUPDATE
 40
2452219.359023843
  9
$TDUUPDATE
 40
2452219.692357176
  9
$TDINDWG
 40
0.0005835648
  9
$TDUSRTIMER
 40
0.0005835648
  9
$USRTIMER
 70
     1
  9
$ANGBASE
 50
0.0
  9
$ANGDIR
 70
     0
  9
$PDMODE
 70
     0
  9
$PDSIZE
 40
0.0
  9
$PLINEWID
 40
0.0
  9
$SPLFRAME
 70
     0
  9
$SPLINETYPE
 70
     6
  9
$SPLINESEGS
 70
     8
  9
$HANDSEED
  5
D1
  9
$SURFTAB1
 70
     6
  9
$SURFTAB2
 70
     6
  9
$SURFTYPE
 70
     6
  9
$SURFU
 70
     6
  9
$SURFV
 70
     6
  9
$UCSBASE
  2

  9
$UCSNAME
  2

  9
$UCSORG
 10
0.0
 20
0.0
 30
0.0
  9
$UCSXDIR
 10
1.0
 20
0.0
 30
0.0
  9
$UCSYDIR
 10
0.0
 20
1.0
 30
0.0
  9
$UCSORTHOREF
  2

  9
$UCSORTHOVIEW
 70
     0
  9
$UCSORGTOP
 10
0.0
 20
0.0
 30
0.0
  9
$UCSORGBOTTOM
 10
0.0
 20
0.0
 30
0.0
  9
$UCSORGLEFT
 10
0.0
 20
0.0
 30
0.0
  9
$UCSORGRIGHT
 10
0.0
 20
0.0
 30
0.0
  9
$UCSORGFRONT
 10
0.0
 20
0.0
 30
0.0
  9
$UCSORGBACK
 10
0.0
 20
0.0
 30
0.0
  9
$PUCSBASE
  2

  9
$PUCSNAME
  2

  9
$PUCSORG
 10
0.0
 20
0.0
 30
0.0
  9
$PUCSXDIR
 10
1.0
 20
0.0
 30
0.0
  9
$PUCSYDIR
 10
0.0
 20
1.0
 30
0.0
  9
$PUCSORTHOREF
  2

  9
$PUCSORTHOVIEW
 70
     0
  9
$PUCSORGTOP
 10
0.0
 20
0.0
 30
0.0
  9
$PUCSORGBOTTOM
 10
0.0
 20
0.0
 30
0.0
  9
$PUCSORGLEFT
 10
0.0
 20
0.0
 30
0.0
  9
$PUCSORGRIGHT
 10
0.0
 20
0.0
 30
0.0
  9
$PUCSORGFRONT
 10
0.0
 20
0.0
 30
0.0
  9
$PUCSORGBACK
 10
0.0
 20
0.0
 30
0.0
  9
$USERI1
 70
     0
  9
$USERI2
 70
     0
  9
$USERI3
 70
     0
  9
$USERI4
 70
     0
  9
$USERI5
 70
     0
  9
$USERR1
 40
0.0
  9
$USERR2
 40
0.0
  9
$USERR3
 40
0.0
  9
$USERR4
 40
0.0
  9
$USERR5
 40
0.0
  9
$WORLDVIEW
 70
     1
  9
$SHADEDGE
 70
     3
  9
$SHADEDIF
 70
    70
  9
$TILEMODE
 70
     1
  9
$MAXACTVP
 70
    16
  9
$PINSBASE
 10
0.0
 20
0.0
 30
0.0
  9
$PLIMCHECK
 70
     0
  9
$PEXTMIN
 10
1.000000000000000E+20
 20
1.000000000000000E+20
 30
1.000000000000000E+20
  9
$PEXTMAX
 10
-1.000000000000000E+20
 20
-1.000000000000000E+20
 30
-1.000000000000000E+20
  9
$PLIMMIN
 10
0.0
 20
0.0
  9
$PLIMMAX
 10
12.0
 20
9.0
  9
$UNITMODE
 70
     0
  9
$VISRETAIN
 70
     0
  9
$PLINEGEN
 70
     1
  9
$PSLTSCALE
 70
     0
  9
$TREEDEPTH
 70
  3020
  9
$CMLSTYLE
  2
STANDARD
  9
$CMLJUST
 70
     0
  9
$CMLSCALE
 40
1.0
  9
$PROXYGRAPHICS
 70
     0
  9
$MEASUREMENT
 70
     0
  9
$CELWEIGHT
370
    -1
  9
$ENDCAPS
280
     0
  9
$JOINSTYLE
280
     0
  9
$LWDISPLAY
290
     0
  9
$INSUNITS
 70
     0
  9
$HYPERLINKBASE
  1

  9
$STYLESHEET
  1

  9
$XEDIT
290
     1
  9
$CEPSNTYPE
380
     0
  9
$PSTYLEMODE
290
     1
  9
$FINGERPRINTGUID
  2
{0AE0CF2D-D1C7-11D5-923F-00805F198AD5}
  9
$VERSIONGUID
  2
{0AE0CF2F-D1C7-11D5-923F-00805F198AD5}
  9
$EXTNAMES
290
     1
  9
$PSVPSCALE
 40
0.0
  9
$OLESTARTUP
290
     0
  0
ENDSEC
  0
SECTION
  2
CLASSES
  0
CLASS
  1
LWPOLYLINE
  2
AcDbPolyline
  3
AutoCAD 2000
 90
        0
280
     0
281
     1
  0
CLASS
  1
IMAGE
  2
AcDbRasterImage
  3
ISM
 90
      127
280
     0
281
     1
  0
CLASS
  1
OLE2FRAME
  2
AcDbOle2Frame
  3
AutoCAD 2000
 90
        0
280
     0
281
     1
  0
CLASS
  1
HATCH
  2
AcDbHatch
  3
AutoCAD 2000
 90
        0
280
     0
281
     1
  0
CLASS
  1
DICTIONARYVAR
  2
AcDbDictionaryVar
  3
AutoCAD 2000
 90
        0
280
     0
281
     0
  0
CLASS
  1
RASTERVARIABLES
  2
AcDbRasterVariables
  3
ISM
 90
        0
280
     0
281
     0
  0
CLASS
  1
IMAGEDEF
  2
AcDbRasterImageDef
  3
ISM
 90
        0
280
     0
281
     0
  0
CLASS
  1
IMAGEDEF_REACTOR
  2
AcDbRasterImageDefReactor
  3
ISM
 90
        1
280
     0
281
     0
  0
CLASS
  1
IDBUFFER
  2
AcDbIdBuffer
  3
AutoCAD 2000
 90
        0
280
     0
281
     0
  0
CLASS
  1
SPATIAL_FILTER
  2
AcDbSpatialFilter
  3
AutoCAD 2000
 90
        0
280
     0
281
     0
  0
CLASS
  1
XRECORD
  2
AcDbXrecord
  3
AutoCAD 2000
 90
        0
280
     0
281
     0
  0
CLASS
  1
SORTENTSTABLE
  2
AcDbSortentsTable
  3
AutoCAD 2000
 90
        0
280
     0
281
     0
  0
CLASS
  1
LAYER_INDEX
  2
AcDbLayerIndex
  3
AutoCAD 2000
 90
        0
280
     0
281
     0
  0
CLASS
  1
SPATIAL_INDEX
  2
AcDbSpatialIndex
  3
AutoCAD 2000
 90
        0
280
     0
281
     0
  0
CLASS
  1
OBJECT_PTR
  2
CAseDLPNTableRecord
  3
ASE-LPNTableRecord
 90
        1
280
     1
281
     0
  0
CLASS
  1
LAYOUT
  2
AcDbLayout
  3
ObjectDBX Classes
 90
        0
280
     0
281
     0
  0
CLASS
  1
PLOTSETTINGS
  2
AcDbPlotSettings
  3
AutoCAD 2000
 90
        0
280
     0
281
     0
  0
CLASS
  1
ACDBDICTIONARYWDFLT
  2
AcDbDictionaryWithDefault
  3
AutoCAD 2000
 90
        0
280
     0
281
     0
  0
CLASS
  1
ACDBPLACEHOLDER
  2
AcDbPlaceHolder
  3
ObjectDBX Classes
 90
        0
280
     0
281
     0
  0
CLASS
  1
VBAPROJECT
  2
AcDbVbaProject
  3
ObjectDBX Classes
 90
        0
280
     0
281
     0
  0
CLASS
  1
WIPEOUT
  2
AcDbWipeout
  3
WipeOut|AutoCAD Express Tool|expresstools@autodesk.com
 90
      127
280
     0
281
     1
  0
CLASS
  1
WIPEOUTVARIABLES
  2
AcDbWipeoutVariables
  3
WipeOut|AutoCAD Express Tool|expresstools@autodesk.com
 90
        0
280
     0
281
     0
  0
CLASS
  1
RTEXT
  2
RText
  3
RText|AutoCAD Express Tool|expresstools@autodesk.com
 90
        0
280
     0
281
     1
  0
CLASS
  1
ARCALIGNEDTEXT
  2
AcDbArcAlignedText
  3
ATEXT|AutoCAD Express Tool|expresstools@autodesk.com
 90
        0
280
     0
281
     1
  0
CLASS
  1
LONG_TRANSACTION
  2
AcDbLongTransaction
  3
AutoCAD 2000
 90
        0
280
     1
281
     0
  0
CLASS
  1
LWPOLYLINE
  2
AcDbPolyline
  3
AutoCAD 2000
 90
        0
280
     0
281
     1
  0
CLASS
  1
HATCH
  2
AcDbHatch
  3
AutoCAD 2000
 90
        0
280
     0
281
     1
  0
CLASS
  1
XRECORD
  2
AcDbXrecord
  3
AutoCAD 2000
 90
        0
280
     0
281
     0
  0
ENDSEC
  0
SECTION
  2
TABLES
  0
TABLE
  2
VPORT
  5
7
330
0
100
AcDbSymbolTable
 70
     2
  0
VPORT
  5
9D
330
7
100
AcDbSymbolTableRecord
100
AcDbViewportTableRecord
  2
*Active
 70
     0
 10
0.0
 20
0.0
 11
1.0
 21
1.0
 12
107.011667232613
 22
142.2226954915674
 13
0.0
 23
0.0
 14
1.0
 24
1.0
 15
0.0
 25
0.0
 16
0.0
 26
0.0
 36
1.0
 17
0.0
 27
0.0
 37
0.0
 40
72.85051437093381
 41
1.836842105263158
 42
50.0
 43
0.0
 44
0.0
 50
0.0
 51
0.0
 71
     0
 72
   100
 73
     1
 74
     1
 75
     0
 76
     0
 77
     0
 78
     0
281
     0
 65
     1
110
0.0
120
0.0
130
0.0
111
1.0
121
0.0
131
0.0
112
0.0
122
1.0
132
0.0
 79
     0
146
0.0
  0
ENDTAB
  0
TABLE
  2
LTYPE
  5
4
330
0
100
AcDbSymbolTable
 70
     1
  0
LTYPE
  5
11
330
4
100
AcDbSymbolTableRecord
100
AcDbLinetypeTableRecord
  2
BYBLOCK
 70
     0
  3

 72
    65
 73
     0
 40
0.0
  0
LTYPE
  5
12
330
4
100
AcDbSymbolTableRecord
100
AcDbLinetypeTableRecord
  2
BYLAYER
 70
     0
  3

 72
    65
 73
     0
 40
0.0
  0
LTYPE
  5
13
330
4
100
AcDbSymbolTableRecord
100
AcDbLinetypeTableRecord
  2
CONTINUOUS
 70
     0
  3
Solid line
 72
    65
 73
     0
 40
0.0
  0
ENDTAB
  0
TABLE
  2
LAYER
  5
2
330
0
100
AcDbSymbolTable
 70
     2
  0
LAYER
  5
14
330
2
100
AcDbSymbolTableRecord
100
AcDbLayerTableRecord
  2
0
 70
     0
 62
     7
  6
CONTINUOUS
370
    -3
390
0
  0
LAYER
  5
21
330
2
100
AcDbSymbolTableRecord
100
AcDbLayerTableRecord
  2
LAYER_1
 70
     0
 62
     5
  6
CONTINUOUS
370
    -3
390
0
  0
ENDTAB
  0
TABLE
  2
STYLE
  5
3
330
0
100
AcDbSymbolTable
 70
     5
  0
STYLE
  5
17
330
3
100
AcDbSymbolTableRecord
100
AcDbTextStyleTableRecord
  2
STANDARD
 70
     0
 40
0.0
 41
1.0
 50
0.0
 71
     0
 42
0.2
  3
txt
  4

  0
STYLE
  5
1D
330
3
100
AcDbSymbolTableRecord
100
AcDbTextStyleTableRecord
  2
STD
 70
     0
 40
0.0
 41
1.0
 50
0.0
 71
     0
 42
0.2
  3
txt
  4

  0
STYLE
  5
1E
330
3
100
AcDbSymbolTableRecord
100
AcDbTextStyleTableRecord
  2
TATESTD
 70
     4
 40
0.0
 41
1.0
 50
0.0
 71
     0
 42
0.2
  3
txt
  4

  0
STYLE
  5
1F
330
3
100
AcDbSymbolTableRecord
100
AcDbTextStyleTableRecord
  2
KANJISTD
 70
     0
 40
0.0
 41
1.0
 50
0.0
 71
     0
 42
0.2
  3
txt
  4
extfont
  0
STYLE
  5
20
330
3
100
AcDbSymbolTableRecord
100
AcDbTextStyleTableRecord
  2
KANJITATE
 70
     4
 40
0.0
 41
1.0
 50
0.0
 71
     0
 42
0.2
  3
txt
  4
extfont
  0
ENDTAB
  0
TABLE
  2
VIEW
  5
5
330
0
100
AcDbSymbolTable
 70
     0
  0
ENDTAB
  0
TABLE
  2
UCS
  5
6
330
0
100
AcDbSymbolTable
 70
     0
  0
ENDTAB
  0
TABLE
  2
APPID
  5
8
330
0
100
AcDbSymbolTable
 70
     1
  0
APPID
  5
16
330
8
100
AcDbSymbolTableRecord
100
AcDbRegAppTableRecord
  2
ACAD
 70
     0
  0
ENDTAB
  0
TABLE
  2
DIMSTYLE
  5
9
330
0
100
AcDbSymbolTable
 70
     1
100
AcDbDimStyleTable
  0
DIMSTYLE
105
18
330
9
100
AcDbSymbolTableRecord
100
AcDbDimStyleTableRecord
  2
STANDARD
 70
     0
  3

  4

289
     0
340
17
  0
ENDTAB
  0
TABLE
  2
BLOCK_RECORD
  5
1
330
0
100
AcDbSymbolTable
 70
     0
  0
BLOCK_RECORD
  5
A
330
1
100
AcDbSymbolTableRecord
100
AcDbBlockTableRecord
  2
*MODEL_SPACE
340
98
  0
BLOCK_RECORD
  5
B
330
1
100
AcDbSymbolTableRecord
100
AcDbBlockTableRecord
  2
*PAPER_SPACE
340
99
  0
ENDTAB
  0
ENDSEC
  0
SECTION
  2
BLOCKS
  0
BLOCK
  5
D
330
A
100
AcDbEntity
  8
0
100
AcDbBlockBegin
  2
*MODEL_SPACE
 70
     0
 10
0.0
 20
0.0
 30
0.0
  3
*MODEL_SPACE
  1

  4

  0
ENDBLK
  5
E
330
A
100
AcDbEntity
  8
0
100
AcDbBlockEnd
  0
BLOCK
  5
F
330
B
100
AcDbEntity
 67
     1
  8
0
100
AcDbBlockBegin
  2
*PAPER_SPACE
 70
     0
 10
0.0
 20
0.0
 30
0.0
  3
*PAPER_SPACE
  1

  4

  0
ENDBLK
  5
10
330
B
100
AcDbEntity
 67
     1
  8
0
100
AcDbBlockEnd
  0
ENDSEC
  0
SECTION
  2
ENTITIES
  0
LWPOLYLINE
  5
7F
330
A
100
AcDbEntity
  8
LAYER_1
 62
     7
100
AcDbPolyline
 90
       18
 70
     1
 43
0.0
 10
91.67192382812499
 20
178.0800862630208
 10
79.98013102213541
 20
174.9464274088542
 10
79.78427734374999
 20
168.6620564778646
 10
81.94159613715277
 20
166.7457221137153
 10
78.29547932942708
 20
164.5098551432292
 10
79.88074001736111
 20
163.2923583984375
 10
79.90485568576388
 20
161.46611328125
 10
68.36378580729166
 20
158.1092122395833
 10
68.45404730902777
 20
142.5602905273437
 10
70.57553710937499
 20
139.5983696831597
 10
67.06791314019097
 20
134.906494140625
 10
68.56256781684027
 20
132.55625
 10
68.61700032552082
 20
115.6515109592014
 10
79.09129638671874
 20
111.004938422309
 10
100.9981418185764
 20
119.2554253472222
 10
133.5484375
 20
106.6115804036458
 10
146.1862535264757
 20
111.9449327256944
 10
146.119935438368
 20
164.8471299913194
  0
SPLINE
  5
7E
330
A
100
AcDbEntity
  8
LAYER_1
 62
     7
100
AcDbSpline
210
0.0
220
0.0
230
1.0
 70
     8
 71
     3
 72
    62
 73
    58
 74
     0
 42
0.0000000001
 43
0.0000000001
 40
0.0
 40
0.0
 40
0.0
 40
0.0
 40
1.0
 40
1.0
 40
1.0
 40
2.0
 40
2.0
 40
2.0
 40
3.0
 40
3.0
 40
3.0
 40
4.0
 40
4.0
 40
4.0
 40
5.0
 40
5.0
 40
5.0
 40
6.0
 40
6.0
 40
6.0
 40
7.0
 40
7.0
 40
7.0
 40
8.0
 40
8.0
 40
8.0
 40
9.0
 40
9.0
 40
9.0
 40
10.0
 40
10.0
 40
10.0
 40
11.0
 40
11.0
 40
11.0
 40
12.0
 40
12.0
 40
12.0
 40
13.0
 40
13.0
 40
13.0
 40
14.0
 40
14.0
 40
14.0
 40
15.0
 40
15.0
 40
15.0
 40
16.0
 40
16.0
 40
16.0
 40
17.0
 40
17.0
 40
17.0
 40
18.0
 40
18.0
 40
18.0
 40
19.0
 40
19.0
 40
19.0
 40
19.0
 10
68.51433648003471
 20
152.0825344509549
 30
0.0
 10
68.51433648003471
 20
152.0825344509549
 30
0.0
 10
69.19233127170138
 20
149.6873318142361
 30
0.0
 10
69.2825927734375
 20
149.1447292751736
 30
0.0
 10
69.37319878472222
 20
148.6021267361111
 30
0.0
 10
69.8251953125
 20
145.2121527777778
 30
0.0
 10
70.00606282552083
 20
144.7605007595486
 30
0.0
 10
70.18658582899305
 20
144.3081597222222
 30
0.0
 10
70.1417995876736
 20
142.3196506076389
 30
0.0
 10
70.1417995876736
 20
142.0934800889757
 30
0.0
 10
70.1417995876736
 20
141.8673095703125
 30
0.0
 10
71.22614339192708
 20
140.6017537434896
 30
0.0
 10
71.22614339192708
 20
140.6017537434896
 30
0.0
 10
71.72344292534721
 20
140.3760999891493
 30
0.0
 10
71.63318142361111
 20
140.104798719618
 30
0.0
 10
71.81404893663193
 20
139.8334974500868
 30
0.0
 10
71.99491644965278
 20
139.5621961805555
 30
0.0
 10
71.3169216579861
 20
138.9296766493056
 30
0.0
 10
71.3169216579861
 20
138.9296766493056
 30
0.0
 10
71.3169216579861
 20
138.9296766493056
 30
0.0
 10
70.54832085503472
 20
137.2570827907986
 30
0.0
 10
70.50319010416666
 20
136.8953477647569
 30
0.0
 10
70.4578870985243
 20
136.5339572482639
 30
0.0
 10
69.55406629774305
 20
134.5452758789062
 30
0.0
 10
69.73493381076388
 20
134.2288438585069
 30
0.0
 10
69.91580132378472
 20
133.9122395833333
 30
0.0
 10
70.09666883680555
 20
133.4600708007812
 30
0.0
 10
70.54832085503472
 20
133.0082465277778
 30
0.0
 10
71.0004896375868
 20
132.55625
 30
0.0
 10
71.58787841796874
 20
131.9688612196181
 30
0.0
 10
71.63318142361111
 20
131.7426907009549
 30
0.0
 10
71.67831217447916
 20
131.5165201822917
 30
0.0
 10
71.48848741319443
 20
131.2000881618924
 30
0.0
 10
71.66935492621528
 20
130.567396375868
 30
0.0
 10
71.66935492621528
 20
130.567396375868
 30
0.0
 10
71.81404893663193
 20
129.4374050564236
 30
0.0
 10
71.90431043836804
 20
128.7597547743056
 30
0.0
 10
71.99491644965278
 20
128.0814154730903
 30
0.0
 10
72.44656846788193
 20
125.0531765407986
 30
0.0
 10
72.62743598090277
 20
124.2849202473958
 30
0.0
 10
72.8083034939236
 20
123.5163194444444
 30
0.0
 10
73.0343017578125
 20
122.4765896267361
 30
0.0
 10
73.07960476345485
 20
121.7531195746528
 30
0.0
 10
73.12490776909722
 20
121.0301662868924
 30
0.0
 10
73.44133978949652
 20
120.0810424804687
 30
0.0
 10
73.576904296875
 20
119.5384399414062
 30
0.0
 10
73.71229654947916
 20
118.9963541666667
 30
0.0
 10
73.93829481336805
 20
116.600634765625
 30
0.0
 10
74.16429307725694
 20
116.1036797417535
 30
0.0
 10
74.39046359592014
 20
115.6063802083333
 30
0.0
 10
74.11916232638889
 20
115.2446451822917
 30
0.0
 10
74.30002983940972
 20
114.7475179036458
 30
0.0
 10
74.48089735243055
 20
114.2502183702257
 30
0.0
 10
74.5260281032986
 20
114.2502183702257
 30
0.0
 10
74.5260281032986
 20
113.8890001085069
 30
0.0
 10
74.5260281032986
 20
113.5267483181424
 30
0.0
 10
74.7521986219618
 20
113.4187445746528
 30
0.0
 10
74.7521986219618
 20
113.1021402994792
 30
0.0
  0
SPLINE
  5
7D
330
A
100
AcDbEntity
  8
LAYER_1
 62
     7
100
AcDbSpline
210
0.0
220
0.0
230
1.0
 70
     8
 71
     3
 72
    32
 73
    28
 74
     0
 42
0.0000000001
 43
0.0000000001
 40
0.0
 40
0.0
 40
0.0
 40
0.0
 40
1.0
 40
1.0
 40
1.0
 40
2.0
 40
2.0
 40
2.0
 40
3.0
 40
3.0
 40
3.0
 40
4.0
 40
4.0
 40
4.0
 40
5.0
 40
5.0
 40
5.0
 40
6.0
 40
6.0
 40
6.0
 40
7.0
 40
7.0
 40
7.0
 40
8.0
 40
8.0
 40
8.0
 40
9.0
 40
9.0
 40
9.0
 40
9.0
 10
69.91580132378472
 20
157.4615342881944
 30
0.0
 10
69.91580132378472
 20
157.4615342881944
 30
0.0
 10
70.18658582899305
 20
156.1055447048611
 30
0.0
 10
70.27701958550347
 20
155.7438096788194
 30
0.0
 10
70.36745334201389
 20
155.3824191623264
 30
0.0
 10
70.21380208333332
 20
153.574260796441
 30
0.0
 10
70.43980034722222
 20
153.1672227647569
 30
0.0
 10
70.43980034722222
 20
153.1672227647569
 30
0.0
 10
70.7743191189236
 20
151.3142781575521
 30
0.0
 10
70.72918836805555
 20
150.907240125868
 30
0.0
 10
70.68405761718749
 20
150.5007188585069
 30
0.0
 10
70.95518663194444
 20
148.4669067382812
 30
0.0
 10
70.91005588107639
 20
148.1504747178819
 30
0.0
 10
70.86492513020832
 20
147.8338704427083
 30
0.0
 10
71.09092339409722
 20
146.477880859375
 30
0.0
 10
71.13605414496527
 20
146.16162109375
 30
0.0
 10
71.18135715060764
 20
145.8451890733507
 30
0.0
 10
71.13605414496527
 20
144.6247639973958
 30
0.0
 10
71.36222466362847
 20
144.2630289713542
 30
0.0
 10
71.58787841796874
 20
143.9016384548611
 30
0.0
 10
71.13605414496527
 20
142.2290445963542
 30
0.0
 10
71.99491644965278
 20
141.4604437934028
 30
0.0
 10
72.85343424479166
 20
140.6921875
 30
0.0
 10
72.89873725043402
 20
140.1499294704861
 30
0.0
 10
73.07960476345485
 20
139.8788004557292
 30
0.0
 10
73.26047227647568
 20
139.6073269314236
 30
0.0
 10
74.30002983940972
 20
138.848200141059
 30
0.0
 10
74.57133110894097
 20
138.4864651150174
 30
0.0
  0
SPLINE
  5
7C
330
A
100
AcDbEntity
  8
LAYER_1
 62
     7
100
AcDbSpline
210
0.0
220
0.0
230
1.0
 70
     8
 71
     3
 72
    23
 73
    19
 74
     0
 42
0.0000000001
 43
0.0000000001
 40
0.0
 40
0.0
 40
0.0
 40
0.0
 40
1.0
 40
1.0
 40
1.0
 40
2.0
 40
2.0
 40
2.0
 40
3.0
 40
3.0
 40
3.0
 40
4.0
 40
4.0
 40
4.0
 40
5.0
 40
5.0
 40
5.0
 40
6.0
 40
6.0
 40
6.0
 40
6.0
 10
73.84786105685764
 20
138.7035061306424
 30
0.0
 10
73.84786105685764
 20
138.7035061306424
 30
0.0
 10
73.26047227647568
 20
137.2570827907986
 30
0.0
 10
73.07960476345485
 20
136.986126030816
 30
0.0
 10
72.89873725043402
 20
136.7148247612847
 30
0.0
 10
72.46465521918402
 20
135.4490966796875
 30
0.0
 10
72.41986897786458
 20
135.1326646592882
 30
0.0
 10
72.37456597222221
 20
134.8162326388889
 30
0.0
 10
71.81404893663193
 20
133.5053738064236
 30
0.0
 10
71.81404893663193
 20
133.3248508029514
 30
0.0
 10
71.81404893663193
 20
133.3248508029514
 30
0.0
 10
72.35665147569443
 20
132.55625
 30
0.0
 10
72.58264973958333
 20
132.3300794813368
 30
0.0
 10
72.8083034939236
 20
132.1044257269965
 30
0.0
 10
73.3509060329861
 20
131.6522569444445
 30
0.0
 10
73.576904296875
 20
131.5165201822917
 30
0.0
 10
73.80255805121527
 20
131.3809556749132
 30
0.0
 10
74.16429307725694
 20
130.7482638888889
 30
0.0
 10
74.30002983940972
 20
130.522265625
 30
0.0
  0
SPLINE
  5
7B
330
A
100
AcDbEntity
  8
LAYER_1
 62
     7
100
AcDbSpline
210
0.0
220
0.0
230
1.0
 70
     8
 71
     3
 72
    23
 73
    19
 74
     0
 42
0.0000000001
 43
0.0000000001
 40
0.0
 40
0.0
 40
0.0
 40
0.0
 40
1.0
 40
1.0
 40
1.0
 40
2.0
 40
2.0
 40
2.0
 40
3.0
 40
3.0
 40
3.0
 40
4.0
 40
4.0
 40
4.0
 40
5.0
 40
5.0
 40
5.0
 40
6.0
 40
6.0
 40
6.0
 40
6.0
 10
73.576904296875
 20
130.7031331380208
 30
0.0
 10
73.576904296875
 20
130.7031331380208
 30
0.0
 10
73.84786105685764
 20
127.1322916666667
 30
0.0
 10
73.9834255642361
 20
126.4544691297743
 30
0.0
 10
74.11916232638889
 20
125.7763020833333
 30
0.0
 10
74.43576660156249
 20
122.6123263888889
 30
0.0
 10
74.66176486545139
 20
122.1148546006944
 30
0.0
 10
74.88741861979166
 20
121.6180718315972
 30
0.0
 10
75.24915364583333
 20
119.312786187066
 30
0.0
 10
75.47515190972221
 20
118.8154866536458
 30
0.0
 10
75.70132242838541
 20
118.3180148654514
 30
0.0
 10
75.92749294704861
 20
116.5102010091146
 30
0.0
 10
76.10784369574652
 20
116.1937689887153
 30
0.0
 10
76.28871120876735
 20
115.8775092230903
 30
0.0
 10
76.65044623480902
 20
113.8890001085069
 30
0.0
 10
76.83131374782985
 20
113.4366590711805
 30
0.0
 10
77.01218126085068
 20
112.9846625434028
 30
0.0
 10
77.01218126085068
 20
112.1258002387153
 30
0.0
 10
77.01218126085068
 20
111.9902357313368
 30
0.0
  0
SPLINE
  5
7A
330
A
100
AcDbEntity
  8
LAYER_1
 62
     7
100
AcDbSpline
210
0.0
220
0.0
230
1.0
 70
     8
 71
     3
 72
    17
 73
    13
 74
     0
 42
0.0000000001
 43
0.0000000001
 40
0.0
 40
0.0
 40
0.0
 40
0.0
 40
1.0
 40
1.0
 40
1.0
 40
2.0
 40
2.0
 40
2.0
 40
3.0
 40
3.0
 40
3.0
 40
4.0
 40
4.0
 40
4.0
 40
4.0
 10
68.65007324218749
 20
123.7874484592014
 30
0.0
 10
68.65007324218749
 20
123.7874484592014
 30
0.0
 10
69.10224202473958
 20
121.0754692925347
 30
0.0
 10
69.23746202256943
 20
120.5779975043403
 30
0.0
 10
69.37319878472222
 20
120.0810424804687
 30
0.0
 10
69.87049831814235
 20
117.8663628472222
 30
0.0
 10
69.87049831814235
 20
117.8663628472222
 30
0.0
 10
70.00606282552083
 20
117.3688910590278
 30
0.0
 10
70.06945258246527
 20
115.8775092230903
 30
0.0
 10
70.11458333333333
 20
115.561077202691
 30
0.0
 10
70.15936957465277
 20
115.2446451822917
 30
0.0
 10
70.15936957465277
 20
115.0641221788194
 30
0.0
 10
70.15936957465277
 20
115.0641221788194
 30
0.0
  0
SPLINE
  5
79
330
A
100
AcDbEntity
  8
LAYER_1
 62
     7
100
AcDbSpline
210
0.0
220
0.0
230
1.0
 70
     8
 71
     3
 72
    29
 73
    25
 74
     0
 42
0.0000000001
 43
0.0000000001
 40
0.0
 40
0.0
 40
0.0
 40
0.0
 40
1.0
 40
1.0
 40
1.0
 40
2.0
 40
2.0
 40
2.0
 40
3.0
 40
3.0
 40
3.0
 40
4.0
 40
4.0
 40
4.0
 40
5.0
 40
5.0
 40
5.0
 40
6.0
 40
6.0
 40
6.0
 40
7.0
 40
7.0
 40
7.0
 40
8.0
 40
8.0
 40
8.0
 40
8.0
 10
69.23746202256943
 20
132.4205132378472
 30
0.0
 10
69.23746202256943
 20
132.4205132378472
 30
0.0
 10
69.14702826605902
 20
131.5165201822917
 30
0.0
 10
69.32789577907985
 20
131.2000881618924
 30
0.0
 10
69.50876329210068
 20
130.8840006510417
 30
0.0
 10
69.78006456163193
 20
129.2114067925347
 30
0.0
 10
69.8251953125
 20
128.6691487630208
 30
0.0
 10
69.87049831814235
 20
128.1265462239583
 30
0.0
 10
70.18658582899305
 20
125.8214328342014
 30
0.0
 10
70.2317165798611
 20
125.2340440538194
 30
0.0
 10
70.27701958550347
 20
124.6463107638889
 30
0.0
 10
70.72918836805555
 20
122.7931939019097
 30
0.0
 10
70.81962212456597
 20
122.4314588758681
 30
0.0
 10
70.91005588107639
 20
122.0697238498264
 30
0.0
 10
71.36222466362847
 20
119.5384399414062
 30
0.0
 10
71.40701090494791
 20
119.4032199435764
 30
0.0
 10
71.45231391059028
 20
119.2674831814236
 30
0.0
 10
71.72344292534721
 20
117.233154296875
 30
0.0
 10
71.81404893663193
 20
117.0075005425347
 30
0.0
 10
71.90431043836804
 20
116.7815022786458
 30
0.0
 10
72.31134847005208
 20
115.0184746636285
 30
0.0
 10
72.31134847005208
 20
115.0184746636285
 30
0.0
 10
72.31134847005208
 20
115.0184746636285
 30
0.0
 10
72.35665147569443
 20
114.566650390625
 30
0.0
 10
72.35665147569443
 20
114.2502183702257
 30
0.0
  0
SPLINE
  5
78
330
A
100
AcDbEntity
  8
LAYER_1
 62
     7
100
AcDbSpline
210
0.0
220
0.0
230
1.0
 70
     8
 71
     3
 72
    35
 73
    31
 74
     0
 42
0.0000000001
 43
0.0000000001
 40
0.0
 40
0.0
 40
0.0
 40
0.0
 40
1.0
 40
1.0
 40
1.0
 40
2.0
 40
2.0
 40
2.0
 40
3.0
 40
3.0
 40
3.0
 40
4.0
 40
4.0
 40
4.0
 40
5.0
 40
5.0
 40
5.0
 40
6.0
 40
6.0
 40
6.0
 40
7.0
 40
7.0
 40
7.0
 40
8.0
 40
8.0
 40
8.0
 40
9.0
 40
9.0
 40
9.0
 40
10.0
 40
10.0
 40
10.0
 40
10.0
 10
71.54257541232639
 20
157.0546685112847
 30
0.0
 10
71.54257541232639
 20
157.0546685112847
 30
0.0
 10
71.54257541232639
 20
155.6080729166667
 30
0.0
 10
71.54257541232639
 20
155.6080729166667
 30
0.0
 10
71.54257541232639
 20
155.6080729166667
 30
0.0
 10
71.67831217447916
 20
153.1224365234375
 30
0.0
 10
71.85917968749999
 20
152.6251369900174
 30
0.0
 10
72.04004720052083
 20
152.1278374565972
 30
0.0
 10
72.08517795138889
 20
150.5913248697917
 30
0.0
 10
72.08517795138889
 20
150.3198513454861
 30
0.0
 10
72.08517795138889
 20
150.0487223307292
 30
0.0
 10
72.35665147569443
 20
146.9298773871528
 30
0.0
 10
72.49221598307291
 20
146.6587483723958
 30
0.0
 10
72.62743598090277
 20
146.3872748480903
 30
0.0
 10
72.58264973958333
 20
144.8960652669271
 30
0.0
 10
72.85343424479166
 20
144.489027235243
 30
0.0
 10
73.12490776909722
 20
144.0821614583333
 30
0.0
 10
73.26047227647568
 20
143.1781684027778
 30
0.0
 10
73.26047227647568
 20
142.8164333767361
 30
0.0
 10
73.26047227647568
 20
142.4552151150174
 30
0.0
 10
73.30577528211805
 20
141.8673095703125
 30
0.0
 10
73.48664279513888
 20
141.3705268012153
 30
0.0
 10
73.66751030815972
 20
140.8730550130208
 30
0.0
 10
74.25489908854166
 20
140.1499294704861
 30
0.0
 10
74.57133110894097
 20
139.9239312065972
 30
0.0
 10
74.88741861979166
 20
139.6979329427083
 30
0.0
 10
75.36663140190971
 20
139.3365424262153
 30
0.0
 10
75.59280192057291
 20
139.0199381510417
 30
0.0
 10
75.81897243923611
 20
138.7035061306424
 30
0.0
 10
76.3429714626736
 20
137.8353420681424
 30
0.0
 10
76.3429714626736
 20
137.8353420681424
 30
0.0
  0
SPLINE
  5
77
330
A
100
AcDbEntity
  8
LAYER_1
 62
     7
100
AcDbSpline
210
0.0
220
0.0
230
1.0
 70
     8
 71
     3
 72
    47
 73
    43
 74
     0
 42
0.0000000001
 43
0.0000000001
 40
0.0
 40
0.0
 40
0.0
 40
0.0
 40
1.0
 40
1.0
 40
1.0
 40
2.0
 40
2.0
 40
2.0
 40
3.0
 40
3.0
 40
3.0
 40
4.0
 40
4.0
 40
4.0
 40
5.0
 40
5.0
 40
5.0
 40
6.0
 40
6.0
 40
6.0
 40
7.0
 40
7.0
 40
7.0
 40
8.0
 40
8.0
 40
8.0
 40
9.0
 40
9.0
 40
9.0
 40
10.0
 40
10.0
 40
10.0
 40
11.0
 40
11.0
 40
11.0
 40
12.0
 40
12.0
 40
12.0
 40
13.0
 40
13.0
 40
13.0
 40
14.0
 40
14.0
 40
14.0
 40
14.0
 10
76.06254069010416
 20
137.8448160807292
 30
0.0
 10
76.06254069010416
 20
137.8448160807292
 30
0.0
 10
75.61088867187499
 20
136.6696940104167
 30
0.0
 10
75.52045491536458
 20
136.4435234917535
 30
0.0
 10
75.43002115885416
 20
136.2173529730903
 30
0.0
 10
74.93254937065971
 20
134.6353651258681
 30
0.0
 10
74.70655110677083
 20
134.273974609375
 30
0.0
 10
74.48089735243055
 20
133.9122395833333
 30
0.0
 10
74.16429307725694
 20
132.9631157769097
 30
0.0
 10
74.16429307725694
 20
132.7822482638889
 30
0.0
 10
74.16429307725694
 20
132.601380750868
 30
0.0
 10
74.61663411458332
 20
132.1044257269965
 30
0.0
 10
74.7521986219618
 20
131.9688612196181
 30
0.0
 10
74.88741861979166
 20
131.8331244574653
 30
0.0
 10
75.79175618489583
 20
130.7031331380208
 30
0.0
 10
76.0174099392361
 20
130.567396375868
 30
0.0
 10
76.243408203125
 20
130.4318318684896
 30
0.0
 10
76.69574924045138
 20
129.9977498372396
 30
0.0
 10
76.87661675347222
 20
129.7720960828993
 30
0.0
 10
76.87661675347222
 20
129.7720960828993
 30
0.0
 10
76.74087999131943
 20
129.6635755750868
 30
0.0
 10
76.65044623480902
 20
129.4374050564236
 30
0.0
 10
76.5600124782986
 20
129.2114067925347
 30
0.0
 10
76.19827745225693
 20
127.9005479600694
 30
0.0
 10
76.243408203125
 20
127.5391574435764
 30
0.0
 10
76.28871120876735
 20
127.1774224175347
 30
0.0
 10
76.33401421440972
 20
124.6010077582465
 30
0.0
 10
76.37914496527777
 20
124.2849202473958
 30
0.0
 10
76.42427571614583
 20
123.9683159722222
 30
0.0
 10
76.46957872178818
 20
122.3410251193576
 30
0.0
 10
76.74087999131943
 20
122.0697238498264
 30
0.0
 10
77.01218126085068
 20
121.7984225802951
 30
0.0
 10
77.46400553385416
 20
119.7646104600694
 30
0.0
 10
77.59957004123264
 20
119.4032199435764
 30
0.0
 10
77.7351345486111
 20
119.0414849175347
 30
0.0
 10
78.18747558593749
 20
117.233154296875
 30
0.0
 10
78.27739257812499
 20
117.0075005425347
 30
0.0
 10
78.36782633463541
 20
116.7815022786458
 30
0.0
 10
78.68425835503471
 20
116.2840304904514
 30
0.0
 10
78.77486436631943
 20
115.6966417100694
 30
0.0
 10
78.86512586805554
 20
115.1089084201389
 30
0.0
 10
78.91042887369791
 20
114.7928209092882
 30
0.0
 10
78.91042887369791
 20
114.7928209092882
 30
0.0
  0
SPLINE
  5
76
330
A
100
AcDbEntity
  8
LAYER_1
 62
     7
100
AcDbSpline
210
0.0
220
0.0
230
1.0
 70
     8
 71
     3
 72
    14
 73
    10
 74
     0
 42
0.0000000001
 43
0.0000000001
 40
0.0
 40
0.0
 40
0.0
 40
0.0
 40
1.0
 40
1.0
 40
1.0
 40
2.0
 40
2.0
 40
2.0
 40
3.0
 40
3.0
 40
3.0
 40
3.0
 10
78.50339084201389
 20
129.1662760416667
 30
0.0
 10
78.50339084201389
 20
129.1662760416667
 30
0.0
 10
78.05173882378472
 20
128.0814154730903
 30
0.0
 10
78.32304009331597
 20
127.7200249565972
 30
0.0
 10
78.59399685329861
 20
127.3582899305555
 30
0.0
 10
78.59399685329861
 20
126.8609903971354
 30
0.0
 10
78.72956136067708
 20
126.7254258897569
 30
0.0
 10
78.86512586805554
 20
126.5896891276042
 30
0.0
 10
78.95573187934028
 20
126.3183878580729
 30
0.0
 10
78.95573187934028
 20
126.3183878580729
 30
0.0
  0
SPLINE
  5
75
330
A
100
AcDbEntity
  8
LAYER_1
 62
     7
100
AcDbSpline
210
0.0
220
0.0
230
1.0
 70
     8
 71
     3
 72
    50
 73
    46
 74
     0
 42
0.0000000001
 43
0.0000000001
 40
0.0
 40
0.0
 40
0.0
 40
0.0
 40
1.0
 40
1.0
 40
1.0
 40
2.0
 40
2.0
 40
2.0
 40
3.0
 40
3.0
 40
3.0
 40
4.0
 40
4.0
 40
4.0
 40
5.0
 40
5.0
 40
5.0
 40
6.0
 40
6.0
 40
6.0
 40
7.0
 40
7.0
 40
7.0
 40
8.0
 40
8.0
 40
8.0
 40
9.0
 40
9.0
 40
9.0
 40
10.0
 40
10.0
 40
10.0
 40
11.0
 40
11.0
 40
11.0
 40
12.0
 40
12.0
 40
12.0
 40
13.0
 40
13.0
 40
13.0
 40
14.0
 40
14.0
 40
14.0
 40
15.0
 40
15.0
 40
15.0
 40
15.0
 10
73.53177354600693
 20
156.4672797309028
 30
0.0
 10
73.44133978949652
 20
156.1959784613715
 30
0.0
 10
73.30577528211805
 20
155.4272054036458
 30
0.0
 10
73.39603678385416
 20
155.1112901475694
 30
0.0
 10
73.48664279513888
 20
154.7946858723958
 30
0.0
 10
73.53177354600693
 20
153.3033040364583
 30
0.0
 10
73.53177354600693
 20
153.0773057725694
 30
0.0
 10
73.53177354600693
 20
152.8513075086806
 30
0.0
 10
73.9834255642361
 20
150.4555881076389
 30
0.0
 10
74.02872856987847
 20
150.1389838324653
 30
0.0
 10
74.07403157552082
 20
149.822551812066
 30
0.0
 10
74.16429307725694
 20
147.5625691731771
 30
0.0
 10
74.11916232638889
 20
147.2912679036458
 30
0.0
 10
74.07403157552082
 20
147.0204833984375
 30
0.0
 10
74.30002983940972
 20
145.3478895399306
 30
0.0
 10
74.39046359592014
 20
145.076416015625
 30
0.0
 10
74.48089735243055
 20
144.8056315104167
 30
0.0
 10
74.7521986219618
 20
142.9073838975694
 30
0.0
 10
74.84263237847222
 20
142.6813856336806
 30
0.0
 10
74.93254937065971
 20
142.4552151150174
 30
0.0
 10
75.15871988932291
 20
141.0087917751736
 30
0.0
 10
75.24915364583333
 20
140.6470567491319
 30
0.0
 10
75.33958740234374
 20
140.2853217230903
 30
0.0
 10
75.83688693576389
 20
140.0143649631076
 30
0.0
 10
76.15314670138888
 20
139.7430636935764
 30
0.0
 10
76.46957872178818
 20
139.4717624240451
 30
0.0
 10
77.05748426649305
 20
139.065241156684
 30
0.0
 10
77.1925320095486
 20
138.8390706380208
 30
0.0
 10
77.32826877170139
 20
138.613072374132
 30
0.0
 10
78.68425835503471
 20
137.4379503038194
 30
0.0
 10
78.91042887369791
 20
137.3473442925347
 30
0.0
 10
79.13659939236111
 20
137.2570827907986
 30
0.0
 10
79.27216389973958
 20
137.0762152777778
 30
0.0
 10
79.49781765407985
 20
136.940478515625
 30
0.0
 10
79.72398817274305
 20
136.8052585177951
 30
0.0
 10
79.90485568576388
 20
136.7599555121528
 30
0.0
 10
79.90485568576388
 20
136.5790879991319
 30
0.0
 10
79.90485568576388
 20
136.3982204861111
 30
0.0
 10
79.45251464843749
 20
135.0422309027778
 30
0.0
 10
79.45251464843749
 20
135.0422309027778
 30
0.0
 10
79.45251464843749
 20
135.0422309027778
 30
0.0
 10
79.36259765624999
 20
134.4999728732639
 30
0.0
 10
79.09129638671874
 20
133.9573703342014
 30
0.0
 10
78.81999511718749
 20
133.4152845594618
 30
0.0
 10
78.81999511718749
 20
133.2797200520833
 30
0.0
 10
78.81999511718749
 20
133.2797200520833
 30
0.0
  0
SPLINE
  5
74
330
A
100
AcDbEntity
  8
LAYER_1
 62
     7
100
AcDbSpline
210
0.0
220
0.0
230
1.0
 70
     8
 71
     3
 72
    23
 73
    19
 74
     0
 42
0.0000000001
 43
0.0000000001
 40
0.0
 40
0.0
 40
0.0
 40
0.0
 40
1.0
 40
1.0
 40
1.0
 40
2.0
 40
2.0
 40
2.0
 40
3.0
 40
3.0
 40
3.0
 40
4.0
 40
4.0
 40
4.0
 40
5.0
 40
5.0
 40
5.0
 40
6.0
 40
6.0
 40
6.0
 40
6.0
 10
77.24351942274305
 20
154.9962239583333
 30
0.0
 10
77.24351942274305
 20
154.8153564453125
 30
0.0
 10
77.28313802083332
 20
153.7098253038194
 30
0.0
 10
77.28313802083332
 20
153.7098253038194
 30
0.0
 10
77.28313802083332
 20
153.7098253038194
 30
0.0
 10
77.23783501519097
 20
150.8173231336805
 30
0.0
 10
77.4187025282118
 20
150.5007188585069
 30
0.0
 10
77.59957004123264
 20
150.1842868381076
 30
0.0
 10
77.82574055989582
 20
148.0598687065972
 30
0.0
 10
77.9613050672743
 20
147.6530029296875
 30
0.0
 10
78.09686957465277
 20
147.2464816623264
 30
0.0
 10
78.18747558593749
 20
145.6643215603299
 30
0.0
 10
78.36782633463541
 20
145.3478895399306
 30
0.0
 10
78.54869384765624
 20
145.0312852647569
 30
0.0
 10
78.36782633463541
 20
144.6247639973958
 30
0.0
 10
78.68425835503471
 20
144.1272922092014
 30
0.0
 10
79.00086263020833
 20
143.6305094401042
 30
0.0
 10
78.86512586805554
 20
143.4496419270833
 30
0.0
 10
78.86512586805554
 20
143.4496419270833
 30
0.0
  0
SPLINE
  5
73
330
A
100
AcDbEntity
  8
LAYER_1
 62
     7
100
AcDbSpline
210
0.0
220
0.0
230
1.0
 70
     8
 71
     3
 72
    32
 73
    28
 74
     0
 42
0.0000000001
 43
0.0000000001
 40
0.0
 40
0.0
 40
0.0
 40
0.0
 40
1.0
 40
1.0
 40
1.0
 40
2.0
 40
2.0
 40
2.0
 40
3.0
 40
3.0
 40
3.0
 40
4.0
 40
4.0
 40
4.0
 40
5.0
 40
5.0
 40
5.0
 40
6.0
 40
6.0
 40
6.0
 40
7.0
 40
7.0
 40
7.0
 40
8.0
 40
8.0
 40
8.0
 40
9.0
 40
9.0
 40
9.0
 40
9.0
 10
75.24915364583333
 20
155.653375922309
 30
0.0
 10
75.24915364583333
 20
155.653375922309
 30
0.0
 10
75.61088867187499
 20
153.981298828125
 30
0.0
 10
75.61088867187499
 20
153.981298828125
 30
0.0
 10
75.61088867187499
 20
153.981298828125
 30
0.0
 10
75.65601942274304
 20
152.2180989583333
 30
0.0
 10
75.74662543402778
 20
152.0372314453125
 30
0.0
 10
75.83688693576389
 20
151.8563639322917
 30
0.0
 10
75.92749294704861
 20
149.822551812066
 30
0.0
 10
75.97227918836805
 20
149.4613335503472
 30
0.0
 10
76.0174099392361
 20
149.0995985243056
 30
0.0
 10
76.19827745225693
 20
147.6078721788194
 30
0.0
 10
76.15314670138888
 20
147.4721354166667
 30
0.0
 10
76.10784369574652
 20
147.3363986545139
 30
0.0
 10
76.29163953993054
 20
145.4701904296875
 30
0.0
 10
76.42427571614583
 20
144.8960652669271
 30
0.0
 10
76.5600124782986
 20
144.3081597222222
 30
0.0
 10
76.87661675347222
 20
143.1330376519097
 30
0.0
 10
76.87661675347222
 20
142.6360826280382
 30
0.0
 10
76.87661675347222
 20
142.1067437065972
 30
0.0
 10
76.92174750434027
 20
141.3705268012153
 30
0.0
 10
77.01218126085068
 20
140.8730550130208
 30
0.0
 10
77.1026150173611
 20
140.3760999891493
 30
0.0
 10
77.32826877170139
 20
140.05966796875
 30
0.0
 10
77.46400553385416
 20
139.7430636935764
 30
0.0
 10
77.59957004123264
 20
139.4269761827257
 30
0.0
 10
77.69000379774305
 20
139.2914116753472
 30
0.0
 10
77.69000379774305
 20
139.2914116753472
 30
0.0
  0
SPLINE
  5
72
330
A
100
AcDbEntity
  8
LAYER_1
 62
     7
100
AcDbSpline
210
0.0
220
0.0
230
1.0
 70
     8
 71
     3
 72
    17
 73
    13
 74
     0
 42
0.0000000001
 43
0.0000000001
 40
0.0
 40
0.0
 40
0.0
 40
0.0
 40
1.0
 40
1.0
 40
1.0
 40
2.0
 40
2.0
 40
2.0
 40
3.0
 40
3.0
 40
3.0
 40
4.0
 40
4.0
 40
4.0
 40
4.0
 10
78.18747558593749
 20
137.2117797851562
 30
0.0
 10
78.18747558593749
 20
137.2117797851562
 30
0.0
 10
77.64487304687499
 20
135.8104871961805
 30
0.0
 10
77.55426703559027
 20
135.4943996853299
 30
0.0
 10
77.46400553385416
 20
135.1779676649306
 30
0.0
 10
77.05748426649305
 20
134.0026733398437
 30
0.0
 10
76.96687825520833
 20
133.7313720703125
 30
0.0
 10
76.87661675347222
 20
133.4600708007812
 30
0.0
 10
76.5600124782986
 20
132.55625
 30
0.0
 10
76.51488172743055
 20
132.3753824869792
 30
0.0
 10
76.46957872178818
 20
132.194859483507
 30
0.0
 10
76.25253770616318
 20
131.7697347005208
 30
0.0
 10
76.38810221354166
 20
131.6341701931424
 30
0.0
  0
SPLINE
  5
71
330
A
100
AcDbEntity
  8
LAYER_1
 62
     7
100
AcDbSpline
210
0.0
220
0.0
230
1.0
 70
     8
 71
     3
 72
    26
 73
    22
 74
     0
 42
0.0000000001
 43
0.0000000001
 40
0.0
 40
0.0
 40
0.0
 40
0.0
 40
1.0
 40
1.0
 40
1.0
 40
2.0
 40
2.0
 40
2.0
 40
3.0
 40
3.0
 40
3.0
 40
4.0
 40
4.0
 40
4.0
 40
5.0
 40
5.0
 40
5.0
 40
6.0
 40
6.0
 40
6.0
 40
7.0
 40
7.0
 40
7.0
 40
7.0
 10
135.8928249782986
 20
161.6650675455729
 30
0.0
 10
135.7722466362847
 20
161.4842000325521
 30
0.0
 10
135.5310899522569
 20
160.6406684027778
 30
0.0
 10
135.5913791232639
 20
160.4598008897569
 30
0.0
 10
135.6516682942708
 20
160.2789333767361
 30
0.0
 10
135.5913791232639
 20
158.6518147786458
 30
0.0
 10
135.5913791232639
 20
158.410658094618
 30
0.0
 10
135.5913791232639
 20
158.1695014105903
 30
0.0
 10
135.1090657552083
 20
155.6986789279514
 30
0.0
 10
135.1090657552083
 20
155.4578667534722
 30
0.0
 10
135.1090657552083
 20
155.2167100694444
 30
0.0
 10
135.1090657552083
 20
153.4088962131076
 30
0.0
 10
135.0487765842014
 20
152.8060045030382
 30
0.0
 10
134.9884874131944
 20
152.2031127929687
 30
0.0
 10
134.4462293836805
 20
150.2144314236111
 30
0.0
 10
134.3256510416667
 20
149.7924072265625
 30
0.0
 10
134.2050726996528
 20
149.3707275390625
 30
0.0
 10
133.903626844618
 20
148.1051717122396
 30
0.0
 10
133.7833930121528
 20
147.683147515191
 30
0.0
 10
133.6628146701389
 20
147.2611233181424
 30
0.0
 10
133.4216579861111
 20
147.3219292534722
 30
0.0
 10
133.4216579861111
 20
147.0204833984375
 30
0.0
  0
SPLINE
  5
70
330
A
100
AcDbEntity
  8
LAYER_1
 62
     7
100
AcDbSpline
210
0.0
220
0.0
230
1.0
 70
     8
 71
     3
 72
    38
 73
    34
 74
     0
 42
0.0000000001
 43
0.0000000001
 40
0.0
 40
0.0
 40
0.0
 40
0.0
 40
1.0
 40
1.0
 40
1.0
 40
2.0
 40
2.0
 40
2.0
 40
3.0
 40
3.0
 40
3.0
 40
4.0
 40
4.0
 40
4.0
 40
5.0
 40
5.0
 40
5.0
 40
6.0
 40
6.0
 40
6.0
 40
7.0
 40
7.0
 40
7.0
 40
8.0
 40
8.0
 40
8.0
 40
9.0
 40
9.0
 40
9.0
 40
10.0
 40
10.0
 40
10.0
 40
11.0
 40
11.0
 40
11.0
 40
11.0
 10
137.7004665798611
 20
162.1473809136285
 30
0.0
 10
137.7004665798611
 20
162.1473809136285
 30
0.0
 10
137.7004665798611
 20
161.3636216905382
 30
0.0
 10
137.7004665798611
 20
160.8818250868056
 30
0.0
 10
137.7004665798611
 20
160.39951171875
 30
0.0
 10
137.821044921875
 20
159.3749403211805
 30
0.0
 10
137.7004665798611
 20
158.5915256076389
 30
0.0
 10
137.5860894097222
 20
157.8453179253472
 30
0.0
 10
137.3392483181424
 20
154.8549750434028
 30
0.0
 10
137.3392483181424
 20
154.8549750434028
 30
0.0
 10
137.3392483181424
 20
154.8549750434028
 30
0.0
 10
137.2186699761285
 20
152.8662936740451
 30
0.0
 10
137.2186699761285
 20
152.5648478190104
 30
0.0
 10
137.2186699761285
 20
152.2634019639757
 30
0.0
 10
136.6640096028646
 20
149.1898600260417
 30
0.0
 10
136.6037204318576
 20
149.0089925130208
 30
0.0
 10
136.5434312608507
 20
148.828125
 30
0.0
 10
136.0134033203125
 20
145.8150444878472
 30
0.0
 10
135.8928249782986
 20
145.3930202907986
 30
0.0
 10
135.7722466362847
 20
144.97099609375
 30
0.0
 10
135.7722466362847
 20
144.0072306315104
 30
0.0
 10
135.5310899522569
 20
143.404338921441
 30
0.0
 10
135.2899332682292
 20
142.8019639756944
 30
0.0
 10
135.47080078125
 20
140.5716091579861
 30
0.0
 10
135.2296440972222
 20
140.1499294704861
 30
0.0
 10
134.9884874131944
 20
139.7279052734375
 30
0.0
 10
134.5065185546875
 20
137.6188178168403
 30
0.0
 10
134.3256510416667
 20
136.6545355902778
 30
0.0
 10
134.1447835286458
 20
135.6902533637153
 30
0.0
 10
134.0844943576389
 20
134.7859157986111
 30
0.0
 10
133.903626844618
 20
134.3041191948785
 30
0.0
 10
133.7227593315972
 20
133.8218058268229
 30
0.0
 10
133.7954508463542
 20
133.7374009874132
 30
0.0
 10
133.5542941623264
 20
133.0144476996528
 30
0.0
  0
SPLINE
  5
6F
330
A
100
AcDbEntity
  8
LAYER_1
 62
     7
100
AcDbSpline
210
0.0
220
0.0
230
1.0
 70
     8
 71
     3
 72
    38
 73
    34
 74
     0
 42
0.0000000001
 43
0.0000000001
 40
0.0
 40
0.0
 40
0.0
 40
0.0
 40
1.0
 40
1.0
 40
1.0
 40
2.0
 40
2.0
 40
2.0
 40
3.0
 40
3.0
 40
3.0
 40
4.0
 40
4.0
 40
4.0
 40
5.0
 40
5.0
 40
5.0
 40
6.0
 40
6.0
 40
6.0
 40
7.0
 40
7.0
 40
7.0
 40
8.0
 40
8.0
 40
8.0
 40
9.0
 40
9.0
 40
9.0
 40
10.0
 40
10.0
 40
10.0
 40
11.0
 40
11.0
 40
11.0
 40
11.0
 10
139.9907660590278
 20
162.8100450303819
 30
0.0
 10
140.1113444010417
 20
162.4488267686632
 30
0.0
 10
139.749609375
 20
160.5200900607639
 30
0.0
 10
139.749609375
 20
160.5200900607639
 30
0.0
 10
139.749609375
 20
160.5200900607639
 30
0.0
 10
139.5687418619792
 20
158.832337782118
 30
0.0
 10
139.5087972005208
 20
158.2900797526042
 30
0.0
 10
139.4485080295139
 20
157.7474772135417
 30
0.0
 10
139.3279296875
 20
155.8192572699653
 30
0.0
 10
139.3279296875
 20
155.4578667534722
 30
0.0
 10
139.3279296875
 20
155.0961317274305
 30
0.0
 10
139.1470621744792
 20
153.4686686197917
 30
0.0
 10
139.0867730034722
 20
153.1074503580729
 30
0.0
 10
139.0264838324653
 20
152.7457153320312
 30
0.0
 10
138.4838812934028
 20
149.1295708550347
 30
0.0
 10
138.4239366319444
 20
148.6472574869792
 30
0.0
 10
138.3636474609375
 20
148.1654608832465
 30
0.0
 10
137.8813340928819
 20
145.1518636067708
 30
0.0
 10
137.8813340928819
 20
144.2478705512153
 30
0.0
 10
137.8813340928819
 20
143.344049750434
 30
0.0
 10
137.3392483181424
 20
139.3661702473958
 30
0.0
 10
137.3392483181424
 20
138.7035061306424
 30
0.0
 10
137.3392483181424
 20
138.040325249566
 30
0.0
 10
136.9172241210937
 20
136.1722222222222
 30
0.0
 10
136.7363566080729
 20
135.4490966796875
 30
0.0
 10
136.5554890950521
 20
134.7261433919271
 30
0.0
 10
135.8928249782986
 20
132.074281141493
 30
0.0
 10
135.7722466362847
 20
131.5919677734375
 30
0.0
 10
135.6516682942708
 20
131.1099989149305
 30
0.0
 10
135.1090657552083
 20
129.1812622070312
 30
0.0
 10
134.7476752387153
 20
128.0362847222222
 30
0.0
 10
134.3859402126736
 20
126.8911349826389
 30
0.0
 10
134.0362630208333
 20
125.6254069010417
 30
0.0
 10
133.6748725043403
 20
124.6010077582465
 30
0.0
  0
SPLINE
  5
6E
330
A
100
AcDbEntity
  8
LAYER_1
 62
     7
100
AcDbSpline
210
0.0
220
0.0
230
1.0
 70
     8
 71
     3
 72
    62
 73
    58
 74
     0
 42
0.0000000001
 43
0.0000000001
 40
0.0
 40
0.0
 40
0.0
 40
0.0
 40
1.0
 40
1.0
 40
1.0
 40
2.0
 40
2.0
 40
2.0
 40
3.0
 40
3.0
 40
3.0
 40
4.0
 40
4.0
 40
4.0
 40
5.0
 40
5.0
 40
5.0
 40
6.0
 40
6.0
 40
6.0
 40
7.0
 40
7.0
 40
7.0
 40
8.0
 40
8.0
 40
8.0
 40
9.0
 40
9.0
 40
9.0
 40
10.0
 40
10.0
 40
10.0
 40
11.0
 40
11.0
 40
11.0
 40
12.0
 40
12.0
 40
12.0
 40
13.0
 40
13.0
 40
13.0
 40
14.0
 40
14.0
 40
14.0
 40
15.0
 40
15.0
 40
15.0
 40
16.0
 40
16.0
 40
16.0
 40
17.0
 40
17.0
 40
17.0
 40
18.0
 40
18.0
 40
18.0
 40
19.0
 40
19.0
 40
19.0
 40
19.0
 10
141.5577677408854
 20
163.3526475694444
 30
0.0
 10
141.5577677408854
 20
163.1717800564236
 30
0.0
 10
141.6783460828993
 20
162.0268025716146
 30
0.0
 10
141.6783460828993
 20
162.0268025716146
 30
0.0
 10
141.6783460828993
 20
162.0268025716146
 30
0.0
 10
141.5577677408854
 20
160.4598008897569
 30
0.0
 10
141.5577677408854
 20
159.6763861762153
 30
0.0
 10
141.5577677408854
 20
158.892626953125
 30
0.0
 10
141.4974785698785
 20
157.325969780816
 30
0.0
 10
141.4371893988715
 20
156.6024997287326
 30
0.0
 10
141.3769002278646
 20
155.8795464409722
 30
0.0
 10
141.1960327148437
 20
154.3123725043403
 30
0.0
 10
141.1357435438368
 20
153.7098253038194
 30
0.0
 10
141.0754543728299
 20
153.1074503580729
 30
0.0
 10
141.1357435438368
 20
152.3236911349826
 30
0.0
 10
141.0754543728299
 20
151.901666937934
 30
0.0
 10
141.0151652018229
 20
151.4801595052083
 30
0.0
 10
140.6534301757812
 20
149.9732747395833
 30
0.0
 10
140.6534301757812
 20
149.3104383680555
 30
0.0
 10
140.6534301757812
 20
148.6472574869792
 30
0.0
 10
140.1113444010417
 20
147.2013509114583
 30
0.0
 10
140.0510552300347
 20
146.5984592013889
 30
0.0
 10
139.9907660590278
 20
145.995912000868
 30
0.0
 10
139.8098985460069
 20
145.6341769748264
 30
0.0
 10
139.8701877170139
 20
144.6698947482639
 30
0.0
 10
139.9304768880208
 20
143.7057847764757
 30
0.0
 10
139.5087972005208
 20
142.7411580403646
 30
0.0
 10
139.6293755425347
 20
141.8976264105903
 30
0.0
 10
139.749609375
 20
141.0539225260417
 30
0.0
 10
139.2073513454861
 20
139.6073269314236
 30
0.0
 10
139.388218858507
 20
139.0049519856771
 30
0.0
 10
139.5687418619792
 20
138.4020602756076
 30
0.0
 10
139.2073513454861
 20
136.7751139322917
 30
0.0
 10
139.2073513454861
 20
136.5339572482639
 30
0.0
 10
139.2073513454861
 20
136.2928005642361
 30
0.0
 10
138.9059054904514
 20
134.7261433919271
 30
0.0
 10
138.7853271484375
 20
133.761516655816
 30
0.0
 10
138.6647488064236
 20
132.7974066840278
 30
0.0
 10
138.2975016276042
 20
130.8809000651042
 30
0.0
 10
137.8754774305556
 20
130.0373684353299
 30
0.0
 10
137.4710232204861
 20
129.2286322699653
 30
0.0
 10
137.2789591471354
 20
127.0117133246528
 30
0.0
 10
137.0378024631076
 20
126.4091661241319
 30
0.0
 10
136.7966457790799
 20
125.8062744140625
 30
0.0
 10
136.3746215820312
 20
123.1549289279514
 30
0.0
 10
136.0736924913194
 20
122.3711697048611
 30
0.0
 10
135.7722466362847
 20
121.5877549913194
 30
0.0
 10
135.2899332682292
 20
120.3824883355035
 30
0.0
 10
135.1090657552083
 20
119.839885796441
 30
0.0
 10
134.9285427517361
 20
119.2978000217014
 30
0.0
 10
134.8682535807292
 20
118.4540961371528
 30
0.0
 10
134.6270968967014
 20
117.7909152560764
 30
0.0
 10
134.3859402126736
 20
117.1280788845486
 30
0.0
 10
134.0844943576389
 20
116.2840304904514
 30
0.0
 10
133.8433376736111
 20
115.8022338867187
 30
0.0
 10
133.6025254991319
 20
115.3199205186632
 30
0.0
 10
133.6025254991319
 20
115.0184746636285
 30
0.0
 10
133.6025254991319
 20
115.0184746636285
 30
0.0
  0
SPLINE
  5
6D
330
A
100
AcDbEntity
  8
LAYER_1
 62
     7
100
AcDbSpline
210
0.0
220
0.0
230
1.0
 70
     8
 71
     3
 72
    59
 73
    55
 74
     0
 42
0.0000000001
 43
0.0000000001
 40
0.0
 40
0.0
 40
0.0
 40
0.0
 40
1.0
 40
1.0
 40
1.0
 40
2.0
 40
2.0
 40
2.0
 40
3.0
 40
3.0
 40
3.0
 40
4.0
 40
4.0
 40
4.0
 40
5.0
 40
5.0
 40
5.0
 40
6.0
 40
6.0
 40
6.0
 40
7.0
 40
7.0
 40
7.0
 40
8.0
 40
8.0
 40
8.0
 40
9.0
 40
9.0
 40
9.0
 40
10.0
 40
10.0
 40
10.0
 40
11.0
 40
11.0
 40
11.0
 40
12.0
 40
12.0
 40
12.0
 40
13.0
 40
13.0
 40
13.0
 40
14.0
 40
14.0
 40
14.0
 40
15.0
 40
15.0
 40
15.0
 40
16.0
 40
16.0
 40
16.0
 40
17.0
 40
17.0
 40
17.0
 40
18.0
 40
18.0
 40
18.0
 40
18.0
 10
144.5107313368056
 20
164.3772189670139
 30
0.0
 10
144.5107313368056
 20
164.3772189670139
 30
0.0
 10
144.5710205078125
 20
162.9306233723958
 30
0.0
 10
144.5710205078125
 20
162.3282484266493
 30
0.0
 10
144.5710205078125
 20
161.7253567165799
 30
0.0
 10
144.7518880208333
 20
160.3392225477431
 30
0.0
 10
144.6915988498264
 20
160.0381212022569
 30
0.0
 10
144.6313096788194
 20
159.7366753472222
 30
0.0
 10
144.6313096788194
 20
158.832337782118
 30
0.0
 10
144.7518880208333
 20
158.3503689236111
 30
0.0
 10
144.8724663628472
 20
157.8685723198785
 30
0.0
 10
144.3901529947917
 20
156.4824381510417
 30
0.0
 10
144.2092854817708
 20
155.9398356119792
 30
0.0
 10
144.0287624782986
 20
155.3975775824653
 30
0.0
 10
144.2092854817708
 20
154.192138671875
 30
0.0
 10
143.9684733072917
 20
153.2878011067708
 30
0.0
 10
143.7273166232639
 20
152.3839803059896
 30
0.0
 10
143.8478949652778
 20
151.4198703342014
 30
0.0
 10
143.7876057942708
 20
150.8173231336805
 30
0.0
 10
143.7273166232639
 20
150.2144314236111
 30
0.0
 10
143.546449110243
 20
149.0089925130208
 30
0.0
 10
143.4861599392361
 20
147.9243041992187
 30
0.0
 10
143.4258707682292
 20
146.8396158854167
 30
0.0
 10
142.8836127387153
 20
145.3930202907986
 30
0.0
 10
142.9439019097222
 20
144.3081597222222
 30
0.0
 10
143.0041910807292
 20
143.2234714084201
 30
0.0
 10
141.9195027669271
 20
140.9936333550347
 30
0.0
 10
142.2807210286458
 20
139.7279052734375
 30
0.0
 10
142.6424560546875
 20
138.4623494466146
 30
0.0
 10
141.5577677408854
 20
136.8953477647569
 30
0.0
 10
141.5577677408854
 20
135.0270724826389
 30
0.0
 10
141.5577677408854
 20
135.0270724826389
 30
0.0
 10
141.1357435438368
 20
132.074281141493
 30
0.0
 10
141.0151652018229
 20
130.7482638888889
 30
0.0
 10
140.894586859809
 20
129.422418891059
 30
0.0
 10
140.7740085177951
 20
127.0117133246528
 30
0.0
 10
140.5936577690972
 20
126.1680094401042
 30
0.0
 10
140.4127902560764
 20
125.3239610460069
 30
0.0
 10
140.2319227430556
 20
123.2148735894097
 30
0.0
 10
139.8701877170139
 20
122.4314588758681
 30
0.0
 10
139.5087972005208
 20
121.6480441623264
 30
0.0
 10
139.2073513454861
 20
119.9001749674479
 30
0.0
 10
138.8456163194445
 20
119.2375108506944
 30
0.0
 10
138.4838812934028
 20
118.5743299696181
 30
0.0
 10
138.3033582899305
 20
116.1036797417535
 30
0.0
 10
137.6401774088542
 20
115.0184746636285
 30
0.0
 10
136.9775132921007
 20
113.9337863498264
 30
0.0
 10
137.0378024631076
 20
112.7889811197917
 30
0.0
 10
136.5554890950521
 20
112.1860894097222
 30
0.0
 10
136.0736924913194
 20
111.5837144639757
 30
0.0
 10
135.9348551432292
 20
110.6190877278646
 30
0.0
 10
135.7539876302083
 20
109.9564236111111
 30
0.0
 10
135.5731201171875
 20
109.2932427300347
 30
0.0
 10
135.3502224392361
 20
107.7746446397569
 30
0.0
 10
135.1090657552083
 20
107.3526204427083
 30
0.0
  0
SPLINE
  5
6C
330
A
100
AcDbEntity
  8
LAYER_1
 62
     7
100
AcDbSpline
210
0.0
220
0.0
230
1.0
 70
     8
 71
     3
 72
    44
 73
    40
 74
     0
 42
0.0000000001
 43
0.0000000001
 40
0.0
 40
0.0
 40
0.0
 40
0.0
 40
1.0
 40
1.0
 40
1.0
 40
2.0
 40
2.0
 40
2.0
 40
3.0
 40
3.0
 40
3.0
 40
4.0
 40
4.0
 40
4.0
 40
5.0
 40
5.0
 40
5.0
 40
6.0
 40
6.0
 40
6.0
 40
7.0
 40
7.0
 40
7.0
 40
8.0
 40
8.0
 40
8.0
 40
9.0
 40
9.0
 40
9.0
 40
10.0
 40
10.0
 40
10.0
 40
11.0
 40
11.0
 40
11.0
 40
12.0
 40
12.0
 40
12.0
 40
13.0
 40
13.0
 40
13.0
 40
13.0
 10
146.0777330186632
 20
153.4088962131076
 30
0.0
 10
146.0777330186632
 20
153.4088962131076
 30
0.0
 10
145.4145521375868
 20
151.0581353081597
 30
0.0
 10
145.3547797309028
 20
150.2144314236111
 30
0.0
 10
145.2944905598958
 20
149.3707275390625
 30
0.0
 10
144.9327555338542
 20
148.4669067382812
 30
0.0
 10
144.9327555338542
 20
147.683147515191
 30
0.0
 10
144.9327555338542
 20
146.8999050564236
 30
0.0
 10
145.0533338758681
 20
146.1164903428819
 30
0.0
 10
144.9327555338542
 20
145.5738878038194
 30
0.0
 10
144.8121771918403
 20
145.0312852647569
 30
0.0
 10
144.8121771918403
 20
143.404338921441
 30
0.0
 10
144.6915988498264
 20
142.8019639756944
 30
0.0
 10
144.5710205078125
 20
142.199072265625
 30
0.0
 10
144.3298638237847
 20
140.8730550130208
 30
0.0
 10
144.3298638237847
 20
139.8484836154514
 30
0.0
 10
144.3298638237847
 20
138.8240844726562
 30
0.0
 10
143.8478949652778
 20
136.473668077257
 30
0.0
 10
143.9684733072917
 20
135.6902533637153
 30
0.0
 10
144.0890516493055
 20
134.906494140625
 30
0.0
 10
143.3655815972222
 20
132.9782741970486
 30
0.0
 10
143.3655815972222
 20
131.5316786024305
 30
0.0
 10
143.3655815972222
 20
130.0855997721354
 30
0.0
 10
142.7630343967014
 20
126.2282986111111
 30
0.0
 10
142.5821668836805
 20
125.2641886393229
 30
0.0
 10
142.4012993706597
 20
124.3000786675347
 30
0.0
 10
141.8592135959201
 20
121.4671766493055
 30
0.0
 10
141.7386352539062
 20
120.924574110243
 30
0.0
 10
141.6180569118924
 20
120.3824883355035
 30
0.0
 10
141.3769002278646
 20
119.0566433376736
 30
0.0
 10
141.2563218858507
 20
118.3934624565972
 30
0.0
 10
141.1357435438368
 20
117.7306260850694
 30
0.0
 10
140.39453125
 20
114.8984130859375
 30
0.0
 10
140.0327962239583
 20
113.8132080078125
 30
0.0
 10
139.838665093316
 20
113.2304701063368
 30
0.0
 10
139.4485080295139
 20
111.0411119249132
 30
0.0
 10
139.3279296875
 20
110.4985093858507
 30
0.0
 10
139.2073513454861
 20
109.9564236111111
 30
0.0
 10
138.9782524956597
 20
109.1967800564236
 30
0.0
 10
138.9179633246528
 20
109.0162570529514
 30
0.0
  0
SPLINE
  5
6B
330
A
100
AcDbEntity
  8
LAYER_1
 62
     7
100
AcDbSpline
210
0.0
220
0.0
230
1.0
 70
     8
 71
     3
 72
    35
 73
    31
 74
     0
 42
0.0000000001
 43
0.0000000001
 40
0.0
 40
0.0
 40
0.0
 40
0.0
 40
1.0
 40
1.0
 40
1.0
 40
2.0
 40
2.0
 40
2.0
 40
3.0
 40
3.0
 40
3.0
 40
4.0
 40
4.0
 40
4.0
 40
5.0
 40
5.0
 40
5.0
 40
6.0
 40
6.0
 40
6.0
 40
7.0
 40
7.0
 40
7.0
 40
8.0
 40
8.0
 40
8.0
 40
9.0
 40
9.0
 40
9.0
 40
10.0
 40
10.0
 40
10.0
 40
10.0
 10
146.0174438476562
 20
134.9667833116319
 30
0.0
 10
146.0174438476562
 20
134.9667833116319
 30
0.0
 10
145.1739122178819
 20
133.6409383138021
 30
0.0
 10
145.1739122178819
 20
132.6768283420139
 30
0.0
 10
145.1739122178819
 20
131.7125461154514
 30
0.0
 10
145.2342013888889
 20
131.2905219184028
 30
0.0
 10
145.113623046875
 20
130.8688422309028
 30
0.0
 10
144.9930447048611
 20
130.4468180338542
 30
0.0
 10
145.1739122178819
 20
128.6994656032986
 30
0.0
 10
144.8724663628472
 20
128.0362847222222
 30
0.0
 10
144.5710205078125
 20
127.3734483506944
 30
0.0
 10
144.5107313368056
 20
125.3847669813368
 30
0.0
 10
144.3298638237847
 20
124.7215861002604
 30
0.0
 10
144.1493408203125
 20
124.058405219184
 30
0.0
 10
144.0287624782986
 20
122.5520372178819
 30
0.0
 10
143.9684733072917
 20
121.9491455078125
 30
0.0
 10
143.9081841362847
 20
121.3465983072917
 30
0.0
 10
143.3052924262153
 20
118.3934624565972
 30
0.0
 10
143.1847140842014
 20
118.0923611111111
 30
0.0
 10
143.0641357421875
 20
117.7909152560764
 30
0.0
 10
142.8233235677083
 20
116.4648980034722
 30
0.0
 10
142.7027452256944
 20
116.0433905707465
 30
0.0
 10
142.5821668836805
 20
115.6213663736979
 30
0.0
 10
142.4615885416667
 20
114.2352322048611
 30
0.0
 10
142.4012993706597
 20
113.8132080078125
 30
0.0
 10
142.3410101996528
 20
113.3915283203125
 30
0.0
 10
141.6180569118924
 20
111.5837144639757
 30
0.0
 10
141.4974785698785
 20
111.221979437934
 30
0.0
 10
141.3769002278646
 20
110.8602444118924
 30
0.0
 10
141.3769002278646
 20
110.3784478081597
 30
0.0
 10
141.1960327148437
 20
110.1372911241319
 30
0.0
  0
SPLINE
  5
6A
330
A
100
AcDbEntity
  8
LAYER_1
 62
     7
100
AcDbSpline
210
0.0
220
0.0
230
1.0
 70
     8
 71
     3
 72
    23
 73
    19
 74
     0
 42
0.0000000001
 43
0.0000000001
 40
0.0
 40
0.0
 40
0.0
 40
0.0
 40
1.0
 40
1.0
 40
1.0
 40
2.0
 40
2.0
 40
2.0
 40
3.0
 40
3.0
 40
3.0
 40
4.0
 40
4.0
 40
4.0
 40
5.0
 40
5.0
 40
5.0
 40
6.0
 40
6.0
 40
6.0
 40
6.0
 10
145.9571546766493
 20
122.7329047309028
 30
0.0
 10
145.8968655056424
 20
122.5520372178819
 30
0.0
 10
145.8365763346354
 20
122.0094346788194
 30
0.0
 10
145.6557088216146
 20
121.5877549913194
 30
0.0
 10
145.4748413085937
 20
121.1657307942708
 30
0.0
 10
145.3547797309028
 20
120.3221991644965
 30
0.0
 10
145.2342013888889
 20
119.779596625434
 30
0.0
 10
145.113623046875
 20
119.2375108506944
 30
0.0
 10
145.0533338758681
 20
117.6100477430556
 30
0.0
 10
144.5107313368056
 20
116.645765516493
 30
0.0
 10
143.9684733072917
 20
115.6816555447049
 30
0.0
 10
143.9684733072917
 20
114.5969672309028
 30
0.0
 10
143.9081841362847
 20
113.7529188368056
 30
0.0
 10
143.8478949652778
 20
112.9092149522569
 30
0.0
 10
143.6670274522569
 20
112.0052218967014
 30
0.0
 10
143.7273166232639
 20
111.8243543836805
 30
0.0
 10
143.7876057942708
 20
111.6434868706597
 30
0.0
 10
143.6609985351562
 20
110.8903889973958
 30
0.0
 10
143.6609985351562
 20
110.8903889973958
 30
0.0
  0
LWPOLYLINE
  5
65
330
A
100
AcDbEntity
  8
LAYER_1
 62
     7
100
AcDbPolyline
 90
        3
 70
     0
 43
0.0
 10
79.94102918836805
 20
174.8275716145833
 10
133.5301784939236
 20
160.83359375
 10
146.0053860134549
 20
164.9918240017361
  0
LWPOLYLINE
  5
60
330
A
100
AcDbEntity
  8
LAYER_1
 62
     7
100
AcDbPolyline
 90
        3
 70
     0
 43
0.0
 10
104.2348090277778
 20
168.4186604817708
 10
68.56308458116318
 20
158.0950873480903
 10
78.97709147135416
 20
154.4450086805555
  0
LINE
  5
5F
330
A
100
AcDbEntity
  8
LAYER_1
 62
     7
100
AcDbLine
 10
114.841741265191
 20
127.6173611111111
 30
0.0
 11
114.8470811631944
 21
124.612548828125
 31
0.0
  0
LWPOLYLINE
  5
5A
330
A
100
AcDbEntity
  8
LAYER_1
 62
     7
100
AcDbPolyline
 90
        3
 70
     0
 43
0.0
 10
78.97709147135416
 20
154.4450086805555
 10
114.7755954318576
 20
165.744921875
 10
114.7945434570312
 20
154.8692721896701
  0
LINE
  5
59
330
A
100
AcDbEntity
  8
LAYER_1
 62
     7
100
AcDbLine
 10
106.0097222222222
 20
121.1791666666667
 30
0.0
 11
100.7873019748264
 21
119.1806667751736
 31
0.0
  0
LINE
  5
58
330
A
100
AcDbEntity
  8
LAYER_1
 62
     7
100
AcDbLine
 10
114.8470811631944
 20
124.612548828125
 30
0.0
 11
113.504010687934
 21
124.0937174479167
 31
0.0
  0
LWPOLYLINE
  5
50
330
A
100
AcDbEntity
  8
LAYER_1
 62
     7
100
AcDbPolyline
 90
        6
 70
     0
 43
0.0
 10
78.81999511718749
 20
154.5233846028646
 10
78.81999511718749
 20
138.8843736436632
 10
80.80867648654514
 20
136.1119330512153
 10
77.37339952256944
 20
131.2302327473958
 10
79.00086263020833
 20
128.7597547743056
 10
79.00086263020833
 20
111.282268608941
  0
LINE
  5
4F
330
A
100
AcDbEntity
  8
LAYER_1
 62
     7
100
AcDbLine
 10
68.51433648003471
 20
132.6768283420139
 30
0.0
 11
78.75970594618055
 21
128.8376139322917
 31
0.0
  0
LINE
  5
4E
330
A
100
AcDbEntity
  8
LAYER_1
 62
     7
100
AcDbLine
 10
67.18849148220485
 20
135.0270724826389
 30
0.0
 11
77.37339952256944
 21
131.2302327473958
 31
0.0
  0
LINE
  5
4D
330
A
100
AcDbEntity
  8
LAYER_1
 62
     7
100
AcDbLine
 10
70.44290093315972
 20
139.7881944444444
 30
0.0
 11
80.6278089735243
 21
136.3651475694445
 31
0.0
  0
LINE
  5
4C
330
A
100
AcDbEntity
  8
LAYER_1
 62
     7
100
AcDbLine
 10
68.46024848090278
 20
142.4522867838542
 30
0.0
 11
78.75970594618055
 21
138.848200141059
 31
0.0
  0
LINE
  5
4B
330
A
100
AcDbEntity
  8
LAYER_1
 62
     7
100
AcDbLine
 10
133.331396484375
 20
160.9421142578125
 30
0.0
 11
133.6931315104167
 21
106.7924479166667
 31
0.0
  0
SPLINE
  5
4A
330
A
100
AcDbEntity
  8
LAYER_1
 62
     7
100
AcDbSpline
210
0.0
220
0.0
230
1.0
 70
    11
 71
     3
 72
    92
 73
    88
 74
     0
 42
0.0000000001
 43
0.0000000001
 40
0.0
 40
0.0
 40
0.0
 40
0.0
 40
1.0
 40
1.0
 40
1.0
 40
2.0
 40
2.0
 40
2.0
 40
3.0
 40
3.0
 40
3.0
 40
4.0
 40
4.0
 40
4.0
 40
5.0
 40
5.0
 40
5.0
 40
6.0
 40
6.0
 40
6.0
 40
7.0
 40
7.0
 40
7.0
 40
8.0
 40
8.0
 40
8.0
 40
9.0
 40
9.0
 40
9.0
 40
10.0
 40
10.0
 40
10.0
 40
11.0
 40
11.0
 40
11.0
 40
12.0
 40
12.0
 40
12.0
 40
13.0
 40
13.0
 40
13.0
 40
14.0
 40
14.0
 40
14.0
 40
15.0
 40
15.0
 40
15.0
 40
16.0
 40
16.0
 40
16.0
 40
17.0
 40
17.0
 40
17.0
 40
18.0
 40
18.0
 40
18.0
 40
19.0
 40
19.0
 40
19.0
 40
20.0
 40
20.0
 40
20.0
 40
21.0
 40
21.0
 40
21.0
 40
22.0
 40
22.0
 40
22.0
 40
23.0
 40
23.0
 40
23.0
 40
24.0
 40
24.0
 40
24.0
 40
25.0
 40
25.0
 40
25.0
 40
26.0
 40
26.0
 40
26.0
 40
27.0
 40
27.0
 40
27.0
 40
28.0
 40
28.0
 40
28.0
 40
29.0
 40
29.0
 40
29.0
 40
29.0
 10
112.2227796766493
 20
153.2504218207465
 30
0.0
 10
112.2227796766493
 20
153.2504218207465
 30
0.0
 10
112.3114908854167
 20
150.1734347873264
 30
0.0
 10
112.3114908854167
 20
150.1734347873264
 30
0.0
 10
112.3114908854167
 20
150.1734347873264
 30
0.0
 10
110.742766655816
 20
149.0780666775173
 30
0.0
 10
110.6545722113715
 20
147.7256944444444
 30
0.0
 10
110.6383802625868
 20
147.4766140407986
 30
0.0
 10
110.7005642361111
 20
147.0015353732639
 30
0.0
 10
110.8895277235243
 20
146.7977579752604
 30
0.0
 10
111.2283528645833
 20
146.4325778537326
 30
0.0
 10
112.2680826822917
 20
146.1461181640625
 30
0.0
 10
112.3583441840278
 20
145.6768961588542
 30
0.0
 10
112.4716878255208
 20
145.0895073784722
 30
0.0
 10
112.3132134331597
 20
141.6938490125868
 30
0.0
 10
112.3132134331597
 20
141.6938490125868
 30
0.0
 10
112.3132134331597
 20
141.6938490125868
 30
0.0
 10
111.0199245876736
 20
140.6956325954861
 30
0.0
 10
110.8442247178819
 20
139.991455078125
 30
0.0
 10
110.7315700954861
 20
139.5398030598958
 30
0.0
 10
110.5958333333333
 20
139.1267361111111
 30
0.0
 10
110.7763563368056
 20
138.6358100043403
 30
0.0
 10
110.9811672634549
 20
138.0789103190104
 30
0.0
 10
111.7227240668403
 20
137.6808295355903
 30
0.0
 10
111.9066921657986
 20
137.4606879340278
 30
0.0
 10
112.2077935112847
 20
137.0989529079861
 30
0.0
 10
112.5767632378472
 20
136.5417087131076
 30
0.0
 10
111.9742160373264
 20
135.8785278320312
 30
0.0
 10
111.3713243272569
 20
135.2153469509549
 30
0.0
 10
110.6058241102431
 20
134.2867214626736
 30
0.0
 10
110.6788601345486
 20
133.4376776801215
 30
0.0
 10
110.728125
 20
132.8649305555555
 30
0.0
 10
110.972210015191
 20
132.7446967230903
 30
0.0
 10
111.2736558702257
 20
132.4432508680555
 30
0.0
 10
111.5751017252604
 20
132.1418050130208
 30
0.0
 10
112.088420952691
 20
132.0281168619792
 30
0.0
 10
111.9514784071181
 20
131.561823187934
 30
0.0
 10
111.5673502604167
 20
130.2509643554687
 30
0.0
 10
106.6181260850694
 20
120.8949462890625
 30
0.0
 10
106.6181260850694
 20
120.8949462890625
 30
0.0
 10
106.6181260850694
 20
120.8949462890625
 30
0.0
 10
113.1719034830729
 20
123.3616346571181
 30
0.0
 10
113.1719034830729
 20
123.3616346571181
 30
0.0
 10
113.1719034830729
 20
123.3616346571181
 30
0.0
 10
115.0362169053819
 20
128.0896837022569
 30
0.0
 10
115.0362169053819
 20
128.0896837022569
 30
0.0
 10
115.0362169053819
 20
128.0896837022569
 30
0.0
 10
118.8316786024305
 20
131.557861328125
 30
0.0
 10
118.8316786024305
 20
131.557861328125
 30
0.0
 10
118.8316786024305
 20
131.557861328125
 30
0.0
 10
119.4170003255208
 20
132.3378309461805
 30
0.0
 10
119.2967664930555
 20
132.9403781467014
 30
0.0
 10
119.1761881510417
 20
133.5432698567708
 30
0.0
 10
118.942438422309
 20
133.7465304904514
 30
0.0
 10
118.6415093315972
 20
134.0479763454861
 30
0.0
 10
118.1793497721354
 20
134.5099636501736
 30
0.0
 10
117.8474148220486
 20
134.6555189344618
 30
0.0
 10
118.0682454427083
 20
135.5397026909722
 30
0.0
 10
118.1888237847222
 20
136.0214992947049
 30
0.0
 10
119.6164713541667
 20
136.3406873914931
 30
0.0
 10
119.7032877604167
 20
137.0085191514757
 30
0.0
 10
119.8841552734375
 20
138.3946533203125
 30
0.0
 10
119.0061726888021
 20
138.7379570855035
 30
0.0
 10
118.4037977430556
 20
139.280042860243
 30
0.0
 10
117.8009060329861
 20
139.8226453993055
 30
0.0
 10
118.1299126519097
 20
141.1641655815972
 30
0.0
 10
118.8373630099826
 20
141.8545627170139
 30
0.0
 10
119.5453301323785
 20
142.5456488715278
 30
0.0
 10
119.688818359375
 20
143.1028930664062
 30
0.0
 10
119.688818359375
 20
143.1028930664062
 30
0.0
 10
119.688818359375
 20
143.1028930664062
 30
0.0
 10
119.5453301323785
 20
146.2970133463542
 30
0.0
 10
119.5453301323785
 20
146.2970133463542
 30
0.0
 10
119.5453301323785
 20
146.2970133463542
 30
0.0
 10
117.8624009874132
 20
147.2533718532986
 30
0.0
 10
117.8624009874132
 20
148.2779432508681
 30
0.0
 10
117.8624009874132
 20
149.2425699869792
 30
0.0
 10
118.9953206380208
 20
150.1906602647569
 30
0.0
 10
119.3565388997396
 20
150.3715277777778
 30
0.0
 10
119.3565388997396
 20
150.3715277777778
 30
0.0
 10
119.3489596896701
 20
153.0545681423611
 30
0.0
 10
119.3489596896701
 20
153.0545681423611
 30
0.0
 10
119.3489596896701
 20
153.0545681423611
 30
0.0
 10
115.0253648546007
 20
154.3425170898437
 30
0.0
 10
115.0253648546007
 20
154.3425170898437
 30
0.0
 10
115.0253648546007
 20
154.3425170898437
 30
0.0
 10
112.2227796766493
 20
153.2504218207465
 30
0.0
 10
112.2227796766493
 20
153.2504218207465
 30
0.0
  0
SPLINE
  5
49
330
A
100
AcDbEntity
  8
LAYER_1
 62
     7
100
AcDbSpline
210
0.0
220
0.0
230
1.0
 70
     8
 71
     3
 72
    17
 73
    13
 74
     0
 42
0.0000000001
 43
0.0000000001
 40
0.0
 40
0.0
 40
0.0
 40
0.0
 40
1.0
 40
1.0
 40
1.0
 40
2.0
 40
2.0
 40
2.0
 40
3.0
 40
3.0
 40
3.0
 40
4.0
 40
4.0
 40
4.0
 40
4.0
 10
119.126751030816
 20
142.1615207248264
 30
0.0
 10
119.870374891493
 20
142.8135050455729
 30
0.0
 10
120.0620944552951
 20
143.0808444552951
 30
0.0
 10
120.0620944552951
 20
143.0808444552951
 30
0.0
 10
120.0620944552951
 20
143.0808444552951
 30
0.0
 10
119.8950073242187
 20
146.6208523220486
 30
0.0
 10
119.8950073242187
 20
146.6208523220486
 30
0.0
 10
119.8950073242187
 20
146.6208523220486
 30
0.0
 10
118.4833794487847
 20
147.4259711371528
 30
0.0
 10
118.3700358072917
 20
148.4439968532986
 30
0.0
 10
118.2568644205729
 20
149.4613335503472
 30
0.0
 10
119.2388888888889
 20
149.9892944335937
 30
0.0
 10
119.7680555555556
 20
150.2833333333333
 30
0.0
  0
SPLINE
  5
48
330
A
100
AcDbEntity
  8
LAYER_1
 62
     7
100
AcDbSpline
210
0.0
220
0.0
230
1.0
 70
     8
 71
     3
 72
    14
 73
    10
 74
     0
 42
0.0000000001
 43
0.0000000001
 40
0.0
 40
0.0
 40
0.0
 40
0.0
 40
1.0
 40
1.0
 40
1.0
 40
2.0
 40
2.0
 40
2.0
 40
3.0
 40
3.0
 40
3.0
 40
3.0
 10
119.5034722222222
 20
136.6131944444445
 30
0.0
 10
120.6059027777778
 20
137.715625
 30
0.0
 10
120.0402180989583
 20
138.6053209092882
 30
0.0
 10
118.8971354166667
 20
139.5849338107639
 30
0.0
 10
118.2642713758681
 20
140.1271918402778
 30
0.0
 10
118.18193359375
 20
141.1641655815972
 30
0.0
 10
118.8895562065972
 20
141.8545627170139
 30
0.0
 10
119.6099256727431
 20
142.5573621961806
 30
0.0
 10
119.688818359375
 20
143.1028930664062
 30
0.0
 10
119.688818359375
 20
143.1028930664062
 30
0.0
  0
SPLINE
  5
47
330
A
100
AcDbEntity
  8
LAYER_1
 62
     7
100
AcDbSpline
210
0.0
220
0.0
230
1.0
 70
     8
 71
     3
 72
    20
 73
    16
 74
     0
 42
0.0000000001
 43
0.0000000001
 40
0.0
 40
0.0
 40
0.0
 40
0.0
 40
1.0
 40
1.0
 40
1.0
 40
2.0
 40
2.0
 40
2.0
 40
3.0
 40
3.0
 40
3.0
 40
4.0
 40
4.0
 40
4.0
 40
5.0
 40
5.0
 40
5.0
 40
5.0
 10
115.0369059244792
 20
128.025432671441
 30
0.0
 10
115.0369059244792
 20
128.025432671441
 30
0.0
 10
119.1835951063368
 20
131.7202975802951
 30
0.0
 10
119.1835951063368
 20
131.7202975802951
 30
0.0
 10
119.1835951063368
 20
131.7202975802951
 30
0.0
 10
119.800439453125
 20
132.3943305121528
 30
0.0
 10
119.6798611111111
 20
132.9972222222222
 30
0.0
 10
119.5597995334201
 20
133.599769422743
 30
0.0
 10
119.4080430772569
 20
133.8864013671875
 30
0.0
 10
119.1065972222222
 20
134.1878472222222
 30
0.0
 10
118.6444376627604
 20
134.650006781684
 30
0.0
 10
118.3958740234375
 20
134.8889241536458
 30
0.0
 10
118.4830349392361
 20
135.6299641927083
 30
0.0
 10
118.5281656901042
 20
136.0140923394097
 30
0.0
 10
118.9122938368056
 20
136.0140923394097
 30
0.0
 10
119.3420694986979
 20
136.5339572482639
 30
0.0
  0
LINE
  5
46
330
A
100
AcDbEntity
  8
LAYER_1
 62
     7
100
AcDbLine
 10
113.2399441189236
 20
123.3805826822917
 30
0.0
 11
115.0362169053819
 21
128.0896837022569
 31
0.0
  0
SPLINE
  5
45
330
A
100
AcDbEntity
  8
LAYER_1
 62
     7
100
AcDbSpline
210
0.0
220
0.0
230
1.0
 70
     8
 71
     3
 72
    32
 73
    28
 74
     0
 42
0.0000000001
 43
0.0000000001
 40
0.0
 40
0.0
 40
0.0
 40
0.0
 40
1.0
 40
1.0
 40
1.0
 40
2.0
 40
2.0
 40
2.0
 40
3.0
 40
3.0
 40
3.0
 40
4.0
 40
4.0
 40
4.0
 40
5.0
 40
5.0
 40
5.0
 40
6.0
 40
6.0
 40
6.0
 40
7.0
 40
7.0
 40
7.0
 40
8.0
 40
8.0
 40
8.0
 40
9.0
 40
9.0
 40
9.0
 40
9.0
 10
111.5673502604167
 20
137.7543823242187
 30
0.0
 10
111.8687961154514
 20
137.3926472981771
 30
0.0
 10
112.3419799804687
 20
136.9666612413194
 30
0.0
 10
111.8746527777778
 20
136.1722222222222
 30
0.0
 10
111.420416937934
 20
135.4000040690104
 30
0.0
 10
110.2656209309896
 20
134.7156358506944
 30
0.0
 10
110.1254055447049
 20
133.9086222330729
 30
0.0
 10
110.0079277886285
 20
133.2323499891493
 30
0.0
 10
110.3017944335937
 20
132.7031833224826
 30
0.0
 10
110.7315700954861
 20
132.4015652126736
 30
0.0
 10
111.0800415039062
 20
132.1569634331597
 30
0.0
 10
111.6362521701389
 20
132.1411159939236
 30
0.0
 10
111.4998263888889
 20
131.6746500651042
 30
0.0
 10
111.1944186740451
 20
130.6328531901042
 30
0.0
 10
107.6947184244792
 20
123.9348985460069
 30
0.0
 10
106.3015218098958
 20
121.4148111979167
 30
0.0
 10
105.826959906684
 20
120.5556043836806
 30
0.0
 10
105.4204386393229
 20
120.8722086588542
 30
0.0
 10
105.4204386393229
 20
120.8722086588542
 30
0.0
 10
105.4204386393229
 20
120.8722086588542
 30
0.0
 10
106.2563910590278
 20
120.5662841796875
 30
0.0
 10
106.2563910590278
 20
120.5662841796875
 30
0.0
 10
106.2563910590278
 20
120.5662841796875
 30
0.0
 10
113.1719034830729
 20
123.1092814127604
 30
0.0
 10
113.1719034830729
 20
123.1092814127604
 30
0.0
 10
113.1719034830729
 20
123.1092814127604
 30
0.0
 10
115.1157986111111
 20
128.10380859375
 30
0.0
 10
115.1157986111111
 20
128.10380859375
 30
0.0
  0
SPLINE
  5
44
330
A
100
AcDbEntity
  8
LAYER_1
 62
     7
100
AcDbSpline
210
0.0
220
0.0
230
1.0
 70
     8
 71
     3
 72
    20
 73
    16
 74
     0
 42
0.0000000001
 43
0.0000000001
 40
0.0
 40
0.0
 40
0.0
 40
0.0
 40
1.0
 40
1.0
 40
1.0
 40
2.0
 40
2.0
 40
2.0
 40
3.0
 40
3.0
 40
3.0
 40
4.0
 40
4.0
 40
4.0
 40
5.0
 40
5.0
 40
5.0
 40
5.0
 10
110.8895277235243
 20
146.7977579752604
 30
0.0
 10
111.2283528645833
 20
146.4325778537326
 30
0.0
 10
111.6961968315972
 20
146.429994032118
 30
0.0
 10
111.7861138237847
 20
145.9611165364583
 30
0.0
 10
111.8994574652778
 20
145.3732109917535
 30
0.0
 10
111.8305555555556
 20
142.08125
 30
0.0
 10
111.8305555555556
 20
142.08125
 30
0.0
 10
111.8305555555556
 20
142.08125
 30
0.0
 10
111.2643541124132
 20
141.593079969618
 30
0.0
 10
110.8163194444444
 20
141.0229166666667
 30
0.0
 10
110.33125
 20
140.4055555555555
 30
0.0
 10
109.9784722222222
 20
139.303125
 30
0.0
 10
110.3922281901042
 20
138.613072374132
 30
0.0
 10
110.6972913953993
 20
138.1044040256076
 30
0.0
 10
111.7227240668403
 20
137.6808295355903
 30
0.0
 10
111.9066921657986
 20
137.4606879340278
 30
0.0
  0
SPLINE
  5
43
330
A
100
AcDbEntity
  8
LAYER_1
 62
     7
100
AcDbSpline
210
0.0
220
0.0
230
1.0
 70
     8
 71
     3
 72
    14
 73
    10
 74
     0
 42
0.0000000001
 43
0.0000000001
 40
0.0
 40
0.0
 40
0.0
 40
0.0
 40
1.0
 40
1.0
 40
1.0
 40
2.0
 40
2.0
 40
2.0
 40
3.0
 40
3.0
 40
3.0
 40
3.0
 10
111.8010999891493
 20
150.5773722330729
 30
0.0
 10
111.8010999891493
 20
150.5773722330729
 30
0.0
 10
110.1229939778646
 20
149.2382636176215
 30
0.0
 10
110.1889675564236
 20
147.901911078559
 30
0.0
 10
110.2135999891493
 20
147.4023722330729
 30
0.0
 10
110.3481309678819
 20
147.1651774088542
 30
0.0
 10
110.5370944552951
 20
146.9614000108507
 30
0.0
 10
110.8760918511285
 20
146.595703125
 30
0.0
 10
111.7034315321181
 20
146.5858846028646
 30
0.0
 10
111.7933485243055
 20
146.1164903428819
 30
0.0
  0
LWPOLYLINE
  5
3C
330
A
100
AcDbEntity
  8
LAYER_1
 62
     7
100
AcDbPolyline
 90
        5
 70
     0
 43
0.0
 10
119.740667046441
 20
150.1181410047743
 10
119.7093166775174
 20
153.2819444444444
 10
114.9349310980903
 20
154.7271620008681
 10
111.6806939019097
 20
153.4614339192708
 10
111.7718166775174
 20
150.5184611002604
  0
SPLINE
  5
3B
330
A
100
AcDbEntity
  8
LAYER_1
 62
     7
100
AcDbSpline
210
0.0
220
0.0
230
1.0
 70
    11
 71
     3
 72
    17
 73
    13
 74
     0
 42
0.0000000001
 43
0.0000000001
 40
0.0
 40
0.0
 40
0.0
 40
0.0
 40
1.0
 40
1.0
 40
1.0
 40
2.0
 40
2.0
 40
2.0
 40
3.0
 40
3.0
 40
3.0
 40
4.0
 40
4.0
 40
4.0
 40
4.0
 10
118.4062093098958
 20
150.521044921875
 30
0.0
 10
118.6887071397569
 20
150.521044921875
 30
0.0
 10
118.709033203125
 20
150.8354098849826
 30
0.0
 10
118.709033203125
 20
151.2238444010417
 30
0.0
 10
118.709033203125
 20
151.6122789171007
 30
0.0
 10
118.6887071397569
 20
151.9269883897569
 30
0.0
 10
118.4062093098958
 20
151.9269883897569
 30
0.0
 10
118.1237114800347
 20
151.9269883897569
 30
0.0
 10
117.8946126302083
 20
151.6122789171007
 30
0.0
 10
117.8946126302083
 20
151.2238444010417
 30
0.0
 10
117.8946126302083
 20
150.8354098849826
 30
0.0
 10
118.1237114800347
 20
150.521044921875
 30
0.0
 10
118.4062093098958
 20
150.521044921875
 30
0.0
  0
LWPOLYLINE
  5
34
330
A
100
AcDbEntity
  8
LAYER_1
 62
     7
100
AcDbPolyline
 90
        5
 70
     0
 43
0.0
 10
115.7936211480035
 20
153.0497450086805
 10
115.7483181423611
 20
150.0938530815972
 10
116.2547471788194
 20
148.9004720052083
 10
116.7427449544271
 20
150.0938530815972
 10
116.8331787109375
 20
152.6704399956597
  0
ELLIPSE
  5
33
330
A
100
AcDbEntity
  8
LAYER_1
 62
     7
100
AcDbEllipse
 10
112.0195190429687
 20
148.2179985894097
 30
0.0
 11
0.0
 21
-0.5434638129340277
 31
0.0
210
0.0
220
0.0
230
1.0
 40
0.8231378763866878
 41
0.0
 42
6.283185307179586
  0
SPLINE
  5
32
330
A
100
AcDbEntity
  8
LAYER_1
 62
     7
100
AcDbSpline
210
0.0
220
0.0
230
1.0
 70
    11
 71
     3
 72
    17
 73
    13
 74
     0
 42
0.0000000001
 43
0.0000000001
 40
0.0
 40
0.0
 40
0.0
 40
0.0
 40
1.0
 40
1.0
 40
1.0
 40
2.0
 40
2.0
 40
2.0
 40
3.0
 40
3.0
 40
3.0
 40
4.0
 40
4.0
 40
4.0
 40
4.0
 10
118.5238593207465
 20
143.1523301866319
 30
0.0
 10
118.8769816080729
 20
143.1523301866319
 30
0.0
 10
118.9458835177951
 20
143.3876302083333
 30
0.0
 10
118.9458835177951
 20
143.811376953125
 30
0.0
 10
118.9458835177951
 20
144.2346069335937
 30
0.0
 10
118.8769816080729
 20
144.4697347005208
 30
0.0
 10
118.5238593207465
 20
144.4697347005208
 30
0.0
 10
118.1707370334201
 20
144.4697347005208
 30
0.0
 10
117.9927978515625
 20
144.2346069335937
 30
0.0
 10
117.9927978515625
 20
143.811376953125
 30
0.0
 10
117.9927978515625
 20
143.3876302083333
 30
0.0
 10
118.1707370334201
 20
143.1523301866319
 30
0.0
 10
118.5238593207465
 20
143.1523301866319
 30
0.0
  0
LINE
  5
31
330
A
100
AcDbEntity
  8
LAYER_1
 62
     7
100
AcDbLine
 10
115.2639377170139
 20
136.1282972547743
 30
0.0
 11
115.2811631944444
 21
130.8085530598958
 31
0.0
  0
LINE
  5
30
330
A
100
AcDbEntity
  8
LAYER_1
 62
     7
100
AcDbLine
 10
115.2208740234375
 20
149.2501491970486
 30
0.0
 11
115.2582533094618
 21
137.848088921441
 31
0.0
  0
LINE
  5
2F
330
A
100
AcDbEntity
  8
LAYER_1
 62
     7
100
AcDbLine
 10
114.6898125542535
 20
136.0401028103298
 30
0.0
 11
114.7389051649305
 21
129.7841539171007
 31
0.0
  0
LINE
  5
2E
330
A
100
AcDbEntity
  8
LAYER_1
 62
     7
100
AcDbLine
 10
114.5580376519097
 20
152.8060045030382
 30
0.0
 11
114.6765489366319
 21
137.715625
 31
0.0
  0
ELLIPSE
  5
2D
330
A
100
AcDbEntity
  8
LAYER_1
 62
     7
100
AcDbEllipse
 10
112.1738593207465
 20
139.6099107530382
 30
0.0
 11
-0.0639065212673611
 21
-0.6003078884548609
 31
0.0
210
0.0
220
0.0
230
1.0
 40
0.7593862852331474
 41
0.0
 42
6.283185307179586
  0
SPLINE
  5
2C
330
A
100
AcDbEntity
  8
LAYER_1
 62
     7
100
AcDbSpline
210
0.0
220
0.0
230
1.0
 70
    11
 71
     3
 72
    17
 73
    13
 74
     0
 42
0.0000000001
 43
0.0000000001
 40
0.0
 40
0.0
 40
0.0
 40
0.0
 40
1.0
 40
1.0
 40
1.0
 40
2.0
 40
2.0
 40
2.0
 40
3.0
 40
3.0
 40
3.0
 40
4.0
 40
4.0
 40
4.0
 40
4.0
 10
112.0195190429687
 20
133.3537896050347
 30
0.0
 10
112.2667046440972
 20
133.3537896050347
 30
0.0
 10
112.4906358506944
 20
133.5742757161458
 30
0.0
 10
112.5345608181424
 20
133.980280219184
 30
0.0
 10
112.5781412760417
 20
134.3859402126736
 30
0.0
 10
112.3958957248264
 20
134.5526828342014
 30
0.0
 10
112.1487101236979
 20
134.5526828342014
 30
0.0
 10
111.9015245225694
 20
134.5526828342014
 30
0.0
 10
111.68310546875
 20
134.3859402126736
 30
0.0
 10
111.639697265625
 20
133.980280219184
 30
0.0
 10
111.5957722981771
 20
133.5742757161458
 30
0.0
 10
111.7723334418403
 20
133.3537896050347
 30
0.0
 10
112.0195190429687
 20
133.3537896050347
 30
0.0
  0
SPLINE
  5
2B
330
A
100
AcDbEntity
  8
LAYER_1
 62
     7
100
AcDbSpline
210
0.0
220
0.0
230
1.0
 70
    11
 71
     3
 72
    17
 73
    13
 74
     0
 42
0.0000000001
 43
0.0000000001
 40
0.0
 40
0.0
 40
0.0
 40
0.0
 40
1.0
 40
1.0
 40
1.0
 40
2.0
 40
2.0
 40
2.0
 40
3.0
 40
3.0
 40
3.0
 40
4.0
 40
4.0
 40
4.0
 40
4.0
 10
118.2797743055556
 20
137.1054985894097
 30
0.0
 10
118.5622721354167
 20
137.1054985894097
 30
0.0
 10
118.7908542209201
 20
137.3659478081597
 30
0.0
 10
118.7908542209201
 20
137.7543823242187
 30
0.0
 10
118.7908542209201
 20
138.1428168402778
 30
0.0
 10
118.5622721354167
 20
138.4576985677083
 30
0.0
 10
118.2797743055556
 20
138.4576985677083
 30
0.0
 10
117.9972764756944
 20
138.4576985677083
 30
0.0
 10
117.7681776258681
 20
138.1428168402778
 30
0.0
 10
117.7681776258681
 20
137.7543823242187
 30
0.0
 10
117.7681776258681
 20
137.3659478081597
 30
0.0
 10
117.9972764756944
 20
137.1054985894097
 30
0.0
 10
118.2797743055556
 20
137.1054985894097
 30
0.0
  0
SPLINE
  5
2A
330
A
100
AcDbEntity
  8
LAYER_1
 62
     7
100
AcDbSpline
210
0.0
220
0.0
230
1.0
 70
    11
 71
     3
 72
    17
 73
    13
 74
     0
 42
0.0000000001
 43
0.0000000001
 40
0.0
 40
0.0
 40
0.0
 40
0.0
 40
1.0
 40
1.0
 40
1.0
 40
2.0
 40
2.0
 40
2.0
 40
3.0
 40
3.0
 40
3.0
 40
4.0
 40
4.0
 40
4.0
 40
4.0
 10
114.95732421875
 20
136.0581895616319
 30
0.0
 10
115.4163831922743
 20
136.0581895616319
 30
0.0
 10
115.6799329969618
 20
136.3935696072049
 30
0.0
 10
115.6799329969618
 20
136.940478515625
 30
0.0
 10
115.6799329969618
 20
137.4879041883681
 30
0.0
 10
115.4163831922743
 20
137.822767469618
 30
0.0
 10
114.95732421875
 20
137.822767469618
 30
0.0
 10
114.4987820095486
 20
137.822767469618
 30
0.0
 10
114.2347154405382
 20
137.4879041883681
 30
0.0
 10
114.2347154405382
 20
136.940478515625
 30
0.0
 10
114.2347154405382
 20
136.3935696072049
 30
0.0
 10
114.4987820095486
 20
136.0581895616319
 30
0.0
 10
114.95732421875
 20
136.0581895616319
 30
0.0
  0
SPLINE
  5
29
330
A
100
AcDbEntity
  8
LAYER_1
 62
     7
100
AcDbSpline
210
0.0
220
0.0
230
1.0
 70
    11
 71
     3
 72
    17
 73
    13
 74
     0
 42
0.0000000001
 43
0.0000000001
 40
0.0
 40
0.0
 40
0.0
 40
0.0
 40
1.0
 40
1.0
 40
1.0
 40
2.0
 40
2.0
 40
2.0
 40
3.0
 40
3.0
 40
3.0
 40
4.0
 40
4.0
 40
4.0
 40
4.0
 10
118.00830078125
 20
132.1070095486111
 30
0.0
 10
118.2907986111111
 20
132.1070095486111
 30
0.0
 10
118.5198974609375
 20
132.3386922200521
 30
0.0
 10
118.5198974609375
 20
132.6918145073785
 30
0.0
 10
118.5198974609375
 20
133.0449367947049
 30
0.0
 10
118.2907986111111
 20
133.331396484375
 30
0.0
 10
118.00830078125
 20
133.331396484375
 30
0.0
 10
117.7258029513889
 20
133.331396484375
 30
0.0
 10
117.5514811197917
 20
133.0449367947049
 30
0.0
 10
117.5514811197917
 20
132.6918145073785
 30
0.0
 10
117.5514811197917
 20
132.3386922200521
 30
0.0
 10
117.7258029513889
 20
132.1070095486111
 30
0.0
 10
118.00830078125
 20
132.1070095486111
 30
0.0
  0
SPLINE
  5
28
330
A
100
AcDbEntity
  8
LAYER_1
 62
     7
100
AcDbSpline
210
0.0
220
0.0
230
1.0
 70
     8
 71
     3
 72
     8
 73
     4
 74
     0
 42
0.0000000001
 43
0.0000000001
 40
0.0
 40
0.0
 40
0.0
 40
0.0
 40
1.0
 40
1.0
 40
1.0
 40
1.0
 10
112.4036471896701
 20
134.4548421223958
 30
0.0
 10
112.4036471896701
 20
134.4548421223958
 30
0.0
 10
112.584514702691
 20
134.0255832248264
 30
0.0
 10
112.3356065538194
 20
133.5053738064236
 30
0.0
  0
SPLINE
  5
27
330
A
100
AcDbEntity
  8
LAYER_1
 62
     7
100
AcDbSpline
210
0.0
220
0.0
230
1.0
 70
     8
 71
     3
 72
     8
 73
     4
 74
     0
 42
0.0000000001
 43
0.0000000001
 40
0.0
 40
0.0
 40
0.0
 40
0.0
 40
1.0
 40
1.0
 40
1.0
 40
1.0
 10
112.3132134331597
 20
139.0695475260417
 30
0.0
 10
112.3132134331597
 20
139.0695475260417
 30
0.0
 10
112.9462497287326
 20
139.5170654296875
 30
0.0
 10
112.3812540690104
 20
140.1952324761285
 30
0.0
  0
SPLINE
  5
26
330
A
100
AcDbEntity
  8
LAYER_1
 62
     7
100
AcDbSpline
210
0.0
220
0.0
230
1.0
 70
     8
 71
     3
 72
     8
 73
     4
 74
     0
 42
0.0000000001
 43
0.0000000001
 40
0.0
 40
0.0
 40
0.0
 40
0.0
 40
1.0
 40
1.0
 40
1.0
 40
1.0
 10
117.9359537760417
 20
133.3021131727431
 30
0.0
 10
117.9359537760417
 20
133.3021131727431
 30
0.0
 10
117.1721761067708
 20
132.8273790147569
 30
0.0
 10
117.8956461588542
 20
132.1268188476562
 30
0.0
  0
SPLINE
  5
25
330
A
100
AcDbEntity
  8
LAYER_1
 62
     7
100
AcDbSpline
210
0.0
220
0.0
230
1.0
 70
     8
 71
     3
 72
     8
 73
     4
 74
     0
 42
0.0000000001
 43
0.0000000001
 40
0.0
 40
0.0
 40
0.0
 40
0.0
 40
1.0
 40
1.0
 40
1.0
 40
1.0
 10
118.2344712999132
 20
138.4773356119792
 30
0.0
 10
118.2344712999132
 20
138.4773356119792
 30
0.0
 10
117.2944769965278
 20
137.7767754448785
 30
0.0
 10
118.1759046766493
 20
137.1213460286458
 30
0.0
  0
SPLINE
  5
24
330
A
100
AcDbEntity
  8
LAYER_1
 62
     7
100
AcDbSpline
210
0.0
220
0.0
230
1.0
 70
     8
 71
     3
 72
     8
 73
     4
 74
     0
 42
0.0000000001
 43
0.0000000001
 40
0.0
 40
0.0
 40
0.0
 40
0.0
 40
1.0
 40
1.0
 40
1.0
 40
1.0
 10
118.3700358072917
 20
144.489027235243
 30
0.0
 10
118.3700358072917
 20
144.489027235243
 30
0.0
 10
117.5566487630208
 20
143.8337700737847
 30
0.0
 10
118.415338812934
 20
143.1330376519097
 30
0.0
  0
SPLINE
  5
23
330
A
100
AcDbEntity
  8
LAYER_1
 62
     7
100
AcDbSpline
210
0.0
220
0.0
230
1.0
 70
     8
 71
     3
 72
     8
 73
     4
 74
     0
 42
0.0000000001
 43
0.0000000001
 40
0.0
 40
0.0
 40
0.0
 40
0.0
 40
1.0
 40
1.0
 40
1.0
 40
1.0
 10
112.0872151692708
 20
148.7829942491319
 30
0.0
 10
112.0872151692708
 20
148.7829942491319
 30
0.0
 10
112.7877753363715
 20
148.2860392252604
 30
0.0
 10
112.0648220486111
 20
147.6981336805555
 30
0.0
  0
SPLINE
  5
22
330
A
100
AcDbEntity
  8
LAYER_1
 62
     7
100
AcDbSpline
210
0.0
220
0.0
230
1.0
 70
     8
 71
     3
 72
     8
 73
     4
 74
     0
 42
0.0000000001
 43
0.0000000001
 40
0.0
 40
0.0
 40
0.0
 40
0.0
 40
1.0
 40
1.0
 40
1.0
 40
1.0
 10
118.2344712999132
 20
151.8749674479167
 30
0.0
 10
118.2344712999132
 20
151.8749674479167
 30
0.0
 10
117.2853474934896
 20
151.4047119140625
 30
0.0
 10
118.2120781792535
 20
150.5641086154514
 30
0.0
  0
ENDSEC
  0
SECTION
  2
OBJECTS
  0
DICTIONARY
  5
19
330
0
100
AcDbDictionary
281
     1
  3
ACAD_COLOR
350
C9
  3
ACAD_GROUP
350
1A
  3
ACAD_LAYOUT
350
96
  3
ACAD_MATERIAL
350
CB
  3
ACAD_MLINESTYLE
350
1B
  3
ACAD_PLOTSETTINGS
350
97
  3
ACAD_PLOTSTYLENAME
350
94
  3
ACDBHEADERROUNDTRIPXREC
350
C8
  0
DICTIONARY
  5
C9
102
{ACAD_REACTORS
330
19
102
}
330
19
100
AcDbDictionary
281
     1
  0
DICTIONARY
  5
1A
102
{ACAD_REACTORS
330
19
102
}
330
19
100
AcDbDictionary
281
     1
  0
DICTIONARY
  5
96
102
{ACAD_REACTORS
330
19
102
}
330
19
100
AcDbDictionary
281
     1
  3
Layout1
350
99
  3
Model
350
98
  0
DICTIONARY
  5
CB
102
{ACAD_REACTORS
330
19
102
}
330
19
100
AcDbDictionary
281
     1
  0
DICTIONARY
  5
1B
102
{ACAD_REACTORS
330
19
102
}
330
19
100
AcDbDictionary
281
     1
  3
STANDARD
350
1C
  0
DICTIONARY
  5
97
102
{ACAD_REACTORS
330
19
102
}
330
19
100
AcDbDictionary
281
     1
  0
ACDBDICTIONARYWDFLT
  5
94
102
{ACAD_REACTORS
330
19
102
}
330
19
100
AcDbDictionary
281
     1
  3
Normal
350
95
100
AcDbDictionaryWithDefault
340
95
  0
DICTIONARY
  5
C8
102
{ACAD_REACTORS
330
19
102
}
330
19
100
AcDbDictionary
281
     1
  3
COLORDICT
350
CA
  3
MATERIALDICT
350
CC
  0
LAYOUT
  5
99
102
{ACAD_REACTORS
330
96
102
}
102
{ACAD_XDICTIONARY
360
CD
102
}
330
96
100
AcDbPlotSettings
  1

  2
Support Center HP LaserJet 4
  4

  6

 40
0.0
 41
0.0
 42
0.0
 43
0.0
 44
0.0
 45
0.0
 46
0.0
 47
0.0
 48
0.0
 49
0.0
140
0.0
141
0.0
142
1.0
143
1.0
 70
   688
 72
     0
 73
     0
 74
     5
  7

 75
    16
147
1.0
148
0.0
149
0.0
100
AcDbLayout
  1
Layout1
 70
     0
 71
     1
 10
0.0
 20
0.0
 11
12.0
 21
9.0
 12
0.0
 22
0.0
 32
0.0
 14
1.000000000000000E+20
 24
1.000000000000000E+20
 34
1.000000000000000E+20
 15
-1.000000000000000E+20
 25
-1.000000000000000E+20
 35
-1.000000000000000E+20
146
0.0
 13
0.0
 23
0.0
 33
0.0
 16
1.0
 26
0.0
 36
0.0
 17
0.0
 27
1.0
 37
0.0
 76
     0
330
B
  0
LAYOUT
  5
98
102
{ACAD_REACTORS
330
96
102
}
102
{ACAD_XDICTIONARY
360
CF
102
}
330
96
100
AcDbPlotSettings
  1

  2
Support Center HP LaserJet 4
  4

  6

 40
0.0
 41
0.0
 42
0.0
 43
0.0
 44
0.0
 45
0.0
 46
0.0
 47
0.0
 48
0.0
 49
0.0
140
0.0
141
0.0
142
1.0
143
1.0
 70
  1712
 72
     0
 73
     0
 74
     0
  7

 75
     0
147
1.0
148
0.0
149
0.0
100
AcDbLayout
  1
Model
 70
     1
 71
     0
 10
0.0
 20
0.0
 11
12.0
 21
9.0
 12
0.0
 22
0.0
 32
0.0
 14
0.0
 24
0.0
 34
0.0
 15
0.0
 25
0.0
 35
0.0
146
0.0
 13
0.0
 23
0.0
 33
0.0
 16
1.0
 26
0.0
 36
0.0
 17
0.0
 27
1.0
 37
0.0
 76
     0
330
A
  0
MLINESTYLE
  5
1C
102
{ACAD_REACTORS
330
1B
102
}
330
1B
100
AcDbMlineStyle
  2
STANDARD
 70
     0
  3

 62
     0
 51
90.0000000000002
 52
90.0000000000002
 71
     2
 49
0.5
 62
   256
  6
BYLAYER
 49
-0.5
 62
   256
  6
BYLAYER
  0
ACDBPLACEHOLDER
  5
95
102
{ACAD_REACTORS
330
94
102
}
330
94
  0
XRECORD
  5
CA
102
{ACAD_REACTORS
330
C8
102
}
330
C8
100
AcDbXrecord
340
C9
  0
XRECORD
  5
CC
102
{ACAD_REACTORS
330
C8
102
}
330
C8
100
AcDbXrecord
340
CB
  0
DICTIONARY
  5
CD
330
99
100
AcDbDictionary
280
     1
281
     1
  3
ACAD_XREC_ROUNDTRIP
360
CE
  0
DICTIONARY
  5
CF
330
98
100
AcDbDictionary
280
     1
281
     1
  3
ACAD_XREC_ROUNDTRIP
360
D0
  0
XRECORD
  5
CE
102
{ACAD_REACTORS
330
CD
102
}
330
CD
100
AcDbXrecord
102
SHADEPLOT
 70
-21088
102
SHADEPLOTRESLEVEL
 70
  7968
102
SHADEPLOTCUSTOMDPI
 70
-21008
  0
XRECORD
  5
D0
102
{ACAD_REACTORS
330
CF
102
}
330
CF
100
AcDbXrecord
102
SHADEPLOT
 70
     0
102
SHADEPLOTRESLEVEL
 70
     0
102
SHADEPLOTCUSTOMDPI
 70
     0
  0
ENDSEC
  0
EOF
