  0
SECTION
  2
HEADER
  9
$ACADVER
  1
AC1015
  9
$ACADMAINTVER
 70
     6
  9
$DWGCODEPAGE
  3
ANSI_1252
  9
$INSBASE
 10
0.0
 20
0.0
 30
0.0
  9
$EXTMIN
 10
0.353
 20
0.4039999999999998
 30
0.0
  9
$EXTMAX
 10
4.562
 20
6.226
 30
0.0
  9
$LIMMIN
 10
0.0
 20
0.0
  9
$LIMMAX
 10
12.0
 20
17.0
  9
$ORTHOMODE
 70
     0
  9
$REGENMODE
 70
     0
  9
$FILLMODE
 70
     1
  9
$QTEXTMODE
 70
     0
  9
$MIRRTEXT
 70
     1
  9
$LTSCALE
 40
0.25
  9
$ATTMODE
 70
     1
  9
$TEXTSIZE
 40
0.2
  9
$TRACEWID
 40
0.05
  9
$TEXTSTYLE
  7
STANDARD
  9
$CLAYER
  8
0
  9
$CELTYPE
  6
ByLayer
  9
$CECOLOR
 62
   256
  9
$CELTSCALE
 40
1.0
  9
$DISPSILH
 70
     0
  9
$DIMSCALE
 40
1.0
  9
$DIMASZ
 40
0.125
  9
$DIMEXO
 40
0.063
  9
$DIMDLI
 40
0.38
  9
$DIMRND
 40
0.0
  9
$DIMDLE
 40
0.0
  9
$DIMEXE
 40
0.18
  9
$DIMTP
 40
0.0
  9
$DIMTM
 40
0.0
  9
$DIMTXT
 40
0.1
  9
$DIMCEN
 40
0.09
  9
$DIMTSZ
 40
0.0
  9
$DIMTOL
 70
     0
  9
$DIMLIM
 70
     0
  9
$DIMTIH
 70
     1
  9
$DIMTOH
 70
     1
  9
$DIMSE1
 70
     0
  9
$DIMSE2
 70
     0
  9
$DIMTAD
 70
     0
  9
$DIMZIN
 70
     0
  9
$DIMBLK
  1

  9
$DIMASO
 70
     0
  9
$DIMSHO
 70
     0
  9
$DIMPOST
  1

  9
$DIMAPOST
  1

  9
$DIMALT
 70
     0
  9
$DIMALTD
 70
     2
  9
$DIMALTF
 40
25.4
  9
$DIMLFAC
 40
1.0
  9
$DIMTOFL
 70
     0
  9
$DIMTVP
 40
0.0
  9
$DIMTIX
 70
     0
  9
$DIMSOXD
 70
     0
  9
$DIMSAH
 70
     0
  9
$DIMBLK1
  1

  9
$DIMBLK2
  1

  9
$DIMSTYLE
  2
Standard
  9
$DIMCLRD
 70
     0
  9
$DIMCLRE
 70
     0
  9
$DIMCLRT
 70
     0
  9
$DIMTFAC
 40
1.0
  9
$DIMGAP
 40
0.09
  9
$DIMJUST
 70
     0
  9
$DIMSD1
 70
     0
  9
$DIMSD2
 70
     0
  9
$DIMTOLJ
 70
     1
  9
$DIMTZIN
 70
     0
  9
$DIMALTZ
 70
     0
  9
$DIMALTTZ
 70
     0
  9
$DIMUPT
 70
     0
  9
$DIMDEC
 70
     4
  9
$DIMTDEC
 70
     4
  9
$DIMALTU
 70
     2
  9
$DIMALTTD
 70
     2
  9
$DIMTXSTY
  7
STANDARD
  9
$DIMAUNIT
 70
     0
  9
$DIMADEC
 70
     0
  9
$DIMALTRND
 40
0.0
  9
$DIMAZIN
 70
     0
  9
$DIMDSEP
 70
    46
  9
$DIMATFIT
 70
     3
  9
$DIMFRAC
 70
     0
  9
$DIMLDRBLK
  1

  9
$DIMLUNIT
 70
     2
  9
$DIMLWD
 70
    -2
  9
$DIMLWE
 70
    -2
  9
$DIMTMOVE
 70
     0
  9
$LUNITS
 70
     2
  9
$LUPREC
 70
     4
  9
$SKETCHINC
 40
0.1
  9
$FILLETRAD
 40
0.013
  9
$AUNITS
 70
     0
  9
$AUPREC
 70
     0
  9
$MENU
  1
acad
  9
$ELEVATION
 40
0.0
  9
$PELEVATION
 40
0.0
  9
$THICKNESS
 40
0.0
  9
$LIMCHECK
 70
     0
  9
$CHAMFERA
 40
0.0
  9
$CHAMFERB
 40
0.0
  9
$CHAMFERC
 40
1.0
  9
$CHAMFERD
 40
0.0
  9
$SKPOLY
 70
     0
  9
$TDCREATE
 40
2453955.561382882
  9
$TDUCREATE
 40
2453955.894716215
  9
$TDUPDATE
 40
2453955.60304956
  9
$TDUUPDATE
 40
2453955.894716227
  9
$TDINDWG
 40
0.0000000116
  9
$TDUSRTIMER
 40
0.0000000116
  9
$USRTIMER
 70
     1
  9
$ANGBASE
 50
0.0
  9
$ANGDIR
 70
     0
  9
$PDMODE
 70
     0
  9
$PDSIZE
 40
0.0
  9
$PLINEWID
 40
0.0
  9
$SPLFRAME
 70
     0
  9
$SPLINETYPE
 70
     6
  9
$SPLINESEGS
 70
     8
  9
$HANDSEED
  5
281
  9
$SURFTAB1
 70
     6
  9
$SURFTAB2
 70
     6
  9
$SURFTYPE
 70
     6
  9
$SURFU
 70
     6
  9
$SURFV
 70
     6
  9
$UCSBASE
  2

  9
$UCSNAME
  2

  9
$UCSORG
 10
0.0
 20
0.0
 30
0.0
  9
$UCSXDIR
 10
1.0
 20
0.0
 30
0.0
  9
$UCSYDIR
 10
0.0
 20
1.0
 30
0.0
  9
$UCSORTHOREF
  2

  9
$UCSORTHOVIEW
 70
     0
  9
$UCSORGTOP
 10
0.0
 20
0.0
 30
0.0
  9
$UCSORGBOTTOM
 10
0.0
 20
0.0
 30
0.0
  9
$UCSORGLEFT
 10
0.0
 20
0.0
 30
0.0
  9
$UCSORGRIGHT
 10
0.0
 20
0.0
 30
0.0
  9
$UCSORGFRONT
 10
0.0
 20
0.0
 30
0.0
  9
$UCSORGBACK
 10
0.0
 20
0.0
 30
0.0
  9
$PUCSBASE
  2

  9
$PUCSNAME
  2

  9
$PUCSORG
 10
0.0
 20
0.0
 30
0.0
  9
$PUCSXDIR
 10
1.0
 20
0.0
 30
0.0
  9
$PUCSYDIR
 10
0.0
 20
1.0
 30
0.0
  9
$PUCSORTHOREF
  2

  9
$PUCSORTHOVIEW
 70
     0
  9
$PUCSORGTOP
 10
0.0
 20
0.0
 30
0.0
  9
$PUCSORGBOTTOM
 10
0.0
 20
0.0
 30
0.0
  9
$PUCSORGLEFT
 10
0.0
 20
0.0
 30
0.0
  9
$PUCSORGRIGHT
 10
0.0
 20
0.0
 30
0.0
  9
$PUCSORGFRONT
 10
0.0
 20
0.0
 30
0.0
  9
$PUCSORGBACK
 10
0.0
 20
0.0
 30
0.0
  9
$USERI1
 70
     0
  9
$USERI2
 70
     0
  9
$USERI3
 70
     0
  9
$USERI4
 70
     0
  9
$USERI5
 70
     0
  9
$USERR1
 40
0.0
  9
$USERR2
 40
0.0
  9
$USERR3
 40
0.0
  9
$USERR4
 40
0.0
  9
$USERR5
 40
0.0
  9
$WORLDVIEW
 70
     1
  9
$SHADEDGE
 70
     3
  9
$SHADEDIF
 70
    70
  9
$TILEMODE
 70
     1
  9
$MAXACTVP
 70
    16
  9
$PINSBASE
 10
0.0
 20
0.0
 30
0.0
  9
$PLIMCHECK
 70
     0
  9
$PEXTMIN
 10
1.000000000000000E+20
 20
1.000000000000000E+20
 30
1.000000000000000E+20
  9
$PEXTMAX
 10
-1.000000000000000E+20
 20
-1.000000000000000E+20
 30
-1.000000000000000E+20
  9
$PLIMMIN
 10
0.0
 20
0.0
  9
$PLIMMAX
 10
12.0
 20
9.0
  9
$UNITMODE
 70
     0
  9
$VISRETAIN
 70
     0
  9
$PLINEGEN
 70
     0
  9
$PSLTSCALE
 70
     0
  9
$TREEDEPTH
 70
  3020
  9
$CMLSTYLE
  2
Standard
  9
$CMLJUST
 70
     0
  9
$CMLSCALE
 40
1.0
  9
$PROXYGRAPHICS
 70
     1
  9
$MEASUREMENT
 70
     0
  9
$CELWEIGHT
370
    -1
  9
$ENDCAPS
280
     0
  9
$JOINSTYLE
280
     0
  9
$LWDISPLAY
290
     0
  9
$INSUNITS
 70
     1
  9
$HYPERLINKBASE
  1

  9
$STYLESHEET
  1

  9
$XEDIT
290
     1
  9
$CEPSNTYPE
380
     0
  9
$PSTYLEMODE
290
     0
  9
$FINGERPRINTGUID
  2
{FAEB1C30-E019-11D5-929B-00C0DF256EC4}
  9
$VERSIONGUID
  2
{FAEB1C32-E019-11D5-929B-00C0DF256EC4}
  9
$EXTNAMES
290
     1
  9
$PSVPSCALE
 40
0.0
  9
$OLESTARTUP
290
     0
  0
ENDSEC
  0
SECTION
  2
CLASSES
  0
CLASS
  1
ACDBDICTIONARYWDFLT
  2
AcDbDictionaryWithDefault
  3
AutoCAD 2000
 90
        0
280
     0
281
     0
  0
CLASS
  1
ACDBPLACEHOLDER
  2
AcDbPlaceHolder
  3
ObjectDBX Classes
 90
        0
280
     0
281
     0
  0
CLASS
  1
LAYOUT
  2
AcDbLayout
  3
ObjectDBX Classes
 90
        0
280
     0
281
     0
  0
ENDSEC
  0
SECTION
  2
TABLES
  0
TABLE
  2
VPORT
  5
8
330
0
100
AcDbSymbolTable
 70
     2
  0
VPORT
  5
1E
330
8
100
AcDbSymbolTableRecord
100
AcDbViewportTableRecord
  2
*ACTIVE
 70
     0
 10
0.0
 20
0.0
 11
1.0
 21
1.0
 12
11.79297820823245
 22
8.5
 13
16.854919
 23
3.019578
 14
0.025
 24
0.025
 15
0.0
 25
0.0
 16
0.0
 26
0.0
 36
1.0
 17
0.0
 27
0.0
 37
0.0
 40
17.0
 41
0.7207678883071553
 42
50.0
 43
0.0
 44
0.0
 50
0.0
 51
0.0
 71
     0
 72
  2000
 73
     1
 74
     0
 75
     0
 76
     0
 77
     0
 78
     0
281
     0
 65
     1
110
0.0
120
0.0
130
0.0
111
1.0
121
0.0
131
0.0
112
0.0
122
1.0
132
0.0
 79
     0
146
0.0
  0
ENDTAB
  0
TABLE
  2
LTYPE
  5
5
330
0
100
AcDbSymbolTable
 70
     1
  0
LTYPE
  5
10
330
5
100
AcDbSymbolTableRecord
100
AcDbLinetypeTableRecord
  2
ByBlock
 70
     0
  3

 72
    65
 73
     0
 40
0.0
  0
LTYPE
  5
11
330
5
100
AcDbSymbolTableRecord
100
AcDbLinetypeTableRecord
  2
ByLayer
 70
     0
  3

 72
    65
 73
     0
 40
0.0
  0
LTYPE
  5
1B
330
5
100
AcDbSymbolTableRecord
100
AcDbLinetypeTableRecord
  2
CONTINUOUS
 70
     0
  3
Solid line
 72
    65
 73
     0
 40
0.0
  0
ENDTAB
  0
TABLE
  2
LAYER
  5
2
330
0
100
AcDbSymbolTable
 70
     1
  0
LAYER
  5
1C
330
2
100
AcDbSymbolTableRecord
100
AcDbLayerTableRecord
  2
0
 70
     0
 62
     7
  6
CONTINUOUS
370
    -3
390
F
  0
ENDTAB
  0
TABLE
  2
STYLE
  5
3
330
0
100
AcDbSymbolTable
 70
     1
  0
STYLE
  5
20
330
3
100
AcDbSymbolTableRecord
100
AcDbTextStyleTableRecord
  2
STANDARD
 70
     0
 40
0.0
 41
1.0
 50
0.0
 71
     0
 42
0.2
  3
romans
  4

  0
ENDTAB
  0
TABLE
  2
VIEW
  5
6
330
0
100
AcDbSymbolTable
 70
     0
  0
ENDTAB
  0
TABLE
  2
UCS
  5
7
330
0
100
AcDbSymbolTable
 70
     0
  0
ENDTAB
  0
TABLE
  2
APPID
  5
9
330
0
100
AcDbSymbolTable
 70
     1
  0
APPID
  5
1F
330
9
100
AcDbSymbolTableRecord
100
AcDbRegAppTableRecord
  2
ACAD
 70
     0
  0
ENDTAB
  0
TABLE
  2
DIMSTYLE
  5
A
330
0
100
AcDbSymbolTable
 70
     1
100
AcDbDimStyleTable
  0
DIMSTYLE
105
21
330
A
100
AcDbSymbolTableRecord
100
AcDbDimStyleTableRecord
  2
Standard
 70
     0
  3

  4

340
20
  0
ENDTAB
  0
TABLE
  2
BLOCK_RECORD
  5
1
330
0
100
AcDbSymbolTable
 70
     0
  0
BLOCK_RECORD
  5
18
330
1
100
AcDbSymbolTableRecord
100
AcDbBlockTableRecord
  2
*Model_Space
340
19
  0
BLOCK_RECORD
  5
16
330
1
100
AcDbSymbolTableRecord
100
AcDbBlockTableRecord
  2
*Paper_Space
340
17
  0
ENDTAB
  0
ENDSEC
  0
SECTION
  2
BLOCKS
  0
BLOCK
  5
276
330
18
100
AcDbEntity
  8
0
100
AcDbBlockBegin
  2
*Model_Space
 70
     0
 10
0.0
 20
0.0
 30
0.0
  3
*Model_Space
  1

  4

  0
ENDBLK
  5
277
330
18
100
AcDbEntity
  8
0
100
AcDbBlockEnd
  0
BLOCK
  5
274
330
16
100
AcDbEntity
 67
     1
  8
0
100
AcDbBlockBegin
  2
*Paper_Space
 70
     0
 10
0.0
 20
0.0
 30
0.0
  3
*Paper_Space
  1

  4

  0
ENDBLK
  5
275
330
16
100
AcDbEntity
 67
     1
  8
0
100
AcDbBlockEnd
  0
ENDSEC
  0
SECTION
  2
ENTITIES
  0
TEXT
  5
22
330
18
100
AcDbEntity
  8
0
100
AcDbText
 10
1.776
 20
0.404
 30
0.0
 40
0.2
  1
LUS28
100
AcDbText
  0
ARC
  5
23
330
18
100
AcDbEntity
  8
0
100
AcDbCircle
 10
2.349
 20
2.91
 30
0.0
 40
0.056
100
AcDbArc
 50
20.181
 51
44.407
  0
ARC
  5
24
330
18
100
AcDbEntity
  8
0
100
AcDbCircle
 10
2.344
 20
2.908
 30
0.0
 40
0.061
100
AcDbArc
 50
357.038
 51
20.181
  0
ARC
  5
25
330
18
100
AcDbEntity
  8
0
100
AcDbCircle
 10
2.34
 20
2.908
 30
0.0
 40
0.066
100
AcDbArc
 50
335.279
 51
357.038
  0
ARC
  5
26
330
18
100
AcDbEntity
  8
0
100
AcDbCircle
 10
2.335
 20
2.911
 30
0.0
 40
0.072
100
AcDbArc
 50
314.407
 51
335.279
  0
ARC
  5
27
330
18
100
AcDbEntity
  8
0
100
AcDbCircle
 10
2.335
 20
2.911
 30
0.0
 40
0.072
100
AcDbArc
 50
293.535
 51
314.407
  0
ARC
  5
28
330
18
100
AcDbEntity
  8
0
100
AcDbCircle
 10
2.337
 20
2.905
 30
0.0
 40
0.066
100
AcDbArc
 50
271.777
 51
293.535
  0
ARC
  5
29
330
18
100
AcDbEntity
  8
0
100
AcDbCircle
 10
2.337
 20
2.901
 30
0.0
 40
0.061
100
AcDbArc
 50
248.634
 51
271.777
  0
ARC
  5
2A
330
18
100
AcDbEntity
  8
0
100
AcDbCircle
 10
2.335
 20
2.896
 30
0.0
 40
0.056
100
AcDbArc
 50
224.407
 51
248.634
  0
ARC
  5
2B
330
18
100
AcDbEntity
  8
0
100
AcDbCircle
 10
2.335
 20
2.896
 30
0.0
 40
0.056
100
AcDbArc
 50
200.181
 51
224.407
  0
ARC
  5
2C
330
18
100
AcDbEntity
  8
0
100
AcDbCircle
 10
2.34
 20
2.898
 30
0.0
 40
0.061
100
AcDbArc
 50
177.038
 51
200.181
  0
ARC
  5
2D
330
18
100
AcDbEntity
  8
0
100
AcDbCircle
 10
2.345
 20
2.898
 30
0.0
 40
0.066
100
AcDbArc
 50
155.279
 51
177.038
  0
ARC
  5
2E
330
18
100
AcDbEntity
  8
0
100
AcDbCircle
 10
2.35
 20
2.895
 30
0.0
 40
0.072
100
AcDbArc
 50
134.407
 51
155.279
  0
ARC
  5
2F
330
18
100
AcDbEntity
  8
0
100
AcDbCircle
 10
2.35
 20
2.895
 30
0.0
 40
0.072
100
AcDbArc
 50
113.535
 51
134.407
  0
ARC
  5
30
330
18
100
AcDbEntity
  8
0
100
AcDbCircle
 10
2.348
 20
2.9
 30
0.0
 40
0.066
100
AcDbArc
 50
91.77699999999999
 51
113.535
  0
ARC
  5
31
330
18
100
AcDbEntity
  8
0
100
AcDbCircle
 10
2.348
 20
2.905
 30
0.0
 40
0.061
100
AcDbArc
 50
68.634
 51
91.77699999999999
  0
ARC
  5
32
330
18
100
AcDbEntity
  8
0
100
AcDbCircle
 10
2.349
 20
2.91
 30
0.0
 40
0.056
100
AcDbArc
 50
44.407
 51
68.634
  0
ARC
  5
33
330
18
100
AcDbEntity
  8
0
100
AcDbCircle
 10
2.335
 20
3.645
 30
0.0
 40
0.056
100
AcDbArc
 50
20.181
 51
44.407
  0
ARC
  5
34
330
18
100
AcDbEntity
  8
0
100
AcDbCircle
 10
2.33
 20
3.643
 30
0.0
 40
0.061
100
AcDbArc
 50
357.038
 51
20.181
  0
ARC
  5
35
330
18
100
AcDbEntity
  8
0
100
AcDbCircle
 10
2.325
 20
3.643
 30
0.0
 40
0.066
100
AcDbArc
 50
335.279
 51
357.038
  0
ARC
  5
36
330
18
100
AcDbEntity
  8
0
100
AcDbCircle
 10
2.32
 20
3.646
 30
0.0
 40
0.072
100
AcDbArc
 50
314.407
 51
335.279
  0
ARC
  5
37
330
18
100
AcDbEntity
  8
0
100
AcDbCircle
 10
2.32
 20
3.646
 30
0.0
 40
0.072
100
AcDbArc
 50
293.535
 51
314.407
  0
ARC
  5
38
330
18
100
AcDbEntity
  8
0
100
AcDbCircle
 10
2.322
 20
3.641
 30
0.0
 40
0.066
100
AcDbArc
 50
271.777
 51
293.535
  0
ARC
  5
39
330
18
100
AcDbEntity
  8
0
100
AcDbCircle
 10
2.322
 20
3.636
 30
0.0
 40
0.061
100
AcDbArc
 50
248.634
 51
271.777
  0
ARC
  5
3A
330
18
100
AcDbEntity
  8
0
100
AcDbCircle
 10
2.32
 20
3.631
 30
0.0
 40
0.056
100
AcDbArc
 50
224.407
 51
248.634
  0
ARC
  5
3B
330
18
100
AcDbEntity
  8
0
100
AcDbCircle
 10
2.32
 20
3.631
 30
0.0
 40
0.056
100
AcDbArc
 50
200.181
 51
224.407
  0
ARC
  5
3C
330
18
100
AcDbEntity
  8
0
100
AcDbCircle
 10
2.325
 20
3.633
 30
0.0
 40
0.061
100
AcDbArc
 50
177.038
 51
200.181
  0
ARC
  5
3D
330
18
100
AcDbEntity
  8
0
100
AcDbCircle
 10
2.33
 20
3.633
 30
0.0
 40
0.066
100
AcDbArc
 50
155.279
 51
177.038
  0
ARC
  5
3E
330
18
100
AcDbEntity
  8
0
100
AcDbCircle
 10
2.335
 20
3.63
 30
0.0
 40
0.072
100
AcDbArc
 50
134.407
 51
155.279
  0
ARC
  5
3F
330
18
100
AcDbEntity
  8
0
100
AcDbCircle
 10
2.335
 20
3.63
 30
0.0
 40
0.072
100
AcDbArc
 50
113.535
 51
134.407
  0
ARC
  5
40
330
18
100
AcDbEntity
  8
0
100
AcDbCircle
 10
2.333
 20
3.635
 30
0.0
 40
0.066
100
AcDbArc
 50
91.77699999999999
 51
113.535
  0
ARC
  5
41
330
18
100
AcDbEntity
  8
0
100
AcDbCircle
 10
2.333
 20
3.64
 30
0.0
 40
0.061
100
AcDbArc
 50
68.634
 51
91.77699999999999
  0
ARC
  5
42
330
18
100
AcDbEntity
  8
0
100
AcDbCircle
 10
2.335
 20
3.645
 30
0.0
 40
0.056
100
AcDbArc
 50
44.407
 51
68.634
  0
ARC
  5
43
330
18
100
AcDbEntity
  8
0
100
AcDbCircle
 10
2.558
 20
3.891
 30
0.0
 40
0.068
100
AcDbArc
 50
331.186
 51
344.888
  0
ARC
  5
44
330
18
100
AcDbEntity
  8
0
100
AcDbCircle
 10
2.559
 20
3.891
 30
0.0
 40
0.066
100
AcDbArc
 50
308.882
 51
331.186
  0
ARC
  5
45
330
18
100
AcDbEntity
  8
0
100
AcDbCircle
 10
2.56
 20
3.889
 30
0.0
 40
0.065
100
AcDbArc
 50
286.194
 51
308.882
  0
ARC
  5
46
330
18
100
AcDbEntity
  8
0
100
AcDbCircle
 10
2.561
 20
3.888
 30
0.0
 40
0.064
100
AcDbArc
 50
263.227
 51
286.194
  0
ARC
  5
47
330
18
100
AcDbEntity
  8
0
100
AcDbCircle
 10
2.561
 20
3.888
 30
0.0
 40
0.064
100
AcDbArc
 50
240.26
 51
263.227
  0
ARC
  5
48
330
18
100
AcDbEntity
  8
0
100
AcDbCircle
 10
2.561
 20
3.889
 30
0.0
 40
0.065
100
AcDbArc
 50
217.572
 51
240.26
  0
ARC
  5
49
330
18
100
AcDbEntity
  8
0
100
AcDbCircle
 10
2.562
 20
3.89
 30
0.0
 40
0.066
100
AcDbArc
 50
195.268
 51
217.572
  0
ARC
  5
4A
330
18
100
AcDbEntity
  8
0
100
AcDbCircle
 10
2.564
 20
3.891
 30
0.0
 40
0.068
100
AcDbArc
 50
185.129
 51
195.268
  0
ARC
  5
4B
330
18
100
AcDbEntity
  8
0
100
AcDbCircle
 10
2.559
 20
3.87
 30
0.0
 40
0.064
100
AcDbArc
 50
60.25999999999999
 51
83.227
  0
ARC
  5
4C
330
18
100
AcDbEntity
  8
0
100
AcDbCircle
 10
2.558
 20
3.869
 30
0.0
 40
0.065
100
AcDbArc
 50
37.572
 51
60.25999999999999
  0
ARC
  5
4D
330
18
100
AcDbEntity
  8
0
100
AcDbCircle
 10
2.557
 20
3.868
 30
0.0
 40
0.066
100
AcDbArc
 50
15.268
 51
37.572
  0
ARC
  5
4E
330
18
100
AcDbEntity
  8
0
100
AcDbCircle
 10
2.556
 20
3.867
 30
0.0
 40
0.068
100
AcDbArc
 50
353.227
 51
15.268
  0
ARC
  5
4F
330
18
100
AcDbEntity
  8
0
100
AcDbCircle
 10
2.556
 20
3.867
 30
0.0
 40
0.068
100
AcDbArc
 50
331.186
 51
353.227
  0
ARC
  5
50
330
18
100
AcDbEntity
  8
0
100
AcDbCircle
 10
2.557
 20
3.867
 30
0.0
 40
0.066
100
AcDbArc
 50
308.882
 51
331.186
  0
ARC
  5
51
330
18
100
AcDbEntity
  8
0
100
AcDbCircle
 10
2.558
 20
3.866
 30
0.0
 40
0.065
100
AcDbArc
 50
286.194
 51
308.882
  0
ARC
  5
52
330
18
100
AcDbEntity
  8
0
100
AcDbCircle
 10
2.558
 20
3.864
 30
0.0
 40
0.064
100
AcDbArc
 50
263.227
 51
286.194
  0
ARC
  5
53
330
18
100
AcDbEntity
  8
0
100
AcDbCircle
 10
2.558
 20
3.864
 30
0.0
 40
0.064
100
AcDbArc
 50
240.26
 51
263.227
  0
ARC
  5
54
330
18
100
AcDbEntity
  8
0
100
AcDbCircle
 10
2.559
 20
3.866
 30
0.0
 40
0.065
100
AcDbArc
 50
217.572
 51
240.26
  0
ARC
  5
55
330
18
100
AcDbEntity
  8
0
100
AcDbCircle
 10
2.56
 20
3.866
 30
0.0
 40
0.066
100
AcDbArc
 50
195.268
 51
217.572
  0
ARC
  5
56
330
18
100
AcDbEntity
  8
0
100
AcDbCircle
 10
2.562
 20
3.867
 30
0.0
 40
0.068
100
AcDbArc
 50
173.227
 51
195.268
  0
ARC
  5
57
330
18
100
AcDbEntity
  8
0
100
AcDbCircle
 10
2.562
 20
3.867
 30
0.0
 40
0.068
100
AcDbArc
 50
151.186
 51
173.227
  0
ARC
  5
58
330
18
100
AcDbEntity
  8
0
100
AcDbCircle
 10
2.56
 20
3.867
 30
0.0
 40
0.066
100
AcDbArc
 50
128.882
 51
151.186
  0
ARC
  5
59
330
18
100
AcDbEntity
  8
0
100
AcDbCircle
 10
2.56
 20
3.869
 30
0.0
 40
0.065
100
AcDbArc
 50
106.194
 51
128.882
  0
ARC
  5
5A
330
18
100
AcDbEntity
  8
0
100
AcDbCircle
 10
2.559
 20
3.87
 30
0.0
 40
0.064
100
AcDbArc
 50
83.227
 51
106.194
  0
ARC
  5
5B
330
18
100
AcDbEntity
  8
0
100
AcDbCircle
 10
2.708
 20
4.448
 30
0.0
 40
0.057
100
AcDbArc
 50
196.801
 51
261.755
  0
LINE
  5
5C
330
18
100
AcDbEntity
  8
0
100
AcDbLine
 10
2.652
 20
4.529
 30
0.0
 11
2.653
 21
4.431
 31
0.0
  0
ARC
  5
5D
330
18
100
AcDbEntity
  8
0
100
AcDbCircle
 10
2.722
 20
4.456
 30
0.0
 40
0.057
100
AcDbArc
 50
196.801
 51
259.873
  0
LINE
  5
5E
330
18
100
AcDbEntity
  8
0
100
AcDbLine
 10
2.666
 20
4.51
 30
0.0
 11
2.667
 21
4.439
 31
0.0
  0
ARC
  5
5F
330
18
100
AcDbEntity
  8
0
100
AcDbCircle
 10
2.747
 20
4.587
 30
0.0
 40
0.112
100
AcDbArc
 50
168.697
 51
255.541
  0
LINE
  5
60
330
18
100
AcDbEntity
  8
0
100
AcDbLine
 10
2.662
 20
4.737
 30
0.0
 11
2.638
 21
4.608000000000001
 31
0.0
  0
ARC
  5
61
330
18
100
AcDbEntity
  8
0
100
AcDbCircle
 10
2.813
 20
2.756
 30
0.0
 40
0.036
100
AcDbArc
 50
91.143
 51
117.726
  0
ARC
  5
62
330
18
100
AcDbEntity
  8
0
100
AcDbCircle
 10
2.814
 20
2.748
 30
0.0
 40
0.044
100
AcDbArc
 50
67.34399999999999
 51
91.143
  0
ARC
  5
63
330
18
100
AcDbEntity
  8
0
100
AcDbCircle
 10
2.81
 20
2.74
 30
0.0
 40
0.052
100
AcDbArc
 50
46.652
 51
67.34399999999999
  0
ARC
  5
64
330
18
100
AcDbEntity
  8
0
100
AcDbCircle
 10
2.804
 20
2.733
 30
0.0
 40
0.062
100
AcDbArc
 50
27.726
 51
46.652
  0
ARC
  5
65
330
18
100
AcDbEntity
  8
0
100
AcDbCircle
 10
2.804
 20
2.733
 30
0.0
 40
0.062
100
AcDbArc
 50
8.801
 51
27.726
  0
ARC
  5
66
330
18
100
AcDbEntity
  8
0
100
AcDbCircle
 10
2.814
 20
2.734
 30
0.0
 40
0.052
100
AcDbArc
 50
348.109
 51
8.801
  0
ARC
  5
67
330
18
100
AcDbEntity
  8
0
100
AcDbCircle
 10
2.821
 20
2.733
 30
0.0
 40
0.044
100
AcDbArc
 50
324.31
 51
348.109
  0
ARC
  5
68
330
18
100
AcDbEntity
  8
0
100
AcDbCircle
 10
2.828
 20
2.728
 30
0.0
 40
0.036
100
AcDbArc
 50
297.726
 51
324.31
  0
ARC
  5
69
330
18
100
AcDbEntity
  8
0
100
AcDbCircle
 10
2.828
 20
2.728
 30
0.0
 40
0.036
100
AcDbArc
 50
271.143
 51
297.726
  0
ARC
  5
6A
330
18
100
AcDbEntity
  8
0
100
AcDbCircle
 10
2.828
 20
2.736
 30
0.0
 40
0.044
100
AcDbArc
 50
247.344
 51
271.143
  0
ARC
  5
6B
330
18
100
AcDbEntity
  8
0
100
AcDbCircle
 10
2.831
 20
2.744
 30
0.0
 40
0.052
100
AcDbArc
 50
226.652
 51
247.344
  0
ARC
  5
6C
330
18
100
AcDbEntity
  8
0
100
AcDbCircle
 10
2.838
 20
2.751
 30
0.0
 40
0.062
100
AcDbArc
 50
207.726
 51
226.652
  0
ARC
  5
6D
330
18
100
AcDbEntity
  8
0
100
AcDbCircle
 10
2.838
 20
2.751
 30
0.0
 40
0.062
100
AcDbArc
 50
188.801
 51
207.726
  0
ARC
  5
6E
330
18
100
AcDbEntity
  8
0
100
AcDbCircle
 10
2.828
 20
2.75
 30
0.0
 40
0.052
100
AcDbArc
 50
168.109
 51
188.801
  0
ARC
  5
6F
330
18
100
AcDbEntity
  8
0
100
AcDbCircle
 10
2.82
 20
2.751
 30
0.0
 40
0.044
100
AcDbArc
 50
144.31
 51
168.109
  0
ARC
  5
70
330
18
100
AcDbEntity
  8
0
100
AcDbCircle
 10
2.813
 20
2.756
 30
0.0
 40
0.036
100
AcDbArc
 50
117.726
 51
144.31
  0
ARC
  5
71
330
18
100
AcDbEntity
  8
0
100
AcDbCircle
 10
2.835
 20
2.763
 30
0.0
 40
0.036
100
AcDbArc
 50
117.726
 51
124.92
  0
ARC
  5
72
330
18
100
AcDbEntity
  8
0
100
AcDbCircle
 10
2.835
 20
2.763
 30
0.0
 40
0.036
100
AcDbArc
 50
91.143
 51
117.726
  0
ARC
  5
73
330
18
100
AcDbEntity
  8
0
100
AcDbCircle
 10
2.835
 20
2.754
 30
0.0
 40
0.044
100
AcDbArc
 50
67.34399999999999
 51
91.143
  0
ARC
  5
74
330
18
100
AcDbEntity
  8
0
100
AcDbCircle
 10
2.832
 20
2.747
 30
0.0
 40
0.052
100
AcDbArc
 50
46.652
 51
67.34399999999999
  0
ARC
  5
75
330
18
100
AcDbEntity
  8
0
100
AcDbCircle
 10
2.825
 20
2.739
 30
0.0
 40
0.062
100
AcDbArc
 50
27.726
 51
46.652
  0
ARC
  5
76
330
18
100
AcDbEntity
  8
0
100
AcDbCircle
 10
2.825
 20
2.739
 30
0.0
 40
0.062
100
AcDbArc
 50
8.801
 51
27.726
  0
ARC
  5
77
330
18
100
AcDbEntity
  8
0
100
AcDbCircle
 10
2.835
 20
2.741
 30
0.0
 40
0.052
100
AcDbArc
 50
348.109
 51
8.801
  0
ARC
  5
78
330
18
100
AcDbEntity
  8
0
100
AcDbCircle
 10
2.843
 20
2.739
 30
0.0
 40
0.044
100
AcDbArc
 50
324.31
 51
348.109
  0
ARC
  5
79
330
18
100
AcDbEntity
  8
0
100
AcDbCircle
 10
2.85
 20
2.734
 30
0.0
 40
0.036
100
AcDbArc
 50
297.726
 51
324.31
  0
ARC
  5
7A
330
18
100
AcDbEntity
  8
0
100
AcDbCircle
 10
2.85
 20
2.734
 30
0.0
 40
0.036
100
AcDbArc
 50
271.143
 51
297.726
  0
ARC
  5
7B
330
18
100
AcDbEntity
  8
0
100
AcDbCircle
 10
2.85
 20
2.743
 30
0.0
 40
0.044
100
AcDbArc
 50
268.748
 51
271.143
  0
ARC
  5
7C
330
18
100
AcDbEntity
  8
0
100
AcDbCircle
 10
2.8
 20
4.037
 30
0.0
 40
0.036
100
AcDbArc
 50
91.143
 51
117.726
  0
ARC
  5
7D
330
18
100
AcDbEntity
  8
0
100
AcDbCircle
 10
2.8
 20
4.028000000000001
 30
0.0
 40
0.044
100
AcDbArc
 50
67.34399999999999
 51
91.143
  0
ARC
  5
7E
330
18
100
AcDbEntity
  8
0
100
AcDbCircle
 10
2.797
 20
4.021
 30
0.0
 40
0.052
100
AcDbArc
 50
46.652
 51
67.34399999999999
  0
ARC
  5
7F
330
18
100
AcDbEntity
  8
0
100
AcDbCircle
 10
2.79
 20
4.013999999999999
 30
0.0
 40
0.062
100
AcDbArc
 50
27.726
 51
46.652
  0
ARC
  5
80
330
18
100
AcDbEntity
  8
0
100
AcDbCircle
 10
2.79
 20
4.013999999999999
 30
0.0
 40
0.062
100
AcDbArc
 50
8.801
 51
27.726
  0
ARC
  5
81
330
18
100
AcDbEntity
  8
0
100
AcDbCircle
 10
2.8
 20
4.015
 30
0.0
 40
0.052
100
AcDbArc
 50
348.109
 51
8.801
  0
ARC
  5
82
330
18
100
AcDbEntity
  8
0
100
AcDbCircle
 10
2.808
 20
4.013999999999999
 30
0.0
 40
0.044
100
AcDbArc
 50
324.31
 51
348.109
  0
ARC
  5
83
330
18
100
AcDbEntity
  8
0
100
AcDbCircle
 10
2.815
 20
4.008
 30
0.0
 40
0.036
100
AcDbArc
 50
297.726
 51
324.31
  0
ARC
  5
84
330
18
100
AcDbEntity
  8
0
100
AcDbCircle
 10
2.815
 20
4.008
 30
0.0
 40
0.036
100
AcDbArc
 50
271.143
 51
297.726
  0
ARC
  5
85
330
18
100
AcDbEntity
  8
0
100
AcDbCircle
 10
2.815
 20
4.017
 30
0.0
 40
0.044
100
AcDbArc
 50
247.344
 51
271.143
  0
ARC
  5
86
330
18
100
AcDbEntity
  8
0
100
AcDbCircle
 10
2.818
 20
4.024
 30
0.0
 40
0.052
100
AcDbArc
 50
226.652
 51
247.344
  0
ARC
  5
87
330
18
100
AcDbEntity
  8
0
100
AcDbCircle
 10
2.825
 20
4.032
 30
0.0
 40
0.062
100
AcDbArc
 50
207.726
 51
226.652
  0
ARC
  5
88
330
18
100
AcDbEntity
  8
0
100
AcDbCircle
 10
2.825
 20
4.032
 30
0.0
 40
0.062
100
AcDbArc
 50
188.801
 51
207.726
  0
ARC
  5
89
330
18
100
AcDbEntity
  8
0
100
AcDbCircle
 10
2.815
 20
4.03
 30
0.0
 40
0.052
100
AcDbArc
 50
168.109
 51
188.801
  0
ARC
  5
8A
330
18
100
AcDbEntity
  8
0
100
AcDbCircle
 10
2.807
 20
4.032
 30
0.0
 40
0.044
100
AcDbArc
 50
144.31
 51
168.109
  0
ARC
  5
8B
330
18
100
AcDbEntity
  8
0
100
AcDbCircle
 10
2.8
 20
4.037
 30
0.0
 40
0.036
100
AcDbArc
 50
117.726
 51
144.31
  0
ARC
  5
8C
330
18
100
AcDbEntity
  8
0
100
AcDbCircle
 10
2.822
 20
4.043
 30
0.0
 40
0.036
100
AcDbArc
 50
117.726
 51
124.92
  0
ARC
  5
8D
330
18
100
AcDbEntity
  8
0
100
AcDbCircle
 10
2.822
 20
4.043
 30
0.0
 40
0.036
100
AcDbArc
 50
91.143
 51
117.726
  0
ARC
  5
8E
330
18
100
AcDbEntity
  8
0
100
AcDbCircle
 10
2.822
 20
4.035
 30
0.0
 40
0.044
100
AcDbArc
 50
67.34399999999999
 51
91.143
  0
ARC
  5
8F
330
18
100
AcDbEntity
  8
0
100
AcDbCircle
 10
2.819
 20
4.027
 30
0.0
 40
0.052
100
AcDbArc
 50
46.652
 51
67.34399999999999
  0
ARC
  5
90
330
18
100
AcDbEntity
  8
0
100
AcDbCircle
 10
2.812
 20
4.02
 30
0.0
 40
0.062
100
AcDbArc
 50
27.726
 51
46.652
  0
ARC
  5
91
330
18
100
AcDbEntity
  8
0
100
AcDbCircle
 10
2.812
 20
4.02
 30
0.0
 40
0.062
100
AcDbArc
 50
8.801
 51
27.726
  0
ARC
  5
92
330
18
100
AcDbEntity
  8
0
100
AcDbCircle
 10
2.822
 20
4.022
 30
0.0
 40
0.052
100
AcDbArc
 50
348.109
 51
8.801
  0
ARC
  5
93
330
18
100
AcDbEntity
  8
0
100
AcDbCircle
 10
2.829
 20
4.02
 30
0.0
 40
0.044
100
AcDbArc
 50
324.31
 51
348.109
  0
ARC
  5
94
330
18
100
AcDbEntity
  8
0
100
AcDbCircle
 10
2.837
 20
4.015
 30
0.0
 40
0.036
100
AcDbArc
 50
297.726
 51
324.31
  0
ARC
  5
95
330
18
100
AcDbEntity
  8
0
100
AcDbCircle
 10
2.837
 20
4.015
 30
0.0
 40
0.036
100
AcDbArc
 50
271.143
 51
297.726
  0
ARC
  5
96
330
18
100
AcDbEntity
  8
0
100
AcDbCircle
 10
2.836
 20
4.024
 30
0.0
 40
0.044
100
AcDbArc
 50
268.748
 51
271.143
  0
ARC
  5
97
330
18
100
AcDbEntity
  8
0
100
AcDbCircle
 10
2.774
 20
4.834
 30
0.0
 40
0.036
100
AcDbArc
 50
91.143
 51
117.726
  0
ARC
  5
98
330
18
100
AcDbEntity
  8
0
100
AcDbCircle
 10
2.774
 20
4.825
 30
0.0
 40
0.044
100
AcDbArc
 50
67.34399999999999
 51
91.143
  0
ARC
  5
99
330
18
100
AcDbEntity
  8
0
100
AcDbCircle
 10
2.771
 20
4.818000000000001
 30
0.0
 40
0.052
100
AcDbArc
 50
46.652
 51
67.34399999999999
  0
ARC
  5
9A
330
18
100
AcDbEntity
  8
0
100
AcDbCircle
 10
2.764
 20
4.81
 30
0.0
 40
0.062
100
AcDbArc
 50
27.726
 51
46.652
  0
ARC
  5
9B
330
18
100
AcDbEntity
  8
0
100
AcDbCircle
 10
2.764
 20
4.81
 30
0.0
 40
0.062
100
AcDbArc
 50
8.801
 51
27.726
  0
ARC
  5
9C
330
18
100
AcDbEntity
  8
0
100
AcDbCircle
 10
2.774
 20
4.812
 30
0.0
 40
0.052
100
AcDbArc
 50
348.109
 51
8.801
  0
ARC
  5
9D
330
18
100
AcDbEntity
  8
0
100
AcDbCircle
 10
2.782
 20
4.81
 30
0.0
 40
0.044
100
AcDbArc
 50
324.31
 51
348.109
  0
ARC
  5
9E
330
18
100
AcDbEntity
  8
0
100
AcDbCircle
 10
2.789
 20
4.805
 30
0.0
 40
0.036
100
AcDbArc
 50
297.726
 51
324.31
  0
ARC
  5
9F
330
18
100
AcDbEntity
  8
0
100
AcDbCircle
 10
2.789
 20
4.805
 30
0.0
 40
0.036
100
AcDbArc
 50
271.143
 51
297.726
  0
ARC
  5
A0
330
18
100
AcDbEntity
  8
0
100
AcDbCircle
 10
2.789
 20
4.814
 30
0.0
 40
0.044
100
AcDbArc
 50
268.748
 51
271.143
  0
ARC
  5
A1
330
18
100
AcDbEntity
  8
0
100
AcDbCircle
 10
2.774
 20
4.834
 30
0.0
 40
0.036
100
AcDbArc
 50
117.726
 51
124.92
  0
ARC
  5
A2
330
18
100
AcDbEntity
  8
0
100
AcDbCircle
 10
2.752
 20
4.827
 30
0.0
 40
0.036
100
AcDbArc
 50
91.143
 51
117.726
  0
ARC
  5
A3
330
18
100
AcDbEntity
  8
0
100
AcDbCircle
 10
2.752
 20
4.819
 30
0.0
 40
0.044
100
AcDbArc
 50
67.34399999999999
 51
91.143
  0
ARC
  5
A4
330
18
100
AcDbEntity
  8
0
100
AcDbCircle
 10
2.749
 20
4.811
 30
0.0
 40
0.052
100
AcDbArc
 50
46.652
 51
67.34399999999999
  0
ARC
  5
A5
330
18
100
AcDbEntity
  8
0
100
AcDbCircle
 10
2.742
 20
4.803999999999999
 30
0.0
 40
0.062
100
AcDbArc
 50
27.726
 51
46.652
  0
ARC
  5
A6
330
18
100
AcDbEntity
  8
0
100
AcDbCircle
 10
2.742
 20
4.803999999999999
 30
0.0
 40
0.062
100
AcDbArc
 50
8.801
 51
27.726
  0
ARC
  5
A7
330
18
100
AcDbEntity
  8
0
100
AcDbCircle
 10
2.752
 20
4.806
 30
0.0
 40
0.052
100
AcDbArc
 50
348.109
 51
8.801
  0
ARC
  5
A8
330
18
100
AcDbEntity
  8
0
100
AcDbCircle
 10
2.76
 20
4.803999999999999
 30
0.0
 40
0.044
100
AcDbArc
 50
324.31
 51
348.109
  0
ARC
  5
A9
330
18
100
AcDbEntity
  8
0
100
AcDbCircle
 10
2.767
 20
4.799
 30
0.0
 40
0.036
100
AcDbArc
 50
297.726
 51
324.31
  0
ARC
  5
AA
330
18
100
AcDbEntity
  8
0
100
AcDbCircle
 10
2.767
 20
4.799
 30
0.0
 40
0.036
100
AcDbArc
 50
271.143
 51
297.726
  0
ARC
  5
AB
330
18
100
AcDbEntity
  8
0
100
AcDbCircle
 10
2.767
 20
4.808
 30
0.0
 40
0.044
100
AcDbArc
 50
247.344
 51
271.143
  0
ARC
  5
AC
330
18
100
AcDbEntity
  8
0
100
AcDbCircle
 10
2.77
 20
4.815
 30
0.0
 40
0.052
100
AcDbArc
 50
226.652
 51
247.344
  0
ARC
  5
AD
330
18
100
AcDbEntity
  8
0
100
AcDbCircle
 10
2.777
 20
4.822
 30
0.0
 40
0.062
100
AcDbArc
 50
207.726
 51
226.652
  0
ARC
  5
AE
330
18
100
AcDbEntity
  8
0
100
AcDbCircle
 10
2.777
 20
4.822
 30
0.0
 40
0.062
100
AcDbArc
 50
188.801
 51
207.726
  0
ARC
  5
AF
330
18
100
AcDbEntity
  8
0
100
AcDbCircle
 10
2.767
 20
4.821000000000001
 30
0.0
 40
0.052
100
AcDbArc
 50
168.109
 51
188.801
  0
ARC
  5
B0
330
18
100
AcDbEntity
  8
0
100
AcDbCircle
 10
2.759
 20
4.822
 30
0.0
 40
0.044
100
AcDbArc
 50
144.31
 51
168.109
  0
ARC
  5
B1
330
18
100
AcDbEntity
  8
0
100
AcDbCircle
 10
2.752
 20
4.827
 30
0.0
 40
0.036
100
AcDbArc
 50
117.726
 51
144.31
  0
LINE
  5
B2
330
18
100
AcDbEntity
  8
0
100
AcDbLine
 10
0.9670000000000001
 20
3.009
 30
0.0
 11
1.002
 21
2.889
 31
0.0
  0
LINE
  5
B3
330
18
100
AcDbEntity
  8
0
100
AcDbLine
 10
0.961
 20
3.07
 30
0.0
 11
0.9670000000000001
 21
3.009
 31
0.0
  0
LINE
  5
B4
330
18
100
AcDbEntity
  8
0
100
AcDbLine
 10
0.9840000000000001
 20
2.526
 30
0.0
 11
1.002
 21
2.456
 31
0.0
  0
LINE
  5
B5
330
18
100
AcDbEntity
  8
0
100
AcDbLine
 10
0.9290000000000001
 20
2.751
 30
0.0
 11
0.9840000000000001
 21
2.526
 31
0.0
  0
LINE
  5
B6
330
18
100
AcDbEntity
  8
0
100
AcDbLine
 10
0.897
 20
2.933
 30
0.0
 11
0.9290000000000001
 21
2.751
 31
0.0
  0
LINE
  5
B7
330
18
100
AcDbEntity
  8
0
100
AcDbLine
 10
0.8590000000000001
 20
3.11
 30
0.0
 11
0.897
 21
2.933
 31
0.0
  0
LINE
  5
B8
330
18
100
AcDbEntity
  8
0
100
AcDbLine
 10
0.978
 20
2.212
 30
0.0
 11
1.002
 21
2.133
 31
0.0
  0
LINE
  5
B9
330
18
100
AcDbEntity
  8
0
100
AcDbLine
 10
0.9320000000000001
 20
2.393
 30
0.0
 11
0.978
 21
2.212
 31
0.0
  0
LINE
  5
BA
330
18
100
AcDbEntity
  8
0
100
AcDbLine
 10
0.893
 20
2.624
 30
0.0
 11
0.9320000000000001
 21
2.393
 31
0.0
  0
LINE
  5
BB
330
18
100
AcDbEntity
  8
0
100
AcDbLine
 10
0.841
 20
2.899
 30
0.0
 11
0.893
 21
2.624
 31
0.0
  0
LINE
  5
BC
330
18
100
AcDbEntity
  8
0
100
AcDbLine
 10
0.8029999999999999
 20
3.131
 30
0.0
 11
0.841
 21
2.899
 31
0.0
  0
LINE
  5
BD
330
18
100
AcDbEntity
  8
0
100
AcDbLine
 10
0.972
 20
1.916
 30
0.0
 11
1.002
 21
1.818
 31
0.0
  0
LINE
  5
BE
330
18
100
AcDbEntity
  8
0
100
AcDbLine
 10
0.917
 20
2.113
 30
0.0
 11
0.972
 21
1.916
 31
0.0
  0
LINE
  5
BF
330
18
100
AcDbEntity
  8
0
100
AcDbLine
 10
0.852
 20
2.397
 30
0.0
 11
0.917
 21
2.113
 31
0.0
  0
LINE
  5
C0
330
18
100
AcDbEntity
  8
0
100
AcDbLine
 10
0.7979999999999999
 20
2.611
 30
0.0
 11
0.852
 21
2.397
 31
0.0
  0
LINE
  5
C1
330
18
100
AcDbEntity
  8
0
100
AcDbLine
 10
0.736
 20
2.93
 30
0.0
 11
0.7979999999999999
 21
2.611
 31
0.0
  0
LINE
  5
C2
330
18
100
AcDbEntity
  8
0
100
AcDbLine
 10
0.706
 20
3.169
 30
0.0
 11
0.736
 21
2.93
 31
0.0
  0
LINE
  5
C3
330
18
100
AcDbEntity
  8
0
100
AcDbLine
 10
0.9840000000000001
 20
1.513
 30
0.0
 11
0.988
 21
1.498
 31
0.0
  0
LINE
  5
C4
330
18
100
AcDbEntity
  8
0
100
AcDbLine
 10
0.924
 20
1.681
 30
0.0
 11
0.9840000000000001
 21
1.513
 31
0.0
  0
LINE
  5
C5
330
18
100
AcDbEntity
  8
0
100
AcDbLine
 10
0.8759999999999999
 20
1.868
 30
0.0
 11
0.924
 21
1.681
 31
0.0
  0
LINE
  5
C6
330
18
100
AcDbEntity
  8
0
100
AcDbLine
 10
0.8290000000000001
 20
2.065
 30
0.0
 11
0.8759999999999999
 21
1.868
 31
0.0
  0
LINE
  5
C7
330
18
100
AcDbEntity
  8
0
100
AcDbLine
 10
0.774
 20
2.346
 30
0.0
 11
0.8290000000000001
 21
2.065
 31
0.0
  0
LINE
  5
C8
330
18
100
AcDbEntity
  8
0
100
AcDbLine
 10
0.7090000000000001
 20
2.621
 30
0.0
 11
0.774
 21
2.346
 31
0.0
  0
LINE
  5
C9
330
18
100
AcDbEntity
  8
0
100
AcDbLine
 10
0.653
 20
2.898
 30
0.0
 11
0.7090000000000001
 21
2.621
 31
0.0
  0
LINE
  5
CA
330
18
100
AcDbEntity
  8
0
100
AcDbLine
 10
0.59
 20
3.213
 30
0.0
 11
0.653
 21
2.898
 31
0.0
  0
LINE
  5
CB
330
18
100
AcDbEntity
  8
0
100
AcDbLine
 10
0.831
 20
1.734
 30
0.0
 11
0.9009999999999999
 21
1.537
 31
0.0
  0
LINE
  5
CC
330
18
100
AcDbEntity
  8
0
100
AcDbLine
 10
0.77
 20
2.04
 30
0.0
 11
0.831
 21
1.734
 31
0.0
  0
LINE
  5
CD
330
18
100
AcDbEntity
  8
0
100
AcDbLine
 10
0.6990000000000001
 20
2.258
 30
0.0
 11
0.77
 21
2.04
 31
0.0
  0
LINE
  5
CE
330
18
100
AcDbEntity
  8
0
100
AcDbLine
 10
0.6579999999999999
 20
2.453
 30
0.0
 11
0.6990000000000001
 21
2.258
 31
0.0
  0
LINE
  5
CF
330
18
100
AcDbEntity
  8
0
100
AcDbLine
 10
0.5870000000000001
 20
2.716
 30
0.0
 11
0.6579999999999999
 21
2.453
 31
0.0
  0
LINE
  5
D0
330
18
100
AcDbEntity
  8
0
100
AcDbLine
 10
0.545
 20
3.019
 30
0.0
 11
0.5870000000000001
 21
2.716
 31
0.0
  0
LINE
  5
D1
330
18
100
AcDbEntity
  8
0
100
AcDbLine
 10
0.499
 20
3.248
 30
0.0
 11
0.545
 21
3.019
 31
0.0
  0
LINE
  5
D2
330
18
100
AcDbEntity
  8
0
100
AcDbLine
 10
0.7959999999999999
 20
1.61
 30
0.0
 11
0.8090000000000001
 21
1.579
 31
0.0
  0
LINE
  5
D3
330
18
100
AcDbEntity
  8
0
100
AcDbLine
 10
0.7509999999999999
 20
1.733
 30
0.0
 11
0.7959999999999999
 21
1.61
 31
0.0
  0
LINE
  5
D4
330
18
100
AcDbEntity
  8
0
100
AcDbLine
 10
0.6990000000000001
 20
1.949
 30
0.0
 11
0.7509999999999999
 21
1.733
 31
0.0
  0
LINE
  5
D5
330
18
100
AcDbEntity
  8
0
100
AcDbLine
 10
0.652
 20
2.126
 30
0.0
 11
0.6990000000000001
 21
1.949
 31
0.0
  0
LINE
  5
D6
330
18
100
AcDbEntity
  8
0
100
AcDbLine
 10
0.5820000000000001
 20
2.344
 30
0.0
 11
0.652
 21
2.126
 31
0.0
  0
LINE
  5
D7
330
18
100
AcDbEntity
  8
0
100
AcDbLine
 10
0.537
 20
2.51
 30
0.0
 11
0.5820000000000001
 21
2.344
 31
0.0
  0
LINE
  5
D8
330
18
100
AcDbEntity
  8
0
100
AcDbLine
 10
0.4920000000000001
 20
2.773
 30
0.0
 11
0.537
 21
2.51
 31
0.0
  0
LINE
  5
D9
330
18
100
AcDbEntity
  8
0
100
AcDbLine
 10
0.435
 20
3.188
 30
0.0
 11
0.4920000000000001
 21
2.773
 31
0.0
  0
LINE
  5
DA
330
18
100
AcDbEntity
  8
0
100
AcDbLine
 10
0.481
 20
2.387
 30
0.0
 11
0.436
 21
2.543
 31
0.0
  0
LINE
  5
DB
330
18
100
AcDbEntity
  8
0
100
AcDbLine
 10
0.564
 20
2.127
 30
0.0
 11
0.481
 21
2.387
 31
0.0
  0
LINE
  5
DC
330
18
100
AcDbEntity
  8
0
100
AcDbLine
 10
0.6409999999999999
 20
1.762
 30
0.0
 11
0.564
 21
2.127
 31
0.0
  0
LINE
  5
DD
330
18
100
AcDbEntity
  8
0
100
AcDbLine
 10
0.6729999999999999
 20
1.64
 30
0.0
 11
0.6409999999999999
 21
1.762
 31
0.0
  0
LINE
  5
DE
330
18
100
AcDbEntity
  8
0
100
AcDbLine
 10
0.477
 20
2.03
 30
0.0
 11
0.4370000000000001
 21
2.119
 31
0.0
  0
LINE
  5
DF
330
18
100
AcDbEntity
  8
0
100
AcDbLine
 10
0.528
 20
1.867
 30
0.0
 11
0.477
 21
2.03
 31
0.0
  0
LINE
  5
E0
330
18
100
AcDbEntity
  8
0
100
AcDbLine
 10
0.595
 20
1.675
 30
0.0
 11
0.528
 21
1.867
 31
0.0
  0
LINE
  5
E1
330
18
100
AcDbEntity
  8
0
100
AcDbLine
 10
0.456
 20
4.078
 30
0.0
 11
0.434
 21
4.162
 31
0.0
  0
LINE
  5
E2
330
18
100
AcDbEntity
  8
0
100
AcDbLine
 10
0.503
 20
3.86
 30
0.0
 11
0.456
 21
4.078
 31
0.0
  0
LINE
  5
E3
330
18
100
AcDbEntity
  8
0
100
AcDbLine
 10
0.461
 20
4.477
 30
0.0
 11
0.433
 21
4.585
 31
0.0
  0
LINE
  5
E4
330
18
100
AcDbEntity
  8
0
100
AcDbLine
 10
0.53
 20
4.194
 30
0.0
 11
0.461
 21
4.477
 31
0.0
  0
LINE
  5
E5
330
18
100
AcDbEntity
  8
0
100
AcDbLine
 10
0.62
 20
3.814
 30
0.0
 11
0.53
 21
4.194
 31
0.0
  0
LINE
  5
E6
330
18
100
AcDbEntity
  8
0
100
AcDbLine
 10
0.44
 20
5.009
 30
0.0
 11
0.433
 21
5.039
 31
0.0
  0
LINE
  5
E7
330
18
100
AcDbEntity
  8
0
100
AcDbLine
 10
0.473
 20
4.849
 30
0.0
 11
0.44
 21
5.009
 31
0.0
  0
LINE
  5
E8
330
18
100
AcDbEntity
  8
0
100
AcDbLine
 10
0.521
 20
4.635
 30
0.0
 11
0.473
 21
4.849
 31
0.0
  0
LINE
  5
E9
330
18
100
AcDbEntity
  8
0
100
AcDbLine
 10
0.569
 20
4.378
 30
0.0
 11
0.521
 21
4.635
 31
0.0
  0
LINE
  5
EA
330
18
100
AcDbEntity
  8
0
100
AcDbLine
 10
0.626
 20
4.136
 30
0.0
 11
0.569
 21
4.378
 31
0.0
  0
LINE
  5
EB
330
18
100
AcDbEntity
  8
0
100
AcDbLine
 10
0.73
 20
3.772
 30
0.0
 11
0.626
 21
4.136
 31
0.0
  0
LINE
  5
EC
330
18
100
AcDbEntity
  8
0
100
AcDbLine
 10
0.547
 20
5.021
 30
0.0
 11
0.529
 21
5.145
 31
0.0
  0
LINE
  5
ED
330
18
100
AcDbEntity
  8
0
100
AcDbLine
 10
0.581
 20
4.83
 30
0.0
 11
0.547
 21
5.021
 31
0.0
  0
LINE
  5
EE
330
18
100
AcDbEntity
  8
0
100
AcDbLine
 10
0.6459999999999999
 20
4.553999999999999
 30
0.0
 11
0.581
 21
4.83
 31
0.0
  0
LINE
  5
EF
330
18
100
AcDbEntity
  8
0
100
AcDbLine
 10
0.698
 20
4.308
 30
0.0
 11
0.6459999999999999
 21
4.553999999999999
 31
0.0
  0
LINE
  5
F0
330
18
100
AcDbEntity
  8
0
100
AcDbLine
 10
0.747
 20
4.051
 30
0.0
 11
0.698
 21
4.308
 31
0.0
  0
LINE
  5
F1
330
18
100
AcDbEntity
  8
0
100
AcDbLine
 10
0.794
 20
3.747
 30
0.0
 11
0.747
 21
4.051
 31
0.0
  0
LINE
  5
F2
330
18
100
AcDbEntity
  8
0
100
AcDbLine
 10
0.696
 20
5.004
 30
0.0
 11
0.6859999999999999
 21
5.089
 31
0.0
  0
LINE
  5
F3
330
18
100
AcDbEntity
  8
0
100
AcDbLine
 10
0.715
 20
4.865
 30
0.0
 11
0.696
 21
5.004
 31
0.0
  0
LINE
  5
F4
330
18
100
AcDbEntity
  8
0
100
AcDbLine
 10
0.754
 20
4.643
 30
0.0
 11
0.715
 21
4.865
 31
0.0
  0
LINE
  5
F5
330
18
100
AcDbEntity
  8
0
100
AcDbLine
 10
0.779
 20
4.376
 30
0.0
 11
0.754
 21
4.643
 31
0.0
  0
LINE
  5
F6
330
18
100
AcDbEntity
  8
0
100
AcDbLine
 10
0.8059999999999999
 20
4.21
 30
0.0
 11
0.779
 21
4.376
 31
0.0
  0
LINE
  5
F7
330
18
100
AcDbEntity
  8
0
100
AcDbLine
 10
0.828
 20
3.988
 30
0.0
 11
0.8059999999999999
 21
4.21
 31
0.0
  0
LINE
  5
F8
330
18
100
AcDbEntity
  8
0
100
AcDbLine
 10
0.885
 20
3.712
 30
0.0
 11
0.828
 21
3.988
 31
0.0
  0
LINE
  5
F9
330
18
100
AcDbEntity
  8
0
100
AcDbLine
 10
0.79
 20
5.03
 30
0.0
 11
0.7859999999999999
 21
5.053
 31
0.0
  0
LINE
  5
FA
330
18
100
AcDbEntity
  8
0
100
AcDbLine
 10
0.815
 20
4.864
 30
0.0
 11
0.79
 21
5.03
 31
0.0
  0
LINE
  5
FB
330
18
100
AcDbEntity
  8
0
100
AcDbLine
 10
0.847
 20
4.624
 30
0.0
 11
0.815
 21
4.864
 31
0.0
  0
LINE
  5
FC
330
18
100
AcDbEntity
  8
0
100
AcDbLine
 10
0.863
 20
4.401
 30
0.0
 11
0.847
 21
4.624
 31
0.0
  0
LINE
  5
FD
330
18
100
AcDbEntity
  8
0
100
AcDbLine
 10
0.877
 20
4.194
 30
0.0
 11
0.863
 21
4.401
 31
0.0
  0
LINE
  5
FE
330
18
100
AcDbEntity
  8
0
100
AcDbLine
 10
0.9079999999999999
 20
3.98
 30
0.0
 11
0.877
 21
4.194
 31
0.0
  0
LINE
  5
FF
330
18
100
AcDbEntity
  8
0
100
AcDbLine
 10
0.963
 20
3.682
 30
0.0
 11
0.9079999999999999
 21
3.98
 31
0.0
  0
LINE
  5
100
330
18
100
AcDbEntity
  8
0
100
AcDbLine
 10
0.897
 20
4.958
 30
0.0
 11
0.893
 21
5.015
 31
0.0
  0
LINE
  5
101
330
18
100
AcDbEntity
  8
0
100
AcDbLine
 10
0.897
 20
4.785
 30
0.0
 11
0.897
 21
4.958
 31
0.0
  0
LINE
  5
102
330
18
100
AcDbEntity
  8
0
100
AcDbLine
 10
0.914
 20
4.598
 30
0.0
 11
0.897
 21
4.785
 31
0.0
  0
LINE
  5
103
330
18
100
AcDbEntity
  8
0
100
AcDbLine
 10
0.943
 20
4.327
 30
0.0
 11
0.914
 21
4.598
 31
0.0
  0
LINE
  5
104
330
18
100
AcDbEntity
  8
0
100
AcDbLine
 10
0.982
 20
4.11
 30
0.0
 11
0.943
 21
4.327
 31
0.0
  0
LINE
  5
105
330
18
100
AcDbEntity
  8
0
100
AcDbLine
 10
1.002
 20
4.049
 30
0.0
 11
0.982
 21
4.11
 31
0.0
  0
LINE
  5
106
330
18
100
AcDbEntity
  8
0
100
AcDbLine
 10
4.371
 20
1.669
 30
0.0
 11
4.384
 21
1.555
 31
0.0
  0
LINE
  5
107
330
18
100
AcDbEntity
  8
0
100
AcDbLine
 10
4.343
 20
1.825
 30
0.0
 11
4.371
 21
1.669
 31
0.0
  0
LINE
  5
108
330
18
100
AcDbEntity
  8
0
100
AcDbLine
 10
4.333
 20
2.005
 30
0.0
 11
4.343
 21
1.825
 31
0.0
  0
LINE
  5
109
330
18
100
AcDbEntity
  8
0
100
AcDbLine
 10
4.325
 20
2.151
 30
0.0
 11
4.333
 21
2.005
 31
0.0
  0
LINE
  5
10A
330
18
100
AcDbEntity
  8
0
100
AcDbLine
 10
4.294
 20
2.355
 30
0.0
 11
4.325
 21
2.151
 31
0.0
  0
LINE
  5
10B
330
18
100
AcDbEntity
  8
0
100
AcDbLine
 10
4.263999999999999
 20
2.551
 30
0.0
 11
4.294
 21
2.355
 31
0.0
  0
LINE
  5
10C
330
18
100
AcDbEntity
  8
0
100
AcDbLine
 10
4.225
 20
2.805
 30
0.0
 11
4.263999999999999
 21
2.551
 31
0.0
  0
LINE
  5
10D
330
18
100
AcDbEntity
  8
0
100
AcDbLine
 10
4.183
 20
3.034
 30
0.0
 11
4.225
 21
2.805
 31
0.0
  0
LINE
  5
10E
330
18
100
AcDbEntity
  8
0
100
AcDbLine
 10
4.144
 20
3.304
 30
0.0
 11
4.183
 21
3.034
 31
0.0
  0
LINE
  5
10F
330
18
100
AcDbEntity
  8
0
100
AcDbLine
 10
4.096
 20
3.555
 30
0.0
 11
4.144
 21
3.304
 31
0.0
  0
LINE
  5
110
330
18
100
AcDbEntity
  8
0
100
AcDbLine
 10
4.047
 20
3.947
 30
0.0
 11
4.096
 21
3.555
 31
0.0
  0
LINE
  5
111
330
18
100
AcDbEntity
  8
0
100
AcDbLine
 10
3.978
 20
4.138
 30
0.0
 11
4.047
 21
3.947
 31
0.0
  0
LINE
  5
112
330
18
100
AcDbEntity
  8
0
100
AcDbLine
 10
3.955
 20
4.29
 30
0.0
 11
3.978
 21
4.138
 31
0.0
  0
LINE
  5
113
330
18
100
AcDbEntity
  8
0
100
AcDbLine
 10
3.917
 20
4.493
 30
0.0
 11
3.955
 21
4.29
 31
0.0
  0
LINE
  5
114
330
18
100
AcDbEntity
  8
0
100
AcDbLine
 10
3.842
 20
4.896
 30
0.0
 11
3.917
 21
4.493
 31
0.0
  0
LINE
  5
115
330
18
100
AcDbEntity
  8
0
100
AcDbLine
 10
3.785
 20
5.101
 30
0.0
 11
3.842
 21
4.896
 31
0.0
  0
LINE
  5
116
330
18
100
AcDbEntity
  8
0
100
AcDbLine
 10
3.78
 20
5.32
 30
0.0
 11
3.785
 21
5.101
 31
0.0
  0
LINE
  5
117
330
18
100
AcDbEntity
  8
0
100
AcDbLine
 10
4.251
 20
1.654
 30
0.0
 11
4.278000000000001
 21
1.498
 31
0.0
  0
LINE
  5
118
330
18
100
AcDbEntity
  8
0
100
AcDbLine
 10
4.233000000000001
 20
1.824
 30
0.0
 11
4.251
 21
1.654
 31
0.0
  0
LINE
  5
119
330
18
100
AcDbEntity
  8
0
100
AcDbLine
 10
4.197
 20
2.032
 30
0.0
 11
4.233000000000001
 21
1.824
 31
0.0
  0
LINE
  5
11A
330
18
100
AcDbEntity
  8
0
100
AcDbLine
 10
4.166
 20
2.291
 30
0.0
 11
4.197
 21
2.032
 31
0.0
  0
LINE
  5
11B
330
18
100
AcDbEntity
  8
0
100
AcDbLine
 10
4.136
 20
2.531
 30
0.0
 11
4.166
 21
2.291
 31
0.0
  0
LINE
  5
11C
330
18
100
AcDbEntity
  8
0
100
AcDbLine
 10
4.115
 20
2.709
 30
0.0
 11
4.136
 21
2.531
 31
0.0
  0
LINE
  5
11D
330
18
100
AcDbEntity
  8
0
100
AcDbLine
 10
4.066
 20
2.934
 30
0.0
 11
4.115
 21
2.709
 31
0.0
  0
LINE
  5
11E
330
18
100
AcDbEntity
  8
0
100
AcDbLine
 10
4.026
 20
3.269
 30
0.0
 11
4.066
 21
2.934
 31
0.0
  0
LINE
  5
11F
330
18
100
AcDbEntity
  8
0
100
AcDbLine
 10
3.964
 20
3.613
 30
0.0
 11
4.026
 21
3.269
 31
0.0
  0
LINE
  5
120
330
18
100
AcDbEntity
  8
0
100
AcDbLine
 10
3.911
 20
3.888
 30
0.0
 11
3.964
 21
3.613
 31
0.0
  0
LINE
  5
121
330
18
100
AcDbEntity
  8
0
100
AcDbLine
 10
3.881
 20
4.02
 30
0.0
 11
3.911
 21
3.888
 31
0.0
  0
LINE
  5
122
330
18
100
AcDbEntity
  8
0
100
AcDbLine
 10
3.827
 20
4.154
 30
0.0
 11
3.881
 21
4.02
 31
0.0
  0
LINE
  5
123
330
18
100
AcDbEntity
  8
0
100
AcDbLine
 10
3.837
 20
4.342
 30
0.0
 11
3.827
 21
4.154
 31
0.0
  0
LINE
  5
124
330
18
100
AcDbEntity
  8
0
100
AcDbLine
 10
3.815
 20
4.506
 30
0.0
 11
3.837
 21
4.342
 31
0.0
  0
LINE
  5
125
330
18
100
AcDbEntity
  8
0
100
AcDbLine
 10
3.78
 20
4.572
 30
0.0
 11
3.815
 21
4.506
 31
0.0
  0
LINE
  5
126
330
18
100
AcDbEntity
  8
0
100
AcDbLine
 10
3.769
 20
4.692
 30
0.0
 11
3.78
 21
4.572
 31
0.0
  0
LINE
  5
127
330
18
100
AcDbEntity
  8
0
100
AcDbLine
 10
3.748
 20
4.94
 30
0.0
 11
3.769
 21
4.692
 31
0.0
  0
LINE
  5
128
330
18
100
AcDbEntity
  8
0
100
AcDbLine
 10
3.661
 20
5.281000000000001
 30
0.0
 11
3.748
 21
4.94
 31
0.0
  0
LINE
  5
129
330
18
100
AcDbEntity
  8
0
100
AcDbLine
 10
4.052
 20
1.468
 30
0.0
 11
4.066
 21
1.384
 31
0.0
  0
LINE
  5
12A
330
18
100
AcDbEntity
  8
0
100
AcDbLine
 10
4.028000000000001
 20
1.661
 30
0.0
 11
4.052
 21
1.468
 31
0.0
  0
LINE
  5
12B
330
18
100
AcDbEntity
  8
0
100
AcDbLine
 10
3.999
 20
1.912
 30
0.0
 11
4.028000000000001
 21
1.661
 31
0.0
  0
LINE
  5
12C
330
18
100
AcDbEntity
  8
0
100
AcDbLine
 10
3.957
 20
2.24
 30
0.0
 11
3.999
 21
1.912
 31
0.0
  0
LINE
  5
12D
330
18
100
AcDbEntity
  8
0
100
AcDbLine
 10
3.926
 20
2.556
 30
0.0
 11
3.957
 21
2.24
 31
0.0
  0
LINE
  5
12E
330
18
100
AcDbEntity
  8
0
100
AcDbLine
 10
3.871
 20
2.823
 30
0.0
 11
3.926
 21
2.556
 31
0.0
  0
LINE
  5
12F
330
18
100
AcDbEntity
  8
0
100
AcDbLine
 10
3.816
 20
3.126
 30
0.0
 11
3.871
 21
2.823
 31
0.0
  0
LINE
  5
130
330
18
100
AcDbEntity
  8
0
100
AcDbLine
 10
3.772
 20
3.415
 30
0.0
 11
3.816
 21
3.126
 31
0.0
  0
LINE
  5
131
330
18
100
AcDbEntity
  8
0
100
AcDbLine
 10
3.719
 20
3.663
 30
0.0
 11
3.772
 21
3.415
 31
0.0
  0
LINE
  5
132
330
18
100
AcDbEntity
  8
0
100
AcDbLine
 10
3.677
 20
3.957
 30
0.0
 11
3.719
 21
3.663
 31
0.0
  0
LINE
  5
133
330
18
100
AcDbEntity
  8
0
100
AcDbLine
 10
3.641
 20
4.19
 30
0.0
 11
3.677
 21
3.957
 31
0.0
  0
LINE
  5
134
330
18
100
AcDbEntity
  8
0
100
AcDbLine
 10
3.589
 20
4.404
 30
0.0
 11
3.641
 21
4.19
 31
0.0
  0
LINE
  5
135
330
18
100
AcDbEntity
  8
0
100
AcDbLine
 10
3.564
 20
4.58
 30
0.0
 11
3.589
 21
4.404
 31
0.0
  0
LINE
  5
136
330
18
100
AcDbEntity
  8
0
100
AcDbLine
 10
3.498
 20
4.76
 30
0.0
 11
3.564
 21
4.58
 31
0.0
  0
LINE
  5
137
330
18
100
AcDbEntity
  8
0
100
AcDbLine
 10
3.418
 20
5.09
 30
0.0
 11
3.498
 21
4.76
 31
0.0
  0
LINE
  5
138
330
18
100
AcDbEntity
  8
0
100
AcDbLine
 10
4.173
 20
1.537
 30
0.0
 11
4.166
 21
1.438
 31
0.0
  0
LINE
  5
139
330
18
100
AcDbEntity
  8
0
100
AcDbLine
 10
4.162
 20
1.663
 30
0.0
 11
4.173
 21
1.537
 31
0.0
  0
LINE
  5
13A
330
18
100
AcDbEntity
  8
0
100
AcDbLine
 10
4.126
 20
1.795
 30
0.0
 11
4.162
 21
1.663
 31
0.0
  0
LINE
  5
13B
330
18
100
AcDbEntity
  8
0
100
AcDbLine
 10
4.105
 20
1.916
 30
0.0
 11
4.126
 21
1.795
 31
0.0
  0
LINE
  5
13C
330
18
100
AcDbEntity
  8
0
100
AcDbLine
 10
4.1
 20
2.087
 30
0.0
 11
4.105
 21
1.916
 31
0.0
  0
LINE
  5
13D
330
18
100
AcDbEntity
  8
0
100
AcDbLine
 10
4.062
 20
2.25
 30
0.0
 11
4.1
 21
2.087
 31
0.0
  0
LINE
  5
13E
330
18
100
AcDbEntity
  8
0
100
AcDbLine
 10
4.032
 20
2.429
 30
0.0
 11
4.062
 21
2.25
 31
0.0
  0
LINE
  5
13F
330
18
100
AcDbEntity
  8
0
100
AcDbLine
 10
4.028000000000001
 20
2.592
 30
0.0
 11
4.032
 21
2.429
 31
0.0
  0
LINE
  5
140
330
18
100
AcDbEntity
  8
0
100
AcDbLine
 10
4.01
 20
2.715
 30
0.0
 11
4.028000000000001
 21
2.592
 31
0.0
  0
LINE
  5
141
330
18
100
AcDbEntity
  8
0
100
AcDbLine
 10
3.961
 20
2.889
 30
0.0
 11
4.01
 21
2.715
 31
0.0
  0
LINE
  5
142
330
18
100
AcDbEntity
  8
0
100
AcDbLine
 10
3.919
 20
3.187
 30
0.0
 11
3.961
 21
2.889
 31
0.0
  0
LINE
  5
143
330
18
100
AcDbEntity
  8
0
100
AcDbLine
 10
3.869
 20
3.473
 30
0.0
 11
3.919
 21
3.187
 31
0.0
  0
LINE
  5
144
330
18
100
AcDbEntity
  8
0
100
AcDbLine
 10
3.83
 20
3.726
 30
0.0
 11
3.869
 21
3.473
 31
0.0
  0
LINE
  5
145
330
18
100
AcDbEntity
  8
0
100
AcDbLine
 10
3.77
 20
3.948
 30
0.0
 11
3.83
 21
3.726
 31
0.0
  0
LINE
  5
146
330
18
100
AcDbEntity
  8
0
100
AcDbLine
 10
3.724
 20
4.147
 30
0.0
 11
3.77
 21
3.948
 31
0.0
  0
LINE
  5
147
330
18
100
AcDbEntity
  8
0
100
AcDbLine
 10
3.702
 20
4.398
 30
0.0
 11
3.724
 21
4.147
 31
0.0
  0
LINE
  5
148
330
18
100
AcDbEntity
  8
0
100
AcDbLine
 10
3.671
 20
4.553
 30
0.0
 11
3.702
 21
4.398
 31
0.0
  0
LINE
  5
149
330
18
100
AcDbEntity
  8
0
100
AcDbLine
 10
3.621
 20
4.716
 30
0.0
 11
3.671
 21
4.553
 31
0.0
  0
LINE
  5
14A
330
18
100
AcDbEntity
  8
0
100
AcDbLine
 10
3.553
 20
4.979
 30
0.0
 11
3.621
 21
4.716
 31
0.0
  0
LINE
  5
14B
330
18
100
AcDbEntity
  8
0
100
AcDbLine
 10
3.502
 20
5.23
 30
0.0
 11
3.553
 21
4.979
 31
0.0
  0
LINE
  5
14C
330
18
100
AcDbEntity
  8
0
100
AcDbLine
 10
3.949
 20
1.518
 30
0.0
 11
3.992
 21
1.345
 31
0.0
  0
LINE
  5
14D
330
18
100
AcDbEntity
  8
0
100
AcDbLine
 10
3.92
 20
1.733
 30
0.0
 11
3.949
 21
1.518
 31
0.0
  0
LINE
  5
14E
330
18
100
AcDbEntity
  8
0
100
AcDbLine
 10
3.886
 20
1.953
 30
0.0
 11
3.92
 21
1.733
 31
0.0
  0
LINE
  5
14F
330
18
100
AcDbEntity
  8
0
100
AcDbLine
 10
3.86
 20
2.154
 30
0.0
 11
3.886
 21
1.953
 31
0.0
  0
LINE
  5
150
330
18
100
AcDbEntity
  8
0
100
AcDbLine
 10
3.832
 20
2.361
 30
0.0
 11
3.86
 21
2.154
 31
0.0
  0
LINE
  5
151
330
18
100
AcDbEntity
  8
0
100
AcDbLine
 10
3.781
 20
2.563
 30
0.0
 11
3.832
 21
2.361
 31
0.0
  0
LINE
  5
152
330
18
100
AcDbEntity
  8
0
100
AcDbLine
 10
3.732
 20
2.825
 30
0.0
 11
3.781
 21
2.563
 31
0.0
  0
LINE
  5
153
330
18
100
AcDbEntity
  8
0
100
AcDbLine
 10
3.698
 20
3.047
 30
0.0
 11
3.732
 21
2.825
 31
0.0
  0
LINE
  5
154
330
18
100
AcDbEntity
  8
0
100
AcDbLine
 10
3.664
 20
3.3
 30
0.0
 11
3.698
 21
3.047
 31
0.0
  0
LINE
  5
155
330
18
100
AcDbEntity
  8
0
100
AcDbLine
 10
3.628
 20
3.527
 30
0.0
 11
3.664
 21
3.3
 31
0.0
  0
LINE
  5
156
330
18
100
AcDbEntity
  8
0
100
AcDbLine
 10
3.594
 20
3.683
 30
0.0
 11
3.628
 21
3.527
 31
0.0
  0
LINE
  5
157
330
18
100
AcDbEntity
  8
0
100
AcDbLine
 10
3.551
 20
3.862
 30
0.0
 11
3.594
 21
3.683
 31
0.0
  0
LINE
  5
158
330
18
100
AcDbEntity
  8
0
100
AcDbLine
 10
3.542
 20
4.069
 30
0.0
 11
3.551
 21
3.862
 31
0.0
  0
LINE
  5
159
330
18
100
AcDbEntity
  8
0
100
AcDbLine
 10
3.521
 20
4.204
 30
0.0
 11
3.542
 21
4.069
 31
0.0
  0
LINE
  5
15A
330
18
100
AcDbEntity
  8
0
100
AcDbLine
 10
3.49
 20
4.348
 30
0.0
 11
3.521
 21
4.204
 31
0.0
  0
LINE
  5
15B
330
18
100
AcDbEntity
  8
0
100
AcDbLine
 10
3.418
 20
4.656000000000001
 30
0.0
 11
3.49
 21
4.348
 31
0.0
  0
LINE
  5
15C
330
18
100
AcDbEntity
  8
0
100
AcDbLine
 10
3.855
 20
1.393
 30
0.0
 11
3.865
 21
1.277
 31
0.0
  0
LINE
  5
15D
330
18
100
AcDbEntity
  8
0
100
AcDbLine
 10
3.819
 20
1.576
 30
0.0
 11
3.855
 21
1.393
 31
0.0
  0
LINE
  5
15E
330
18
100
AcDbEntity
  8
0
100
AcDbLine
 10
3.78
 20
1.807
 30
0.0
 11
3.819
 21
1.576
 31
0.0
  0
LINE
  5
15F
330
18
100
AcDbEntity
  8
0
100
AcDbLine
 10
3.762
 20
1.977
 30
0.0
 11
3.78
 21
1.807
 31
0.0
  0
LINE
  5
160
330
18
100
AcDbEntity
  8
0
100
AcDbLine
 10
3.751
 20
2.194
 30
0.0
 11
3.762
 21
1.977
 31
0.0
  0
LINE
  5
161
330
18
100
AcDbEntity
  8
0
100
AcDbLine
 10
3.705
 20
2.367
 30
0.0
 11
3.751
 21
2.194
 31
0.0
  0
LINE
  5
162
330
18
100
AcDbEntity
  8
0
100
AcDbLine
 10
3.652
 20
2.648
 30
0.0
 11
3.705
 21
2.367
 31
0.0
  0
LINE
  5
163
330
18
100
AcDbEntity
  8
0
100
AcDbLine
 10
3.603
 20
3.023
 30
0.0
 11
3.652
 21
2.648
 31
0.0
  0
LINE
  5
164
330
18
100
AcDbEntity
  8
0
100
AcDbLine
 10
3.536
 20
3.564
 30
0.0
 11
3.603
 21
3.023
 31
0.0
  0
LINE
  5
165
330
18
100
AcDbEntity
  8
0
100
AcDbLine
 10
3.49
 20
3.866
 30
0.0
 11
3.536
 21
3.564
 31
0.0
  0
LINE
  5
166
330
18
100
AcDbEntity
  8
0
100
AcDbLine
 10
3.418
 20
4.297
 30
0.0
 11
3.49
 21
3.866
 31
0.0
  0
LINE
  5
167
330
18
100
AcDbEntity
  8
0
100
AcDbLine
 10
3.631
 20
1.235
 30
0.0
 11
3.649
 21
1.161
 31
0.0
  0
LINE
  5
168
330
18
100
AcDbEntity
  8
0
100
AcDbLine
 10
3.612
 20
1.381
 30
0.0
 11
3.631
 21
1.235
 31
0.0
  0
LINE
  5
169
330
18
100
AcDbEntity
  8
0
100
AcDbLine
 10
3.607
 20
1.577
 30
0.0
 11
3.612
 21
1.381
 31
0.0
  0
LINE
  5
16A
330
18
100
AcDbEntity
  8
0
100
AcDbLine
 10
3.576
 20
1.783
 30
0.0
 11
3.607
 21
1.577
 31
0.0
  0
LINE
  5
16B
330
18
100
AcDbEntity
  8
0
100
AcDbLine
 10
3.56
 20
1.977
 30
0.0
 11
3.576
 21
1.783
 31
0.0
  0
LINE
  5
16C
330
18
100
AcDbEntity
  8
0
100
AcDbLine
 10
3.525
 20
2.254
 30
0.0
 11
3.56
 21
1.977
 31
0.0
  0
LINE
  5
16D
330
18
100
AcDbEntity
  8
0
100
AcDbLine
 10
3.486
 20
2.529
 30
0.0
 11
3.525
 21
2.254
 31
0.0
  0
LINE
  5
16E
330
18
100
AcDbEntity
  8
0
100
AcDbLine
 10
3.418
 20
3.116
 30
0.0
 11
3.486
 21
2.529
 31
0.0
  0
LINE
  5
16F
330
18
100
AcDbEntity
  8
0
100
AcDbLine
 10
3.739
 20
1.267
 30
0.0
 11
3.75
 21
1.215
 31
0.0
  0
LINE
  5
170
330
18
100
AcDbEntity
  8
0
100
AcDbLine
 10
3.72
 20
1.413
 30
0.0
 11
3.739
 21
1.267
 31
0.0
  0
LINE
  5
171
330
18
100
AcDbEntity
  8
0
100
AcDbLine
 10
3.685
 20
1.61
 30
0.0
 11
3.72
 21
1.413
 31
0.0
  0
LINE
  5
172
330
18
100
AcDbEntity
  8
0
100
AcDbLine
 10
3.655
 20
1.911
 30
0.0
 11
3.685
 21
1.61
 31
0.0
  0
LINE
  5
173
330
18
100
AcDbEntity
  8
0
100
AcDbLine
 10
3.616
 20
2.203
 30
0.0
 11
3.655
 21
1.911
 31
0.0
  0
LINE
  5
174
330
18
100
AcDbEntity
  8
0
100
AcDbLine
 10
3.584
 20
2.456
 30
0.0
 11
3.616
 21
2.203
 31
0.0
  0
LINE
  5
175
330
18
100
AcDbEntity
  8
0
100
AcDbLine
 10
3.544
 20
2.648
 30
0.0
 11
3.584
 21
2.456
 31
0.0
  0
LINE
  5
176
330
18
100
AcDbEntity
  8
0
100
AcDbLine
 10
3.523
 20
2.843
 30
0.0
 11
3.544
 21
2.648
 31
0.0
  0
LINE
  5
177
330
18
100
AcDbEntity
  8
0
100
AcDbLine
 10
3.499
 20
3.061
 30
0.0
 11
3.523
 21
2.843
 31
0.0
  0
LINE
  5
178
330
18
100
AcDbEntity
  8
0
100
AcDbLine
 10
3.494
 20
3.194
 30
0.0
 11
3.499
 21
3.061
 31
0.0
  0
LINE
  5
179
330
18
100
AcDbEntity
  8
0
100
AcDbLine
 10
3.418
 20
3.562
 30
0.0
 11
3.494
 21
3.194
 31
0.0
  0
LINE
  5
17A
330
18
100
AcDbEntity
  8
0
100
AcDbLine
 10
3.538
 20
1.132
 30
0.0
 11
3.542
 21
1.104
 31
0.0
  0
LINE
  5
17B
330
18
100
AcDbEntity
  8
0
100
AcDbLine
 10
3.534
 20
1.314
 30
0.0
 11
3.538
 21
1.132
 31
0.0
  0
LINE
  5
17C
330
18
100
AcDbEntity
  8
0
100
AcDbLine
 10
3.51
 20
1.485
 30
0.0
 11
3.534
 21
1.314
 31
0.0
  0
LINE
  5
17D
330
18
100
AcDbEntity
  8
0
100
AcDbLine
 10
3.48
 20
1.596
 30
0.0
 11
3.51
 21
1.485
 31
0.0
  0
LINE
  5
17E
330
18
100
AcDbEntity
  8
0
100
AcDbLine
 10
3.469
 20
1.828
 30
0.0
 11
3.48
 21
1.596
 31
0.0
  0
LINE
  5
17F
330
18
100
AcDbEntity
  8
0
100
AcDbLine
 10
3.418
 20
2.168
 30
0.0
 11
3.469
 21
1.828
 31
0.0
  0
LINE
  5
180
330
18
100
AcDbEntity
  8
0
100
AcDbLine
 10
4.296
 20
5.425
 30
0.0
 11
4.288
 21
5.484
 31
0.0
  0
LINE
  5
181
330
18
100
AcDbEntity
  8
0
100
AcDbLine
 10
4.312
 20
5.301
 30
0.0
 11
4.296
 21
5.425
 31
0.0
  0
LINE
  5
182
330
18
100
AcDbEntity
  8
0
100
AcDbLine
 10
4.339
 20
5.087
 30
0.0
 11
4.312
 21
5.301
 31
0.0
  0
LINE
  5
183
330
18
100
AcDbEntity
  8
0
100
AcDbLine
 10
4.409
 20
4.863
 30
0.0
 11
4.339
 21
5.087
 31
0.0
  0
LINE
  5
184
330
18
100
AcDbEntity
  8
0
100
AcDbLine
 10
4.446000000000001
 20
4.59
 30
0.0
 11
4.409
 21
4.863
 31
0.0
  0
LINE
  5
185
330
18
100
AcDbEntity
  8
0
100
AcDbLine
 10
4.484
 20
4.365
 30
0.0
 11
4.446000000000001
 21
4.59
 31
0.0
  0
LINE
  5
186
330
18
100
AcDbEntity
  8
0
100
AcDbLine
 10
4.524
 20
4.123
 30
0.0
 11
4.484
 21
4.365
 31
0.0
  0
LINE
  5
187
330
18
100
AcDbEntity
  8
0
100
AcDbLine
 10
4.562
 20
3.604
 30
0.0
 11
4.524
 21
4.123
 31
0.0
  0
LINE
  5
188
330
18
100
AcDbEntity
  8
0
100
AcDbLine
 10
4.497
 20
5.452999999999999
 30
0.0
 11
4.487
 21
5.549
 31
0.0
  0
LINE
  5
189
330
18
100
AcDbEntity
  8
0
100
AcDbLine
 10
4.513999999999999
 20
5.291
 30
0.0
 11
4.497
 21
5.452999999999999
 31
0.0
  0
LINE
  5
18A
330
18
100
AcDbEntity
  8
0
100
AcDbLine
 10
4.538
 20
5.055
 30
0.0
 11
4.513999999999999
 21
5.291
 31
0.0
  0
LINE
  5
18B
330
18
100
AcDbEntity
  8
0
100
AcDbLine
 10
4.562
 20
4.973
 30
0.0
 11
4.538
 21
5.055
 31
0.0
  0
LINE
  5
18C
330
18
100
AcDbEntity
  8
0
100
AcDbLine
 10
4.398
 20
5.402
 30
0.0
 11
4.376
 21
5.513
 31
0.0
  0
LINE
  5
18D
330
18
100
AcDbEntity
  8
0
100
AcDbLine
 10
4.428999999999999
 20
5.291
 30
0.0
 11
4.398
 21
5.402
 31
0.0
  0
LINE
  5
18E
330
18
100
AcDbEntity
  8
0
100
AcDbLine
 10
4.486000000000001
 20
5.063
 30
0.0
 11
4.428999999999999
 21
5.291
 31
0.0
  0
LINE
  5
18F
330
18
100
AcDbEntity
  8
0
100
AcDbLine
 10
4.501
 20
4.841
 30
0.0
 11
4.486000000000001
 21
5.063
 31
0.0
  0
LINE
  5
190
330
18
100
AcDbEntity
  8
0
100
AcDbLine
 10
4.562
 20
4.439
 30
0.0
 11
4.501
 21
4.841
 31
0.0
  0
LINE
  5
191
330
18
100
AcDbEntity
  8
0
100
AcDbLine
 10
4.16
 20
5.408
 30
0.0
 11
4.159
 21
5.443
 31
0.0
  0
LINE
  5
192
330
18
100
AcDbEntity
  8
0
100
AcDbLine
 10
4.167
 20
5.295
 30
0.0
 11
4.16
 21
5.408
 31
0.0
  0
LINE
  5
193
330
18
100
AcDbEntity
  8
0
100
AcDbLine
 10
4.203
 20
5.093
 30
0.0
 11
4.167
 21
5.295
 31
0.0
  0
LINE
  5
194
330
18
100
AcDbEntity
  8
0
100
AcDbLine
 10
4.277
 20
4.86
 30
0.0
 11
4.203
 21
5.093
 31
0.0
  0
LINE
  5
195
330
18
100
AcDbEntity
  8
0
100
AcDbLine
 10
4.34
 20
4.608000000000001
 30
0.0
 11
4.277
 21
4.86
 31
0.0
  0
LINE
  5
196
330
18
100
AcDbEntity
  8
0
100
AcDbLine
 10
4.35
 20
4.382
 30
0.0
 11
4.34
 21
4.608000000000001
 31
0.0
  0
LINE
  5
197
330
18
100
AcDbEntity
  8
0
100
AcDbLine
 10
4.4
 20
4.14
 30
0.0
 11
4.35
 21
4.382
 31
0.0
  0
LINE
  5
198
330
18
100
AcDbEntity
  8
0
100
AcDbLine
 10
4.455
 20
3.905
 30
0.0
 11
4.4
 21
4.14
 31
0.0
  0
LINE
  5
199
330
18
100
AcDbEntity
  8
0
100
AcDbLine
 10
4.487
 20
3.679
 30
0.0
 11
4.455
 21
3.905
 31
0.0
  0
LINE
  5
19A
330
18
100
AcDbEntity
  8
0
100
AcDbLine
 10
4.511
 20
3.413
 30
0.0
 11
4.487
 21
3.679
 31
0.0
  0
LINE
  5
19B
330
18
100
AcDbEntity
  8
0
100
AcDbLine
 10
4.515
 20
3.165
 30
0.0
 11
4.511
 21
3.413
 31
0.0
  0
LINE
  5
19C
330
18
100
AcDbEntity
  8
0
100
AcDbLine
 10
4.562
 20
2.864
 30
0.0
 11
4.515
 21
3.165
 31
0.0
  0
LINE
  5
19D
330
18
100
AcDbEntity
  8
0
100
AcDbLine
 10
4.065
 20
5.268
 30
0.0
 11
4.056
 21
5.409
 31
0.0
  0
LINE
  5
19E
330
18
100
AcDbEntity
  8
0
100
AcDbLine
 10
4.083
 20
5.065
 30
0.0
 11
4.065
 21
5.268
 31
0.0
  0
LINE
  5
19F
330
18
100
AcDbEntity
  8
0
100
AcDbLine
 10
4.121
 20
4.839
 30
0.0
 11
4.083
 21
5.065
 31
0.0
  0
LINE
  5
1A0
330
18
100
AcDbEntity
  8
0
100
AcDbLine
 10
4.163
 20
4.604
 30
0.0
 11
4.121
 21
4.839
 31
0.0
  0
LINE
  5
1A1
330
18
100
AcDbEntity
  8
0
100
AcDbLine
 10
4.235
 20
4.313
 30
0.0
 11
4.163
 21
4.604
 31
0.0
  0
LINE
  5
1A2
330
18
100
AcDbEntity
  8
0
100
AcDbLine
 10
4.296
 20
4.005
 30
0.0
 11
4.235
 21
4.313
 31
0.0
  0
LINE
  5
1A3
330
18
100
AcDbEntity
  8
0
100
AcDbLine
 10
4.341
 20
3.778
 30
0.0
 11
4.296
 21
4.005
 31
0.0
  0
LINE
  5
1A4
330
18
100
AcDbEntity
  8
0
100
AcDbLine
 10
4.418
 20
3.506
 30
0.0
 11
4.341
 21
3.778
 31
0.0
  0
LINE
  5
1A5
330
18
100
AcDbEntity
  8
0
100
AcDbLine
 10
4.442
 20
3.303
 30
0.0
 11
4.418
 21
3.506
 31
0.0
  0
LINE
  5
1A6
330
18
100
AcDbEntity
  8
0
100
AcDbLine
 10
4.474
 20
2.998
 30
0.0
 11
4.442
 21
3.303
 31
0.0
  0
LINE
  5
1A7
330
18
100
AcDbEntity
  8
0
100
AcDbLine
 10
4.486000000000001
 20
2.748
 30
0.0
 11
4.474
 21
2.998
 31
0.0
  0
LINE
  5
1A8
330
18
100
AcDbEntity
  8
0
100
AcDbLine
 10
4.503
 20
2.578
 30
0.0
 11
4.486000000000001
 21
2.748
 31
0.0
  0
LINE
  5
1A9
330
18
100
AcDbEntity
  8
0
100
AcDbLine
 10
4.516
 20
2.406
 30
0.0
 11
4.503
 21
2.578
 31
0.0
  0
LINE
  5
1AA
330
18
100
AcDbEntity
  8
0
100
AcDbLine
 10
4.51
 20
2.203
 30
0.0
 11
4.516
 21
2.406
 31
0.0
  0
LINE
  5
1AB
330
18
100
AcDbEntity
  8
0
100
AcDbLine
 10
4.562
 20
1.939
 30
0.0
 11
4.51
 21
2.203
 31
0.0
  0
LINE
  5
1AC
330
18
100
AcDbEntity
  8
0
100
AcDbLine
 10
3.926
 20
5.287000000000001
 30
0.0
 11
3.92
 21
5.365
 31
0.0
  0
LINE
  5
1AD
330
18
100
AcDbEntity
  8
0
100
AcDbLine
 10
3.957
 20
5.124
 30
0.0
 11
3.926
 21
5.287000000000001
 31
0.0
  0
LINE
  5
1AE
330
18
100
AcDbEntity
  8
0
100
AcDbLine
 10
3.987
 20
4.939
 30
0.0
 11
3.957
 21
5.124
 31
0.0
  0
LINE
  5
1AF
330
18
100
AcDbEntity
  8
0
100
AcDbLine
 10
4.012
 20
4.811
 30
0.0
 11
3.987
 21
4.939
 31
0.0
  0
LINE
  5
1B0
330
18
100
AcDbEntity
  8
0
100
AcDbLine
 10
4.053
 20
4.673
 30
0.0
 11
4.012
 21
4.811
 31
0.0
  0
LINE
  5
1B1
330
18
100
AcDbEntity
  8
0
100
AcDbLine
 10
4.095
 20
4.505
 30
0.0
 11
4.053
 21
4.673
 31
0.0
  0
LINE
  5
1B2
330
18
100
AcDbEntity
  8
0
100
AcDbLine
 10
4.128
 20
4.33
 30
0.0
 11
4.095
 21
4.505
 31
0.0
  0
LINE
  5
1B3
330
18
100
AcDbEntity
  8
0
100
AcDbLine
 10
4.167
 20
4.151
 30
0.0
 11
4.128
 21
4.33
 31
0.0
  0
LINE
  5
1B4
330
18
100
AcDbEntity
  8
0
100
AcDbLine
 10
4.186
 20
3.967
 30
0.0
 11
4.167
 21
4.151
 31
0.0
  0
LINE
  5
1B5
330
18
100
AcDbEntity
  8
0
100
AcDbLine
 10
4.23
 20
3.776
 30
0.0
 11
4.186
 21
3.967
 31
0.0
  0
LINE
  5
1B6
330
18
100
AcDbEntity
  8
0
100
AcDbLine
 10
4.272
 20
3.594
 30
0.0
 11
4.23
 21
3.776
 31
0.0
  0
LINE
  5
1B7
330
18
100
AcDbEntity
  8
0
100
AcDbLine
 10
4.303999999999999
 20
3.357
 30
0.0
 11
4.272
 21
3.594
 31
0.0
  0
LINE
  5
1B8
330
18
100
AcDbEntity
  8
0
100
AcDbLine
 10
4.327
 20
3.15
 30
0.0
 11
4.303999999999999
 21
3.357
 31
0.0
  0
LINE
  5
1B9
330
18
100
AcDbEntity
  8
0
100
AcDbLine
 10
4.367
 20
2.931
 30
0.0
 11
4.327
 21
3.15
 31
0.0
  0
LINE
  5
1BA
330
18
100
AcDbEntity
  8
0
100
AcDbLine
 10
4.395
 20
2.743
 30
0.0
 11
4.367
 21
2.931
 31
0.0
  0
LINE
  5
1BB
330
18
100
AcDbEntity
  8
0
100
AcDbLine
 10
4.425
 20
2.564
 30
0.0
 11
4.395
 21
2.743
 31
0.0
  0
LINE
  5
1BC
330
18
100
AcDbEntity
  8
0
100
AcDbLine
 10
4.456
 20
2.331
 30
0.0
 11
4.425
 21
2.564
 31
0.0
  0
LINE
  5
1BD
330
18
100
AcDbEntity
  8
0
100
AcDbLine
 10
4.492
 20
2.047
 30
0.0
 11
4.456
 21
2.331
 31
0.0
  0
LINE
  5
1BE
330
18
100
AcDbEntity
  8
0
100
AcDbLine
 10
4.528000000000001
 20
1.78
 30
0.0
 11
4.492
 21
2.047
 31
0.0
  0
LINE
  5
1BF
330
18
100
AcDbEntity
  8
0
100
AcDbLine
 10
4.539
 20
1.638
 30
0.0
 11
4.528000000000001
 21
1.78
 31
0.0
  0
LINE
  5
1C0
330
18
100
AcDbEntity
  8
0
100
AcDbLine
 10
3.849
 20
5.287999999999999
 30
0.0
 11
3.854
 21
5.343999999999999
 31
0.0
  0
LINE
  5
1C1
330
18
100
AcDbEntity
  8
0
100
AcDbLine
 10
3.862
 20
5.193
 30
0.0
 11
3.849
 21
5.287999999999999
 31
0.0
  0
LINE
  5
1C2
330
18
100
AcDbEntity
  8
0
100
AcDbLine
 10
3.887
 20
5.097
 30
0.0
 11
3.862
 21
5.193
 31
0.0
  0
LINE
  5
1C3
330
18
100
AcDbEntity
  8
0
100
AcDbLine
 10
3.912
 20
4.97
 30
0.0
 11
3.887
 21
5.097
 31
0.0
  0
LINE
  5
1C4
330
18
100
AcDbEntity
  8
0
100
AcDbLine
 10
3.931
 20
4.831
 30
0.0
 11
3.912
 21
4.97
 31
0.0
  0
LINE
  5
1C5
330
18
100
AcDbEntity
  8
0
100
AcDbLine
 10
3.954
 20
4.645
 30
0.0
 11
3.931
 21
4.831
 31
0.0
  0
LINE
  5
1C6
330
18
100
AcDbEntity
  8
0
100
AcDbLine
 10
4.002
 20
4.478
 30
0.0
 11
3.954
 21
4.645
 31
0.0
  0
LINE
  5
1C7
330
18
100
AcDbEntity
  8
0
100
AcDbLine
 10
4.044
 20
4.322
 30
0.0
 11
4.002
 21
4.478
 31
0.0
  0
LINE
  5
1C8
330
18
100
AcDbEntity
  8
0
100
AcDbLine
 10
4.093
 20
4.099
 30
0.0
 11
4.044
 21
4.322
 31
0.0
  0
LINE
  5
1C9
330
18
100
AcDbEntity
  8
0
100
AcDbLine
 10
4.116000000000001
 20
3.912
 30
0.0
 11
4.093
 21
4.099
 31
0.0
  0
LINE
  5
1CA
330
18
100
AcDbEntity
  8
0
100
AcDbLine
 10
4.147
 20
3.73
 30
0.0
 11
4.116000000000001
 21
3.912
 31
0.0
  0
LINE
  5
1CB
330
18
100
AcDbEntity
  8
0
100
AcDbLine
 10
4.182
 20
3.566
 30
0.0
 11
4.147
 21
3.73
 31
0.0
  0
LINE
  5
1CC
330
18
100
AcDbEntity
  8
0
100
AcDbLine
 10
4.208
 20
3.396
 30
0.0
 11
4.182
 21
3.566
 31
0.0
  0
LINE
  5
1CD
330
18
100
AcDbEntity
  8
0
100
AcDbLine
 10
4.227
 20
3.269
 30
0.0
 11
4.208
 21
3.396
 31
0.0
  0
LINE
  5
1CE
330
18
100
AcDbEntity
  8
0
100
AcDbLine
 10
4.259
 20
3.136
 30
0.0
 11
4.227
 21
3.269
 31
0.0
  0
LINE
  5
1CF
330
18
100
AcDbEntity
  8
0
100
AcDbLine
 10
4.288
 20
2.976
 30
0.0
 11
4.259
 21
3.136
 31
0.0
  0
LINE
  5
1D0
330
18
100
AcDbEntity
  8
0
100
AcDbLine
 10
4.322
 20
2.803
 30
0.0
 11
4.288
 21
2.976
 31
0.0
  0
LINE
  5
1D1
330
18
100
AcDbEntity
  8
0
100
AcDbLine
 10
4.35
 20
2.581
 30
0.0
 11
4.322
 21
2.803
 31
0.0
  0
LINE
  5
1D2
330
18
100
AcDbEntity
  8
0
100
AcDbLine
 10
4.375
 20
2.362
 30
0.0
 11
4.35
 21
2.581
 31
0.0
  0
LINE
  5
1D3
330
18
100
AcDbEntity
  8
0
100
AcDbLine
 10
4.382
 20
2.188
 30
0.0
 11
4.375
 21
2.362
 31
0.0
  0
LINE
  5
1D4
330
18
100
AcDbEntity
  8
0
100
AcDbLine
 10
4.416
 20
1.991
 30
0.0
 11
4.382
 21
2.188
 31
0.0
  0
LINE
  5
1D5
330
18
100
AcDbEntity
  8
0
100
AcDbLine
 10
4.446000000000001
 20
1.823
 30
0.0
 11
4.416
 21
1.991
 31
0.0
  0
LINE
  5
1D6
330
18
100
AcDbEntity
  8
0
100
AcDbLine
 10
4.468999999999999
 20
1.6
 30
0.0
 11
4.446000000000001
 21
1.823
 31
0.0
  0
ARC
  5
1D7
330
18
100
AcDbEntity
  8
0
100
AcDbCircle
 10
2.258
 20
3.539
 30
0.0
 40
0.013
100
AcDbArc
 50
180.286
 51
261.942
  0
LINE
  5
1D8
330
18
100
AcDbEntity
  8
0
100
AcDbLine
 10
2.408
 20
2.951
 30
0.0
 11
2.426
 21
2.872
 31
0.0
  0
LINE
  5
1D9
330
18
100
AcDbEntity
  8
0
100
AcDbLine
 10
2.418
 20
2.86
 30
0.0
 11
2.391
 21
2.854
 31
0.0
  0
LINE
  5
1DA
330
18
100
AcDbEntity
  8
0
100
AcDbLine
 10
2.391
 20
2.854
 30
0.0
 11
2.389
 21
2.863
 31
0.0
  0
LINE
  5
1DB
330
18
100
AcDbEntity
  8
0
100
AcDbLine
 10
2.396
 20
2.959
 30
0.0
 11
2.382
 21
2.956
 31
0.0
  0
ARC
  5
1DC
330
18
100
AcDbEntity
  8
0
100
AcDbCircle
 10
2.416
 20
2.87
 30
0.0
 40
0.01
100
AcDbArc
 50
281.596
 51
12.714
  0
ARC
  5
1DD
330
18
100
AcDbEntity
  8
0
100
AcDbCircle
 10
2.398
 20
2.949
 30
0.0
 40
0.01
100
AcDbArc
 50
12.714
 51
101.596
  0
ARC
  5
1DE
330
18
100
AcDbEntity
  8
0
100
AcDbCircle
 10
2.383
 20
3.684
 30
0.0
 40
0.01
100
AcDbArc
 50
12.714
 51
101.596
  0
ARC
  5
1DF
330
18
100
AcDbEntity
  8
0
100
AcDbCircle
 10
2.401
 20
3.605
 30
0.0
 40
0.01
100
AcDbArc
 50
281.596
 51
12.714
  0
LINE
  5
1E0
330
18
100
AcDbEntity
  8
0
100
AcDbLine
 10
2.381
 20
3.694
 30
0.0
 11
2.367
 21
3.691
 31
0.0
  0
LINE
  5
1E1
330
18
100
AcDbEntity
  8
0
100
AcDbLine
 10
2.376
 20
3.589
 30
0.0
 11
2.374
 21
3.599
 31
0.0
  0
LINE
  5
1E2
330
18
100
AcDbEntity
  8
0
100
AcDbLine
 10
2.403
 20
3.595
 30
0.0
 11
2.376
 21
3.589
 31
0.0
  0
LINE
  5
1E3
330
18
100
AcDbEntity
  8
0
100
AcDbLine
 10
2.393
 20
3.686
 30
0.0
 11
2.411
 21
3.607
 31
0.0
  0
LINE
  5
1E4
330
18
100
AcDbEntity
  8
0
100
AcDbLine
 10
2.564
 20
3.933
 30
0.0
 11
2.564
 21
3.825
 31
0.0
  0
LINE
  5
1E5
330
18
100
AcDbEntity
  8
0
100
AcDbLine
 10
2.553
 20
3.801
 30
0.0
 11
2.562
 21
2.328
 31
0.0
  0
LINE
  5
1E6
330
18
100
AcDbEntity
  8
0
100
AcDbLine
 10
2.58
 20
3.804
 30
0.0
 11
2.588
 21
2.457
 31
0.0
  0
LINE
  5
1E7
330
18
100
AcDbEntity
  8
0
100
AcDbLine
 10
2.573
 20
4.888999999999999
 30
0.0
 11
2.579
 21
3.93
 31
0.0
  0
LINE
  5
1E8
330
18
100
AcDbEntity
  8
0
100
AcDbLine
 10
2.546
 20
4.947
 30
0.0
 11
2.552
 21
3.933
 31
0.0
  0
LINE
  5
1E9
330
18
100
AcDbEntity
  8
0
100
AcDbLine
 10
1.904
 20
1.912
 30
0.0
 11
1.969
 21
1.942
 31
0.0
  0
LINE
  5
1EA
330
18
100
AcDbEntity
  8
0
100
AcDbLine
 10
2.588
 20
2.308
 30
0.0
 11
2.589
 21
2.231
 31
0.0
  0
LINE
  5
1EB
330
18
100
AcDbEntity
  8
0
100
AcDbLine
 10
2.525
 20
2.201
 30
0.0
 11
2.589
 21
2.231
 31
0.0
  0
LINE
  5
1EC
330
18
100
AcDbEntity
  8
0
100
AcDbLine
 10
2.543
 20
5.438
 30
0.0
 11
2.549
 21
5.045
 31
0.0
  0
ARC
  5
1ED
330
18
100
AcDbEntity
  8
0
100
AcDbCircle
 10
2.747
 20
4.587
 30
0.0
 40
0.049
100
AcDbArc
 50
168.28
 51
233.951
  0
LINE
  5
1EE
330
18
100
AcDbEntity
  8
0
100
AcDbLine
 10
2.716
 20
4.689
 30
0.0
 11
2.699
 21
4.596
 31
0.0
  0
ARC
  5
1EF
330
18
100
AcDbEntity
  8
0
100
AcDbCircle
 10
2.689
 20
4.42
 30
0.0
 40
0.031
100
AcDbArc
 50
289.711
 51
6.007999999999999
  0
LINE
  5
1F0
330
18
100
AcDbEntity
  8
0
100
AcDbLine
 10
2.716
 20
4.721
 30
0.0
 11
2.72
 21
4.423
 31
0.0
  0
ARC
  5
1F1
330
18
100
AcDbEntity
  8
0
100
AcDbCircle
 10
2.918
 20
2.747
 30
0.0
 40
0.038
100
AcDbArc
 50
319.094
 51
4.081
  0
ARC
  5
1F2
330
18
100
AcDbEntity
  8
0
100
AcDbCircle
 10
2.878
 20
2.79
 30
0.0
 40
0.075
100
AcDbArc
 50
4.081
 51
70.63200000000001
  0
LINE
  5
1F3
330
18
100
AcDbEntity
  8
0
100
AcDbLine
 10
2.956
 20
2.749
 30
0.0
 11
2.953
 21
2.796
 31
0.0
  0
ARC
  5
1F4
330
18
100
AcDbEntity
  8
0
100
AcDbCircle
 10
2.884
 20
2.707
 30
0.0
 40
0.038
100
AcDbArc
 50
319.094
 51
4.081
  0
ARC
  5
1F5
330
18
100
AcDbEntity
  8
0
100
AcDbCircle
 10
2.878
 20
2.79
 30
0.0
 40
0.038
100
AcDbArc
 50
4.081
 51
70.63200000000001
  0
LINE
  5
1F6
330
18
100
AcDbEntity
  8
0
100
AcDbLine
 10
2.921
 20
2.709
 30
0.0
 11
2.915
 21
2.793
 31
0.0
  0
LINE
  5
1F7
330
18
100
AcDbEntity
  8
0
100
AcDbLine
 10
2.838
 20
2.884
 30
0.0
 11
2.903
 21
2.861
 31
0.0
  0
ARC
  5
1F8
330
18
100
AcDbEntity
  8
0
100
AcDbCircle
 10
2.85
 20
3.167
 30
0.0
 40
0.013
100
AcDbArc
 50
80.435
 51
180.025
  0
LINE
  5
1F9
330
18
100
AcDbEntity
  8
0
100
AcDbLine
 10
2.838
 20
3.167
 30
0.0
 11
2.838
 21
2.884
 31
0.0
  0
ARC
  5
1FA
330
18
100
AcDbEntity
  8
0
100
AcDbCircle
 10
2.838
 20
3.144
 30
0.0
 40
0.038
100
AcDbArc
 50
72.203
 51
180.025
  0
ARC
  5
1FB
330
18
100
AcDbEntity
  8
0
100
AcDbCircle
 10
2.904
 20
3.209
 30
0.0
 40
0.038
100
AcDbArc
 50
260.435
 51
359.957
  0
ARC
  5
1FC
330
18
100
AcDbEntity
  8
0
100
AcDbCircle
 10
2.891
 20
3.186
 30
0.0
 40
0.013
100
AcDbArc
 50
260.435
 51
359.957
  0
LINE
  5
1FD
330
18
100
AcDbEntity
  8
0
100
AcDbLine
 10
2.852
 20
3.18
 30
0.0
 11
2.898
 21
3.172
 31
0.0
  0
ARC
  5
1FE
330
18
100
AcDbEntity
  8
0
100
AcDbCircle
 10
2.838
 20
2.884
 30
0.0
 40
0.038
100
AcDbArc
 50
180.025
 51
250.632
  0
LINE
  5
1FF
330
18
100
AcDbEntity
  8
0
100
AcDbLine
 10
2.825
 20
2.848
 30
0.0
 11
2.89
 21
2.826
 31
0.0
  0
LINE
  5
200
330
18
100
AcDbEntity
  8
0
100
AcDbLine
 10
2.8
 20
3.144
 30
0.0
 11
2.8
 21
2.884
 31
0.0
  0
LINE
  5
201
330
18
100
AcDbEntity
  8
0
100
AcDbLine
 10
2.941
 20
3.482
 30
0.0
 11
2.941
 21
3.209
 31
0.0
  0
ARC
  5
202
330
18
100
AcDbEntity
  8
0
100
AcDbCircle
 10
2.866
 20
3.483
 30
0.0
 40
0.075
100
AcDbArc
 50
359.957
 51
67.90600000000001
  0
LINE
  5
203
330
18
100
AcDbEntity
  8
0
100
AcDbLine
 10
2.833
 20
3.577
 30
0.0
 11
2.895
 21
3.552
 31
0.0
  0
ARC
  5
204
330
18
100
AcDbEntity
  8
0
100
AcDbCircle
 10
2.866
 20
3.483
 30
0.0
 40
0.038
100
AcDbArc
 50
359.957
 51
67.90600000000001
  0
ARC
  5
205
330
18
100
AcDbEntity
  8
0
100
AcDbCircle
 10
2.833
 20
3.577
 30
0.0
 40
0.038
100
AcDbArc
 50
180.047
 51
247.906
  0
ARC
  5
206
330
18
100
AcDbEntity
  8
0
100
AcDbCircle
 10
2.9
 20
3.909
 30
0.0
 40
0.038
100
AcDbArc
 50
267.442
 51
0.079
  0
ARC
  5
207
330
18
100
AcDbEntity
  8
0
100
AcDbCircle
 10
2.888
 20
3.885
 30
0.0
 40
0.013
100
AcDbArc
 50
267.442
 51
0.079
  0
LINE
  5
208
330
18
100
AcDbEntity
  8
0
100
AcDbLine
 10
2.833
 20
3.875
 30
0.0
 11
2.833
 21
3.576
 31
0.0
  0
ARC
  5
209
330
18
100
AcDbEntity
  8
0
100
AcDbCircle
 10
2.833
 20
3.837
 30
0.0
 40
0.038
100
AcDbArc
 50
87.44200000000001
 51
180.047
  0
LINE
  5
20A
330
18
100
AcDbEntity
  8
0
100
AcDbLine
 10
2.835
 20
3.875
 30
0.0
 11
2.899
 21
3.872
 31
0.0
  0
LINE
  5
20B
330
18
100
AcDbEntity
  8
0
100
AcDbLine
 10
2.904
 20
3.483
 30
0.0
 11
2.904
 21
3.186
 31
0.0
  0
LINE
  5
20C
330
18
100
AcDbEntity
  8
0
100
AcDbLine
 10
2.819
 20
3.542
 30
0.0
 11
2.881
 21
3.517
 31
0.0
  0
LINE
  5
20D
330
18
100
AcDbEntity
  8
0
100
AcDbLine
 10
2.795
 20
3.837
 30
0.0
 11
2.796
 21
3.577
 31
0.0
  0
LINE
  5
20E
330
18
100
AcDbEntity
  8
0
100
AcDbLine
 10
2.899
 20
4.94
 30
0.0
 11
2.937
 21
4.952
 31
0.0
  0
LINE
  5
20F
330
18
100
AcDbEntity
  8
0
100
AcDbLine
 10
2.899
 20
4.94
 30
0.0
 11
2.901
 21
3.885
 31
0.0
  0
LINE
  5
210
330
18
100
AcDbEntity
  8
0
100
AcDbLine
 10
2.937
 20
4.952
 30
0.0
 11
2.938
 21
3.91
 31
0.0
  0
ARC
  5
211
330
18
100
AcDbEntity
  8
0
100
AcDbCircle
 10
2.628
 20
2.202
 30
0.0
 40
0.1
100
AcDbArc
 50
139.094
 51
167.368
  0
LINE
  5
212
330
18
100
AcDbEntity
  8
0
100
AcDbLine
 10
2.513
 20
2.146
 30
0.0
 11
2.53
 21
2.223
 31
0.0
  0
LINE
  5
213
330
18
100
AcDbEntity
  8
0
100
AcDbLine
 10
2.947
 20
2.722
 30
0.0
 11
2.552
 21
2.267
 31
0.0
  0
LINE
  5
214
330
18
100
AcDbEntity
  8
0
100
AcDbLine
 10
1.979
 20
1.893
 30
0.0
 11
2.513
 21
2.146
 31
0.0
  0
ARC
  5
215
330
18
100
AcDbEntity
  8
0
100
AcDbCircle
 10
1.965
 20
1.928
 30
0.0
 40
0.038
100
AcDbArc
 50
268.45
 51
336.2
  0
LINE
  5
216
330
18
100
AcDbEntity
  8
0
100
AcDbLine
 10
1.999
 20
1.913
 30
0.0
 11
2.347
 21
2.701
 31
0.0
  0
ARC
  5
217
330
18
100
AcDbEntity
  8
0
100
AcDbCircle
 10
1.967
 20
1.994
 30
0.0
 40
0.104
100
AcDbArc
 50
232.747
 51
268.45
  0
ARC
  5
218
330
18
100
AcDbEntity
  8
0
100
AcDbCircle
 10
2.294
 20
3.471
 30
0.0
 40
0.05
100
AcDbArc
 50
359.484
 51
81.94200000000001
  0
ARC
  5
219
330
18
100
AcDbEntity
  8
0
100
AcDbCircle
 10
2.257
 20
3.099
 30
0.0
 40
0.013
100
AcDbArc
 50
118.616
 51
181.682
  0
ARC
  5
21A
330
18
100
AcDbEntity
  8
0
100
AcDbCircle
 10
2.267
 20
2.737
 30
0.0
 40
0.088
100
AcDbArc
 50
336.2
 51
8.371
  0
ARC
  5
21B
330
18
100
AcDbEntity
  8
0
100
AcDbCircle
 10
2.325
 20
2.77
 30
0.0
 40
0.025
100
AcDbArc
 50
8.371
 51
72.80500000000001
  0
LINE
  5
21C
330
18
100
AcDbEntity
  8
0
100
AcDbLine
 10
2.35
 20
2.773
 30
0.0
 11
2.353
 21
2.75
 31
0.0
  0
ARC
  5
21D
330
18
100
AcDbEntity
  8
0
100
AcDbCircle
 10
2.254
 20
3.211
 30
0.0
 40
0.088
100
AcDbArc
 50
298.616
 51
359.484
  0
LINE
  5
21E
330
18
100
AcDbEntity
  8
0
100
AcDbLine
 10
2.244
 20
3.099
 30
0.0
 11
2.252
 21
2.819
 31
0.0
  0
LINE
  5
21F
330
18
100
AcDbEntity
  8
0
100
AcDbLine
 10
2.251
 20
3.11
 30
0.0
 11
2.296
 21
3.135
 31
0.0
  0
LINE
  5
220
330
18
100
AcDbEntity
  8
0
100
AcDbLine
 10
2.257
 20
3.527
 30
0.0
 11
2.301
 21
3.521
 31
0.0
  0
ARC
  5
221
330
18
100
AcDbEntity
  8
0
100
AcDbCircle
 10
2.257
 20
3.818
 30
0.0
 40
0.013
100
AcDbArc
 50
123.128
 51
180.286
  0
LINE
  5
222
330
18
100
AcDbEntity
  8
0
100
AcDbLine
 10
2.344
 20
3.471
 30
0.0
 11
2.342
 21
3.211
 31
0.0
  0
LINE
  5
223
330
18
100
AcDbEntity
  8
0
100
AcDbLine
 10
2.244
 20
3.818
 30
0.0
 11
2.246
 21
3.539
 31
0.0
  0
LINE
  5
224
330
18
100
AcDbEntity
  8
0
100
AcDbLine
 10
2.25
 20
3.828
 30
0.0
 11
2.314
 21
3.87
 31
0.0
  0
ARC
  5
225
330
18
100
AcDbEntity
  8
0
100
AcDbCircle
 10
2.266
 20
3.943
 30
0.0
 40
0.088
100
AcDbArc
 50
303.128
 51
0.8170000000000001
  0
ARC
  5
226
330
18
100
AcDbEntity
  8
0
100
AcDbCircle
 10
2.587
 20
5.007
 30
0.0
 40
0.025
100
AcDbArc
 50
73.361
 51
107.378
  0
LINE
  5
227
330
18
100
AcDbEntity
  8
0
100
AcDbLine
 10
2.9
 20
4.94
 30
0.0
 11
2.595
 21
5.031000000000001
 31
0.0
  0
LINE
  5
228
330
18
100
AcDbEntity
  8
0
100
AcDbLine
 10
2.58
 20
5.031000000000001
 30
0.0
 11
2.339
 21
4.956
 31
0.0
  0
LINE
  5
229
330
18
100
AcDbEntity
  8
0
100
AcDbLine
 10
2.572
 20
5.052
 30
0.0
 11
2.301
 21
4.967
 31
0.0
  0
ARC
  5
22A
330
18
100
AcDbEntity
  8
0
100
AcDbCircle
 10
2.587
 20
5.004
 30
0.0
 40
0.05
100
AcDbArc
 50
73.361
 51
107.378
  0
LINE
  5
22B
330
18
100
AcDbEntity
  8
0
100
AcDbLine
 10
2.937
 20
4.952
 30
0.0
 11
2.602
 21
5.052
 31
0.0
  0
LINE
  5
22C
330
18
100
AcDbEntity
  8
0
100
AcDbLine
 10
2.339
 20
4.956
 30
0.0
 11
2.301
 21
4.967
 31
0.0
  0
LINE
  5
22D
330
18
100
AcDbEntity
  8
0
100
AcDbLine
 10
2.339
 20
4.956
 30
0.0
 11
2.353
 21
3.944
 31
0.0
  0
ARC
  5
22E
330
18
100
AcDbEntity
  8
0
100
AcDbCircle
 10
2.285
 20
2.782
 30
0.0
 40
0.025
100
AcDbArc
 50
8.371
 51
72.80500000000001
  0
ARC
  5
22F
330
18
100
AcDbEntity
  8
0
100
AcDbCircle
 10
2.263
 20
2.867
 30
0.0
 40
0.05
100
AcDbArc
 50
181.682
 51
252.805
  0
LINE
  5
230
330
18
100
AcDbEntity
  8
0
100
AcDbLine
 10
2.333
 20
2.794
 30
0.0
 11
2.249
 21
2.82
 31
0.0
  0
ARC
  5
231
330
18
100
AcDbEntity
  8
0
100
AcDbCircle
 10
2.267
 20
2.737
 30
0.0
 40
0.05
100
AcDbArc
 50
336.2
 51
8.371
  0
LINE
  5
232
330
18
100
AcDbEntity
  8
0
100
AcDbLine
 10
2.31
 20
2.786
 30
0.0
 11
2.316
 21
2.744
 31
0.0
  0
LINE
  5
233
330
18
100
AcDbEntity
  8
0
100
AcDbLine
 10
1.969
 20
1.942
 30
0.0
 11
2.313
 21
2.717
 31
0.0
  0
ARC
  5
234
330
18
100
AcDbEntity
  8
0
100
AcDbCircle
 10
2.257
 20
3.099
 30
0.0
 40
0.05
100
AcDbArc
 50
118.616
 51
181.682
  0
ARC
  5
235
330
18
100
AcDbEntity
  8
0
100
AcDbCircle
 10
2.254
 20
3.211
 30
0.0
 40
0.05
100
AcDbArc
 50
298.616
 51
359.484
  0
ARC
  5
236
330
18
100
AcDbEntity
  8
0
100
AcDbCircle
 10
2.258
 20
3.577
 30
0.0
 40
0.05
100
AcDbArc
 50
180.286
 51
266.15
  0
ARC
  5
237
330
18
100
AcDbEntity
  8
0
100
AcDbCircle
 10
2.256
 20
3.476
 30
0.0
 40
0.05
100
AcDbArc
 50
359.484
 51
81.94200000000001
  0
LINE
  5
238
330
18
100
AcDbEntity
  8
0
100
AcDbLine
 10
2.207
 20
3.097
 30
0.0
 11
2.213
 21
2.866
 31
0.0
  0
LINE
  5
239
330
18
100
AcDbEntity
  8
0
100
AcDbLine
 10
2.233
 20
3.143
 30
0.0
 11
2.278
 21
3.168
 31
0.0
  0
LINE
  5
23A
330
18
100
AcDbEntity
  8
0
100
AcDbLine
 10
2.306
 20
3.476
 30
0.0
 11
2.304
 21
3.211
 31
0.0
  0
ARC
  5
23B
330
18
100
AcDbEntity
  8
0
100
AcDbCircle
 10
2.257
 20
3.818
 30
0.0
 40
0.05
100
AcDbArc
 50
123.128
 51
180.286
  0
ARC
  5
23C
330
18
100
AcDbEntity
  8
0
100
AcDbCircle
 10
2.266
 20
3.943
 30
0.0
 40
0.05
100
AcDbArc
 50
303.128
 51
0.8170000000000001
  0
LINE
  5
23D
330
18
100
AcDbEntity
  8
0
100
AcDbLine
 10
2.23
 20
3.86
 30
0.0
 11
2.293
 21
3.901
 31
0.0
  0
LINE
  5
23E
330
18
100
AcDbEntity
  8
0
100
AcDbLine
 10
2.207
 20
3.817
 30
0.0
 11
2.208
 21
3.577
 31
0.0
  0
LINE
  5
23F
330
18
100
AcDbEntity
  8
0
100
AcDbLine
 10
2.301
 20
4.967
 30
0.0
 11
2.316
 21
3.944
 31
0.0
  0
LINE
  5
240
330
18
100
AcDbEntity
  8
0
100
AcDbLine
 10
0.499
 20
3.248
 30
0.0
 11
0.594
 21
3.408
 31
0.0
  0
LINE
  5
241
330
18
100
AcDbEntity
  8
0
100
AcDbLine
 10
0.59
 20
3.213
 30
0.0
 11
0.6890000000000001
 21
3.372
 31
0.0
  0
LINE
  5
242
330
18
100
AcDbEntity
  8
0
100
AcDbLine
 10
0.706
 20
3.169
 30
0.0
 11
0.8040000000000001
 21
3.327
 31
0.0
  0
LINE
  5
243
330
18
100
AcDbEntity
  8
0
100
AcDbLine
 10
0.8029999999999999
 20
3.131
 30
0.0
 11
0.893
 21
3.293
 31
0.0
  0
LINE
  5
244
330
18
100
AcDbEntity
  8
0
100
AcDbLine
 10
0.8590000000000001
 20
3.11
 30
0.0
 11
0.9570000000000001
 21
3.268
 31
0.0
  0
LINE
  5
245
330
18
100
AcDbEntity
  8
0
100
AcDbLine
 10
0.961
 20
3.07
 30
0.0
 11
1.06
 21
3.229
 31
0.0
  0
LINE
  5
246
330
18
100
AcDbEntity
  8
0
100
AcDbLine
 10
0.753
 20
3.514
 30
0.0
 11
1.013
 21
3.33
 31
0.0
  0
LINE
  5
247
330
18
100
AcDbEntity
  8
0
100
AcDbLine
 10
0.5770000000000001
 20
3.582
 30
0.0
 11
1.073
 21
3.224
 31
0.0
  0
LINE
  5
248
330
18
100
AcDbEntity
  8
0
100
AcDbLine
 10
0.414
 20
3.645
 30
0.0
 11
0.903
 21
3.289
 31
0.0
  0
LINE
  5
249
330
18
100
AcDbEntity
  8
0
100
AcDbLine
 10
0.735
 20
3.354
 30
0.0
 11
0.442
 21
3.554
 31
0.0
  0
LINE
  5
24A
330
18
100
AcDbEntity
  8
0
100
AcDbLine
 10
0.503
 20
3.86
 30
0.0
 11
0.439
 21
3.635
 31
0.0
  0
LINE
  5
24B
330
18
100
AcDbEntity
  8
0
100
AcDbLine
 10
0.62
 20
3.814
 30
0.0
 11
0.5570000000000001
 21
3.59
 31
0.0
  0
LINE
  5
24C
330
18
100
AcDbEntity
  8
0
100
AcDbLine
 10
0.73
 20
3.772
 30
0.0
 11
0.653
 21
3.552
 31
0.0
  0
LINE
  5
24D
330
18
100
AcDbEntity
  8
0
100
AcDbLine
 10
0.794
 20
3.747
 30
0.0
 11
0.721
 21
3.526
 31
0.0
  0
LINE
  5
24E
330
18
100
AcDbEntity
  8
0
100
AcDbLine
 10
0.885
 20
3.712
 30
0.0
 11
0.8050000000000001
 21
3.494
 31
0.0
  0
LINE
  5
24F
330
18
100
AcDbEntity
  8
0
100
AcDbLine
 10
0.963
 20
3.682
 30
0.0
 11
0.887
 21
3.462
 31
0.0
  0
LINE
  5
250
330
18
100
AcDbEntity
  8
0
100
AcDbLine
 10
0.435
 20
3.273
 30
0.0
 11
0.4379999999999999
 21
1.746
 31
0.0
  0
LINE
  5
251
330
18
100
AcDbEntity
  8
0
100
AcDbLine
 10
0.434
 20
3.886
 30
0.0
 11
0.353
 21
3.668
 31
0.0
  0
LINE
  5
252
330
18
100
AcDbEntity
  8
0
100
AcDbLine
 10
0.353
 20
3.668
 30
0.0
 11
0.539
 21
3.429
 31
0.0
  0
LINE
  5
253
330
18
100
AcDbEntity
  8
0
100
AcDbLine
 10
0.539
 20
3.429
 30
0.0
 11
0.435
 21
3.273
 31
0.0
  0
LINE
  5
254
330
18
100
AcDbEntity
  8
0
100
AcDbLine
 10
1.002
 20
3.055
 30
0.0
 11
0.435
 21
3.273
 31
0.0
  0
LINE
  5
255
330
18
100
AcDbEntity
  8
0
100
AcDbLine
 10
1.106
 20
3.211
 30
0.0
 11
0.539
 21
3.429
 31
0.0
  0
LINE
  5
256
330
18
100
AcDbEntity
  8
0
100
AcDbLine
 10
0.92
 20
3.45
 30
0.0
 11
0.353
 21
3.668
 31
0.0
  0
LINE
  5
257
330
18
100
AcDbEntity
  8
0
100
AcDbLine
 10
1.002
 20
3.668
 30
0.0
 11
0.434
 21
3.886
 31
0.0
  0
LINE
  5
258
330
18
100
AcDbEntity
  8
0
100
AcDbLine
 10
1.002
 20
3.055
 30
0.0
 11
1.002
 21
1.492
 31
0.0
  0
LINE
  5
259
330
18
100
AcDbEntity
  8
0
100
AcDbLine
 10
1.106
 20
3.211
 30
0.0
 11
1.002
 21
3.055
 31
0.0
  0
LINE
  5
25A
330
18
100
AcDbEntity
  8
0
100
AcDbLine
 10
0.92
 20
3.45
 30
0.0
 11
1.106
 21
3.211
 31
0.0
  0
LINE
  5
25B
330
18
100
AcDbEntity
  8
0
100
AcDbLine
 10
1.002
 20
3.668
 30
0.0
 11
0.92
 21
3.45
 31
0.0
  0
LINE
  5
25C
330
18
100
AcDbEntity
  8
0
100
AcDbLine
 10
1.002
 20
1.492
 30
0.0
 11
1.904
 21
1.912
 31
0.0
  0
LINE
  5
25D
330
18
100
AcDbEntity
  8
0
100
AcDbLine
 10
0.4379999999999999
 20
1.746
 30
0.0
 11
1.002
 21
1.492
 31
0.0
  0
LINE
  5
25E
330
18
100
AcDbEntity
  8
0
100
AcDbLine
 10
0.433
 20
5.178999999999999
 30
0.0
 11
0.434
 21
3.886
 31
0.0
  0
LINE
  5
25F
330
18
100
AcDbEntity
  8
0
100
AcDbLine
 10
1.001
 20
4.977
 30
0.0
 11
1.002
 21
3.668
 31
0.0
  0
LINE
  5
260
330
18
100
AcDbEntity
  8
0
100
AcDbLine
 10
0.433
 20
5.178999999999999
 30
0.0
 11
1.991
 21
5.586
 31
0.0
  0
LINE
  5
261
330
18
100
AcDbEntity
  8
0
100
AcDbLine
 10
1.001
 20
4.977
 30
0.0
 11
0.433
 21
5.178999999999999
 31
0.0
  0
LINE
  5
262
330
18
100
AcDbEntity
  8
0
100
AcDbLine
 10
1.001
 20
4.977
 30
0.0
 11
2.543
 21
5.438
 31
0.0
  0
LINE
  5
263
330
18
100
AcDbEntity
  8
0
100
AcDbLine
 10
0.826
 20
5.9
 30
0.0
 11
0.8190000000000001
 21
5.28
 31
0.0
  0
LINE
  5
264
330
18
100
AcDbEntity
  8
0
100
AcDbLine
 10
1.488
 20
6.026
 30
0.0
 11
1.521
 21
6.101
 31
0.0
  0
LINE
  5
265
330
18
100
AcDbEntity
  8
0
100
AcDbLine
 10
1.57
 20
6.019
 30
0.0
 11
1.587
 21
6.055
 31
0.0
  0
LINE
  5
266
330
18
100
AcDbEntity
  8
0
100
AcDbLine
 10
1.462
 20
6.143
 30
0.0
 11
1.454
 21
6.029
 31
0.0
  0
LINE
  5
267
330
18
100
AcDbEntity
  8
0
100
AcDbLine
 10
1.679
 20
6.126
 30
0.0
 11
2.057
 21
6.226
 31
0.0
  0
LINE
  5
268
330
18
100
AcDbEntity
  8
0
100
AcDbLine
 10
1.462
 20
6.143
 30
0.0
 11
1.679
 21
6.126
 31
0.0
  0
LINE
  5
269
330
18
100
AcDbEntity
  8
0
100
AcDbLine
 10
1.648
 20
6.012000000000001
 30
0.0
 11
1.462
 21
6.143
 31
0.0
  0
LINE
  5
26A
330
18
100
AcDbEntity
  8
0
100
AcDbLine
 10
1.349
 20
6.037999999999999
 30
0.0
 11
1.648
 21
6.012000000000001
 31
0.0
  0
LINE
  5
26B
330
18
100
AcDbEntity
  8
0
100
AcDbLine
 10
0.826
 20
5.9
 30
0.0
 11
1.349
 21
6.037999999999999
 31
0.0
  0
LINE
  5
26C
330
18
100
AcDbEntity
  8
0
100
AcDbLine
 10
2.057
 20
6.226
 30
0.0
 11
4.562
 21
5.573
 31
0.0
  0
LINE
  5
26D
330
18
100
AcDbEntity
  8
0
100
AcDbLine
 10
0.826
 20
5.9
 30
0.0
 11
3.418
 21
5.202999999999999
 31
0.0
  0
LINE
  5
26E
330
18
100
AcDbEntity
  8
0
100
AcDbLine
 10
3.418
 20
5.202999999999999
 30
0.0
 11
4.562
 21
5.573
 31
0.0
  0
LINE
  5
26F
330
18
100
AcDbEntity
  8
0
100
AcDbLine
 10
4.562
 20
5.573
 30
0.0
 11
4.562
 21
1.65
 31
0.0
  0
LINE
  5
270
330
18
100
AcDbEntity
  8
0
100
AcDbLine
 10
4.562
 20
1.65
 30
0.0
 11
3.418
 21
1.037
 31
0.0
  0
LINE
  5
271
330
18
100
AcDbEntity
  8
0
100
AcDbLine
 10
3.418
 20
5.202999999999999
 30
0.0
 11
3.418
 21
1.037
 31
0.0
  0
LINE
  5
272
330
18
100
AcDbEntity
  8
0
100
AcDbLine
 10
1.599
 20
1.775
 30
0.0
 11
3.418
 21
1.037
 31
0.0
  0
TEXT
  5
273
330
18
100
AcDbEntity
  8
0
100
AcDbText
 10
1.776
 20
0.65
 30
0.0
 40
0.125
  1
Simpson Strong-Tie
100
AcDbText
  0
ENDSEC
  0
SECTION
  2
OBJECTS
  0
DICTIONARY
  5
C
330
0
100
AcDbDictionary
281
     1
  3
ACAD_COLOR
350
279
  3
ACAD_GROUP
350
D
  3
ACAD_LAYOUT
350
15
  3
ACAD_MATERIAL
350
27B
  3
ACAD_MLINESTYLE
350
12
  3
ACAD_PLOTSETTINGS
350
14
  3
ACAD_PLOTSTYLENAME
350
E
  3
ACDBHEADERROUNDTRIPXREC
350
278
  0
DICTIONARY
  5
279
102
{ACAD_REACTORS
330
C
102
}
330
C
100
AcDbDictionary
281
     1
  0
DICTIONARY
  5
D
102
{ACAD_REACTORS
330
C
102
}
330
C
100
AcDbDictionary
281
     1
  0
DICTIONARY
  5
15
102
{ACAD_REACTORS
330
C
102
}
330
C
100
AcDbDictionary
281
     1
  3
Layout1
350
17
  3
Model
350
19
  0
DICTIONARY
  5
27B
102
{ACAD_REACTORS
330
C
102
}
330
C
100
AcDbDictionary
281
     1
  0
DICTIONARY
  5
12
102
{ACAD_REACTORS
330
C
102
}
330
C
100
AcDbDictionary
281
     1
  3
Standard
350
13
  0
DICTIONARY
  5
14
102
{ACAD_REACTORS
330
C
102
}
330
C
100
AcDbDictionary
281
     1
  0
ACDBDICTIONARYWDFLT
  5
E
102
{ACAD_REACTORS
330
C
102
}
330
C
100
AcDbDictionary
281
     1
  3
Normal
350
F
100
AcDbDictionaryWithDefault
340
F
  0
DICTIONARY
  5
278
102
{ACAD_REACTORS
330
C
102
}
330
C
100
AcDbDictionary
281
     1
  3
COLORDICT
350
27A
  3
MATERIALDICT
350
27C
  0
LAYOUT
  5
17
102
{ACAD_REACTORS
330
15
102
}
102
{ACAD_XDICTIONARY
360
27D
102
}
330
15
100
AcDbPlotSettings
  1

  2

  4

  6

 40
0.0
 41
0.0
 42
0.0
 43
0.0
 44
0.0
 45
0.0
 46
0.0
 47
0.0
 48
0.0
 49
0.0
140
0.0
141
0.0
142
1.0
143
1.0
 70
   688
 72
     0
 73
     0
 74
     5
  7

 75
    16
147
1.0
148
0.0
149
0.0
100
AcDbLayout
  1
Layout1
 70
     1
 71
     1
 10
0.0
 20
0.0
 11
12.0
 21
9.0
 12
0.0
 22
0.0
 32
0.0
 14
1.000000000000000E+20
 24
1.000000000000000E+20
 34
1.000000000000000E+20
 15
-1.000000000000000E+20
 25
-1.000000000000000E+20
 35
-1.000000000000000E+20
146
0.0
 13
0.0
 23
0.0
 33
0.0
 16
1.0
 26
0.0
 36
0.0
 17
0.0
 27
1.0
 37
0.0
 76
     0
330
16
  0
LAYOUT
  5
19
102
{ACAD_REACTORS
330
15
102
}
102
{ACAD_XDICTIONARY
360
27F
102
}
330
15
100
AcDbPlotSettings
  1

  2

  4

  6

 40
0.0
 41
0.0
 42
0.0
 43
0.0
 44
0.0
 45
0.0
 46
0.0
 47
0.0
 48
0.0
 49
0.0
140
0.0
141
0.0
142
1.0
143
1.0
 70
  1712
 72
     0
 73
     0
 74
     0
  7

 75
     0
147
1.0
148
0.0
149
0.0
100
AcDbLayout
  1
Model
 70
     1
 71
     0
 10
0.0
 20
0.0
 11
0.0
 21
0.0
 12
0.0
 22
0.0
 32
0.0
 14
0.0
 24
0.0
 34
0.0
 15
0.0
 25
0.0
 35
0.0
146
0.0
 13
0.0
 23
0.0
 33
0.0
 16
1.0
 26
0.0
 36
0.0
 17
0.0
 27
1.0
 37
0.0
 76
     0
330
18
  0
MLINESTYLE
  5
13
102
{ACAD_REACTORS
330
12
102
}
330
12
100
AcDbMlineStyle
  2
Standard
 70
     0
  3

 62
   256
 51
90.0
 52
90.0
 71
     2
 49
0.5
 62
   256
  6
BYLAYER
 49
-0.5
 62
   256
  6
BYLAYER
  0
ACDBPLACEHOLDER
  5
F
102
{ACAD_REACTORS
330
E
102
}
330
E
  0
XRECORD
  5
27A
102
{ACAD_REACTORS
330
278
102
}
330
278
100
AcDbXrecord
340
279
  0
XRECORD
  5
27C
102
{ACAD_REACTORS
330
278
102
}
330
278
100
AcDbXrecord
340
27B
  0
DICTIONARY
  5
27D
330
17
100
AcDbDictionary
280
     1
281
     1
  3
ACAD_XREC_ROUNDTRIP
360
27E
  0
DICTIONARY
  5
27F
330
19
100
AcDbDictionary
280
     1
281
     1
  3
ACAD_XREC_ROUNDTRIP
360
280
  0
XRECORD
  5
27E
102
{ACAD_REACTORS
330
27D
102
}
330
27D
100
AcDbXrecord
102
SHADEPLOT
 70
     0
102
SHADEPLOTRESLEVEL
 70
     0
102
SHADEPLOTCUSTOMDPI
 70
     0
  0
XRECORD
  5
280
102
{ACAD_REACTORS
330
27F
102
}
330
27F
100
AcDbXrecord
102
SHADEPLOT
 70
-21088
102
SHADEPLOTRESLEVEL
 70
  7968
102
SHADEPLOTCUSTOMDPI
 70
-21008
  0
ENDSEC
  0
EOF
