  0
SECTION
  2
HEADER
  9
$ACADVER
  1
AC1015
  9
$ACADMAINTVER
 70
     6
  9
$DWGCODEPAGE
  3
ANSI_1252
  9
$INSBASE
 10
0.909
 20
-0.106
 30
0.0
  9
$EXTMIN
 10
0.5529999999999999
 20
0.104
 30
0.0
  9
$EXTMAX
 10
6.534930142857148
 20
8.273999999999999
 30
0.0
  9
$LIMMIN
 10
0.0
 20
0.0
  9
$LIMMAX
 10
12.0
 20
9.0
  9
$ORTHOMODE
 70
     1
  9
$REGENMODE
 70
     0
  9
$FILLMODE
 70
     1
  9
$QTEXTMODE
 70
     0
  9
$MIRRTEXT
 70
     1
  9
$LTSCALE
 40
1.0
  9
$ATTMODE
 70
     1
  9
$TEXTSIZE
 40
0.18
  9
$TRACEWID
 40
0.05
  9
$TEXTSTYLE
  7
STANDARD
  9
$CLAYER
  8
0
  9
$CELTYPE
  6
ByLayer
  9
$CECOLOR
 62
   256
  9
$CELTSCALE
 40
1.0
  9
$DISPSILH
 70
     0
  9
$DIMSCALE
 40
1.0
  9
$DIMASZ
 40
0.125
  9
$DIMEXO
 40
0.063
  9
$DIMDLI
 40
0.38
  9
$DIMRND
 40
0.0
  9
$DIMDLE
 40
0.0
  9
$DIMEXE
 40
0.18
  9
$DIMTP
 40
0.0
  9
$DIMTM
 40
0.0
  9
$DIMTXT
 40
0.125
  9
$DIMCEN
 40
0.09
  9
$DIMTSZ
 40
0.0
  9
$DIMTOL
 70
     0
  9
$DIMLIM
 70
     0
  9
$DIMTIH
 70
     1
  9
$DIMTOH
 70
     1
  9
$DIMSE1
 70
     0
  9
$DIMSE2
 70
     0
  9
$DIMTAD
 70
     0
  9
$DIMZIN
 70
     0
  9
$DIMBLK
  1

  9
$DIMASO
 70
     0
  9
$DIMSHO
 70
     0
  9
$DIMPOST
  1

  9
$DIMAPOST
  1

  9
$DIMALT
 70
     0
  9
$DIMALTD
 70
     2
  9
$DIMALTF
 40
25.4
  9
$DIMLFAC
 40
1.0
  9
$DIMTOFL
 70
     0
  9
$DIMTVP
 40
0.0
  9
$DIMTIX
 70
     0
  9
$DIMSOXD
 70
     0
  9
$DIMSAH
 70
     0
  9
$DIMBLK1
  1

  9
$DIMBLK2
  1

  9
$DIMSTYLE
  2
Standard
  9
$DIMCLRD
 70
     0
  9
$DIMCLRE
 70
     0
  9
$DIMCLRT
 70
     0
  9
$DIMTFAC
 40
1.0
  9
$DIMGAP
 40
0.09
  9
$DIMJUST
 70
     0
  9
$DIMSD1
 70
     0
  9
$DIMSD2
 70
     0
  9
$DIMTOLJ
 70
     1
  9
$DIMTZIN
 70
     0
  9
$DIMALTZ
 70
     0
  9
$DIMALTTZ
 70
     0
  9
$DIMUPT
 70
     0
  9
$DIMDEC
 70
     4
  9
$DIMTDEC
 70
     4
  9
$DIMALTU
 70
     2
  9
$DIMALTTD
 70
     2
  9
$DIMTXSTY
  7
STANDARD
  9
$DIMAUNIT
 70
     0
  9
$DIMADEC
 70
     0
  9
$DIMALTRND
 40
0.0
  9
$DIMAZIN
 70
     0
  9
$DIMDSEP
 70
    46
  9
$DIMATFIT
 70
     3
  9
$DIMFRAC
 70
     0
  9
$DIMLDRBLK
  1

  9
$DIMLUNIT
 70
     2
  9
$DIMLWD
 70
    -2
  9
$DIMLWE
 70
    -2
  9
$DIMTMOVE
 70
     0
  9
$LUNITS
 70
     2
  9
$LUPREC
 70
     4
  9
$SKETCHINC
 40
0.05
  9
$FILLETRAD
 40
0.015
  9
$AUNITS
 70
     0
  9
$AUPREC
 70
     0
  9
$MENU
  1
acad
  9
$ELEVATION
 40
0.0
  9
$PELEVATION
 40
0.0
  9
$THICKNESS
 40
0.0
  9
$LIMCHECK
 70
     0
  9
$CHAMFERA
 40
0.0
  9
$CHAMFERB
 40
0.0
  9
$CHAMFERC
 40
1.0
  9
$CHAMFERD
 40
0.0
  9
$SKPOLY
 70
     0
  9
$TDCREATE
 40
2453955.561379271
  9
$TDUCREATE
 40
2453955.894712604
  9
$TDUPDATE
 40
2453955.603045949
  9
$TDUUPDATE
 40
2453955.894712616
  9
$TDINDWG
 40
0.0000000116
  9
$TDUSRTIMER
 40
0.0000000116
  9
$USRTIMER
 70
     1
  9
$ANGBASE
 50
0.0
  9
$ANGDIR
 70
     0
  9
$PDMODE
 70
     0
  9
$PDSIZE
 40
0.0
  9
$PLINEWID
 40
0.0
  9
$SPLFRAME
 70
     0
  9
$SPLINETYPE
 70
     6
  9
$SPLINESEGS
 70
     8
  9
$HANDSEED
  5
6F4
  9
$SURFTAB1
 70
     6
  9
$SURFTAB2
 70
     6
  9
$SURFTYPE
 70
     6
  9
$SURFU
 70
     6
  9
$SURFV
 70
     6
  9
$UCSBASE
  2

  9
$UCSNAME
  2

  9
$UCSORG
 10
0.0
 20
0.0
 30
0.0
  9
$UCSXDIR
 10
1.0
 20
0.0
 30
0.0
  9
$UCSYDIR
 10
0.0
 20
1.0
 30
0.0
  9
$UCSORTHOREF
  2

  9
$UCSORTHOVIEW
 70
     0
  9
$UCSORGTOP
 10
0.0
 20
0.0
 30
0.0
  9
$UCSORGBOTTOM
 10
0.0
 20
0.0
 30
0.0
  9
$UCSORGLEFT
 10
0.0
 20
0.0
 30
0.0
  9
$UCSORGRIGHT
 10
0.0
 20
0.0
 30
0.0
  9
$UCSORGFRONT
 10
0.0
 20
0.0
 30
0.0
  9
$UCSORGBACK
 10
0.0
 20
0.0
 30
0.0
  9
$PUCSBASE
  2

  9
$PUCSNAME
  2

  9
$PUCSORG
 10
0.0
 20
0.0
 30
0.0
  9
$PUCSXDIR
 10
1.0
 20
0.0
 30
0.0
  9
$PUCSYDIR
 10
0.0
 20
1.0
 30
0.0
  9
$PUCSORTHOREF
  2

  9
$PUCSORTHOVIEW
 70
     0
  9
$PUCSORGTOP
 10
0.0
 20
0.0
 30
0.0
  9
$PUCSORGBOTTOM
 10
0.0
 20
0.0
 30
0.0
  9
$PUCSORGLEFT
 10
0.0
 20
0.0
 30
0.0
  9
$PUCSORGRIGHT
 10
0.0
 20
0.0
 30
0.0
  9
$PUCSORGFRONT
 10
0.0
 20
0.0
 30
0.0
  9
$PUCSORGBACK
 10
0.0
 20
0.0
 30
0.0
  9
$USERI1
 70
     0
  9
$USERI2
 70
     0
  9
$USERI3
 70
     0
  9
$USERI4
 70
     0
  9
$USERI5
 70
     0
  9
$USERR1
 40
0.0
  9
$USERR2
 40
0.0
  9
$USERR3
 40
0.0
  9
$USERR4
 40
0.0
  9
$USERR5
 40
0.0
  9
$WORLDVIEW
 70
     1
  9
$SHADEDGE
 70
     3
  9
$SHADEDIF
 70
    70
  9
$TILEMODE
 70
     1
  9
$MAXACTVP
 70
    16
  9
$PINSBASE
 10
0.0
 20
0.0
 30
0.0
  9
$PLIMCHECK
 70
     0
  9
$PEXTMIN
 10
1.000000000000000E+20
 20
1.000000000000000E+20
 30
1.000000000000000E+20
  9
$PEXTMAX
 10
-1.000000000000000E+20
 20
-1.000000000000000E+20
 30
-1.000000000000000E+20
  9
$PLIMMIN
 10
0.0
 20
0.0
  9
$PLIMMAX
 10
12.0
 20
9.0
  9
$UNITMODE
 70
     0
  9
$VISRETAIN
 70
     0
  9
$PLINEGEN
 70
     0
  9
$PSLTSCALE
 70
     0
  9
$TREEDEPTH
 70
  3020
  9
$CMLSTYLE
  2
Standard
  9
$CMLJUST
 70
     0
  9
$CMLSCALE
 40
1.0
  9
$PROXYGRAPHICS
 70
     1
  9
$MEASUREMENT
 70
     0
  9
$CELWEIGHT
370
    -1
  9
$ENDCAPS
280
     0
  9
$JOINSTYLE
280
     0
  9
$LWDISPLAY
290
     0
  9
$INSUNITS
 70
     1
  9
$HYPERLINKBASE
  1

  9
$STYLESHEET
  1

  9
$XEDIT
290
     1
  9
$CEPSNTYPE
380
     0
  9
$PSTYLEMODE
290
     0
  9
$FINGERPRINTGUID
  2
{FAEB1C30-E019-11D5-929B-00C0DF256EC4}
  9
$VERSIONGUID
  2
{FAEB1C32-E019-11D5-929B-00C0DF256EC4}
  9
$EXTNAMES
290
     1
  9
$PSVPSCALE
 40
0.0
  9
$OLESTARTUP
290
     0
  0
ENDSEC
  0
SECTION
  2
CLASSES
  0
CLASS
  1
ACDBDICTIONARYWDFLT
  2
AcDbDictionaryWithDefault
  3
AutoCAD 2000
 90
        0
280
     0
281
     0
  0
CLASS
  1
ACDBPLACEHOLDER
  2
AcDbPlaceHolder
  3
ObjectDBX Classes
 90
        0
280
     0
281
     0
  0
CLASS
  1
LAYOUT
  2
AcDbLayout
  3
ObjectDBX Classes
 90
        0
280
     0
281
     0
  0
ENDSEC
  0
SECTION
  2
TABLES
  0
TABLE
  2
VPORT
  5
8
330
0
100
AcDbSymbolTable
 70
     2
  0
VPORT
  5
1E
330
8
100
AcDbSymbolTableRecord
100
AcDbViewportTableRecord
  2
*ACTIVE
 70
     0
 10
0.0
 20
0.0
 11
1.0
 21
1.0
 12
6.243341404358354
 22
4.5
 13
0.0
 23
0.0
 14
1.0
 24
1.0
 15
0.0
 25
0.0
 16
0.0
 26
0.0
 36
1.0
 17
0.0
 27
0.0
 37
0.0
 40
9.0
 41
0.7207678883071553
 42
50.0
 43
0.0
 44
0.0
 50
0.0
 51
0.0
 71
     0
 72
  2000
 73
     1
 74
     0
 75
     0
 76
     0
 77
     0
 78
     0
281
     0
 65
     1
110
0.0
120
0.0
130
0.0
111
1.0
121
0.0
131
0.0
112
0.0
122
1.0
132
0.0
 79
     0
146
0.0
  0
ENDTAB
  0
TABLE
  2
LTYPE
  5
5
330
0
100
AcDbSymbolTable
 70
     1
  0
LTYPE
  5
10
330
5
100
AcDbSymbolTableRecord
100
AcDbLinetypeTableRecord
  2
ByBlock
 70
     0
  3

 72
    65
 73
     0
 40
0.0
  0
LTYPE
  5
11
330
5
100
AcDbSymbolTableRecord
100
AcDbLinetypeTableRecord
  2
ByLayer
 70
     0
  3

 72
    65
 73
     0
 40
0.0
  0
LTYPE
  5
1B
330
5
100
AcDbSymbolTableRecord
100
AcDbLinetypeTableRecord
  2
CONTINUOUS
 70
     0
  3
Solid line
 72
    65
 73
     0
 40
0.0
  0
ENDTAB
  0
TABLE
  2
LAYER
  5
2
330
0
100
AcDbSymbolTable
 70
     1
  0
LAYER
  5
1C
330
2
100
AcDbSymbolTableRecord
100
AcDbLayerTableRecord
  2
0
 70
     0
 62
     7
  6
CONTINUOUS
370
    -3
390
F
  0
ENDTAB
  0
TABLE
  2
STYLE
  5
3
330
0
100
AcDbSymbolTable
 70
     1
  0
STYLE
  5
20
330
3
100
AcDbSymbolTableRecord
100
AcDbTextStyleTableRecord
  2
STANDARD
 70
     0
 40
0.0
 41
1.0
 50
0.0
 71
     0
 42
0.18
  3
ROMANS
  4

  0
ENDTAB
  0
TABLE
  2
VIEW
  5
6
330
0
100
AcDbSymbolTable
 70
     0
  0
ENDTAB
  0
TABLE
  2
UCS
  5
7
330
0
100
AcDbSymbolTable
 70
     0
  0
ENDTAB
  0
TABLE
  2
APPID
  5
9
330
0
100
AcDbSymbolTable
 70
     1
  0
APPID
  5
1F
330
9
100
AcDbSymbolTableRecord
100
AcDbRegAppTableRecord
  2
ACAD
 70
     0
  0
ENDTAB
  0
TABLE
  2
DIMSTYLE
  5
A
330
0
100
AcDbSymbolTable
 70
     1
100
AcDbDimStyleTable
  0
DIMSTYLE
105
21
330
A
100
AcDbSymbolTableRecord
100
AcDbDimStyleTableRecord
  2
Standard
 70
     0
  3

  4

340
20
  0
ENDTAB
  0
TABLE
  2
BLOCK_RECORD
  5
1
330
0
100
AcDbSymbolTable
 70
     0
  0
BLOCK_RECORD
  5
18
330
1
100
AcDbSymbolTableRecord
100
AcDbBlockTableRecord
  2
*Model_Space
340
19
  0
BLOCK_RECORD
  5
16
330
1
100
AcDbSymbolTableRecord
100
AcDbBlockTableRecord
  2
*Paper_Space
340
17
  0
ENDTAB
  0
ENDSEC
  0
SECTION
  2
BLOCKS
  0
BLOCK
  5
6E9
330
18
100
AcDbEntity
  8
0
100
AcDbBlockBegin
  2
*Model_Space
 70
     0
 10
0.0
 20
0.0
 30
0.0
  3
*Model_Space
  1

  4

  0
ENDBLK
  5
6EA
330
18
100
AcDbEntity
  8
0
100
AcDbBlockEnd
  0
BLOCK
  5
6E7
330
16
100
AcDbEntity
 67
     1
  8
0
100
AcDbBlockBegin
  2
*Paper_Space
 70
     0
 10
0.0
 20
0.0
 30
0.0
  3
*Paper_Space
  1

  4

  0
ENDBLK
  5
6E8
330
16
100
AcDbEntity
 67
     1
  8
0
100
AcDbBlockEnd
  0
ENDSEC
  0
SECTION
  2
ENTITIES
  0
ARC
  5
22
330
18
100
AcDbEntity
  8
0
100
AcDbCircle
 10
4.96
 20
3.251
 30
0.0
 40
0.05
100
AcDbArc
 50
129.117
 51
180.0
  0
LINE
  5
23
330
18
100
AcDbEntity
  8
0
100
AcDbLine
 10
5.136
 20
3.452
 30
0.0
 11
4.914
 21
3.272
 31
0.0
  0
ARC
  5
24
330
18
100
AcDbEntity
  8
0
100
AcDbCircle
 10
5.117
 20
3.476
 30
0.0
 40
0.03
100
AcDbArc
 50
309.117
 51
0.0
  0
LINE
  5
25
330
18
100
AcDbEntity
  8
0
100
AcDbLine
 10
5.147
 20
3.533
 30
0.0
 11
5.147
 21
3.476
 31
0.0
  0
ARC
  5
26
330
18
100
AcDbEntity
  8
0
100
AcDbCircle
 10
5.117
 20
3.533
 30
0.0
 40
0.03
100
AcDbArc
 50
0.0
 51
82.455
  0
LINE
  5
27
330
18
100
AcDbEntity
  8
0
100
AcDbLine
 10
5.107
 20
3.564
 30
0.0
 11
5.121
 21
3.563
 31
0.0
  0
ARC
  5
28
330
18
100
AcDbEntity
  8
0
100
AcDbCircle
 10
5.111000000000001
 20
3.594
 30
0.0
 40
0.03
100
AcDbArc
 50
180.0
 51
262.455
  0
LINE
  5
29
330
18
100
AcDbEntity
  8
0
100
AcDbLine
 10
5.081
 20
3.697
 30
0.0
 11
5.081
 21
3.594
 31
0.0
  0
ARC
  5
2A
330
18
100
AcDbEntity
  8
0
100
AcDbCircle
 10
5.111000000000001
 20
3.697
 30
0.0
 40
0.03
100
AcDbArc
 50
153.8
 51
180.0
  0
LINE
  5
2B
330
18
100
AcDbEntity
  8
0
100
AcDbLine
 10
5.107
 20
3.435
 30
0.0
 11
4.928
 21
3.29
 31
0.0
  0
ARC
  5
2C
330
18
100
AcDbEntity
  8
0
100
AcDbCircle
 10
5.088
 20
3.458
 30
0.0
 40
0.03
100
AcDbArc
 50
309.117
 51
0.0
  0
LINE
  5
2D
330
18
100
AcDbEntity
  8
0
100
AcDbLine
 10
5.118
 20
3.515
 30
0.0
 11
5.118
 21
3.458
 31
0.0
  0
ARC
  5
2E
330
18
100
AcDbEntity
  8
0
100
AcDbCircle
 10
5.088
 20
3.515
 30
0.0
 40
0.03
100
AcDbArc
 50
0.0
 51
82.455
  0
LINE
  5
2F
330
18
100
AcDbEntity
  8
0
100
AcDbLine
 10
5.078
 20
3.547
 30
0.0
 11
5.092
 21
3.545
 31
0.0
  0
ARC
  5
30
330
18
100
AcDbEntity
  8
0
100
AcDbCircle
 10
5.081
 20
3.577
 30
0.0
 40
0.03
100
AcDbArc
 50
180.0
 51
262.455
  0
LINE
  5
31
330
18
100
AcDbEntity
  8
0
100
AcDbLine
 10
5.051
 20
3.679
 30
0.0
 11
5.051
 21
3.577
 31
0.0
  0
ARC
  5
32
330
18
100
AcDbEntity
  8
0
100
AcDbCircle
 10
5.081
 20
3.679
 30
0.0
 40
0.03
100
AcDbArc
 50
80.575
 51
180.0
  0
LINE
  5
33
330
18
100
AcDbEntity
  8
0
100
AcDbLine
 10
5.112
 20
3.704
 30
0.0
 11
5.086
 21
3.709
 31
0.0
  0
ARC
  5
34
330
18
100
AcDbEntity
  8
0
100
AcDbCircle
 10
5.116000000000001
 20
3.734
 30
0.0
 40
0.03
100
AcDbArc
 50
260.575
 51
0.0
  0
LINE
  5
35
330
18
100
AcDbEntity
  8
0
100
AcDbLine
 10
5.146
 20
3.874
 30
0.0
 11
5.146
 21
3.734
 31
0.0
  0
ARC
  5
36
330
18
100
AcDbEntity
  8
0
100
AcDbCircle
 10
5.116000000000001
 20
3.874
 30
0.0
 40
0.03
100
AcDbArc
 50
0.0
 51
79.52
  0
LINE
  5
37
330
18
100
AcDbEntity
  8
0
100
AcDbLine
 10
5.076000000000001
 20
3.912
 30
0.0
 11
5.122000000000001
 21
3.904
 31
0.0
  0
ARC
  5
38
330
18
100
AcDbEntity
  8
0
100
AcDbCircle
 10
5.082
 20
3.942
 30
0.0
 40
0.03
100
AcDbArc
 50
180.0
 51
259.52
  0
LINE
  5
39
330
18
100
AcDbEntity
  8
0
100
AcDbLine
 10
5.052
 20
4.036000000000001
 30
0.0
 11
5.052
 21
3.942
 31
0.0
  0
ARC
  5
3A
330
18
100
AcDbEntity
  8
0
100
AcDbCircle
 10
5.082
 20
4.036000000000001
 30
0.0
 40
0.03
100
AcDbArc
 50
99.362
 51
180.0
  0
LINE
  5
3B
330
18
100
AcDbEntity
  8
0
100
AcDbLine
 10
5.121
 20
4.073
 30
0.0
 11
5.077
 21
4.066
 31
0.0
  0
ARC
  5
3C
330
18
100
AcDbEntity
  8
0
100
AcDbCircle
 10
5.116000000000001
 20
4.103
 30
0.0
 40
0.03
100
AcDbArc
 50
279.362
 51
0.0
  0
LINE
  5
3D
330
18
100
AcDbEntity
  8
0
100
AcDbLine
 10
5.146
 20
4.624
 30
0.0
 11
5.146
 21
4.103
 31
0.0
  0
ARC
  5
3E
330
18
100
AcDbEntity
  8
0
100
AcDbCircle
 10
4.86
 20
3.226
 30
0.0
 40
0.05
100
AcDbArc
 50
315.338
 51
0.0
  0
LINE
  5
3F
330
18
100
AcDbEntity
  8
0
100
AcDbLine
 10
4.69
 20
2.983
 30
0.0
 11
4.895
 21
3.191
 31
0.0
  0
ARC
  5
40
330
18
100
AcDbEntity
  8
0
100
AcDbCircle
 10
4.662
 20
3.025
 30
0.0
 40
0.05
100
AcDbArc
 50
258.026
 51
338.581
  0
LINE
  5
41
330
18
100
AcDbEntity
  8
0
100
AcDbLine
 10
4.863
 20
4.042
 30
0.0
 11
4.863
 21
4.575
 31
0.0
  0
ARC
  5
42
330
18
100
AcDbEntity
  8
0
100
AcDbCircle
 10
4.833
 20
4.042
 30
0.0
 40
0.03
100
AcDbArc
 50
315.672
 51
0.0
  0
LINE
  5
43
330
18
100
AcDbEntity
  8
0
100
AcDbLine
 10
4.818000000000001
 20
3.983
 30
0.0
 11
4.855
 21
4.021
 31
0.0
  0
ARC
  5
44
330
18
100
AcDbEntity
  8
0
100
AcDbCircle
 10
4.839
 20
3.962
 30
0.0
 40
0.03
100
AcDbArc
 50
135.672
 51
180.0
  0
LINE
  5
45
330
18
100
AcDbEntity
  8
0
100
AcDbLine
 10
4.809
 20
3.858
 30
0.0
 11
4.809
 21
3.962
 31
0.0
  0
ARC
  5
46
330
18
100
AcDbEntity
  8
0
100
AcDbCircle
 10
4.839
 20
3.858
 30
0.0
 40
0.03
100
AcDbArc
 50
180.0
 51
239.98
  0
LINE
  5
47
330
18
100
AcDbEntity
  8
0
100
AcDbLine
 10
4.864
 20
3.809
 30
0.0
 11
4.824
 21
3.832
 31
0.0
  0
ARC
  5
48
330
18
100
AcDbEntity
  8
0
100
AcDbCircle
 10
4.849
 20
3.783
 30
0.0
 40
0.03
100
AcDbArc
 50
0.0
 51
59.98
  0
LINE
  5
49
330
18
100
AcDbEntity
  8
0
100
AcDbLine
 10
4.879
 20
3.712
 30
0.0
 11
4.879
 21
3.783
 31
0.0
  0
ARC
  5
4A
330
18
100
AcDbEntity
  8
0
100
AcDbCircle
 10
4.849
 20
3.712
 30
0.0
 40
0.03
100
AcDbArc
 50
313.599
 51
0.0
  0
LINE
  5
4B
330
18
100
AcDbEntity
  8
0
100
AcDbLine
 10
4.819
 20
3.642
 30
0.0
 11
4.869
 21
3.69
 31
0.0
  0
ARC
  5
4C
330
18
100
AcDbEntity
  8
0
100
AcDbCircle
 10
4.839
 20
3.62
 30
0.0
 40
0.03
100
AcDbArc
 50
133.599
 51
180.0
  0
LINE
  5
4D
330
18
100
AcDbEntity
  8
0
100
AcDbLine
 10
4.809
 20
3.512
 30
0.0
 11
4.809
 21
3.62
 31
0.0
  0
ARC
  5
4E
330
18
100
AcDbEntity
  8
0
100
AcDbCircle
 10
4.839
 20
3.512
 30
0.0
 40
0.03
100
AcDbArc
 50
180.0
 51
245.341
  0
LINE
  5
4F
330
18
100
AcDbEntity
  8
0
100
AcDbLine
 10
4.849
 20
3.475
 30
0.0
 11
4.827
 21
3.485
 31
0.0
  0
ARC
  5
50
330
18
100
AcDbEntity
  8
0
100
AcDbCircle
 10
4.836
 20
3.448
 30
0.0
 40
0.03
100
AcDbArc
 50
0.0
 51
65.34100000000001
  0
LINE
  5
51
330
18
100
AcDbEntity
  8
0
100
AcDbLine
 10
4.866000000000001
 20
3.413
 30
0.0
 11
4.866000000000001
 21
3.448
 31
0.0
  0
ARC
  5
52
330
18
100
AcDbEntity
  8
0
100
AcDbCircle
 10
4.836
 20
3.413
 30
0.0
 40
0.03
100
AcDbArc
 50
338.581
 51
0.0
  0
LINE
  5
53
330
18
100
AcDbEntity
  8
0
100
AcDbLine
 10
4.709
 20
3.006
 30
0.0
 11
4.864
 21
3.402
 31
0.0
  0
LINE
  5
54
330
18
100
AcDbEntity
  8
0
100
AcDbLine
 10
4.635
 20
2.979
 30
0.0
 11
4.652
 21
2.976
 31
0.0
  0
LINE
  5
55
330
18
100
AcDbEntity
  8
0
100
AcDbLine
 10
4.402
 20
4.488
 30
0.0
 11
4.402
 21
4.358000000000001
 31
0.0
  0
LINE
  5
56
330
18
100
AcDbEntity
  8
0
100
AcDbLine
 10
4.413
 20
4.343999999999999
 30
0.0
 11
4.435
 21
4.339
 31
0.0
  0
LINE
  5
57
330
18
100
AcDbEntity
  8
0
100
AcDbLine
 10
4.955
 20
4.051
 30
0.0
 11
4.955
 21
4.593999999999999
 31
0.0
  0
CIRCLE
  5
58
330
18
100
AcDbEntity
  8
0
100
AcDbCircle
 10
4.954
 20
4.011
 30
0.0
 40
0.039
  0
LINE
  5
59
330
18
100
AcDbEntity
  8
0
100
AcDbLine
 10
5.019
 20
4.343
 30
0.0
 11
5.019
 21
4.473
 31
0.0
  0
LINE
  5
5A
330
18
100
AcDbEntity
  8
0
100
AcDbLine
 10
4.992
 20
4.336
 30
0.0
 11
5.007
 21
4.333
 31
0.0
  0
LINE
  5
5B
330
18
100
AcDbEntity
  8
0
100
AcDbLine
 10
4.981
 20
4.48
 30
0.0
 11
4.981
 21
4.351
 31
0.0
  0
ARC
  5
5C
330
18
100
AcDbEntity
  8
0
100
AcDbCircle
 10
4.343
 20
4.141
 30
0.0
 40
0.03
100
AcDbArc
 50
0.0
 51
81.146
  0
ARC
  5
5D
330
18
100
AcDbEntity
  8
0
100
AcDbCircle
 10
4.336
 20
4.203
 30
0.0
 40
0.03
100
AcDbArc
 50
180.0
 51
261.146
  0
LINE
  5
5E
330
18
100
AcDbEntity
  8
0
100
AcDbLine
 10
4.332
 20
4.718
 30
0.0
 11
4.565
 21
4.697
 31
0.0
  0
LINE
  5
5F
330
18
100
AcDbEntity
  8
0
100
AcDbLine
 10
5.146
 20
4.624
 30
0.0
 11
5.176
 21
4.641
 31
0.0
  0
LINE
  5
60
330
18
100
AcDbEntity
  8
0
100
AcDbLine
 10
4.939
 20
4.643
 30
0.0
 11
5.146
 21
4.624
 31
0.0
  0
LINE
  5
61
330
18
100
AcDbEntity
  8
0
100
AcDbLine
 10
4.306
 20
4.701000000000001
 30
0.0
 11
4.332
 21
4.718
 31
0.0
  0
LINE
  5
62
330
18
100
AcDbEntity
  8
0
100
AcDbLine
 10
4.373
 20
4.141
 30
0.0
 11
4.373
 21
4.038
 31
0.0
  0
LINE
  5
63
330
18
100
AcDbEntity
  8
0
100
AcDbLine
 10
4.331
 20
4.173
 30
0.0
 11
4.348
 21
4.171
 31
0.0
  0
LINE
  5
64
330
18
100
AcDbEntity
  8
0
100
AcDbLine
 10
4.306
 20
4.701000000000001
 30
0.0
 11
4.306
 21
4.203
 31
0.0
  0
LINE
  5
65
330
18
100
AcDbEntity
  8
0
100
AcDbLine
 10
4.306
 20
4.701000000000001
 30
0.0
 11
4.513
 21
4.682
 31
0.0
  0
LINE
  5
66
330
18
100
AcDbEntity
  8
0
100
AcDbLine
 10
4.435
 20
4.613
 30
0.0
 11
4.513
 21
4.682
 31
0.0
  0
LINE
  5
67
330
18
100
AcDbEntity
  8
0
100
AcDbLine
 10
4.863
 20
4.575
 30
0.0
 11
4.939
 21
4.643
 31
0.0
  0
LINE
  5
68
330
18
100
AcDbEntity
  8
0
100
AcDbLine
 10
4.832
 20
4.577
 30
0.0
 11
4.925
 21
4.664
 31
0.0
  0
LINE
  5
69
330
18
100
AcDbEntity
  8
0
100
AcDbLine
 10
4.467
 20
4.61
 30
0.0
 11
4.565
 21
4.697
 31
0.0
  0
LINE
  5
6A
330
18
100
AcDbEntity
  8
0
100
AcDbLine
 10
4.832
 20
4.577
 30
0.0
 11
4.863
 21
4.575
 31
0.0
  0
LINE
  5
6B
330
18
100
AcDbEntity
  8
0
100
AcDbLine
 10
4.435
 20
4.046
 30
0.0
 11
4.435
 21
4.613
 31
0.0
  0
LINE
  5
6C
330
18
100
AcDbEntity
  8
0
100
AcDbLine
 10
4.435
 20
4.613
 30
0.0
 11
4.467
 21
4.61
 31
0.0
  0
LINE
  5
6D
330
18
100
AcDbEntity
  8
0
100
AcDbLine
 10
4.565
 20
4.055
 30
0.0
 11
4.565
 21
4.697
 31
0.0
  0
LINE
  5
6E
330
18
100
AcDbEntity
  8
0
100
AcDbLine
 10
4.467
 20
4.046
 30
0.0
 11
4.467
 21
4.61
 31
0.0
  0
LINE
  5
6F
330
18
100
AcDbEntity
  8
0
100
AcDbLine
 10
4.925
 20
4.664
 30
0.0
 11
5.176
 21
4.641
 31
0.0
  0
LINE
  5
70
330
18
100
AcDbEntity
  8
0
100
AcDbLine
 10
4.955
 20
3.388
 30
0.0
 11
4.955
 21
3.972
 31
0.0
  0
LINE
  5
71
330
18
100
AcDbEntity
  8
0
100
AcDbLine
 10
4.91
 20
3.251
 30
0.0
 11
4.91
 21
3.226
 31
0.0
  0
LINE
  5
72
330
18
100
AcDbEntity
  8
0
100
AcDbLine
 10
3.22
 20
2.928
 30
0.0
 11
3.22
 21
2.85
 31
0.0
  0
LINE
  5
73
330
18
100
AcDbEntity
  8
0
100
AcDbLine
 10
3.251
 20
2.933
 30
0.0
 11
3.251
 21
2.878
 31
0.0
  0
LINE
  5
74
330
18
100
AcDbEntity
  8
0
100
AcDbLine
 10
4.686
 20
5.44
 30
0.0
 11
4.752
 21
5.436
 31
0.0
  0
LINE
  5
75
330
18
100
AcDbEntity
  8
0
100
AcDbLine
 10
4.787
 20
5.435
 30
0.0
 11
4.787
 21
5.491000000000001
 31
0.0
  0
LINE
  5
76
330
18
100
AcDbEntity
  8
0
100
AcDbLine
 10
4.748
 20
5.492000000000001
 30
0.0
 11
4.787
 21
5.491000000000001
 31
0.0
  0
LINE
  5
77
330
18
100
AcDbEntity
  8
0
100
AcDbLine
 10
4.055
 20
6.523
 30
0.0
 11
4.101
 21
6.539
 31
0.0
  0
LINE
  5
78
330
18
100
AcDbEntity
  8
0
100
AcDbLine
 10
4.101
 20
6.595
 30
0.0
 11
4.055
 21
6.523
 31
0.0
  0
LINE
  5
79
330
18
100
AcDbEntity
  8
0
100
AcDbLine
 10
4.026
 20
6.677000000000001
 30
0.0
 11
4.655
 21
6.647
 31
0.0
  0
LINE
  5
7A
330
18
100
AcDbEntity
  8
0
100
AcDbLine
 10
2.145
 20
6.766
 30
0.0
 11
2.175
 21
6.778
 31
0.0
  0
LINE
  5
7B
330
18
100
AcDbEntity
  8
0
100
AcDbLine
 10
2.145
 20
6.766
 30
0.0
 11
2.145
 21
6.728
 31
0.0
  0
LINE
  5
7C
330
18
100
AcDbEntity
  8
0
100
AcDbLine
 10
2.175
 20
6.698
 30
0.0
 11
0.62
 21
8.273999999999999
 31
0.0
  0
LINE
  5
7D
330
18
100
AcDbEntity
  8
0
100
AcDbLine
 10
4.026
 20
6.375
 30
0.0
 11
4.048
 21
6.372999999999999
 31
0.0
  0
LINE
  5
7E
330
18
100
AcDbEntity
  8
0
100
AcDbLine
 10
4.101
 20
6.371
 30
0.0
 11
4.284
 21
6.362
 31
0.0
  0
LINE
  5
7F
330
18
100
AcDbEntity
  8
0
100
AcDbLine
 10
4.048
 20
6.318
 30
0.0
 11
4.048
 21
6.372999999999999
 31
0.0
  0
LINE
  5
80
330
18
100
AcDbEntity
  8
0
100
AcDbLine
 10
4.284
 20
6.334
 30
0.0
 11
4.284
 21
6.362
 31
0.0
  0
LINE
  5
81
330
18
100
AcDbEntity
  8
0
100
AcDbLine
 10
4.101
 20
6.315
 30
0.0
 11
4.101
 21
6.371
 31
0.0
  0
LINE
  5
82
330
18
100
AcDbEntity
  8
0
100
AcDbLine
 10
4.101
 20
6.315
 30
0.0
 11
4.253
 21
6.308
 31
0.0
  0
LINE
  5
83
330
18
100
AcDbEntity
  8
0
100
AcDbLine
 10
4.026
 20
6.487
 30
0.0
 11
4.048
 21
6.485
 31
0.0
  0
LINE
  5
84
330
18
100
AcDbEntity
  8
0
100
AcDbLine
 10
4.101
 20
6.483
 30
0.0
 11
4.284
 21
6.474
 31
0.0
  0
LINE
  5
85
330
18
100
AcDbEntity
  8
0
100
AcDbLine
 10
4.339
 20
6.472
 30
0.0
 11
4.441
 21
6.467000000000001
 31
0.0
  0
LINE
  5
86
330
18
100
AcDbEntity
  8
0
100
AcDbLine
 10
4.048
 20
6.43
 30
0.0
 11
4.048
 21
6.485
 31
0.0
  0
LINE
  5
87
330
18
100
AcDbEntity
  8
0
100
AcDbLine
 10
4.284
 20
6.419
 30
0.0
 11
4.284
 21
6.474
 31
0.0
  0
LINE
  5
88
330
18
100
AcDbEntity
  8
0
100
AcDbLine
 10
4.101
 20
6.427000000000001
 30
0.0
 11
4.101
 21
6.483
 31
0.0
  0
LINE
  5
89
330
18
100
AcDbEntity
  8
0
100
AcDbLine
 10
4.101
 20
6.427000000000001
 30
0.0
 11
4.249
 21
6.42
 31
0.0
  0
LINE
  5
8A
330
18
100
AcDbEntity
  8
0
100
AcDbLine
 10
4.339
 20
6.416
 30
0.0
 11
4.339
 21
6.472
 31
0.0
  0
LINE
  5
8B
330
18
100
AcDbEntity
  8
0
100
AcDbLine
 10
4.339
 20
6.416
 30
0.0
 11
4.378
 21
6.414
 31
0.0
  0
LINE
  5
8C
330
18
100
AcDbEntity
  8
0
100
AcDbLine
 10
4.026
 20
6.599
 30
0.0
 11
4.048
 21
6.597
 31
0.0
  0
LINE
  5
8D
330
18
100
AcDbEntity
  8
0
100
AcDbLine
 10
4.101
 20
6.595
 30
0.0
 11
4.284
 21
6.586
 31
0.0
  0
LINE
  5
8E
330
18
100
AcDbEntity
  8
0
100
AcDbLine
 10
4.339
 20
6.584
 30
0.0
 11
4.522
 21
6.575
 31
0.0
  0
LINE
  5
8F
330
18
100
AcDbEntity
  8
0
100
AcDbLine
 10
4.048
 20
6.542000000000001
 30
0.0
 11
4.048
 21
6.597
 31
0.0
  0
LINE
  5
90
330
18
100
AcDbEntity
  8
0
100
AcDbLine
 10
4.284
 20
6.531000000000001
 30
0.0
 11
4.284
 21
6.586
 31
0.0
  0
LINE
  5
91
330
18
100
AcDbEntity
  8
0
100
AcDbLine
 10
4.101
 20
6.539
 30
0.0
 11
4.101
 21
6.595
 31
0.0
  0
LINE
  5
92
330
18
100
AcDbEntity
  8
0
100
AcDbLine
 10
4.101
 20
6.539
 30
0.0
 11
4.249
 21
6.532
 31
0.0
  0
LINE
  5
93
330
18
100
AcDbEntity
  8
0
100
AcDbLine
 10
4.522
 20
6.536000000000001
 30
0.0
 11
4.522
 21
6.575
 31
0.0
  0
LINE
  5
94
330
18
100
AcDbEntity
  8
0
100
AcDbLine
 10
4.339
 20
6.528
 30
0.0
 11
4.339
 21
6.584
 31
0.0
  0
LINE
  5
95
330
18
100
AcDbEntity
  8
0
100
AcDbLine
 10
4.339
 20
6.528
 30
0.0
 11
4.488
 21
6.521
 31
0.0
  0
LINE
  5
96
330
18
100
AcDbEntity
  8
0
100
AcDbLine
 10
2.145
 20
6.766
 30
0.0
 11
2.175
 21
6.765
 31
0.0
  0
LINE
  5
97
330
18
100
AcDbEntity
  8
0
100
AcDbLine
 10
4.857
 20
5.587000000000001
 30
0.0
 11
4.857
 21
5.385
 31
0.0
  0
LINE
  5
98
330
18
100
AcDbEntity
  8
0
100
AcDbLine
 10
4.888
 20
5.614
 30
0.0
 11
4.888
 21
5.382999999999999
 31
0.0
  0
LINE
  5
99
330
18
100
AcDbEntity
  8
0
100
AcDbLine
 10
4.026
 20
6.691
 30
0.0
 11
4.671
 21
6.661000000000001
 31
0.0
  0
LINE
  5
9A
330
18
100
AcDbEntity
  8
0
100
AcDbLine
 10
1.417
 20
6.416
 30
0.0
 11
1.417
 21
4.4
 31
0.0
  0
LINE
  5
9B
330
18
100
AcDbEntity
  8
0
100
AcDbLine
 10
4.657
 20
3.879
 30
0.0
 11
4.54
 21
3.776
 31
0.0
  0
LINE
  5
9C
330
18
100
AcDbEntity
  8
0
100
AcDbLine
 10
4.54
 20
3.776
 30
0.0
 11
4.54
 21
3.728
 31
0.0
  0
LINE
  5
9D
330
18
100
AcDbEntity
  8
0
100
AcDbLine
 10
4.657
 20
3.879
 30
0.0
 11
4.657
 21
3.831
 31
0.0
  0
LINE
  5
9E
330
18
100
AcDbEntity
  8
0
100
AcDbLine
 10
4.657
 20
3.831
 30
0.0
 11
4.54
 21
3.728
 31
0.0
  0
LINE
  5
9F
330
18
100
AcDbEntity
  8
0
100
AcDbLine
 10
4.657
 20
3.831
 30
0.0
 11
4.618
 21
3.845
 31
0.0
  0
LINE
  5
A0
330
18
100
AcDbEntity
  8
0
100
AcDbLine
 10
4.495
 20
3.737
 30
0.0
 11
4.378
 21
3.634
 31
0.0
  0
LINE
  5
A1
330
18
100
AcDbEntity
  8
0
100
AcDbLine
 10
4.378
 20
3.634
 30
0.0
 11
4.378
 21
3.585
 31
0.0
  0
LINE
  5
A2
330
18
100
AcDbEntity
  8
0
100
AcDbLine
 10
4.495
 20
3.737
 30
0.0
 11
4.495
 21
3.688
 31
0.0
  0
LINE
  5
A3
330
18
100
AcDbEntity
  8
0
100
AcDbLine
 10
4.495
 20
3.688
 30
0.0
 11
4.378
 21
3.585
 31
0.0
  0
LINE
  5
A4
330
18
100
AcDbEntity
  8
0
100
AcDbLine
 10
4.495
 20
3.688
 30
0.0
 11
4.457
 21
3.703
 31
0.0
  0
LINE
  5
A5
330
18
100
AcDbEntity
  8
0
100
AcDbLine
 10
4.322
 20
3.584
 30
0.0
 11
4.205
 21
3.481
 31
0.0
  0
LINE
  5
A6
330
18
100
AcDbEntity
  8
0
100
AcDbLine
 10
4.205
 20
3.481
 30
0.0
 11
4.205
 21
3.433
 31
0.0
  0
LINE
  5
A7
330
18
100
AcDbEntity
  8
0
100
AcDbLine
 10
4.322
 20
3.584
 30
0.0
 11
4.322
 21
3.536
 31
0.0
  0
LINE
  5
A8
330
18
100
AcDbEntity
  8
0
100
AcDbLine
 10
4.322
 20
3.536
 30
0.0
 11
4.205
 21
3.433
 31
0.0
  0
LINE
  5
A9
330
18
100
AcDbEntity
  8
0
100
AcDbLine
 10
4.322
 20
3.536
 30
0.0
 11
4.284
 21
3.55
 31
0.0
  0
LINE
  5
AA
330
18
100
AcDbEntity
  8
0
100
AcDbLine
 10
4.142
 20
3.425
 30
0.0
 11
4.025
 21
3.322
 31
0.0
  0
LINE
  5
AB
330
18
100
AcDbEntity
  8
0
100
AcDbLine
 10
4.025
 20
3.322
 30
0.0
 11
4.025
 21
3.274
 31
0.0
  0
LINE
  5
AC
330
18
100
AcDbEntity
  8
0
100
AcDbLine
 10
4.142
 20
3.425
 30
0.0
 11
4.142
 21
3.377
 31
0.0
  0
LINE
  5
AD
330
18
100
AcDbEntity
  8
0
100
AcDbLine
 10
4.142
 20
3.377
 30
0.0
 11
4.025
 21
3.274
 31
0.0
  0
LINE
  5
AE
330
18
100
AcDbEntity
  8
0
100
AcDbLine
 10
4.142
 20
3.377
 30
0.0
 11
4.103
 21
3.392
 31
0.0
  0
LINE
  5
AF
330
18
100
AcDbEntity
  8
0
100
AcDbLine
 10
3.965
 20
3.27
 30
0.0
 11
3.848
 21
3.167
 31
0.0
  0
LINE
  5
B0
330
18
100
AcDbEntity
  8
0
100
AcDbLine
 10
3.848
 20
3.167
 30
0.0
 11
3.848
 21
3.119
 31
0.0
  0
LINE
  5
B1
330
18
100
AcDbEntity
  8
0
100
AcDbLine
 10
3.965
 20
3.27
 30
0.0
 11
3.965
 21
3.222
 31
0.0
  0
LINE
  5
B2
330
18
100
AcDbEntity
  8
0
100
AcDbLine
 10
3.965
 20
3.222
 30
0.0
 11
3.848
 21
3.119
 31
0.0
  0
LINE
  5
B3
330
18
100
AcDbEntity
  8
0
100
AcDbLine
 10
3.965
 20
3.222
 30
0.0
 11
3.927
 21
3.236
 31
0.0
  0
LINE
  5
B4
330
18
100
AcDbEntity
  8
0
100
AcDbLine
 10
3.788
 20
3.057
 30
0.0
 11
3.75
 21
3.072
 31
0.0
  0
LINE
  5
B5
330
18
100
AcDbEntity
  8
0
100
AcDbLine
 10
3.788
 20
3.057
 30
0.0
 11
3.671
 21
2.954
 31
0.0
  0
LINE
  5
B6
330
18
100
AcDbEntity
  8
0
100
AcDbLine
 10
3.788
 20
3.106
 30
0.0
 11
3.788
 21
3.057
 31
0.0
  0
LINE
  5
B7
330
18
100
AcDbEntity
  8
0
100
AcDbLine
 10
3.671
 20
3.003
 30
0.0
 11
3.671
 21
2.954
 31
0.0
  0
LINE
  5
B8
330
18
100
AcDbEntity
  8
0
100
AcDbLine
 10
3.788
 20
3.106
 30
0.0
 11
3.671
 21
3.003
 31
0.0
  0
LINE
  5
B9
330
18
100
AcDbEntity
  8
0
100
AcDbLine
 10
1.794
 20
2.695
 30
0.0
 11
3.622
 21
2.994
 31
0.0
  0
LINE
  5
BA
330
18
100
AcDbEntity
  8
0
100
AcDbLine
 10
4.565
 20
4.055
 30
0.0
 11
4.816
 21
4.025
 31
0.0
  0
LINE
  5
BB
330
18
100
AcDbEntity
  8
0
100
AcDbLine
 10
1.411
 20
3.777
 30
0.0
 11
4.565
 21
4.055
 31
0.0
  0
LINE
  5
BC
330
18
100
AcDbEntity
  8
0
100
AcDbLine
 10
1.794
 20
3.705
 30
0.0
 11
4.816
 21
4.025
 31
0.0
  0
LINE
  5
BD
330
18
100
AcDbEntity
  8
0
100
AcDbLine
 10
3.654
 20
2.108
 30
0.0
 11
3.622
 21
2.123
 31
0.0
  0
LINE
  5
BE
330
18
100
AcDbEntity
  8
0
100
AcDbLine
 10
3.654
 20
3.05
 30
0.0
 11
3.622
 21
3.064
 31
0.0
  0
LINE
  5
BF
330
18
100
AcDbEntity
  8
0
100
AcDbLine
 10
4.672
 20
3.947
 30
0.0
 11
4.635
 21
3.955
 31
0.0
  0
LINE
  5
C0
330
18
100
AcDbEntity
  8
0
100
AcDbLine
 10
4.635
 20
3.955
 30
0.0
 11
3.622
 21
3.064
 31
0.0
  0
LINE
  5
C1
330
18
100
AcDbEntity
  8
0
100
AcDbLine
 10
3.622
 20
3.064
 30
0.0
 11
3.622
 21
2.123
 31
0.0
  0
LINE
  5
C2
330
18
100
AcDbEntity
  8
0
100
AcDbLine
 10
3.654
 20
3.05
 30
0.0
 11
3.654
 21
2.108
 31
0.0
  0
LINE
  5
C3
330
18
100
AcDbEntity
  8
0
100
AcDbLine
 10
4.672
 20
3.947
 30
0.0
 11
3.654
 21
3.05
 31
0.0
  0
LINE
  5
C4
330
18
100
AcDbEntity
  8
0
100
AcDbLine
 10
4.672
 20
3.131
 30
0.0
 11
4.672
 21
3.947
 31
0.0
  0
LINE
  5
C5
330
18
100
AcDbEntity
  8
0
100
AcDbLine
 10
3.654
 20
2.108
 30
0.0
 11
4.672
 21
3.131
 31
0.0
  0
LINE
  5
C6
330
18
100
AcDbEntity
  8
0
100
AcDbLine
 10
1.793
 20
0.8170000000000001
 30
0.0
 11
1.793
 21
1.122
 31
0.0
  0
LINE
  5
C7
330
18
100
AcDbEntity
  8
0
100
AcDbLine
 10
1.397
 20
0.5520000000000001
 30
0.0
 11
1.397
 21
0.2
 31
0.0
  0
LINE
  5
C8
330
18
100
AcDbEntity
  8
0
100
AcDbLine
 10
1.397
 20
0.9059999999999999
 30
0.0
 11
1.793
 21
0.8170000000000001
 31
0.0
  0
LINE
  5
C9
330
18
100
AcDbEntity
  8
0
100
AcDbLine
 10
1.397
 20
0.5520000000000001
 30
0.0
 11
1.793
 21
0.463
 31
0.0
  0
LINE
  5
CA
330
18
100
AcDbEntity
  8
0
100
AcDbLine
 10
1.475
 20
0.662
 30
0.0
 11
1.869
 21
0.568
 31
0.0
  0
LINE
  5
CB
330
18
100
AcDbEntity
  8
0
100
AcDbLine
 10
1.343
 20
0.7859999999999999
 30
0.0
 11
1.74
 21
0.6970000000000001
 31
0.0
  0
LINE
  5
CC
330
18
100
AcDbEntity
  8
0
100
AcDbLine
 10
1.397
 20
0.9059999999999999
 30
0.0
 11
1.343
 21
0.7859999999999999
 31
0.0
  0
LINE
  5
CD
330
18
100
AcDbEntity
  8
0
100
AcDbLine
 10
1.343
 20
0.7859999999999999
 30
0.0
 11
1.476
 21
0.662
 31
0.0
  0
LINE
  5
CE
330
18
100
AcDbEntity
  8
0
100
AcDbLine
 10
1.476
 20
0.662
 30
0.0
 11
1.397
 21
0.5520000000000001
 31
0.0
  0
LINE
  5
CF
330
18
100
AcDbEntity
  8
0
100
AcDbLine
 10
1.872
 20
0.573
 30
0.0
 11
1.793
 21
0.463
 31
0.0
  0
LINE
  5
D0
330
18
100
AcDbEntity
  8
0
100
AcDbLine
 10
1.74
 20
0.6970000000000001
 30
0.0
 11
1.872
 21
0.573
 31
0.0
  0
LINE
  5
D1
330
18
100
AcDbEntity
  8
0
100
AcDbLine
 10
1.793
 20
0.8170000000000001
 30
0.0
 11
1.74
 21
0.6970000000000001
 31
0.0
  0
LINE
  5
D2
330
18
100
AcDbEntity
  8
0
100
AcDbLine
 10
1.411
 20
3.073
 30
0.0
 11
1.411
 21
2.771
 31
0.0
  0
LINE
  5
D3
330
18
100
AcDbEntity
  8
0
100
AcDbLine
 10
1.794
 20
3.362
 30
0.0
 11
1.794
 21
3.705
 31
0.0
  0
LINE
  5
D4
330
18
100
AcDbEntity
  8
0
100
AcDbLine
 10
1.411
 20
3.073
 30
0.0
 11
1.794
 21
3.006
 31
0.0
  0
LINE
  5
D5
330
18
100
AcDbEntity
  8
0
100
AcDbLine
 10
1.461
 20
3.21
 30
0.0
 11
1.838
 21
3.144
 31
0.0
  0
LINE
  5
D6
330
18
100
AcDbEntity
  8
0
100
AcDbLine
 10
1.461
 20
3.21
 30
0.0
 11
1.411
 21
3.073
 31
0.0
  0
LINE
  5
D7
330
18
100
AcDbEntity
  8
0
100
AcDbLine
 10
1.341
 20
3.296
 30
0.0
 11
1.461
 21
3.21
 31
0.0
  0
LINE
  5
D8
330
18
100
AcDbEntity
  8
0
100
AcDbLine
 10
1.411
 20
3.427
 30
0.0
 11
1.794
 21
3.362
 31
0.0
  0
LINE
  5
D9
330
18
100
AcDbEntity
  8
0
100
AcDbLine
 10
1.341
 20
3.296
 30
0.0
 11
1.411
 21
3.427
 31
0.0
  0
LINE
  5
DA
330
18
100
AcDbEntity
  8
0
100
AcDbLine
 10
1.838
 20
3.144
 30
0.0
 11
1.794
 21
3.006
 31
0.0
  0
LINE
  5
DB
330
18
100
AcDbEntity
  8
0
100
AcDbLine
 10
1.718
 20
3.229
 30
0.0
 11
1.838
 21
3.144
 31
0.0
  0
LINE
  5
DC
330
18
100
AcDbEntity
  8
0
100
AcDbLine
 10
1.718
 20
3.229
 30
0.0
 11
1.794
 21
3.362
 31
0.0
  0
LINE
  5
DD
330
18
100
AcDbEntity
  8
0
100
AcDbLine
 10
1.341
 20
3.296
 30
0.0
 11
1.718
 21
3.229
 31
0.0
  0
LINE
  5
DE
330
18
100
AcDbEntity
  8
0
100
AcDbLine
 10
1.411
 20
3.622
 30
0.0
 11
0.5529999999999999
 21
3.729
 31
0.0
  0
LINE
  5
DF
330
18
100
AcDbEntity
  8
0
100
AcDbLine
 10
1.411
 20
2.771
 30
0.0
 11
1.794
 21
2.695
 31
0.0
  0
LINE
  5
E0
330
18
100
AcDbEntity
  8
0
100
AcDbLine
 10
1.411
 20
3.777
 30
0.0
 11
1.411
 21
3.427
 31
0.0
  0
LINE
  5
E1
330
18
100
AcDbEntity
  8
0
100
AcDbLine
 10
1.794
 20
3.705
 30
0.0
 11
1.411
 21
3.777
 31
0.0
  0
LINE
  5
E2
330
18
100
AcDbEntity
  8
0
100
AcDbLine
 10
1.794
 20
2.695
 30
0.0
 11
1.794
 21
3.006
 31
0.0
  0
LINE
  5
E3
330
18
100
AcDbEntity
  8
0
100
AcDbLine
 10
1.397
 20
1.224
 30
0.0
 11
3.327
 21
2.945
 31
0.0
  0
LINE
  5
E4
330
18
100
AcDbEntity
  8
0
100
AcDbLine
 10
1.793
 20
1.122
 30
0.0
 11
3.622
 21
2.851
 31
0.0
  0
LINE
  5
E5
330
18
100
AcDbEntity
  8
0
100
AcDbLine
 10
1.793
 20
0.104
 30
0.0
 11
4.677
 21
3.022
 31
0.0
  0
LINE
  5
E6
330
18
100
AcDbEntity
  8
0
100
AcDbLine
 10
1.397
 20
0.2
 30
0.0
 11
1.793
 21
0.104
 31
0.0
  0
LINE
  5
E7
330
18
100
AcDbEntity
  8
0
100
AcDbLine
 10
1.397
 20
1.224
 30
0.0
 11
1.397
 21
0.9059999999999999
 31
0.0
  0
LINE
  5
E8
330
18
100
AcDbEntity
  8
0
100
AcDbLine
 10
1.793
 20
1.122
 30
0.0
 11
1.397
 21
1.224
 31
0.0
  0
LINE
  5
E9
330
18
100
AcDbEntity
  8
0
100
AcDbLine
 10
1.793
 20
0.104
 30
0.0
 11
1.793
 21
0.463
 31
0.0
  0
LINE
  5
EA
330
18
100
AcDbEntity
  8
0
100
AcDbLine
 10
4.026
 20
6.307
 30
0.0
 11
4.026
 21
8.273999999999999
 31
0.0
  0
LINE
  5
EB
330
18
100
AcDbEntity
  8
0
100
AcDbLine
 10
3.752
 20
6.32
 30
0.0
 11
3.752
 21
8.273999999999999
 31
0.0
  0
LINE
  5
EC
330
18
100
AcDbEntity
  8
0
100
AcDbLine
 10
4.161000000000001
 20
4.966
 30
0.0
 11
6.127999999999999
 21
4.79
 31
0.0
  0
LINE
  5
ED
330
18
100
AcDbEntity
  8
0
100
AcDbLine
 10
4.314
 20
5.193
 30
0.0
 11
6.127999999999999
 21
5.039
 31
0.0
  0
LINE
  5
EE
330
18
100
AcDbEntity
  8
0
100
AcDbLine
 10
4.642
 20
5.402
 30
0.0
 11
6.127999999999999
 21
5.287000000000001
 31
0.0
  0
LINE
  5
EF
330
18
100
AcDbEntity
  8
0
100
AcDbLine
 10
2.175
 20
6.395
 30
0.0
 11
2.175
 21
8.273999999999999
 31
0.0
  0
LINE
  5
F0
330
18
100
AcDbEntity
  8
0
100
AcDbLine
 10
2.027
 20
6.402
 30
0.0
 11
0.5529999999999999
 21
7.941
 31
0.0
  0
LINE
  5
F1
330
18
100
AcDbEntity
  8
0
100
AcDbLine
 10
1.511
 20
6.426
 30
0.0
 11
0.5529999999999999
 21
7.457999999999999
 31
0.0
  0
LINE
  5
F2
330
18
100
AcDbEntity
  8
0
100
AcDbLine
 10
1.417
 20
5.44
 30
0.0
 11
0.5529999999999999
 21
6.352
 31
0.0
  0
LINE
  5
F3
330
18
100
AcDbEntity
  8
0
100
AcDbLine
 10
4.161000000000001
 20
6.23
 30
0.0
 11
6.127999999999999
 21
7.891
 31
0.0
  0
LINE
  5
F4
330
18
100
AcDbEntity
  8
0
100
AcDbLine
 10
4.314
 20
5.193
 30
0.0
 11
6.127999999999999
 21
6.761
 31
0.0
  0
LINE
  5
F5
330
18
100
AcDbEntity
  8
0
100
AcDbLine
 10
4.642
 20
5.402
 30
0.0
 11
6.127999999999999
 21
6.684
 31
0.0
  0
LINE
  5
F6
330
18
100
AcDbEntity
  8
0
100
AcDbLine
 10
4.161000000000001
 20
5.097
 30
0.0
 11
4.642
 21
5.402
 31
0.0
  0
LINE
  5
F7
330
18
100
AcDbEntity
  8
0
100
AcDbLine
 10
4.161000000000001
 20
5.149
 30
0.0
 11
6.127999999999999
 21
6.822
 31
0.0
  0
LINE
  5
F8
330
18
100
AcDbEntity
  8
0
100
AcDbLine
 10
0.5529999999999999
 20
5.717000000000001
 30
0.0
 11
1.202
 21
5.667000000000001
 31
0.0
  0
LINE
  5
F9
330
18
100
AcDbEntity
  8
0
100
AcDbLine
 10
0.5529999999999999
 20
5.513
 30
0.0
 11
1.417
 21
5.44
 31
0.0
  0
LINE
  5
FA
330
18
100
AcDbEntity
  8
0
100
AcDbLine
 10
0.5529999999999999
 20
5.287999999999999
 30
0.0
 11
1.417
 21
5.211
 31
0.0
  0
LINE
  5
FB
330
18
100
AcDbEntity
  8
0
100
AcDbLine
 10
4.129
 20
4.185
 30
0.0
 11
4.161000000000001
 21
4.197
 31
0.0
  0
LINE
  5
FC
330
18
100
AcDbEntity
  8
0
100
AcDbLine
 10
1.417
 20
6.416
 30
0.0
 11
1.448
 21
6.428999999999999
 31
0.0
  0
LINE
  5
FD
330
18
100
AcDbEntity
  8
0
100
AcDbLine
 10
4.129
 20
6.287999999999999
 30
0.0
 11
4.161000000000001
 21
6.301
 31
0.0
  0
LINE
  5
FE
330
18
100
AcDbEntity
  8
0
100
AcDbLine
 10
1.448
 20
6.428999999999999
 30
0.0
 11
4.161000000000001
 21
6.301
 31
0.0
  0
LINE
  5
FF
330
18
100
AcDbEntity
  8
0
100
AcDbLine
 10
4.161000000000001
 20
6.301
 30
0.0
 11
4.161000000000001
 21
4.197
 31
0.0
  0
LINE
  5
100
330
18
100
AcDbEntity
  8
0
100
AcDbLine
 10
4.129
 20
4.185
 30
0.0
 11
1.417
 21
4.4
 31
0.0
  0
LINE
  5
101
330
18
100
AcDbEntity
  8
0
100
AcDbLine
 10
4.129
 20
6.287999999999999
 30
0.0
 11
4.129
 21
4.185
 31
0.0
  0
LINE
  5
102
330
18
100
AcDbEntity
  8
0
100
AcDbLine
 10
1.417
 20
6.416
 30
0.0
 11
4.129
 21
6.287999999999999
 31
0.0
  0
LINE
  5
103
330
18
100
AcDbEntity
  8
0
100
AcDbLine
 10
0.5529999999999999
 20
3.729
 30
0.0
 11
0.5529999999999999
 21
8.273999999999999
 31
0.0
  0
LINE
  5
104
330
18
100
AcDbEntity
  8
0
100
AcDbLine
 10
6.127999999999999
 20
3.031
 30
0.0
 11
4.891
 21
3.186
 31
0.0
  0
LINE
  5
105
330
18
100
AcDbEntity
  8
0
100
AcDbLine
 10
6.127999999999999
 20
8.273999999999999
 30
0.0
 11
6.127999999999999
 21
3.031
 31
0.0
  0
LINE
  5
106
330
18
100
AcDbEntity
  8
0
100
AcDbLine
 10
0.5529999999999999
 20
8.273999999999999
 30
0.0
 11
6.127999999999999
 21
8.273999999999999
 31
0.0
  0
LINE
  5
107
330
18
100
AcDbEntity
  8
0
100
AcDbLine
 10
3.455
 20
6.334
 30
0.0
 11
3.455
 21
8.273999999999999
 31
0.0
  0
LINE
  5
108
330
18
100
AcDbEntity
  8
0
100
AcDbLine
 10
4.91
 20
3.223
 30
0.0
 11
4.945
 21
3.262
 31
0.0
  0
LINE
  5
109
330
18
100
AcDbEntity
  8
0
100
AcDbLine
 10
4.945
 20
3.262
 30
0.0
 11
4.945
 21
3.297
 31
0.0
  0
ARC
  5
10A
330
18
100
AcDbEntity
  8
0
100
AcDbCircle
 10
5.009
 20
4.343
 30
0.0
 40
0.01
100
AcDbArc
 50
257.095
 51
0.0
  0
ARC
  5
10B
330
18
100
AcDbEntity
  8
0
100
AcDbCircle
 10
4.996
 20
4.351
 30
0.0
 40
0.015
100
AcDbArc
 50
180.0
 51
257.095
  0
ARC
  5
10C
330
18
100
AcDbEntity
  8
0
100
AcDbCircle
 10
4.417
 20
4.358000000000001
 30
0.0
 40
0.015
100
AcDbArc
 50
180.0
 51
257.095
  0
LINE
  5
10D
330
18
100
AcDbEntity
  8
0
100
AcDbLine
 10
4.284
 20
6.586
 30
0.0
 11
4.238
 21
6.513999999999999
 31
0.0
  0
LINE
  5
10E
330
18
100
AcDbEntity
  8
0
100
AcDbLine
 10
4.238
 20
6.513999999999999
 30
0.0
 11
4.284
 21
6.531000000000001
 31
0.0
  0
LINE
  5
10F
330
18
100
AcDbEntity
  8
0
100
AcDbLine
 10
4.339
 20
6.584
 30
0.0
 11
4.294
 21
6.512000000000001
 31
0.0
  0
LINE
  5
110
330
18
100
AcDbEntity
  8
0
100
AcDbLine
 10
4.294
 20
6.512000000000001
 30
0.0
 11
4.339
 21
6.528
 31
0.0
  0
LINE
  5
111
330
18
100
AcDbEntity
  8
0
100
AcDbLine
 10
4.522
 20
6.575
 30
0.0
 11
4.477
 21
6.502999999999999
 31
0.0
  0
LINE
  5
112
330
18
100
AcDbEntity
  8
0
100
AcDbLine
 10
4.477
 20
6.502999999999999
 30
0.0
 11
4.489
 21
6.507000000000001
 31
0.0
  0
LINE
  5
113
330
18
100
AcDbEntity
  8
0
100
AcDbLine
 10
4.339
 20
6.472
 30
0.0
 11
4.294
 21
6.4
 31
0.0
  0
LINE
  5
114
330
18
100
AcDbEntity
  8
0
100
AcDbLine
 10
4.294
 20
6.4
 30
0.0
 11
4.339
 21
6.416
 31
0.0
  0
LINE
  5
115
330
18
100
AcDbEntity
  8
0
100
AcDbLine
 10
4.284
 20
6.474
 30
0.0
 11
4.238
 21
6.402
 31
0.0
  0
LINE
  5
116
330
18
100
AcDbEntity
  8
0
100
AcDbLine
 10
4.238
 20
6.402
 30
0.0
 11
4.284
 21
6.419
 31
0.0
  0
LINE
  5
117
330
18
100
AcDbEntity
  8
0
100
AcDbLine
 10
4.101
 20
6.483
 30
0.0
 11
4.055
 21
6.411000000000001
 31
0.0
  0
LINE
  5
118
330
18
100
AcDbEntity
  8
0
100
AcDbLine
 10
4.055
 20
6.411000000000001
 30
0.0
 11
4.101
 21
6.427000000000001
 31
0.0
  0
LINE
  5
119
330
18
100
AcDbEntity
  8
0
100
AcDbLine
 10
4.101
 20
6.371
 30
0.0
 11
4.059
 21
6.306
 31
0.0
  0
LINE
  5
11A
330
18
100
AcDbEntity
  8
0
100
AcDbLine
 10
4.072
 20
6.305
 30
0.0
 11
4.101
 21
6.315
 31
0.0
  0
LINE
  5
11B
330
18
100
AcDbEntity
  8
0
100
AcDbLine
 10
4.284
 20
6.362
 30
0.0
 11
4.245
 21
6.302000000000001
 31
0.0
  0
LINE
  5
11C
330
18
100
AcDbEntity
  8
0
100
AcDbLine
 10
4.048
 20
6.597
 30
0.0
 11
4.026
 21
6.562
 31
0.0
  0
LINE
  5
11D
330
18
100
AcDbEntity
  8
0
100
AcDbLine
 10
4.026
 20
6.534
 30
0.0
 11
4.048
 21
6.542000000000001
 31
0.0
  0
LINE
  5
11E
330
18
100
AcDbEntity
  8
0
100
AcDbLine
 10
4.048
 20
6.485
 30
0.0
 11
4.026
 21
6.45
 31
0.0
  0
LINE
  5
11F
330
18
100
AcDbEntity
  8
0
100
AcDbLine
 10
4.026
 20
6.422000000000001
 30
0.0
 11
4.048
 21
6.43
 31
0.0
  0
LINE
  5
120
330
18
100
AcDbEntity
  8
0
100
AcDbLine
 10
4.048
 20
6.372999999999999
 30
0.0
 11
4.026
 21
6.337999999999999
 31
0.0
  0
LINE
  5
121
330
18
100
AcDbEntity
  8
0
100
AcDbLine
 10
4.026
 20
6.31
 30
0.0
 11
4.048
 21
6.318
 31
0.0
  0
LINE
  5
122
330
18
100
AcDbEntity
  8
0
100
AcDbLine
 10
4.787
 20
5.491000000000001
 30
0.0
 11
4.741000000000001
 21
5.417999999999999
 31
0.0
  0
LINE
  5
123
330
18
100
AcDbEntity
  8
0
100
AcDbLine
 10
4.741000000000001
 20
5.417999999999999
 30
0.0
 11
4.787
 21
5.435
 31
0.0
  0
ARC
  5
124
330
18
100
AcDbEntity
  8
0
100
AcDbCircle
 10
4.876
 20
3.87
 30
0.0
 40
0.043
100
AcDbArc
 50
342.894
 51
2.573
  0
ARC
  5
125
330
18
100
AcDbEntity
  8
0
100
AcDbCircle
 10
4.882
 20
3.868
 30
0.0
 40
0.037
100
AcDbArc
 50
321.765
 51
342.894
  0
ARC
  5
126
330
18
100
AcDbEntity
  8
0
100
AcDbCircle
 10
4.885
 20
3.866
 30
0.0
 40
0.033
100
AcDbArc
 50
298.201
 51
321.765
  0
ARC
  5
127
330
18
100
AcDbEntity
  8
0
100
AcDbCircle
 10
4.887
 20
3.861
 30
0.0
 40
0.028
100
AcDbArc
 50
272.573
 51
298.201
  0
ARC
  5
128
330
18
100
AcDbEntity
  8
0
100
AcDbCircle
 10
4.887
 20
3.861
 30
0.0
 40
0.028
100
AcDbArc
 50
246.944
 51
272.573
  0
ARC
  5
129
330
18
100
AcDbEntity
  8
0
100
AcDbCircle
 10
4.888999999999999
 20
3.866
 30
0.0
 40
0.033
100
AcDbArc
 50
223.381
 51
246.944
  0
ARC
  5
12A
330
18
100
AcDbEntity
  8
0
100
AcDbCircle
 10
4.893
 20
3.869
 30
0.0
 40
0.037
100
AcDbArc
 50
202.252
 51
223.381
  0
ARC
  5
12B
330
18
100
AcDbEntity
  8
0
100
AcDbCircle
 10
4.898
 20
3.871
 30
0.0
 40
0.043
100
AcDbArc
 50
182.573
 51
202.252
  0
ARC
  5
12C
330
18
100
AcDbEntity
  8
0
100
AcDbCircle
 10
4.898
 20
3.871
 30
0.0
 40
0.043
100
AcDbArc
 50
162.894
 51
182.573
  0
ARC
  5
12D
330
18
100
AcDbEntity
  8
0
100
AcDbCircle
 10
4.892
 20
3.873
 30
0.0
 40
0.037
100
AcDbArc
 50
141.765
 51
162.894
  0
ARC
  5
12E
330
18
100
AcDbEntity
  8
0
100
AcDbCircle
 10
4.888999999999999
 20
3.875
 30
0.0
 40
0.033
100
AcDbArc
 50
118.201
 51
141.765
  0
ARC
  5
12F
330
18
100
AcDbEntity
  8
0
100
AcDbCircle
 10
4.887
 20
3.88
 30
0.0
 40
0.028
100
AcDbArc
 50
92.57299999999998
 51
118.201
  0
ARC
  5
130
330
18
100
AcDbEntity
  8
0
100
AcDbCircle
 10
4.887
 20
3.88
 30
0.0
 40
0.028
100
AcDbArc
 50
66.944
 51
92.57299999999998
  0
ARC
  5
131
330
18
100
AcDbEntity
  8
0
100
AcDbCircle
 10
4.885
 20
3.875
 30
0.0
 40
0.033
100
AcDbArc
 50
43.381
 51
66.944
  0
ARC
  5
132
330
18
100
AcDbEntity
  8
0
100
AcDbCircle
 10
4.881
 20
3.872
 30
0.0
 40
0.037
100
AcDbArc
 50
22.252
 51
43.381
  0
ARC
  5
133
330
18
100
AcDbEntity
  8
0
100
AcDbCircle
 10
4.876
 20
3.87
 30
0.0
 40
0.043
100
AcDbArc
 50
2.573
 51
22.252
  0
ARC
  5
134
330
18
100
AcDbEntity
  8
0
100
AcDbCircle
 10
4.873
 20
3.865
 30
0.0
 40
0.028
100
AcDbArc
 50
246.944
 51
270.792
  0
ARC
  5
135
330
18
100
AcDbEntity
  8
0
100
AcDbCircle
 10
4.875
 20
3.869
 30
0.0
 40
0.033
100
AcDbArc
 50
223.381
 51
246.944
  0
ARC
  5
136
330
18
100
AcDbEntity
  8
0
100
AcDbCircle
 10
4.879
 20
3.872
 30
0.0
 40
0.037
100
AcDbArc
 50
202.252
 51
223.381
  0
ARC
  5
137
330
18
100
AcDbEntity
  8
0
100
AcDbCircle
 10
4.884
 20
3.874
 30
0.0
 40
0.043
100
AcDbArc
 50
182.573
 51
202.252
  0
ARC
  5
138
330
18
100
AcDbEntity
  8
0
100
AcDbCircle
 10
4.884
 20
3.874
 30
0.0
 40
0.043
100
AcDbArc
 50
162.894
 51
182.573
  0
ARC
  5
139
330
18
100
AcDbEntity
  8
0
100
AcDbCircle
 10
4.879
 20
3.876
 30
0.0
 40
0.037
100
AcDbArc
 50
141.765
 51
162.894
  0
ARC
  5
13A
330
18
100
AcDbEntity
  8
0
100
AcDbCircle
 10
4.875
 20
3.879
 30
0.0
 40
0.033
100
AcDbArc
 50
118.201
 51
141.765
  0
ARC
  5
13B
330
18
100
AcDbEntity
  8
0
100
AcDbCircle
 10
4.873
 20
3.883
 30
0.0
 40
0.028
100
AcDbArc
 50
92.57299999999998
 51
118.201
  0
ARC
  5
13C
330
18
100
AcDbEntity
  8
0
100
AcDbCircle
 10
4.873
 20
3.883
 30
0.0
 40
0.028
100
AcDbArc
 50
66.944
 51
92.57299999999998
  0
ARC
  5
13D
330
18
100
AcDbEntity
  8
0
100
AcDbCircle
 10
4.871
 20
3.879
 30
0.0
 40
0.033
100
AcDbArc
 50
61.77199999999999
 51
66.944
  0
ARC
  5
13E
330
18
100
AcDbEntity
  8
0
100
AcDbCircle
 10
4.877
 20
3.528
 30
0.0
 40
0.028
100
AcDbArc
 50
246.944
 51
270.792
  0
ARC
  5
13F
330
18
100
AcDbEntity
  8
0
100
AcDbCircle
 10
4.879
 20
3.533
 30
0.0
 40
0.033
100
AcDbArc
 50
223.381
 51
246.944
  0
ARC
  5
140
330
18
100
AcDbEntity
  8
0
100
AcDbCircle
 10
4.882
 20
3.536
 30
0.0
 40
0.037
100
AcDbArc
 50
202.252
 51
223.381
  0
ARC
  5
141
330
18
100
AcDbEntity
  8
0
100
AcDbCircle
 10
4.887
 20
3.538
 30
0.0
 40
0.043
100
AcDbArc
 50
182.573
 51
202.252
  0
ARC
  5
142
330
18
100
AcDbEntity
  8
0
100
AcDbCircle
 10
4.887
 20
3.538
 30
0.0
 40
0.043
100
AcDbArc
 50
162.894
 51
182.573
  0
ARC
  5
143
330
18
100
AcDbEntity
  8
0
100
AcDbCircle
 10
4.882
 20
3.539
 30
0.0
 40
0.037
100
AcDbArc
 50
141.765
 51
162.894
  0
ARC
  5
144
330
18
100
AcDbEntity
  8
0
100
AcDbCircle
 10
4.878
 20
3.542
 30
0.0
 40
0.033
100
AcDbArc
 50
118.201
 51
141.765
  0
ARC
  5
145
330
18
100
AcDbEntity
  8
0
100
AcDbCircle
 10
4.876
 20
3.547
 30
0.0
 40
0.028
100
AcDbArc
 50
92.57299999999998
 51
118.201
  0
ARC
  5
146
330
18
100
AcDbEntity
  8
0
100
AcDbCircle
 10
4.876
 20
3.547
 30
0.0
 40
0.028
100
AcDbArc
 50
66.944
 51
92.57299999999998
  0
ARC
  5
147
330
18
100
AcDbEntity
  8
0
100
AcDbCircle
 10
4.874
 20
3.542
 30
0.0
 40
0.033
100
AcDbArc
 50
61.77199999999999
 51
66.944
  0
ARC
  5
148
330
18
100
AcDbEntity
  8
0
100
AcDbCircle
 10
4.879
 20
3.533
 30
0.0
 40
0.043
100
AcDbArc
 50
342.894
 51
2.573
  0
ARC
  5
149
330
18
100
AcDbEntity
  8
0
100
AcDbCircle
 10
4.885
 20
3.532
 30
0.0
 40
0.037
100
AcDbArc
 50
321.765
 51
342.894
  0
ARC
  5
14A
330
18
100
AcDbEntity
  8
0
100
AcDbCircle
 10
4.888
 20
3.529
 30
0.0
 40
0.033
100
AcDbArc
 50
298.201
 51
321.765
  0
ARC
  5
14B
330
18
100
AcDbEntity
  8
0
100
AcDbCircle
 10
4.891
 20
3.525
 30
0.0
 40
0.028
100
AcDbArc
 50
272.573
 51
298.201
  0
ARC
  5
14C
330
18
100
AcDbEntity
  8
0
100
AcDbCircle
 10
4.891
 20
3.525
 30
0.0
 40
0.028
100
AcDbArc
 50
246.944
 51
272.573
  0
ARC
  5
14D
330
18
100
AcDbEntity
  8
0
100
AcDbCircle
 10
4.893
 20
3.529
 30
0.0
 40
0.033
100
AcDbArc
 50
223.381
 51
246.944
  0
ARC
  5
14E
330
18
100
AcDbEntity
  8
0
100
AcDbCircle
 10
4.896
 20
3.532
 30
0.0
 40
0.037
100
AcDbArc
 50
202.252
 51
223.381
  0
ARC
  5
14F
330
18
100
AcDbEntity
  8
0
100
AcDbCircle
 10
4.901
 20
3.534
 30
0.0
 40
0.043
100
AcDbArc
 50
182.573
 51
202.252
  0
ARC
  5
150
330
18
100
AcDbEntity
  8
0
100
AcDbCircle
 10
4.901
 20
3.534
 30
0.0
 40
0.043
100
AcDbArc
 50
162.894
 51
182.573
  0
ARC
  5
151
330
18
100
AcDbEntity
  8
0
100
AcDbCircle
 10
4.896
 20
3.536
 30
0.0
 40
0.037
100
AcDbArc
 50
141.765
 51
162.894
  0
ARC
  5
152
330
18
100
AcDbEntity
  8
0
100
AcDbCircle
 10
4.892
 20
3.539
 30
0.0
 40
0.033
100
AcDbArc
 50
118.201
 51
141.765
  0
ARC
  5
153
330
18
100
AcDbEntity
  8
0
100
AcDbCircle
 10
4.89
 20
3.543
 30
0.0
 40
0.028
100
AcDbArc
 50
92.57299999999998
 51
118.201
  0
ARC
  5
154
330
18
100
AcDbEntity
  8
0
100
AcDbCircle
 10
4.89
 20
3.543
 30
0.0
 40
0.028
100
AcDbArc
 50
66.944
 51
92.57299999999998
  0
ARC
  5
155
330
18
100
AcDbEntity
  8
0
100
AcDbCircle
 10
4.888
 20
3.539
 30
0.0
 40
0.033
100
AcDbArc
 50
43.381
 51
66.944
  0
ARC
  5
156
330
18
100
AcDbEntity
  8
0
100
AcDbCircle
 10
4.885
 20
3.535
 30
0.0
 40
0.037
100
AcDbArc
 50
22.252
 51
43.381
  0
ARC
  5
157
330
18
100
AcDbEntity
  8
0
100
AcDbCircle
 10
4.879
 20
3.533
 30
0.0
 40
0.043
100
AcDbArc
 50
2.573
 51
22.252
  0
ARC
  5
158
330
18
100
AcDbEntity
  8
0
100
AcDbCircle
 10
4.378
 20
4.239
 30
0.0
 40
0.043
100
AcDbArc
 50
176.041
 51
195.721
  0
ARC
  5
159
330
18
100
AcDbEntity
  8
0
100
AcDbCircle
 10
4.372
 20
4.238
 30
0.0
 40
0.037
100
AcDbArc
 50
195.721
 51
216.85
  0
ARC
  5
15A
330
18
100
AcDbEntity
  8
0
100
AcDbCircle
 10
4.369
 20
4.235
 30
0.0
 40
0.033
100
AcDbArc
 50
216.85
 51
240.413
  0
ARC
  5
15B
330
18
100
AcDbEntity
  8
0
100
AcDbCircle
 10
4.366000000000001
 20
4.231
 30
0.0
 40
0.028
100
AcDbArc
 50
240.413
 51
266.041
  0
ARC
  5
15C
330
18
100
AcDbEntity
  8
0
100
AcDbCircle
 10
4.366000000000001
 20
4.231
 30
0.0
 40
0.028
100
AcDbArc
 50
266.041
 51
291.67
  0
ARC
  5
15D
330
18
100
AcDbEntity
  8
0
100
AcDbCircle
 10
4.365
 20
4.235
 30
0.0
 40
0.033
100
AcDbArc
 50
291.67
 51
315.233
  0
ARC
  5
15E
330
18
100
AcDbEntity
  8
0
100
AcDbCircle
 10
4.361000000000001
 20
4.238
 30
0.0
 40
0.037
100
AcDbArc
 50
315.233
 51
336.362
  0
ARC
  5
15F
330
18
100
AcDbEntity
  8
0
100
AcDbCircle
 10
4.356
 20
4.241000000000001
 30
0.0
 40
0.043
100
AcDbArc
 50
336.362
 51
356.041
  0
ARC
  5
160
330
18
100
AcDbEntity
  8
0
100
AcDbCircle
 10
4.356
 20
4.241000000000001
 30
0.0
 40
0.043
100
AcDbArc
 50
356.041
 51
15.721
  0
ARC
  5
161
330
18
100
AcDbEntity
  8
0
100
AcDbCircle
 10
4.362
 20
4.242
 30
0.0
 40
0.037
100
AcDbArc
 50
15.721
 51
36.85
  0
ARC
  5
162
330
18
100
AcDbEntity
  8
0
100
AcDbCircle
 10
4.365
 20
4.245
 30
0.0
 40
0.033
100
AcDbArc
 50
36.85
 51
60.413
  0
ARC
  5
163
330
18
100
AcDbEntity
  8
0
100
AcDbCircle
 10
4.368
 20
4.249
 30
0.0
 40
0.028
100
AcDbArc
 50
60.413
 51
86.041
  0
ARC
  5
164
330
18
100
AcDbEntity
  8
0
100
AcDbCircle
 10
4.368
 20
4.249
 30
0.0
 40
0.028
100
AcDbArc
 50
86.041
 51
111.67
  0
ARC
  5
165
330
18
100
AcDbEntity
  8
0
100
AcDbCircle
 10
4.37
 20
4.245
 30
0.0
 40
0.033
100
AcDbArc
 50
111.67
 51
135.233
  0
ARC
  5
166
330
18
100
AcDbEntity
  8
0
100
AcDbCircle
 10
4.373
 20
4.241000000000001
 30
0.0
 40
0.037
100
AcDbArc
 50
135.233
 51
156.362
  0
ARC
  5
167
330
18
100
AcDbEntity
  8
0
100
AcDbCircle
 10
4.378
 20
4.239
 30
0.0
 40
0.043
100
AcDbArc
 50
156.362
 51
176.041
  0
ARC
  5
168
330
18
100
AcDbEntity
  8
0
100
AcDbCircle
 10
4.379
 20
4.234
 30
0.0
 40
0.028
100
AcDbArc
 50
272.872
 51
291.67
  0
ARC
  5
169
330
18
100
AcDbEntity
  8
0
100
AcDbCircle
 10
4.377
 20
4.239
 30
0.0
 40
0.033
100
AcDbArc
 50
291.67
 51
315.233
  0
ARC
  5
16A
330
18
100
AcDbEntity
  8
0
100
AcDbCircle
 10
4.374
 20
4.242
 30
0.0
 40
0.037
100
AcDbArc
 50
315.233
 51
336.362
  0
ARC
  5
16B
330
18
100
AcDbEntity
  8
0
100
AcDbCircle
 10
4.368
 20
4.244
 30
0.0
 40
0.043
100
AcDbArc
 50
336.362
 51
356.041
  0
ARC
  5
16C
330
18
100
AcDbEntity
  8
0
100
AcDbCircle
 10
4.368
 20
4.244
 30
0.0
 40
0.043
100
AcDbArc
 50
356.041
 51
15.721
  0
ARC
  5
16D
330
18
100
AcDbEntity
  8
0
100
AcDbCircle
 10
4.374
 20
4.246
 30
0.0
 40
0.037
100
AcDbArc
 50
15.721
 51
36.85
  0
ARC
  5
16E
330
18
100
AcDbEntity
  8
0
100
AcDbCircle
 10
4.377
 20
4.248
 30
0.0
 40
0.033
100
AcDbArc
 50
36.85
 51
60.413
  0
ARC
  5
16F
330
18
100
AcDbEntity
  8
0
100
AcDbCircle
 10
4.38
 20
4.253
 30
0.0
 40
0.028
100
AcDbArc
 50
60.413
 51
86.041
  0
ARC
  5
170
330
18
100
AcDbEntity
  8
0
100
AcDbCircle
 10
4.38
 20
4.253
 30
0.0
 40
0.028
100
AcDbArc
 50
86.041
 51
111.67
  0
ARC
  5
171
330
18
100
AcDbEntity
  8
0
100
AcDbCircle
 10
4.382
 20
4.248
 30
0.0
 40
0.033
100
AcDbArc
 50
111.67
 51
118.087
  0
ARC
  5
172
330
18
100
AcDbEntity
  8
0
100
AcDbCircle
 10
4.385
 20
4.597
 30
0.0
 40
0.043
100
AcDbArc
 50
176.041
 51
195.721
  0
ARC
  5
173
330
18
100
AcDbEntity
  8
0
100
AcDbCircle
 10
4.38
 20
4.595
 30
0.0
 40
0.037
100
AcDbArc
 50
195.721
 51
216.85
  0
ARC
  5
174
330
18
100
AcDbEntity
  8
0
100
AcDbCircle
 10
4.376
 20
4.592
 30
0.0
 40
0.033
100
AcDbArc
 50
216.85
 51
240.413
  0
ARC
  5
175
330
18
100
AcDbEntity
  8
0
100
AcDbCircle
 10
4.374
 20
4.588
 30
0.0
 40
0.028
100
AcDbArc
 50
240.413
 51
266.041
  0
ARC
  5
176
330
18
100
AcDbEntity
  8
0
100
AcDbCircle
 10
4.374
 20
4.588
 30
0.0
 40
0.028
100
AcDbArc
 50
266.041
 51
291.67
  0
ARC
  5
177
330
18
100
AcDbEntity
  8
0
100
AcDbCircle
 10
4.372
 20
4.593
 30
0.0
 40
0.033
100
AcDbArc
 50
291.67
 51
315.233
  0
ARC
  5
178
330
18
100
AcDbEntity
  8
0
100
AcDbCircle
 10
4.369
 20
4.596
 30
0.0
 40
0.037
100
AcDbArc
 50
315.233
 51
336.362
  0
ARC
  5
179
330
18
100
AcDbEntity
  8
0
100
AcDbCircle
 10
4.364
 20
4.598
 30
0.0
 40
0.043
100
AcDbArc
 50
336.362
 51
356.041
  0
ARC
  5
17A
330
18
100
AcDbEntity
  8
0
100
AcDbCircle
 10
4.364
 20
4.598
 30
0.0
 40
0.043
100
AcDbArc
 50
356.041
 51
15.721
  0
ARC
  5
17B
330
18
100
AcDbEntity
  8
0
100
AcDbCircle
 10
4.369
 20
4.6
 30
0.0
 40
0.037
100
AcDbArc
 50
15.721
 51
36.85
  0
ARC
  5
17C
330
18
100
AcDbEntity
  8
0
100
AcDbCircle
 10
4.373
 20
4.602
 30
0.0
 40
0.033
100
AcDbArc
 50
36.85
 51
60.413
  0
ARC
  5
17D
330
18
100
AcDbEntity
  8
0
100
AcDbCircle
 10
4.375
 20
4.607
 30
0.0
 40
0.028
100
AcDbArc
 50
60.413
 51
86.041
  0
ARC
  5
17E
330
18
100
AcDbEntity
  8
0
100
AcDbCircle
 10
4.375
 20
4.607
 30
0.0
 40
0.028
100
AcDbArc
 50
86.041
 51
111.67
  0
ARC
  5
17F
330
18
100
AcDbEntity
  8
0
100
AcDbCircle
 10
4.377
 20
4.602
 30
0.0
 40
0.033
100
AcDbArc
 50
111.67
 51
135.233
  0
ARC
  5
180
330
18
100
AcDbEntity
  8
0
100
AcDbCircle
 10
4.38
 20
4.599
 30
0.0
 40
0.037
100
AcDbArc
 50
135.233
 51
156.362
  0
ARC
  5
181
330
18
100
AcDbEntity
  8
0
100
AcDbCircle
 10
4.385
 20
4.597
 30
0.0
 40
0.043
100
AcDbArc
 50
156.362
 51
176.041
  0
ARC
  5
182
330
18
100
AcDbEntity
  8
0
100
AcDbCircle
 10
4.386
 20
4.592
 30
0.0
 40
0.028
100
AcDbArc
 50
272.872
 51
291.67
  0
ARC
  5
183
330
18
100
AcDbEntity
  8
0
100
AcDbCircle
 10
4.384
 20
4.596
 30
0.0
 40
0.033
100
AcDbArc
 50
291.67
 51
315.233
  0
ARC
  5
184
330
18
100
AcDbEntity
  8
0
100
AcDbCircle
 10
4.381
 20
4.599
 30
0.0
 40
0.037
100
AcDbArc
 50
315.233
 51
336.362
  0
ARC
  5
185
330
18
100
AcDbEntity
  8
0
100
AcDbCircle
 10
4.376
 20
4.602
 30
0.0
 40
0.043
100
AcDbArc
 50
336.362
 51
356.041
  0
ARC
  5
186
330
18
100
AcDbEntity
  8
0
100
AcDbCircle
 10
4.376
 20
4.602
 30
0.0
 40
0.043
100
AcDbArc
 50
356.041
 51
15.721
  0
ARC
  5
187
330
18
100
AcDbEntity
  8
0
100
AcDbCircle
 10
4.381
 20
4.603
 30
0.0
 40
0.037
100
AcDbArc
 50
15.721
 51
36.85
  0
ARC
  5
188
330
18
100
AcDbEntity
  8
0
100
AcDbCircle
 10
4.385
 20
4.606
 30
0.0
 40
0.033
100
AcDbArc
 50
36.85
 51
60.413
  0
ARC
  5
189
330
18
100
AcDbEntity
  8
0
100
AcDbCircle
 10
4.387
 20
4.61
 30
0.0
 40
0.028
100
AcDbArc
 50
60.413
 51
86.041
  0
ARC
  5
18A
330
18
100
AcDbEntity
  8
0
100
AcDbCircle
 10
4.387
 20
4.61
 30
0.0
 40
0.028
100
AcDbArc
 50
86.041
 51
111.67
  0
ARC
  5
18B
330
18
100
AcDbEntity
  8
0
100
AcDbCircle
 10
4.388999999999999
 20
4.606
 30
0.0
 40
0.033
100
AcDbArc
 50
111.67
 51
118.087
  0
ARC
  5
18C
330
18
100
AcDbEntity
  8
0
100
AcDbCircle
 10
5.057
 20
3.48
 30
0.0
 40
0.043
100
AcDbArc
 50
176.041
 51
195.721
  0
ARC
  5
18D
330
18
100
AcDbEntity
  8
0
100
AcDbCircle
 10
5.052
 20
3.478
 30
0.0
 40
0.037
100
AcDbArc
 50
195.721
 51
216.85
  0
ARC
  5
18E
330
18
100
AcDbEntity
  8
0
100
AcDbCircle
 10
5.048
 20
3.476
 30
0.0
 40
0.033
100
AcDbArc
 50
216.85
 51
240.413
  0
ARC
  5
18F
330
18
100
AcDbEntity
  8
0
100
AcDbCircle
 10
5.046
 20
3.471
 30
0.0
 40
0.028
100
AcDbArc
 50
240.413
 51
266.041
  0
ARC
  5
190
330
18
100
AcDbEntity
  8
0
100
AcDbCircle
 10
5.046
 20
3.471
 30
0.0
 40
0.028
100
AcDbArc
 50
266.041
 51
291.67
  0
ARC
  5
191
330
18
100
AcDbEntity
  8
0
100
AcDbCircle
 10
5.044
 20
3.476
 30
0.0
 40
0.033
100
AcDbArc
 50
291.67
 51
315.233
  0
ARC
  5
192
330
18
100
AcDbEntity
  8
0
100
AcDbCircle
 10
5.041
 20
3.479
 30
0.0
 40
0.037
100
AcDbArc
 50
315.233
 51
336.362
  0
ARC
  5
193
330
18
100
AcDbEntity
  8
0
100
AcDbCircle
 10
5.036000000000001
 20
3.481
 30
0.0
 40
0.043
100
AcDbArc
 50
336.362
 51
356.041
  0
ARC
  5
194
330
18
100
AcDbEntity
  8
0
100
AcDbCircle
 10
5.036000000000001
 20
3.481
 30
0.0
 40
0.043
100
AcDbArc
 50
356.041
 51
15.721
  0
ARC
  5
195
330
18
100
AcDbEntity
  8
0
100
AcDbCircle
 10
5.041
 20
3.483
 30
0.0
 40
0.037
100
AcDbArc
 50
15.721
 51
36.85
  0
ARC
  5
196
330
18
100
AcDbEntity
  8
0
100
AcDbCircle
 10
5.045
 20
3.485
 30
0.0
 40
0.033
100
AcDbArc
 50
36.85
 51
60.413
  0
ARC
  5
197
330
18
100
AcDbEntity
  8
0
100
AcDbCircle
 10
5.047
 20
3.49
 30
0.0
 40
0.028
100
AcDbArc
 50
60.413
 51
86.041
  0
ARC
  5
198
330
18
100
AcDbEntity
  8
0
100
AcDbCircle
 10
5.047
 20
3.49
 30
0.0
 40
0.028
100
AcDbArc
 50
86.041
 51
111.67
  0
ARC
  5
199
330
18
100
AcDbEntity
  8
0
100
AcDbCircle
 10
5.049
 20
3.485
 30
0.0
 40
0.033
100
AcDbArc
 50
111.67
 51
135.233
  0
ARC
  5
19A
330
18
100
AcDbEntity
  8
0
100
AcDbCircle
 10
5.052
 20
3.482
 30
0.0
 40
0.037
100
AcDbArc
 50
135.233
 51
156.362
  0
ARC
  5
19B
330
18
100
AcDbEntity
  8
0
100
AcDbCircle
 10
5.057
 20
3.48
 30
0.0
 40
0.043
100
AcDbArc
 50
156.362
 51
176.041
  0
ARC
  5
19C
330
18
100
AcDbEntity
  8
0
100
AcDbCircle
 10
5.058
 20
3.475
 30
0.0
 40
0.028
100
AcDbArc
 50
272.872
 51
291.67
  0
ARC
  5
19D
330
18
100
AcDbEntity
  8
0
100
AcDbCircle
 10
5.056
 20
3.479
 30
0.0
 40
0.033
100
AcDbArc
 50
291.67
 51
315.233
  0
ARC
  5
19E
330
18
100
AcDbEntity
  8
0
100
AcDbCircle
 10
5.053
 20
3.482
 30
0.0
 40
0.037
100
AcDbArc
 50
315.233
 51
336.362
  0
ARC
  5
19F
330
18
100
AcDbEntity
  8
0
100
AcDbCircle
 10
5.048
 20
3.485
 30
0.0
 40
0.043
100
AcDbArc
 50
336.362
 51
356.041
  0
ARC
  5
1A0
330
18
100
AcDbEntity
  8
0
100
AcDbCircle
 10
5.048
 20
3.485
 30
0.0
 40
0.043
100
AcDbArc
 50
356.041
 51
15.721
  0
ARC
  5
1A1
330
18
100
AcDbEntity
  8
0
100
AcDbCircle
 10
5.053
 20
3.486
 30
0.0
 40
0.037
100
AcDbArc
 50
15.721
 51
36.85
  0
ARC
  5
1A2
330
18
100
AcDbEntity
  8
0
100
AcDbCircle
 10
5.057
 20
3.489
 30
0.0
 40
0.033
100
AcDbArc
 50
36.85
 51
60.413
  0
ARC
  5
1A3
330
18
100
AcDbEntity
  8
0
100
AcDbCircle
 10
5.059
 20
3.493
 30
0.0
 40
0.028
100
AcDbArc
 50
60.413
 51
86.041
  0
ARC
  5
1A4
330
18
100
AcDbEntity
  8
0
100
AcDbCircle
 10
5.059
 20
3.493
 30
0.0
 40
0.028
100
AcDbArc
 50
86.041
 51
111.67
  0
ARC
  5
1A5
330
18
100
AcDbEntity
  8
0
100
AcDbCircle
 10
5.061
 20
3.489
 30
0.0
 40
0.033
100
AcDbArc
 50
111.67
 51
118.087
  0
ARC
  5
1A6
330
18
100
AcDbEntity
  8
0
100
AcDbCircle
 10
5.088
 20
4.151
 30
0.0
 40
0.043
100
AcDbArc
 50
176.041
 51
195.721
  0
ARC
  5
1A7
330
18
100
AcDbEntity
  8
0
100
AcDbCircle
 10
5.083
 20
4.15
 30
0.0
 40
0.037
100
AcDbArc
 50
195.721
 51
216.85
  0
ARC
  5
1A8
330
18
100
AcDbEntity
  8
0
100
AcDbCircle
 10
5.079
 20
4.147
 30
0.0
 40
0.033
100
AcDbArc
 50
216.85
 51
240.413
  0
ARC
  5
1A9
330
18
100
AcDbEntity
  8
0
100
AcDbCircle
 10
5.077
 20
4.143
 30
0.0
 40
0.028
100
AcDbArc
 50
240.413
 51
266.041
  0
ARC
  5
1AA
330
18
100
AcDbEntity
  8
0
100
AcDbCircle
 10
5.077
 20
4.143
 30
0.0
 40
0.028
100
AcDbArc
 50
266.041
 51
291.67
  0
ARC
  5
1AB
330
18
100
AcDbEntity
  8
0
100
AcDbCircle
 10
5.075
 20
4.147
 30
0.0
 40
0.033
100
AcDbArc
 50
291.67
 51
315.233
  0
ARC
  5
1AC
330
18
100
AcDbEntity
  8
0
100
AcDbCircle
 10
5.072
 20
4.15
 30
0.0
 40
0.037
100
AcDbArc
 50
315.233
 51
336.362
  0
ARC
  5
1AD
330
18
100
AcDbEntity
  8
0
100
AcDbCircle
 10
5.066
 20
4.153000000000001
 30
0.0
 40
0.043
100
AcDbArc
 50
336.362
 51
356.041
  0
ARC
  5
1AE
330
18
100
AcDbEntity
  8
0
100
AcDbCircle
 10
5.066
 20
4.153000000000001
 30
0.0
 40
0.043
100
AcDbArc
 50
356.041
 51
15.721
  0
ARC
  5
1AF
330
18
100
AcDbEntity
  8
0
100
AcDbCircle
 10
5.072
 20
4.154
 30
0.0
 40
0.037
100
AcDbArc
 50
15.721
 51
36.85
  0
ARC
  5
1B0
330
18
100
AcDbEntity
  8
0
100
AcDbCircle
 10
5.075
 20
4.157
 30
0.0
 40
0.033
100
AcDbArc
 50
36.85
 51
60.413
  0
ARC
  5
1B1
330
18
100
AcDbEntity
  8
0
100
AcDbCircle
 10
5.078
 20
4.161000000000001
 30
0.0
 40
0.028
100
AcDbArc
 50
60.413
 51
86.041
  0
ARC
  5
1B2
330
18
100
AcDbEntity
  8
0
100
AcDbCircle
 10
5.078
 20
4.161000000000001
 30
0.0
 40
0.028
100
AcDbArc
 50
86.041
 51
111.67
  0
ARC
  5
1B3
330
18
100
AcDbEntity
  8
0
100
AcDbCircle
 10
5.08
 20
4.157
 30
0.0
 40
0.033
100
AcDbArc
 50
111.67
 51
135.233
  0
ARC
  5
1B4
330
18
100
AcDbEntity
  8
0
100
AcDbCircle
 10
5.083
 20
4.154
 30
0.0
 40
0.037
100
AcDbArc
 50
135.233
 51
156.362
  0
ARC
  5
1B5
330
18
100
AcDbEntity
  8
0
100
AcDbCircle
 10
5.088
 20
4.151
 30
0.0
 40
0.043
100
AcDbArc
 50
156.362
 51
176.041
  0
ARC
  5
1B6
330
18
100
AcDbEntity
  8
0
100
AcDbCircle
 10
5.089
 20
4.146
 30
0.0
 40
0.028
100
AcDbArc
 50
272.872
 51
291.67
  0
ARC
  5
1B7
330
18
100
AcDbEntity
  8
0
100
AcDbCircle
 10
5.087
 20
4.151
 30
0.0
 40
0.033
100
AcDbArc
 50
291.67
 51
315.233
  0
ARC
  5
1B8
330
18
100
AcDbEntity
  8
0
100
AcDbCircle
 10
5.084
 20
4.154
 30
0.0
 40
0.037
100
AcDbArc
 50
315.233
 51
336.362
  0
ARC
  5
1B9
330
18
100
AcDbEntity
  8
0
100
AcDbCircle
 10
5.079
 20
4.156000000000001
 30
0.0
 40
0.043
100
AcDbArc
 50
336.362
 51
356.041
  0
ARC
  5
1BA
330
18
100
AcDbEntity
  8
0
100
AcDbCircle
 10
5.079
 20
4.156000000000001
 30
0.0
 40
0.043
100
AcDbArc
 50
356.041
 51
15.721
  0
ARC
  5
1BB
330
18
100
AcDbEntity
  8
0
100
AcDbCircle
 10
5.084
 20
4.158
 30
0.0
 40
0.037
100
AcDbArc
 50
15.721
 51
36.85
  0
ARC
  5
1BC
330
18
100
AcDbEntity
  8
0
100
AcDbCircle
 10
5.088
 20
4.16
 30
0.0
 40
0.033
100
AcDbArc
 50
36.85
 51
60.413
  0
ARC
  5
1BD
330
18
100
AcDbEntity
  8
0
100
AcDbCircle
 10
5.09
 20
4.165
 30
0.0
 40
0.028
100
AcDbArc
 50
60.413
 51
86.041
  0
ARC
  5
1BE
330
18
100
AcDbEntity
  8
0
100
AcDbCircle
 10
5.09
 20
4.165
 30
0.0
 40
0.028
100
AcDbArc
 50
86.041
 51
111.67
  0
ARC
  5
1BF
330
18
100
AcDbEntity
  8
0
100
AcDbCircle
 10
5.092
 20
4.16
 30
0.0
 40
0.033
100
AcDbArc
 50
111.67
 51
118.087
  0
ARC
  5
1C0
330
18
100
AcDbEntity
  8
0
100
AcDbCircle
 10
5.089
 20
4.525
 30
0.0
 40
0.028
100
AcDbArc
 50
272.872
 51
291.67
  0
ARC
  5
1C1
330
18
100
AcDbEntity
  8
0
100
AcDbCircle
 10
5.087
 20
4.529
 30
0.0
 40
0.033
100
AcDbArc
 50
291.67
 51
315.233
  0
ARC
  5
1C2
330
18
100
AcDbEntity
  8
0
100
AcDbCircle
 10
5.084
 20
4.532
 30
0.0
 40
0.037
100
AcDbArc
 50
315.233
 51
336.362
  0
ARC
  5
1C3
330
18
100
AcDbEntity
  8
0
100
AcDbCircle
 10
5.079
 20
4.535
 30
0.0
 40
0.043
100
AcDbArc
 50
336.362
 51
356.041
  0
ARC
  5
1C4
330
18
100
AcDbEntity
  8
0
100
AcDbCircle
 10
5.079
 20
4.535
 30
0.0
 40
0.043
100
AcDbArc
 50
356.041
 51
15.721
  0
ARC
  5
1C5
330
18
100
AcDbEntity
  8
0
100
AcDbCircle
 10
5.084
 20
4.536000000000001
 30
0.0
 40
0.037
100
AcDbArc
 50
15.721
 51
36.85
  0
ARC
  5
1C6
330
18
100
AcDbEntity
  8
0
100
AcDbCircle
 10
5.088
 20
4.539
 30
0.0
 40
0.033
100
AcDbArc
 50
36.85
 51
60.413
  0
ARC
  5
1C7
330
18
100
AcDbEntity
  8
0
100
AcDbCircle
 10
5.09
 20
4.543
 30
0.0
 40
0.028
100
AcDbArc
 50
60.413
 51
86.041
  0
ARC
  5
1C8
330
18
100
AcDbEntity
  8
0
100
AcDbCircle
 10
5.09
 20
4.543
 30
0.0
 40
0.028
100
AcDbArc
 50
86.041
 51
111.67
  0
ARC
  5
1C9
330
18
100
AcDbEntity
  8
0
100
AcDbCircle
 10
5.092
 20
4.539
 30
0.0
 40
0.033
100
AcDbArc
 50
111.67
 51
118.087
  0
ARC
  5
1CA
330
18
100
AcDbEntity
  8
0
100
AcDbCircle
 10
5.088
 20
4.53
 30
0.0
 40
0.043
100
AcDbArc
 50
176.041
 51
195.721
  0
ARC
  5
1CB
330
18
100
AcDbEntity
  8
0
100
AcDbCircle
 10
5.083
 20
4.528000000000001
 30
0.0
 40
0.037
100
AcDbArc
 50
195.721
 51
216.85
  0
ARC
  5
1CC
330
18
100
AcDbEntity
  8
0
100
AcDbCircle
 10
5.079
 20
4.526
 30
0.0
 40
0.033
100
AcDbArc
 50
216.85
 51
240.413
  0
ARC
  5
1CD
330
18
100
AcDbEntity
  8
0
100
AcDbCircle
 10
5.077
 20
4.521
 30
0.0
 40
0.028
100
AcDbArc
 50
240.413
 51
266.041
  0
ARC
  5
1CE
330
18
100
AcDbEntity
  8
0
100
AcDbCircle
 10
5.077
 20
4.521
 30
0.0
 40
0.028
100
AcDbArc
 50
266.041
 51
291.67
  0
ARC
  5
1CF
330
18
100
AcDbEntity
  8
0
100
AcDbCircle
 10
5.075
 20
4.526
 30
0.0
 40
0.033
100
AcDbArc
 50
291.67
 51
315.233
  0
ARC
  5
1D0
330
18
100
AcDbEntity
  8
0
100
AcDbCircle
 10
5.072
 20
4.529
 30
0.0
 40
0.037
100
AcDbArc
 50
315.233
 51
336.362
  0
ARC
  5
1D1
330
18
100
AcDbEntity
  8
0
100
AcDbCircle
 10
5.066
 20
4.531000000000001
 30
0.0
 40
0.043
100
AcDbArc
 50
336.362
 51
356.041
  0
ARC
  5
1D2
330
18
100
AcDbEntity
  8
0
100
AcDbCircle
 10
5.066
 20
4.531000000000001
 30
0.0
 40
0.043
100
AcDbArc
 50
356.041
 51
15.721
  0
ARC
  5
1D3
330
18
100
AcDbEntity
  8
0
100
AcDbCircle
 10
5.072
 20
4.533
 30
0.0
 40
0.037
100
AcDbArc
 50
15.721
 51
36.85
  0
ARC
  5
1D4
330
18
100
AcDbEntity
  8
0
100
AcDbCircle
 10
5.075
 20
4.535
 30
0.0
 40
0.033
100
AcDbArc
 50
36.85
 51
60.413
  0
ARC
  5
1D5
330
18
100
AcDbEntity
  8
0
100
AcDbCircle
 10
5.078
 20
4.54
 30
0.0
 40
0.028
100
AcDbArc
 50
60.413
 51
86.041
  0
ARC
  5
1D6
330
18
100
AcDbEntity
  8
0
100
AcDbCircle
 10
5.078
 20
4.54
 30
0.0
 40
0.028
100
AcDbArc
 50
86.041
 51
111.67
  0
ARC
  5
1D7
330
18
100
AcDbEntity
  8
0
100
AcDbCircle
 10
5.08
 20
4.535
 30
0.0
 40
0.033
100
AcDbArc
 50
111.67
 51
135.233
  0
ARC
  5
1D8
330
18
100
AcDbEntity
  8
0
100
AcDbCircle
 10
5.083
 20
4.532
 30
0.0
 40
0.037
100
AcDbArc
 50
135.233
 51
156.362
  0
ARC
  5
1D9
330
18
100
AcDbEntity
  8
0
100
AcDbCircle
 10
5.088
 20
4.53
 30
0.0
 40
0.043
100
AcDbArc
 50
156.362
 51
176.041
  0
LINE
  5
1DA
330
18
100
AcDbEntity
  8
0
100
AcDbLine
 10
4.677
 20
3.022
 30
0.0
 11
4.833
 21
3.418
 31
0.0
  0
ARC
  5
1DB
330
18
100
AcDbEntity
  8
0
100
AcDbCircle
 10
4.805
 20
3.429
 30
0.0
 40
0.03
100
AcDbArc
 50
338.581
 51
0.0
  0
LINE
  5
1DC
330
18
100
AcDbEntity
  8
0
100
AcDbLine
 10
4.835
 20
3.429
 30
0.0
 11
4.835
 21
3.463
 31
0.0
  0
ARC
  5
1DD
330
18
100
AcDbEntity
  8
0
100
AcDbCircle
 10
4.805
 20
3.463
 30
0.0
 40
0.03
100
AcDbArc
 50
0.0
 51
65.34100000000001
  0
LINE
  5
1DE
330
18
100
AcDbEntity
  8
0
100
AcDbLine
 10
4.817
 20
3.491
 30
0.0
 11
4.795
 21
3.501
 31
0.0
  0
ARC
  5
1DF
330
18
100
AcDbEntity
  8
0
100
AcDbCircle
 10
4.808
 20
3.528
 30
0.0
 40
0.03
100
AcDbArc
 50
180.0
 51
245.341
  0
LINE
  5
1E0
330
18
100
AcDbEntity
  8
0
100
AcDbLine
 10
4.778000000000001
 20
3.528
 30
0.0
 11
4.778000000000001
 21
3.636
 31
0.0
  0
ARC
  5
1E1
330
18
100
AcDbEntity
  8
0
100
AcDbCircle
 10
4.808
 20
3.636
 30
0.0
 40
0.03
100
AcDbArc
 50
133.599
 51
180.0
  0
LINE
  5
1E2
330
18
100
AcDbEntity
  8
0
100
AcDbLine
 10
4.787
 20
3.657
 30
0.0
 11
4.838
 21
3.706
 31
0.0
  0
ARC
  5
1E3
330
18
100
AcDbEntity
  8
0
100
AcDbCircle
 10
4.817
 20
3.728
 30
0.0
 40
0.03
100
AcDbArc
 50
313.599
 51
0.0
  0
LINE
  5
1E4
330
18
100
AcDbEntity
  8
0
100
AcDbLine
 10
4.847
 20
3.728
 30
0.0
 11
4.847
 21
3.799
 31
0.0
  0
ARC
  5
1E5
330
18
100
AcDbEntity
  8
0
100
AcDbCircle
 10
4.817
 20
3.799
 30
0.0
 40
0.03
100
AcDbArc
 50
0.0
 51
59.98
  0
LINE
  5
1E6
330
18
100
AcDbEntity
  8
0
100
AcDbLine
 10
4.832
 20
3.825
 30
0.0
 11
4.793
 21
3.847
 31
0.0
  0
ARC
  5
1E7
330
18
100
AcDbEntity
  8
0
100
AcDbCircle
 10
4.808
 20
3.873
 30
0.0
 40
0.03
100
AcDbArc
 50
180.0
 51
239.98
  0
LINE
  5
1E8
330
18
100
AcDbEntity
  8
0
100
AcDbLine
 10
4.778000000000001
 20
3.873
 30
0.0
 11
4.778000000000001
 21
3.978
 31
0.0
  0
ARC
  5
1E9
330
18
100
AcDbEntity
  8
0
100
AcDbCircle
 10
4.808
 20
3.978
 30
0.0
 40
0.03
100
AcDbArc
 50
135.672
 51
180.0
  0
LINE
  5
1EA
330
18
100
AcDbEntity
  8
0
100
AcDbLine
 10
4.786000000000001
 20
3.999
 30
0.0
 11
4.823
 21
4.037
 31
0.0
  0
ARC
  5
1EB
330
18
100
AcDbEntity
  8
0
100
AcDbCircle
 10
4.802
 20
4.058
 30
0.0
 40
0.03
100
AcDbArc
 50
315.672
 51
0.0
  0
LINE
  5
1EC
330
18
100
AcDbEntity
  8
0
100
AcDbLine
 10
4.832
 20
4.058
 30
0.0
 11
4.832
 21
4.577
 31
0.0
  0
LINE
  5
1ED
330
18
100
AcDbEntity
  8
0
100
AcDbLine
 10
5.176
 20
4.641
 30
0.0
 11
5.176
 21
4.12
 31
0.0
  0
ARC
  5
1EE
330
18
100
AcDbEntity
  8
0
100
AcDbCircle
 10
5.146
 20
4.12
 30
0.0
 40
0.03
100
AcDbArc
 50
279.362
 51
0.0
  0
LINE
  5
1EF
330
18
100
AcDbEntity
  8
0
100
AcDbLine
 10
5.151
 20
4.09
 30
0.0
 11
5.143
 21
4.089
 31
0.0
  0
ARC
  5
1F0
330
18
100
AcDbEntity
  8
0
100
AcDbCircle
 10
5.111000000000001
 20
4.053999999999999
 30
0.0
 40
0.03
100
AcDbArc
 50
153.338
 51
180.0
  0
LINE
  5
1F1
330
18
100
AcDbEntity
  8
0
100
AcDbLine
 10
5.081
 20
4.053999999999999
 30
0.0
 11
5.081
 21
3.959
 31
0.0
  0
ARC
  5
1F2
330
18
100
AcDbEntity
  8
0
100
AcDbCircle
 10
5.111000000000001
 20
3.959
 30
0.0
 40
0.03
100
AcDbArc
 50
180.0
 51
259.52
  0
LINE
  5
1F3
330
18
100
AcDbEntity
  8
0
100
AcDbLine
 10
5.106
 20
3.93
 30
0.0
 11
5.152
 21
3.921
 31
0.0
  0
ARC
  5
1F4
330
18
100
AcDbEntity
  8
0
100
AcDbCircle
 10
5.146
 20
3.892
 30
0.0
 40
0.03
100
AcDbArc
 50
0.0
 51
79.52
  0
LINE
  5
1F5
330
18
100
AcDbEntity
  8
0
100
AcDbLine
 10
5.176
 20
3.892
 30
0.0
 11
5.176
 21
3.752
 31
0.0
  0
ARC
  5
1F6
330
18
100
AcDbEntity
  8
0
100
AcDbCircle
 10
5.146
 20
3.752
 30
0.0
 40
0.03
100
AcDbArc
 50
265.428
 51
0.0
  0
LINE
  5
1F7
330
18
100
AcDbEntity
  8
0
100
AcDbLine
 10
1.485
 20
0.178
 30
0.0
 11
1.448
 21
0.27
 31
0.0
  0
LINE
  5
1F8
330
18
100
AcDbEntity
  8
0
100
AcDbLine
 10
1.448
 20
0.27
 30
0.0
 11
1.419
 21
0.413
 31
0.0
  0
LINE
  5
1F9
330
18
100
AcDbEntity
  8
0
100
AcDbLine
 10
1.419
 20
0.413
 30
0.0
 11
1.41
 21
0.5489999999999999
 31
0.0
  0
LINE
  5
1FA
330
18
100
AcDbEntity
  8
0
100
AcDbLine
 10
1.41
 20
0.5489999999999999
 30
0.0
 11
1.499
 21
0.657
 31
0.0
  0
LINE
  5
1FB
330
18
100
AcDbEntity
  8
0
100
AcDbLine
 10
1.499
 20
0.657
 30
0.0
 11
1.379
 21
0.778
 31
0.0
  0
LINE
  5
1FC
330
18
100
AcDbEntity
  8
0
100
AcDbLine
 10
1.379
 20
0.778
 30
0.0
 11
1.374
 21
0.855
 31
0.0
  0
LINE
  5
1FD
330
18
100
AcDbEntity
  8
0
100
AcDbLine
 10
1.768
 20
0.76
 30
0.0
 11
1.76
 21
0.8240000000000001
 31
0.0
  0
LINE
  5
1FE
330
18
100
AcDbEntity
  8
0
100
AcDbLine
 10
1.76
 20
0.8240000000000001
 30
0.0
 11
1.747
 21
0.983
 31
0.0
  0
LINE
  5
1FF
330
18
100
AcDbEntity
  8
0
100
AcDbLine
 10
1.747
 20
0.983
 30
0.0
 11
1.723
 21
1.14
 31
0.0
  0
LINE
  5
200
330
18
100
AcDbEntity
  8
0
100
AcDbLine
 10
1.793
 20
0.257
 30
0.0
 11
1.732
 21
0.477
 31
0.0
  0
LINE
  5
201
330
18
100
AcDbEntity
  8
0
100
AcDbLine
 10
1.732
 20
0.477
 30
0.0
 11
1.801
 21
0.5539999999999999
 31
0.0
  0
LINE
  5
202
330
18
100
AcDbEntity
  8
0
100
AcDbLine
 10
1.801
 20
0.5539999999999999
 30
0.0
 11
1.798
 21
0.585
 31
0.0
  0
LINE
  5
203
330
18
100
AcDbEntity
  8
0
100
AcDbLine
 10
1.798
 20
0.585
 30
0.0
 11
1.686
 21
0.7090000000000001
 31
0.0
  0
LINE
  5
204
330
18
100
AcDbEntity
  8
0
100
AcDbLine
 10
1.686
 20
0.7090000000000001
 30
0.0
 11
1.681
 21
0.8420000000000001
 31
0.0
  0
LINE
  5
205
330
18
100
AcDbEntity
  8
0
100
AcDbLine
 10
1.681
 20
0.8420000000000001
 30
0.0
 11
1.667
 21
0.9670000000000001
 31
0.0
  0
LINE
  5
206
330
18
100
AcDbEntity
  8
0
100
AcDbLine
 10
1.667
 20
0.9670000000000001
 30
0.0
 11
1.641
 21
1.114
 31
0.0
  0
LINE
  5
207
330
18
100
AcDbEntity
  8
0
100
AcDbLine
 10
1.641
 20
1.114
 30
0.0
 11
1.628
 21
1.165
 31
0.0
  0
LINE
  5
208
330
18
100
AcDbEntity
  8
0
100
AcDbLine
 10
1.577
 20
0.156
 30
0.0
 11
1.518
 21
0.297
 31
0.0
  0
LINE
  5
209
330
18
100
AcDbEntity
  8
0
100
AcDbLine
 10
1.518
 20
0.297
 30
0.0
 11
1.476
 21
0.446
 31
0.0
  0
LINE
  5
20A
330
18
100
AcDbEntity
  8
0
100
AcDbLine
 10
1.476
 20
0.446
 30
0.0
 11
1.48
 21
0.534
 31
0.0
  0
LINE
  5
20B
330
18
100
AcDbEntity
  8
0
100
AcDbLine
 10
1.48
 20
0.534
 30
0.0
 11
1.558
 21
0.603
 31
0.0
  0
LINE
  5
20C
330
18
100
AcDbEntity
  8
0
100
AcDbLine
 10
1.558
 20
0.603
 30
0.0
 11
1.56
 21
0.642
 31
0.0
  0
LINE
  5
20D
330
18
100
AcDbEntity
  8
0
100
AcDbLine
 10
1.56
 20
0.642
 30
0.0
 11
1.449
 21
0.762
 31
0.0
  0
LINE
  5
20E
330
18
100
AcDbEntity
  8
0
100
AcDbLine
 10
1.449
 20
0.762
 30
0.0
 11
1.443
 21
0.8959999999999999
 31
0.0
  0
LINE
  5
20F
330
18
100
AcDbEntity
  8
0
100
AcDbLine
 10
1.443
 20
0.8959999999999999
 30
0.0
 11
1.397
 21
1.055
 31
0.0
  0
LINE
  5
210
330
18
100
AcDbEntity
  8
0
100
AcDbLine
 10
1.67
 20
0.133
 30
0.0
 11
1.614
 21
0.259
 31
0.0
  0
LINE
  5
211
330
18
100
AcDbEntity
  8
0
100
AcDbLine
 10
1.614
 20
0.259
 30
0.0
 11
1.574
 21
0.393
 31
0.0
  0
LINE
  5
212
330
18
100
AcDbEntity
  8
0
100
AcDbLine
 10
1.574
 20
0.393
 30
0.0
 11
1.557
 21
0.516
 31
0.0
  0
LINE
  5
213
330
18
100
AcDbEntity
  8
0
100
AcDbLine
 10
1.557
 20
0.516
 30
0.0
 11
1.628
 21
0.5610000000000001
 31
0.0
  0
LINE
  5
214
330
18
100
AcDbEntity
  8
0
100
AcDbLine
 10
1.628
 20
0.5610000000000001
 30
0.0
 11
1.635
 21
0.624
 31
0.0
  0
LINE
  5
215
330
18
100
AcDbEntity
  8
0
100
AcDbLine
 10
1.635
 20
0.624
 30
0.0
 11
1.521
 21
0.746
 31
0.0
  0
LINE
  5
216
330
18
100
AcDbEntity
  8
0
100
AcDbLine
 10
1.521
 20
0.746
 30
0.0
 11
1.516
 21
0.879
 31
0.0
  0
LINE
  5
217
330
18
100
AcDbEntity
  8
0
100
AcDbLine
 10
1.516
 20
0.879
 30
0.0
 11
1.489
 21
0.993
 31
0.0
  0
LINE
  5
218
330
18
100
AcDbEntity
  8
0
100
AcDbLine
 10
1.489
 20
0.993
 30
0.0
 11
1.447
 21
1.112
 31
0.0
  0
LINE
  5
219
330
18
100
AcDbEntity
  8
0
100
AcDbLine
 10
1.447
 20
1.112
 30
0.0
 11
1.397
 21
1.224
 31
0.0
  0
LINE
  5
21A
330
18
100
AcDbEntity
  8
0
100
AcDbLine
 10
1.775
 20
0.108
 30
0.0
 11
1.72
 21
0.222
 31
0.0
  0
LINE
  5
21B
330
18
100
AcDbEntity
  8
0
100
AcDbLine
 10
1.72
 20
0.222
 30
0.0
 11
1.675
 21
0.336
 31
0.0
  0
LINE
  5
21C
330
18
100
AcDbEntity
  8
0
100
AcDbLine
 10
1.675
 20
0.336
 30
0.0
 11
1.639
 21
0.498
 31
0.0
  0
LINE
  5
21D
330
18
100
AcDbEntity
  8
0
100
AcDbLine
 10
1.639
 20
0.498
 30
0.0
 11
1.707
 21
0.5479999999999999
 31
0.0
  0
LINE
  5
21E
330
18
100
AcDbEntity
  8
0
100
AcDbLine
 10
1.707
 20
0.5479999999999999
 30
0.0
 11
1.725
 21
0.603
 31
0.0
  0
LINE
  5
21F
330
18
100
AcDbEntity
  8
0
100
AcDbLine
 10
1.725
 20
0.603
 30
0.0
 11
1.598
 21
0.7290000000000001
 31
0.0
  0
LINE
  5
220
330
18
100
AcDbEntity
  8
0
100
AcDbLine
 10
1.598
 20
0.7290000000000001
 30
0.0
 11
1.594
 21
0.862
 31
0.0
  0
LINE
  5
221
330
18
100
AcDbEntity
  8
0
100
AcDbLine
 10
1.594
 20
0.862
 30
0.0
 11
1.522
 21
1.192
 31
0.0
  0
LINE
  5
222
330
18
100
AcDbEntity
  8
0
100
AcDbLine
 10
1.411
 20
3.463
 30
0.0
 11
1.432
 21
3.666
 31
0.0
  0
LINE
  5
223
330
18
100
AcDbEntity
  8
0
100
AcDbLine
 10
1.432
 20
3.666
 30
0.0
 11
1.465
 21
3.767
 31
0.0
  0
LINE
  5
224
330
18
100
AcDbEntity
  8
0
100
AcDbLine
 10
1.429
 20
3.122
 30
0.0
 11
1.479
 21
3.207
 31
0.0
  0
LINE
  5
225
330
18
100
AcDbEntity
  8
0
100
AcDbLine
 10
1.479
 20
3.207
 30
0.0
 11
1.393
 21
3.287
 31
0.0
  0
LINE
  5
226
330
18
100
AcDbEntity
  8
0
100
AcDbLine
 10
1.393
 20
3.287
 30
0.0
 11
1.475
 21
3.416
 31
0.0
  0
LINE
  5
227
330
18
100
AcDbEntity
  8
0
100
AcDbLine
 10
1.475
 20
3.416
 30
0.0
 11
1.486
 21
3.495
 31
0.0
  0
LINE
  5
228
330
18
100
AcDbEntity
  8
0
100
AcDbLine
 10
1.486
 20
3.495
 30
0.0
 11
1.495
 21
3.603
 31
0.0
  0
LINE
  5
229
330
18
100
AcDbEntity
  8
0
100
AcDbLine
 10
1.495
 20
3.603
 30
0.0
 11
1.514
 21
3.7
 31
0.0
  0
LINE
  5
22A
330
18
100
AcDbEntity
  8
0
100
AcDbLine
 10
1.514
 20
3.7
 30
0.0
 11
1.539
 21
3.753
 31
0.0
  0
LINE
  5
22B
330
18
100
AcDbEntity
  8
0
100
AcDbLine
 10
1.411
 20
2.891
 30
0.0
 11
1.461
 21
2.994
 31
0.0
  0
LINE
  5
22C
330
18
100
AcDbEntity
  8
0
100
AcDbLine
 10
1.461
 20
2.994
 30
0.0
 11
1.478
 21
3.061
 31
0.0
  0
LINE
  5
22D
330
18
100
AcDbEntity
  8
0
100
AcDbLine
 10
1.478
 20
3.061
 30
0.0
 11
1.519
 21
3.126
 31
0.0
  0
LINE
  5
22E
330
18
100
AcDbEntity
  8
0
100
AcDbLine
 10
1.519
 20
3.126
 30
0.0
 11
1.558
 21
3.193
 31
0.0
  0
LINE
  5
22F
330
18
100
AcDbEntity
  8
0
100
AcDbLine
 10
1.558
 20
3.193
 30
0.0
 11
1.462
 21
3.275
 31
0.0
  0
LINE
  5
230
330
18
100
AcDbEntity
  8
0
100
AcDbLine
 10
1.462
 20
3.275
 30
0.0
 11
1.562
 21
3.401
 31
0.0
  0
LINE
  5
231
330
18
100
AcDbEntity
  8
0
100
AcDbLine
 10
1.562
 20
3.401
 30
0.0
 11
1.57
 21
3.468
 31
0.0
  0
LINE
  5
232
330
18
100
AcDbEntity
  8
0
100
AcDbLine
 10
1.57
 20
3.468
 30
0.0
 11
1.589
 21
3.568
 31
0.0
  0
LINE
  5
233
330
18
100
AcDbEntity
  8
0
100
AcDbLine
 10
1.589
 20
3.568
 30
0.0
 11
1.617
 21
3.651
 31
0.0
  0
LINE
  5
234
330
18
100
AcDbEntity
  8
0
100
AcDbLine
 10
1.617
 20
3.651
 30
0.0
 11
1.648
 21
3.733
 31
0.0
  0
LINE
  5
235
330
18
100
AcDbEntity
  8
0
100
AcDbLine
 10
1.764
 20
2.701
 30
0.0
 11
1.794
 21
2.797
 31
0.0
  0
LINE
  5
236
330
18
100
AcDbEntity
  8
0
100
AcDbLine
 10
1.679
 20
2.718
 30
0.0
 11
1.726
 21
2.842
 31
0.0
  0
LINE
  5
237
330
18
100
AcDbEntity
  8
0
100
AcDbLine
 10
1.726
 20
2.842
 30
0.0
 11
1.77
 21
2.95
 31
0.0
  0
LINE
  5
238
330
18
100
AcDbEntity
  8
0
100
AcDbLine
 10
1.77
 20
2.95
 30
0.0
 11
1.794
 21
2.992
 31
0.0
  0
LINE
  5
239
330
18
100
AcDbEntity
  8
0
100
AcDbLine
 10
1.595
 20
2.735
 30
0.0
 11
1.639
 21
2.833
 31
0.0
  0
LINE
  5
23A
330
18
100
AcDbEntity
  8
0
100
AcDbLine
 10
1.639
 20
2.833
 30
0.0
 11
1.674
 21
2.922
 31
0.0
  0
LINE
  5
23B
330
18
100
AcDbEntity
  8
0
100
AcDbLine
 10
1.674
 20
2.922
 30
0.0
 11
1.704
 21
2.985
 31
0.0
  0
LINE
  5
23C
330
18
100
AcDbEntity
  8
0
100
AcDbLine
 10
1.704
 20
2.985
 30
0.0
 11
1.729
 21
3.017
 31
0.0
  0
LINE
  5
23D
330
18
100
AcDbEntity
  8
0
100
AcDbLine
 10
1.729
 20
3.017
 30
0.0
 11
1.747
 21
3.058
 31
0.0
  0
LINE
  5
23E
330
18
100
AcDbEntity
  8
0
100
AcDbLine
 10
1.747
 20
3.058
 30
0.0
 11
1.782
 21
3.107
 31
0.0
  0
LINE
  5
23F
330
18
100
AcDbEntity
  8
0
100
AcDbLine
 10
1.782
 20
3.107
 30
0.0
 11
1.8
 21
3.15
 31
0.0
  0
LINE
  5
240
330
18
100
AcDbEntity
  8
0
100
AcDbLine
 10
1.8
 20
3.15
 30
0.0
 11
1.754
 21
3.186
 31
0.0
  0
LINE
  5
241
330
18
100
AcDbEntity
  8
0
100
AcDbLine
 10
1.754
 20
3.186
 30
0.0
 11
1.684
 21
3.235
 31
0.0
  0
LINE
  5
242
330
18
100
AcDbEntity
  8
0
100
AcDbLine
 10
1.684
 20
3.235
 30
0.0
 11
1.72
 21
3.297
 31
0.0
  0
LINE
  5
243
330
18
100
AcDbEntity
  8
0
100
AcDbLine
 10
1.72
 20
3.297
 30
0.0
 11
1.753
 21
3.346
 31
0.0
  0
LINE
  5
244
330
18
100
AcDbEntity
  8
0
100
AcDbLine
 10
1.753
 20
3.346
 30
0.0
 11
1.767
 21
3.366
 31
0.0
  0
LINE
  5
245
330
18
100
AcDbEntity
  8
0
100
AcDbLine
 10
1.767
 20
3.366
 30
0.0
 11
1.762
 21
3.416
 31
0.0
  0
LINE
  5
246
330
18
100
AcDbEntity
  8
0
100
AcDbLine
 10
1.762
 20
3.416
 30
0.0
 11
1.794
 21
3.506
 31
0.0
  0
LINE
  5
247
330
18
100
AcDbEntity
  8
0
100
AcDbLine
 10
1.514
 20
2.751
 30
0.0
 11
1.561
 21
2.86
 31
0.0
  0
LINE
  5
248
330
18
100
AcDbEntity
  8
0
100
AcDbLine
 10
1.561
 20
2.86
 30
0.0
 11
1.599
 21
2.952
 31
0.0
  0
LINE
  5
249
330
18
100
AcDbEntity
  8
0
100
AcDbLine
 10
1.599
 20
2.952
 30
0.0
 11
1.627
 21
3.03
 31
0.0
  0
LINE
  5
24A
330
18
100
AcDbEntity
  8
0
100
AcDbLine
 10
1.627
 20
3.03
 30
0.0
 11
1.628
 21
3.035
 31
0.0
  0
LINE
  5
24B
330
18
100
AcDbEntity
  8
0
100
AcDbLine
 10
1.628
 20
3.035
 30
0.0
 11
1.7
 21
3.081
 31
0.0
  0
LINE
  5
24C
330
18
100
AcDbEntity
  8
0
100
AcDbLine
 10
1.7
 20
3.081
 30
0.0
 11
1.735
 21
3.132
 31
0.0
  0
LINE
  5
24D
330
18
100
AcDbEntity
  8
0
100
AcDbLine
 10
1.735
 20
3.132
 30
0.0
 11
1.74
 21
3.161
 31
0.0
  0
LINE
  5
24E
330
18
100
AcDbEntity
  8
0
100
AcDbLine
 10
1.74
 20
3.161
 30
0.0
 11
1.676
 21
3.207
 31
0.0
  0
LINE
  5
24F
330
18
100
AcDbEntity
  8
0
100
AcDbLine
 10
1.676
 20
3.207
 30
0.0
 11
1.638
 21
3.233
 31
0.0
  0
LINE
  5
250
330
18
100
AcDbEntity
  8
0
100
AcDbLine
 10
1.638
 20
3.233
 30
0.0
 11
1.624
 21
3.246
 31
0.0
  0
LINE
  5
251
330
18
100
AcDbEntity
  8
0
100
AcDbLine
 10
1.624
 20
3.246
 30
0.0
 11
1.652
 21
3.301
 31
0.0
  0
LINE
  5
252
330
18
100
AcDbEntity
  8
0
100
AcDbLine
 10
1.652
 20
3.301
 30
0.0
 11
1.687
 21
3.346
 31
0.0
  0
LINE
  5
253
330
18
100
AcDbEntity
  8
0
100
AcDbLine
 10
1.687
 20
3.346
 30
0.0
 11
1.716
 21
3.375
 31
0.0
  0
LINE
  5
254
330
18
100
AcDbEntity
  8
0
100
AcDbLine
 10
1.716
 20
3.375
 30
0.0
 11
1.708
 21
3.423
 31
0.0
  0
LINE
  5
255
330
18
100
AcDbEntity
  8
0
100
AcDbLine
 10
1.708
 20
3.423
 30
0.0
 11
1.72
 21
3.514
 31
0.0
  0
LINE
  5
256
330
18
100
AcDbEntity
  8
0
100
AcDbLine
 10
1.72
 20
3.514
 30
0.0
 11
1.76
 21
3.594
 31
0.0
  0
LINE
  5
257
330
18
100
AcDbEntity
  8
0
100
AcDbLine
 10
1.76
 20
3.594
 30
0.0
 11
1.794
 21
3.62
 31
0.0
  0
LINE
  5
258
330
18
100
AcDbEntity
  8
0
100
AcDbLine
 10
1.428
 20
2.767
 30
0.0
 11
1.466
 21
2.827
 31
0.0
  0
LINE
  5
259
330
18
100
AcDbEntity
  8
0
100
AcDbLine
 10
1.466
 20
2.827
 30
0.0
 11
1.519
 21
2.919
 31
0.0
  0
LINE
  5
25A
330
18
100
AcDbEntity
  8
0
100
AcDbLine
 10
1.519
 20
2.919
 30
0.0
 11
1.545
 21
3.003
 31
0.0
  0
LINE
  5
25B
330
18
100
AcDbEntity
  8
0
100
AcDbLine
 10
1.545
 20
3.003
 30
0.0
 11
1.545
 21
3.049
 31
0.0
  0
LINE
  5
25C
330
18
100
AcDbEntity
  8
0
100
AcDbLine
 10
1.545
 20
3.049
 30
0.0
 11
1.59
 21
3.079
 31
0.0
  0
LINE
  5
25D
330
18
100
AcDbEntity
  8
0
100
AcDbLine
 10
1.59
 20
3.079
 30
0.0
 11
1.645
 21
3.125
 31
0.0
  0
LINE
  5
25E
330
18
100
AcDbEntity
  8
0
100
AcDbLine
 10
1.645
 20
3.125
 30
0.0
 11
1.667
 21
3.156
 31
0.0
  0
LINE
  5
25F
330
18
100
AcDbEntity
  8
0
100
AcDbLine
 10
1.667
 20
3.156
 30
0.0
 11
1.667
 21
3.174
 31
0.0
  0
LINE
  5
260
330
18
100
AcDbEntity
  8
0
100
AcDbLine
 10
1.667
 20
3.174
 30
0.0
 11
1.617
 21
3.21
 31
0.0
  0
LINE
  5
261
330
18
100
AcDbEntity
  8
0
100
AcDbLine
 10
1.617
 20
3.21
 30
0.0
 11
1.575
 21
3.24
 31
0.0
  0
LINE
  5
262
330
18
100
AcDbEntity
  8
0
100
AcDbLine
 10
1.575
 20
3.24
 30
0.0
 11
1.542
 21
3.26
 31
0.0
  0
LINE
  5
263
330
18
100
AcDbEntity
  8
0
100
AcDbLine
 10
1.542
 20
3.26
 30
0.0
 11
1.566
 21
3.292
 31
0.0
  0
LINE
  5
264
330
18
100
AcDbEntity
  8
0
100
AcDbLine
 10
1.566
 20
3.292
 30
0.0
 11
1.605
 21
3.336
 31
0.0
  0
LINE
  5
265
330
18
100
AcDbEntity
  8
0
100
AcDbLine
 10
1.605
 20
3.336
 30
0.0
 11
1.622
 21
3.36
 31
0.0
  0
LINE
  5
266
330
18
100
AcDbEntity
  8
0
100
AcDbLine
 10
1.622
 20
3.36
 30
0.0
 11
1.644
 21
3.387
 31
0.0
  0
LINE
  5
267
330
18
100
AcDbEntity
  8
0
100
AcDbLine
 10
1.644
 20
3.387
 30
0.0
 11
1.655
 21
3.465
 31
0.0
  0
LINE
  5
268
330
18
100
AcDbEntity
  8
0
100
AcDbLine
 10
1.655
 20
3.465
 30
0.0
 11
1.666
 21
3.517
 31
0.0
  0
LINE
  5
269
330
18
100
AcDbEntity
  8
0
100
AcDbLine
 10
1.666
 20
3.517
 30
0.0
 11
1.696
 21
3.599
 31
0.0
  0
LINE
  5
26A
330
18
100
AcDbEntity
  8
0
100
AcDbLine
 10
1.696
 20
3.599
 30
0.0
 11
1.732
 21
3.677
 31
0.0
  0
LINE
  5
26B
330
18
100
AcDbEntity
  8
0
100
AcDbLine
 10
1.732
 20
3.677
 30
0.0
 11
1.756
 21
3.712
 31
0.0
  0
LINE
  5
26C
330
18
100
AcDbEntity
  8
0
100
AcDbLine
 10
4.643
 20
3.769
 30
0.0
 11
4.528000000000001
 21
3.664
 31
0.0
  0
LINE
  5
26D
330
18
100
AcDbEntity
  8
0
100
AcDbLine
 10
4.528000000000001
 20
3.664
 30
0.0
 11
4.529
 21
3.616
 31
0.0
  0
LINE
  5
26E
330
18
100
AcDbEntity
  8
0
100
AcDbLine
 10
4.643
 20
3.769
 30
0.0
 11
4.644
 21
3.721
 31
0.0
  0
LINE
  5
26F
330
18
100
AcDbEntity
  8
0
100
AcDbLine
 10
4.644
 20
3.721
 30
0.0
 11
4.529
 21
3.616
 31
0.0
  0
LINE
  5
270
330
18
100
AcDbEntity
  8
0
100
AcDbLine
 10
4.644
 20
3.721
 30
0.0
 11
4.605
 21
3.735
 31
0.0
  0
LINE
  5
271
330
18
100
AcDbEntity
  8
0
100
AcDbLine
 10
4.484
 20
3.624
 30
0.0
 11
4.368
 21
3.519
 31
0.0
  0
LINE
  5
272
330
18
100
AcDbEntity
  8
0
100
AcDbLine
 10
4.368
 20
3.519
 30
0.0
 11
4.369
 21
3.471
 31
0.0
  0
LINE
  5
273
330
18
100
AcDbEntity
  8
0
100
AcDbLine
 10
4.484
 20
3.624
 30
0.0
 11
4.484
 21
3.576
 31
0.0
  0
LINE
  5
274
330
18
100
AcDbEntity
  8
0
100
AcDbLine
 10
4.484
 20
3.576
 30
0.0
 11
4.369
 21
3.471
 31
0.0
  0
LINE
  5
275
330
18
100
AcDbEntity
  8
0
100
AcDbLine
 10
4.484
 20
3.576
 30
0.0
 11
4.446000000000001
 21
3.59
 31
0.0
  0
LINE
  5
276
330
18
100
AcDbEntity
  8
0
100
AcDbLine
 10
4.313
 20
3.469
 30
0.0
 11
4.197
 21
3.364
 31
0.0
  0
LINE
  5
277
330
18
100
AcDbEntity
  8
0
100
AcDbLine
 10
4.197
 20
3.364
 30
0.0
 11
4.198
 21
3.316
 31
0.0
  0
LINE
  5
278
330
18
100
AcDbEntity
  8
0
100
AcDbLine
 10
4.313
 20
3.469
 30
0.0
 11
4.313
 21
3.421
 31
0.0
  0
LINE
  5
279
330
18
100
AcDbEntity
  8
0
100
AcDbLine
 10
4.313
 20
3.421
 30
0.0
 11
4.198
 21
3.316
 31
0.0
  0
LINE
  5
27A
330
18
100
AcDbEntity
  8
0
100
AcDbLine
 10
4.313
 20
3.421
 30
0.0
 11
4.275
 21
3.435
 31
0.0
  0
LINE
  5
27B
330
18
100
AcDbEntity
  8
0
100
AcDbLine
 10
4.135
 20
3.308
 30
0.0
 11
4.019
 21
3.203
 31
0.0
  0
LINE
  5
27C
330
18
100
AcDbEntity
  8
0
100
AcDbLine
 10
4.019
 20
3.203
 30
0.0
 11
4.02
 21
3.155
 31
0.0
  0
LINE
  5
27D
330
18
100
AcDbEntity
  8
0
100
AcDbLine
 10
4.135
 20
3.308
 30
0.0
 11
4.136
 21
3.259
 31
0.0
  0
LINE
  5
27E
330
18
100
AcDbEntity
  8
0
100
AcDbLine
 10
4.136
 20
3.259
 30
0.0
 11
4.02
 21
3.155
 31
0.0
  0
LINE
  5
27F
330
18
100
AcDbEntity
  8
0
100
AcDbLine
 10
4.136
 20
3.259
 30
0.0
 11
4.097
 21
3.273
 31
0.0
  0
LINE
  5
280
330
18
100
AcDbEntity
  8
0
100
AcDbLine
 10
3.961
 20
3.15
 30
0.0
 11
3.845
 21
3.045
 31
0.0
  0
LINE
  5
281
330
18
100
AcDbEntity
  8
0
100
AcDbLine
 10
3.845
 20
3.045
 30
0.0
 11
3.846
 21
2.997
 31
0.0
  0
LINE
  5
282
330
18
100
AcDbEntity
  8
0
100
AcDbLine
 10
3.961
 20
3.15
 30
0.0
 11
3.961
 21
3.101
 31
0.0
  0
LINE
  5
283
330
18
100
AcDbEntity
  8
0
100
AcDbLine
 10
3.961
 20
3.101
 30
0.0
 11
3.846
 21
2.997
 31
0.0
  0
LINE
  5
284
330
18
100
AcDbEntity
  8
0
100
AcDbLine
 10
3.961
 20
3.101
 30
0.0
 11
3.923
 21
3.115
 31
0.0
  0
LINE
  5
285
330
18
100
AcDbEntity
  8
0
100
AcDbLine
 10
3.787
 20
2.935
 30
0.0
 11
3.748
 21
2.949
 31
0.0
  0
LINE
  5
286
330
18
100
AcDbEntity
  8
0
100
AcDbLine
 10
3.787
 20
2.935
 30
0.0
 11
3.671
 21
2.83
 31
0.0
  0
LINE
  5
287
330
18
100
AcDbEntity
  8
0
100
AcDbLine
 10
3.786
 20
2.983
 30
0.0
 11
3.787
 21
2.935
 31
0.0
  0
LINE
  5
288
330
18
100
AcDbEntity
  8
0
100
AcDbLine
 10
3.671
 20
2.878
 30
0.0
 11
3.671
 21
2.83
 31
0.0
  0
LINE
  5
289
330
18
100
AcDbEntity
  8
0
100
AcDbLine
 10
3.786
 20
2.983
 30
0.0
 11
3.671
 21
2.878
 31
0.0
  0
LINE
  5
28A
330
18
100
AcDbEntity
  8
0
100
AcDbLine
 10
4.646
 20
3.658
 30
0.0
 11
4.53
 21
3.554
 31
0.0
  0
LINE
  5
28B
330
18
100
AcDbEntity
  8
0
100
AcDbLine
 10
4.53
 20
3.554
 30
0.0
 11
4.531000000000001
 21
3.505
 31
0.0
  0
LINE
  5
28C
330
18
100
AcDbEntity
  8
0
100
AcDbLine
 10
4.646
 20
3.658
 30
0.0
 11
4.647
 21
3.61
 31
0.0
  0
LINE
  5
28D
330
18
100
AcDbEntity
  8
0
100
AcDbLine
 10
4.647
 20
3.61
 30
0.0
 11
4.531000000000001
 21
3.505
 31
0.0
  0
LINE
  5
28E
330
18
100
AcDbEntity
  8
0
100
AcDbLine
 10
4.647
 20
3.61
 30
0.0
 11
4.608000000000001
 21
3.624
 31
0.0
  0
LINE
  5
28F
330
18
100
AcDbEntity
  8
0
100
AcDbLine
 10
4.486000000000001
 20
3.514
 30
0.0
 11
4.37
 21
3.409
 31
0.0
  0
LINE
  5
290
330
18
100
AcDbEntity
  8
0
100
AcDbLine
 10
4.37
 20
3.409
 30
0.0
 11
4.371
 21
3.361
 31
0.0
  0
LINE
  5
291
330
18
100
AcDbEntity
  8
0
100
AcDbLine
 10
4.486000000000001
 20
3.514
 30
0.0
 11
4.486000000000001
 21
3.465
 31
0.0
  0
LINE
  5
292
330
18
100
AcDbEntity
  8
0
100
AcDbLine
 10
4.486000000000001
 20
3.465
 30
0.0
 11
4.371
 21
3.361
 31
0.0
  0
LINE
  5
293
330
18
100
AcDbEntity
  8
0
100
AcDbLine
 10
4.486000000000001
 20
3.465
 30
0.0
 11
4.448
 21
3.479
 31
0.0
  0
LINE
  5
294
330
18
100
AcDbEntity
  8
0
100
AcDbLine
 10
4.315
 20
3.359
 30
0.0
 11
4.199
 21
3.255
 31
0.0
  0
LINE
  5
295
330
18
100
AcDbEntity
  8
0
100
AcDbLine
 10
4.199
 20
3.255
 30
0.0
 11
4.199
 21
3.207
 31
0.0
  0
LINE
  5
296
330
18
100
AcDbEntity
  8
0
100
AcDbLine
 10
4.315
 20
3.359
 30
0.0
 11
4.315
 21
3.311
 31
0.0
  0
LINE
  5
297
330
18
100
AcDbEntity
  8
0
100
AcDbLine
 10
4.315
 20
3.311
 30
0.0
 11
4.199
 21
3.207
 31
0.0
  0
LINE
  5
298
330
18
100
AcDbEntity
  8
0
100
AcDbLine
 10
4.315
 20
3.311
 30
0.0
 11
4.277
 21
3.325
 31
0.0
  0
LINE
  5
299
330
18
100
AcDbEntity
  8
0
100
AcDbLine
 10
4.136
 20
3.198
 30
0.0
 11
4.02
 21
3.094
 31
0.0
  0
LINE
  5
29A
330
18
100
AcDbEntity
  8
0
100
AcDbLine
 10
4.02
 20
3.094
 30
0.0
 11
4.021
 21
3.046
 31
0.0
  0
LINE
  5
29B
330
18
100
AcDbEntity
  8
0
100
AcDbLine
 10
4.136
 20
3.198
 30
0.0
 11
4.137
 21
3.15
 31
0.0
  0
LINE
  5
29C
330
18
100
AcDbEntity
  8
0
100
AcDbLine
 10
4.137
 20
3.15
 30
0.0
 11
4.021
 21
3.046
 31
0.0
  0
LINE
  5
29D
330
18
100
AcDbEntity
  8
0
100
AcDbLine
 10
4.137
 20
3.15
 30
0.0
 11
4.098
 21
3.164
 31
0.0
  0
LINE
  5
29E
330
18
100
AcDbEntity
  8
0
100
AcDbLine
 10
3.961
 20
3.041
 30
0.0
 11
3.846
 21
2.936
 31
0.0
  0
LINE
  5
29F
330
18
100
AcDbEntity
  8
0
100
AcDbLine
 10
3.846
 20
2.936
 30
0.0
 11
3.846
 21
2.888
 31
0.0
  0
LINE
  5
2A0
330
18
100
AcDbEntity
  8
0
100
AcDbLine
 10
3.961
 20
3.041
 30
0.0
 11
3.962
 21
2.992
 31
0.0
  0
LINE
  5
2A1
330
18
100
AcDbEntity
  8
0
100
AcDbLine
 10
3.962
 20
2.992
 30
0.0
 11
3.846
 21
2.888
 31
0.0
  0
LINE
  5
2A2
330
18
100
AcDbEntity
  8
0
100
AcDbLine
 10
3.962
 20
2.992
 30
0.0
 11
3.923
 21
3.007
 31
0.0
  0
LINE
  5
2A3
330
18
100
AcDbEntity
  8
0
100
AcDbLine
 10
3.787
 20
2.826
 30
0.0
 11
3.748
 21
2.84
 31
0.0
  0
LINE
  5
2A4
330
18
100
AcDbEntity
  8
0
100
AcDbLine
 10
3.787
 20
2.826
 30
0.0
 11
3.671
 21
2.722
 31
0.0
  0
LINE
  5
2A5
330
18
100
AcDbEntity
  8
0
100
AcDbLine
 10
3.786
 20
2.875
 30
0.0
 11
3.787
 21
2.826
 31
0.0
  0
LINE
  5
2A6
330
18
100
AcDbEntity
  8
0
100
AcDbLine
 10
3.671
 20
2.77
 30
0.0
 11
3.671
 21
2.722
 31
0.0
  0
LINE
  5
2A7
330
18
100
AcDbEntity
  8
0
100
AcDbLine
 10
3.786
 20
2.875
 30
0.0
 11
3.671
 21
2.77
 31
0.0
  0
LINE
  5
2A8
330
18
100
AcDbEntity
  8
0
100
AcDbLine
 10
4.634
 20
3.551
 30
0.0
 11
4.519
 21
3.445
 31
0.0
  0
LINE
  5
2A9
330
18
100
AcDbEntity
  8
0
100
AcDbLine
 10
4.519
 20
3.445
 30
0.0
 11
4.52
 21
3.397
 31
0.0
  0
LINE
  5
2AA
330
18
100
AcDbEntity
  8
0
100
AcDbLine
 10
4.634
 20
3.551
 30
0.0
 11
4.635
 21
3.503
 31
0.0
  0
LINE
  5
2AB
330
18
100
AcDbEntity
  8
0
100
AcDbLine
 10
4.635
 20
3.503
 30
0.0
 11
4.52
 21
3.397
 31
0.0
  0
LINE
  5
2AC
330
18
100
AcDbEntity
  8
0
100
AcDbLine
 10
4.635
 20
3.503
 30
0.0
 11
4.596
 21
3.516
 31
0.0
  0
LINE
  5
2AD
330
18
100
AcDbEntity
  8
0
100
AcDbLine
 10
4.475
 20
3.404
 30
0.0
 11
4.361000000000001
 21
3.298
 31
0.0
  0
LINE
  5
2AE
330
18
100
AcDbEntity
  8
0
100
AcDbLine
 10
4.361000000000001
 20
3.298
 30
0.0
 11
4.362
 21
3.25
 31
0.0
  0
LINE
  5
2AF
330
18
100
AcDbEntity
  8
0
100
AcDbLine
 10
4.475
 20
3.404
 30
0.0
 11
4.477
 21
3.356
 31
0.0
  0
LINE
  5
2B0
330
18
100
AcDbEntity
  8
0
100
AcDbLine
 10
4.477
 20
3.356
 30
0.0
 11
4.362
 21
3.25
 31
0.0
  0
LINE
  5
2B1
330
18
100
AcDbEntity
  8
0
100
AcDbLine
 10
4.477
 20
3.356
 30
0.0
 11
4.438
 21
3.369
 31
0.0
  0
LINE
  5
2B2
330
18
100
AcDbEntity
  8
0
100
AcDbLine
 10
4.306
 20
3.248
 30
0.0
 11
4.192
 21
3.142
 31
0.0
  0
LINE
  5
2B3
330
18
100
AcDbEntity
  8
0
100
AcDbLine
 10
4.192
 20
3.142
 30
0.0
 11
4.193000000000001
 21
3.093
 31
0.0
  0
LINE
  5
2B4
330
18
100
AcDbEntity
  8
0
100
AcDbLine
 10
4.306
 20
3.248
 30
0.0
 11
4.307
 21
3.199
 31
0.0
  0
LINE
  5
2B5
330
18
100
AcDbEntity
  8
0
100
AcDbLine
 10
4.307
 20
3.199
 30
0.0
 11
4.193000000000001
 21
3.093
 31
0.0
  0
LINE
  5
2B6
330
18
100
AcDbEntity
  8
0
100
AcDbLine
 10
4.307
 20
3.199
 30
0.0
 11
4.269
 21
3.213
 31
0.0
  0
LINE
  5
2B7
330
18
100
AcDbEntity
  8
0
100
AcDbLine
 10
4.13
 20
3.084
 30
0.0
 11
4.016
 21
2.978
 31
0.0
  0
LINE
  5
2B8
330
18
100
AcDbEntity
  8
0
100
AcDbLine
 10
4.016
 20
2.978
 30
0.0
 11
4.017
 21
2.93
 31
0.0
  0
LINE
  5
2B9
330
18
100
AcDbEntity
  8
0
100
AcDbLine
 10
4.13
 20
3.084
 30
0.0
 11
4.131
 21
3.036
 31
0.0
  0
LINE
  5
2BA
330
18
100
AcDbEntity
  8
0
100
AcDbLine
 10
4.131
 20
3.036
 30
0.0
 11
4.017
 21
2.93
 31
0.0
  0
LINE
  5
2BB
330
18
100
AcDbEntity
  8
0
100
AcDbLine
 10
4.131
 20
3.036
 30
0.0
 11
4.093
 21
3.049
 31
0.0
  0
LINE
  5
2BC
330
18
100
AcDbEntity
  8
0
100
AcDbLine
 10
3.958
 20
2.924
 30
0.0
 11
3.843
 21
2.818
 31
0.0
  0
LINE
  5
2BD
330
18
100
AcDbEntity
  8
0
100
AcDbLine
 10
3.843
 20
2.818
 30
0.0
 11
3.844
 21
2.77
 31
0.0
  0
LINE
  5
2BE
330
18
100
AcDbEntity
  8
0
100
AcDbLine
 10
3.958
 20
2.924
 30
0.0
 11
3.959
 21
2.876
 31
0.0
  0
LINE
  5
2BF
330
18
100
AcDbEntity
  8
0
100
AcDbLine
 10
3.959
 20
2.876
 30
0.0
 11
3.844
 21
2.77
 31
0.0
  0
LINE
  5
2C0
330
18
100
AcDbEntity
  8
0
100
AcDbLine
 10
3.959
 20
2.876
 30
0.0
 11
3.92
 21
2.89
 31
0.0
  0
LINE
  5
2C1
330
18
100
AcDbEntity
  8
0
100
AcDbLine
 10
3.786
 20
2.707
 30
0.0
 11
3.747
 21
2.721
 31
0.0
  0
LINE
  5
2C2
330
18
100
AcDbEntity
  8
0
100
AcDbLine
 10
3.786
 20
2.707
 30
0.0
 11
3.672
 21
2.601
 31
0.0
  0
LINE
  5
2C3
330
18
100
AcDbEntity
  8
0
100
AcDbLine
 10
3.785
 20
2.756
 30
0.0
 11
3.786
 21
2.707
 31
0.0
  0
LINE
  5
2C4
330
18
100
AcDbEntity
  8
0
100
AcDbLine
 10
3.67
 20
2.65
 30
0.0
 11
3.672
 21
2.601
 31
0.0
  0
LINE
  5
2C5
330
18
100
AcDbEntity
  8
0
100
AcDbLine
 10
3.785
 20
2.756
 30
0.0
 11
3.67
 21
2.65
 31
0.0
  0
LINE
  5
2C6
330
18
100
AcDbEntity
  8
0
100
AcDbLine
 10
4.633
 20
3.454
 30
0.0
 11
4.519
 21
3.348
 31
0.0
  0
LINE
  5
2C7
330
18
100
AcDbEntity
  8
0
100
AcDbLine
 10
4.519
 20
3.348
 30
0.0
 11
4.52
 21
3.299
 31
0.0
  0
LINE
  5
2C8
330
18
100
AcDbEntity
  8
0
100
AcDbLine
 10
4.633
 20
3.454
 30
0.0
 11
4.634
 21
3.405
 31
0.0
  0
LINE
  5
2C9
330
18
100
AcDbEntity
  8
0
100
AcDbLine
 10
4.634
 20
3.405
 30
0.0
 11
4.52
 21
3.299
 31
0.0
  0
LINE
  5
2CA
330
18
100
AcDbEntity
  8
0
100
AcDbLine
 10
4.634
 20
3.405
 30
0.0
 11
4.596
 21
3.419
 31
0.0
  0
LINE
  5
2CB
330
18
100
AcDbEntity
  8
0
100
AcDbLine
 10
4.475
 20
3.307
 30
0.0
 11
4.361000000000001
 21
3.201
 31
0.0
  0
LINE
  5
2CC
330
18
100
AcDbEntity
  8
0
100
AcDbLine
 10
4.361000000000001
 20
3.201
 30
0.0
 11
4.362
 21
3.152
 31
0.0
  0
LINE
  5
2CD
330
18
100
AcDbEntity
  8
0
100
AcDbLine
 10
4.475
 20
3.307
 30
0.0
 11
4.476
 21
3.258
 31
0.0
  0
LINE
  5
2CE
330
18
100
AcDbEntity
  8
0
100
AcDbLine
 10
4.476
 20
3.258
 30
0.0
 11
4.362
 21
3.152
 31
0.0
  0
LINE
  5
2CF
330
18
100
AcDbEntity
  8
0
100
AcDbLine
 10
4.476
 20
3.258
 30
0.0
 11
4.437
 21
3.272
 31
0.0
  0
LINE
  5
2D0
330
18
100
AcDbEntity
  8
0
100
AcDbLine
 10
4.306
 20
3.15
 30
0.0
 11
4.192
 21
3.044
 31
0.0
  0
LINE
  5
2D1
330
18
100
AcDbEntity
  8
0
100
AcDbLine
 10
4.192
 20
3.044
 30
0.0
 11
4.193000000000001
 21
2.996
 31
0.0
  0
LINE
  5
2D2
330
18
100
AcDbEntity
  8
0
100
AcDbLine
 10
4.306
 20
3.15
 30
0.0
 11
4.307
 21
3.102
 31
0.0
  0
LINE
  5
2D3
330
18
100
AcDbEntity
  8
0
100
AcDbLine
 10
4.307
 20
3.102
 30
0.0
 11
4.193000000000001
 21
2.996
 31
0.0
  0
LINE
  5
2D4
330
18
100
AcDbEntity
  8
0
100
AcDbLine
 10
4.307
 20
3.102
 30
0.0
 11
4.268
 21
3.115
 31
0.0
  0
LINE
  5
2D5
330
18
100
AcDbEntity
  8
0
100
AcDbLine
 10
4.13
 20
2.987
 30
0.0
 11
4.016
 21
2.881
 31
0.0
  0
LINE
  5
2D6
330
18
100
AcDbEntity
  8
0
100
AcDbLine
 10
4.016
 20
2.881
 30
0.0
 11
4.017
 21
2.832
 31
0.0
  0
LINE
  5
2D7
330
18
100
AcDbEntity
  8
0
100
AcDbLine
 10
4.13
 20
2.987
 30
0.0
 11
4.131
 21
2.938
 31
0.0
  0
LINE
  5
2D8
330
18
100
AcDbEntity
  8
0
100
AcDbLine
 10
4.131
 20
2.938
 30
0.0
 11
4.017
 21
2.832
 31
0.0
  0
LINE
  5
2D9
330
18
100
AcDbEntity
  8
0
100
AcDbLine
 10
4.131
 20
2.938
 30
0.0
 11
4.092
 21
2.952
 31
0.0
  0
LINE
  5
2DA
330
18
100
AcDbEntity
  8
0
100
AcDbLine
 10
3.957
 20
2.827
 30
0.0
 11
3.843
 21
2.721
 31
0.0
  0
LINE
  5
2DB
330
18
100
AcDbEntity
  8
0
100
AcDbLine
 10
3.843
 20
2.721
 30
0.0
 11
3.844
 21
2.672
 31
0.0
  0
LINE
  5
2DC
330
18
100
AcDbEntity
  8
0
100
AcDbLine
 10
3.957
 20
2.827
 30
0.0
 11
3.959
 21
2.778
 31
0.0
  0
LINE
  5
2DD
330
18
100
AcDbEntity
  8
0
100
AcDbLine
 10
3.959
 20
2.778
 30
0.0
 11
3.844
 21
2.672
 31
0.0
  0
LINE
  5
2DE
330
18
100
AcDbEntity
  8
0
100
AcDbLine
 10
3.959
 20
2.778
 30
0.0
 11
3.92
 21
2.792
 31
0.0
  0
LINE
  5
2DF
330
18
100
AcDbEntity
  8
0
100
AcDbLine
 10
3.786
 20
2.61
 30
0.0
 11
3.747
 21
2.623
 31
0.0
  0
LINE
  5
2E0
330
18
100
AcDbEntity
  8
0
100
AcDbLine
 10
3.786
 20
2.61
 30
0.0
 11
3.672
 21
2.504
 31
0.0
  0
LINE
  5
2E1
330
18
100
AcDbEntity
  8
0
100
AcDbLine
 10
3.785
 20
2.658
 30
0.0
 11
3.786
 21
2.61
 31
0.0
  0
LINE
  5
2E2
330
18
100
AcDbEntity
  8
0
100
AcDbLine
 10
3.67
 20
2.552
 30
0.0
 11
3.672
 21
2.504
 31
0.0
  0
LINE
  5
2E3
330
18
100
AcDbEntity
  8
0
100
AcDbLine
 10
3.785
 20
2.658
 30
0.0
 11
3.67
 21
2.552
 31
0.0
  0
LINE
  5
2E4
330
18
100
AcDbEntity
  8
0
100
AcDbLine
 10
4.634
 20
3.345
 30
0.0
 11
4.52
 21
3.239
 31
0.0
  0
LINE
  5
2E5
330
18
100
AcDbEntity
  8
0
100
AcDbLine
 10
4.52
 20
3.239
 30
0.0
 11
4.521
 21
3.19
 31
0.0
  0
LINE
  5
2E6
330
18
100
AcDbEntity
  8
0
100
AcDbLine
 10
4.634
 20
3.345
 30
0.0
 11
4.635
 21
3.296
 31
0.0
  0
LINE
  5
2E7
330
18
100
AcDbEntity
  8
0
100
AcDbLine
 10
4.635
 20
3.296
 30
0.0
 11
4.521
 21
3.19
 31
0.0
  0
LINE
  5
2E8
330
18
100
AcDbEntity
  8
0
100
AcDbLine
 10
4.635
 20
3.296
 30
0.0
 11
4.597
 21
3.31
 31
0.0
  0
LINE
  5
2E9
330
18
100
AcDbEntity
  8
0
100
AcDbLine
 10
4.476
 20
3.198
 30
0.0
 11
4.361000000000001
 21
3.092
 31
0.0
  0
LINE
  5
2EA
330
18
100
AcDbEntity
  8
0
100
AcDbLine
 10
4.361000000000001
 20
3.092
 30
0.0
 11
4.363
 21
3.044
 31
0.0
  0
LINE
  5
2EB
330
18
100
AcDbEntity
  8
0
100
AcDbLine
 10
4.476
 20
3.198
 30
0.0
 11
4.477
 21
3.15
 31
0.0
  0
LINE
  5
2EC
330
18
100
AcDbEntity
  8
0
100
AcDbLine
 10
4.477
 20
3.15
 30
0.0
 11
4.363
 21
3.044
 31
0.0
  0
LINE
  5
2ED
330
18
100
AcDbEntity
  8
0
100
AcDbLine
 10
4.477
 20
3.15
 30
0.0
 11
4.438
 21
3.163
 31
0.0
  0
LINE
  5
2EE
330
18
100
AcDbEntity
  8
0
100
AcDbLine
 10
4.307
 20
3.041
 30
0.0
 11
4.192
 21
2.936
 31
0.0
  0
LINE
  5
2EF
330
18
100
AcDbEntity
  8
0
100
AcDbLine
 10
4.192
 20
2.936
 30
0.0
 11
4.193000000000001
 21
2.887
 31
0.0
  0
LINE
  5
2F0
330
18
100
AcDbEntity
  8
0
100
AcDbLine
 10
4.307
 20
3.041
 30
0.0
 11
4.308
 21
2.993
 31
0.0
  0
LINE
  5
2F1
330
18
100
AcDbEntity
  8
0
100
AcDbLine
 10
4.308
 20
2.993
 30
0.0
 11
4.193000000000001
 21
2.887
 31
0.0
  0
LINE
  5
2F2
330
18
100
AcDbEntity
  8
0
100
AcDbLine
 10
4.308
 20
2.993
 30
0.0
 11
4.269
 21
3.007
 31
0.0
  0
LINE
  5
2F3
330
18
100
AcDbEntity
  8
0
100
AcDbLine
 10
4.13
 20
2.878
 30
0.0
 11
4.016
 21
2.772
 31
0.0
  0
LINE
  5
2F4
330
18
100
AcDbEntity
  8
0
100
AcDbLine
 10
4.016
 20
2.772
 30
0.0
 11
4.017
 21
2.724
 31
0.0
  0
LINE
  5
2F5
330
18
100
AcDbEntity
  8
0
100
AcDbLine
 10
4.13
 20
2.878
 30
0.0
 11
4.132
 21
2.83
 31
0.0
  0
LINE
  5
2F6
330
18
100
AcDbEntity
  8
0
100
AcDbLine
 10
4.132
 20
2.83
 30
0.0
 11
4.017
 21
2.724
 31
0.0
  0
LINE
  5
2F7
330
18
100
AcDbEntity
  8
0
100
AcDbLine
 10
4.132
 20
2.83
 30
0.0
 11
4.093
 21
2.843
 31
0.0
  0
LINE
  5
2F8
330
18
100
AcDbEntity
  8
0
100
AcDbLine
 10
3.958
 20
2.718
 30
0.0
 11
3.843
 21
2.612
 31
0.0
  0
LINE
  5
2F9
330
18
100
AcDbEntity
  8
0
100
AcDbLine
 10
3.843
 20
2.612
 30
0.0
 11
3.844
 21
2.564
 31
0.0
  0
LINE
  5
2FA
330
18
100
AcDbEntity
  8
0
100
AcDbLine
 10
3.958
 20
2.718
 30
0.0
 11
3.959
 21
2.67
 31
0.0
  0
LINE
  5
2FB
330
18
100
AcDbEntity
  8
0
100
AcDbLine
 10
3.959
 20
2.67
 30
0.0
 11
3.844
 21
2.564
 31
0.0
  0
LINE
  5
2FC
330
18
100
AcDbEntity
  8
0
100
AcDbLine
 10
3.959
 20
2.67
 30
0.0
 11
3.92
 21
2.684
 31
0.0
  0
LINE
  5
2FD
330
18
100
AcDbEntity
  8
0
100
AcDbLine
 10
3.786
 20
2.502
 30
0.0
 11
3.747
 21
2.515
 31
0.0
  0
LINE
  5
2FE
330
18
100
AcDbEntity
  8
0
100
AcDbLine
 10
3.786
 20
2.502
 30
0.0
 11
3.672
 21
2.396
 31
0.0
  0
LINE
  5
2FF
330
18
100
AcDbEntity
  8
0
100
AcDbLine
 10
3.785
 20
2.55
 30
0.0
 11
3.786
 21
2.502
 31
0.0
  0
LINE
  5
300
330
18
100
AcDbEntity
  8
0
100
AcDbLine
 10
3.67
 20
2.444
 30
0.0
 11
3.672
 21
2.396
 31
0.0
  0
LINE
  5
301
330
18
100
AcDbEntity
  8
0
100
AcDbLine
 10
3.785
 20
2.55
 30
0.0
 11
3.67
 21
2.444
 31
0.0
  0
LINE
  5
302
330
18
100
AcDbEntity
  8
0
100
AcDbLine
 10
4.633
 20
3.245
 30
0.0
 11
4.518
 21
3.139
 31
0.0
  0
LINE
  5
303
330
18
100
AcDbEntity
  8
0
100
AcDbLine
 10
4.518
 20
3.139
 30
0.0
 11
4.52
 21
3.09
 31
0.0
  0
LINE
  5
304
330
18
100
AcDbEntity
  8
0
100
AcDbLine
 10
4.633
 20
3.245
 30
0.0
 11
4.634
 21
3.196
 31
0.0
  0
LINE
  5
305
330
18
100
AcDbEntity
  8
0
100
AcDbLine
 10
4.634
 20
3.196
 30
0.0
 11
4.52
 21
3.09
 31
0.0
  0
LINE
  5
306
330
18
100
AcDbEntity
  8
0
100
AcDbLine
 10
4.634
 20
3.196
 30
0.0
 11
4.595
 21
3.21
 31
0.0
  0
LINE
  5
307
330
18
100
AcDbEntity
  8
0
100
AcDbLine
 10
4.475
 20
3.098
 30
0.0
 11
4.36
 21
2.992
 31
0.0
  0
LINE
  5
308
330
18
100
AcDbEntity
  8
0
100
AcDbLine
 10
4.36
 20
2.992
 30
0.0
 11
4.362
 21
2.944
 31
0.0
  0
LINE
  5
309
330
18
100
AcDbEntity
  8
0
100
AcDbLine
 10
4.475
 20
3.098
 30
0.0
 11
4.476
 21
3.05
 31
0.0
  0
LINE
  5
30A
330
18
100
AcDbEntity
  8
0
100
AcDbLine
 10
4.476
 20
3.05
 30
0.0
 11
4.362
 21
2.944
 31
0.0
  0
LINE
  5
30B
330
18
100
AcDbEntity
  8
0
100
AcDbLine
 10
4.476
 20
3.05
 30
0.0
 11
4.437
 21
3.063
 31
0.0
  0
LINE
  5
30C
330
18
100
AcDbEntity
  8
0
100
AcDbLine
 10
4.306
 20
2.941
 30
0.0
 11
4.191
 21
2.835
 31
0.0
  0
LINE
  5
30D
330
18
100
AcDbEntity
  8
0
100
AcDbLine
 10
4.191
 20
2.835
 30
0.0
 11
4.193000000000001
 21
2.787
 31
0.0
  0
LINE
  5
30E
330
18
100
AcDbEntity
  8
0
100
AcDbLine
 10
4.306
 20
2.941
 30
0.0
 11
4.307
 21
2.893
 31
0.0
  0
LINE
  5
30F
330
18
100
AcDbEntity
  8
0
100
AcDbLine
 10
4.307
 20
2.893
 30
0.0
 11
4.193000000000001
 21
2.787
 31
0.0
  0
LINE
  5
310
330
18
100
AcDbEntity
  8
0
100
AcDbLine
 10
4.307
 20
2.893
 30
0.0
 11
4.268
 21
2.906
 31
0.0
  0
LINE
  5
311
330
18
100
AcDbEntity
  8
0
100
AcDbLine
 10
4.13
 20
2.778
 30
0.0
 11
4.015
 21
2.672
 31
0.0
  0
LINE
  5
312
330
18
100
AcDbEntity
  8
0
100
AcDbLine
 10
4.015
 20
2.672
 30
0.0
 11
4.017
 21
2.623
 31
0.0
  0
LINE
  5
313
330
18
100
AcDbEntity
  8
0
100
AcDbLine
 10
4.13
 20
2.778
 30
0.0
 11
4.131
 21
2.729
 31
0.0
  0
LINE
  5
314
330
18
100
AcDbEntity
  8
0
100
AcDbLine
 10
4.131
 20
2.729
 30
0.0
 11
4.017
 21
2.623
 31
0.0
  0
LINE
  5
315
330
18
100
AcDbEntity
  8
0
100
AcDbLine
 10
4.131
 20
2.729
 30
0.0
 11
4.092
 21
2.743
 31
0.0
  0
LINE
  5
316
330
18
100
AcDbEntity
  8
0
100
AcDbLine
 10
3.957
 20
2.618
 30
0.0
 11
3.843
 21
2.512
 31
0.0
  0
LINE
  5
317
330
18
100
AcDbEntity
  8
0
100
AcDbLine
 10
3.843
 20
2.512
 30
0.0
 11
3.844
 21
2.463
 31
0.0
  0
LINE
  5
318
330
18
100
AcDbEntity
  8
0
100
AcDbLine
 10
3.957
 20
2.618
 30
0.0
 11
3.958
 21
2.569
 31
0.0
  0
LINE
  5
319
330
18
100
AcDbEntity
  8
0
100
AcDbLine
 10
3.958
 20
2.569
 30
0.0
 11
3.844
 21
2.463
 31
0.0
  0
LINE
  5
31A
330
18
100
AcDbEntity
  8
0
100
AcDbLine
 10
3.958
 20
2.569
 30
0.0
 11
3.92
 21
2.583
 31
0.0
  0
LINE
  5
31B
330
18
100
AcDbEntity
  8
0
100
AcDbLine
 10
3.786
 20
2.401
 30
0.0
 11
3.747
 21
2.414
 31
0.0
  0
LINE
  5
31C
330
18
100
AcDbEntity
  8
0
100
AcDbLine
 10
3.786
 20
2.401
 30
0.0
 11
3.672
 21
2.294
 31
0.0
  0
LINE
  5
31D
330
18
100
AcDbEntity
  8
0
100
AcDbLine
 10
3.785
 20
2.449
 30
0.0
 11
3.786
 21
2.401
 31
0.0
  0
LINE
  5
31E
330
18
100
AcDbEntity
  8
0
100
AcDbLine
 10
3.67
 20
2.343
 30
0.0
 11
3.672
 21
2.294
 31
0.0
  0
LINE
  5
31F
330
18
100
AcDbEntity
  8
0
100
AcDbLine
 10
3.785
 20
2.449
 30
0.0
 11
3.67
 21
2.343
 31
0.0
  0
LINE
  5
320
330
18
100
AcDbEntity
  8
0
100
AcDbLine
 10
4.62
 20
3.152
 30
0.0
 11
4.507
 21
3.045
 31
0.0
  0
LINE
  5
321
330
18
100
AcDbEntity
  8
0
100
AcDbLine
 10
4.507
 20
3.045
 30
0.0
 11
4.509
 21
2.996
 31
0.0
  0
LINE
  5
322
330
18
100
AcDbEntity
  8
0
100
AcDbLine
 10
4.62
 20
3.152
 30
0.0
 11
4.622
 21
3.104
 31
0.0
  0
LINE
  5
323
330
18
100
AcDbEntity
  8
0
100
AcDbLine
 10
4.622
 20
3.104
 30
0.0
 11
4.509
 21
2.996
 31
0.0
  0
LINE
  5
324
330
18
100
AcDbEntity
  8
0
100
AcDbLine
 10
4.622
 20
3.104
 30
0.0
 11
4.583
 21
3.117
 31
0.0
  0
LINE
  5
325
330
18
100
AcDbEntity
  8
0
100
AcDbLine
 10
4.464
 20
3.003
 30
0.0
 11
4.351
 21
2.895
 31
0.0
  0
LINE
  5
326
330
18
100
AcDbEntity
  8
0
100
AcDbLine
 10
4.351
 20
2.895
 30
0.0
 11
4.353
 21
2.847
 31
0.0
  0
LINE
  5
327
330
18
100
AcDbEntity
  8
0
100
AcDbLine
 10
4.464
 20
3.003
 30
0.0
 11
4.466
 21
2.955
 31
0.0
  0
LINE
  5
328
330
18
100
AcDbEntity
  8
0
100
AcDbLine
 10
4.466
 20
2.955
 30
0.0
 11
4.353
 21
2.847
 31
0.0
  0
LINE
  5
329
330
18
100
AcDbEntity
  8
0
100
AcDbLine
 10
4.466
 20
2.955
 30
0.0
 11
4.427
 21
2.968
 31
0.0
  0
LINE
  5
32A
330
18
100
AcDbEntity
  8
0
100
AcDbLine
 10
4.297
 20
2.844
 30
0.0
 11
4.184
 21
2.736
 31
0.0
  0
LINE
  5
32B
330
18
100
AcDbEntity
  8
0
100
AcDbLine
 10
4.184
 20
2.736
 30
0.0
 11
4.186
 21
2.688
 31
0.0
  0
LINE
  5
32C
330
18
100
AcDbEntity
  8
0
100
AcDbLine
 10
4.297
 20
2.844
 30
0.0
 11
4.299
 21
2.796
 31
0.0
  0
LINE
  5
32D
330
18
100
AcDbEntity
  8
0
100
AcDbLine
 10
4.299
 20
2.796
 30
0.0
 11
4.186
 21
2.688
 31
0.0
  0
LINE
  5
32E
330
18
100
AcDbEntity
  8
0
100
AcDbLine
 10
4.299
 20
2.796
 30
0.0
 11
4.26
 21
2.809
 31
0.0
  0
LINE
  5
32F
330
18
100
AcDbEntity
  8
0
100
AcDbLine
 10
4.123
 20
2.678
 30
0.0
 11
4.011
 21
2.57
 31
0.0
  0
LINE
  5
330
330
18
100
AcDbEntity
  8
0
100
AcDbLine
 10
4.011
 20
2.57
 30
0.0
 11
4.013
 21
2.522
 31
0.0
  0
LINE
  5
331
330
18
100
AcDbEntity
  8
0
100
AcDbLine
 10
4.123
 20
2.678
 30
0.0
 11
4.125
 21
2.629
 31
0.0
  0
LINE
  5
332
330
18
100
AcDbEntity
  8
0
100
AcDbLine
 10
4.125
 20
2.629
 30
0.0
 11
4.013
 21
2.522
 31
0.0
  0
LINE
  5
333
330
18
100
AcDbEntity
  8
0
100
AcDbLine
 10
4.125
 20
2.629
 30
0.0
 11
4.086
 21
2.643
 31
0.0
  0
LINE
  5
334
330
18
100
AcDbEntity
  8
0
100
AcDbLine
 10
3.953
 20
2.515
 30
0.0
 11
3.841
 21
2.408
 31
0.0
  0
LINE
  5
335
330
18
100
AcDbEntity
  8
0
100
AcDbLine
 10
3.841
 20
2.408
 30
0.0
 11
3.843
 21
2.359
 31
0.0
  0
LINE
  5
336
330
18
100
AcDbEntity
  8
0
100
AcDbLine
 10
3.953
 20
2.515
 30
0.0
 11
3.955
 21
2.467
 31
0.0
  0
LINE
  5
337
330
18
100
AcDbEntity
  8
0
100
AcDbLine
 10
3.955
 20
2.467
 30
0.0
 11
3.843
 21
2.359
 31
0.0
  0
LINE
  5
338
330
18
100
AcDbEntity
  8
0
100
AcDbLine
 10
3.955
 20
2.467
 30
0.0
 11
3.916
 21
2.48
 31
0.0
  0
LINE
  5
339
330
18
100
AcDbEntity
  8
0
100
AcDbLine
 10
3.785
 20
2.296
 30
0.0
 11
3.746
 21
2.309
 31
0.0
  0
LINE
  5
33A
330
18
100
AcDbEntity
  8
0
100
AcDbLine
 10
3.785
 20
2.296
 30
0.0
 11
3.673
 21
2.188
 31
0.0
  0
LINE
  5
33B
330
18
100
AcDbEntity
  8
0
100
AcDbLine
 10
3.783
 20
2.344
 30
0.0
 11
3.785
 21
2.296
 31
0.0
  0
LINE
  5
33C
330
18
100
AcDbEntity
  8
0
100
AcDbLine
 10
3.671
 20
2.236
 30
0.0
 11
3.673
 21
2.188
 31
0.0
  0
LINE
  5
33D
330
18
100
AcDbEntity
  8
0
100
AcDbLine
 10
3.783
 20
2.344
 30
0.0
 11
3.671
 21
2.236
 31
0.0
  0
LINE
  5
33E
330
18
100
AcDbEntity
  8
0
100
AcDbLine
 10
1.536
 20
6.22
 30
0.0
 11
1.719
 21
6.211
 31
0.0
  0
LINE
  5
33F
330
18
100
AcDbEntity
  8
0
100
AcDbLine
 10
1.536
 20
6.164
 30
0.0
 11
1.536
 21
6.22
 31
0.0
  0
LINE
  5
340
330
18
100
AcDbEntity
  8
0
100
AcDbLine
 10
1.536
 20
6.164
 30
0.0
 11
1.605
 21
6.217000000000001
 31
0.0
  0
LINE
  5
341
330
18
100
AcDbEntity
  8
0
100
AcDbLine
 10
3.612
 20
6.066
 30
0.0
 11
3.795
 21
6.057
 31
0.0
  0
LINE
  5
342
330
18
100
AcDbEntity
  8
0
100
AcDbLine
 10
3.612
 20
6.066
 30
0.0
 11
3.612
 21
6.122000000000001
 31
0.0
  0
LINE
  5
343
330
18
100
AcDbEntity
  8
0
100
AcDbLine
 10
3.795
 20
6.057
 30
0.0
 11
3.795
 21
6.113
 31
0.0
  0
LINE
  5
344
330
18
100
AcDbEntity
  8
0
100
AcDbLine
 10
3.612
 20
6.066
 30
0.0
 11
3.681
 21
6.119
 31
0.0
  0
LINE
  5
345
330
18
100
AcDbEntity
  8
0
100
AcDbLine
 10
3.373
 20
6.077000000000001
 30
0.0
 11
3.556
 21
6.069
 31
0.0
  0
LINE
  5
346
330
18
100
AcDbEntity
  8
0
100
AcDbLine
 10
3.373
 20
6.077000000000001
 30
0.0
 11
3.373
 21
6.132999999999999
 31
0.0
  0
LINE
  5
347
330
18
100
AcDbEntity
  8
0
100
AcDbLine
 10
3.556
 20
6.069
 30
0.0
 11
3.556
 21
6.124
 31
0.0
  0
LINE
  5
348
330
18
100
AcDbEntity
  8
0
100
AcDbLine
 10
3.373
 20
6.077000000000001
 30
0.0
 11
3.442
 21
6.13
 31
0.0
  0
LINE
  5
349
330
18
100
AcDbEntity
  8
0
100
AcDbLine
 10
3.137
 20
6.087999999999999
 30
0.0
 11
3.32
 21
6.08
 31
0.0
  0
LINE
  5
34A
330
18
100
AcDbEntity
  8
0
100
AcDbLine
 10
3.137
 20
6.087999999999999
 30
0.0
 11
3.137
 21
6.144
 31
0.0
  0
LINE
  5
34B
330
18
100
AcDbEntity
  8
0
100
AcDbLine
 10
3.32
 20
6.08
 30
0.0
 11
3.32
 21
6.136
 31
0.0
  0
LINE
  5
34C
330
18
100
AcDbEntity
  8
0
100
AcDbLine
 10
3.137
 20
6.087999999999999
 30
0.0
 11
3.206
 21
6.141
 31
0.0
  0
LINE
  5
34D
330
18
100
AcDbEntity
  8
0
100
AcDbLine
 10
3.863
 20
6.053999999999999
 30
0.0
 11
4.046
 21
6.046
 31
0.0
  0
LINE
  5
34E
330
18
100
AcDbEntity
  8
0
100
AcDbLine
 10
3.863
 20
6.053999999999999
 30
0.0
 11
3.863
 21
6.11
 31
0.0
  0
LINE
  5
34F
330
18
100
AcDbEntity
  8
0
100
AcDbLine
 10
4.046
 20
6.046
 30
0.0
 11
4.046
 21
6.101
 31
0.0
  0
LINE
  5
350
330
18
100
AcDbEntity
  8
0
100
AcDbLine
 10
3.863
 20
6.053999999999999
 30
0.0
 11
3.932
 21
6.107
 31
0.0
  0
LINE
  5
351
330
18
100
AcDbEntity
  8
0
100
AcDbLine
 10
2.914
 20
6.095
 30
0.0
 11
2.983
 21
6.147
 31
0.0
  0
LINE
  5
352
330
18
100
AcDbEntity
  8
0
100
AcDbLine
 10
3.097
 20
6.086
 30
0.0
 11
3.097
 21
6.142
 31
0.0
  0
LINE
  5
353
330
18
100
AcDbEntity
  8
0
100
AcDbLine
 10
2.914
 20
6.095
 30
0.0
 11
2.914
 21
6.151
 31
0.0
  0
LINE
  5
354
330
18
100
AcDbEntity
  8
0
100
AcDbLine
 10
2.914
 20
6.095
 30
0.0
 11
3.097
 21
6.086
 31
0.0
  0
LINE
  5
355
330
18
100
AcDbEntity
  8
0
100
AcDbLine
 10
1.536
 20
6.164
 30
0.0
 11
1.719
 21
6.155
 31
0.0
  0
LINE
  5
356
330
18
100
AcDbEntity
  8
0
100
AcDbLine
 10
1.719
 20
6.155
 30
0.0
 11
1.719
 21
6.211
 31
0.0
  0
LINE
  5
357
330
18
100
AcDbEntity
  8
0
100
AcDbLine
 10
2.677
 20
6.11
 30
0.0
 11
2.746
 21
6.162999999999999
 31
0.0
  0
LINE
  5
358
330
18
100
AcDbEntity
  8
0
100
AcDbLine
 10
2.86
 20
6.102
 30
0.0
 11
2.86
 21
6.157
 31
0.0
  0
LINE
  5
359
330
18
100
AcDbEntity
  8
0
100
AcDbLine
 10
2.677
 20
6.11
 30
0.0
 11
2.677
 21
6.166
 31
0.0
  0
LINE
  5
35A
330
18
100
AcDbEntity
  8
0
100
AcDbLine
 10
2.677
 20
6.11
 30
0.0
 11
2.86
 21
6.102
 31
0.0
  0
LINE
  5
35B
330
18
100
AcDbEntity
  8
0
100
AcDbLine
 10
2.677
 20
6.166
 30
0.0
 11
2.86
 21
6.157
 31
0.0
  0
LINE
  5
35C
330
18
100
AcDbEntity
  8
0
100
AcDbLine
 10
2.45
 20
6.121
 30
0.0
 11
2.519
 21
6.172999999999999
 31
0.0
  0
LINE
  5
35D
330
18
100
AcDbEntity
  8
0
100
AcDbLine
 10
2.633
 20
6.112
 30
0.0
 11
2.633
 21
6.167999999999999
 31
0.0
  0
LINE
  5
35E
330
18
100
AcDbEntity
  8
0
100
AcDbLine
 10
2.45
 20
6.121
 30
0.0
 11
2.45
 21
6.177000000000001
 31
0.0
  0
LINE
  5
35F
330
18
100
AcDbEntity
  8
0
100
AcDbLine
 10
2.45
 20
6.121
 30
0.0
 11
2.633
 21
6.112
 31
0.0
  0
LINE
  5
360
330
18
100
AcDbEntity
  8
0
100
AcDbLine
 10
2.45
 20
6.177000000000001
 30
0.0
 11
2.633
 21
6.167999999999999
 31
0.0
  0
LINE
  5
361
330
18
100
AcDbEntity
  8
0
100
AcDbLine
 10
1.77
 20
6.153
 30
0.0
 11
1.839
 21
6.206
 31
0.0
  0
LINE
  5
362
330
18
100
AcDbEntity
  8
0
100
AcDbLine
 10
1.953
 20
6.144
 30
0.0
 11
1.953
 21
6.2
 31
0.0
  0
LINE
  5
363
330
18
100
AcDbEntity
  8
0
100
AcDbLine
 10
1.77
 20
6.153
 30
0.0
 11
1.77
 21
6.209
 31
0.0
  0
LINE
  5
364
330
18
100
AcDbEntity
  8
0
100
AcDbLine
 10
1.77
 20
6.153
 30
0.0
 11
1.953
 21
6.144
 31
0.0
  0
LINE
  5
365
330
18
100
AcDbEntity
  8
0
100
AcDbLine
 10
1.77
 20
6.209
 30
0.0
 11
1.953
 21
6.2
 31
0.0
  0
LINE
  5
366
330
18
100
AcDbEntity
  8
0
100
AcDbLine
 10
1.998
 20
6.142
 30
0.0
 11
2.067
 21
6.195
 31
0.0
  0
LINE
  5
367
330
18
100
AcDbEntity
  8
0
100
AcDbLine
 10
2.181
 20
6.134
 30
0.0
 11
2.181
 21
6.189
 31
0.0
  0
LINE
  5
368
330
18
100
AcDbEntity
  8
0
100
AcDbLine
 10
1.998
 20
6.142
 30
0.0
 11
1.998
 21
6.198
 31
0.0
  0
LINE
  5
369
330
18
100
AcDbEntity
  8
0
100
AcDbLine
 10
1.998
 20
6.142
 30
0.0
 11
2.181
 21
6.134
 31
0.0
  0
LINE
  5
36A
330
18
100
AcDbEntity
  8
0
100
AcDbLine
 10
1.998
 20
6.198
 30
0.0
 11
2.181
 21
6.189
 31
0.0
  0
LINE
  5
36B
330
18
100
AcDbEntity
  8
0
100
AcDbLine
 10
2.223
 20
6.132000000000001
 30
0.0
 11
2.292
 21
6.184
 31
0.0
  0
LINE
  5
36C
330
18
100
AcDbEntity
  8
0
100
AcDbLine
 10
2.406
 20
6.122999999999999
 30
0.0
 11
2.406
 21
6.178999999999999
 31
0.0
  0
LINE
  5
36D
330
18
100
AcDbEntity
  8
0
100
AcDbLine
 10
2.223
 20
6.132000000000001
 30
0.0
 11
2.223
 21
6.187
 31
0.0
  0
LINE
  5
36E
330
18
100
AcDbEntity
  8
0
100
AcDbLine
 10
2.223
 20
6.132000000000001
 30
0.0
 11
2.406
 21
6.122999999999999
 31
0.0
  0
LINE
  5
36F
330
18
100
AcDbEntity
  8
0
100
AcDbLine
 10
2.223
 20
6.187
 30
0.0
 11
2.406
 21
6.178999999999999
 31
0.0
  0
LINE
  5
370
330
18
100
AcDbEntity
  8
0
100
AcDbLine
 10
3.612
 20
6.122000000000001
 30
0.0
 11
3.795
 21
6.113
 31
0.0
  0
LINE
  5
371
330
18
100
AcDbEntity
  8
0
100
AcDbLine
 10
3.373
 20
6.132999999999999
 30
0.0
 11
3.556
 21
6.124
 31
0.0
  0
LINE
  5
372
330
18
100
AcDbEntity
  8
0
100
AcDbLine
 10
3.137
 20
6.144
 30
0.0
 11
3.32
 21
6.136
 31
0.0
  0
LINE
  5
373
330
18
100
AcDbEntity
  8
0
100
AcDbLine
 10
3.863
 20
6.11
 30
0.0
 11
4.046
 21
6.101
 31
0.0
  0
LINE
  5
374
330
18
100
AcDbEntity
  8
0
100
AcDbLine
 10
2.914
 20
6.151
 30
0.0
 11
3.097
 21
6.142
 31
0.0
  0
LINE
  5
375
330
18
100
AcDbEntity
  8
0
100
AcDbLine
 10
1.536
 20
6.108
 30
0.0
 11
1.719
 21
6.099
 31
0.0
  0
LINE
  5
376
330
18
100
AcDbEntity
  8
0
100
AcDbLine
 10
1.536
 20
6.052000000000001
 30
0.0
 11
1.536
 21
6.108
 31
0.0
  0
LINE
  5
377
330
18
100
AcDbEntity
  8
0
100
AcDbLine
 10
1.536
 20
6.052000000000001
 30
0.0
 11
1.605
 21
6.105
 31
0.0
  0
LINE
  5
378
330
18
100
AcDbEntity
  8
0
100
AcDbLine
 10
3.612
 20
5.954
 30
0.0
 11
3.795
 21
5.945
 31
0.0
  0
LINE
  5
379
330
18
100
AcDbEntity
  8
0
100
AcDbLine
 10
3.612
 20
5.954
 30
0.0
 11
3.612
 21
6.01
 31
0.0
  0
LINE
  5
37A
330
18
100
AcDbEntity
  8
0
100
AcDbLine
 10
3.795
 20
5.945
 30
0.0
 11
3.795
 21
6.001
 31
0.0
  0
LINE
  5
37B
330
18
100
AcDbEntity
  8
0
100
AcDbLine
 10
3.612
 20
5.954
 30
0.0
 11
3.681
 21
6.007000000000001
 31
0.0
  0
LINE
  5
37C
330
18
100
AcDbEntity
  8
0
100
AcDbLine
 10
3.373
 20
5.965
 30
0.0
 11
3.556
 21
5.957000000000001
 31
0.0
  0
LINE
  5
37D
330
18
100
AcDbEntity
  8
0
100
AcDbLine
 10
3.373
 20
5.965
 30
0.0
 11
3.373
 21
6.021
 31
0.0
  0
LINE
  5
37E
330
18
100
AcDbEntity
  8
0
100
AcDbLine
 10
3.556
 20
5.957000000000001
 30
0.0
 11
3.556
 21
6.012000000000001
 31
0.0
  0
LINE
  5
37F
330
18
100
AcDbEntity
  8
0
100
AcDbLine
 10
3.373
 20
5.965
 30
0.0
 11
3.442
 21
6.018
 31
0.0
  0
LINE
  5
380
330
18
100
AcDbEntity
  8
0
100
AcDbLine
 10
3.137
 20
5.976
 30
0.0
 11
3.32
 21
5.968
 31
0.0
  0
LINE
  5
381
330
18
100
AcDbEntity
  8
0
100
AcDbLine
 10
3.137
 20
5.976
 30
0.0
 11
3.137
 21
6.032
 31
0.0
  0
LINE
  5
382
330
18
100
AcDbEntity
  8
0
100
AcDbLine
 10
3.32
 20
5.968
 30
0.0
 11
3.32
 21
6.024
 31
0.0
  0
LINE
  5
383
330
18
100
AcDbEntity
  8
0
100
AcDbLine
 10
3.137
 20
5.976
 30
0.0
 11
3.206
 21
6.029
 31
0.0
  0
LINE
  5
384
330
18
100
AcDbEntity
  8
0
100
AcDbLine
 10
3.863
 20
5.942
 30
0.0
 11
4.046
 21
5.934
 31
0.0
  0
LINE
  5
385
330
18
100
AcDbEntity
  8
0
100
AcDbLine
 10
3.863
 20
5.942
 30
0.0
 11
3.863
 21
5.997999999999999
 31
0.0
  0
LINE
  5
386
330
18
100
AcDbEntity
  8
0
100
AcDbLine
 10
4.046
 20
5.934
 30
0.0
 11
4.046
 21
5.989
 31
0.0
  0
LINE
  5
387
330
18
100
AcDbEntity
  8
0
100
AcDbLine
 10
3.863
 20
5.942
 30
0.0
 11
3.932
 21
5.995
 31
0.0
  0
LINE
  5
388
330
18
100
AcDbEntity
  8
0
100
AcDbLine
 10
2.914
 20
5.983
 30
0.0
 11
2.983
 21
6.035
 31
0.0
  0
LINE
  5
389
330
18
100
AcDbEntity
  8
0
100
AcDbLine
 10
3.097
 20
5.974
 30
0.0
 11
3.097
 21
6.03
 31
0.0
  0
LINE
  5
38A
330
18
100
AcDbEntity
  8
0
100
AcDbLine
 10
2.914
 20
5.983
 30
0.0
 11
2.914
 21
6.039
 31
0.0
  0
LINE
  5
38B
330
18
100
AcDbEntity
  8
0
100
AcDbLine
 10
2.914
 20
5.983
 30
0.0
 11
3.097
 21
5.974
 31
0.0
  0
LINE
  5
38C
330
18
100
AcDbEntity
  8
0
100
AcDbLine
 10
1.536
 20
6.052000000000001
 30
0.0
 11
1.719
 21
6.042999999999999
 31
0.0
  0
LINE
  5
38D
330
18
100
AcDbEntity
  8
0
100
AcDbLine
 10
1.719
 20
6.042999999999999
 30
0.0
 11
1.719
 21
6.099
 31
0.0
  0
LINE
  5
38E
330
18
100
AcDbEntity
  8
0
100
AcDbLine
 10
2.677
 20
5.997999999999999
 30
0.0
 11
2.746
 21
6.051
 31
0.0
  0
LINE
  5
38F
330
18
100
AcDbEntity
  8
0
100
AcDbLine
 10
2.86
 20
5.99
 30
0.0
 11
2.86
 21
6.045
 31
0.0
  0
LINE
  5
390
330
18
100
AcDbEntity
  8
0
100
AcDbLine
 10
2.677
 20
5.997999999999999
 30
0.0
 11
2.677
 21
6.053999999999999
 31
0.0
  0
LINE
  5
391
330
18
100
AcDbEntity
  8
0
100
AcDbLine
 10
2.677
 20
5.997999999999999
 30
0.0
 11
2.86
 21
5.99
 31
0.0
  0
LINE
  5
392
330
18
100
AcDbEntity
  8
0
100
AcDbLine
 10
2.677
 20
6.053999999999999
 30
0.0
 11
2.86
 21
6.045
 31
0.0
  0
LINE
  5
393
330
18
100
AcDbEntity
  8
0
100
AcDbLine
 10
2.45
 20
6.009
 30
0.0
 11
2.519
 21
6.061
 31
0.0
  0
LINE
  5
394
330
18
100
AcDbEntity
  8
0
100
AcDbLine
 10
2.633
 20
6.0
 30
0.0
 11
2.633
 21
6.056
 31
0.0
  0
LINE
  5
395
330
18
100
AcDbEntity
  8
0
100
AcDbLine
 10
2.45
 20
6.009
 30
0.0
 11
2.45
 21
6.065
 31
0.0
  0
LINE
  5
396
330
18
100
AcDbEntity
  8
0
100
AcDbLine
 10
2.45
 20
6.009
 30
0.0
 11
2.633
 21
6.0
 31
0.0
  0
LINE
  5
397
330
18
100
AcDbEntity
  8
0
100
AcDbLine
 10
2.45
 20
6.065
 30
0.0
 11
2.633
 21
6.056
 31
0.0
  0
LINE
  5
398
330
18
100
AcDbEntity
  8
0
100
AcDbLine
 10
1.77
 20
6.041
 30
0.0
 11
1.839
 21
6.093999999999999
 31
0.0
  0
LINE
  5
399
330
18
100
AcDbEntity
  8
0
100
AcDbLine
 10
1.953
 20
6.032
 30
0.0
 11
1.953
 21
6.087999999999999
 31
0.0
  0
LINE
  5
39A
330
18
100
AcDbEntity
  8
0
100
AcDbLine
 10
1.77
 20
6.041
 30
0.0
 11
1.77
 21
6.097
 31
0.0
  0
LINE
  5
39B
330
18
100
AcDbEntity
  8
0
100
AcDbLine
 10
1.77
 20
6.041
 30
0.0
 11
1.953
 21
6.032
 31
0.0
  0
LINE
  5
39C
330
18
100
AcDbEntity
  8
0
100
AcDbLine
 10
1.77
 20
6.097
 30
0.0
 11
1.953
 21
6.087999999999999
 31
0.0
  0
LINE
  5
39D
330
18
100
AcDbEntity
  8
0
100
AcDbLine
 10
1.998
 20
6.03
 30
0.0
 11
2.067
 21
6.082999999999999
 31
0.0
  0
LINE
  5
39E
330
18
100
AcDbEntity
  8
0
100
AcDbLine
 10
2.181
 20
6.022
 30
0.0
 11
2.181
 21
6.077000000000001
 31
0.0
  0
LINE
  5
39F
330
18
100
AcDbEntity
  8
0
100
AcDbLine
 10
1.998
 20
6.03
 30
0.0
 11
1.998
 21
6.086
 31
0.0
  0
LINE
  5
3A0
330
18
100
AcDbEntity
  8
0
100
AcDbLine
 10
1.998
 20
6.03
 30
0.0
 11
2.181
 21
6.022
 31
0.0
  0
LINE
  5
3A1
330
18
100
AcDbEntity
  8
0
100
AcDbLine
 10
1.998
 20
6.086
 30
0.0
 11
2.181
 21
6.077000000000001
 31
0.0
  0
LINE
  5
3A2
330
18
100
AcDbEntity
  8
0
100
AcDbLine
 10
2.223
 20
6.02
 30
0.0
 11
2.292
 21
6.072
 31
0.0
  0
LINE
  5
3A3
330
18
100
AcDbEntity
  8
0
100
AcDbLine
 10
2.406
 20
6.011
 30
0.0
 11
2.406
 21
6.067
 31
0.0
  0
LINE
  5
3A4
330
18
100
AcDbEntity
  8
0
100
AcDbLine
 10
2.223
 20
6.02
 30
0.0
 11
2.223
 21
6.075
 31
0.0
  0
LINE
  5
3A5
330
18
100
AcDbEntity
  8
0
100
AcDbLine
 10
2.223
 20
6.02
 30
0.0
 11
2.406
 21
6.011
 31
0.0
  0
LINE
  5
3A6
330
18
100
AcDbEntity
  8
0
100
AcDbLine
 10
2.223
 20
6.075
 30
0.0
 11
2.406
 21
6.067
 31
0.0
  0
LINE
  5
3A7
330
18
100
AcDbEntity
  8
0
100
AcDbLine
 10
3.612
 20
6.01
 30
0.0
 11
3.795
 21
6.001
 31
0.0
  0
LINE
  5
3A8
330
18
100
AcDbEntity
  8
0
100
AcDbLine
 10
3.373
 20
6.021
 30
0.0
 11
3.556
 21
6.012000000000001
 31
0.0
  0
LINE
  5
3A9
330
18
100
AcDbEntity
  8
0
100
AcDbLine
 10
3.137
 20
6.032
 30
0.0
 11
3.32
 21
6.024
 31
0.0
  0
LINE
  5
3AA
330
18
100
AcDbEntity
  8
0
100
AcDbLine
 10
3.863
 20
5.997999999999999
 30
0.0
 11
4.046
 21
5.989
 31
0.0
  0
LINE
  5
3AB
330
18
100
AcDbEntity
  8
0
100
AcDbLine
 10
2.914
 20
6.039
 30
0.0
 11
3.097
 21
6.03
 31
0.0
  0
LINE
  5
3AC
330
18
100
AcDbEntity
  8
0
100
AcDbLine
 10
1.536
 20
5.996
 30
0.0
 11
1.719
 21
5.987
 31
0.0
  0
LINE
  5
3AD
330
18
100
AcDbEntity
  8
0
100
AcDbLine
 10
1.536
 20
5.94
 30
0.0
 11
1.536
 21
5.996
 31
0.0
  0
LINE
  5
3AE
330
18
100
AcDbEntity
  8
0
100
AcDbLine
 10
1.536
 20
5.94
 30
0.0
 11
1.605
 21
5.992999999999999
 31
0.0
  0
LINE
  5
3AF
330
18
100
AcDbEntity
  8
0
100
AcDbLine
 10
3.612
 20
5.842000000000001
 30
0.0
 11
3.795
 21
5.832999999999999
 31
0.0
  0
LINE
  5
3B0
330
18
100
AcDbEntity
  8
0
100
AcDbLine
 10
3.612
 20
5.842000000000001
 30
0.0
 11
3.612
 21
5.898
 31
0.0
  0
LINE
  5
3B1
330
18
100
AcDbEntity
  8
0
100
AcDbLine
 10
3.795
 20
5.832999999999999
 30
0.0
 11
3.795
 21
5.888999999999999
 31
0.0
  0
LINE
  5
3B2
330
18
100
AcDbEntity
  8
0
100
AcDbLine
 10
3.612
 20
5.842000000000001
 30
0.0
 11
3.681
 21
5.895
 31
0.0
  0
LINE
  5
3B3
330
18
100
AcDbEntity
  8
0
100
AcDbLine
 10
3.373
 20
5.853
 30
0.0
 11
3.556
 21
5.845
 31
0.0
  0
LINE
  5
3B4
330
18
100
AcDbEntity
  8
0
100
AcDbLine
 10
3.373
 20
5.853
 30
0.0
 11
3.373
 21
5.909
 31
0.0
  0
LINE
  5
3B5
330
18
100
AcDbEntity
  8
0
100
AcDbLine
 10
3.556
 20
5.845
 30
0.0
 11
3.556
 21
5.9
 31
0.0
  0
LINE
  5
3B6
330
18
100
AcDbEntity
  8
0
100
AcDbLine
 10
3.373
 20
5.853
 30
0.0
 11
3.442
 21
5.906000000000001
 31
0.0
  0
LINE
  5
3B7
330
18
100
AcDbEntity
  8
0
100
AcDbLine
 10
3.137
 20
5.864
 30
0.0
 11
3.32
 21
5.856
 31
0.0
  0
LINE
  5
3B8
330
18
100
AcDbEntity
  8
0
100
AcDbLine
 10
3.137
 20
5.864
 30
0.0
 11
3.137
 21
5.92
 31
0.0
  0
LINE
  5
3B9
330
18
100
AcDbEntity
  8
0
100
AcDbLine
 10
3.32
 20
5.856
 30
0.0
 11
3.32
 21
5.912000000000001
 31
0.0
  0
LINE
  5
3BA
330
18
100
AcDbEntity
  8
0
100
AcDbLine
 10
3.137
 20
5.864
 30
0.0
 11
3.206
 21
5.917000000000001
 31
0.0
  0
LINE
  5
3BB
330
18
100
AcDbEntity
  8
0
100
AcDbLine
 10
3.863
 20
5.83
 30
0.0
 11
4.046
 21
5.822
 31
0.0
  0
LINE
  5
3BC
330
18
100
AcDbEntity
  8
0
100
AcDbLine
 10
3.863
 20
5.83
 30
0.0
 11
3.863
 21
5.886
 31
0.0
  0
LINE
  5
3BD
330
18
100
AcDbEntity
  8
0
100
AcDbLine
 10
4.046
 20
5.822
 30
0.0
 11
4.046
 21
5.877000000000001
 31
0.0
  0
LINE
  5
3BE
330
18
100
AcDbEntity
  8
0
100
AcDbLine
 10
3.863
 20
5.83
 30
0.0
 11
3.932
 21
5.882999999999999
 31
0.0
  0
LINE
  5
3BF
330
18
100
AcDbEntity
  8
0
100
AcDbLine
 10
2.914
 20
5.871
 30
0.0
 11
2.983
 21
5.922999999999999
 31
0.0
  0
LINE
  5
3C0
330
18
100
AcDbEntity
  8
0
100
AcDbLine
 10
3.097
 20
5.862
 30
0.0
 11
3.097
 21
5.917999999999999
 31
0.0
  0
LINE
  5
3C1
330
18
100
AcDbEntity
  8
0
100
AcDbLine
 10
2.914
 20
5.871
 30
0.0
 11
2.914
 21
5.927000000000001
 31
0.0
  0
LINE
  5
3C2
330
18
100
AcDbEntity
  8
0
100
AcDbLine
 10
2.914
 20
5.871
 30
0.0
 11
3.097
 21
5.862
 31
0.0
  0
LINE
  5
3C3
330
18
100
AcDbEntity
  8
0
100
AcDbLine
 10
1.536
 20
5.94
 30
0.0
 11
1.719
 21
5.931
 31
0.0
  0
LINE
  5
3C4
330
18
100
AcDbEntity
  8
0
100
AcDbLine
 10
1.719
 20
5.931
 30
0.0
 11
1.719
 21
5.987
 31
0.0
  0
LINE
  5
3C5
330
18
100
AcDbEntity
  8
0
100
AcDbLine
 10
2.677
 20
5.886
 30
0.0
 11
2.746
 21
5.939
 31
0.0
  0
LINE
  5
3C6
330
18
100
AcDbEntity
  8
0
100
AcDbLine
 10
2.86
 20
5.877999999999999
 30
0.0
 11
2.86
 21
5.933
 31
0.0
  0
LINE
  5
3C7
330
18
100
AcDbEntity
  8
0
100
AcDbLine
 10
2.677
 20
5.886
 30
0.0
 11
2.677
 21
5.942
 31
0.0
  0
LINE
  5
3C8
330
18
100
AcDbEntity
  8
0
100
AcDbLine
 10
2.677
 20
5.886
 30
0.0
 11
2.86
 21
5.877999999999999
 31
0.0
  0
LINE
  5
3C9
330
18
100
AcDbEntity
  8
0
100
AcDbLine
 10
2.677
 20
5.942
 30
0.0
 11
2.86
 21
5.933
 31
0.0
  0
LINE
  5
3CA
330
18
100
AcDbEntity
  8
0
100
AcDbLine
 10
2.45
 20
5.897
 30
0.0
 11
2.519
 21
5.949
 31
0.0
  0
LINE
  5
3CB
330
18
100
AcDbEntity
  8
0
100
AcDbLine
 10
2.633
 20
5.888
 30
0.0
 11
2.633
 21
5.944
 31
0.0
  0
LINE
  5
3CC
330
18
100
AcDbEntity
  8
0
100
AcDbLine
 10
2.45
 20
5.897
 30
0.0
 11
2.45
 21
5.952999999999999
 31
0.0
  0
LINE
  5
3CD
330
18
100
AcDbEntity
  8
0
100
AcDbLine
 10
2.45
 20
5.897
 30
0.0
 11
2.633
 21
5.888
 31
0.0
  0
LINE
  5
3CE
330
18
100
AcDbEntity
  8
0
100
AcDbLine
 10
2.45
 20
5.952999999999999
 30
0.0
 11
2.633
 21
5.944
 31
0.0
  0
LINE
  5
3CF
330
18
100
AcDbEntity
  8
0
100
AcDbLine
 10
1.77
 20
5.928999999999999
 30
0.0
 11
1.839
 21
5.981
 31
0.0
  0
LINE
  5
3D0
330
18
100
AcDbEntity
  8
0
100
AcDbLine
 10
1.953
 20
5.92
 30
0.0
 11
1.953
 21
5.976
 31
0.0
  0
LINE
  5
3D1
330
18
100
AcDbEntity
  8
0
100
AcDbLine
 10
1.77
 20
5.928999999999999
 30
0.0
 11
1.77
 21
5.985
 31
0.0
  0
LINE
  5
3D2
330
18
100
AcDbEntity
  8
0
100
AcDbLine
 10
1.77
 20
5.928999999999999
 30
0.0
 11
1.953
 21
5.92
 31
0.0
  0
LINE
  5
3D3
330
18
100
AcDbEntity
  8
0
100
AcDbLine
 10
1.77
 20
5.985
 30
0.0
 11
1.953
 21
5.976
 31
0.0
  0
LINE
  5
3D4
330
18
100
AcDbEntity
  8
0
100
AcDbLine
 10
1.998
 20
5.917999999999999
 30
0.0
 11
2.067
 21
5.971
 31
0.0
  0
LINE
  5
3D5
330
18
100
AcDbEntity
  8
0
100
AcDbLine
 10
2.181
 20
5.91
 30
0.0
 11
2.181
 21
5.965
 31
0.0
  0
LINE
  5
3D6
330
18
100
AcDbEntity
  8
0
100
AcDbLine
 10
1.998
 20
5.917999999999999
 30
0.0
 11
1.998
 21
5.974
 31
0.0
  0
LINE
  5
3D7
330
18
100
AcDbEntity
  8
0
100
AcDbLine
 10
1.998
 20
5.917999999999999
 30
0.0
 11
2.181
 21
5.91
 31
0.0
  0
LINE
  5
3D8
330
18
100
AcDbEntity
  8
0
100
AcDbLine
 10
1.998
 20
5.974
 30
0.0
 11
2.181
 21
5.965
 31
0.0
  0
LINE
  5
3D9
330
18
100
AcDbEntity
  8
0
100
AcDbLine
 10
2.223
 20
5.908
 30
0.0
 11
2.292
 21
5.96
 31
0.0
  0
LINE
  5
3DA
330
18
100
AcDbEntity
  8
0
100
AcDbLine
 10
2.406
 20
5.899
 30
0.0
 11
2.406
 21
5.955
 31
0.0
  0
LINE
  5
3DB
330
18
100
AcDbEntity
  8
0
100
AcDbLine
 10
2.223
 20
5.908
 30
0.0
 11
2.223
 21
5.962999999999999
 31
0.0
  0
LINE
  5
3DC
330
18
100
AcDbEntity
  8
0
100
AcDbLine
 10
2.223
 20
5.908
 30
0.0
 11
2.406
 21
5.899
 31
0.0
  0
LINE
  5
3DD
330
18
100
AcDbEntity
  8
0
100
AcDbLine
 10
2.223
 20
5.962999999999999
 30
0.0
 11
2.406
 21
5.955
 31
0.0
  0
LINE
  5
3DE
330
18
100
AcDbEntity
  8
0
100
AcDbLine
 10
3.612
 20
5.898
 30
0.0
 11
3.795
 21
5.888999999999999
 31
0.0
  0
LINE
  5
3DF
330
18
100
AcDbEntity
  8
0
100
AcDbLine
 10
3.373
 20
5.909
 30
0.0
 11
3.556
 21
5.9
 31
0.0
  0
LINE
  5
3E0
330
18
100
AcDbEntity
  8
0
100
AcDbLine
 10
3.137
 20
5.92
 30
0.0
 11
3.32
 21
5.912000000000001
 31
0.0
  0
LINE
  5
3E1
330
18
100
AcDbEntity
  8
0
100
AcDbLine
 10
3.863
 20
5.886
 30
0.0
 11
4.046
 21
5.877000000000001
 31
0.0
  0
LINE
  5
3E2
330
18
100
AcDbEntity
  8
0
100
AcDbLine
 10
2.914
 20
5.927000000000001
 30
0.0
 11
3.097
 21
5.917999999999999
 31
0.0
  0
LINE
  5
3E3
330
18
100
AcDbEntity
  8
0
100
AcDbLine
 10
1.536
 20
5.884
 30
0.0
 11
1.719
 21
5.875
 31
0.0
  0
LINE
  5
3E4
330
18
100
AcDbEntity
  8
0
100
AcDbLine
 10
1.536
 20
5.827999999999999
 30
0.0
 11
1.536
 21
5.884
 31
0.0
  0
LINE
  5
3E5
330
18
100
AcDbEntity
  8
0
100
AcDbLine
 10
1.536
 20
5.827999999999999
 30
0.0
 11
1.605
 21
5.881
 31
0.0
  0
LINE
  5
3E6
330
18
100
AcDbEntity
  8
0
100
AcDbLine
 10
3.612
 20
5.73
 30
0.0
 11
3.795
 21
5.721
 31
0.0
  0
LINE
  5
3E7
330
18
100
AcDbEntity
  8
0
100
AcDbLine
 10
3.612
 20
5.73
 30
0.0
 11
3.612
 21
5.786000000000001
 31
0.0
  0
LINE
  5
3E8
330
18
100
AcDbEntity
  8
0
100
AcDbLine
 10
3.795
 20
5.721
 30
0.0
 11
3.795
 21
5.777
 31
0.0
  0
LINE
  5
3E9
330
18
100
AcDbEntity
  8
0
100
AcDbLine
 10
3.612
 20
5.73
 30
0.0
 11
3.681
 21
5.782
 31
0.0
  0
LINE
  5
3EA
330
18
100
AcDbEntity
  8
0
100
AcDbLine
 10
3.373
 20
5.741000000000001
 30
0.0
 11
3.556
 21
5.733
 31
0.0
  0
LINE
  5
3EB
330
18
100
AcDbEntity
  8
0
100
AcDbLine
 10
3.373
 20
5.741000000000001
 30
0.0
 11
3.373
 21
5.797000000000001
 31
0.0
  0
LINE
  5
3EC
330
18
100
AcDbEntity
  8
0
100
AcDbLine
 10
3.556
 20
5.733
 30
0.0
 11
3.556
 21
5.787999999999999
 31
0.0
  0
LINE
  5
3ED
330
18
100
AcDbEntity
  8
0
100
AcDbLine
 10
3.373
 20
5.741000000000001
 30
0.0
 11
3.442
 21
5.794
 31
0.0
  0
LINE
  5
3EE
330
18
100
AcDbEntity
  8
0
100
AcDbLine
 10
3.137
 20
5.752000000000001
 30
0.0
 11
3.32
 21
5.744
 31
0.0
  0
LINE
  5
3EF
330
18
100
AcDbEntity
  8
0
100
AcDbLine
 10
3.137
 20
5.752000000000001
 30
0.0
 11
3.137
 21
5.808
 31
0.0
  0
LINE
  5
3F0
330
18
100
AcDbEntity
  8
0
100
AcDbLine
 10
3.32
 20
5.744
 30
0.0
 11
3.32
 21
5.8
 31
0.0
  0
LINE
  5
3F1
330
18
100
AcDbEntity
  8
0
100
AcDbLine
 10
3.137
 20
5.752000000000001
 30
0.0
 11
3.206
 21
5.805
 31
0.0
  0
LINE
  5
3F2
330
18
100
AcDbEntity
  8
0
100
AcDbLine
 10
3.863
 20
5.718
 30
0.0
 11
4.046
 21
5.71
 31
0.0
  0
LINE
  5
3F3
330
18
100
AcDbEntity
  8
0
100
AcDbLine
 10
3.863
 20
5.718
 30
0.0
 11
3.863
 21
5.774
 31
0.0
  0
LINE
  5
3F4
330
18
100
AcDbEntity
  8
0
100
AcDbLine
 10
4.046
 20
5.71
 30
0.0
 11
4.046
 21
5.765
 31
0.0
  0
LINE
  5
3F5
330
18
100
AcDbEntity
  8
0
100
AcDbLine
 10
3.863
 20
5.718
 30
0.0
 11
3.932
 21
5.771
 31
0.0
  0
LINE
  5
3F6
330
18
100
AcDbEntity
  8
0
100
AcDbLine
 10
2.914
 20
5.759
 30
0.0
 11
2.983
 21
5.811
 31
0.0
  0
LINE
  5
3F7
330
18
100
AcDbEntity
  8
0
100
AcDbLine
 10
3.097
 20
5.75
 30
0.0
 11
3.097
 21
5.806
 31
0.0
  0
LINE
  5
3F8
330
18
100
AcDbEntity
  8
0
100
AcDbLine
 10
2.914
 20
5.759
 30
0.0
 11
2.914
 21
5.815
 31
0.0
  0
LINE
  5
3F9
330
18
100
AcDbEntity
  8
0
100
AcDbLine
 10
2.914
 20
5.759
 30
0.0
 11
3.097
 21
5.75
 31
0.0
  0
LINE
  5
3FA
330
18
100
AcDbEntity
  8
0
100
AcDbLine
 10
1.536
 20
5.827999999999999
 30
0.0
 11
1.719
 21
5.819
 31
0.0
  0
LINE
  5
3FB
330
18
100
AcDbEntity
  8
0
100
AcDbLine
 10
1.719
 20
5.819
 30
0.0
 11
1.719
 21
5.875
 31
0.0
  0
LINE
  5
3FC
330
18
100
AcDbEntity
  8
0
100
AcDbLine
 10
2.677
 20
5.774
 30
0.0
 11
2.746
 21
5.827000000000001
 31
0.0
  0
LINE
  5
3FD
330
18
100
AcDbEntity
  8
0
100
AcDbLine
 10
2.86
 20
5.766
 30
0.0
 11
2.86
 21
5.821000000000001
 31
0.0
  0
LINE
  5
3FE
330
18
100
AcDbEntity
  8
0
100
AcDbLine
 10
2.677
 20
5.774
 30
0.0
 11
2.677
 21
5.83
 31
0.0
  0
LINE
  5
3FF
330
18
100
AcDbEntity
  8
0
100
AcDbLine
 10
2.677
 20
5.774
 30
0.0
 11
2.86
 21
5.766
 31
0.0
  0
LINE
  5
400
330
18
100
AcDbEntity
  8
0
100
AcDbLine
 10
2.677
 20
5.83
 30
0.0
 11
2.86
 21
5.821000000000001
 31
0.0
  0
LINE
  5
401
330
18
100
AcDbEntity
  8
0
100
AcDbLine
 10
2.45
 20
5.785
 30
0.0
 11
2.519
 21
5.837000000000001
 31
0.0
  0
LINE
  5
402
330
18
100
AcDbEntity
  8
0
100
AcDbLine
 10
2.633
 20
5.776
 30
0.0
 11
2.633
 21
5.832000000000001
 31
0.0
  0
LINE
  5
403
330
18
100
AcDbEntity
  8
0
100
AcDbLine
 10
2.45
 20
5.785
 30
0.0
 11
2.45
 21
5.841
 31
0.0
  0
LINE
  5
404
330
18
100
AcDbEntity
  8
0
100
AcDbLine
 10
2.45
 20
5.785
 30
0.0
 11
2.633
 21
5.776
 31
0.0
  0
LINE
  5
405
330
18
100
AcDbEntity
  8
0
100
AcDbLine
 10
2.45
 20
5.841
 30
0.0
 11
2.633
 21
5.832000000000001
 31
0.0
  0
LINE
  5
406
330
18
100
AcDbEntity
  8
0
100
AcDbLine
 10
1.77
 20
5.817
 30
0.0
 11
1.839
 21
5.869
 31
0.0
  0
LINE
  5
407
330
18
100
AcDbEntity
  8
0
100
AcDbLine
 10
1.953
 20
5.808
 30
0.0
 11
1.953
 21
5.864
 31
0.0
  0
LINE
  5
408
330
18
100
AcDbEntity
  8
0
100
AcDbLine
 10
1.77
 20
5.817
 30
0.0
 11
1.77
 21
5.872999999999999
 31
0.0
  0
LINE
  5
409
330
18
100
AcDbEntity
  8
0
100
AcDbLine
 10
1.77
 20
5.817
 30
0.0
 11
1.953
 21
5.808
 31
0.0
  0
LINE
  5
40A
330
18
100
AcDbEntity
  8
0
100
AcDbLine
 10
1.77
 20
5.872999999999999
 30
0.0
 11
1.953
 21
5.864
 31
0.0
  0
LINE
  5
40B
330
18
100
AcDbEntity
  8
0
100
AcDbLine
 10
1.998
 20
5.806
 30
0.0
 11
2.067
 21
5.859
 31
0.0
  0
LINE
  5
40C
330
18
100
AcDbEntity
  8
0
100
AcDbLine
 10
2.181
 20
5.797999999999999
 30
0.0
 11
2.181
 21
5.853
 31
0.0
  0
LINE
  5
40D
330
18
100
AcDbEntity
  8
0
100
AcDbLine
 10
1.998
 20
5.806
 30
0.0
 11
1.998
 21
5.862
 31
0.0
  0
LINE
  5
40E
330
18
100
AcDbEntity
  8
0
100
AcDbLine
 10
1.998
 20
5.806
 30
0.0
 11
2.181
 21
5.797999999999999
 31
0.0
  0
LINE
  5
40F
330
18
100
AcDbEntity
  8
0
100
AcDbLine
 10
1.998
 20
5.862
 30
0.0
 11
2.181
 21
5.853
 31
0.0
  0
LINE
  5
410
330
18
100
AcDbEntity
  8
0
100
AcDbLine
 10
2.223
 20
5.796
 30
0.0
 11
2.292
 21
5.848
 31
0.0
  0
LINE
  5
411
330
18
100
AcDbEntity
  8
0
100
AcDbLine
 10
2.406
 20
5.787000000000001
 30
0.0
 11
2.406
 21
5.843
 31
0.0
  0
LINE
  5
412
330
18
100
AcDbEntity
  8
0
100
AcDbLine
 10
2.223
 20
5.796
 30
0.0
 11
2.223
 21
5.851
 31
0.0
  0
LINE
  5
413
330
18
100
AcDbEntity
  8
0
100
AcDbLine
 10
2.223
 20
5.796
 30
0.0
 11
2.406
 21
5.787000000000001
 31
0.0
  0
LINE
  5
414
330
18
100
AcDbEntity
  8
0
100
AcDbLine
 10
2.223
 20
5.851
 30
0.0
 11
2.406
 21
5.843
 31
0.0
  0
LINE
  5
415
330
18
100
AcDbEntity
  8
0
100
AcDbLine
 10
3.612
 20
5.786000000000001
 30
0.0
 11
3.795
 21
5.777
 31
0.0
  0
LINE
  5
416
330
18
100
AcDbEntity
  8
0
100
AcDbLine
 10
3.373
 20
5.797000000000001
 30
0.0
 11
3.556
 21
5.787999999999999
 31
0.0
  0
LINE
  5
417
330
18
100
AcDbEntity
  8
0
100
AcDbLine
 10
3.137
 20
5.808
 30
0.0
 11
3.32
 21
5.8
 31
0.0
  0
LINE
  5
418
330
18
100
AcDbEntity
  8
0
100
AcDbLine
 10
3.863
 20
5.774
 30
0.0
 11
4.046
 21
5.765
 31
0.0
  0
LINE
  5
419
330
18
100
AcDbEntity
  8
0
100
AcDbLine
 10
2.914
 20
5.815
 30
0.0
 11
3.097
 21
5.806
 31
0.0
  0
LINE
  5
41A
330
18
100
AcDbEntity
  8
0
100
AcDbLine
 10
1.536
 20
5.772
 30
0.0
 11
1.719
 21
5.763
 31
0.0
  0
LINE
  5
41B
330
18
100
AcDbEntity
  8
0
100
AcDbLine
 10
1.536
 20
5.716
 30
0.0
 11
1.536
 21
5.772
 31
0.0
  0
LINE
  5
41C
330
18
100
AcDbEntity
  8
0
100
AcDbLine
 10
1.536
 20
5.716
 30
0.0
 11
1.605
 21
5.769
 31
0.0
  0
LINE
  5
41D
330
18
100
AcDbEntity
  8
0
100
AcDbLine
 10
3.612
 20
5.617999999999999
 30
0.0
 11
3.795
 21
5.609
 31
0.0
  0
LINE
  5
41E
330
18
100
AcDbEntity
  8
0
100
AcDbLine
 10
3.612
 20
5.617999999999999
 30
0.0
 11
3.612
 21
5.674
 31
0.0
  0
LINE
  5
41F
330
18
100
AcDbEntity
  8
0
100
AcDbLine
 10
3.795
 20
5.609
 30
0.0
 11
3.795
 21
5.665
 31
0.0
  0
LINE
  5
420
330
18
100
AcDbEntity
  8
0
100
AcDbLine
 10
3.612
 20
5.617999999999999
 30
0.0
 11
3.681
 21
5.67
 31
0.0
  0
LINE
  5
421
330
18
100
AcDbEntity
  8
0
100
AcDbLine
 10
3.373
 20
5.629
 30
0.0
 11
3.556
 21
5.621
 31
0.0
  0
LINE
  5
422
330
18
100
AcDbEntity
  8
0
100
AcDbLine
 10
3.373
 20
5.629
 30
0.0
 11
3.373
 21
5.685
 31
0.0
  0
LINE
  5
423
330
18
100
AcDbEntity
  8
0
100
AcDbLine
 10
3.556
 20
5.621
 30
0.0
 11
3.556
 21
5.676
 31
0.0
  0
LINE
  5
424
330
18
100
AcDbEntity
  8
0
100
AcDbLine
 10
3.373
 20
5.629
 30
0.0
 11
3.442
 21
5.682
 31
0.0
  0
LINE
  5
425
330
18
100
AcDbEntity
  8
0
100
AcDbLine
 10
3.137
 20
5.64
 30
0.0
 11
3.32
 21
5.632000000000001
 31
0.0
  0
LINE
  5
426
330
18
100
AcDbEntity
  8
0
100
AcDbLine
 10
3.137
 20
5.64
 30
0.0
 11
3.137
 21
5.696000000000001
 31
0.0
  0
LINE
  5
427
330
18
100
AcDbEntity
  8
0
100
AcDbLine
 10
3.32
 20
5.632000000000001
 30
0.0
 11
3.32
 21
5.687
 31
0.0
  0
LINE
  5
428
330
18
100
AcDbEntity
  8
0
100
AcDbLine
 10
3.137
 20
5.64
 30
0.0
 11
3.206
 21
5.693
 31
0.0
  0
LINE
  5
429
330
18
100
AcDbEntity
  8
0
100
AcDbLine
 10
3.863
 20
5.606
 30
0.0
 11
4.046
 21
5.597
 31
0.0
  0
LINE
  5
42A
330
18
100
AcDbEntity
  8
0
100
AcDbLine
 10
3.863
 20
5.606
 30
0.0
 11
3.863
 21
5.662000000000001
 31
0.0
  0
LINE
  5
42B
330
18
100
AcDbEntity
  8
0
100
AcDbLine
 10
4.046
 20
5.597
 30
0.0
 11
4.046
 21
5.653
 31
0.0
  0
LINE
  5
42C
330
18
100
AcDbEntity
  8
0
100
AcDbLine
 10
3.863
 20
5.606
 30
0.0
 11
3.932
 21
5.659
 31
0.0
  0
LINE
  5
42D
330
18
100
AcDbEntity
  8
0
100
AcDbLine
 10
2.914
 20
5.647
 30
0.0
 11
2.983
 21
5.699
 31
0.0
  0
LINE
  5
42E
330
18
100
AcDbEntity
  8
0
100
AcDbLine
 10
3.097
 20
5.638
 30
0.0
 11
3.097
 21
5.694
 31
0.0
  0
LINE
  5
42F
330
18
100
AcDbEntity
  8
0
100
AcDbLine
 10
2.914
 20
5.647
 30
0.0
 11
2.914
 21
5.702999999999999
 31
0.0
  0
LINE
  5
430
330
18
100
AcDbEntity
  8
0
100
AcDbLine
 10
2.914
 20
5.647
 30
0.0
 11
3.097
 21
5.638
 31
0.0
  0
LINE
  5
431
330
18
100
AcDbEntity
  8
0
100
AcDbLine
 10
1.536
 20
5.716
 30
0.0
 11
1.719
 21
5.707000000000001
 31
0.0
  0
LINE
  5
432
330
18
100
AcDbEntity
  8
0
100
AcDbLine
 10
1.719
 20
5.707000000000001
 30
0.0
 11
1.719
 21
5.763
 31
0.0
  0
LINE
  5
433
330
18
100
AcDbEntity
  8
0
100
AcDbLine
 10
2.677
 20
5.662000000000001
 30
0.0
 11
2.746
 21
5.715
 31
0.0
  0
LINE
  5
434
330
18
100
AcDbEntity
  8
0
100
AcDbLine
 10
2.86
 20
5.653
 30
0.0
 11
2.86
 21
5.709
 31
0.0
  0
LINE
  5
435
330
18
100
AcDbEntity
  8
0
100
AcDbLine
 10
2.677
 20
5.662000000000001
 30
0.0
 11
2.677
 21
5.718
 31
0.0
  0
LINE
  5
436
330
18
100
AcDbEntity
  8
0
100
AcDbLine
 10
2.677
 20
5.662000000000001
 30
0.0
 11
2.86
 21
5.653
 31
0.0
  0
LINE
  5
437
330
18
100
AcDbEntity
  8
0
100
AcDbLine
 10
2.677
 20
5.718
 30
0.0
 11
2.86
 21
5.709
 31
0.0
  0
LINE
  5
438
330
18
100
AcDbEntity
  8
0
100
AcDbLine
 10
2.45
 20
5.672999999999999
 30
0.0
 11
2.519
 21
5.725
 31
0.0
  0
LINE
  5
439
330
18
100
AcDbEntity
  8
0
100
AcDbLine
 10
2.633
 20
5.664
 30
0.0
 11
2.633
 21
5.72
 31
0.0
  0
LINE
  5
43A
330
18
100
AcDbEntity
  8
0
100
AcDbLine
 10
2.45
 20
5.672999999999999
 30
0.0
 11
2.45
 21
5.729
 31
0.0
  0
LINE
  5
43B
330
18
100
AcDbEntity
  8
0
100
AcDbLine
 10
2.45
 20
5.672999999999999
 30
0.0
 11
2.633
 21
5.664
 31
0.0
  0
LINE
  5
43C
330
18
100
AcDbEntity
  8
0
100
AcDbLine
 10
2.45
 20
5.729
 30
0.0
 11
2.633
 21
5.72
 31
0.0
  0
LINE
  5
43D
330
18
100
AcDbEntity
  8
0
100
AcDbLine
 10
1.77
 20
5.705
 30
0.0
 11
1.839
 21
5.757000000000001
 31
0.0
  0
LINE
  5
43E
330
18
100
AcDbEntity
  8
0
100
AcDbLine
 10
1.953
 20
5.696000000000001
 30
0.0
 11
1.953
 21
5.752000000000001
 31
0.0
  0
LINE
  5
43F
330
18
100
AcDbEntity
  8
0
100
AcDbLine
 10
1.77
 20
5.705
 30
0.0
 11
1.77
 21
5.761
 31
0.0
  0
LINE
  5
440
330
18
100
AcDbEntity
  8
0
100
AcDbLine
 10
1.77
 20
5.705
 30
0.0
 11
1.953
 21
5.696000000000001
 31
0.0
  0
LINE
  5
441
330
18
100
AcDbEntity
  8
0
100
AcDbLine
 10
1.77
 20
5.761
 30
0.0
 11
1.953
 21
5.752000000000001
 31
0.0
  0
LINE
  5
442
330
18
100
AcDbEntity
  8
0
100
AcDbLine
 10
1.998
 20
5.694
 30
0.0
 11
2.067
 21
5.747000000000001
 31
0.0
  0
LINE
  5
443
330
18
100
AcDbEntity
  8
0
100
AcDbLine
 10
2.181
 20
5.686
 30
0.0
 11
2.181
 21
5.741000000000001
 31
0.0
  0
LINE
  5
444
330
18
100
AcDbEntity
  8
0
100
AcDbLine
 10
1.998
 20
5.694
 30
0.0
 11
1.998
 21
5.75
 31
0.0
  0
LINE
  5
445
330
18
100
AcDbEntity
  8
0
100
AcDbLine
 10
1.998
 20
5.694
 30
0.0
 11
2.181
 21
5.686
 31
0.0
  0
LINE
  5
446
330
18
100
AcDbEntity
  8
0
100
AcDbLine
 10
1.998
 20
5.75
 30
0.0
 11
2.181
 21
5.741000000000001
 31
0.0
  0
LINE
  5
447
330
18
100
AcDbEntity
  8
0
100
AcDbLine
 10
2.223
 20
5.684
 30
0.0
 11
2.292
 21
5.736000000000001
 31
0.0
  0
LINE
  5
448
330
18
100
AcDbEntity
  8
0
100
AcDbLine
 10
2.406
 20
5.675
 30
0.0
 11
2.406
 21
5.731
 31
0.0
  0
LINE
  5
449
330
18
100
AcDbEntity
  8
0
100
AcDbLine
 10
2.223
 20
5.684
 30
0.0
 11
2.223
 21
5.739
 31
0.0
  0
LINE
  5
44A
330
18
100
AcDbEntity
  8
0
100
AcDbLine
 10
2.223
 20
5.684
 30
0.0
 11
2.406
 21
5.675
 31
0.0
  0
LINE
  5
44B
330
18
100
AcDbEntity
  8
0
100
AcDbLine
 10
2.223
 20
5.739
 30
0.0
 11
2.406
 21
5.731
 31
0.0
  0
LINE
  5
44C
330
18
100
AcDbEntity
  8
0
100
AcDbLine
 10
3.612
 20
5.674
 30
0.0
 11
3.795
 21
5.665
 31
0.0
  0
LINE
  5
44D
330
18
100
AcDbEntity
  8
0
100
AcDbLine
 10
3.373
 20
5.685
 30
0.0
 11
3.556
 21
5.676
 31
0.0
  0
LINE
  5
44E
330
18
100
AcDbEntity
  8
0
100
AcDbLine
 10
3.137
 20
5.696000000000001
 30
0.0
 11
3.32
 21
5.687
 31
0.0
  0
LINE
  5
44F
330
18
100
AcDbEntity
  8
0
100
AcDbLine
 10
3.863
 20
5.662000000000001
 30
0.0
 11
4.046
 21
5.653
 31
0.0
  0
LINE
  5
450
330
18
100
AcDbEntity
  8
0
100
AcDbLine
 10
2.914
 20
5.702999999999999
 30
0.0
 11
3.097
 21
5.694
 31
0.0
  0
LINE
  5
451
330
18
100
AcDbEntity
  8
0
100
AcDbLine
 10
1.536
 20
5.66
 30
0.0
 11
1.719
 21
5.651
 31
0.0
  0
LINE
  5
452
330
18
100
AcDbEntity
  8
0
100
AcDbLine
 10
1.536
 20
5.604
 30
0.0
 11
1.536
 21
5.66
 31
0.0
  0
LINE
  5
453
330
18
100
AcDbEntity
  8
0
100
AcDbLine
 10
1.536
 20
5.604
 30
0.0
 11
1.605
 21
5.657
 31
0.0
  0
LINE
  5
454
330
18
100
AcDbEntity
  8
0
100
AcDbLine
 10
3.612
 20
5.506
 30
0.0
 11
3.795
 21
5.497000000000001
 31
0.0
  0
LINE
  5
455
330
18
100
AcDbEntity
  8
0
100
AcDbLine
 10
3.612
 20
5.506
 30
0.0
 11
3.612
 21
5.562
 31
0.0
  0
LINE
  5
456
330
18
100
AcDbEntity
  8
0
100
AcDbLine
 10
3.795
 20
5.497000000000001
 30
0.0
 11
3.795
 21
5.553
 31
0.0
  0
LINE
  5
457
330
18
100
AcDbEntity
  8
0
100
AcDbLine
 10
3.612
 20
5.506
 30
0.0
 11
3.681
 21
5.558
 31
0.0
  0
LINE
  5
458
330
18
100
AcDbEntity
  8
0
100
AcDbLine
 10
3.373
 20
5.517
 30
0.0
 11
3.556
 21
5.509
 31
0.0
  0
LINE
  5
459
330
18
100
AcDbEntity
  8
0
100
AcDbLine
 10
3.373
 20
5.517
 30
0.0
 11
3.373
 21
5.573
 31
0.0
  0
LINE
  5
45A
330
18
100
AcDbEntity
  8
0
100
AcDbLine
 10
3.556
 20
5.509
 30
0.0
 11
3.556
 21
5.564
 31
0.0
  0
LINE
  5
45B
330
18
100
AcDbEntity
  8
0
100
AcDbLine
 10
3.373
 20
5.517
 30
0.0
 11
3.442
 21
5.57
 31
0.0
  0
LINE
  5
45C
330
18
100
AcDbEntity
  8
0
100
AcDbLine
 10
3.137
 20
5.528
 30
0.0
 11
3.32
 21
5.52
 31
0.0
  0
LINE
  5
45D
330
18
100
AcDbEntity
  8
0
100
AcDbLine
 10
3.137
 20
5.528
 30
0.0
 11
3.137
 21
5.584
 31
0.0
  0
LINE
  5
45E
330
18
100
AcDbEntity
  8
0
100
AcDbLine
 10
3.32
 20
5.52
 30
0.0
 11
3.32
 21
5.575
 31
0.0
  0
LINE
  5
45F
330
18
100
AcDbEntity
  8
0
100
AcDbLine
 10
3.137
 20
5.528
 30
0.0
 11
3.206
 21
5.581
 31
0.0
  0
LINE
  5
460
330
18
100
AcDbEntity
  8
0
100
AcDbLine
 10
3.863
 20
5.494
 30
0.0
 11
4.046
 21
5.485
 31
0.0
  0
LINE
  5
461
330
18
100
AcDbEntity
  8
0
100
AcDbLine
 10
3.863
 20
5.494
 30
0.0
 11
3.863
 21
5.55
 31
0.0
  0
LINE
  5
462
330
18
100
AcDbEntity
  8
0
100
AcDbLine
 10
4.046
 20
5.485
 30
0.0
 11
4.046
 21
5.541
 31
0.0
  0
LINE
  5
463
330
18
100
AcDbEntity
  8
0
100
AcDbLine
 10
3.863
 20
5.494
 30
0.0
 11
3.932
 21
5.547000000000001
 31
0.0
  0
LINE
  5
464
330
18
100
AcDbEntity
  8
0
100
AcDbLine
 10
2.914
 20
5.535
 30
0.0
 11
2.983
 21
5.587000000000001
 31
0.0
  0
LINE
  5
465
330
18
100
AcDbEntity
  8
0
100
AcDbLine
 10
3.097
 20
5.526
 30
0.0
 11
3.097
 21
5.582000000000001
 31
0.0
  0
LINE
  5
466
330
18
100
AcDbEntity
  8
0
100
AcDbLine
 10
2.914
 20
5.535
 30
0.0
 11
2.914
 21
5.591
 31
0.0
  0
LINE
  5
467
330
18
100
AcDbEntity
  8
0
100
AcDbLine
 10
2.914
 20
5.535
 30
0.0
 11
3.097
 21
5.526
 31
0.0
  0
LINE
  5
468
330
18
100
AcDbEntity
  8
0
100
AcDbLine
 10
1.536
 20
5.604
 30
0.0
 11
1.719
 21
5.595
 31
0.0
  0
LINE
  5
469
330
18
100
AcDbEntity
  8
0
100
AcDbLine
 10
1.719
 20
5.595
 30
0.0
 11
1.719
 21
5.651
 31
0.0
  0
LINE
  5
46A
330
18
100
AcDbEntity
  8
0
100
AcDbLine
 10
2.677
 20
5.55
 30
0.0
 11
2.746
 21
5.603
 31
0.0
  0
LINE
  5
46B
330
18
100
AcDbEntity
  8
0
100
AcDbLine
 10
2.86
 20
5.541
 30
0.0
 11
2.86
 21
5.597
 31
0.0
  0
LINE
  5
46C
330
18
100
AcDbEntity
  8
0
100
AcDbLine
 10
2.677
 20
5.55
 30
0.0
 11
2.677
 21
5.606
 31
0.0
  0
LINE
  5
46D
330
18
100
AcDbEntity
  8
0
100
AcDbLine
 10
2.677
 20
5.55
 30
0.0
 11
2.86
 21
5.541
 31
0.0
  0
LINE
  5
46E
330
18
100
AcDbEntity
  8
0
100
AcDbLine
 10
2.677
 20
5.606
 30
0.0
 11
2.86
 21
5.597
 31
0.0
  0
LINE
  5
46F
330
18
100
AcDbEntity
  8
0
100
AcDbLine
 10
2.45
 20
5.561
 30
0.0
 11
2.519
 21
5.613
 31
0.0
  0
LINE
  5
470
330
18
100
AcDbEntity
  8
0
100
AcDbLine
 10
2.633
 20
5.552000000000001
 30
0.0
 11
2.633
 21
5.608
 31
0.0
  0
LINE
  5
471
330
18
100
AcDbEntity
  8
0
100
AcDbLine
 10
2.45
 20
5.561
 30
0.0
 11
2.45
 21
5.617000000000001
 31
0.0
  0
LINE
  5
472
330
18
100
AcDbEntity
  8
0
100
AcDbLine
 10
2.45
 20
5.561
 30
0.0
 11
2.633
 21
5.552000000000001
 31
0.0
  0
LINE
  5
473
330
18
100
AcDbEntity
  8
0
100
AcDbLine
 10
2.45
 20
5.617000000000001
 30
0.0
 11
2.633
 21
5.608
 31
0.0
  0
LINE
  5
474
330
18
100
AcDbEntity
  8
0
100
AcDbLine
 10
1.77
 20
5.593
 30
0.0
 11
1.839
 21
5.645
 31
0.0
  0
LINE
  5
475
330
18
100
AcDbEntity
  8
0
100
AcDbLine
 10
1.953
 20
5.584
 30
0.0
 11
1.953
 21
5.64
 31
0.0
  0
LINE
  5
476
330
18
100
AcDbEntity
  8
0
100
AcDbLine
 10
1.77
 20
5.593
 30
0.0
 11
1.77
 21
5.649
 31
0.0
  0
LINE
  5
477
330
18
100
AcDbEntity
  8
0
100
AcDbLine
 10
1.77
 20
5.593
 30
0.0
 11
1.953
 21
5.584
 31
0.0
  0
LINE
  5
478
330
18
100
AcDbEntity
  8
0
100
AcDbLine
 10
1.77
 20
5.649
 30
0.0
 11
1.953
 21
5.64
 31
0.0
  0
LINE
  5
479
330
18
100
AcDbEntity
  8
0
100
AcDbLine
 10
1.998
 20
5.582000000000001
 30
0.0
 11
2.067
 21
5.635
 31
0.0
  0
LINE
  5
47A
330
18
100
AcDbEntity
  8
0
100
AcDbLine
 10
2.181
 20
5.574
 30
0.0
 11
2.181
 21
5.629
 31
0.0
  0
LINE
  5
47B
330
18
100
AcDbEntity
  8
0
100
AcDbLine
 10
1.998
 20
5.582000000000001
 30
0.0
 11
1.998
 21
5.638
 31
0.0
  0
LINE
  5
47C
330
18
100
AcDbEntity
  8
0
100
AcDbLine
 10
1.998
 20
5.582000000000001
 30
0.0
 11
2.181
 21
5.574
 31
0.0
  0
LINE
  5
47D
330
18
100
AcDbEntity
  8
0
100
AcDbLine
 10
1.998
 20
5.638
 30
0.0
 11
2.181
 21
5.629
 31
0.0
  0
LINE
  5
47E
330
18
100
AcDbEntity
  8
0
100
AcDbLine
 10
2.223
 20
5.572
 30
0.0
 11
2.292
 21
5.624
 31
0.0
  0
LINE
  5
47F
330
18
100
AcDbEntity
  8
0
100
AcDbLine
 10
2.406
 20
5.563
 30
0.0
 11
2.406
 21
5.619
 31
0.0
  0
LINE
  5
480
330
18
100
AcDbEntity
  8
0
100
AcDbLine
 10
2.223
 20
5.572
 30
0.0
 11
2.223
 21
5.627000000000001
 31
0.0
  0
LINE
  5
481
330
18
100
AcDbEntity
  8
0
100
AcDbLine
 10
2.223
 20
5.572
 30
0.0
 11
2.406
 21
5.563
 31
0.0
  0
LINE
  5
482
330
18
100
AcDbEntity
  8
0
100
AcDbLine
 10
2.223
 20
5.627000000000001
 30
0.0
 11
2.406
 21
5.619
 31
0.0
  0
LINE
  5
483
330
18
100
AcDbEntity
  8
0
100
AcDbLine
 10
3.612
 20
5.562
 30
0.0
 11
3.795
 21
5.553
 31
0.0
  0
LINE
  5
484
330
18
100
AcDbEntity
  8
0
100
AcDbLine
 10
3.373
 20
5.573
 30
0.0
 11
3.556
 21
5.564
 31
0.0
  0
LINE
  5
485
330
18
100
AcDbEntity
  8
0
100
AcDbLine
 10
3.137
 20
5.584
 30
0.0
 11
3.32
 21
5.575
 31
0.0
  0
LINE
  5
486
330
18
100
AcDbEntity
  8
0
100
AcDbLine
 10
3.863
 20
5.55
 30
0.0
 11
4.046
 21
5.541
 31
0.0
  0
LINE
  5
487
330
18
100
AcDbEntity
  8
0
100
AcDbLine
 10
2.914
 20
5.591
 30
0.0
 11
3.097
 21
5.582000000000001
 31
0.0
  0
LINE
  5
488
330
18
100
AcDbEntity
  8
0
100
AcDbLine
 10
1.536
 20
5.547999999999999
 30
0.0
 11
1.719
 21
5.539
 31
0.0
  0
LINE
  5
489
330
18
100
AcDbEntity
  8
0
100
AcDbLine
 10
1.536
 20
5.492000000000001
 30
0.0
 11
1.536
 21
5.547999999999999
 31
0.0
  0
LINE
  5
48A
330
18
100
AcDbEntity
  8
0
100
AcDbLine
 10
1.536
 20
5.492000000000001
 30
0.0
 11
1.605
 21
5.544
 31
0.0
  0
LINE
  5
48B
330
18
100
AcDbEntity
  8
0
100
AcDbLine
 10
3.612
 20
5.394
 30
0.0
 11
3.795
 21
5.385
 31
0.0
  0
LINE
  5
48C
330
18
100
AcDbEntity
  8
0
100
AcDbLine
 10
3.612
 20
5.394
 30
0.0
 11
3.612
 21
5.45
 31
0.0
  0
LINE
  5
48D
330
18
100
AcDbEntity
  8
0
100
AcDbLine
 10
3.795
 20
5.385
 30
0.0
 11
3.795
 21
5.441
 31
0.0
  0
LINE
  5
48E
330
18
100
AcDbEntity
  8
0
100
AcDbLine
 10
3.612
 20
5.394
 30
0.0
 11
3.681
 21
5.446000000000001
 31
0.0
  0
LINE
  5
48F
330
18
100
AcDbEntity
  8
0
100
AcDbLine
 10
3.373
 20
5.405
 30
0.0
 11
3.556
 21
5.397
 31
0.0
  0
LINE
  5
490
330
18
100
AcDbEntity
  8
0
100
AcDbLine
 10
3.373
 20
5.405
 30
0.0
 11
3.373
 21
5.461
 31
0.0
  0
LINE
  5
491
330
18
100
AcDbEntity
  8
0
100
AcDbLine
 10
3.556
 20
5.397
 30
0.0
 11
3.556
 21
5.452000000000001
 31
0.0
  0
LINE
  5
492
330
18
100
AcDbEntity
  8
0
100
AcDbLine
 10
3.373
 20
5.405
 30
0.0
 11
3.442
 21
5.457999999999999
 31
0.0
  0
LINE
  5
493
330
18
100
AcDbEntity
  8
0
100
AcDbLine
 10
3.137
 20
5.416
 30
0.0
 11
3.32
 21
5.408
 31
0.0
  0
LINE
  5
494
330
18
100
AcDbEntity
  8
0
100
AcDbLine
 10
3.137
 20
5.416
 30
0.0
 11
3.137
 21
5.472
 31
0.0
  0
LINE
  5
495
330
18
100
AcDbEntity
  8
0
100
AcDbLine
 10
3.32
 20
5.408
 30
0.0
 11
3.32
 21
5.462999999999999
 31
0.0
  0
LINE
  5
496
330
18
100
AcDbEntity
  8
0
100
AcDbLine
 10
3.137
 20
5.416
 30
0.0
 11
3.206
 21
5.468999999999999
 31
0.0
  0
LINE
  5
497
330
18
100
AcDbEntity
  8
0
100
AcDbLine
 10
3.863
 20
5.382000000000001
 30
0.0
 11
4.046
 21
5.372999999999999
 31
0.0
  0
LINE
  5
498
330
18
100
AcDbEntity
  8
0
100
AcDbLine
 10
3.863
 20
5.382000000000001
 30
0.0
 11
3.863
 21
5.438
 31
0.0
  0
LINE
  5
499
330
18
100
AcDbEntity
  8
0
100
AcDbLine
 10
4.046
 20
5.372999999999999
 30
0.0
 11
4.046
 21
5.428999999999999
 31
0.0
  0
LINE
  5
49A
330
18
100
AcDbEntity
  8
0
100
AcDbLine
 10
3.863
 20
5.382000000000001
 30
0.0
 11
3.932
 21
5.435
 31
0.0
  0
LINE
  5
49B
330
18
100
AcDbEntity
  8
0
100
AcDbLine
 10
2.914
 20
5.422999999999999
 30
0.0
 11
2.983
 21
5.475
 31
0.0
  0
LINE
  5
49C
330
18
100
AcDbEntity
  8
0
100
AcDbLine
 10
3.097
 20
5.414
 30
0.0
 11
3.097
 21
5.47
 31
0.0
  0
LINE
  5
49D
330
18
100
AcDbEntity
  8
0
100
AcDbLine
 10
2.914
 20
5.422999999999999
 30
0.0
 11
2.914
 21
5.479
 31
0.0
  0
LINE
  5
49E
330
18
100
AcDbEntity
  8
0
100
AcDbLine
 10
2.914
 20
5.422999999999999
 30
0.0
 11
3.097
 21
5.414
 31
0.0
  0
LINE
  5
49F
330
18
100
AcDbEntity
  8
0
100
AcDbLine
 10
1.536
 20
5.492000000000001
 30
0.0
 11
1.719
 21
5.483
 31
0.0
  0
LINE
  5
4A0
330
18
100
AcDbEntity
  8
0
100
AcDbLine
 10
1.719
 20
5.483
 30
0.0
 11
1.719
 21
5.539
 31
0.0
  0
LINE
  5
4A1
330
18
100
AcDbEntity
  8
0
100
AcDbLine
 10
2.677
 20
5.438
 30
0.0
 11
2.746
 21
5.491000000000001
 31
0.0
  0
LINE
  5
4A2
330
18
100
AcDbEntity
  8
0
100
AcDbLine
 10
2.86
 20
5.428999999999999
 30
0.0
 11
2.86
 21
5.485
 31
0.0
  0
LINE
  5
4A3
330
18
100
AcDbEntity
  8
0
100
AcDbLine
 10
2.677
 20
5.438
 30
0.0
 11
2.677
 21
5.494
 31
0.0
  0
LINE
  5
4A4
330
18
100
AcDbEntity
  8
0
100
AcDbLine
 10
2.677
 20
5.438
 30
0.0
 11
2.86
 21
5.428999999999999
 31
0.0
  0
LINE
  5
4A5
330
18
100
AcDbEntity
  8
0
100
AcDbLine
 10
2.677
 20
5.494
 30
0.0
 11
2.86
 21
5.485
 31
0.0
  0
LINE
  5
4A6
330
18
100
AcDbEntity
  8
0
100
AcDbLine
 10
2.45
 20
5.449
 30
0.0
 11
2.519
 21
5.501
 31
0.0
  0
LINE
  5
4A7
330
18
100
AcDbEntity
  8
0
100
AcDbLine
 10
2.633
 20
5.44
 30
0.0
 11
2.633
 21
5.496
 31
0.0
  0
LINE
  5
4A8
330
18
100
AcDbEntity
  8
0
100
AcDbLine
 10
2.45
 20
5.449
 30
0.0
 11
2.45
 21
5.505
 31
0.0
  0
LINE
  5
4A9
330
18
100
AcDbEntity
  8
0
100
AcDbLine
 10
2.45
 20
5.449
 30
0.0
 11
2.633
 21
5.44
 31
0.0
  0
LINE
  5
4AA
330
18
100
AcDbEntity
  8
0
100
AcDbLine
 10
2.45
 20
5.505
 30
0.0
 11
2.633
 21
5.496
 31
0.0
  0
LINE
  5
4AB
330
18
100
AcDbEntity
  8
0
100
AcDbLine
 10
1.77
 20
5.481
 30
0.0
 11
1.839
 21
5.533
 31
0.0
  0
LINE
  5
4AC
330
18
100
AcDbEntity
  8
0
100
AcDbLine
 10
1.953
 20
5.472
 30
0.0
 11
1.953
 21
5.528
 31
0.0
  0
LINE
  5
4AD
330
18
100
AcDbEntity
  8
0
100
AcDbLine
 10
1.77
 20
5.481
 30
0.0
 11
1.77
 21
5.537000000000001
 31
0.0
  0
LINE
  5
4AE
330
18
100
AcDbEntity
  8
0
100
AcDbLine
 10
1.77
 20
5.481
 30
0.0
 11
1.953
 21
5.472
 31
0.0
  0
LINE
  5
4AF
330
18
100
AcDbEntity
  8
0
100
AcDbLine
 10
1.77
 20
5.537000000000001
 30
0.0
 11
1.953
 21
5.528
 31
0.0
  0
LINE
  5
4B0
330
18
100
AcDbEntity
  8
0
100
AcDbLine
 10
1.998
 20
5.47
 30
0.0
 11
2.067
 21
5.523
 31
0.0
  0
LINE
  5
4B1
330
18
100
AcDbEntity
  8
0
100
AcDbLine
 10
2.181
 20
5.462000000000001
 30
0.0
 11
2.181
 21
5.517
 31
0.0
  0
LINE
  5
4B2
330
18
100
AcDbEntity
  8
0
100
AcDbLine
 10
1.998
 20
5.47
 30
0.0
 11
1.998
 21
5.526
 31
0.0
  0
LINE
  5
4B3
330
18
100
AcDbEntity
  8
0
100
AcDbLine
 10
1.998
 20
5.47
 30
0.0
 11
2.181
 21
5.462000000000001
 31
0.0
  0
LINE
  5
4B4
330
18
100
AcDbEntity
  8
0
100
AcDbLine
 10
1.998
 20
5.526
 30
0.0
 11
2.181
 21
5.517
 31
0.0
  0
LINE
  5
4B5
330
18
100
AcDbEntity
  8
0
100
AcDbLine
 10
2.223
 20
5.46
 30
0.0
 11
2.292
 21
5.512000000000001
 31
0.0
  0
LINE
  5
4B6
330
18
100
AcDbEntity
  8
0
100
AcDbLine
 10
2.406
 20
5.451000000000001
 30
0.0
 11
2.406
 21
5.507000000000001
 31
0.0
  0
LINE
  5
4B7
330
18
100
AcDbEntity
  8
0
100
AcDbLine
 10
2.223
 20
5.46
 30
0.0
 11
2.223
 21
5.515
 31
0.0
  0
LINE
  5
4B8
330
18
100
AcDbEntity
  8
0
100
AcDbLine
 10
2.223
 20
5.46
 30
0.0
 11
2.406
 21
5.451000000000001
 31
0.0
  0
LINE
  5
4B9
330
18
100
AcDbEntity
  8
0
100
AcDbLine
 10
2.223
 20
5.515
 30
0.0
 11
2.406
 21
5.507000000000001
 31
0.0
  0
LINE
  5
4BA
330
18
100
AcDbEntity
  8
0
100
AcDbLine
 10
3.612
 20
5.45
 30
0.0
 11
3.795
 21
5.441
 31
0.0
  0
LINE
  5
4BB
330
18
100
AcDbEntity
  8
0
100
AcDbLine
 10
3.373
 20
5.461
 30
0.0
 11
3.556
 21
5.452000000000001
 31
0.0
  0
LINE
  5
4BC
330
18
100
AcDbEntity
  8
0
100
AcDbLine
 10
3.137
 20
5.472
 30
0.0
 11
3.32
 21
5.462999999999999
 31
0.0
  0
LINE
  5
4BD
330
18
100
AcDbEntity
  8
0
100
AcDbLine
 10
3.863
 20
5.438
 30
0.0
 11
4.046
 21
5.428999999999999
 31
0.0
  0
LINE
  5
4BE
330
18
100
AcDbEntity
  8
0
100
AcDbLine
 10
2.914
 20
5.479
 30
0.0
 11
3.097
 21
5.47
 31
0.0
  0
LINE
  5
4BF
330
18
100
AcDbEntity
  8
0
100
AcDbLine
 10
1.536
 20
5.436
 30
0.0
 11
1.719
 21
5.427000000000001
 31
0.0
  0
LINE
  5
4C0
330
18
100
AcDbEntity
  8
0
100
AcDbLine
 10
1.536
 20
5.38
 30
0.0
 11
1.536
 21
5.436
 31
0.0
  0
LINE
  5
4C1
330
18
100
AcDbEntity
  8
0
100
AcDbLine
 10
1.536
 20
5.38
 30
0.0
 11
1.605
 21
5.432
 31
0.0
  0
LINE
  5
4C2
330
18
100
AcDbEntity
  8
0
100
AcDbLine
 10
3.612
 20
5.282
 30
0.0
 11
3.795
 21
5.273
 31
0.0
  0
LINE
  5
4C3
330
18
100
AcDbEntity
  8
0
100
AcDbLine
 10
3.612
 20
5.282
 30
0.0
 11
3.612
 21
5.337999999999999
 31
0.0
  0
LINE
  5
4C4
330
18
100
AcDbEntity
  8
0
100
AcDbLine
 10
3.795
 20
5.273
 30
0.0
 11
3.795
 21
5.329
 31
0.0
  0
LINE
  5
4C5
330
18
100
AcDbEntity
  8
0
100
AcDbLine
 10
3.612
 20
5.282
 30
0.0
 11
3.681
 21
5.334
 31
0.0
  0
LINE
  5
4C6
330
18
100
AcDbEntity
  8
0
100
AcDbLine
 10
3.373
 20
5.292999999999999
 30
0.0
 11
3.556
 21
5.285
 31
0.0
  0
LINE
  5
4C7
330
18
100
AcDbEntity
  8
0
100
AcDbLine
 10
3.373
 20
5.292999999999999
 30
0.0
 11
3.373
 21
5.349
 31
0.0
  0
LINE
  5
4C8
330
18
100
AcDbEntity
  8
0
100
AcDbLine
 10
3.556
 20
5.285
 30
0.0
 11
3.556
 21
5.34
 31
0.0
  0
LINE
  5
4C9
330
18
100
AcDbEntity
  8
0
100
AcDbLine
 10
3.373
 20
5.292999999999999
 30
0.0
 11
3.442
 21
5.346
 31
0.0
  0
LINE
  5
4CA
330
18
100
AcDbEntity
  8
0
100
AcDbLine
 10
3.137
 20
5.303999999999999
 30
0.0
 11
3.32
 21
5.296
 31
0.0
  0
LINE
  5
4CB
330
18
100
AcDbEntity
  8
0
100
AcDbLine
 10
3.137
 20
5.303999999999999
 30
0.0
 11
3.137
 21
5.36
 31
0.0
  0
LINE
  5
4CC
330
18
100
AcDbEntity
  8
0
100
AcDbLine
 10
3.32
 20
5.296
 30
0.0
 11
3.32
 21
5.351
 31
0.0
  0
LINE
  5
4CD
330
18
100
AcDbEntity
  8
0
100
AcDbLine
 10
3.137
 20
5.303999999999999
 30
0.0
 11
3.206
 21
5.357
 31
0.0
  0
LINE
  5
4CE
330
18
100
AcDbEntity
  8
0
100
AcDbLine
 10
3.863
 20
5.27
 30
0.0
 11
4.046
 21
5.261
 31
0.0
  0
LINE
  5
4CF
330
18
100
AcDbEntity
  8
0
100
AcDbLine
 10
3.863
 20
5.27
 30
0.0
 11
3.863
 21
5.326000000000001
 31
0.0
  0
LINE
  5
4D0
330
18
100
AcDbEntity
  8
0
100
AcDbLine
 10
4.046
 20
5.261
 30
0.0
 11
4.046
 21
5.317
 31
0.0
  0
LINE
  5
4D1
330
18
100
AcDbEntity
  8
0
100
AcDbLine
 10
3.863
 20
5.27
 30
0.0
 11
3.932
 21
5.323
 31
0.0
  0
LINE
  5
4D2
330
18
100
AcDbEntity
  8
0
100
AcDbLine
 10
2.914
 20
5.311
 30
0.0
 11
2.983
 21
5.363
 31
0.0
  0
LINE
  5
4D3
330
18
100
AcDbEntity
  8
0
100
AcDbLine
 10
3.097
 20
5.302000000000001
 30
0.0
 11
3.097
 21
5.358
 31
0.0
  0
LINE
  5
4D4
330
18
100
AcDbEntity
  8
0
100
AcDbLine
 10
2.914
 20
5.311
 30
0.0
 11
2.914
 21
5.367000000000001
 31
0.0
  0
LINE
  5
4D5
330
18
100
AcDbEntity
  8
0
100
AcDbLine
 10
2.914
 20
5.311
 30
0.0
 11
3.097
 21
5.302000000000001
 31
0.0
  0
LINE
  5
4D6
330
18
100
AcDbEntity
  8
0
100
AcDbLine
 10
1.536
 20
5.38
 30
0.0
 11
1.719
 21
5.371
 31
0.0
  0
LINE
  5
4D7
330
18
100
AcDbEntity
  8
0
100
AcDbLine
 10
1.719
 20
5.371
 30
0.0
 11
1.719
 21
5.427000000000001
 31
0.0
  0
LINE
  5
4D8
330
18
100
AcDbEntity
  8
0
100
AcDbLine
 10
2.677
 20
5.326000000000001
 30
0.0
 11
2.746
 21
5.379
 31
0.0
  0
LINE
  5
4D9
330
18
100
AcDbEntity
  8
0
100
AcDbLine
 10
2.86
 20
5.317
 30
0.0
 11
2.86
 21
5.372999999999999
 31
0.0
  0
LINE
  5
4DA
330
18
100
AcDbEntity
  8
0
100
AcDbLine
 10
2.677
 20
5.326000000000001
 30
0.0
 11
2.677
 21
5.382000000000001
 31
0.0
  0
LINE
  5
4DB
330
18
100
AcDbEntity
  8
0
100
AcDbLine
 10
2.677
 20
5.326000000000001
 30
0.0
 11
2.86
 21
5.317
 31
0.0
  0
LINE
  5
4DC
330
18
100
AcDbEntity
  8
0
100
AcDbLine
 10
2.677
 20
5.382000000000001
 30
0.0
 11
2.86
 21
5.372999999999999
 31
0.0
  0
LINE
  5
4DD
330
18
100
AcDbEntity
  8
0
100
AcDbLine
 10
2.45
 20
5.337000000000001
 30
0.0
 11
2.519
 21
5.388999999999999
 31
0.0
  0
LINE
  5
4DE
330
18
100
AcDbEntity
  8
0
100
AcDbLine
 10
2.633
 20
5.327999999999999
 30
0.0
 11
2.633
 21
5.384
 31
0.0
  0
LINE
  5
4DF
330
18
100
AcDbEntity
  8
0
100
AcDbLine
 10
2.45
 20
5.337000000000001
 30
0.0
 11
2.45
 21
5.393
 31
0.0
  0
LINE
  5
4E0
330
18
100
AcDbEntity
  8
0
100
AcDbLine
 10
2.45
 20
5.337000000000001
 30
0.0
 11
2.633
 21
5.327999999999999
 31
0.0
  0
LINE
  5
4E1
330
18
100
AcDbEntity
  8
0
100
AcDbLine
 10
2.45
 20
5.393
 30
0.0
 11
2.633
 21
5.384
 31
0.0
  0
LINE
  5
4E2
330
18
100
AcDbEntity
  8
0
100
AcDbLine
 10
1.77
 20
5.369
 30
0.0
 11
1.839
 21
5.421
 31
0.0
  0
LINE
  5
4E3
330
18
100
AcDbEntity
  8
0
100
AcDbLine
 10
1.953
 20
5.36
 30
0.0
 11
1.953
 21
5.416
 31
0.0
  0
LINE
  5
4E4
330
18
100
AcDbEntity
  8
0
100
AcDbLine
 10
1.77
 20
5.369
 30
0.0
 11
1.77
 21
5.425
 31
0.0
  0
LINE
  5
4E5
330
18
100
AcDbEntity
  8
0
100
AcDbLine
 10
1.77
 20
5.369
 30
0.0
 11
1.953
 21
5.36
 31
0.0
  0
LINE
  5
4E6
330
18
100
AcDbEntity
  8
0
100
AcDbLine
 10
1.77
 20
5.425
 30
0.0
 11
1.953
 21
5.416
 31
0.0
  0
LINE
  5
4E7
330
18
100
AcDbEntity
  8
0
100
AcDbLine
 10
1.998
 20
5.358
 30
0.0
 11
2.067
 21
5.411000000000001
 31
0.0
  0
LINE
  5
4E8
330
18
100
AcDbEntity
  8
0
100
AcDbLine
 10
2.181
 20
5.35
 30
0.0
 11
2.181
 21
5.405
 31
0.0
  0
LINE
  5
4E9
330
18
100
AcDbEntity
  8
0
100
AcDbLine
 10
1.998
 20
5.358
 30
0.0
 11
1.998
 21
5.414
 31
0.0
  0
LINE
  5
4EA
330
18
100
AcDbEntity
  8
0
100
AcDbLine
 10
1.998
 20
5.358
 30
0.0
 11
2.181
 21
5.35
 31
0.0
  0
LINE
  5
4EB
330
18
100
AcDbEntity
  8
0
100
AcDbLine
 10
1.998
 20
5.414
 30
0.0
 11
2.181
 21
5.405
 31
0.0
  0
LINE
  5
4EC
330
18
100
AcDbEntity
  8
0
100
AcDbLine
 10
2.223
 20
5.348
 30
0.0
 11
2.292
 21
5.4
 31
0.0
  0
LINE
  5
4ED
330
18
100
AcDbEntity
  8
0
100
AcDbLine
 10
2.406
 20
5.339
 30
0.0
 11
2.406
 21
5.395
 31
0.0
  0
LINE
  5
4EE
330
18
100
AcDbEntity
  8
0
100
AcDbLine
 10
2.223
 20
5.348
 30
0.0
 11
2.223
 21
5.403
 31
0.0
  0
LINE
  5
4EF
330
18
100
AcDbEntity
  8
0
100
AcDbLine
 10
2.223
 20
5.348
 30
0.0
 11
2.406
 21
5.339
 31
0.0
  0
LINE
  5
4F0
330
18
100
AcDbEntity
  8
0
100
AcDbLine
 10
2.223
 20
5.403
 30
0.0
 11
2.406
 21
5.395
 31
0.0
  0
LINE
  5
4F1
330
18
100
AcDbEntity
  8
0
100
AcDbLine
 10
3.612
 20
5.337999999999999
 30
0.0
 11
3.795
 21
5.329
 31
0.0
  0
LINE
  5
4F2
330
18
100
AcDbEntity
  8
0
100
AcDbLine
 10
3.373
 20
5.349
 30
0.0
 11
3.556
 21
5.34
 31
0.0
  0
LINE
  5
4F3
330
18
100
AcDbEntity
  8
0
100
AcDbLine
 10
3.137
 20
5.36
 30
0.0
 11
3.32
 21
5.351
 31
0.0
  0
LINE
  5
4F4
330
18
100
AcDbEntity
  8
0
100
AcDbLine
 10
3.863
 20
5.326000000000001
 30
0.0
 11
4.046
 21
5.317
 31
0.0
  0
LINE
  5
4F5
330
18
100
AcDbEntity
  8
0
100
AcDbLine
 10
2.914
 20
5.367000000000001
 30
0.0
 11
3.097
 21
5.358
 31
0.0
  0
LINE
  5
4F6
330
18
100
AcDbEntity
  8
0
100
AcDbLine
 10
1.536
 20
5.324
 30
0.0
 11
1.719
 21
5.315
 31
0.0
  0
LINE
  5
4F7
330
18
100
AcDbEntity
  8
0
100
AcDbLine
 10
1.536
 20
5.268
 30
0.0
 11
1.536
 21
5.324
 31
0.0
  0
LINE
  5
4F8
330
18
100
AcDbEntity
  8
0
100
AcDbLine
 10
1.536
 20
5.268
 30
0.0
 11
1.605
 21
5.32
 31
0.0
  0
LINE
  5
4F9
330
18
100
AcDbEntity
  8
0
100
AcDbLine
 10
3.612
 20
5.17
 30
0.0
 11
3.795
 21
5.161000000000001
 31
0.0
  0
LINE
  5
4FA
330
18
100
AcDbEntity
  8
0
100
AcDbLine
 10
3.612
 20
5.17
 30
0.0
 11
3.612
 21
5.226
 31
0.0
  0
LINE
  5
4FB
330
18
100
AcDbEntity
  8
0
100
AcDbLine
 10
3.795
 20
5.161000000000001
 30
0.0
 11
3.795
 21
5.217000000000001
 31
0.0
  0
LINE
  5
4FC
330
18
100
AcDbEntity
  8
0
100
AcDbLine
 10
3.612
 20
5.17
 30
0.0
 11
3.681
 21
5.222
 31
0.0
  0
LINE
  5
4FD
330
18
100
AcDbEntity
  8
0
100
AcDbLine
 10
3.373
 20
5.181
 30
0.0
 11
3.556
 21
5.172999999999999
 31
0.0
  0
LINE
  5
4FE
330
18
100
AcDbEntity
  8
0
100
AcDbLine
 10
3.373
 20
5.181
 30
0.0
 11
3.373
 21
5.237
 31
0.0
  0
LINE
  5
4FF
330
18
100
AcDbEntity
  8
0
100
AcDbLine
 10
3.556
 20
5.172999999999999
 30
0.0
 11
3.556
 21
5.228
 31
0.0
  0
LINE
  5
500
330
18
100
AcDbEntity
  8
0
100
AcDbLine
 10
3.373
 20
5.181
 30
0.0
 11
3.442
 21
5.234
 31
0.0
  0
LINE
  5
501
330
18
100
AcDbEntity
  8
0
100
AcDbLine
 10
3.137
 20
5.192
 30
0.0
 11
3.32
 21
5.184
 31
0.0
  0
LINE
  5
502
330
18
100
AcDbEntity
  8
0
100
AcDbLine
 10
3.137
 20
5.192
 30
0.0
 11
3.137
 21
5.247999999999999
 31
0.0
  0
LINE
  5
503
330
18
100
AcDbEntity
  8
0
100
AcDbLine
 10
3.32
 20
5.184
 30
0.0
 11
3.32
 21
5.239
 31
0.0
  0
LINE
  5
504
330
18
100
AcDbEntity
  8
0
100
AcDbLine
 10
3.137
 20
5.192
 30
0.0
 11
3.206
 21
5.245
 31
0.0
  0
LINE
  5
505
330
18
100
AcDbEntity
  8
0
100
AcDbLine
 10
3.863
 20
5.158
 30
0.0
 11
4.046
 21
5.149
 31
0.0
  0
LINE
  5
506
330
18
100
AcDbEntity
  8
0
100
AcDbLine
 10
3.863
 20
5.158
 30
0.0
 11
3.863
 21
5.214
 31
0.0
  0
LINE
  5
507
330
18
100
AcDbEntity
  8
0
100
AcDbLine
 10
4.046
 20
5.149
 30
0.0
 11
4.046
 21
5.205
 31
0.0
  0
LINE
  5
508
330
18
100
AcDbEntity
  8
0
100
AcDbLine
 10
3.863
 20
5.158
 30
0.0
 11
3.932
 21
5.211
 31
0.0
  0
LINE
  5
509
330
18
100
AcDbEntity
  8
0
100
AcDbLine
 10
2.914
 20
5.199
 30
0.0
 11
2.983
 21
5.251
 31
0.0
  0
LINE
  5
50A
330
18
100
AcDbEntity
  8
0
100
AcDbLine
 10
3.097
 20
5.19
 30
0.0
 11
3.097
 21
5.246
 31
0.0
  0
LINE
  5
50B
330
18
100
AcDbEntity
  8
0
100
AcDbLine
 10
2.914
 20
5.199
 30
0.0
 11
2.914
 21
5.255
 31
0.0
  0
LINE
  5
50C
330
18
100
AcDbEntity
  8
0
100
AcDbLine
 10
2.914
 20
5.199
 30
0.0
 11
3.097
 21
5.19
 31
0.0
  0
LINE
  5
50D
330
18
100
AcDbEntity
  8
0
100
AcDbLine
 10
1.536
 20
5.268
 30
0.0
 11
1.719
 21
5.259
 31
0.0
  0
LINE
  5
50E
330
18
100
AcDbEntity
  8
0
100
AcDbLine
 10
1.719
 20
5.259
 30
0.0
 11
1.719
 21
5.315
 31
0.0
  0
LINE
  5
50F
330
18
100
AcDbEntity
  8
0
100
AcDbLine
 10
2.677
 20
5.214
 30
0.0
 11
2.746
 21
5.267
 31
0.0
  0
LINE
  5
510
330
18
100
AcDbEntity
  8
0
100
AcDbLine
 10
2.86
 20
5.205
 30
0.0
 11
2.86
 21
5.261
 31
0.0
  0
LINE
  5
511
330
18
100
AcDbEntity
  8
0
100
AcDbLine
 10
2.677
 20
5.214
 30
0.0
 11
2.677
 21
5.27
 31
0.0
  0
LINE
  5
512
330
18
100
AcDbEntity
  8
0
100
AcDbLine
 10
2.677
 20
5.214
 30
0.0
 11
2.86
 21
5.205
 31
0.0
  0
LINE
  5
513
330
18
100
AcDbEntity
  8
0
100
AcDbLine
 10
2.677
 20
5.27
 30
0.0
 11
2.86
 21
5.261
 31
0.0
  0
LINE
  5
514
330
18
100
AcDbEntity
  8
0
100
AcDbLine
 10
2.45
 20
5.225
 30
0.0
 11
2.519
 21
5.277
 31
0.0
  0
LINE
  5
515
330
18
100
AcDbEntity
  8
0
100
AcDbLine
 10
2.633
 20
5.216
 30
0.0
 11
2.633
 21
5.272
 31
0.0
  0
LINE
  5
516
330
18
100
AcDbEntity
  8
0
100
AcDbLine
 10
2.45
 20
5.225
 30
0.0
 11
2.45
 21
5.281000000000001
 31
0.0
  0
LINE
  5
517
330
18
100
AcDbEntity
  8
0
100
AcDbLine
 10
2.45
 20
5.225
 30
0.0
 11
2.633
 21
5.216
 31
0.0
  0
LINE
  5
518
330
18
100
AcDbEntity
  8
0
100
AcDbLine
 10
2.45
 20
5.281000000000001
 30
0.0
 11
2.633
 21
5.272
 31
0.0
  0
LINE
  5
519
330
18
100
AcDbEntity
  8
0
100
AcDbLine
 10
1.77
 20
5.257000000000001
 30
0.0
 11
1.839
 21
5.309
 31
0.0
  0
LINE
  5
51A
330
18
100
AcDbEntity
  8
0
100
AcDbLine
 10
1.953
 20
5.247999999999999
 30
0.0
 11
1.953
 21
5.303999999999999
 31
0.0
  0
LINE
  5
51B
330
18
100
AcDbEntity
  8
0
100
AcDbLine
 10
1.77
 20
5.257000000000001
 30
0.0
 11
1.77
 21
5.313
 31
0.0
  0
LINE
  5
51C
330
18
100
AcDbEntity
  8
0
100
AcDbLine
 10
1.77
 20
5.257000000000001
 30
0.0
 11
1.953
 21
5.247999999999999
 31
0.0
  0
LINE
  5
51D
330
18
100
AcDbEntity
  8
0
100
AcDbLine
 10
1.77
 20
5.313
 30
0.0
 11
1.953
 21
5.303999999999999
 31
0.0
  0
LINE
  5
51E
330
18
100
AcDbEntity
  8
0
100
AcDbLine
 10
1.998
 20
5.246
 30
0.0
 11
2.067
 21
5.299
 31
0.0
  0
LINE
  5
51F
330
18
100
AcDbEntity
  8
0
100
AcDbLine
 10
2.181
 20
5.237
 30
0.0
 11
2.181
 21
5.292999999999999
 31
0.0
  0
LINE
  5
520
330
18
100
AcDbEntity
  8
0
100
AcDbLine
 10
1.998
 20
5.246
 30
0.0
 11
1.998
 21
5.302000000000001
 31
0.0
  0
LINE
  5
521
330
18
100
AcDbEntity
  8
0
100
AcDbLine
 10
1.998
 20
5.246
 30
0.0
 11
2.181
 21
5.237
 31
0.0
  0
LINE
  5
522
330
18
100
AcDbEntity
  8
0
100
AcDbLine
 10
1.998
 20
5.302000000000001
 30
0.0
 11
2.181
 21
5.292999999999999
 31
0.0
  0
LINE
  5
523
330
18
100
AcDbEntity
  8
0
100
AcDbLine
 10
2.223
 20
5.236000000000001
 30
0.0
 11
2.292
 21
5.287999999999999
 31
0.0
  0
LINE
  5
524
330
18
100
AcDbEntity
  8
0
100
AcDbLine
 10
2.406
 20
5.227
 30
0.0
 11
2.406
 21
5.283
 31
0.0
  0
LINE
  5
525
330
18
100
AcDbEntity
  8
0
100
AcDbLine
 10
2.223
 20
5.236000000000001
 30
0.0
 11
2.223
 21
5.291
 31
0.0
  0
LINE
  5
526
330
18
100
AcDbEntity
  8
0
100
AcDbLine
 10
2.223
 20
5.236000000000001
 30
0.0
 11
2.406
 21
5.227
 31
0.0
  0
LINE
  5
527
330
18
100
AcDbEntity
  8
0
100
AcDbLine
 10
2.223
 20
5.291
 30
0.0
 11
2.406
 21
5.283
 31
0.0
  0
LINE
  5
528
330
18
100
AcDbEntity
  8
0
100
AcDbLine
 10
3.612
 20
5.226
 30
0.0
 11
3.795
 21
5.217000000000001
 31
0.0
  0
LINE
  5
529
330
18
100
AcDbEntity
  8
0
100
AcDbLine
 10
3.373
 20
5.237
 30
0.0
 11
3.556
 21
5.228
 31
0.0
  0
LINE
  5
52A
330
18
100
AcDbEntity
  8
0
100
AcDbLine
 10
3.137
 20
5.247999999999999
 30
0.0
 11
3.32
 21
5.239
 31
0.0
  0
LINE
  5
52B
330
18
100
AcDbEntity
  8
0
100
AcDbLine
 10
3.863
 20
5.214
 30
0.0
 11
4.046
 21
5.205
 31
0.0
  0
LINE
  5
52C
330
18
100
AcDbEntity
  8
0
100
AcDbLine
 10
2.914
 20
5.255
 30
0.0
 11
3.097
 21
5.246
 31
0.0
  0
LINE
  5
52D
330
18
100
AcDbEntity
  8
0
100
AcDbLine
 10
1.536
 20
5.212000000000001
 30
0.0
 11
1.719
 21
5.202999999999999
 31
0.0
  0
LINE
  5
52E
330
18
100
AcDbEntity
  8
0
100
AcDbLine
 10
1.536
 20
5.156000000000001
 30
0.0
 11
1.536
 21
5.212000000000001
 31
0.0
  0
LINE
  5
52F
330
18
100
AcDbEntity
  8
0
100
AcDbLine
 10
1.536
 20
5.156000000000001
 30
0.0
 11
1.605
 21
5.207999999999999
 31
0.0
  0
LINE
  5
530
330
18
100
AcDbEntity
  8
0
100
AcDbLine
 10
3.612
 20
5.055
 30
0.0
 11
3.795
 21
5.047
 31
0.0
  0
LINE
  5
531
330
18
100
AcDbEntity
  8
0
100
AcDbLine
 10
3.612
 20
5.055
 30
0.0
 11
3.612
 21
5.111000000000001
 31
0.0
  0
LINE
  5
532
330
18
100
AcDbEntity
  8
0
100
AcDbLine
 10
3.795
 20
5.047
 30
0.0
 11
3.795
 21
5.102
 31
0.0
  0
LINE
  5
533
330
18
100
AcDbEntity
  8
0
100
AcDbLine
 10
3.612
 20
5.055
 30
0.0
 11
3.681
 21
5.108000000000001
 31
0.0
  0
LINE
  5
534
330
18
100
AcDbEntity
  8
0
100
AcDbLine
 10
3.373
 20
5.067
 30
0.0
 11
3.556
 21
5.058
 31
0.0
  0
LINE
  5
535
330
18
100
AcDbEntity
  8
0
100
AcDbLine
 10
3.373
 20
5.067
 30
0.0
 11
3.373
 21
5.122999999999999
 31
0.0
  0
LINE
  5
536
330
18
100
AcDbEntity
  8
0
100
AcDbLine
 10
3.556
 20
5.058
 30
0.0
 11
3.556
 21
5.114
 31
0.0
  0
LINE
  5
537
330
18
100
AcDbEntity
  8
0
100
AcDbLine
 10
3.373
 20
5.067
 30
0.0
 11
3.442
 21
5.119
 31
0.0
  0
LINE
  5
538
330
18
100
AcDbEntity
  8
0
100
AcDbLine
 10
3.137
 20
5.078
 30
0.0
 11
3.32
 21
5.07
 31
0.0
  0
LINE
  5
539
330
18
100
AcDbEntity
  8
0
100
AcDbLine
 10
3.137
 20
5.078
 30
0.0
 11
3.137
 21
5.134
 31
0.0
  0
LINE
  5
53A
330
18
100
AcDbEntity
  8
0
100
AcDbLine
 10
3.32
 20
5.07
 30
0.0
 11
3.32
 21
5.125
 31
0.0
  0
LINE
  5
53B
330
18
100
AcDbEntity
  8
0
100
AcDbLine
 10
3.137
 20
5.078
 30
0.0
 11
3.206
 21
5.131
 31
0.0
  0
LINE
  5
53C
330
18
100
AcDbEntity
  8
0
100
AcDbLine
 10
3.863
 20
5.043
 30
0.0
 11
4.046
 21
5.034
 31
0.0
  0
LINE
  5
53D
330
18
100
AcDbEntity
  8
0
100
AcDbLine
 10
3.863
 20
5.043
 30
0.0
 11
3.863
 21
5.099
 31
0.0
  0
LINE
  5
53E
330
18
100
AcDbEntity
  8
0
100
AcDbLine
 10
4.046
 20
5.034
 30
0.0
 11
4.046
 21
5.09
 31
0.0
  0
LINE
  5
53F
330
18
100
AcDbEntity
  8
0
100
AcDbLine
 10
3.863
 20
5.043
 30
0.0
 11
3.932
 21
5.096
 31
0.0
  0
LINE
  5
540
330
18
100
AcDbEntity
  8
0
100
AcDbLine
 10
2.914
 20
5.085
 30
0.0
 11
2.983
 21
5.138
 31
0.0
  0
LINE
  5
541
330
18
100
AcDbEntity
  8
0
100
AcDbLine
 10
3.097
 20
5.076000000000001
 30
0.0
 11
3.097
 21
5.132000000000001
 31
0.0
  0
LINE
  5
542
330
18
100
AcDbEntity
  8
0
100
AcDbLine
 10
2.914
 20
5.085
 30
0.0
 11
2.914
 21
5.141
 31
0.0
  0
LINE
  5
543
330
18
100
AcDbEntity
  8
0
100
AcDbLine
 10
2.914
 20
5.085
 30
0.0
 11
3.097
 21
5.076000000000001
 31
0.0
  0
LINE
  5
544
330
18
100
AcDbEntity
  8
0
100
AcDbLine
 10
1.536
 20
5.156000000000001
 30
0.0
 11
1.719
 21
5.147
 31
0.0
  0
LINE
  5
545
330
18
100
AcDbEntity
  8
0
100
AcDbLine
 10
1.719
 20
5.147
 30
0.0
 11
1.719
 21
5.202999999999999
 31
0.0
  0
LINE
  5
546
330
18
100
AcDbEntity
  8
0
100
AcDbLine
 10
2.677
 20
5.101
 30
0.0
 11
2.746
 21
5.153
 31
0.0
  0
LINE
  5
547
330
18
100
AcDbEntity
  8
0
100
AcDbLine
 10
2.86
 20
5.092
 30
0.0
 11
2.86
 21
5.148
 31
0.0
  0
LINE
  5
548
330
18
100
AcDbEntity
  8
0
100
AcDbLine
 10
2.677
 20
5.101
 30
0.0
 11
2.677
 21
5.156000000000001
 31
0.0
  0
LINE
  5
549
330
18
100
AcDbEntity
  8
0
100
AcDbLine
 10
2.677
 20
5.101
 30
0.0
 11
2.86
 21
5.092
 31
0.0
  0
LINE
  5
54A
330
18
100
AcDbEntity
  8
0
100
AcDbLine
 10
2.677
 20
5.156000000000001
 30
0.0
 11
2.86
 21
5.148
 31
0.0
  0
LINE
  5
54B
330
18
100
AcDbEntity
  8
0
100
AcDbLine
 10
2.45
 20
5.112
 30
0.0
 11
2.519
 21
5.164
 31
0.0
  0
LINE
  5
54C
330
18
100
AcDbEntity
  8
0
100
AcDbLine
 10
2.633
 20
5.103
 30
0.0
 11
2.633
 21
5.159
 31
0.0
  0
LINE
  5
54D
330
18
100
AcDbEntity
  8
0
100
AcDbLine
 10
2.45
 20
5.112
 30
0.0
 11
2.45
 21
5.167000000000001
 31
0.0
  0
LINE
  5
54E
330
18
100
AcDbEntity
  8
0
100
AcDbLine
 10
2.45
 20
5.112
 30
0.0
 11
2.633
 21
5.103
 31
0.0
  0
LINE
  5
54F
330
18
100
AcDbEntity
  8
0
100
AcDbLine
 10
2.45
 20
5.167000000000001
 30
0.0
 11
2.633
 21
5.159
 31
0.0
  0
LINE
  5
550
330
18
100
AcDbEntity
  8
0
100
AcDbLine
 10
1.77
 20
5.145
 30
0.0
 11
1.839
 21
5.197
 31
0.0
  0
LINE
  5
551
330
18
100
AcDbEntity
  8
0
100
AcDbLine
 10
1.953
 20
5.136
 30
0.0
 11
1.953
 21
5.191
 31
0.0
  0
LINE
  5
552
330
18
100
AcDbEntity
  8
0
100
AcDbLine
 10
1.77
 20
5.145
 30
0.0
 11
1.77
 21
5.2
 31
0.0
  0
LINE
  5
553
330
18
100
AcDbEntity
  8
0
100
AcDbLine
 10
1.77
 20
5.145
 30
0.0
 11
1.953
 21
5.136
 31
0.0
  0
LINE
  5
554
330
18
100
AcDbEntity
  8
0
100
AcDbLine
 10
1.77
 20
5.2
 30
0.0
 11
1.953
 21
5.191
 31
0.0
  0
LINE
  5
555
330
18
100
AcDbEntity
  8
0
100
AcDbLine
 10
1.998
 20
5.134
 30
0.0
 11
2.067
 21
5.186
 31
0.0
  0
LINE
  5
556
330
18
100
AcDbEntity
  8
0
100
AcDbLine
 10
2.181
 20
5.125
 30
0.0
 11
2.181
 21
5.18
 31
0.0
  0
LINE
  5
557
330
18
100
AcDbEntity
  8
0
100
AcDbLine
 10
1.998
 20
5.134
 30
0.0
 11
1.998
 21
5.189
 31
0.0
  0
LINE
  5
558
330
18
100
AcDbEntity
  8
0
100
AcDbLine
 10
1.998
 20
5.134
 30
0.0
 11
2.181
 21
5.125
 31
0.0
  0
LINE
  5
559
330
18
100
AcDbEntity
  8
0
100
AcDbLine
 10
1.998
 20
5.189
 30
0.0
 11
2.181
 21
5.18
 31
0.0
  0
LINE
  5
55A
330
18
100
AcDbEntity
  8
0
100
AcDbLine
 10
2.223
 20
5.122999999999999
 30
0.0
 11
2.292
 21
5.175
 31
0.0
  0
LINE
  5
55B
330
18
100
AcDbEntity
  8
0
100
AcDbLine
 10
2.406
 20
5.114
 30
0.0
 11
2.406
 21
5.17
 31
0.0
  0
LINE
  5
55C
330
18
100
AcDbEntity
  8
0
100
AcDbLine
 10
2.223
 20
5.122999999999999
 30
0.0
 11
2.223
 21
5.178
 31
0.0
  0
LINE
  5
55D
330
18
100
AcDbEntity
  8
0
100
AcDbLine
 10
2.223
 20
5.122999999999999
 30
0.0
 11
2.406
 21
5.114
 31
0.0
  0
LINE
  5
55E
330
18
100
AcDbEntity
  8
0
100
AcDbLine
 10
2.223
 20
5.178
 30
0.0
 11
2.406
 21
5.17
 31
0.0
  0
LINE
  5
55F
330
18
100
AcDbEntity
  8
0
100
AcDbLine
 10
3.612
 20
5.111000000000001
 30
0.0
 11
3.795
 21
5.102
 31
0.0
  0
LINE
  5
560
330
18
100
AcDbEntity
  8
0
100
AcDbLine
 10
3.373
 20
5.122999999999999
 30
0.0
 11
3.556
 21
5.114
 31
0.0
  0
LINE
  5
561
330
18
100
AcDbEntity
  8
0
100
AcDbLine
 10
3.137
 20
5.134
 30
0.0
 11
3.32
 21
5.125
 31
0.0
  0
LINE
  5
562
330
18
100
AcDbEntity
  8
0
100
AcDbLine
 10
3.863
 20
5.099
 30
0.0
 11
4.046
 21
5.09
 31
0.0
  0
LINE
  5
563
330
18
100
AcDbEntity
  8
0
100
AcDbLine
 10
2.914
 20
5.141
 30
0.0
 11
3.097
 21
5.132000000000001
 31
0.0
  0
LINE
  5
564
330
18
100
AcDbEntity
  8
0
100
AcDbLine
 10
1.536
 20
5.1
 30
0.0
 11
1.719
 21
5.09
 31
0.0
  0
LINE
  5
565
330
18
100
AcDbEntity
  8
0
100
AcDbLine
 10
1.536
 20
5.044
 30
0.0
 11
1.536
 21
5.1
 31
0.0
  0
LINE
  5
566
330
18
100
AcDbEntity
  8
0
100
AcDbLine
 10
1.536
 20
5.044
 30
0.0
 11
1.605
 21
5.096
 31
0.0
  0
LINE
  5
567
330
18
100
AcDbEntity
  8
0
100
AcDbLine
 10
3.611
 20
4.936
 30
0.0
 11
3.794
 21
4.927
 31
0.0
  0
LINE
  5
568
330
18
100
AcDbEntity
  8
0
100
AcDbLine
 10
3.611
 20
4.936
 30
0.0
 11
3.611
 21
4.992
 31
0.0
  0
LINE
  5
569
330
18
100
AcDbEntity
  8
0
100
AcDbLine
 10
3.794
 20
4.927
 30
0.0
 11
3.794
 21
4.982
 31
0.0
  0
LINE
  5
56A
330
18
100
AcDbEntity
  8
0
100
AcDbLine
 10
3.611
 20
4.936
 30
0.0
 11
3.68
 21
4.988
 31
0.0
  0
LINE
  5
56B
330
18
100
AcDbEntity
  8
0
100
AcDbLine
 10
3.372
 20
4.949
 30
0.0
 11
3.555
 21
4.939
 31
0.0
  0
LINE
  5
56C
330
18
100
AcDbEntity
  8
0
100
AcDbLine
 10
3.372
 20
4.949
 30
0.0
 11
3.373
 21
5.004
 31
0.0
  0
LINE
  5
56D
330
18
100
AcDbEntity
  8
0
100
AcDbLine
 10
3.555
 20
4.939
 30
0.0
 11
3.556
 21
4.995
 31
0.0
  0
LINE
  5
56E
330
18
100
AcDbEntity
  8
0
100
AcDbLine
 10
3.372
 20
4.949
 30
0.0
 11
3.442
 21
5.001
 31
0.0
  0
LINE
  5
56F
330
18
100
AcDbEntity
  8
0
100
AcDbLine
 10
3.137
 20
4.961
 30
0.0
 11
3.32
 21
4.951000000000001
 31
0.0
  0
LINE
  5
570
330
18
100
AcDbEntity
  8
0
100
AcDbLine
 10
3.137
 20
4.961
 30
0.0
 11
3.137
 21
5.017
 31
0.0
  0
LINE
  5
571
330
18
100
AcDbEntity
  8
0
100
AcDbLine
 10
3.32
 20
4.951000000000001
 30
0.0
 11
3.32
 21
5.007
 31
0.0
  0
LINE
  5
572
330
18
100
AcDbEntity
  8
0
100
AcDbLine
 10
3.137
 20
4.961
 30
0.0
 11
3.206
 21
5.013
 31
0.0
  0
LINE
  5
573
330
18
100
AcDbEntity
  8
0
100
AcDbLine
 10
3.862
 20
4.923
 30
0.0
 11
4.045
 21
4.914
 31
0.0
  0
LINE
  5
574
330
18
100
AcDbEntity
  8
0
100
AcDbLine
 10
3.862
 20
4.923
 30
0.0
 11
3.862
 21
4.979
 31
0.0
  0
LINE
  5
575
330
18
100
AcDbEntity
  8
0
100
AcDbLine
 10
4.045
 20
4.914
 30
0.0
 11
4.045
 21
4.968999999999999
 31
0.0
  0
LINE
  5
576
330
18
100
AcDbEntity
  8
0
100
AcDbLine
 10
3.862
 20
4.923
 30
0.0
 11
3.931
 21
4.975
 31
0.0
  0
LINE
  5
577
330
18
100
AcDbEntity
  8
0
100
AcDbLine
 10
2.913
 20
4.968
 30
0.0
 11
2.983
 21
5.021
 31
0.0
  0
LINE
  5
578
330
18
100
AcDbEntity
  8
0
100
AcDbLine
 10
3.097
 20
4.959
 30
0.0
 11
3.097
 21
5.015
 31
0.0
  0
LINE
  5
579
330
18
100
AcDbEntity
  8
0
100
AcDbLine
 10
2.913
 20
4.968
 30
0.0
 11
2.914
 21
5.024
 31
0.0
  0
LINE
  5
57A
330
18
100
AcDbEntity
  8
0
100
AcDbLine
 10
2.913
 20
4.968
 30
0.0
 11
3.097
 21
4.959
 31
0.0
  0
LINE
  5
57B
330
18
100
AcDbEntity
  8
0
100
AcDbLine
 10
1.536
 20
5.044
 30
0.0
 11
1.719
 21
5.034
 31
0.0
  0
LINE
  5
57C
330
18
100
AcDbEntity
  8
0
100
AcDbLine
 10
1.719
 20
5.034
 30
0.0
 11
1.719
 21
5.09
 31
0.0
  0
LINE
  5
57D
330
18
100
AcDbEntity
  8
0
100
AcDbLine
 10
2.677
 20
4.985
 30
0.0
 11
2.746
 21
5.037
 31
0.0
  0
LINE
  5
57E
330
18
100
AcDbEntity
  8
0
100
AcDbLine
 10
2.86
 20
4.975
 30
0.0
 11
2.86
 21
5.031000000000001
 31
0.0
  0
LINE
  5
57F
330
18
100
AcDbEntity
  8
0
100
AcDbLine
 10
2.677
 20
4.985
 30
0.0
 11
2.677
 21
5.04
 31
0.0
  0
LINE
  5
580
330
18
100
AcDbEntity
  8
0
100
AcDbLine
 10
2.677
 20
4.985
 30
0.0
 11
2.86
 21
4.975
 31
0.0
  0
LINE
  5
581
330
18
100
AcDbEntity
  8
0
100
AcDbLine
 10
2.677
 20
5.04
 30
0.0
 11
2.86
 21
5.031000000000001
 31
0.0
  0
LINE
  5
582
330
18
100
AcDbEntity
  8
0
100
AcDbLine
 10
2.45
 20
4.997
 30
0.0
 11
2.519
 21
5.049
 31
0.0
  0
LINE
  5
583
330
18
100
AcDbEntity
  8
0
100
AcDbLine
 10
2.633
 20
4.987
 30
0.0
 11
2.633
 21
5.043
 31
0.0
  0
LINE
  5
584
330
18
100
AcDbEntity
  8
0
100
AcDbLine
 10
2.45
 20
4.997
 30
0.0
 11
2.45
 21
5.052
 31
0.0
  0
LINE
  5
585
330
18
100
AcDbEntity
  8
0
100
AcDbLine
 10
2.45
 20
4.997
 30
0.0
 11
2.633
 21
4.987
 31
0.0
  0
LINE
  5
586
330
18
100
AcDbEntity
  8
0
100
AcDbLine
 10
2.45
 20
5.052
 30
0.0
 11
2.633
 21
5.043
 31
0.0
  0
LINE
  5
587
330
18
100
AcDbEntity
  8
0
100
AcDbLine
 10
1.77
 20
5.032
 30
0.0
 11
1.839
 21
5.084
 31
0.0
  0
LINE
  5
588
330
18
100
AcDbEntity
  8
0
100
AcDbLine
 10
1.953
 20
5.022
 30
0.0
 11
1.953
 21
5.078
 31
0.0
  0
LINE
  5
589
330
18
100
AcDbEntity
  8
0
100
AcDbLine
 10
1.77
 20
5.032
 30
0.0
 11
1.77
 21
5.088
 31
0.0
  0
LINE
  5
58A
330
18
100
AcDbEntity
  8
0
100
AcDbLine
 10
1.77
 20
5.032
 30
0.0
 11
1.953
 21
5.022
 31
0.0
  0
LINE
  5
58B
330
18
100
AcDbEntity
  8
0
100
AcDbLine
 10
1.77
 20
5.088
 30
0.0
 11
1.953
 21
5.078
 31
0.0
  0
LINE
  5
58C
330
18
100
AcDbEntity
  8
0
100
AcDbLine
 10
1.998
 20
5.02
 30
0.0
 11
2.067
 21
5.072
 31
0.0
  0
LINE
  5
58D
330
18
100
AcDbEntity
  8
0
100
AcDbLine
 10
2.181
 20
5.01
 30
0.0
 11
2.181
 21
5.066
 31
0.0
  0
LINE
  5
58E
330
18
100
AcDbEntity
  8
0
100
AcDbLine
 10
1.998
 20
5.02
 30
0.0
 11
1.998
 21
5.076000000000001
 31
0.0
  0
LINE
  5
58F
330
18
100
AcDbEntity
  8
0
100
AcDbLine
 10
1.998
 20
5.02
 30
0.0
 11
2.181
 21
5.01
 31
0.0
  0
LINE
  5
590
330
18
100
AcDbEntity
  8
0
100
AcDbLine
 10
1.998
 20
5.076000000000001
 30
0.0
 11
2.181
 21
5.066
 31
0.0
  0
LINE
  5
591
330
18
100
AcDbEntity
  8
0
100
AcDbLine
 10
2.223
 20
5.008
 30
0.0
 11
2.292
 21
5.06
 31
0.0
  0
LINE
  5
592
330
18
100
AcDbEntity
  8
0
100
AcDbLine
 10
2.406
 20
4.999
 30
0.0
 11
2.406
 21
5.055
 31
0.0
  0
LINE
  5
593
330
18
100
AcDbEntity
  8
0
100
AcDbLine
 10
2.223
 20
5.008
 30
0.0
 11
2.223
 21
5.064
 31
0.0
  0
LINE
  5
594
330
18
100
AcDbEntity
  8
0
100
AcDbLine
 10
2.223
 20
5.008
 30
0.0
 11
2.406
 21
4.999
 31
0.0
  0
LINE
  5
595
330
18
100
AcDbEntity
  8
0
100
AcDbLine
 10
2.223
 20
5.064
 30
0.0
 11
2.406
 21
5.055
 31
0.0
  0
LINE
  5
596
330
18
100
AcDbEntity
  8
0
100
AcDbLine
 10
3.611
 20
4.992
 30
0.0
 11
3.794
 21
4.982
 31
0.0
  0
LINE
  5
597
330
18
100
AcDbEntity
  8
0
100
AcDbLine
 10
3.373
 20
5.004
 30
0.0
 11
3.556
 21
4.995
 31
0.0
  0
LINE
  5
598
330
18
100
AcDbEntity
  8
0
100
AcDbLine
 10
3.137
 20
5.017
 30
0.0
 11
3.32
 21
5.007
 31
0.0
  0
LINE
  5
599
330
18
100
AcDbEntity
  8
0
100
AcDbLine
 10
3.862
 20
4.979
 30
0.0
 11
4.045
 21
4.968999999999999
 31
0.0
  0
LINE
  5
59A
330
18
100
AcDbEntity
  8
0
100
AcDbLine
 10
2.914
 20
5.024
 30
0.0
 11
3.097
 21
5.015
 31
0.0
  0
LINE
  5
59B
330
18
100
AcDbEntity
  8
0
100
AcDbLine
 10
1.536
 20
4.988
 30
0.0
 11
1.719
 21
4.977
 31
0.0
  0
LINE
  5
59C
330
18
100
AcDbEntity
  8
0
100
AcDbLine
 10
1.536
 20
4.932
 30
0.0
 11
1.536
 21
4.988
 31
0.0
  0
LINE
  5
59D
330
18
100
AcDbEntity
  8
0
100
AcDbLine
 10
1.536
 20
4.932
 30
0.0
 11
1.605
 21
4.984
 31
0.0
  0
LINE
  5
59E
330
18
100
AcDbEntity
  8
0
100
AcDbLine
 10
3.61
 20
4.813
 30
0.0
 11
3.793
 21
4.802
 31
0.0
  0
LINE
  5
59F
330
18
100
AcDbEntity
  8
0
100
AcDbLine
 10
3.61
 20
4.813
 30
0.0
 11
3.611
 21
4.868
 31
0.0
  0
LINE
  5
5A0
330
18
100
AcDbEntity
  8
0
100
AcDbLine
 10
3.793
 20
4.802
 30
0.0
 11
3.794
 21
4.858000000000001
 31
0.0
  0
LINE
  5
5A1
330
18
100
AcDbEntity
  8
0
100
AcDbLine
 10
3.61
 20
4.813
 30
0.0
 11
3.68
 21
4.864
 31
0.0
  0
LINE
  5
5A2
330
18
100
AcDbEntity
  8
0
100
AcDbLine
 10
3.372
 20
4.826000000000001
 30
0.0
 11
3.555
 21
4.816
 31
0.0
  0
LINE
  5
5A3
330
18
100
AcDbEntity
  8
0
100
AcDbLine
 10
3.372
 20
4.826000000000001
 30
0.0
 11
3.372
 21
4.882
 31
0.0
  0
LINE
  5
5A4
330
18
100
AcDbEntity
  8
0
100
AcDbLine
 10
3.555
 20
4.816
 30
0.0
 11
3.555
 21
4.871
 31
0.0
  0
LINE
  5
5A5
330
18
100
AcDbEntity
  8
0
100
AcDbLine
 10
3.372
 20
4.826000000000001
 30
0.0
 11
3.441
 21
4.878
 31
0.0
  0
LINE
  5
5A6
330
18
100
AcDbEntity
  8
0
100
AcDbLine
 10
3.136
 20
4.84
 30
0.0
 11
3.319
 21
4.829
 31
0.0
  0
LINE
  5
5A7
330
18
100
AcDbEntity
  8
0
100
AcDbLine
 10
3.136
 20
4.84
 30
0.0
 11
3.137
 21
4.896
 31
0.0
  0
LINE
  5
5A8
330
18
100
AcDbEntity
  8
0
100
AcDbLine
 10
3.319
 20
4.829
 30
0.0
 11
3.32
 21
4.885
 31
0.0
  0
LINE
  5
5A9
330
18
100
AcDbEntity
  8
0
100
AcDbLine
 10
3.136
 20
4.84
 30
0.0
 11
3.206
 21
4.892
 31
0.0
  0
LINE
  5
5AA
330
18
100
AcDbEntity
  8
0
100
AcDbLine
 10
3.861
 20
4.798
 30
0.0
 11
4.044
 21
4.788
 31
0.0
  0
LINE
  5
5AB
330
18
100
AcDbEntity
  8
0
100
AcDbLine
 10
3.861
 20
4.798
 30
0.0
 11
3.862
 21
4.854
 31
0.0
  0
LINE
  5
5AC
330
18
100
AcDbEntity
  8
0
100
AcDbLine
 10
4.044
 20
4.788
 30
0.0
 11
4.045
 21
4.843
 31
0.0
  0
LINE
  5
5AD
330
18
100
AcDbEntity
  8
0
100
AcDbLine
 10
3.861
 20
4.798
 30
0.0
 11
3.931
 21
4.85
 31
0.0
  0
LINE
  5
5AE
330
18
100
AcDbEntity
  8
0
100
AcDbLine
 10
2.913
 20
4.849
 30
0.0
 11
2.982
 21
4.9
 31
0.0
  0
LINE
  5
5AF
330
18
100
AcDbEntity
  8
0
100
AcDbLine
 10
3.096
 20
4.838
 30
0.0
 11
3.096
 21
4.894
 31
0.0
  0
LINE
  5
5B0
330
18
100
AcDbEntity
  8
0
100
AcDbLine
 10
2.913
 20
4.849
 30
0.0
 11
2.913
 21
4.904
 31
0.0
  0
LINE
  5
5B1
330
18
100
AcDbEntity
  8
0
100
AcDbLine
 10
2.913
 20
4.849
 30
0.0
 11
3.096
 21
4.838
 31
0.0
  0
LINE
  5
5B2
330
18
100
AcDbEntity
  8
0
100
AcDbLine
 10
1.536
 20
4.932
 30
0.0
 11
1.719
 21
4.921
 31
0.0
  0
LINE
  5
5B3
330
18
100
AcDbEntity
  8
0
100
AcDbLine
 10
1.719
 20
4.921
 30
0.0
 11
1.719
 21
4.977
 31
0.0
  0
LINE
  5
5B4
330
18
100
AcDbEntity
  8
0
100
AcDbLine
 10
2.676
 20
4.866000000000001
 30
0.0
 11
2.746
 21
4.918
 31
0.0
  0
LINE
  5
5B5
330
18
100
AcDbEntity
  8
0
100
AcDbLine
 10
2.859
 20
4.856
 30
0.0
 11
2.86
 21
4.912
 31
0.0
  0
LINE
  5
5B6
330
18
100
AcDbEntity
  8
0
100
AcDbLine
 10
2.676
 20
4.866000000000001
 30
0.0
 11
2.677
 21
4.922
 31
0.0
  0
LINE
  5
5B7
330
18
100
AcDbEntity
  8
0
100
AcDbLine
 10
2.676
 20
4.866000000000001
 30
0.0
 11
2.859
 21
4.856
 31
0.0
  0
LINE
  5
5B8
330
18
100
AcDbEntity
  8
0
100
AcDbLine
 10
2.677
 20
4.922
 30
0.0
 11
2.86
 21
4.912
 31
0.0
  0
LINE
  5
5B9
330
18
100
AcDbEntity
  8
0
100
AcDbLine
 10
2.449
 20
4.879
 30
0.0
 11
2.519
 21
4.931
 31
0.0
  0
LINE
  5
5BA
330
18
100
AcDbEntity
  8
0
100
AcDbLine
 10
2.633
 20
4.869
 30
0.0
 11
2.633
 21
4.925
 31
0.0
  0
LINE
  5
5BB
330
18
100
AcDbEntity
  8
0
100
AcDbLine
 10
2.449
 20
4.879
 30
0.0
 11
2.45
 21
4.935
 31
0.0
  0
LINE
  5
5BC
330
18
100
AcDbEntity
  8
0
100
AcDbLine
 10
2.449
 20
4.879
 30
0.0
 11
2.633
 21
4.869
 31
0.0
  0
LINE
  5
5BD
330
18
100
AcDbEntity
  8
0
100
AcDbLine
 10
2.45
 20
4.935
 30
0.0
 11
2.633
 21
4.925
 31
0.0
  0
LINE
  5
5BE
330
18
100
AcDbEntity
  8
0
100
AcDbLine
 10
1.77
 20
4.918
 30
0.0
 11
1.839
 21
4.97
 31
0.0
  0
LINE
  5
5BF
330
18
100
AcDbEntity
  8
0
100
AcDbLine
 10
1.953
 20
4.908
 30
0.0
 11
1.953
 21
4.964
 31
0.0
  0
LINE
  5
5C0
330
18
100
AcDbEntity
  8
0
100
AcDbLine
 10
1.77
 20
4.918
 30
0.0
 11
1.77
 21
4.974
 31
0.0
  0
LINE
  5
5C1
330
18
100
AcDbEntity
  8
0
100
AcDbLine
 10
1.77
 20
4.918
 30
0.0
 11
1.953
 21
4.908
 31
0.0
  0
LINE
  5
5C2
330
18
100
AcDbEntity
  8
0
100
AcDbLine
 10
1.77
 20
4.974
 30
0.0
 11
1.953
 21
4.964
 31
0.0
  0
LINE
  5
5C3
330
18
100
AcDbEntity
  8
0
100
AcDbLine
 10
1.998
 20
4.905
 30
0.0
 11
2.067
 21
4.957
 31
0.0
  0
LINE
  5
5C4
330
18
100
AcDbEntity
  8
0
100
AcDbLine
 10
2.181
 20
4.895
 30
0.0
 11
2.181
 21
4.951000000000001
 31
0.0
  0
LINE
  5
5C5
330
18
100
AcDbEntity
  8
0
100
AcDbLine
 10
1.998
 20
4.905
 30
0.0
 11
1.998
 21
4.961
 31
0.0
  0
LINE
  5
5C6
330
18
100
AcDbEntity
  8
0
100
AcDbLine
 10
1.998
 20
4.905
 30
0.0
 11
2.181
 21
4.895
 31
0.0
  0
LINE
  5
5C7
330
18
100
AcDbEntity
  8
0
100
AcDbLine
 10
1.998
 20
4.961
 30
0.0
 11
2.181
 21
4.951000000000001
 31
0.0
  0
LINE
  5
5C8
330
18
100
AcDbEntity
  8
0
100
AcDbLine
 10
2.223
 20
4.892
 30
0.0
 11
2.292
 21
4.944
 31
0.0
  0
LINE
  5
5C9
330
18
100
AcDbEntity
  8
0
100
AcDbLine
 10
2.406
 20
4.882
 30
0.0
 11
2.406
 21
4.938
 31
0.0
  0
LINE
  5
5CA
330
18
100
AcDbEntity
  8
0
100
AcDbLine
 10
2.223
 20
4.892
 30
0.0
 11
2.223
 21
4.948
 31
0.0
  0
LINE
  5
5CB
330
18
100
AcDbEntity
  8
0
100
AcDbLine
 10
2.223
 20
4.892
 30
0.0
 11
2.406
 21
4.882
 31
0.0
  0
LINE
  5
5CC
330
18
100
AcDbEntity
  8
0
100
AcDbLine
 10
2.223
 20
4.948
 30
0.0
 11
2.406
 21
4.938
 31
0.0
  0
LINE
  5
5CD
330
18
100
AcDbEntity
  8
0
100
AcDbLine
 10
3.611
 20
4.868
 30
0.0
 11
3.794
 21
4.858000000000001
 31
0.0
  0
LINE
  5
5CE
330
18
100
AcDbEntity
  8
0
100
AcDbLine
 10
3.372
 20
4.882
 30
0.0
 11
3.555
 21
4.871
 31
0.0
  0
LINE
  5
5CF
330
18
100
AcDbEntity
  8
0
100
AcDbLine
 10
3.137
 20
4.896
 30
0.0
 11
3.32
 21
4.885
 31
0.0
  0
LINE
  5
5D0
330
18
100
AcDbEntity
  8
0
100
AcDbLine
 10
3.862
 20
4.854
 30
0.0
 11
4.045
 21
4.843
 31
0.0
  0
LINE
  5
5D1
330
18
100
AcDbEntity
  8
0
100
AcDbLine
 10
2.913
 20
4.904
 30
0.0
 11
3.096
 21
4.894
 31
0.0
  0
LINE
  5
5D2
330
18
100
AcDbEntity
  8
0
100
AcDbLine
 10
1.536
 20
4.876
 30
0.0
 11
1.719
 21
4.865
 31
0.0
  0
LINE
  5
5D3
330
18
100
AcDbEntity
  8
0
100
AcDbLine
 10
1.536
 20
4.82
 30
0.0
 11
1.536
 21
4.876
 31
0.0
  0
LINE
  5
5D4
330
18
100
AcDbEntity
  8
0
100
AcDbLine
 10
1.536
 20
4.82
 30
0.0
 11
1.605
 21
4.872
 31
0.0
  0
LINE
  5
5D5
330
18
100
AcDbEntity
  8
0
100
AcDbLine
 10
3.61
 20
4.703
 30
0.0
 11
3.793
 21
4.692
 31
0.0
  0
LINE
  5
5D6
330
18
100
AcDbEntity
  8
0
100
AcDbLine
 10
3.61
 20
4.703
 30
0.0
 11
3.611
 21
4.758
 31
0.0
  0
LINE
  5
5D7
330
18
100
AcDbEntity
  8
0
100
AcDbLine
 10
3.793
 20
4.692
 30
0.0
 11
3.794
 21
4.748
 31
0.0
  0
LINE
  5
5D8
330
18
100
AcDbEntity
  8
0
100
AcDbLine
 10
3.61
 20
4.703
 30
0.0
 11
3.68
 21
4.754
 31
0.0
  0
LINE
  5
5D9
330
18
100
AcDbEntity
  8
0
100
AcDbLine
 10
3.372
 20
4.716
 30
0.0
 11
3.555
 21
4.706
 31
0.0
  0
LINE
  5
5DA
330
18
100
AcDbEntity
  8
0
100
AcDbLine
 10
3.372
 20
4.716
 30
0.0
 11
3.372
 21
4.772
 31
0.0
  0
LINE
  5
5DB
330
18
100
AcDbEntity
  8
0
100
AcDbLine
 10
3.555
 20
4.706
 30
0.0
 11
3.555
 21
4.762
 31
0.0
  0
LINE
  5
5DC
330
18
100
AcDbEntity
  8
0
100
AcDbLine
 10
3.372
 20
4.716
 30
0.0
 11
3.441
 21
4.768
 31
0.0
  0
LINE
  5
5DD
330
18
100
AcDbEntity
  8
0
100
AcDbLine
 10
3.136
 20
4.729
 30
0.0
 11
3.319
 21
4.718999999999999
 31
0.0
  0
LINE
  5
5DE
330
18
100
AcDbEntity
  8
0
100
AcDbLine
 10
3.136
 20
4.729
 30
0.0
 11
3.137
 21
4.785
 31
0.0
  0
LINE
  5
5DF
330
18
100
AcDbEntity
  8
0
100
AcDbLine
 10
3.319
 20
4.718999999999999
 30
0.0
 11
3.32
 21
4.775
 31
0.0
  0
LINE
  5
5E0
330
18
100
AcDbEntity
  8
0
100
AcDbLine
 10
3.136
 20
4.729
 30
0.0
 11
3.206
 21
4.781000000000001
 31
0.0
  0
LINE
  5
5E1
330
18
100
AcDbEntity
  8
0
100
AcDbLine
 10
3.861
 20
4.688
 30
0.0
 11
4.044
 21
4.678
 31
0.0
  0
LINE
  5
5E2
330
18
100
AcDbEntity
  8
0
100
AcDbLine
 10
3.861
 20
4.688
 30
0.0
 11
3.862
 21
4.744
 31
0.0
  0
LINE
  5
5E3
330
18
100
AcDbEntity
  8
0
100
AcDbLine
 10
4.044
 20
4.678
 30
0.0
 11
4.045
 21
4.734
 31
0.0
  0
LINE
  5
5E4
330
18
100
AcDbEntity
  8
0
100
AcDbLine
 10
3.861
 20
4.688
 30
0.0
 11
3.931
 21
4.74
 31
0.0
  0
LINE
  5
5E5
330
18
100
AcDbEntity
  8
0
100
AcDbLine
 10
2.913
 20
4.738
 30
0.0
 11
2.983
 21
4.79
 31
0.0
  0
LINE
  5
5E6
330
18
100
AcDbEntity
  8
0
100
AcDbLine
 10
3.096
 20
4.728
 30
0.0
 11
3.097
 21
4.783
 31
0.0
  0
LINE
  5
5E7
330
18
100
AcDbEntity
  8
0
100
AcDbLine
 10
2.913
 20
4.738
 30
0.0
 11
2.913
 21
4.794
 31
0.0
  0
LINE
  5
5E8
330
18
100
AcDbEntity
  8
0
100
AcDbLine
 10
2.913
 20
4.738
 30
0.0
 11
3.096
 21
4.728
 31
0.0
  0
LINE
  5
5E9
330
18
100
AcDbEntity
  8
0
100
AcDbLine
 10
1.536
 20
4.82
 30
0.0
 11
1.719
 21
4.81
 31
0.0
  0
LINE
  5
5EA
330
18
100
AcDbEntity
  8
0
100
AcDbLine
 10
1.719
 20
4.81
 30
0.0
 11
1.719
 21
4.865
 31
0.0
  0
LINE
  5
5EB
330
18
100
AcDbEntity
  8
0
100
AcDbLine
 10
2.676
 20
4.755
 30
0.0
 11
2.746
 21
4.807
 31
0.0
  0
LINE
  5
5EC
330
18
100
AcDbEntity
  8
0
100
AcDbLine
 10
2.859
 20
4.745
 30
0.0
 11
2.86
 21
4.801
 31
0.0
  0
LINE
  5
5ED
330
18
100
AcDbEntity
  8
0
100
AcDbLine
 10
2.676
 20
4.755
 30
0.0
 11
2.677
 21
4.811
 31
0.0
  0
LINE
  5
5EE
330
18
100
AcDbEntity
  8
0
100
AcDbLine
 10
2.676
 20
4.755
 30
0.0
 11
2.859
 21
4.745
 31
0.0
  0
LINE
  5
5EF
330
18
100
AcDbEntity
  8
0
100
AcDbLine
 10
2.677
 20
4.811
 30
0.0
 11
2.86
 21
4.801
 31
0.0
  0
LINE
  5
5F0
330
18
100
AcDbEntity
  8
0
100
AcDbLine
 10
2.45
 20
4.768
 30
0.0
 11
2.519
 21
4.82
 31
0.0
  0
LINE
  5
5F1
330
18
100
AcDbEntity
  8
0
100
AcDbLine
 10
2.633
 20
4.758
 30
0.0
 11
2.633
 21
4.814
 31
0.0
  0
LINE
  5
5F2
330
18
100
AcDbEntity
  8
0
100
AcDbLine
 10
2.45
 20
4.768
 30
0.0
 11
2.45
 21
4.824
 31
0.0
  0
LINE
  5
5F3
330
18
100
AcDbEntity
  8
0
100
AcDbLine
 10
2.45
 20
4.768
 30
0.0
 11
2.633
 21
4.758
 31
0.0
  0
LINE
  5
5F4
330
18
100
AcDbEntity
  8
0
100
AcDbLine
 10
2.45
 20
4.824
 30
0.0
 11
2.633
 21
4.814
 31
0.0
  0
LINE
  5
5F5
330
18
100
AcDbEntity
  8
0
100
AcDbLine
 10
1.77
 20
4.807
 30
0.0
 11
1.839
 21
4.859
 31
0.0
  0
LINE
  5
5F6
330
18
100
AcDbEntity
  8
0
100
AcDbLine
 10
1.953
 20
4.796
 30
0.0
 11
1.953
 21
4.852
 31
0.0
  0
LINE
  5
5F7
330
18
100
AcDbEntity
  8
0
100
AcDbLine
 10
1.77
 20
4.807
 30
0.0
 11
1.77
 21
4.862
 31
0.0
  0
LINE
  5
5F8
330
18
100
AcDbEntity
  8
0
100
AcDbLine
 10
1.77
 20
4.807
 30
0.0
 11
1.953
 21
4.796
 31
0.0
  0
LINE
  5
5F9
330
18
100
AcDbEntity
  8
0
100
AcDbLine
 10
1.77
 20
4.862
 30
0.0
 11
1.953
 21
4.852
 31
0.0
  0
LINE
  5
5FA
330
18
100
AcDbEntity
  8
0
100
AcDbLine
 10
1.998
 20
4.794
 30
0.0
 11
2.067
 21
4.846
 31
0.0
  0
LINE
  5
5FB
330
18
100
AcDbEntity
  8
0
100
AcDbLine
 10
2.181
 20
4.783
 30
0.0
 11
2.181
 21
4.839
 31
0.0
  0
LINE
  5
5FC
330
18
100
AcDbEntity
  8
0
100
AcDbLine
 10
1.998
 20
4.794
 30
0.0
 11
1.998
 21
4.85
 31
0.0
  0
LINE
  5
5FD
330
18
100
AcDbEntity
  8
0
100
AcDbLine
 10
1.998
 20
4.794
 30
0.0
 11
2.181
 21
4.783
 31
0.0
  0
LINE
  5
5FE
330
18
100
AcDbEntity
  8
0
100
AcDbLine
 10
1.998
 20
4.85
 30
0.0
 11
2.181
 21
4.839
 31
0.0
  0
LINE
  5
5FF
330
18
100
AcDbEntity
  8
0
100
AcDbLine
 10
2.223
 20
4.781000000000001
 30
0.0
 11
2.292
 21
4.833
 31
0.0
  0
LINE
  5
600
330
18
100
AcDbEntity
  8
0
100
AcDbLine
 10
2.406
 20
4.771
 30
0.0
 11
2.406
 21
4.826000000000001
 31
0.0
  0
LINE
  5
601
330
18
100
AcDbEntity
  8
0
100
AcDbLine
 10
2.223
 20
4.781000000000001
 30
0.0
 11
2.223
 21
4.837
 31
0.0
  0
LINE
  5
602
330
18
100
AcDbEntity
  8
0
100
AcDbLine
 10
2.223
 20
4.781000000000001
 30
0.0
 11
2.406
 21
4.771
 31
0.0
  0
LINE
  5
603
330
18
100
AcDbEntity
  8
0
100
AcDbLine
 10
2.223
 20
4.837
 30
0.0
 11
2.406
 21
4.826000000000001
 31
0.0
  0
LINE
  5
604
330
18
100
AcDbEntity
  8
0
100
AcDbLine
 10
3.611
 20
4.758
 30
0.0
 11
3.794
 21
4.748
 31
0.0
  0
LINE
  5
605
330
18
100
AcDbEntity
  8
0
100
AcDbLine
 10
3.372
 20
4.772
 30
0.0
 11
3.555
 21
4.762
 31
0.0
  0
LINE
  5
606
330
18
100
AcDbEntity
  8
0
100
AcDbLine
 10
3.137
 20
4.785
 30
0.0
 11
3.32
 21
4.775
 31
0.0
  0
LINE
  5
607
330
18
100
AcDbEntity
  8
0
100
AcDbLine
 10
3.862
 20
4.744
 30
0.0
 11
4.045
 21
4.734
 31
0.0
  0
LINE
  5
608
330
18
100
AcDbEntity
  8
0
100
AcDbLine
 10
2.913
 20
4.794
 30
0.0
 11
3.097
 21
4.783
 31
0.0
  0
LINE
  5
609
330
18
100
AcDbEntity
  8
0
100
AcDbLine
 10
1.536
 20
4.763999999999999
 30
0.0
 11
1.719
 21
4.752
 31
0.0
  0
LINE
  5
60A
330
18
100
AcDbEntity
  8
0
100
AcDbLine
 10
1.535
 20
4.708
 30
0.0
 11
1.536
 21
4.763999999999999
 31
0.0
  0
LINE
  5
60B
330
18
100
AcDbEntity
  8
0
100
AcDbLine
 10
1.535
 20
4.708
 30
0.0
 11
1.605
 21
4.759
 31
0.0
  0
LINE
  5
60C
330
18
100
AcDbEntity
  8
0
100
AcDbLine
 10
3.61
 20
4.581
 30
0.0
 11
3.793
 21
4.57
 31
0.0
  0
LINE
  5
60D
330
18
100
AcDbEntity
  8
0
100
AcDbLine
 10
3.61
 20
4.581
 30
0.0
 11
3.611
 21
4.637
 31
0.0
  0
LINE
  5
60E
330
18
100
AcDbEntity
  8
0
100
AcDbLine
 10
3.793
 20
4.57
 30
0.0
 11
3.794
 21
4.626
 31
0.0
  0
LINE
  5
60F
330
18
100
AcDbEntity
  8
0
100
AcDbLine
 10
3.61
 20
4.581
 30
0.0
 11
3.68
 21
4.633
 31
0.0
  0
LINE
  5
610
330
18
100
AcDbEntity
  8
0
100
AcDbLine
 10
3.371
 20
4.596
 30
0.0
 11
3.554
 21
4.584
 31
0.0
  0
LINE
  5
611
330
18
100
AcDbEntity
  8
0
100
AcDbLine
 10
3.371
 20
4.596
 30
0.0
 11
3.372
 21
4.651
 31
0.0
  0
LINE
  5
612
330
18
100
AcDbEntity
  8
0
100
AcDbLine
 10
3.554
 20
4.584
 30
0.0
 11
3.555
 21
4.64
 31
0.0
  0
LINE
  5
613
330
18
100
AcDbEntity
  8
0
100
AcDbLine
 10
3.371
 20
4.596
 30
0.0
 11
3.441
 21
4.647
 31
0.0
  0
LINE
  5
614
330
18
100
AcDbEntity
  8
0
100
AcDbLine
 10
3.136
 20
4.61
 30
0.0
 11
3.319
 21
4.599
 31
0.0
  0
LINE
  5
615
330
18
100
AcDbEntity
  8
0
100
AcDbLine
 10
3.136
 20
4.61
 30
0.0
 11
3.136
 21
4.666
 31
0.0
  0
LINE
  5
616
330
18
100
AcDbEntity
  8
0
100
AcDbLine
 10
3.319
 20
4.599
 30
0.0
 11
3.319
 21
4.655
 31
0.0
  0
LINE
  5
617
330
18
100
AcDbEntity
  8
0
100
AcDbLine
 10
3.136
 20
4.61
 30
0.0
 11
3.205
 21
4.662
 31
0.0
  0
LINE
  5
618
330
18
100
AcDbEntity
  8
0
100
AcDbLine
 10
3.861
 20
4.566
 30
0.0
 11
4.044
 21
4.555
 31
0.0
  0
LINE
  5
619
330
18
100
AcDbEntity
  8
0
100
AcDbLine
 10
3.861
 20
4.566
 30
0.0
 11
3.861
 21
4.621
 31
0.0
  0
LINE
  5
61A
330
18
100
AcDbEntity
  8
0
100
AcDbLine
 10
4.044
 20
4.555
 30
0.0
 11
4.044
 21
4.61
 31
0.0
  0
LINE
  5
61B
330
18
100
AcDbEntity
  8
0
100
AcDbLine
 10
3.861
 20
4.566
 30
0.0
 11
3.93
 21
4.617
 31
0.0
  0
LINE
  5
61C
330
18
100
AcDbEntity
  8
0
100
AcDbLine
 10
2.912
 20
4.62
 30
0.0
 11
2.982
 21
4.671
 31
0.0
  0
LINE
  5
61D
330
18
100
AcDbEntity
  8
0
100
AcDbLine
 10
3.095
 20
4.608000000000001
 30
0.0
 11
3.096
 21
4.664
 31
0.0
  0
LINE
  5
61E
330
18
100
AcDbEntity
  8
0
100
AcDbLine
 10
2.912
 20
4.62
 30
0.0
 11
2.913
 21
4.675
 31
0.0
  0
LINE
  5
61F
330
18
100
AcDbEntity
  8
0
100
AcDbLine
 10
2.912
 20
4.62
 30
0.0
 11
3.095
 21
4.608000000000001
 31
0.0
  0
LINE
  5
620
330
18
100
AcDbEntity
  8
0
100
AcDbLine
 10
1.535
 20
4.708
 30
0.0
 11
1.718
 21
4.697
 31
0.0
  0
LINE
  5
621
330
18
100
AcDbEntity
  8
0
100
AcDbLine
 10
1.718
 20
4.697
 30
0.0
 11
1.719
 21
4.752
 31
0.0
  0
LINE
  5
622
330
18
100
AcDbEntity
  8
0
100
AcDbLine
 10
2.676
 20
4.638
 30
0.0
 11
2.746
 21
4.69
 31
0.0
  0
LINE
  5
623
330
18
100
AcDbEntity
  8
0
100
AcDbLine
 10
2.859
 20
4.627
 30
0.0
 11
2.86
 21
4.683
 31
0.0
  0
LINE
  5
624
330
18
100
AcDbEntity
  8
0
100
AcDbLine
 10
2.676
 20
4.638
 30
0.0
 11
2.677
 21
4.694
 31
0.0
  0
LINE
  5
625
330
18
100
AcDbEntity
  8
0
100
AcDbLine
 10
2.676
 20
4.638
 30
0.0
 11
2.859
 21
4.627
 31
0.0
  0
LINE
  5
626
330
18
100
AcDbEntity
  8
0
100
AcDbLine
 10
2.677
 20
4.694
 30
0.0
 11
2.86
 21
4.683
 31
0.0
  0
LINE
  5
627
330
18
100
AcDbEntity
  8
0
100
AcDbLine
 10
2.449
 20
4.652
 30
0.0
 11
2.519
 21
4.704
 31
0.0
  0
LINE
  5
628
330
18
100
AcDbEntity
  8
0
100
AcDbLine
 10
2.632
 20
4.641
 30
0.0
 11
2.633
 21
4.697
 31
0.0
  0
LINE
  5
629
330
18
100
AcDbEntity
  8
0
100
AcDbLine
 10
2.449
 20
4.652
 30
0.0
 11
2.45
 21
4.708
 31
0.0
  0
LINE
  5
62A
330
18
100
AcDbEntity
  8
0
100
AcDbLine
 10
2.449
 20
4.652
 30
0.0
 11
2.632
 21
4.641
 31
0.0
  0
LINE
  5
62B
330
18
100
AcDbEntity
  8
0
100
AcDbLine
 10
2.45
 20
4.708
 30
0.0
 11
2.633
 21
4.697
 31
0.0
  0
LINE
  5
62C
330
18
100
AcDbEntity
  8
0
100
AcDbLine
 10
1.769
 20
4.694
 30
0.0
 11
1.839
 21
4.745
 31
0.0
  0
LINE
  5
62D
330
18
100
AcDbEntity
  8
0
100
AcDbLine
 10
1.952
 20
4.682
 30
0.0
 11
1.953
 21
4.738
 31
0.0
  0
LINE
  5
62E
330
18
100
AcDbEntity
  8
0
100
AcDbLine
 10
1.769
 20
4.694
 30
0.0
 11
1.77
 21
4.749
 31
0.0
  0
LINE
  5
62F
330
18
100
AcDbEntity
  8
0
100
AcDbLine
 10
1.769
 20
4.694
 30
0.0
 11
1.952
 21
4.682
 31
0.0
  0
LINE
  5
630
330
18
100
AcDbEntity
  8
0
100
AcDbLine
 10
1.77
 20
4.749
 30
0.0
 11
1.953
 21
4.738
 31
0.0
  0
LINE
  5
631
330
18
100
AcDbEntity
  8
0
100
AcDbLine
 10
1.998
 20
4.68
 30
0.0
 11
2.067
 21
4.731
 31
0.0
  0
LINE
  5
632
330
18
100
AcDbEntity
  8
0
100
AcDbLine
 10
2.181
 20
4.668
 30
0.0
 11
2.181
 21
4.724
 31
0.0
  0
LINE
  5
633
330
18
100
AcDbEntity
  8
0
100
AcDbLine
 10
1.998
 20
4.68
 30
0.0
 11
1.998
 21
4.735
 31
0.0
  0
LINE
  5
634
330
18
100
AcDbEntity
  8
0
100
AcDbLine
 10
1.998
 20
4.68
 30
0.0
 11
2.181
 21
4.668
 31
0.0
  0
LINE
  5
635
330
18
100
AcDbEntity
  8
0
100
AcDbLine
 10
1.998
 20
4.735
 30
0.0
 11
2.181
 21
4.724
 31
0.0
  0
LINE
  5
636
330
18
100
AcDbEntity
  8
0
100
AcDbLine
 10
2.222
 20
4.666
 30
0.0
 11
2.292
 21
4.717
 31
0.0
  0
LINE
  5
637
330
18
100
AcDbEntity
  8
0
100
AcDbLine
 10
2.405
 20
4.655
 30
0.0
 11
2.406
 21
4.71
 31
0.0
  0
LINE
  5
638
330
18
100
AcDbEntity
  8
0
100
AcDbLine
 10
2.222
 20
4.666
 30
0.0
 11
2.223
 21
4.722
 31
0.0
  0
LINE
  5
639
330
18
100
AcDbEntity
  8
0
100
AcDbLine
 10
2.222
 20
4.666
 30
0.0
 11
2.405
 21
4.655
 31
0.0
  0
LINE
  5
63A
330
18
100
AcDbEntity
  8
0
100
AcDbLine
 10
2.223
 20
4.722
 30
0.0
 11
2.406
 21
4.71
 31
0.0
  0
LINE
  5
63B
330
18
100
AcDbEntity
  8
0
100
AcDbLine
 10
3.611
 20
4.637
 30
0.0
 11
3.794
 21
4.626
 31
0.0
  0
LINE
  5
63C
330
18
100
AcDbEntity
  8
0
100
AcDbLine
 10
3.372
 20
4.651
 30
0.0
 11
3.555
 21
4.64
 31
0.0
  0
LINE
  5
63D
330
18
100
AcDbEntity
  8
0
100
AcDbLine
 10
3.136
 20
4.666
 30
0.0
 11
3.319
 21
4.655
 31
0.0
  0
LINE
  5
63E
330
18
100
AcDbEntity
  8
0
100
AcDbLine
 10
3.861
 20
4.621
 30
0.0
 11
4.044
 21
4.61
 31
0.0
  0
LINE
  5
63F
330
18
100
AcDbEntity
  8
0
100
AcDbLine
 10
2.913
 20
4.675
 30
0.0
 11
3.096
 21
4.664
 31
0.0
  0
LINE
  5
640
330
18
100
AcDbEntity
  8
0
100
AcDbLine
 10
1.536
 20
4.652
 30
0.0
 11
1.719
 21
4.64
 31
0.0
  0
LINE
  5
641
330
18
100
AcDbEntity
  8
0
100
AcDbLine
 10
1.535
 20
4.596
 30
0.0
 11
1.536
 21
4.652
 31
0.0
  0
LINE
  5
642
330
18
100
AcDbEntity
  8
0
100
AcDbLine
 10
1.535
 20
4.596
 30
0.0
 11
1.605
 21
4.647
 31
0.0
  0
LINE
  5
643
330
18
100
AcDbEntity
  8
0
100
AcDbLine
 10
3.609
 20
4.462
 30
0.0
 11
3.792
 21
4.45
 31
0.0
  0
LINE
  5
644
330
18
100
AcDbEntity
  8
0
100
AcDbLine
 10
3.609
 20
4.462
 30
0.0
 11
3.61
 21
4.518
 31
0.0
  0
LINE
  5
645
330
18
100
AcDbEntity
  8
0
100
AcDbLine
 10
3.792
 20
4.45
 30
0.0
 11
3.793
 21
4.506
 31
0.0
  0
LINE
  5
646
330
18
100
AcDbEntity
  8
0
100
AcDbLine
 10
3.609
 20
4.462
 30
0.0
 11
3.679
 21
4.513
 31
0.0
  0
LINE
  5
647
330
18
100
AcDbEntity
  8
0
100
AcDbLine
 10
3.371
 20
4.477
 30
0.0
 11
3.554
 21
4.466
 31
0.0
  0
LINE
  5
648
330
18
100
AcDbEntity
  8
0
100
AcDbLine
 10
3.371
 20
4.477
 30
0.0
 11
3.372
 21
4.533
 31
0.0
  0
LINE
  5
649
330
18
100
AcDbEntity
  8
0
100
AcDbLine
 10
3.554
 20
4.466
 30
0.0
 11
3.555
 21
4.521
 31
0.0
  0
LINE
  5
64A
330
18
100
AcDbEntity
  8
0
100
AcDbLine
 10
3.371
 20
4.477
 30
0.0
 11
3.441
 21
4.529
 31
0.0
  0
LINE
  5
64B
330
18
100
AcDbEntity
  8
0
100
AcDbLine
 10
3.135
 20
4.493
 30
0.0
 11
3.318
 21
4.481
 31
0.0
  0
LINE
  5
64C
330
18
100
AcDbEntity
  8
0
100
AcDbLine
 10
3.135
 20
4.493
 30
0.0
 11
3.136
 21
4.548
 31
0.0
  0
LINE
  5
64D
330
18
100
AcDbEntity
  8
0
100
AcDbLine
 10
3.318
 20
4.481
 30
0.0
 11
3.319
 21
4.536000000000001
 31
0.0
  0
LINE
  5
64E
330
18
100
AcDbEntity
  8
0
100
AcDbLine
 10
3.135
 20
4.493
 30
0.0
 11
3.205
 21
4.544
 31
0.0
  0
LINE
  5
64F
330
18
100
AcDbEntity
  8
0
100
AcDbLine
 10
3.86
 20
4.446000000000001
 30
0.0
 11
4.043
 21
4.434
 31
0.0
  0
LINE
  5
650
330
18
100
AcDbEntity
  8
0
100
AcDbLine
 10
3.86
 20
4.446000000000001
 30
0.0
 11
3.861
 21
4.501
 31
0.0
  0
LINE
  5
651
330
18
100
AcDbEntity
  8
0
100
AcDbLine
 10
4.043
 20
4.434
 30
0.0
 11
4.044
 21
4.49
 31
0.0
  0
LINE
  5
652
330
18
100
AcDbEntity
  8
0
100
AcDbLine
 10
3.86
 20
4.446000000000001
 30
0.0
 11
3.93
 21
4.497
 31
0.0
  0
LINE
  5
653
330
18
100
AcDbEntity
  8
0
100
AcDbLine
 10
2.912
 20
4.503
 30
0.0
 11
2.982
 21
4.553999999999999
 31
0.0
  0
LINE
  5
654
330
18
100
AcDbEntity
  8
0
100
AcDbLine
 10
3.095
 20
4.491000000000001
 30
0.0
 11
3.096
 21
4.547
 31
0.0
  0
LINE
  5
655
330
18
100
AcDbEntity
  8
0
100
AcDbLine
 10
2.912
 20
4.503
 30
0.0
 11
2.913
 21
4.559
 31
0.0
  0
LINE
  5
656
330
18
100
AcDbEntity
  8
0
100
AcDbLine
 10
2.912
 20
4.503
 30
0.0
 11
3.095
 21
4.491000000000001
 31
0.0
  0
LINE
  5
657
330
18
100
AcDbEntity
  8
0
100
AcDbLine
 10
1.535
 20
4.596
 30
0.0
 11
1.718
 21
4.584
 31
0.0
  0
LINE
  5
658
330
18
100
AcDbEntity
  8
0
100
AcDbLine
 10
1.718
 20
4.584
 30
0.0
 11
1.719
 21
4.64
 31
0.0
  0
LINE
  5
659
330
18
100
AcDbEntity
  8
0
100
AcDbLine
 10
2.675
 20
4.522
 30
0.0
 11
2.745
 21
4.574
 31
0.0
  0
LINE
  5
65A
330
18
100
AcDbEntity
  8
0
100
AcDbLine
 10
2.858
 20
4.51
 30
0.0
 11
2.859
 21
4.566
 31
0.0
  0
LINE
  5
65B
330
18
100
AcDbEntity
  8
0
100
AcDbLine
 10
2.675
 20
4.522
 30
0.0
 11
2.676
 21
4.578
 31
0.0
  0
LINE
  5
65C
330
18
100
AcDbEntity
  8
0
100
AcDbLine
 10
2.675
 20
4.522
 30
0.0
 11
2.858
 21
4.51
 31
0.0
  0
LINE
  5
65D
330
18
100
AcDbEntity
  8
0
100
AcDbLine
 10
2.676
 20
4.578
 30
0.0
 11
2.859
 21
4.566
 31
0.0
  0
LINE
  5
65E
330
18
100
AcDbEntity
  8
0
100
AcDbLine
 10
2.449
 20
4.537
 30
0.0
 11
2.519
 21
4.588
 31
0.0
  0
LINE
  5
65F
330
18
100
AcDbEntity
  8
0
100
AcDbLine
 10
2.632
 20
4.525
 30
0.0
 11
2.633
 21
4.581
 31
0.0
  0
LINE
  5
660
330
18
100
AcDbEntity
  8
0
100
AcDbLine
 10
2.449
 20
4.537
 30
0.0
 11
2.45
 21
4.593
 31
0.0
  0
LINE
  5
661
330
18
100
AcDbEntity
  8
0
100
AcDbLine
 10
2.449
 20
4.537
 30
0.0
 11
2.632
 21
4.525
 31
0.0
  0
LINE
  5
662
330
18
100
AcDbEntity
  8
0
100
AcDbLine
 10
2.45
 20
4.593
 30
0.0
 11
2.633
 21
4.581
 31
0.0
  0
LINE
  5
663
330
18
100
AcDbEntity
  8
0
100
AcDbLine
 10
1.769
 20
4.581
 30
0.0
 11
1.839
 21
4.632
 31
0.0
  0
LINE
  5
664
330
18
100
AcDbEntity
  8
0
100
AcDbLine
 10
1.952
 20
4.569
 30
0.0
 11
1.953
 21
4.625
 31
0.0
  0
LINE
  5
665
330
18
100
AcDbEntity
  8
0
100
AcDbLine
 10
1.769
 20
4.581
 30
0.0
 11
1.77
 21
4.637
 31
0.0
  0
LINE
  5
666
330
18
100
AcDbEntity
  8
0
100
AcDbLine
 10
1.769
 20
4.581
 30
0.0
 11
1.952
 21
4.569
 31
0.0
  0
LINE
  5
667
330
18
100
AcDbEntity
  8
0
100
AcDbLine
 10
1.77
 20
4.637
 30
0.0
 11
1.953
 21
4.625
 31
0.0
  0
LINE
  5
668
330
18
100
AcDbEntity
  8
0
100
AcDbLine
 10
1.997
 20
4.566
 30
0.0
 11
2.067
 21
4.617
 31
0.0
  0
LINE
  5
669
330
18
100
AcDbEntity
  8
0
100
AcDbLine
 10
2.18
 20
4.553999999999999
 30
0.0
 11
2.181
 21
4.61
 31
0.0
  0
LINE
  5
66A
330
18
100
AcDbEntity
  8
0
100
AcDbLine
 10
1.997
 20
4.566
 30
0.0
 11
1.998
 21
4.622
 31
0.0
  0
LINE
  5
66B
330
18
100
AcDbEntity
  8
0
100
AcDbLine
 10
1.997
 20
4.566
 30
0.0
 11
2.18
 21
4.553999999999999
 31
0.0
  0
LINE
  5
66C
330
18
100
AcDbEntity
  8
0
100
AcDbLine
 10
1.998
 20
4.622
 30
0.0
 11
2.181
 21
4.61
 31
0.0
  0
LINE
  5
66D
330
18
100
AcDbEntity
  8
0
100
AcDbLine
 10
2.222
 20
4.552
 30
0.0
 11
2.292
 21
4.603
 31
0.0
  0
LINE
  5
66E
330
18
100
AcDbEntity
  8
0
100
AcDbLine
 10
2.405
 20
4.54
 30
0.0
 11
2.406
 21
4.595
 31
0.0
  0
LINE
  5
66F
330
18
100
AcDbEntity
  8
0
100
AcDbLine
 10
2.222
 20
4.552
 30
0.0
 11
2.223
 21
4.607
 31
0.0
  0
LINE
  5
670
330
18
100
AcDbEntity
  8
0
100
AcDbLine
 10
2.222
 20
4.552
 30
0.0
 11
2.405
 21
4.54
 31
0.0
  0
LINE
  5
671
330
18
100
AcDbEntity
  8
0
100
AcDbLine
 10
2.223
 20
4.607
 30
0.0
 11
2.406
 21
4.595
 31
0.0
  0
LINE
  5
672
330
18
100
AcDbEntity
  8
0
100
AcDbLine
 10
3.61
 20
4.518
 30
0.0
 11
3.793
 21
4.506
 31
0.0
  0
LINE
  5
673
330
18
100
AcDbEntity
  8
0
100
AcDbLine
 10
3.372
 20
4.533
 30
0.0
 11
3.555
 21
4.521
 31
0.0
  0
LINE
  5
674
330
18
100
AcDbEntity
  8
0
100
AcDbLine
 10
3.136
 20
4.548
 30
0.0
 11
3.319
 21
4.536000000000001
 31
0.0
  0
LINE
  5
675
330
18
100
AcDbEntity
  8
0
100
AcDbLine
 10
3.861
 20
4.501
 30
0.0
 11
4.044
 21
4.49
 31
0.0
  0
LINE
  5
676
330
18
100
AcDbEntity
  8
0
100
AcDbLine
 10
2.913
 20
4.559
 30
0.0
 11
3.096
 21
4.547
 31
0.0
  0
LINE
  5
677
330
18
100
AcDbEntity
  8
0
100
AcDbLine
 10
1.537
 20
4.54
 30
0.0
 11
1.719
 21
4.525
 31
0.0
  0
LINE
  5
678
330
18
100
AcDbEntity
  8
0
100
AcDbLine
 10
1.535
 20
4.484
 30
0.0
 11
1.537
 21
4.54
 31
0.0
  0
LINE
  5
679
330
18
100
AcDbEntity
  8
0
100
AcDbLine
 10
1.535
 20
4.484
 30
0.0
 11
1.606
 21
4.534
 31
0.0
  0
LINE
  5
67A
330
18
100
AcDbEntity
  8
0
100
AcDbLine
 10
3.607
 20
4.323
 30
0.0
 11
3.79
 21
4.309
 31
0.0
  0
LINE
  5
67B
330
18
100
AcDbEntity
  8
0
100
AcDbLine
 10
3.607
 20
4.323
 30
0.0
 11
3.609
 21
4.379
 31
0.0
  0
LINE
  5
67C
330
18
100
AcDbEntity
  8
0
100
AcDbLine
 10
3.79
 20
4.309
 30
0.0
 11
3.791
 21
4.365
 31
0.0
  0
LINE
  5
67D
330
18
100
AcDbEntity
  8
0
100
AcDbLine
 10
3.607
 20
4.323
 30
0.0
 11
3.678
 21
4.373
 31
0.0
  0
LINE
  5
67E
330
18
100
AcDbEntity
  8
0
100
AcDbLine
 10
3.369
 20
4.342
 30
0.0
 11
3.551
 21
4.327
 31
0.0
  0
LINE
  5
67F
330
18
100
AcDbEntity
  8
0
100
AcDbLine
 10
3.369
 20
4.342
 30
0.0
 11
3.37
 21
4.397
 31
0.0
  0
LINE
  5
680
330
18
100
AcDbEntity
  8
0
100
AcDbLine
 10
3.551
 20
4.327
 30
0.0
 11
3.553
 21
4.383
 31
0.0
  0
LINE
  5
681
330
18
100
AcDbEntity
  8
0
100
AcDbLine
 10
3.369
 20
4.342
 30
0.0
 11
3.439
 21
4.392
 31
0.0
  0
LINE
  5
682
330
18
100
AcDbEntity
  8
0
100
AcDbLine
 10
3.133
 20
4.36
 30
0.0
 11
3.316
 21
4.346
 31
0.0
  0
LINE
  5
683
330
18
100
AcDbEntity
  8
0
100
AcDbLine
 10
3.133
 20
4.36
 30
0.0
 11
3.135
 21
4.416
 31
0.0
  0
LINE
  5
684
330
18
100
AcDbEntity
  8
0
100
AcDbLine
 10
3.316
 20
4.346
 30
0.0
 11
3.318
 21
4.401
 31
0.0
  0
LINE
  5
685
330
18
100
AcDbEntity
  8
0
100
AcDbLine
 10
3.133
 20
4.36
 30
0.0
 11
3.204
 21
4.41
 31
0.0
  0
LINE
  5
686
330
18
100
AcDbEntity
  8
0
100
AcDbLine
 10
3.858
 20
4.303999999999999
 30
0.0
 11
4.04
 21
4.289
 31
0.0
  0
LINE
  5
687
330
18
100
AcDbEntity
  8
0
100
AcDbLine
 10
3.858
 20
4.303999999999999
 30
0.0
 11
3.859
 21
4.359
 31
0.0
  0
LINE
  5
688
330
18
100
AcDbEntity
  8
0
100
AcDbLine
 10
4.04
 20
4.289
 30
0.0
 11
4.042
 21
4.345
 31
0.0
  0
LINE
  5
689
330
18
100
AcDbEntity
  8
0
100
AcDbLine
 10
3.858
 20
4.303999999999999
 30
0.0
 11
3.928
 21
4.354
 31
0.0
  0
LINE
  5
68A
330
18
100
AcDbEntity
  8
0
100
AcDbLine
 10
2.91
 20
4.373
 30
0.0
 11
2.981
 21
4.423
 31
0.0
  0
LINE
  5
68B
330
18
100
AcDbEntity
  8
0
100
AcDbLine
 10
3.093
 20
4.359
 30
0.0
 11
3.095
 21
4.415
 31
0.0
  0
LINE
  5
68C
330
18
100
AcDbEntity
  8
0
100
AcDbLine
 10
2.91
 20
4.373
 30
0.0
 11
2.912
 21
4.428999999999999
 31
0.0
  0
LINE
  5
68D
330
18
100
AcDbEntity
  8
0
100
AcDbLine
 10
2.91
 20
4.373
 30
0.0
 11
3.093
 21
4.359
 31
0.0
  0
LINE
  5
68E
330
18
100
AcDbEntity
  8
0
100
AcDbLine
 10
1.535
 20
4.484
 30
0.0
 11
1.718
 21
4.47
 31
0.0
  0
LINE
  5
68F
330
18
100
AcDbEntity
  8
0
100
AcDbLine
 10
1.718
 20
4.47
 30
0.0
 11
1.719
 21
4.525
 31
0.0
  0
LINE
  5
690
330
18
100
AcDbEntity
  8
0
100
AcDbLine
 10
2.674
 20
4.395
 30
0.0
 11
2.745
 21
4.446000000000001
 31
0.0
  0
LINE
  5
691
330
18
100
AcDbEntity
  8
0
100
AcDbLine
 10
2.857
 20
4.381
 30
0.0
 11
2.858
 21
4.437
 31
0.0
  0
LINE
  5
692
330
18
100
AcDbEntity
  8
0
100
AcDbLine
 10
2.674
 20
4.395
 30
0.0
 11
2.676
 21
4.451000000000001
 31
0.0
  0
LINE
  5
693
330
18
100
AcDbEntity
  8
0
100
AcDbLine
 10
2.674
 20
4.395
 30
0.0
 11
2.857
 21
4.381
 31
0.0
  0
LINE
  5
694
330
18
100
AcDbEntity
  8
0
100
AcDbLine
 10
2.676
 20
4.451000000000001
 30
0.0
 11
2.858
 21
4.437
 31
0.0
  0
LINE
  5
695
330
18
100
AcDbEntity
  8
0
100
AcDbLine
 10
2.448
 20
4.413
 30
0.0
 11
2.518
 21
4.463
 31
0.0
  0
LINE
  5
696
330
18
100
AcDbEntity
  8
0
100
AcDbLine
 10
2.63
 20
4.399
 30
0.0
 11
2.632
 21
4.455
 31
0.0
  0
LINE
  5
697
330
18
100
AcDbEntity
  8
0
100
AcDbLine
 10
2.448
 20
4.413
 30
0.0
 11
2.449
 21
4.468999999999999
 31
0.0
  0
LINE
  5
698
330
18
100
AcDbEntity
  8
0
100
AcDbLine
 10
2.448
 20
4.413
 30
0.0
 11
2.63
 21
4.399
 31
0.0
  0
LINE
  5
699
330
18
100
AcDbEntity
  8
0
100
AcDbLine
 10
2.449
 20
4.468999999999999
 30
0.0
 11
2.632
 21
4.455
 31
0.0
  0
LINE
  5
69A
330
18
100
AcDbEntity
  8
0
100
AcDbLine
 10
1.769
 20
4.466
 30
0.0
 11
1.839
 21
4.516
 31
0.0
  0
LINE
  5
69B
330
18
100
AcDbEntity
  8
0
100
AcDbLine
 10
1.951
 20
4.452
 30
0.0
 11
1.953
 21
4.507
 31
0.0
  0
LINE
  5
69C
330
18
100
AcDbEntity
  8
0
100
AcDbLine
 10
1.769
 20
4.466
 30
0.0
 11
1.77
 21
4.521
 31
0.0
  0
LINE
  5
69D
330
18
100
AcDbEntity
  8
0
100
AcDbLine
 10
1.769
 20
4.466
 30
0.0
 11
1.951
 21
4.452
 31
0.0
  0
LINE
  5
69E
330
18
100
AcDbEntity
  8
0
100
AcDbLine
 10
1.77
 20
4.521
 30
0.0
 11
1.953
 21
4.507
 31
0.0
  0
LINE
  5
69F
330
18
100
AcDbEntity
  8
0
100
AcDbLine
 10
1.997
 20
4.448
 30
0.0
 11
2.067
 21
4.498
 31
0.0
  0
LINE
  5
6A0
330
18
100
AcDbEntity
  8
0
100
AcDbLine
 10
2.179
 20
4.434
 30
0.0
 11
2.181
 21
4.49
 31
0.0
  0
LINE
  5
6A1
330
18
100
AcDbEntity
  8
0
100
AcDbLine
 10
1.997
 20
4.448
 30
0.0
 11
1.998
 21
4.504
 31
0.0
  0
LINE
  5
6A2
330
18
100
AcDbEntity
  8
0
100
AcDbLine
 10
1.997
 20
4.448
 30
0.0
 11
2.179
 21
4.434
 31
0.0
  0
LINE
  5
6A3
330
18
100
AcDbEntity
  8
0
100
AcDbLine
 10
1.998
 20
4.504
 30
0.0
 11
2.181
 21
4.49
 31
0.0
  0
LINE
  5
6A4
330
18
100
AcDbEntity
  8
0
100
AcDbLine
 10
2.221
 20
4.431
 30
0.0
 11
2.292
 21
4.481
 31
0.0
  0
LINE
  5
6A5
330
18
100
AcDbEntity
  8
0
100
AcDbLine
 10
2.404
 20
4.416
 30
0.0
 11
2.406
 21
4.472
 31
0.0
  0
LINE
  5
6A6
330
18
100
AcDbEntity
  8
0
100
AcDbLine
 10
2.221
 20
4.431
 30
0.0
 11
2.223
 21
4.486000000000001
 31
0.0
  0
LINE
  5
6A7
330
18
100
AcDbEntity
  8
0
100
AcDbLine
 10
2.221
 20
4.431
 30
0.0
 11
2.404
 21
4.416
 31
0.0
  0
LINE
  5
6A8
330
18
100
AcDbEntity
  8
0
100
AcDbLine
 10
2.223
 20
4.486000000000001
 30
0.0
 11
2.406
 21
4.472
 31
0.0
  0
LINE
  5
6A9
330
18
100
AcDbEntity
  8
0
100
AcDbLine
 10
3.609
 20
4.379
 30
0.0
 11
3.791
 21
4.365
 31
0.0
  0
LINE
  5
6AA
330
18
100
AcDbEntity
  8
0
100
AcDbLine
 10
3.37
 20
4.397
 30
0.0
 11
3.553
 21
4.383
 31
0.0
  0
LINE
  5
6AB
330
18
100
AcDbEntity
  8
0
100
AcDbLine
 10
3.135
 20
4.416
 30
0.0
 11
3.318
 21
4.401
 31
0.0
  0
LINE
  5
6AC
330
18
100
AcDbEntity
  8
0
100
AcDbLine
 10
3.859
 20
4.359
 30
0.0
 11
4.042
 21
4.345
 31
0.0
  0
LINE
  5
6AD
330
18
100
AcDbEntity
  8
0
100
AcDbLine
 10
2.912
 20
4.428999999999999
 30
0.0
 11
3.095
 21
4.415
 31
0.0
  0
LINE
  5
6AE
330
18
100
AcDbEntity
  8
0
100
AcDbLine
 10
1.536
 20
6.332000000000001
 30
0.0
 11
1.719
 21
6.323
 31
0.0
  0
LINE
  5
6AF
330
18
100
AcDbEntity
  8
0
100
AcDbLine
 10
1.536
 20
6.276
 30
0.0
 11
1.536
 21
6.332000000000001
 31
0.0
  0
LINE
  5
6B0
330
18
100
AcDbEntity
  8
0
100
AcDbLine
 10
1.536
 20
6.276
 30
0.0
 11
1.605
 21
6.329
 31
0.0
  0
LINE
  5
6B1
330
18
100
AcDbEntity
  8
0
100
AcDbLine
 10
3.612
 20
6.178
 30
0.0
 11
3.795
 21
6.169
 31
0.0
  0
LINE
  5
6B2
330
18
100
AcDbEntity
  8
0
100
AcDbLine
 10
3.612
 20
6.178
 30
0.0
 11
3.612
 21
6.234
 31
0.0
  0
LINE
  5
6B3
330
18
100
AcDbEntity
  8
0
100
AcDbLine
 10
3.795
 20
6.169
 30
0.0
 11
3.795
 21
6.225
 31
0.0
  0
LINE
  5
6B4
330
18
100
AcDbEntity
  8
0
100
AcDbLine
 10
3.612
 20
6.178
 30
0.0
 11
3.681
 21
6.231
 31
0.0
  0
LINE
  5
6B5
330
18
100
AcDbEntity
  8
0
100
AcDbLine
 10
3.373
 20
6.189
 30
0.0
 11
3.556
 21
6.181
 31
0.0
  0
LINE
  5
6B6
330
18
100
AcDbEntity
  8
0
100
AcDbLine
 10
3.373
 20
6.189
 30
0.0
 11
3.373
 21
6.245
 31
0.0
  0
LINE
  5
6B7
330
18
100
AcDbEntity
  8
0
100
AcDbLine
 10
3.556
 20
6.181
 30
0.0
 11
3.556
 21
6.236000000000001
 31
0.0
  0
LINE
  5
6B8
330
18
100
AcDbEntity
  8
0
100
AcDbLine
 10
3.373
 20
6.189
 30
0.0
 11
3.442
 21
6.242000000000001
 31
0.0
  0
LINE
  5
6B9
330
18
100
AcDbEntity
  8
0
100
AcDbLine
 10
3.137
 20
6.2
 30
0.0
 11
3.32
 21
6.192
 31
0.0
  0
LINE
  5
6BA
330
18
100
AcDbEntity
  8
0
100
AcDbLine
 10
3.137
 20
6.2
 30
0.0
 11
3.137
 21
6.256
 31
0.0
  0
LINE
  5
6BB
330
18
100
AcDbEntity
  8
0
100
AcDbLine
 10
3.32
 20
6.192
 30
0.0
 11
3.32
 21
6.247999999999999
 31
0.0
  0
LINE
  5
6BC
330
18
100
AcDbEntity
  8
0
100
AcDbLine
 10
3.137
 20
6.2
 30
0.0
 11
3.206
 21
6.252999999999999
 31
0.0
  0
LINE
  5
6BD
330
18
100
AcDbEntity
  8
0
100
AcDbLine
 10
3.863
 20
6.166
 30
0.0
 11
4.046
 21
6.158
 31
0.0
  0
LINE
  5
6BE
330
18
100
AcDbEntity
  8
0
100
AcDbLine
 10
3.863
 20
6.166
 30
0.0
 11
3.863
 21
6.222
 31
0.0
  0
LINE
  5
6BF
330
18
100
AcDbEntity
  8
0
100
AcDbLine
 10
4.046
 20
6.158
 30
0.0
 11
4.046
 21
6.212999999999999
 31
0.0
  0
LINE
  5
6C0
330
18
100
AcDbEntity
  8
0
100
AcDbLine
 10
3.863
 20
6.166
 30
0.0
 11
3.932
 21
6.218999999999999
 31
0.0
  0
LINE
  5
6C1
330
18
100
AcDbEntity
  8
0
100
AcDbLine
 10
2.914
 20
6.207000000000001
 30
0.0
 11
2.983
 21
6.259
 31
0.0
  0
LINE
  5
6C2
330
18
100
AcDbEntity
  8
0
100
AcDbLine
 10
3.097
 20
6.198
 30
0.0
 11
3.097
 21
6.254
 31
0.0
  0
LINE
  5
6C3
330
18
100
AcDbEntity
  8
0
100
AcDbLine
 10
2.914
 20
6.207000000000001
 30
0.0
 11
2.914
 21
6.263
 31
0.0
  0
LINE
  5
6C4
330
18
100
AcDbEntity
  8
0
100
AcDbLine
 10
2.914
 20
6.207000000000001
 30
0.0
 11
3.097
 21
6.198
 31
0.0
  0
LINE
  5
6C5
330
18
100
AcDbEntity
  8
0
100
AcDbLine
 10
1.536
 20
6.276
 30
0.0
 11
1.719
 21
6.267
 31
0.0
  0
LINE
  5
6C6
330
18
100
AcDbEntity
  8
0
100
AcDbLine
 10
1.719
 20
6.267
 30
0.0
 11
1.719
 21
6.323
 31
0.0
  0
LINE
  5
6C7
330
18
100
AcDbEntity
  8
0
100
AcDbLine
 10
2.677
 20
6.222
 30
0.0
 11
2.746
 21
6.275
 31
0.0
  0
LINE
  5
6C8
330
18
100
AcDbEntity
  8
0
100
AcDbLine
 10
2.86
 20
6.214
 30
0.0
 11
2.86
 21
6.269
 31
0.0
  0
LINE
  5
6C9
330
18
100
AcDbEntity
  8
0
100
AcDbLine
 10
2.677
 20
6.222
 30
0.0
 11
2.677
 21
6.278
 31
0.0
  0
LINE
  5
6CA
330
18
100
AcDbEntity
  8
0
100
AcDbLine
 10
2.677
 20
6.222
 30
0.0
 11
2.86
 21
6.214
 31
0.0
  0
LINE
  5
6CB
330
18
100
AcDbEntity
  8
0
100
AcDbLine
 10
2.677
 20
6.278
 30
0.0
 11
2.86
 21
6.269
 31
0.0
  0
LINE
  5
6CC
330
18
100
AcDbEntity
  8
0
100
AcDbLine
 10
2.45
 20
6.233
 30
0.0
 11
2.519
 21
6.285
 31
0.0
  0
LINE
  5
6CD
330
18
100
AcDbEntity
  8
0
100
AcDbLine
 10
2.633
 20
6.224
 30
0.0
 11
2.633
 21
6.28
 31
0.0
  0
LINE
  5
6CE
330
18
100
AcDbEntity
  8
0
100
AcDbLine
 10
2.45
 20
6.233
 30
0.0
 11
2.45
 21
6.289
 31
0.0
  0
LINE
  5
6CF
330
18
100
AcDbEntity
  8
0
100
AcDbLine
 10
2.45
 20
6.233
 30
0.0
 11
2.633
 21
6.224
 31
0.0
  0
LINE
  5
6D0
330
18
100
AcDbEntity
  8
0
100
AcDbLine
 10
2.45
 20
6.289
 30
0.0
 11
2.633
 21
6.28
 31
0.0
  0
LINE
  5
6D1
330
18
100
AcDbEntity
  8
0
100
AcDbLine
 10
1.77
 20
6.265
 30
0.0
 11
1.839
 21
6.318
 31
0.0
  0
LINE
  5
6D2
330
18
100
AcDbEntity
  8
0
100
AcDbLine
 10
1.953
 20
6.256
 30
0.0
 11
1.953
 21
6.312
 31
0.0
  0
LINE
  5
6D3
330
18
100
AcDbEntity
  8
0
100
AcDbLine
 10
1.77
 20
6.265
 30
0.0
 11
1.77
 21
6.321000000000001
 31
0.0
  0
LINE
  5
6D4
330
18
100
AcDbEntity
  8
0
100
AcDbLine
 10
1.77
 20
6.265
 30
0.0
 11
1.953
 21
6.256
 31
0.0
  0
LINE
  5
6D5
330
18
100
AcDbEntity
  8
0
100
AcDbLine
 10
1.77
 20
6.321000000000001
 30
0.0
 11
1.953
 21
6.312
 31
0.0
  0
LINE
  5
6D6
330
18
100
AcDbEntity
  8
0
100
AcDbLine
 10
1.998
 20
6.254
 30
0.0
 11
2.067
 21
6.307
 31
0.0
  0
LINE
  5
6D7
330
18
100
AcDbEntity
  8
0
100
AcDbLine
 10
2.181
 20
6.246
 30
0.0
 11
2.181
 21
6.301
 31
0.0
  0
LINE
  5
6D8
330
18
100
AcDbEntity
  8
0
100
AcDbLine
 10
1.998
 20
6.254
 30
0.0
 11
1.998
 21
6.31
 31
0.0
  0
LINE
  5
6D9
330
18
100
AcDbEntity
  8
0
100
AcDbLine
 10
1.998
 20
6.254
 30
0.0
 11
2.181
 21
6.246
 31
0.0
  0
LINE
  5
6DA
330
18
100
AcDbEntity
  8
0
100
AcDbLine
 10
1.998
 20
6.31
 30
0.0
 11
2.181
 21
6.301
 31
0.0
  0
LINE
  5
6DB
330
18
100
AcDbEntity
  8
0
100
AcDbLine
 10
2.223
 20
6.244
 30
0.0
 11
2.292
 21
6.296
 31
0.0
  0
LINE
  5
6DC
330
18
100
AcDbEntity
  8
0
100
AcDbLine
 10
2.406
 20
6.235
 30
0.0
 11
2.406
 21
6.291
 31
0.0
  0
LINE
  5
6DD
330
18
100
AcDbEntity
  8
0
100
AcDbLine
 10
2.223
 20
6.244
 30
0.0
 11
2.223
 21
6.299
 31
0.0
  0
LINE
  5
6DE
330
18
100
AcDbEntity
  8
0
100
AcDbLine
 10
2.223
 20
6.244
 30
0.0
 11
2.406
 21
6.235
 31
0.0
  0
LINE
  5
6DF
330
18
100
AcDbEntity
  8
0
100
AcDbLine
 10
2.223
 20
6.299
 30
0.0
 11
2.406
 21
6.291
 31
0.0
  0
LINE
  5
6E0
330
18
100
AcDbEntity
  8
0
100
AcDbLine
 10
3.612
 20
6.234
 30
0.0
 11
3.795
 21
6.225
 31
0.0
  0
LINE
  5
6E1
330
18
100
AcDbEntity
  8
0
100
AcDbLine
 10
3.373
 20
6.245
 30
0.0
 11
3.556
 21
6.236000000000001
 31
0.0
  0
LINE
  5
6E2
330
18
100
AcDbEntity
  8
0
100
AcDbLine
 10
3.137
 20
6.256
 30
0.0
 11
3.32
 21
6.247999999999999
 31
0.0
  0
LINE
  5
6E3
330
18
100
AcDbEntity
  8
0
100
AcDbLine
 10
3.863
 20
6.222
 30
0.0
 11
4.046
 21
6.212999999999999
 31
0.0
  0
LINE
  5
6E4
330
18
100
AcDbEntity
  8
0
100
AcDbLine
 10
2.914
 20
6.263
 30
0.0
 11
3.097
 21
6.254
 31
0.0
  0
TEXT
  5
6E5
330
18
100
AcDbEntity
  8
0
100
AcDbText
 10
3.792073
 20
1.272096
 30
0.0
 40
0.18
  1
Simpson Strong-Tie
100
AcDbText
  0
TEXT
  5
6E6
330
18
100
AcDbEntity
  8
0
100
AcDbText
 10
3.792073
 20
0.980668
 30
0.0
 40
0.18
  1
LUS28
100
AcDbText
  0
ENDSEC
  0
SECTION
  2
OBJECTS
  0
DICTIONARY
  5
C
330
0
100
AcDbDictionary
281
     1
  3
ACAD_COLOR
350
6EC
  3
ACAD_GROUP
350
D
  3
ACAD_LAYOUT
350
15
  3
ACAD_MATERIAL
350
6EE
  3
ACAD_MLINESTYLE
350
12
  3
ACAD_PLOTSETTINGS
350
14
  3
ACAD_PLOTSTYLENAME
350
E
  3
ACDBHEADERROUNDTRIPXREC
350
6EB
  0
DICTIONARY
  5
6EC
102
{ACAD_REACTORS
330
C
102
}
330
C
100
AcDbDictionary
281
     1
  0
DICTIONARY
  5
D
102
{ACAD_REACTORS
330
C
102
}
330
C
100
AcDbDictionary
281
     1
  0
DICTIONARY
  5
15
102
{ACAD_REACTORS
330
C
102
}
330
C
100
AcDbDictionary
281
     1
  3
Layout1
350
17
  3
Model
350
19
  0
DICTIONARY
  5
6EE
102
{ACAD_REACTORS
330
C
102
}
330
C
100
AcDbDictionary
281
     1
  0
DICTIONARY
  5
12
102
{ACAD_REACTORS
330
C
102
}
330
C
100
AcDbDictionary
281
     1
  3
Standard
350
13
  0
DICTIONARY
  5
14
102
{ACAD_REACTORS
330
C
102
}
330
C
100
AcDbDictionary
281
     1
  0
ACDBDICTIONARYWDFLT
  5
E
102
{ACAD_REACTORS
330
C
102
}
330
C
100
AcDbDictionary
281
     1
  3
Normal
350
F
100
AcDbDictionaryWithDefault
340
F
  0
DICTIONARY
  5
6EB
102
{ACAD_REACTORS
330
C
102
}
330
C
100
AcDbDictionary
281
     1
  3
COLORDICT
350
6ED
  3
MATERIALDICT
350
6EF
  0
LAYOUT
  5
17
102
{ACAD_REACTORS
330
15
102
}
102
{ACAD_XDICTIONARY
360
6F0
102
}
330
15
100
AcDbPlotSettings
  1

  2

  4

  6

 40
0.0
 41
0.0
 42
0.0
 43
0.0
 44
0.0
 45
0.0
 46
0.0
 47
0.0
 48
0.0
 49
0.0
140
0.0
141
0.0
142
1.0
143
1.0
 70
   688
 72
     0
 73
     0
 74
     5
  7

 75
    16
147
1.0
148
0.0
149
0.0
100
AcDbLayout
  1
Layout1
 70
     1
 71
     1
 10
0.0
 20
0.0
 11
12.0
 21
9.0
 12
0.0
 22
0.0
 32
0.0
 14
1.000000000000000E+20
 24
1.000000000000000E+20
 34
1.000000000000000E+20
 15
-1.000000000000000E+20
 25
-1.000000000000000E+20
 35
-1.000000000000000E+20
146
0.0
 13
0.0
 23
0.0
 33
0.0
 16
1.0
 26
0.0
 36
0.0
 17
0.0
 27
1.0
 37
0.0
 76
     0
330
16
  0
LAYOUT
  5
19
102
{ACAD_REACTORS
330
15
102
}
102
{ACAD_XDICTIONARY
360
6F2
102
}
330
15
100
AcDbPlotSettings
  1

  2

  4

  6

 40
0.0
 41
0.0
 42
0.0
 43
0.0
 44
0.0
 45
0.0
 46
0.0
 47
0.0
 48
0.0
 49
0.0
140
0.0
141
0.0
142
1.0
143
1.0
 70
  1712
 72
     0
 73
     0
 74
     0
  7

 75
     0
147
1.0
148
0.0
149
0.0
100
AcDbLayout
  1
Model
 70
     1
 71
     0
 10
0.0
 20
0.0
 11
0.0
 21
0.0
 12
0.0
 22
0.0
 32
0.0
 14
0.0
 24
0.0
 34
0.0
 15
0.0
 25
0.0
 35
0.0
146
0.0
 13
0.0
 23
0.0
 33
0.0
 16
1.0
 26
0.0
 36
0.0
 17
0.0
 27
1.0
 37
0.0
 76
     0
330
18
  0
MLINESTYLE
  5
13
102
{ACAD_REACTORS
330
12
102
}
330
12
100
AcDbMlineStyle
  2
Standard
 70
     0
  3

 62
   256
 51
90.0
 52
90.0
 71
     2
 49
0.5
 62
   256
  6
BYLAYER
 49
-0.5
 62
   256
  6
BYLAYER
  0
ACDBPLACEHOLDER
  5
F
102
{ACAD_REACTORS
330
E
102
}
330
E
  0
XRECORD
  5
6ED
102
{ACAD_REACTORS
330
6EB
102
}
330
6EB
100
AcDbXrecord
340
6EC
  0
XRECORD
  5
6EF
102
{ACAD_REACTORS
330
6EB
102
}
330
6EB
100
AcDbXrecord
340
6EE
  0
DICTIONARY
  5
6F0
330
17
100
AcDbDictionary
280
     1
281
     1
  3
ACAD_XREC_ROUNDTRIP
360
6F1
  0
DICTIONARY
  5
6F2
330
19
100
AcDbDictionary
280
     1
281
     1
  3
ACAD_XREC_ROUNDTRIP
360
6F3
  0
XRECORD
  5
6F1
102
{ACAD_REACTORS
330
6F0
102
}
330
6F0
100
AcDbXrecord
102
SHADEPLOT
 70
-21088
102
SHADEPLOTRESLEVEL
 70
  7968
102
SHADEPLOTCUSTOMDPI
 70
-21008
  0
XRECORD
  5
6F3
102
{ACAD_REACTORS
330
6F2
102
}
330
6F2
100
AcDbXrecord
102
SHADEPLOT
 70
     0
102
SHADEPLOTRESLEVEL
 70
     0
102
SHADEPLOTCUSTOMDPI
 70
     0
  0
ENDSEC
  0
EOF
