  0
SECTION
  2
HEADER
  9
$ACADVER
  1
AC1015
  9
$ACADMAINTVER
 70
     6
  9
$DWGCODEPAGE
  3
ANSI_1252
  9
$INSBASE
 10
0.0
 20
0.0
 30
0.0
  9
$EXTMIN
 10
66.528764486086
 20
127.9318639597728
 30
-0.0015258207003612
  9
$EXTMAX
 10
156.6572603351148
 20
258.4521318748747
 30
0.0000000349246008
  9
$LIMMIN
 10
66.46260986328124
 20
127.80615234375
  9
$LIMMAX
 10
156.7854342990451
 20
258.5778428819444
  9
$ORTHOMODE
 70
     0
  9
$REGENMODE
 70
     1
  9
$FILLMODE
 70
     1
  9
$QTEXTMODE
 70
     0
  9
$MIRRTEXT
 70
     1
  9
$LTSCALE
 40
1.0
  9
$ATTMODE
 70
     1
  9
$TEXTSIZE
 40
0.2
  9
$TRACEWID
 40
0.05
  9
$TEXTSTYLE
  7
STANDARD
  9
$CLAYER
  8
0
  9
$CELTYPE
  6
CONTINUOUS
  9
$CECOLOR
 62
   256
  9
$CELTSCALE
 40
1.0
  9
$DISPSILH
 70
     0
  9
$DIMSCALE
 40
1.0
  9
$DIMASZ
 40
0.18
  9
$DIMEXO
 40
0.0625
  9
$DIMDLI
 40
0.38
  9
$DIMRND
 40
0.0
  9
$DIMDLE
 40
0.0
  9
$DIMEXE
 40
0.18
  9
$DIMTP
 40
0.0
  9
$DIMTM
 40
0.0
  9
$DIMTXT
 40
0.18
  9
$DIMCEN
 40
0.09
  9
$DIMTSZ
 40
0.0
  9
$DIMTOL
 70
     0
  9
$DIMLIM
 70
     0
  9
$DIMTIH
 70
     1
  9
$DIMTOH
 70
     1
  9
$DIMSE1
 70
     0
  9
$DIMSE2
 70
     0
  9
$DIMTAD
 70
     0
  9
$DIMZIN
 70
     0
  9
$DIMBLK
  1

  9
$DIMASO
 70
     1
  9
$DIMSHO
 70
     1
  9
$DIMPOST
  1

  9
$DIMAPOST
  1

  9
$DIMALT
 70
     0
  9
$DIMALTD
 70
     2
  9
$DIMALTF
 40
25.4
  9
$DIMLFAC
 40
1.0
  9
$DIMTOFL
 70
     0
  9
$DIMTVP
 40
0.0
  9
$DIMTIX
 70
     0
  9
$DIMSOXD
 70
     0
  9
$DIMSAH
 70
     0
  9
$DIMBLK1
  1

  9
$DIMBLK2
  1

  9
$DIMSTYLE
  2
STANDARD
  9
$DIMCLRD
 70
     0
  9
$DIMCLRE
 70
     0
  9
$DIMCLRT
 70
     0
  9
$DIMTFAC
 40
1.0
  9
$DIMGAP
 40
0.09
  9
$DIMJUST
 70
     0
  9
$DIMSD1
 70
     0
  9
$DIMSD2
 70
     0
  9
$DIMTOLJ
 70
     1
  9
$DIMTZIN
 70
     0
  9
$DIMALTZ
 70
     0
  9
$DIMALTTZ
 70
     0
  9
$DIMUPT
 70
     0
  9
$DIMDEC
 70
     4
  9
$DIMTDEC
 70
     4
  9
$DIMALTU
 70
     2
  9
$DIMALTTD
 70
     2
  9
$DIMTXSTY
  7
STANDARD
  9
$DIMAUNIT
 70
     0
  9
$DIMADEC
 70
     0
  9
$DIMALTRND
 40
0.0
  9
$DIMAZIN
 70
     0
  9
$DIMDSEP
 70
    46
  9
$DIMATFIT
 70
     3
  9
$DIMFRAC
 70
     0
  9
$DIMLDRBLK
  1

  9
$DIMLUNIT
 70
     2
  9
$DIMLWD
 70
    -2
  9
$DIMLWE
 70
    -2
  9
$DIMTMOVE
 70
     0
  9
$LUNITS
 70
     2
  9
$LUPREC
 70
     4
  9
$SKETCHINC
 40
0.1
  9
$FILLETRAD
 40
0.0
  9
$AUNITS
 70
     0
  9
$AUPREC
 70
     0
  9
$MENU
  1
acad
  9
$ELEVATION
 40
0.0
  9
$PELEVATION
 40
0.0
  9
$THICKNESS
 40
0.0
  9
$LIMCHECK
 70
     0
  9
$CHAMFERA
 40
0.0
  9
$CHAMFERB
 40
0.0
  9
$CHAMFERC
 40
0.0
  9
$CHAMFERD
 40
0.0
  9
$SKPOLY
 70
     0
  9
$TDCREATE
 40
2444971.666666667
  9
$TDUCREATE
 40
2444972.0
  9
$TDUPDATE
 40
2452219.370090278
  9
$TDUUPDATE
 40
2452219.703423611
  9
$TDINDWG
 40
0.0002186343
  9
$TDUSRTIMER
 40
0.0002186343
  9
$USRTIMER
 70
     1
  9
$ANGBASE
 50
0.0
  9
$ANGDIR
 70
     0
  9
$PDMODE
 70
     0
  9
$PDSIZE
 40
0.0
  9
$PLINEWID
 40
0.0
  9
$SPLFRAME
 70
     0
  9
$SPLINETYPE
 70
     6
  9
$SPLINESEGS
 70
     8
  9
$HANDSEED
  5
26E
  9
$SURFTAB1
 70
     6
  9
$SURFTAB2
 70
     6
  9
$SURFTYPE
 70
     6
  9
$SURFU
 70
     6
  9
$SURFV
 70
     6
  9
$UCSBASE
  2

  9
$UCSNAME
  2

  9
$UCSORG
 10
0.0
 20
0.0
 30
0.0
  9
$UCSXDIR
 10
1.0
 20
0.0
 30
0.0
  9
$UCSYDIR
 10
0.0
 20
1.0
 30
0.0
  9
$UCSORTHOREF
  2

  9
$UCSORTHOVIEW
 70
     0
  9
$UCSORGTOP
 10
0.0
 20
0.0
 30
0.0
  9
$UCSORGBOTTOM
 10
0.0
 20
0.0
 30
0.0
  9
$UCSORGLEFT
 10
0.0
 20
0.0
 30
0.0
  9
$UCSORGRIGHT
 10
0.0
 20
0.0
 30
0.0
  9
$UCSORGFRONT
 10
0.0
 20
0.0
 30
0.0
  9
$UCSORGBACK
 10
0.0
 20
0.0
 30
0.0
  9
$PUCSBASE
  2

  9
$PUCSNAME
  2

  9
$PUCSORG
 10
0.0
 20
0.0
 30
0.0
  9
$PUCSXDIR
 10
1.0
 20
0.0
 30
0.0
  9
$PUCSYDIR
 10
0.0
 20
1.0
 30
0.0
  9
$PUCSORTHOREF
  2

  9
$PUCSORTHOVIEW
 70
     0
  9
$PUCSORGTOP
 10
0.0
 20
0.0
 30
0.0
  9
$PUCSORGBOTTOM
 10
0.0
 20
0.0
 30
0.0
  9
$PUCSORGLEFT
 10
0.0
 20
0.0
 30
0.0
  9
$PUCSORGRIGHT
 10
0.0
 20
0.0
 30
0.0
  9
$PUCSORGFRONT
 10
0.0
 20
0.0
 30
0.0
  9
$PUCSORGBACK
 10
0.0
 20
0.0
 30
0.0
  9
$USERI1
 70
     0
  9
$USERI2
 70
     0
  9
$USERI3
 70
     0
  9
$USERI4
 70
     0
  9
$USERI5
 70
     0
  9
$USERR1
 40
0.0
  9
$USERR2
 40
0.0
  9
$USERR3
 40
0.0
  9
$USERR4
 40
0.0
  9
$USERR5
 40
0.0
  9
$WORLDVIEW
 70
     1
  9
$SHADEDGE
 70
     3
  9
$SHADEDIF
 70
    70
  9
$TILEMODE
 70
     1
  9
$MAXACTVP
 70
    16
  9
$PINSBASE
 10
0.0
 20
0.0
 30
0.0
  9
$PLIMCHECK
 70
     0
  9
$PEXTMIN
 10
1.000000000000000E+20
 20
1.000000000000000E+20
 30
1.000000000000000E+20
  9
$PEXTMAX
 10
-1.000000000000000E+20
 20
-1.000000000000000E+20
 30
-1.000000000000000E+20
  9
$PLIMMIN
 10
0.0
 20
0.0
  9
$PLIMMAX
 10
12.0
 20
9.0
  9
$UNITMODE
 70
     0
  9
$VISRETAIN
 70
     0
  9
$PLINEGEN
 70
     1
  9
$PSLTSCALE
 70
     0
  9
$TREEDEPTH
 70
  3020
  9
$CMLSTYLE
  2
STANDARD
  9
$CMLJUST
 70
     0
  9
$CMLSCALE
 40
1.0
  9
$PROXYGRAPHICS
 70
     0
  9
$MEASUREMENT
 70
     0
  9
$CELWEIGHT
370
    -1
  9
$ENDCAPS
280
     0
  9
$JOINSTYLE
280
     0
  9
$LWDISPLAY
290
     0
  9
$INSUNITS
 70
     0
  9
$HYPERLINKBASE
  1

  9
$STYLESHEET
  1

  9
$XEDIT
290
     1
  9
$CEPSNTYPE
380
     0
  9
$PSTYLEMODE
290
     1
  9
$FINGERPRINTGUID
  2
{0AE0CF3F-D1C7-11D5-923F-00805F198AD5}
  9
$VERSIONGUID
  2
{0AE0CF41-D1C7-11D5-923F-00805F198AD5}
  9
$EXTNAMES
290
     1
  9
$PSVPSCALE
 40
0.0
  9
$OLESTARTUP
290
     0
  0
ENDSEC
  0
SECTION
  2
CLASSES
  0
CLASS
  1
LWPOLYLINE
  2
AcDbPolyline
  3
AutoCAD 2000
 90
        0
280
     0
281
     1
  0
CLASS
  1
IMAGE
  2
AcDbRasterImage
  3
ISM
 90
      127
280
     0
281
     1
  0
CLASS
  1
OLE2FRAME
  2
AcDbOle2Frame
  3
AutoCAD 2000
 90
        0
280
     0
281
     1
  0
CLASS
  1
HATCH
  2
AcDbHatch
  3
AutoCAD 2000
 90
        0
280
     0
281
     1
  0
CLASS
  1
DICTIONARYVAR
  2
AcDbDictionaryVar
  3
AutoCAD 2000
 90
        0
280
     0
281
     0
  0
CLASS
  1
RASTERVARIABLES
  2
AcDbRasterVariables
  3
ISM
 90
        0
280
     0
281
     0
  0
CLASS
  1
IMAGEDEF
  2
AcDbRasterImageDef
  3
ISM
 90
        0
280
     0
281
     0
  0
CLASS
  1
IMAGEDEF_REACTOR
  2
AcDbRasterImageDefReactor
  3
ISM
 90
        1
280
     0
281
     0
  0
CLASS
  1
IDBUFFER
  2
AcDbIdBuffer
  3
AutoCAD 2000
 90
        0
280
     0
281
     0
  0
CLASS
  1
SPATIAL_FILTER
  2
AcDbSpatialFilter
  3
AutoCAD 2000
 90
        0
280
     0
281
     0
  0
CLASS
  1
XRECORD
  2
AcDbXrecord
  3
AutoCAD 2000
 90
        0
280
     0
281
     0
  0
CLASS
  1
SORTENTSTABLE
  2
AcDbSortentsTable
  3
AutoCAD 2000
 90
        0
280
     0
281
     0
  0
CLASS
  1
LAYER_INDEX
  2
AcDbLayerIndex
  3
AutoCAD 2000
 90
        0
280
     0
281
     0
  0
CLASS
  1
SPATIAL_INDEX
  2
AcDbSpatialIndex
  3
AutoCAD 2000
 90
        0
280
     0
281
     0
  0
CLASS
  1
OBJECT_PTR
  2
CAseDLPNTableRecord
  3
ASE-LPNTableRecord
 90
        1
280
     1
281
     0
  0
CLASS
  1
LAYOUT
  2
AcDbLayout
  3
ObjectDBX Classes
 90
        0
280
     0
281
     0
  0
CLASS
  1
PLOTSETTINGS
  2
AcDbPlotSettings
  3
AutoCAD 2000
 90
        0
280
     0
281
     0
  0
CLASS
  1
ACDBDICTIONARYWDFLT
  2
AcDbDictionaryWithDefault
  3
AutoCAD 2000
 90
        0
280
     0
281
     0
  0
CLASS
  1
ACDBPLACEHOLDER
  2
AcDbPlaceHolder
  3
ObjectDBX Classes
 90
        0
280
     0
281
     0
  0
CLASS
  1
VBAPROJECT
  2
AcDbVbaProject
  3
ObjectDBX Classes
 90
        0
280
     0
281
     0
  0
CLASS
  1
WIPEOUT
  2
AcDbWipeout
  3
WipeOut|AutoCAD Express Tool|expresstools@autodesk.com
 90
      127
280
     0
281
     1
  0
CLASS
  1
WIPEOUTVARIABLES
  2
AcDbWipeoutVariables
  3
WipeOut|AutoCAD Express Tool|expresstools@autodesk.com
 90
        0
280
     0
281
     0
  0
CLASS
  1
RTEXT
  2
RText
  3
RText|AutoCAD Express Tool|expresstools@autodesk.com
 90
        0
280
     0
281
     1
  0
CLASS
  1
ARCALIGNEDTEXT
  2
AcDbArcAlignedText
  3
ATEXT|AutoCAD Express Tool|expresstools@autodesk.com
 90
        0
280
     0
281
     1
  0
CLASS
  1
LONG_TRANSACTION
  2
AcDbLongTransaction
  3
AutoCAD 2000
 90
        0
280
     1
281
     0
  0
CLASS
  1
LWPOLYLINE
  2
AcDbPolyline
  3
AutoCAD 2000
 90
        0
280
     0
281
     1
  0
CLASS
  1
HATCH
  2
AcDbHatch
  3
AutoCAD 2000
 90
        0
280
     0
281
     1
  0
CLASS
  1
XRECORD
  2
AcDbXrecord
  3
AutoCAD 2000
 90
        0
280
     0
281
     0
  0
ENDSEC
  0
SECTION
  2
TABLES
  0
TABLE
  2
VPORT
  5
7
330
0
100
AcDbSymbolTable
 70
     2
  0
VPORT
  5
23A
330
7
100
AcDbSymbolTableRecord
100
AcDbViewportTableRecord
  2
*Active
 70
     0
 10
0.0
 20
0.0
 11
1.0
 21
1.0
 12
111.5930124106004
 22
193.1919979173237
 13
0.0
 23
0.0
 14
1.0
 24
1.0
 15
0.0
 25
0.0
 16
0.0
 26
0.0
 36
1.0
 17
0.0
 27
0.0
 37
0.0
 40
132.5757052051035
 41
1.836842105263158
 42
50.0
 43
0.0
 44
0.0
 50
0.0
 51
0.0
 71
     0
 72
   100
 73
     1
 74
     1
 75
     0
 76
     0
 77
     0
 78
     0
281
     0
 65
     1
110
0.0
120
0.0
130
0.0
111
1.0
121
0.0
131
0.0
112
0.0
122
1.0
132
0.0
 79
     0
146
0.0
  0
ENDTAB
  0
TABLE
  2
LTYPE
  5
4
330
0
100
AcDbSymbolTable
 70
     2
  0
LTYPE
  5
11
330
4
100
AcDbSymbolTableRecord
100
AcDbLinetypeTableRecord
  2
BYBLOCK
 70
     0
  3

 72
    65
 73
     0
 40
0.0
  0
LTYPE
  5
12
330
4
100
AcDbSymbolTableRecord
100
AcDbLinetypeTableRecord
  2
BYLAYER
 70
     0
  3

 72
    65
 73
     0
 40
0.0
  0
LTYPE
  5
13
330
4
100
AcDbSymbolTableRecord
100
AcDbLinetypeTableRecord
  2
CONTINUOUS
 70
     0
  3
Solid line
 72
    65
 73
     0
 40
0.0
  0
LTYPE
  5
1B8
330
4
100
AcDbSymbolTableRecord
100
AcDbLinetypeTableRecord
  2
AI9-LTYPE1
 70
     0
  3
Illustrator Dash Style No.1
 72
    65
 73
     2
 40
1.763888888888889
 49
0.8819444444444444
 74
     0
 49
-0.8819444444444444
 74
     0
  0
ENDTAB
  0
TABLE
  2
LAYER
  5
2
330
0
100
AcDbSymbolTable
 70
     2
  0
LAYER
  5
14
330
2
100
AcDbSymbolTableRecord
100
AcDbLayerTableRecord
  2
0
 70
     0
 62
     7
  6
CONTINUOUS
370
    -3
390
0
  0
LAYER
  5
21
330
2
100
AcDbSymbolTableRecord
100
AcDbLayerTableRecord
  2
LAYER_1
 70
     0
 62
     5
  6
CONTINUOUS
370
    -3
390
0
  0
ENDTAB
  0
TABLE
  2
STYLE
  5
3
330
0
100
AcDbSymbolTable
 70
     5
  0
STYLE
  5
17
330
3
100
AcDbSymbolTableRecord
100
AcDbTextStyleTableRecord
  2
STANDARD
 70
     0
 40
0.0
 41
1.0
 50
0.0
 71
     0
 42
0.2
  3
txt
  4

  0
STYLE
  5
1D
330
3
100
AcDbSymbolTableRecord
100
AcDbTextStyleTableRecord
  2
STD
 70
     0
 40
0.0
 41
1.0
 50
0.0
 71
     0
 42
0.2
  3
txt
  4

  0
STYLE
  5
1E
330
3
100
AcDbSymbolTableRecord
100
AcDbTextStyleTableRecord
  2
TATESTD
 70
     4
 40
0.0
 41
1.0
 50
0.0
 71
     0
 42
0.2
  3
txt
  4

  0
STYLE
  5
1F
330
3
100
AcDbSymbolTableRecord
100
AcDbTextStyleTableRecord
  2
KANJISTD
 70
     0
 40
0.0
 41
1.0
 50
0.0
 71
     0
 42
0.2
  3
txt
  4
extfont
  0
STYLE
  5
20
330
3
100
AcDbSymbolTableRecord
100
AcDbTextStyleTableRecord
  2
KANJITATE
 70
     4
 40
0.0
 41
1.0
 50
0.0
 71
     0
 42
0.2
  3
txt
  4
extfont
  0
ENDTAB
  0
TABLE
  2
VIEW
  5
5
330
0
100
AcDbSymbolTable
 70
     0
  0
ENDTAB
  0
TABLE
  2
UCS
  5
6
330
0
100
AcDbSymbolTable
 70
     0
  0
ENDTAB
  0
TABLE
  2
APPID
  5
8
330
0
100
AcDbSymbolTable
 70
     1
  0
APPID
  5
16
330
8
100
AcDbSymbolTableRecord
100
AcDbRegAppTableRecord
  2
ACAD
 70
     0
  0
ENDTAB
  0
TABLE
  2
DIMSTYLE
  5
9
330
0
100
AcDbSymbolTable
 70
     1
100
AcDbDimStyleTable
  0
DIMSTYLE
105
18
330
9
100
AcDbSymbolTableRecord
100
AcDbDimStyleTableRecord
  2
STANDARD
 70
     0
  3

  4

289
     0
340
17
  0
ENDTAB
  0
TABLE
  2
BLOCK_RECORD
  5
1
330
0
100
AcDbSymbolTable
 70
     0
  0
BLOCK_RECORD
  5
A
330
1
100
AcDbSymbolTableRecord
100
AcDbBlockTableRecord
  2
*MODEL_SPACE
340
235
  0
BLOCK_RECORD
  5
B
330
1
100
AcDbSymbolTableRecord
100
AcDbBlockTableRecord
  2
*PAPER_SPACE
340
236
  0
ENDTAB
  0
ENDSEC
  0
SECTION
  2
BLOCKS
  0
BLOCK
  5
D
330
A
100
AcDbEntity
  8
0
100
AcDbBlockBegin
  2
*MODEL_SPACE
 70
     0
 10
0.0
 20
0.0
 30
0.0
  3
*MODEL_SPACE
  1

  4

  0
ENDBLK
  5
E
330
A
100
AcDbEntity
  8
0
100
AcDbBlockEnd
  0
BLOCK
  5
F
330
B
100
AcDbEntity
 67
     1
  8
0
100
AcDbBlockBegin
  2
*PAPER_SPACE
 70
     0
 10
0.0
 20
0.0
 30
0.0
  3
*PAPER_SPACE
  1

  4

  0
ENDBLK
  5
10
330
B
100
AcDbEntity
 67
     1
  8
0
100
AcDbBlockEnd
  0
ENDSEC
  0
SECTION
  2
ENTITIES
  0
LWPOLYLINE
  5
222
330
A
100
AcDbEntity
  8
LAYER_1
 62
     7
100
AcDbPolyline
 90
       12
 70
     0
 43
0.0
 10
104.2649536132812
 20
148.4605333116319
 10
104.2649536132812
 20
137.4786024305556
 10
108.7614922417535
 20
134.1265245225694
 10
109.9466050889757
 20
134.6177951388889
 10
111.2771009657118
 20
129.6720160590278
 10
113.2656100802951
 20
130.7696234809028
 10
117.0621053059896
 20
127.9384440104167
 10
122.8602010091146
 20
131.0693467881944
 10
122.8602010091146
 20
133.8888129340278
 10
128.3826890733507
 20
136.5566948784722
 10
128.3826890733507
 20
192.633203125
 10
104.2649536132812
 20
185.5941840277778
  0
LWPOLYLINE
  5
20C
330
A
100
AcDbEntity
  8
LAYER_1
 62
     7
100
AcDbPolyline
 90
       20
 70
     0
 43
0.0
 10
128.0169921875
 20
211.9872328016493
 10
139.7397908528646
 20
214.4592610677083
 10
145.2436754014757
 20
213.2355631510417
 10
145.2436754014757
 20
212.3274359809028
 10
151.3525187174479
 20
212.9193033854166
 10
151.3600979275174
 20
211.8747504340278
 10
154.0837904188368
 20
211.2684136284722
 10
154.0837904188368
 20
206.9544650607639
 10
156.6531426323785
 20
206.3047200520833
 10
156.6531426323785
 20
200.6347819010416
 10
78.29582383897569
 20
178.13486328125
 10
74.83556993272569
 20
180.2239691840278
 10
74.83419189453124
 20
181.4724717881944
 10
69.2021497938368
 20
181.47109375
 10
69.20008273654513
 20
183.6277235243055
 10
66.60523681640625
 20
185.1683702256944
 10
66.60523681640625
 20
192.29833984375
 10
72.80296359592013
 20
193.7170301649306
 10
72.80296359592013
 20
200.3433268229167
 10
95.79501410590277
 20
205.1919542100694
  0
LWPOLYLINE
  5
206
330
A
100
AcDbEntity
  8
LAYER_1
 62
     7
100
AcDbPolyline
 90
        4
 70
     0
 43
0.0
 10
120.7919379340278
 20
232.5348158094618
 10
127.9878811306424
 20
225.6496202256944
 10
127.9878811306424
 20
205.12236328125
 10
116.6893459743924
 20
202.4641276041666
  0
LINE
  5
205
330
A
100
AcDbEntity
  8
LAYER_1
 62
     7
100
AcDbLine
 10
113.5811808268229
 20
239.4343085394965
 30
0.0
 11
114.527204047309
 21
238.5289374457465
 31
0.0
  0
LWPOLYLINE
  5
1EE
330
A
100
AcDbEntity
  8
LAYER_1
 62
     7
100
AcDbPolyline
 90
       21
 70
     0
 43
0.0
 10
95.51337754991319
 20
209.0408148871528
 10
69.61349419487847
 20
217.084423828125
 10
69.61349419487847
 20
224.8310655381944
 10
68.7432630750868
 20
225.7012966579861
 10
70.6876749674479
 20
227.1881998697917
 10
69.61349419487847
 20
228.1107964409722
 10
69.61349419487847
 20
235.9532118055555
 10
75.49289415147568
 20
236.2963433159722
 10
75.49289415147568
 20
236.4107204861111
 10
79.68006320529513
 20
236.7056206597222
 10
88.15362006293402
 20
235.4757215711805
 10
80.91134033203124
 20
243.8741753472222
 10
82.71243625217014
 20
249.0342393663194
 10
81.54730495876736
 20
250.8339572482639
 10
84.6430677625868
 20
250.8070855034722
 10
83.87136637369791
 20
252.3560004340278
 10
85.38927544487846
 20
256.7037109375
 10
88.40235595703125
 20
256.7278266059028
 10
89.14305148654513
 20
258.4455512152778
 10
93.73054063585069
 20
258.4283257378472
 10
107.360888671875
 20
245.3861416286892
  0
LWPOLYLINE
  5
1E5
330
A
100
AcDbEntity
  8
LAYER_1
 62
     7
100
AcDbPolyline
 90
        7
 70
     0
 43
0.0
 10
84.46667887369792
 20
194.8690700954861
 10
84.46667887369792
 20
187.5571994357639
 10
80.40422227647569
 20
189.7096950954861
 10
80.40422227647569
 20
191.6623752170139
 10
74.37943929036457
 20
191.8346299913194
 10
74.37943929036457
 20
192.8846950954861
 10
72.80571967230902
 20
193.7170301649306
  0
LINE
  5
1E4
330
A
100
AcDbEntity
  8
LAYER_1
 62
     7
100
AcDbLine
 10
78.29651285807292
 20
178.1389973958333
 30
0.0
 11
78.29651285807292
 21
185.9386935763889
 31
0.0
  0
LINE
  5
1E3
330
A
100
AcDbEntity
  8
LAYER_1
 62
     7
100
AcDbLine
 10
74.83005777994791
 20
187.8238498263889
 30
0.0
 11
74.83005777994791
 21
181.4366427951389
 31
0.0
  0
LINE
  5
1E2
330
A
100
AcDbEntity
  8
LAYER_1
 62
     7
100
AcDbLine
 10
69.19801567925347
 20
188.7168185763889
 30
0.0
 11
69.20008273654513
 21
183.6208333333333
 31
0.0
  0
SPLINE
  5
1E1
330
A
100
AcDbEntity
  8
LAYER_1
 62
     7
100
AcDbSpline
210
0.0
220
0.0
230
1.0
 70
     8
 71
     3
 72
    11
 73
     7
 74
     0
 42
0.0000000001
 43
0.0000000001
 40
0.0
 40
0.0
 40
0.0
 40
0.0
 40
1.0
 40
1.0
 40
1.0
 40
2.0
 40
2.0
 40
2.0
 40
2.0
 10
66.61763916015624
 20
191.4198404947917
 30
0.0
 10
67.05378824869791
 20
191.2861707899305
 30
0.0
 10
67.75314263237847
 20
191.0636176215278
 30
0.0
 10
68.10592041015624
 20
190.7818088107639
 30
0.0
 10
68.87831081814235
 20
190.1658257378472
 30
0.0
 10
69.62934163411458
 20
189.7972005208333
 30
0.0
 10
70.09994167751735
 20
189.59462890625
 30
0.0
  0
SPLINE
  5
1E0
330
A
100
AcDbEntity
  8
LAYER_1
 62
     7
100
AcDbSpline
210
0.0
220
0.0
230
1.0
 70
     8
 71
     3
 72
    11
 73
     7
 74
     0
 42
0.0000000001
 43
0.0000000001
 40
0.0
 40
0.0
 40
0.0
 40
0.0
 40
1.0
 40
1.0
 40
1.0
 40
2.0
 40
2.0
 40
2.0
 40
2.0
 10
66.61763916015624
 20
189.8523220486111
 30
0.0
 10
67.12131212022568
 20
189.9088216145833
 30
0.0
 10
67.69113091362847
 20
189.6842013888889
 30
0.0
 10
67.97225070529514
 20
189.5615559895833
 30
0.0
 10
68.25268147786457
 20
189.4389105902778
 30
0.0
 10
68.96857231987846
 20
189.0702853732639
 30
0.0
 10
69.33788655598957
 20
188.8670247395833
 30
0.0
  0
SPLINE
  5
1DF
330
A
100
AcDbEntity
  8
LAYER_1
 62
     7
100
AcDbSpline
210
0.0
220
0.0
230
1.0
 70
     8
 71
     3
 72
    11
 73
     7
 74
     0
 42
0.0000000001
 43
0.0000000001
 40
0.0
 40
0.0
 40
0.0
 40
0.0
 40
1.0
 40
1.0
 40
1.0
 40
2.0
 40
2.0
 40
2.0
 40
2.0
 10
66.61763916015624
 20
188.8346408420139
 30
0.0
 10
66.94216715494791
 20
188.6548068576389
 30
0.0
 10
67.45686442057291
 20
188.298583984375
 30
0.0
 10
67.82617865668402
 20
188.2186577690972
 30
0.0
 10
68.19618191189235
 20
188.1394205729167
 30
0.0
 10
68.75635443793402
 20
187.9837022569444
 30
0.0
 10
69.19319254557291
 20
187.703271484375
 30
0.0
  0
SPLINE
  5
1DE
330
A
100
AcDbEntity
  8
LAYER_1
 62
     7
100
AcDbSpline
210
0.0
220
0.0
230
1.0
 70
     8
 71
     3
 72
    11
 73
     7
 74
     0
 42
0.0000000001
 43
0.0000000001
 40
0.0
 40
0.0
 40
0.0
 40
0.0
 40
1.0
 40
1.0
 40
1.0
 40
2.0
 40
2.0
 40
2.0
 40
2.0
 10
66.61763916015624
 20
187.5799370659722
 30
0.0
 10
66.9759290907118
 20
187.5585774739583
 30
0.0
 10
67.5464369032118
 20
187.3890787760417
 30
0.0
 10
67.82617865668402
 20
187.1430989583333
 30
0.0
 10
68.10592041015624
 20
186.897119140625
 30
0.0
 10
68.8796888563368
 20
186.3934461805555
 30
0.0
 10
69.19319254557291
 20
186.2136121961806
 30
0.0
  0
SPLINE
  5
1DD
330
A
100
AcDbEntity
  8
LAYER_1
 62
     7
100
AcDbSpline
210
0.0
220
0.0
230
1.0
 70
     8
 71
     3
 72
    11
 73
     7
 74
     0
 42
0.0000000001
 43
0.0000000001
 40
0.0
 40
0.0
 40
0.0
 40
0.0
 40
1.0
 40
1.0
 40
1.0
 40
2.0
 40
2.0
 40
2.0
 40
2.0
 10
66.5949015299479
 20
186.5264268663194
 30
0.0
 10
66.93114284939236
 20
186.3031846788194
 30
0.0
 10
67.8378919813368
 20
185.787109375
 30
0.0
 10
68.16241997612846
 20
185.6872016059028
 30
0.0
 10
68.48694797092013
 20
185.5866048177083
 30
0.0
 10
68.77909206814236
 20
185.4184841579861
 30
0.0
 10
69.19319254557291
 20
185.0939561631944
 30
0.0
  0
SPLINE
  5
1DC
330
A
100
AcDbEntity
  8
LAYER_1
 62
     7
100
AcDbSpline
210
0.0
220
0.0
230
1.0
 70
     8
 71
     3
 72
    11
 73
     7
 74
     0
 42
0.0000000001
 43
0.0000000001
 40
0.0
 40
0.0
 40
0.0
 40
0.0
 40
1.0
 40
1.0
 40
1.0
 40
2.0
 40
2.0
 40
2.0
 40
2.0
 10
69.20283881293402
 20
188.23037109375
 30
0.0
 10
69.85258382161457
 20
188.2186577690972
 30
0.0
 10
70.92676459418402
 20
188.2517306857639
 30
0.0
 10
71.59924723307292
 20
188.0939453125
 30
0.0
 10
72.27104085286457
 20
187.9361599392361
 30
0.0
 10
74.44282904730902
 20
187.9044650607639
 30
0.0
 10
74.94650200737847
 20
187.9044650607639
 30
0.0
  0
SPLINE
  5
1DB
330
A
100
AcDbEntity
  8
LAYER_1
 62
     7
100
AcDbSpline
210
0.0
220
0.0
230
1.0
 70
     8
 71
     3
 72
    11
 73
     7
 74
     0
 42
0.0000000001
 43
0.0000000001
 40
0.0
 40
0.0
 40
0.0
 40
0.0
 40
1.0
 40
1.0
 40
1.0
 40
2.0
 40
2.0
 40
2.0
 40
2.0
 10
69.20421685112846
 20
186.84130859375
 30
0.0
 10
70.04275309244791
 20
186.8178819444444
 30
0.0
 10
71.18514675564235
 20
187.0418131510417
 30
0.0
 10
71.94582383897568
 20
186.9977159288194
 30
0.0
 10
72.70718994140624
 20
186.9529296875
 30
0.0
 10
74.29744601779514
 20
186.8068576388889
 30
0.0
 10
74.82454562717014
 20
186.8068576388889
 30
0.0
  0
SPLINE
  5
1DA
330
A
100
AcDbEntity
  8
LAYER_1
 62
     7
100
AcDbSpline
210
0.0
220
0.0
230
1.0
 70
     8
 71
     3
 72
    11
 73
     7
 74
     0
 42
0.0000000001
 43
0.0000000001
 40
0.0
 40
0.0
 40
0.0
 40
0.0
 40
1.0
 40
1.0
 40
1.0
 40
2.0
 40
2.0
 40
2.0
 40
2.0
 10
69.21524115668402
 20
185.6672200520833
 30
0.0
 10
69.84224853515624
 20
185.7671278211805
 30
0.0
 10
70.96052652994791
 20
186.0248209635417
 30
0.0
 10
71.75565456814236
 20
185.8339626736111
 30
0.0
 10
72.5507826063368
 20
185.6431043836805
 30
0.0
 10
74.23061116536458
 20
185.5307942708333
 30
0.0
 10
74.82454562717014
 20
185.5197699652778
 30
0.0
  0
SPLINE
  5
1D9
330
A
100
AcDbEntity
  8
LAYER_1
 62
     7
100
AcDbSpline
210
0.0
220
0.0
230
1.0
 70
     8
 71
     3
 72
    11
 73
     7
 74
     0
 42
0.0000000001
 43
0.0000000001
 40
0.0
 40
0.0
 40
0.0
 40
0.0
 40
1.0
 40
1.0
 40
1.0
 40
2.0
 40
2.0
 40
2.0
 40
2.0
 10
69.20283881293402
 20
184.3105414496528
 30
0.0
 10
69.81813286675347
 20
184.4455891927083
 30
0.0
 10
70.60292561848958
 20
184.4442111545139
 30
0.0
 10
71.49865044487846
 20
184.41044921875
 30
0.0
 10
72.3929972330729
 20
184.3787543402778
 30
0.0
 10
74.24163547092013
 20
184.2450846354167
 30
0.0
 10
74.83556993272569
 20
184.3346571180555
 30
0.0
  0
SPLINE
  5
1D8
330
A
100
AcDbEntity
  8
LAYER_1
 62
     7
100
AcDbSpline
210
0.0
220
0.0
230
1.0
 70
     8
 71
     3
 72
    11
 73
     7
 74
     0
 42
0.0000000001
 43
0.0000000001
 40
0.0
 40
0.0
 40
0.0
 40
0.0
 40
1.0
 40
1.0
 40
1.0
 40
2.0
 40
2.0
 40
2.0
 40
2.0
 10
69.20421685112846
 20
182.9449055989583
 30
0.0
 10
70.19984944661458
 20
182.9890028211806
 30
0.0
 10
70.99359944661458
 20
183.1915744357639
 30
0.0
 10
71.90172661675346
 20
183.1026909722222
 30
0.0
 10
72.80916476779514
 20
183.0096733940972
 30
0.0
 10
74.32018364800346
 20
182.9793565538194
 30
0.0
 10
74.82454562717014
 20
183.1130262586806
 30
0.0
  0
SPLINE
  5
1D7
330
A
100
AcDbEntity
  8
LAYER_1
 62
     7
100
AcDbSpline
210
0.0
220
0.0
230
1.0
 70
     8
 71
     3
 72
    11
 73
     7
 74
     0
 42
0.0000000001
 43
0.0000000001
 40
0.0
 40
0.0
 40
0.0
 40
0.0
 40
1.0
 40
1.0
 40
1.0
 40
2.0
 40
2.0
 40
2.0
 40
2.0
 10
69.20283881293402
 20
181.6805555555555
 30
0.0
 10
69.94146728515625
 20
181.8032009548611
 30
0.0
 10
70.79378390842014
 20
181.9258463541667
 30
0.0
 10
71.55515001085068
 20
181.9031087239583
 30
0.0
 10
72.31582709418402
 20
181.88037109375
 30
0.0
 10
74.16584337022569
 20
182.0822536892361
 30
0.0
 10
74.8142103407118
 20
182.0271321614583
 30
0.0
  0
SPLINE
  5
1D6
330
A
100
AcDbEntity
  8
LAYER_1
 62
     7
100
AcDbSpline
210
0.0
220
0.0
230
1.0
 70
     8
 71
     3
 72
    11
 73
     7
 74
     0
 42
0.0000000001
 43
0.0000000001
 40
0.0
 40
0.0
 40
0.0
 40
0.0
 40
1.0
 40
1.0
 40
1.0
 40
2.0
 40
2.0
 40
2.0
 40
2.0
 10
74.84659423828124
 20
186.2253255208333
 30
0.0
 10
75.36129150390624
 20
186.2253255208333
 30
0.0
 10
75.75265435112847
 20
186.0696072048611
 30
0.0
 10
76.24599202473958
 20
185.8112250434028
 30
0.0
 10
76.73864067925346
 20
185.5535319010417
 30
0.0
 10
77.73427327473958
 20
184.6467827690972
 30
0.0
 10
78.29375678168402
 20
184.478662109375
 30
0.0
  0
SPLINE
  5
1D5
330
A
100
AcDbEntity
  8
LAYER_1
 62
     7
100
AcDbSpline
210
0.0
220
0.0
230
1.0
 70
     8
 71
     3
 72
    11
 73
     7
 74
     0
 42
0.0000000001
 43
0.0000000001
 40
0.0
 40
0.0
 40
0.0
 40
0.0
 40
1.0
 40
1.0
 40
1.0
 40
2.0
 40
2.0
 40
2.0
 40
2.0
 10
74.84659423828124
 20
185.2737901475694
 30
0.0
 10
75.50736355251735
 20
184.825927734375
 30
0.0
 10
76.20189480251736
 20
184.4455891927083
 30
0.0
 10
76.59256863064235
 20
184.3449924045139
 30
0.0
 10
76.9846204969618
 20
184.2450846354167
 30
0.0
 10
77.77905951605902
 20
183.6277235243055
 30
0.0
 10
78.29375678168402
 20
183.5147243923611
 30
0.0
  0
SPLINE
  5
1D4
330
A
100
AcDbEntity
  8
LAYER_1
 62
     7
100
AcDbSpline
210
0.0
220
0.0
230
1.0
 70
     8
 71
     3
 72
    11
 73
     7
 74
     0
 42
0.0000000001
 43
0.0000000001
 40
0.0
 40
0.0
 40
0.0
 40
0.0
 40
1.0
 40
1.0
 40
1.0
 40
2.0
 40
2.0
 40
2.0
 40
2.0
 10
74.84659423828124
 20
184.0425130208333
 30
0.0
 10
75.37369384765624
 20
183.7731065538194
 30
0.0
 10
76.03377414279514
 20
183.4947428385416
 30
0.0
 10
76.26804063585068
 20
183.4382432725694
 30
0.0
 10
76.50299614800346
 20
183.3810546875
 30
0.0
 10
77.72462700737846
 20
182.3854220920139
 30
0.0
 10
78.27308620876735
 20
182.3185872395833
 30
0.0
  0
SPLINE
  5
1D3
330
A
100
AcDbEntity
  8
LAYER_1
 62
     7
100
AcDbSpline
210
0.0
220
0.0
230
1.0
 70
     8
 71
     3
 72
    11
 73
     7
 74
     0
 42
0.0000000001
 43
0.0000000001
 40
0.0
 40
0.0
 40
0.0
 40
0.0
 40
1.0
 40
1.0
 40
1.0
 40
2.0
 40
2.0
 40
2.0
 40
2.0
 10
74.83556993272569
 20
182.7884982638889
 30
0.0
 10
75.37369384765624
 20
182.6203776041667
 30
0.0
 10
75.60727132161458
 20
182.407470703125
 30
0.0
 10
76.08889567057291
 20
182.1153266059028
 30
0.0
 10
76.57052001953124
 20
181.8259385850694
 30
0.0
 10
77.84589436848958
 20
180.8303059895833
 30
0.0
 10
78.28342149522568
 20
180.7620930989583
 30
0.0
  0
SPLINE
  5
1D2
330
A
100
AcDbEntity
  8
LAYER_1
 62
     7
100
AcDbSpline
210
0.0
220
0.0
230
1.0
 70
     8
 71
     3
 72
    11
 73
     7
 74
     0
 42
0.0000000001
 43
0.0000000001
 40
0.0
 40
0.0
 40
0.0
 40
0.0
 40
1.0
 40
1.0
 40
1.0
 40
2.0
 40
2.0
 40
2.0
 40
2.0
 10
74.84659423828124
 20
181.6454155815972
 30
0.0
 10
75.48462592230902
 20
181.489697265625
 30
0.0
 10
75.65343560112846
 20
181.1651692708333
 30
0.0
 10
76.05513373480902
 20
180.9743109809028
 30
0.0
 10
76.4575208875868
 20
180.7841417100694
 30
0.0
 10
77.71015760633679
 20
179.989013671875
 30
0.0
 10
78.2930677625868
 20
179.8429416232639
 30
0.0
  0
LINE
  5
1D1
330
A
100
AcDbEntity
  8
LAYER_1
 62
     7
100
AcDbLine
 10
74.37943929036457
 20
197.9668999565972
 30
0.0
 11
74.37943929036457
 21
192.88125
 31
0.0
  0
LINE
  5
1D0
330
A
100
AcDbEntity
  8
LAYER_1
 62
     7
100
AcDbLine
 10
80.40491129557292
 20
196.7707628038194
 30
0.0
 11
80.40491129557292
 21
191.6623752170139
 31
0.0
  0
SPLINE
  5
1CF
330
A
100
AcDbEntity
  8
LAYER_1
 62
     7
100
AcDbSpline
210
0.0
220
0.0
230
1.0
 70
     8
 71
     3
 72
    11
 73
     7
 74
     0
 42
0.0000000001
 43
0.0000000001
 40
0.0
 40
0.0
 40
0.0
 40
0.0
 40
1.0
 40
1.0
 40
1.0
 40
2.0
 40
2.0
 40
2.0
 40
2.0
 10
72.81812201605902
 20
199.6646430121528
 30
0.0
 10
73.27080756293402
 20
199.4992784288194
 30
0.0
 10
73.54434814453124
 20
199.4613823784722
 30
0.0
 10
73.94191216362846
 20
199.1582139756944
 30
0.0
 10
74.34016520182291
 20
198.8564236111111
 30
0.0
 10
74.50484076605902
 20
198.74755859375
 30
0.0
 10
74.88793538411457
 20
198.5126030815972
 30
0.0
  0
SPLINE
  5
1CE
330
A
100
AcDbEntity
  8
LAYER_1
 62
     7
100
AcDbSpline
210
0.0
220
0.0
230
1.0
 70
     8
 71
     3
 72
    11
 73
     7
 74
     0
 42
0.0000000001
 43
0.0000000001
 40
0.0
 40
0.0
 40
0.0
 40
0.0
 40
1.0
 40
1.0
 40
1.0
 40
2.0
 40
2.0
 40
2.0
 40
2.0
 10
72.8050306532118
 20
198.4306098090278
 30
0.0
 10
73.17503390842013
 20
198.4175184461805
 30
0.0
 10
73.2701185438368
 20
198.4175184461805
 30
0.0
 10
73.50369601779514
 20
198.2397515190972
 30
0.0
 10
73.73658447265625
 20
198.0612955729166
 30
0.0
 10
74.10658772786458
 20
197.7181640625
 30
0.0
 10
74.38081732855902
 20
197.6210123697917
 30
0.0
  0
SPLINE
  5
1CD
330
A
100
AcDbEntity
  8
LAYER_1
 62
     7
100
AcDbSpline
210
0.0
220
0.0
230
1.0
 70
     8
 71
     3
 72
    11
 73
     7
 74
     0
 42
0.0000000001
 43
0.0000000001
 40
0.0
 40
0.0
 40
0.0
 40
0.0
 40
1.0
 40
1.0
 40
1.0
 40
2.0
 40
2.0
 40
2.0
 40
2.0
 10
72.8050306532118
 20
197.1841742621528
 30
0.0
 10
73.14747314453125
 20
197.0870225694444
 30
0.0
 10
73.58637830946179
 20
196.8141710069444
 30
0.0
 10
73.73658447265625
 20
196.7046169704861
 30
0.0
 10
73.88816867404513
 20
196.5950629340278
 30
0.0
 10
74.09349636501736
 20
196.4586371527778
 30
0.0
 10
74.36703694661458
 20
196.3070529513889
 30
0.0
  0
SPLINE
  5
1CC
330
A
100
AcDbEntity
  8
LAYER_1
 62
     7
100
AcDbSpline
210
0.0
220
0.0
230
1.0
 70
     8
 71
     3
 72
     8
 73
     4
 74
     0
 42
0.0000000001
 43
0.0000000001
 40
0.0
 40
0.0
 40
0.0
 40
0.0
 40
1.0
 40
1.0
 40
1.0
 40
1.0
 10
72.81812201605902
 20
196.0045735677083
 30
0.0
 10
73.17434488932291
 20
195.8130262586805
 30
0.0
 10
73.70971272786457
 20
195.3465603298611
 30
0.0
 10
74.36703694661458
 20
195.1550130208333
 30
0.0
  0
SPLINE
  5
1CB
330
A
100
AcDbEntity
  8
LAYER_1
 62
     7
100
AcDbSpline
210
0.0
220
0.0
230
1.0
 70
     8
 71
     3
 72
     8
 73
     4
 74
     0
 42
0.0000000001
 43
0.0000000001
 40
0.0
 40
0.0
 40
0.0
 40
0.0
 40
1.0
 40
1.0
 40
1.0
 40
1.0
 10
72.79193929036458
 20
194.6892361111111
 30
0.0
 10
73.1336927625868
 20
194.512158203125
 30
0.0
 10
73.9150404188368
 20
193.9492296006944
 30
0.0
 10
74.38081732855902
 20
193.9216688368055
 30
0.0
  0
SPLINE
  5
1CA
330
A
100
AcDbEntity
  8
LAYER_1
 62
     7
100
AcDbSpline
210
0.0
220
0.0
230
1.0
 70
     8
 71
     3
 72
    11
 73
     7
 74
     0
 42
0.0000000001
 43
0.0000000001
 40
0.0
 40
0.0
 40
0.0
 40
0.0
 40
1.0
 40
1.0
 40
1.0
 40
2.0
 40
2.0
 40
2.0
 40
2.0
 10
74.58683403862847
 20
197.0477484809028
 30
0.0
 10
75.10773247612846
 20
197.0477484809028
 30
0.0
 10
76.24737006293402
 20
197.1407660590278
 30
0.0
 10
77.05421142578125
 20
197.0746202256944
 30
0.0
 10
78.84910617404513
 20
196.9230360243055
 30
0.0
 10
80.12585856119792
 20
197.4976779513889
 30
0.0
 10
81.0029798719618
 20
197.265478515625
 30
0.0
  0
SPLINE
  5
1C9
330
A
100
AcDbEntity
  8
LAYER_1
 62
     7
100
AcDbSpline
210
0.0
220
0.0
230
1.0
 70
     8
 71
     3
 72
    11
 73
     7
 74
     0
 42
0.0000000001
 43
0.0000000001
 40
0.0
 40
0.0
 40
0.0
 40
0.0
 40
1.0
 40
1.0
 40
1.0
 40
2.0
 40
2.0
 40
2.0
 40
2.0
 10
74.38081732855902
 20
195.7448133680555
 30
0.0
 10
75.21659749348957
 20
195.7847764756944
 30
0.0
 10
76.69661051432291
 20
196.0217990451389
 30
0.0
 10
77.51929931640625
 20
195.9646104600694
 30
0.0
 10
78.3426771375868
 20
195.9115559895833
 30
0.0
 10
79.6573255750868
 20
195.8274956597222
 30
0.0
 10
80.38492974175347
 20
195.8957085503472
 30
0.0
  0
SPLINE
  5
1C8
330
A
100
AcDbEntity
  8
LAYER_1
 62
     7
100
AcDbSpline
210
0.0
220
0.0
230
1.0
 70
     8
 71
     3
 72
    11
 73
     7
 74
     0
 42
0.0000000001
 43
0.0000000001
 40
0.0
 40
0.0
 40
0.0
 40
0.0
 40
1.0
 40
1.0
 40
1.0
 40
2.0
 40
2.0
 40
2.0
 40
2.0
 10
74.40906711154513
 20
194.3461046006944
 30
0.0
 10
74.87553304036457
 20
194.3874457465278
 30
0.0
 10
76.23221164279514
 20
194.7698513454861
 30
0.0
 10
76.86266411675346
 20
194.72919921875
 30
0.0
 10
77.49242757161457
 20
194.6892361111111
 30
0.0
 10
79.89090304904514
 20
194.648583984375
 30
0.0
 10
80.41180148654513
 20
194.785009765625
 30
0.0
  0
SPLINE
  5
1C7
330
A
100
AcDbEntity
  8
LAYER_1
 62
     7
100
AcDbSpline
210
0.0
220
0.0
230
1.0
 70
     8
 71
     3
 72
    11
 73
     7
 74
     0
 42
0.0000000001
 43
0.0000000001
 40
0.0
 40
0.0
 40
0.0
 40
0.0
 40
1.0
 40
1.0
 40
1.0
 40
2.0
 40
2.0
 40
2.0
 40
2.0
 10
74.38219536675346
 20
193.2360948350694
 30
0.0
 10
74.94374593098958
 20
193.3070638020833
 30
0.0
 10
76.19155951605902
 20
193.5523546006944
 30
0.0
 10
76.84888373480902
 20
193.4965440538194
 30
0.0
 10
77.50689697265625
 20
193.4421115451389
 30
0.0
 10
79.87712266710069
 20
193.5241048177083
 30
0.0
 10
80.41180148654513
 20
193.7707736545139
 30
0.0
  0
SPLINE
  5
1C6
330
A
100
AcDbEntity
  8
LAYER_1
 62
     7
100
AcDbSpline
210
0.0
220
0.0
230
1.0
 70
     8
 71
     3
 72
    11
 73
     7
 74
     0
 42
0.0000000001
 43
0.0000000001
 40
0.0
 40
0.0
 40
0.0
 40
0.0
 40
1.0
 40
1.0
 40
1.0
 40
2.0
 40
2.0
 40
2.0
 40
2.0
 10
74.38219536675346
 20
192.5236490885417
 30
0.0
 10
74.99886745876735
 20
192.4416558159722
 30
0.0
 10
76.16330973307291
 20
192.5105577256944
 30
0.0
 10
76.76689046223957
 20
192.5932400173611
 30
0.0
 10
77.36978217230902
 20
192.6752332899305
 30
0.0
 10
79.86403130425346
 20
192.5264051649305
 30
0.0
 10
80.38492974175347
 20
192.7703179253472
 30
0.0
  0
SPLINE
  5
1C5
330
A
100
AcDbEntity
  8
LAYER_1
 62
     7
100
AcDbSpline
210
0.0
220
0.0
230
1.0
 70
     8
 71
     3
 72
    11
 73
     7
 74
     0
 42
0.0000000001
 43
0.0000000001
 40
0.0
 40
0.0
 40
0.0
 40
0.0
 40
1.0
 40
1.0
 40
1.0
 40
2.0
 40
2.0
 40
2.0
 40
2.0
 10
80.4262708875868
 20
196.3463270399305
 30
0.0
 10
80.93407796223957
 20
196.1961208767361
 30
0.0
 10
81.44050699869791
 20
196.0176649305555
 30
0.0
 10
81.94831407335069
 20
195.6345703125
 30
0.0
 10
82.45474310980902
 20
195.25009765625
 30
0.0
 10
83.89479302300346
 20
194.2923611111111
 30
0.0
 10
84.45634358723957
 20
194.0450032552083
 30
0.0
  0
SPLINE
  5
1C4
330
A
100
AcDbEntity
  8
LAYER_1
 62
     7
100
AcDbSpline
210
0.0
220
0.0
230
1.0
 70
     8
 71
     3
 72
    11
 73
     7
 74
     0
 42
0.0000000001
 43
0.0000000001
 40
0.0
 40
0.0
 40
0.0
 40
0.0
 40
1.0
 40
1.0
 40
1.0
 40
2.0
 40
2.0
 40
2.0
 40
2.0
 10
80.4262708875868
 20
195.0730197482639
 30
0.0
 10
80.85139567057291
 20
194.9896484375
 30
0.0
 10
81.49631754557291
 20
194.7595160590278
 30
0.0
 10
82.00274658203124
 20
194.3605740017361
 30
0.0
 10
82.50917561848958
 20
193.9616319444444
 30
0.0
 10
83.88170166015624
 20
192.9067437065972
 30
0.0
 10
84.45634358723957
 20
192.6462944878472
 30
0.0
  0
SPLINE
  5
1C3
330
A
100
AcDbEntity
  8
LAYER_1
 62
     7
100
AcDbSpline
210
0.0
220
0.0
230
1.0
 70
     8
 71
     3
 72
    11
 73
     7
 74
     0
 42
0.0000000001
 43
0.0000000001
 40
0.0
 40
0.0
 40
0.0
 40
0.0
 40
1.0
 40
1.0
 40
1.0
 40
2.0
 40
2.0
 40
2.0
 40
2.0
 10
80.4262708875868
 20
193.9898817274305
 30
0.0
 10
80.93407796223957
 20
193.8534559461805
 30
0.0
 10
81.35920274522569
 20
193.619189453125
 30
0.0
 10
81.83876003689235
 20
193.1809733072917
 30
0.0
 10
82.3176283094618
 20
192.7434461805555
 30
0.0
 10
83.85276285807291
 20
191.7140516493055
 30
0.0
 10
84.44325222439235
 20
191.5362847222222
 30
0.0
  0
SPLINE
  5
1C2
330
A
100
AcDbEntity
  8
LAYER_1
 62
     7
100
AcDbSpline
210
0.0
220
0.0
230
1.0
 70
     8
 71
     3
 72
    14
 73
    10
 74
     0
 42
0.0000000001
 43
0.0000000001
 40
0.0
 40
0.0
 40
0.0
 40
0.0
 40
1.0
 40
1.0
 40
1.0
 40
2.0
 40
2.0
 40
2.0
 40
3.0
 40
3.0
 40
3.0
 40
3.0
 10
80.39939914279513
 20
192.4554361979166
 30
0.0
 10
80.92029758029513
 20
192.3996256510417
 30
0.0
 10
81.42672661675347
 20
192.1398654513889
 30
0.0
 10
81.78294949001736
 20
191.8773491753472
 30
0.0
 10
82.13917236328125
 20
191.6182779947916
 30
0.0
 10
82.62010769314236
 20
191.2765245225694
 30
0.0
 10
82.97633056640625
 20
190.9492404513889
 30
0.0
 10
83.33324245876736
 20
190.6192003038194
 30
0.0
 10
83.86654324001735
 20
190.0418023003472
 30
0.0
 10
84.47012396918402
 20
189.9336263020833
 30
0.0
  0
SPLINE
  5
1C1
330
A
100
AcDbEntity
  8
LAYER_1
 62
     7
100
AcDbSpline
210
0.0
220
0.0
230
1.0
 70
     8
 71
     3
 72
    14
 73
    10
 74
     0
 42
0.0000000001
 43
0.0000000001
 40
0.0
 40
0.0
 40
0.0
 40
0.0
 40
1.0
 40
1.0
 40
1.0
 40
2.0
 40
2.0
 40
2.0
 40
3.0
 40
3.0
 40
3.0
 40
3.0
 10
80.41180148654513
 20
190.9747341579861
 30
0.0
 10
81.15249701605902
 20
190.8651801215278
 30
0.0
 10
81.24689263237846
 20
190.8176378038194
 30
0.0
 10
81.61896294487846
 20
190.4255859375
 30
0.0
 10
82.11230061848957
 20
189.9053765190972
 30
0.0
 10
82.75102132161457
 20
189.6890245225694
 30
0.0
 10
83.15409749348957
 20
189.6297688802083
 30
0.0
 10
83.90857340494792
 20
189.52021484375
 30
0.0
 10
84.23516845703124
 20
188.9593532986111
 30
0.0
 10
84.44187418619791
 20
188.794677734375
 30
0.0
  0
LINE
  5
1C0
330
A
100
AcDbEntity
  8
LAYER_1
 62
     7
100
AcDbLine
 10
75.48324788411458
 20
236.2908311631944
 30
0.0
 11
88.16464436848958
 21
234.1762315538194
 31
0.0
  0
LINE
  5
1BF
330
A
100
AcDbEntity
  8
LAYER_1
 62
     7
100
AcDbLine
 10
69.61693929036457
 20
235.9318522135417
 30
0.0
 11
88.13363850911458
 21
232.65556640625
 31
0.0
  0
SPLINE
  5
1BE
330
A
100
AcDbEntity
  8
LAYER_1
 62
     7
100
AcDbSpline
210
0.0
220
0.0
230
1.0
 70
    11
 71
     3
 72
   119
 73
   115
 74
     0
 42
0.0000000001
 43
0.0000000001
 40
0.0
 40
0.0
 40
0.0
 40
0.0
 40
1.0
 40
1.0
 40
1.0
 40
2.0
 40
2.0
 40
2.0
 40
3.0
 40
3.0
 40
3.0
 40
4.0
 40
4.0
 40
4.0
 40
5.0
 40
5.0
 40
5.0
 40
6.0
 40
6.0
 40
6.0
 40
7.0
 40
7.0
 40
7.0
 40
8.0
 40
8.0
 40
8.0
 40
9.0
 40
9.0
 40
9.0
 40
10.0
 40
10.0
 40
10.0
 40
11.0
 40
11.0
 40
11.0
 40
12.0
 40
12.0
 40
12.0
 40
13.0
 40
13.0
 40
13.0
 40
14.0
 40
14.0
 40
14.0
 40
15.0
 40
15.0
 40
15.0
 40
16.0
 40
16.0
 40
16.0
 40
17.0
 40
17.0
 40
17.0
 40
18.0
 40
18.0
 40
18.0
 40
19.0
 40
19.0
 40
19.0
 40
20.0
 40
20.0
 40
20.0
 40
21.0
 40
21.0
 40
21.0
 40
22.0
 40
22.0
 40
22.0
 40
23.0
 40
23.0
 40
23.0
 40
24.0
 40
24.0
 40
24.0
 40
25.0
 40
25.0
 40
25.0
 40
26.0
 40
26.0
 40
26.0
 40
27.0
 40
27.0
 40
27.0
 40
28.0
 40
28.0
 40
28.0
 40
29.0
 40
29.0
 40
29.0
 40
30.0
 40
30.0
 40
30.0
 40
31.0
 40
31.0
 40
31.0
 40
32.0
 40
32.0
 40
32.0
 40
33.0
 40
33.0
 40
33.0
 40
34.0
 40
34.0
 40
34.0
 40
35.0
 40
35.0
 40
35.0
 40
36.0
 40
36.0
 40
36.0
 40
37.0
 40
37.0
 40
37.0
 40
38.0
 40
38.0
 40
38.0
 40
38.0
 10
95.42277153862847
 20
208.7169759114583
 30
0.0
 10
95.30977240668402
 20
208.5578125
 30
0.0
 10
95.21262071397568
 20
208.4048502604167
 30
0.0
 10
95.21262071397568
 20
208.0830783420139
 30
0.0
 10
95.21262071397568
 20
207.7613064236111
 30
0.0
 10
95.21262071397568
 20
206.2957628038194
 30
0.0
 10
95.21262071397568
 20
206.0601182725694
 30
0.0
 10
95.21262071397568
 20
205.5516221788194
 30
0.0
 10
95.61225179036458
 20
205.413818359375
 30
0.0
 10
95.8857923719618
 20
205.3290690104167
 30
0.0
 10
95.8857923719618
 20
205.2725694444444
 30
0.0
 10
95.8857923719618
 20
205.0183213975694
 30
0.0
 10
95.8857923719618
 20
205.0183213975694
 30
0.0
 10
95.8857923719618
 20
204.942529296875
 30
0.0
 10
95.88096923828124
 20
204.7337565104166
 30
0.0
 10
96.10214436848958
 20
204.6531412760417
 30
0.0
 10
96.32331949869791
 20
204.5711480034722
 30
0.0
 10
107.1264499240451
 20
200.775341796875
 30
0.0
 10
107.3937893337673
 20
200.6754340277778
 30
0.0
 10
107.6604397243924
 20
200.576904296875
 30
0.0
 10
108.0166625976562
 20
200.4466796875
 30
0.0
 10
108.5024210611979
 20
200.5479654947916
 30
0.0
 10
108.9861124674479
 20
200.6478732638889
 30
0.0
 10
115.655817328559
 20
202.2381293402778
 30
0.0
 10
115.990680609809
 20
202.3118543836805
 30
0.0
 10
116.5260484483507
 20
202.4296766493056
 30
0.0
 10
116.6762546115451
 20
202.7293999565972
 30
0.0
 10
116.6762546115451
 20
203.0794216579861
 30
0.0
 10
116.6762546115451
 20
203.1366102430555
 30
0.0
 10
116.6762546115451
 20
203.3316026475694
 30
0.0
 10
116.6762546115451
 20
203.6368381076389
 30
0.0
 10
116.9870022243924
 20
204.0833224826389
 30
0.0
 10
116.9256795247396
 20
204.4636610243055
 30
0.0
 10
116.6762546115451
 20
205.0803331163194
 30
0.0
 10
116.6762546115451
 20
207.5015462239583
 30
0.0
 10
116.6762546115451
 20
211.6942274305555
 30
0.0
 10
116.6762546115451
 20
215.34189453125
 30
0.0
 10
116.9187893337674
 20
215.651953125
 30
0.0
 10
116.9511732313368
 20
215.8779513888889
 30
0.0
 10
116.6762546115451
 20
216.3871365017361
 30
0.0
 10
116.6762546115451
 20
220.2725151909722
 30
0.0
 10
116.6762546115451
 20
223.3710340711805
 30
0.0
 10
116.6762546115451
 20
223.5729166666667
 30
0.0
 10
116.6762546115451
 20
224.0772786458333
 30
0.0
 10
116.6796997070312
 20
224.0648763020833
 30
0.0
 10
116.7603149414062
 20
224.2688259548611
 30
0.0
 10
116.8540215386285
 20
224.5079155815972
 30
0.0
 10
120.796588812934
 20
232.5604817708333
 30
0.0
 10
120.796588812934
 20
232.5604817708333
 30
0.0
 10
120.796588812934
 20
232.5604817708333
 30
0.0
 10
120.796588812934
 20
233.0979166666666
 30
0.0
 10
120.796588812934
 20
233.0979166666666
 30
0.0
 10
120.796588812934
 20
233.0979166666666
 30
0.0
 10
114.725641547309
 20
238.9380425347222
 30
0.0
 10
114.725641547309
 20
238.9380425347222
 30
0.0
 10
114.725641547309
 20
238.9380425347222
 30
0.0
 10
110.2470174153646
 20
231.3567654079861
 30
0.0
 10
110.0837198893229
 20
231.0797797309027
 30
0.0
 10
110.0292873806423
 20
230.9853841145833
 30
0.0
 10
109.9466050889757
 20
230.913037109375
 30
0.0
 10
109.9466050889757
 20
230.4886013454861
 30
0.0
 10
109.9466050889757
 20
230.0634765625
 30
0.0
 10
109.9466050889757
 20
215.2791937934028
 30
0.0
 10
109.9466050889757
 20
215.2791937934028
 30
0.0
 10
109.9466050889757
 20
215.2791937934028
 30
0.0
 10
112.7254191080729
 20
210.9542209201389
 30
0.0
 10
112.7254191080729
 20
210.9542209201389
 30
0.0
 10
112.7254191080729
 20
210.9542209201389
 30
0.0
 10
111.2357598198785
 20
208.8540907118055
 30
0.0
 10
111.2357598198785
 20
208.8540907118055
 30
0.0
 10
111.2357598198785
 20
208.8540907118055
 30
0.0
 10
107.4034356011285
 20
213.1294542100694
 30
0.0
 10
107.4034356011285
 20
213.1294542100694
 30
0.0
 10
107.4034356011285
 20
213.1294542100694
 30
0.0
 10
109.2768785264757
 20
215.2702365451389
 30
0.0
 10
109.2768785264757
 20
215.2702365451389
 30
0.0
 10
109.2768785264757
 20
215.2702365451389
 30
0.0
 10
109.2768785264757
 20
230.5747287326389
 30
0.0
 10
109.2768785264757
 20
231.1094075520833
 30
0.0
 10
109.2768785264757
 20
231.3760579427083
 30
0.0
 10
109.2706773546007
 20
231.7288357204861
 30
0.0
 10
109.5001207139757
 20
232.1698079427083
 30
0.0
 10
109.7288750542535
 20
232.6128472222222
 30
0.0
 10
113.6170098198785
 20
239.5967447916667
 30
0.0
 10
113.6170098198785
 20
239.5967447916667
 30
0.0
 10
113.6170098198785
 20
239.5967447916667
 30
0.0
 10
113.6170098198785
 20
240.1486490885417
 30
0.0
 10
113.6170098198785
 20
240.1486490885417
 30
0.0
 10
113.6170098198785
 20
240.1486490885417
 30
0.0
 10
107.6197875976562
 20
245.7207465277778
 30
0.0
 10
107.6197875976562
 20
245.7207465277778
 30
0.0
 10
107.6197875976562
 20
245.7207465277778
 30
0.0
 10
106.9424818250868
 20
245.7848253038194
 30
0.0
 10
106.9424818250868
 20
245.7848253038194
 30
0.0
 10
106.9424818250868
 20
245.7848253038194
 30
0.0
 10
107.3641615125868
 20
245.3900173611111
 30
0.0
 10
107.3641615125868
 20
245.3900173611111
 30
0.0
 10
107.3641615125868
 20
245.3900173611111
 30
0.0
 10
103.3926554361979
 20
238.5074055989583
 30
0.0
 10
103.327887641059
 20
238.3950954861111
 30
0.0
 10
103.2548516167535
 20
238.2641818576389
 30
0.0
 10
103.1432305230035
 20
238.0974392361111
 30
0.0
 10
103.1432305230035
 20
237.8004720052083
 30
0.0
 10
103.1432305230035
 20
238.8898111979167
 30
0.0
 10
103.1432305230035
 20
221.710498046875
 30
0.0
 10
103.1432305230035
 20
220.3434841579861
 30
0.0
 10
103.1432305230035
 20
219.8418782552083
 30
0.0
 10
103.1060234917535
 20
219.7130316840278
 30
0.0
 10
102.8648668077257
 20
219.527685546875
 30
0.0
 10
102.6243991427951
 20
219.341650390625
 30
0.0
 10
102.3460354275174
 20
219.1011827256944
 30
0.0
 10
102.1420857747396
 20
218.7856119791667
 30
0.0
 10
101.938825141059
 20
218.4700412326389
 30
0.0
 10
95.61845296223957
 20
208.9946506076389
 30
0.0
 10
95.42277153862847
 20
208.7169759114583
 30
0.0
  0
SPLINE
  5
1BD
330
A
100
AcDbEntity
  8
LAYER_1
  6
AI9-LTYPE1
 62
     7
100
AcDbSpline
210
0.0
220
0.0
230
1.0
 70
    11
 71
     3
 72
    17
 73
    13
 74
     0
 42
0.0000000001
 43
0.0000000001
 40
0.0
 40
0.0
 40
0.0
 40
0.0
 40
1.0
 40
1.0
 40
1.0
 40
2.0
 40
2.0
 40
2.0
 40
3.0
 40
3.0
 40
3.0
 40
4.0
 40
4.0
 40
4.0
 40
4.0
 10
103.9893459743924
 20
201.8770833333333
 30
0.0
 10
103.9893459743924
 20
200.0883897569444
 30
0.0
 10
103.9893459743924
 20
190.7287543402778
 30
0.0
 10
103.9893459743924
 20
190.270556640625
 30
0.0
 10
103.9893459743924
 20
189.3810329861111
 30
0.0
 10
106.8267266167535
 20
189.1006022135417
 30
0.0
 10
106.8267266167535
 20
190.270556640625
 30
0.0
 10
106.8267266167535
 20
190.8755154079861
 30
0.0
 10
106.8267266167535
 20
199.6129665798611
 30
0.0
 10
106.8267266167535
 20
200.8773166232639
 30
0.0
 10
106.2197007921007
 20
201.0922905815972
 30
0.0
 10
105.1834160698785
 20
201.4560926649305
 30
0.0
 10
103.9893459743924
 20
201.8770833333333
 30
0.0
  0
SPLINE
  5
1BC
330
A
100
AcDbEntity
  8
LAYER_1
 62
     7
100
AcDbSpline
210
0.0
220
0.0
230
1.0
 70
     8
 71
     3
 72
    26
 73
    22
 74
     0
 42
0.0000000001
 43
0.0000000001
 40
0.0
 40
0.0
 40
0.0
 40
0.0
 40
1.0
 40
1.0
 40
1.0
 40
2.0
 40
2.0
 40
2.0
 40
3.0
 40
3.0
 40
3.0
 40
4.0
 40
4.0
 40
4.0
 40
5.0
 40
5.0
 40
5.0
 40
6.0
 40
6.0
 40
6.0
 40
7.0
 40
7.0
 40
7.0
 40
7.0
 10
103.9893459743924
 20
209.4266655815972
 30
0.0
 10
103.6593058268229
 20
209.2778374565972
 30
0.0
 10
103.2045532226562
 20
209.0401258680555
 30
0.0
 10
103.2045532226562
 20
208.5398980034722
 30
0.0
 10
103.2045532226562
 20
208.0382921006944
 30
0.0
 10
103.1804375542535
 20
206.7057291666667
 30
0.0
 10
103.1804375542535
 20
206.4797309027778
 30
0.0
 10
103.1804375542535
 20
206.2675130208333
 30
0.0
 10
103.6303670247396
 20
206.1179958767361
 30
0.0
 10
104.2277465820312
 20
205.8368760850694
 30
0.0
 10
104.9643079969618
 20
205.6956271701389
 30
0.0
 10
105.8910386827257
 20
205.6584201388889
 30
0.0
 10
106.7426662868923
 20
205.7590169270833
 30
0.0
 10
107.3744967990451
 20
205.971923828125
 30
0.0
 10
107.9077975802951
 20
206.1386664496528
 30
0.0
 10
107.9077975802951
 20
206.4549262152778
 30
0.0
 10
107.9077975802951
 20
206.8759168836805
 30
0.0
 10
107.9077975802951
 20
208.551611328125
 30
0.0
 10
107.9077975802951
 20
208.6777018229167
 30
0.0
 10
107.9077975802951
 20
208.8017252604167
 30
0.0
 10
107.3703626844618
 20
209.4053059895833
 30
0.0
 10
106.7681599934896
 20
209.45078125
 30
0.0
  0
SPLINE
  5
1BB
330
A
100
AcDbEntity
  8
LAYER_1
 62
     7
100
AcDbSpline
210
0.0
220
0.0
230
1.0
 70
    11
 71
     3
 72
    29
 73
    25
 74
     0
 42
0.0000000001
 43
0.0000000001
 40
0.0
 40
0.0
 40
0.0
 40
0.0
 40
1.0
 40
1.0
 40
1.0
 40
2.0
 40
2.0
 40
2.0
 40
3.0
 40
3.0
 40
3.0
 40
4.0
 40
4.0
 40
4.0
 40
5.0
 40
5.0
 40
5.0
 40
6.0
 40
6.0
 40
6.0
 40
7.0
 40
7.0
 40
7.0
 40
8.0
 40
8.0
 40
8.0
 40
8.0
 10
102.1420857747396
 20
218.7856119791667
 30
0.0
 10
102.3460354275174
 20
219.1011827256944
 30
0.0
 10
102.6243991427951
 20
219.341650390625
 30
0.0
 10
102.8648668077257
 20
219.527685546875
 30
0.0
 10
103.1060234917535
 20
219.7130316840278
 30
0.0
 10
103.1432305230035
 20
219.8418782552083
 30
0.0
 10
103.1432305230035
 20
220.3434841579861
 30
0.0
 10
103.1432305230035
 20
221.1510145399305
 30
0.0
 10
103.1432305230035
 20
227.4748318142361
 30
0.0
 10
103.1432305230035
 20
232.2917643229166
 30
0.0
 10
103.1432305230035
 20
232.2917643229166
 30
0.0
 10
88.84057210286457
 20
234.5868869357639
 30
0.0
 10
88.84057210286457
 20
234.5868869357639
 30
0.0
 10
88.84057210286457
 20
234.5868869357639
 30
0.0
 10
88.2059855143229
 20
234.4325466579861
 30
0.0
 10
88.2059855143229
 20
234.4325466579861
 30
0.0
 10
88.2059855143229
 20
234.4325466579861
 30
0.0
 10
88.20460747612846
 20
218.2454210069444
 30
0.0
 10
88.20460747612846
 20
218.2454210069444
 30
0.0
 10
88.20460747612846
 20
218.2454210069444
 30
0.0
 10
99.6685072157118
 20
215.0676649305555
 30
0.0
 10
99.6685072157118
 20
215.0676649305555
 30
0.0
 10
100.9569729275174
 20
217.0010525173611
 30
0.0
 10
102.0587144639757
 20
218.6567654079861
 30
0.0
 10
102.1420857747396
 20
218.7856119791667
 30
0.0
  0
SPLINE
  5
1BA
330
A
100
AcDbEntity
  8
LAYER_1
  6
AI9-LTYPE1
 62
     7
100
AcDbSpline
210
0.0
220
0.0
230
1.0
 70
    11
 71
     3
 72
    26
 73
    22
 74
     0
 42
0.0000000001
 43
0.0000000001
 40
0.0
 40
0.0
 40
0.0
 40
0.0
 40
1.0
 40
1.0
 40
1.0
 40
2.0
 40
2.0
 40
2.0
 40
3.0
 40
3.0
 40
3.0
 40
4.0
 40
4.0
 40
4.0
 40
5.0
 40
5.0
 40
5.0
 40
6.0
 40
6.0
 40
6.0
 40
7.0
 40
7.0
 40
7.0
 40
7.0
 10
104.7858520507812
 20
240.9237955729167
 30
0.0
 10
105.9434041341146
 20
242.9267740885416
 30
0.0
 10
107.3641615125868
 20
245.3900173611111
 30
0.0
 10
107.3641615125868
 20
245.3900173611111
 30
0.0
 10
107.3641615125868
 20
245.3900173611111
 30
0.0
 10
106.9459269205729
 20
245.7827582465278
 30
0.0
 10
106.9459269205729
 20
245.7827582465278
 30
0.0
 10
106.9459269205729
 20
245.7827582465278
 30
0.0
 10
95.46686876085069
 20
246.8314453125
 30
0.0
 10
95.46686876085069
 20
246.8314453125
 30
0.0
 10
95.46686876085069
 20
246.8314453125
 30
0.0
 10
94.55391845703124
 20
245.4368706597222
 30
0.0
 10
94.55391845703124
 20
245.4368706597222
 30
0.0
 10
94.55391845703124
 20
245.4368706597222
 30
0.0
 10
94.55391845703124
 20
242.5994900173611
 30
0.0
 10
94.55391845703124
 20
242.5994900173611
 30
0.0
 10
94.55391845703124
 20
242.5994900173611
 30
0.0
 10
95.66048312717012
 20
241.7809353298611
 30
0.0
 10
95.66048312717012
 20
241.7809353298611
 30
0.0
 10
95.66048312717012
 20
241.7809353298611
 30
0.0
 10
104.7858520507812
 20
240.9237955729167
 30
0.0
 10
104.7858520507812
 20
240.9237955729167
 30
0.0
  0
SPLINE
  5
1B9
330
A
100
AcDbEntity
  8
LAYER_1
  6
AI9-LTYPE1
 62
     7
100
AcDbSpline
210
0.0
220
0.0
230
1.0
 70
    11
 71
     3
 72
    29
 73
    25
 74
     0
 42
0.0000000001
 43
0.0000000001
 40
0.0
 40
0.0
 40
0.0
 40
0.0
 40
1.0
 40
1.0
 40
1.0
 40
2.0
 40
2.0
 40
2.0
 40
3.0
 40
3.0
 40
3.0
 40
4.0
 40
4.0
 40
4.0
 40
5.0
 40
5.0
 40
5.0
 40
6.0
 40
6.0
 40
6.0
 40
7.0
 40
7.0
 40
7.0
 40
8.0
 40
8.0
 40
8.0
 40
8.0
 10
102.0277086046007
 20
235.6968967013889
 30
0.0
 10
102.0277086046007
 20
235.6968967013889
 30
0.0
 10
103.1432305230035
 20
235.4343804253472
 30
0.0
 10
103.1432305230035
 20
235.4343804253472
 30
0.0
 10
103.1432305230035
 20
236.7035536024305
 30
0.0
 10
103.1432305230035
 20
237.5882541232639
 30
0.0
 10
103.1432305230035
 20
237.8004720052083
 30
0.0
 10
103.1432305230035
 20
238.0974392361111
 30
0.0
 10
103.2548516167535
 20
238.2641818576389
 30
0.0
 10
103.327887641059
 20
238.3950954861111
 30
0.0
 10
103.3471801757813
 20
238.4281684027777
 30
0.0
 10
103.7054701063368
 20
239.0496636284722
 30
0.0
 10
104.2008748372396
 20
239.9068033854167
 30
0.0
 10
104.2008748372396
 20
239.9068033854167
 30
0.0
 10
102.2661092122396
 20
240.1472710503472
 30
0.0
 10
102.2661092122396
 20
240.1472710503472
 30
0.0
 10
102.2661092122396
 20
240.1472710503472
 30
0.0
 10
101.1898613823785
 20
239.1895345052083
 30
0.0
 10
101.1898613823785
 20
239.1895345052083
 30
0.0
 10
101.1898613823785
 20
239.1895345052083
 30
0.0
 10
101.2125990125868
 20
236.6773708767361
 30
0.0
 10
101.2125990125868
 20
236.6773708767361
 30
0.0
 10
101.2125990125868
 20
236.6773708767361
 30
0.0
 10
102.0277086046007
 20
235.6968967013889
 30
0.0
 10
102.0277086046007
 20
235.6968967013889
 30
0.0
  0
SPLINE
  5
1B7
330
A
100
AcDbEntity
  8
LAYER_1
 62
     7
100
AcDbSpline
210
0.0
220
0.0
230
1.0
 70
    11
 71
     3
 72
    35
 73
    31
 74
     0
 42
0.0000000001
 43
0.0000000001
 40
0.0
 40
0.0
 40
0.0
 40
0.0
 40
1.0
 40
1.0
 40
1.0
 40
2.0
 40
2.0
 40
2.0
 40
3.0
 40
3.0
 40
3.0
 40
4.0
 40
4.0
 40
4.0
 40
5.0
 40
5.0
 40
5.0
 40
6.0
 40
6.0
 40
6.0
 40
7.0
 40
7.0
 40
7.0
 40
8.0
 40
8.0
 40
8.0
 40
9.0
 40
9.0
 40
9.0
 40
10.0
 40
10.0
 40
10.0
 40
10.0
 10
113.9415378146701
 20
188.3709309895833
 30
0.0
 10
113.9415378146701
 20
188.3709309895833
 30
0.0
 10
96.64302435980902
 20
183.4024142795139
 30
0.0
 10
96.64302435980902
 20
183.4024142795139
 30
0.0
 10
96.64302435980902
 20
183.4024142795139
 30
0.0
 10
103.365094672309
 20
149.0961534288194
 30
0.0
 10
103.365094672309
 20
149.0961534288194
 30
0.0
 10
103.365094672309
 20
149.0961534288194
 30
0.0
 10
104.3124959309896
 20
148.4326280381944
 30
0.0
 10
104.3124959309896
 20
148.4326280381944
 30
0.0
 10
104.3124959309896
 20
148.4326280381944
 30
0.0
 10
105.1255384657118
 20
148.7047905815972
 30
0.0
 10
105.1255384657118
 20
148.7047905815972
 30
0.0
 10
105.1255384657118
 20
148.7047905815972
 30
0.0
 10
112.2872029622396
 20
144.0091254340278
 30
0.0
 10
112.2872029622396
 20
144.0091254340278
 30
0.0
 10
112.2872029622396
 20
144.0091254340278
 30
0.0
 10
112.542829047309
 20
142.6600260416666
 30
0.0
 10
112.542829047309
 20
142.6600260416666
 30
0.0
 10
112.542829047309
 20
142.6600260416666
 30
0.0
 10
113.4364868164062
 20
142.0337076822917
 30
0.0
 10
113.4364868164062
 20
142.0337076822917
 30
0.0
 10
113.4364868164062
 20
142.0337076822917
 30
0.0
 10
115.1707478841146
 20
142.8901584201389
 30
0.0
 10
115.1707478841146
 20
142.8901584201389
 30
0.0
 10
115.1707478841146
 20
142.8901584201389
 30
0.0
 10
115.1707478841146
 20
184.0273546006944
 30
0.0
 10
115.1707478841146
 20
185.0326334635417
 30
0.0
 10
115.1707478841146
 20
185.9187120225694
 30
0.0
 10
114.6333129882812
 20
187.6612413194444
 30
0.0
 10
113.9415378146701
 20
188.3709309895833
 30
0.0
  0
LWPOLYLINE
  5
1AE
330
A
100
AcDbEntity
  8
LAYER_1
 62
     7
100
AcDbPolyline
 90
        7
 70
     0
 43
0.0
 10
66.62177327473958
 20
192.2838704427083
 10
70.60085856119791
 20
190.1210394965278
 10
69.20077175564235
 20
188.7154405381944
 10
76.18604736328125
 20
188.6672092013889
 10
74.82592366536457
 20
187.8238498263889
 10
78.29789089626735
 20
185.9386935763889
 10
156.6531426323785
 20
206.3047200520833
  0
LWPOLYLINE
  5
1A5
330
A
100
AcDbEntity
  8
LAYER_1
 62
     7
100
AcDbPolyline
 90
        7
 70
     0
 43
0.0
 10
72.83052435980902
 20
200.3302354600694
 10
75.43501654730902
 20
199.0962022569444
 10
74.3773722330729
 20
197.9634548611111
 10
81.66926133897569
 20
197.8215169270833
 10
80.40835639105902
 20
196.7707628038194
 10
84.46874593098957
 20
194.865625
 10
154.0624308268229
 20
211.2608344184028
  0
LINE
  5
1A4
330
A
100
AcDbEntity
  8
LAYER_1
 62
     7
100
AcDbLine
 10
88.41889241536458
 20
256.7250705295139
 30
0.0
 11
90.71194797092014
 21
256.7381618923611
 31
0.0
  0
LINE
  5
1A3
330
A
100
AcDbEntity
  8
LAYER_1
 62
     7
100
AcDbLine
 10
89.15269775390624
 20
258.4248806423611
 30
0.0
 11
105.4011461046007
 21
242.0889268663194
 31
0.0
  0
LINE
  5
1A2
330
A
100
AcDbEntity
  8
LAYER_1
 62
     7
100
AcDbLine
 10
85.39272054036458
 20
256.6933756510417
 30
0.0
 11
103.1625230577257
 21
238.1477376302083
 31
0.0
  0
SPLINE
  5
1A1
330
A
100
AcDbEntity
  8
LAYER_1
 62
     7
100
AcDbSpline
210
0.0
220
0.0
230
1.0
 70
    11
 71
     3
 72
    17
 73
    13
 74
     0
 42
0.0000000001
 43
0.0000000001
 40
0.0
 40
0.0
 40
0.0
 40
0.0
 40
1.0
 40
1.0
 40
1.0
 40
2.0
 40
2.0
 40
2.0
 40
3.0
 40
3.0
 40
3.0
 40
4.0
 40
4.0
 40
4.0
 40
4.0
 10
106.8267266167535
 20
208.9402180989583
 30
0.0
 10
106.8267266167535
 20
208.9402180989583
 30
0.0
 10
106.8267266167535
 20
210.6345160590278
 30
0.0
 10
106.8267266167535
 20
210.8074598524305
 30
0.0
 10
106.8267266167535
 20
211.8637261284722
 30
0.0
 10
103.9893459743924
 20
211.8637261284722
 30
0.0
 10
103.9893459743924
 20
210.8653374565972
 30
0.0
 10
103.9893459743924
 20
210.5952419704861
 30
0.0
 10
103.9893459743924
 20
209.0366807725694
 30
0.0
 10
103.9893459743924
 20
209.0366807725694
 30
0.0
 10
103.9893459743924
 20
208.14853515625
 30
0.0
 10
106.8267266167535
 20
208.2346625434028
 30
0.0
 10
106.8267266167535
 20
208.9402180989583
 30
0.0
  0
LINE
  5
1A0
330
A
100
AcDbEntity
  8
LAYER_1
 62
     7
100
AcDbLine
 10
117.0813978407118
 20
127.9384440104167
 30
0.0
 11
117.0813978407118
 21
189.3252224392361
 31
0.0
  0
LWPOLYLINE
  5
19B
330
A
100
AcDbEntity
  8
LAYER_1
 62
     7
100
AcDbPolyline
 90
        3
 70
     0
 43
0.0
 10
108.7690714518229
 20
134.1299696180556
 10
109.7316311306424
 20
135.4287706163194
 10
109.9438490125868
 20
134.6198621961806
  0
LWPOLYLINE
  5
196
330
A
100
AcDbEntity
  8
LAYER_1
 62
     7
100
AcDbPolyline
 90
        3
 70
     0
 43
0.0
 10
113.2607869466146
 20
130.7785807291667
 10
112.4511895073785
 20
131.3876736111111
 10
111.2736558702257
 20
129.6747721354167
  0
LINE
  5
195
330
A
100
AcDbEntity
  8
LAYER_1
 62
     7
100
AcDbLine
 10
122.8581339518229
 20
133.8757215711806
 30
0.0
 11
122.8581339518229
 21
191.0133192274305
 31
0.0
  0
LINE
  5
194
330
A
100
AcDbEntity
  8
LAYER_1
 62
     7
100
AcDbLine
 10
154.0824123806424
 20
206.9565321180556
 30
0.0
 11
154.0824123806424
 21
205.6322374131944
 31
0.0
  0
LWPOLYLINE
  5
18F
330
A
100
AcDbEntity
  8
LAYER_1
 62
     7
100
AcDbPolyline
 90
        3
 70
     0
 43
0.0
 10
151.3518296983507
 20
212.9158582899305
 10
150.3582641601562
 20
212.0938585069444
 10
151.3463175455729
 20
211.8768174913194
  0
LWPOLYLINE
  5
18A
330
A
100
AcDbEntity
  8
LAYER_1
 62
     7
100
AcDbPolyline
 90
        3
 70
     0
 43
0.0
 10
145.2402303059896
 20
213.2314290364583
 10
144.1901652018229
 20
212.2109917534722
 10
145.2340291341146
 20
212.3246799045139
  0
LINE
  5
189
330
A
100
AcDbEntity
  8
LAYER_1
 62
     7
100
AcDbLine
 10
111.6057630750868
 20
235.8512369791667
 30
0.0
 11
112.3933119032118
 21
235.0595540364583
 31
0.0
  0
LWPOLYLINE
  5
184
330
A
100
AcDbEntity
  8
LAYER_1
 62
     7
100
AcDbPolyline
 90
        3
 70
     0
 43
0.0
 10
118.8831827799479
 20
228.5338541666667
 10
122.5694349500868
 20
224.8269314236111
 10
122.5694349500868
 20
203.8497450086805
  0
LINE
  5
183
330
A
100
AcDbEntity
  8
LAYER_1
 62
     7
100
AcDbLine
 10
103.6296780056424
 20
237.6619791666666
 30
0.0
 11
104.146442328559
 21
237.12041015625
 31
0.0
  0
LINE
  5
182
330
A
100
AcDbEntity
  8
LAYER_1
 62
     7
100
AcDbLine
 10
108.0325100368924
 20
233.0655327690972
 30
0.0
 11
108.549274359809
 21
232.5260308159722
 31
0.0
  0
LINE
  5
181
330
A
100
AcDbEntity
  8
LAYER_1
 62
     7
100
AcDbLine
 10
109.374030219184
 20
231.6675130208333
 30
0.0
 11
110.0265313042535
 21
230.9840060763889
 31
0.0
  0
LINE
  5
180
330
A
100
AcDbEntity
  8
LAYER_1
 62
     7
100
AcDbLine
 10
110.5853257921007
 20
230.4010959201389
 30
0.0
 11
111.0862426757812
 21
229.8788194444444
 31
0.0
  0
LINE
  5
17F
330
A
100
AcDbEntity
  8
LAYER_1
 62
     7
100
AcDbLine
 10
111.3887220594618
 20
229.561181640625
 30
0.0
 11
115.1149373372396
 21
225.6737358940972
 31
0.0
  0
LINE
  5
17E
330
A
100
AcDbEntity
  8
LAYER_1
 62
     7
100
AcDbLine
 10
115.3099297417535
 20
225.4711642795139
 30
0.0
 11
115.7433227539062
 21
225.0191677517361
 31
0.0
  0
LINE
  5
17D
330
A
100
AcDbEntity
  8
LAYER_1
 62
     7
100
AcDbLine
 10
116.6907240125868
 20
223.9580783420139
 30
0.0
 11
127.9892591688368
 21
225.6454861111111
 31
0.0
  0
SPLINE
  5
17C
330
A
100
AcDbEntity
  8
LAYER_1
 62
     7
100
AcDbSpline
210
0.0
220
0.0
230
1.0
 70
     8
 71
     3
 72
    17
 73
    13
 74
     0
 42
0.0000000001
 43
0.0000000001
 40
0.0
 40
0.0
 40
0.0
 40
0.0
 40
1.0
 40
1.0
 40
1.0
 40
2.0
 40
2.0
 40
2.0
 40
3.0
 40
3.0
 40
3.0
 40
4.0
 40
4.0
 40
4.0
 40
4.0
 10
102.7353312174479
 20
219.3967719184028
 30
0.0
 10
102.9027628580729
 20
218.9330620659722
 30
0.0
 10
102.7546237521701
 20
218.5623697916666
 30
0.0
 10
102.5120890299479
 20
218.2474880642361
 30
0.0
 10
102.2716213650174
 20
217.9319173177083
 30
0.0
 10
96.03806559244791
 20
208.6563422309028
 30
0.0
 10
95.92782253689235
 20
208.4882215711805
 30
0.0
 10
95.81689046223957
 20
208.3228569878472
 30
0.0
 10
95.76934814453124
 20
208.2387966579861
 30
0.0
 10
95.76934814453124
 20
208.0920355902778
 30
0.0
 10
95.76934814453124
 20
207.943896484375
 30
0.0
 10
95.76934814453124
 20
207.6228135850694
 30
0.0
 10
95.76934814453124
 20
207.6228135850694
 30
0.0
  0
LWPOLYLINE
  5
176
330
A
100
AcDbEntity
  8
LAYER_1
 62
     7
100
AcDbPolyline
 90
        4
 70
     0
 43
0.0
 10
107.7851521809896
 20
203.9055555555555
 10
106.7619588216146
 20
203.5996310763889
 10
95.21124267578124
 20
207.4953450520833
 10
103.5662882486979
 20
209.2351182725694
  0
LINE
  5
175
330
A
100
AcDbEntity
  8
LAYER_1
 62
     7
100
AcDbLine
 10
107.9201999240451
 20
207.6937825520833
 30
0.0
 11
109.8907945421007
 21
206.9978732638889
 31
0.0
  0
LWPOLYLINE
  5
170
330
A
100
AcDbEntity
  8
LAYER_1
 62
     7
100
AcDbPolyline
 90
        3
 70
     0
 43
0.0
 10
95.75901285807291
 20
205.4744520399305
 10
106.7833184136285
 20
201.5029459635416
 10
107.7872192382812
 20
201.7930230034722
  0
LINE
  5
16F
330
A
100
AcDbEntity
  8
LAYER_1
 62
     7
100
AcDbLine
 10
106.7833184136285
 20
203.58447265625
 30
0.0
 11
106.7833184136285
 21
201.507080078125
 31
0.0
  0
SPLINE
  5
16E
330
A
100
AcDbEntity
  8
LAYER_1
 62
     7
100
AcDbSpline
210
0.0
220
0.0
230
1.0
 70
     8
 71
     3
 72
    17
 73
    13
 74
     0
 42
0.0000000001
 43
0.0000000001
 40
0.0
 40
0.0
 40
0.0
 40
0.0
 40
1.0
 40
1.0
 40
1.0
 40
2.0
 40
2.0
 40
2.0
 40
3.0
 40
3.0
 40
3.0
 40
4.0
 40
4.0
 40
4.0
 40
4.0
 10
107.2670098198785
 20
201.631103515625
 30
0.0
 10
107.4447767469618
 20
201.5401529947916
 30
0.0
 10
107.7872192382812
 20
201.3451605902778
 30
0.0
 10
107.7872192382812
 20
201.6317925347222
 30
0.0
 10
107.7872192382812
 20
201.9177354600694
 30
0.0
 10
107.7872192382812
 20
203.3508951822917
 30
0.0
 10
107.7872192382812
 20
203.5314181857639
 30
0.0
 10
107.7872192382812
 20
203.7098741319444
 30
0.0
 10
107.7507012261285
 20
203.9620551215278
 30
0.0
 10
107.9312242296007
 20
204.1935655381944
 30
0.0
 10
108.009772406684
 20
204.2969184027778
 30
0.0
 10
111.2323147243924
 20
208.8485785590278
 30
0.0
 10
111.2323147243924
 20
208.8485785590278
 30
0.0
  0
SPLINE
  5
16D
330
A
100
AcDbEntity
  8
LAYER_1
 62
     7
100
AcDbSpline
210
0.0
220
0.0
230
1.0
 70
     8
 71
     3
 72
    20
 73
    16
 74
     0
 42
0.0000000001
 43
0.0000000001
 40
0.0
 40
0.0
 40
0.0
 40
0.0
 40
1.0
 40
1.0
 40
1.0
 40
2.0
 40
2.0
 40
2.0
 40
3.0
 40
3.0
 40
3.0
 40
4.0
 40
4.0
 40
4.0
 40
5.0
 40
5.0
 40
5.0
 40
5.0
 10
112.7240410698785
 20
210.9542209201389
 30
0.0
 10
112.7240410698785
 20
210.9542209201389
 30
0.0
 10
115.6847561306424
 20
215.1276095920139
 30
0.0
 10
115.7233412000868
 20
215.1703287760417
 30
0.0
 10
115.8377183702257
 20
215.2991753472222
 30
0.0
 10
115.9500284830729
 20
215.5127712673611
 30
0.0
 10
115.9500284830729
 20
215.8531467013889
 30
0.0
 10
115.9500284830729
 20
216.1928331163194
 30
0.0
 10
115.9500284830729
 20
223.7582628038194
 30
0.0
 10
115.9500284830729
 20
223.9849500868055
 30
0.0
 10
115.9500284830729
 20
224.2109483506944
 30
0.0
 10
115.916266547309
 20
224.7084201388889
 30
0.0
 10
116.1126369900174
 20
225.0108995225694
 30
0.0
 10
116.3090074327257
 20
225.3126898871528
 30
0.0
 10
120.796588812934
 20
233.0917154947917
 30
0.0
 10
120.796588812934
 20
233.0917154947917
 30
0.0
  0
SPLINE
  5
16C
330
A
100
AcDbEntity
  8
LAYER_1
 62
     7
100
AcDbSpline
210
0.0
220
0.0
230
1.0
 70
     8
 71
     3
 72
    17
 73
    13
 74
     0
 42
0.0000000001
 43
0.0000000001
 40
0.0
 40
0.0
 40
0.0
 40
0.0
 40
1.0
 40
1.0
 40
1.0
 40
2.0
 40
2.0
 40
2.0
 40
3.0
 40
3.0
 40
3.0
 40
4.0
 40
4.0
 40
4.0
 40
4.0
 10
107.8127129448785
 20
200.5479654947916
 30
0.0
 10
108.0338880750868
 20
200.4859537760416
 30
0.0
 10
108.2902031792535
 20
200.7677625868055
 30
0.0
 10
108.2902031792535
 20
201.1543023003472
 30
0.0
 10
108.2902031792535
 20
201.5394639756944
 30
0.0
 10
108.2902031792535
 20
202.9884711371528
 30
0.0
 10
108.2902031792535
 20
203.2599446614583
 30
0.0
 10
108.2902031792535
 20
203.5314181857639
 30
0.0
 10
108.3343004014757
 20
203.7815321180555
 30
0.0
 10
108.5162014431424
 20
204.0302680121528
 30
0.0
 10
108.6850111219618
 20
204.2617784288194
 30
0.0
 10
116.6686754014757
 20
215.3350043402778
 30
0.0
 10
116.6686754014757
 20
215.3350043402778
 30
0.0
  0
LINE
  5
16B
330
A
100
AcDbEntity
  8
LAYER_1
 62
     7
100
AcDbLine
 10
104.2050089518229
 20
205.8513454861111
 30
0.0
 11
104.2050089518229
 21
207.9693901909722
 31
0.0
  0
LINE
  5
16A
330
A
100
AcDbEntity
  8
LAYER_1
 62
     7
100
AcDbLine
 10
106.7302639431424
 20
205.7548828125
 30
0.0
 11
106.7302639431424
 21
207.8639702690972
 31
0.0
  0
SPLINE
  5
169
330
A
100
AcDbEntity
  8
LAYER_1
 62
     7
100
AcDbSpline
210
0.0
220
0.0
230
1.0
 70
     8
 71
     3
 72
     8
 73
     4
 74
     0
 42
0.0000000001
 43
0.0000000001
 40
0.0
 40
0.0
 40
0.0
 40
0.0
 40
1.0
 40
1.0
 40
1.0
 40
1.0
 10
103.9893459743924
 20
209.4053059895833
 30
0.0
 10
104.5812133789062
 20
208.7445366753472
 30
0.0
 10
106.3251207139757
 20
208.6652994791666
 30
0.0
 10
106.8260375976562
 20
209.5520670572917
 30
0.0
  0
SPLINE
  5
168
330
A
100
AcDbEntity
  8
LAYER_1
 62
     7
100
AcDbSpline
210
0.0
220
0.0
230
1.0
 70
     8
 71
     3
 72
     8
 73
     4
 74
     0
 42
0.0000000001
 43
0.0000000001
 40
0.0
 40
0.0
 40
0.0
 40
0.0
 40
1.0
 40
1.0
 40
1.0
 40
1.0
 10
103.9893459743924
 20
210.0543619791667
 30
0.0
 10
104.5812133789062
 20
209.394970703125
 30
0.0
 10
106.3251207139757
 20
209.3157335069444
 30
0.0
 10
106.8260375976562
 20
210.2025010850694
 30
0.0
  0
SPLINE
  5
167
330
A
100
AcDbEntity
  8
LAYER_1
 62
     7
100
AcDbSpline
210
0.0
220
0.0
230
1.0
 70
     8
 71
     3
 72
     8
 73
     4
 74
     0
 42
0.0000000001
 43
0.0000000001
 40
0.0
 40
0.0
 40
0.0
 40
0.0
 40
1.0
 40
1.0
 40
1.0
 40
1.0
 10
103.9893459743924
 20
210.7027289496528
 30
0.0
 10
104.5812133789062
 20
210.0433376736111
 30
0.0
 10
106.3251207139757
 20
209.965478515625
 30
0.0
 10
106.8260375976562
 20
210.8515570746528
 30
0.0
  0
SPLINE
  5
166
330
A
100
AcDbEntity
  8
LAYER_1
 62
     7
100
AcDbSpline
210
0.0
220
0.0
230
1.0
 70
     8
 71
     3
 72
    14
 73
    10
 74
     0
 42
0.0000000001
 43
0.0000000001
 40
0.0
 40
0.0
 40
0.0
 40
0.0
 40
1.0
 40
1.0
 40
1.0
 40
2.0
 40
2.0
 40
2.0
 40
3.0
 40
3.0
 40
3.0
 40
3.0
 10
103.2266018337674
 20
208.5157823350694
 30
0.0
 10
103.4091918945313
 20
208.6411838107639
 30
0.0
 10
103.9211330837674
 20
208.3573079427083
 30
0.0
 10
104.2050089518229
 20
207.9576768663194
 30
0.0
 10
104.5584757486979
 20
208.1747178819444
 30
0.0
 10
106.1873168945312
 20
208.2325954861111
 30
0.0
 10
106.7226847330729
 20
207.8577690972222
 30
0.0
 10
106.9383477105035
 20
208.1065049913194
 30
0.0
 10
107.5536417643229
 20
208.6087999131944
 30
0.0
 10
107.8947062174479
 20
208.688037109375
 30
0.0
  0
LINE
  5
165
330
A
100
AcDbEntity
  8
LAYER_1
 62
     7
100
AcDbLine
 10
103.2851684570313
 20
218.2867621527778
 30
0.0
 11
103.2851684570313
 21
217.8561252170139
 31
0.0
  0
LINE
  5
164
330
A
100
AcDbEntity
  8
LAYER_1
 62
     7
100
AcDbLine
 10
103.2851684570313
 20
217.5467556423611
 30
0.0
 11
103.2851684570313
 21
209.7560167100694
 31
0.0
  0
LINE
  5
163
330
A
100
AcDbEntity
  8
LAYER_1
 62
     7
100
AcDbLine
 10
107.3937893337673
 20
213.1184299045139
 30
0.0
 11
105.9999037000868
 21
211.5247287326389
 31
0.0
  0
SPLINE
  5
162
330
A
100
AcDbEntity
  8
LAYER_1
 62
     7
100
AcDbSpline
210
0.0
220
0.0
230
1.0
 70
     8
 71
     3
 72
    17
 73
    13
 74
     0
 42
0.0000000001
 43
0.0000000001
 40
0.0
 40
0.0
 40
0.0
 40
0.0
 40
1.0
 40
1.0
 40
1.0
 40
2.0
 40
2.0
 40
2.0
 40
3.0
 40
3.0
 40
3.0
 40
4.0
 40
4.0
 40
4.0
 40
4.0
 10
105.6209431966146
 20
211.639794921875
 30
0.0
 10
105.6209431966146
 20
211.639794921875
 30
0.0
 10
108.8124796549479
 20
215.3288031684028
 30
0.0
 10
108.8124796549479
 20
215.3288031684028
 30
0.0
 10
108.8124796549479
 20
215.3288031684028
 30
0.0
 10
108.8124796549479
 20
231.0880479600694
 30
0.0
 10
108.8124796549479
 20
231.4704535590278
 30
0.0
 10
108.8124796549479
 20
231.8528591579861
 30
0.0
 10
108.8007663302951
 20
232.3213921440972
 30
0.0
 10
109.0543253580729
 20
232.6714138454861
 30
0.0
 10
109.3092624240451
 20
233.0200575086805
 30
0.0
 10
113.6066745334201
 20
240.1438259548611
 30
0.0
 10
113.6066745334201
 20
240.1438259548611
 30
0.0
  0
LINE
  5
161
330
A
100
AcDbEntity
  8
LAYER_1
 62
     7
100
AcDbLine
 10
108.8131686740451
 20
215.3246690538194
 30
0.0
 11
109.2817016601562
 21
215.2819498697917
 31
0.0
  0
LINE
  5
160
330
A
100
AcDbEntity
  8
LAYER_1
 62
     7
100
AcDbLine
 10
88.22321099175346
 20
234.4215223524305
 30
0.0
 11
103.1487426757812
 21
232.0182237413194
 31
0.0
  0
LWPOLYLINE
  5
159
330
A
100
AcDbEntity
  8
LAYER_1
 62
     7
100
AcDbPolyline
 90
        5
 70
     0
 43
0.0
 10
94.25006103515624
 20
232.3420627170139
 10
96.99786919487846
 20
231.8604383680555
 10
96.99786919487846
 20
231.322314453125
 10
94.38579779730902
 20
231.8142740885417
 10
95.06517062717013
 20
232.1828993055555
  0
LWPOLYLINE
  5
152
330
A
100
AcDbEntity
  8
LAYER_1
 62
     7
100
AcDbPolyline
 90
        5
 70
     0
 43
0.0
 10
89.73974202473957
 20
233.02763671875
 10
92.48823920355902
 20
232.5460123697916
 10
92.48823920355902
 20
232.0085774739583
 10
89.87547878689236
 20
232.4998480902778
 10
90.55485161675347
 20
232.8684733072917
  0
LWPOLYLINE
  5
14B
330
A
100
AcDbEntity
  8
LAYER_1
 62
     7
100
AcDbPolyline
 90
        5
 70
     0
 43
0.0
 10
98.43585205078124
 20
231.6206597222222
 10
101.1843492296007
 20
231.1390353732639
 10
101.1843492296007
 20
230.6009114583333
 10
98.5708997938368
 20
231.09287109375
 10
99.25165066189236
 20
231.4614963107639
  0
LWPOLYLINE
  5
144
330
A
100
AcDbEntity
  8
LAYER_1
 62
     7
100
AcDbPolyline
 90
        5
 70
     0
 43
0.0
 10
95.94573703342013
 20
230.7545627170139
 10
98.69354519314236
 20
230.2729383680556
 10
98.69354519314236
 20
229.734814453125
 10
96.0814737955729
 20
230.2267740885417
 10
96.76153564453124
 20
230.5953993055555
  0
LWPOLYLINE
  5
13D
330
A
100
AcDbEntity
  8
LAYER_1
 62
     7
100
AcDbPolyline
 90
        5
 70
     0
 43
0.0
 10
91.43610704210069
 20
231.44013671875
 10
94.18391520182291
 20
230.9592013888889
 10
94.18391520182291
 20
230.4203884548611
 10
91.57115478515624
 20
230.9123480902778
 10
92.25052761501735
 20
231.2809733072917
  0
LWPOLYLINE
  5
136
330
A
100
AcDbEntity
  8
LAYER_1
 62
     7
100
AcDbPolyline
 90
        5
 70
     0
 43
0.0
 10
100.1322170681424
 20
230.032470703125
 10
102.8786471896701
 20
229.5515353732639
 10
102.8786471896701
 20
229.0134114583333
 10
100.2672648111979
 20
229.50537109375
 10
100.9459486219618
 20
229.8739963107639
  0
LWPOLYLINE
  5
12F
330
A
100
AcDbEntity
  8
LAYER_1
 62
     7
100
AcDbPolyline
 90
        5
 70
     0
 43
0.0
 10
94.21423204210069
 20
229.7858018663194
 10
96.9620402018229
 20
229.263525390625
 10
96.9620402018229
 20
228.7260904947916
 10
94.34927978515624
 20
229.2559461805555
 10
95.02934163411457
 20
229.6142361111111
  0
LWPOLYLINE
  5
128
330
A
100
AcDbEntity
  8
LAYER_1
 62
     7
100
AcDbPolyline
 90
        5
 70
     0
 43
0.0
 10
89.70391303168402
 20
230.5382107204861
 10
92.45172119140624
 20
230.0159342447917
 10
92.45172119140624
 20
229.4778103298611
 10
89.83896077473958
 20
230.0083550347222
 10
90.51902262369791
 20
230.3666449652777
  0
LWPOLYLINE
  5
121
330
A
100
AcDbEntity
  8
LAYER_1
 62
     7
100
AcDbPolyline
 90
        5
 70
     0
 43
0.0
 10
98.40002305772569
 20
229.0023871527777
 10
101.1478312174479
 20
228.4801106770833
 10
101.1478312174479
 20
227.9419867621528
 10
98.53438178168402
 20
228.4725314670139
 10
99.21513264973957
 20
228.8308213975694
  0
LWPOLYLINE
  5
11A
330
A
100
AcDbEntity
  8
LAYER_1
 62
     7
100
AcDbPolyline
 90
        5
 70
     0
 43
0.0
 10
96.01877305772568
 20
228.1624728732639
 10
98.76658121744791
 20
227.6401963975694
 10
98.76658121744791
 20
227.1027615017361
 10
96.15313178168402
 20
227.6319281684028
 10
96.83388264973958
 20
227.9909071180555
  0
LWPOLYLINE
  5
113
330
A
100
AcDbEntity
  8
LAYER_1
 62
     7
100
AcDbPolyline
 90
        5
 70
     0
 43
0.0
 10
91.50776502821179
 20
228.9148817274305
 10
94.25557318793402
 20
228.3926052517361
 10
94.25557318793402
 20
227.8544813368056
 10
91.64281277126736
 20
228.3843370225694
 10
92.32287462022569
 20
228.742626953125
  0
LWPOLYLINE
  5
10C
330
A
100
AcDbEntity
  8
LAYER_1
 62
     7
100
AcDbPolyline
 90
        5
 70
     0
 43
0.0
 10
100.2031860351562
 20
227.378369140625
 10
102.9516832139757
 20
226.8567816840278
 10
102.9516832139757
 20
226.3186577690972
 10
100.3382337782118
 20
226.8492024739583
 10
101.0189846462674
 20
227.2074924045139
  0
LWPOLYLINE
  5
105
330
A
100
AcDbEntity
  8
LAYER_1
 62
     7
100
AcDbPolyline
 90
        5
 70
     0
 43
0.0
 10
94.28657904730902
 20
227.043505859375
 10
97.03438720703124
 20
226.5219184027777
 10
97.03438720703124
 20
225.9837944878472
 10
94.42162679036457
 20
226.5136501736111
 10
95.1016886393229
 20
226.8726291232639
  0
LWPOLYLINE
  5
FE
330
A
100
AcDbEntity
  8
LAYER_1
 62
     7
100
AcDbPolyline
 90
        5
 70
     0
 43
0.0
 10
89.77626003689235
 20
227.7952256944444
 10
92.52406819661458
 20
227.2736382378472
 10
92.52406819661458
 20
226.7355143229167
 10
89.9113077799479
 20
227.2660590277777
 10
90.59136962890624
 20
227.6243489583333
  0
LWPOLYLINE
  5
F7
330
A
100
AcDbEntity
  8
LAYER_1
 62
     7
100
AcDbPolyline
 90
        5
 70
     0
 43
0.0
 10
98.4716810438368
 20
226.2600911458333
 10
101.219489203559
 20
225.7378146701389
 10
101.219489203559
 20
225.2003797743055
 10
98.60741780598957
 20
225.7302354600694
 10
99.2874796549479
 20
226.088525390625
  0
LWPOLYLINE
  5
F0
330
A
100
AcDbEntity
  8
LAYER_1
 62
     7
100
AcDbPolyline
 90
        5
 70
     0
 43
0.0
 10
96.4873060438368
 20
225.1776421440972
 10
99.2344251844618
 20
224.5740614149305
 10
99.2344251844618
 20
224.0366265190972
 10
96.62235378689235
 20
224.6443413628472
 10
97.30241563585068
 20
224.9826497395833
  0
LWPOLYLINE
  5
E9
330
A
100
AcDbEntity
  8
LAYER_1
 62
     7
100
AcDbPolyline
 90
        5
 70
     0
 43
0.0
 10
91.97698703342013
 20
226.063720703125
 10
94.72479519314236
 20
225.4608289930555
 10
94.72479519314236
 20
224.922705078125
 10
92.1127237955729
 20
225.5290418836806
 10
92.79209662543401
 20
225.8687282986111
  0
LWPOLYLINE
  5
E4
330
A
100
AcDbEntity
  8
LAYER_1
 62
     7
100
AcDbPolyline
 90
        3
 70
     0
 43
0.0
 10
103.0791517469618
 20
223.2084255642361
 10
100.8081448025174
 20
223.7362141927083
 10
101.4882066514757
 20
224.0745225694444
  0
LINE
  5
E3
330
A
100
AcDbEntity
  8
LAYER_1
 62
     7
100
AcDbLine
 10
100.6730970594618
 20
224.2702039930555
 30
0.0
 11
103.0777737087674
 21
223.7424153645833
 31
0.0
  0
LWPOLYLINE
  5
DC
330
A
100
AcDbEntity
  8
LAYER_1
 62
     7
100
AcDbPolyline
 90
        5
 70
     0
 43
0.0
 10
94.32240804036458
 20
224.3838921440972
 10
97.06952718098958
 20
223.7810004340278
 10
97.06952718098958
 20
223.2428765190972
 10
94.45745578342013
 20
223.8505913628472
 10
95.13820665147568
 20
224.1888997395833
  0
LWPOLYLINE
  5
D5
330
A
100
AcDbEntity
  8
LAYER_1
 62
     7
100
AcDbPolyline
 90
        5
 70
     0
 43
0.0
 10
89.81208902994791
 20
225.269970703125
 10
92.55989718967012
 20
224.6670789930555
 10
92.55989718967012
 20
224.128955078125
 10
89.94782579210069
 20
224.7359809027778
 10
90.6271986219618
 20
225.0742892795139
  0
LWPOLYLINE
  5
CE
330
A
100
AcDbEntity
  8
LAYER_1
 62
     7
100
AcDbPolyline
 90
        5
 70
     0
 43
0.0
 10
98.50751003689236
 20
223.4764539930555
 10
101.2553181966146
 20
222.8728732638889
 10
101.2553181966146
 20
222.3347493489583
 10
98.64324679904513
 20
222.9431532118055
 10
99.32261962890624
 20
223.2814615885417
  0
LWPOLYLINE
  5
C7
330
A
100
AcDbEntity
  8
LAYER_1
 62
     7
100
AcDbPolyline
 90
        5
 70
     0
 43
0.0
 10
96.37913004557291
 20
222.4904676649306
 10
99.12693820529513
 20
221.8331434461805
 10
99.12693820529513
 20
221.29501953125
 10
96.51348876953124
 20
221.9537217881944
 10
97.19423963758679
 20
222.2789388020833
  0
LWPOLYLINE
  5
C0
330
A
100
AcDbEntity
  8
LAYER_1
 62
     7
100
AcDbPolyline
 90
        5
 70
     0
 43
0.0
 10
91.86812201605902
 20
223.4661187065972
 10
94.61661919487847
 20
222.8087944878472
 10
94.61661919487847
 20
222.2706705729167
 10
92.00385877821179
 20
222.9286838107639
 10
92.68392062717012
 20
223.2552788628472
  0
LINE
  5
BF
330
A
100
AcDbEntity
  8
LAYER_1
 62
     7
100
AcDbLine
 10
100.5642320421007
 20
221.499658203125
 30
0.0
 11
103.036432562934
 21
220.9091688368056
 31
0.0
  0
LWPOLYLINE
  5
BA
330
A
100
AcDbEntity
  8
LAYER_1
 62
     7
100
AcDbPolyline
 90
        3
 70
     0
 43
0.0
 10
103.0205851236979
 20
220.3779351128472
 10
100.7006578233507
 20
220.9636013454861
 10
101.3793416341146
 20
221.2881293402778
  0
LWPOLYLINE
  5
B3
330
A
100
AcDbEntity
  8
LAYER_1
 62
     7
100
AcDbPolyline
 90
        5
 70
     0
 43
0.0
 10
94.5029310438368
 20
221.5161946614583
 10
97.25073920355902
 20
220.8588704427083
 10
97.25073920355902
 20
220.321435546875
 10
94.63797878689235
 20
220.9801378038194
 10
95.31804063585069
 20
221.3046657986111
  0
LWPOLYLINE
  5
AC
330
A
100
AcDbEntity
  8
LAYER_1
 62
     7
100
AcDbPolyline
 90
        5
 70
     0
 43
0.0
 10
89.99261203342013
 20
222.491845703125
 10
92.74110921223958
 20
221.8338324652778
 10
92.74110921223958
 20
221.2970865885417
 10
90.1283487955729
 20
221.9550998263889
 10
90.8070326063368
 20
222.281005859375
  0
LWPOLYLINE
  5
A5
330
A
100
AcDbEntity
  8
LAYER_1
 62
     7
100
AcDbPolyline
 90
        5
 70
     0
 43
0.0
 10
98.6887220594618
 20
220.5253851996528
 10
101.4372192382812
 20
219.86875
 10
101.4372192382812
 20
219.3306260850694
 10
98.82376980251735
 20
219.9900173611111
 10
99.50314263237847
 20
220.3145453559028
  0
LWPOLYLINE
  5
9E
330
A
100
AcDbEntity
  8
LAYER_1
 62
     7
100
AcDbPolyline
 90
        5
 70
     0
 43
0.0
 10
96.34261203342012
 20
219.4925455729166
 10
99.09110921223957
 20
218.7670084635417
 10
99.09110921223957
 20
218.2288845486111
 10
96.47765977647569
 20
218.9523546006944
 10
97.15841064453124
 20
219.2596571180555
  0
LWPOLYLINE
  5
97
330
A
100
AcDbEntity
  8
LAYER_1
 62
     7
100
AcDbPolyline
 90
        5
 70
     0
 43
0.0
 10
91.83298204210068
 20
220.5791286892361
 10
94.58079020182291
 20
219.8542805989583
 10
94.58079020182291
 20
219.3161566840278
 10
91.96802978515625
 20
220.0389377170139
 10
92.64809163411458
 20
220.3483072916667
  0
LWPOLYLINE
  5
90
330
A
100
AcDbEntity
  8
LAYER_1
 62
     7
100
AcDbPolyline
 90
        5
 70
     0
 43
0.0
 10
94.21423204210069
 20
218.5906195746528
 10
96.9620402018229
 20
217.865771484375
 10
96.9620402018229
 20
217.3269585503472
 10
94.34927978515624
 20
218.0504286024305
 10
95.02934163411457
 20
218.3577311197917
  0
LWPOLYLINE
  5
89
330
A
100
AcDbEntity
  8
LAYER_1
 62
     7
100
AcDbPolyline
 90
        5
 70
     0
 43
0.0
 10
89.70391303168402
 20
219.6772026909722
 10
92.45172119140624
 20
218.9523546006944
 10
92.45172119140624
 20
218.4149197048611
 10
89.83896077473958
 20
219.13701171875
 10
90.51902262369791
 20
219.4463812934028
  0
LINE
  5
88
330
A
100
AcDbEntity
  8
LAYER_1
 62
     7
100
AcDbLine
 10
98.40002305772569
 20
217.4950792100694
 30
0.0
 11
100.7502671983507
 21
216.8756510416667
 31
0.0
  0
LWPOLYLINE
  5
83
330
A
100
AcDbEntity
  8
LAYER_1
 62
     7
100
AcDbPolyline
 90
        3
 70
     0
 43
0.0
 10
100.4657023111979
 20
216.4222764756944
 10
98.53438178168402
 20
216.9555772569444
 10
99.21513264973957
 20
217.2642578125
  0
LINE
  5
82
330
A
100
AcDbEntity
  8
LAYER_1
 62
     7
100
AcDbLine
 10
102.224079047309
 20
222.5745279947917
 30
0.0
 11
103.110846625434
 21
222.3788465711805
 31
0.0
  0
LWPOLYLINE
  5
7D
330
A
100
AcDbEntity
  8
LAYER_1
 62
     7
100
AcDbPolyline
 90
        3
 70
     0
 43
0.0
 10
103.0336764865451
 20
221.884130859375
 10
102.3598158094618
 20
222.0412272135417
 10
103.0391886393229
 20
222.3788465711805
  0
LINE
  5
7C
330
A
100
AcDbEntity
  8
LAYER_1
 62
     7
100
AcDbLine
 10
102.1875610351562
 20
225.4305121527778
 30
0.0
 11
103.1136027018229
 21
225.2541232638889
 31
0.0
  0
LWPOLYLINE
  5
77
330
A
100
AcDbEntity
  8
LAYER_1
 62
     7
100
AcDbPolyline
 90
        3
 70
     0
 43
0.0
 10
103.1039564344618
 20
224.7408040364583
 10
102.3239868164063
 20
224.8999674479167
 10
103.0033596462674
 20
225.2589463975694
  0
LINE
  5
76
330
A
100
AcDbEntity
  8
LAYER_1
 62
     7
100
AcDbLine
 10
102.1875610351562
 20
228.3168131510417
 30
0.0
 11
103.0998223198785
 21
228.1431803385416
 31
0.0
  0
LWPOLYLINE
  5
71
330
A
100
AcDbEntity
  8
LAYER_1
 62
     7
100
AcDbPolyline
 90
        3
 70
     0
 43
0.0
 10
103.1018893771701
 20
227.6298611111111
 10
102.3239868164063
 20
227.7862684461805
 10
103.0033596462674
 20
228.1452473958333
  0
LINE
  5
70
330
A
100
AcDbEntity
  8
LAYER_1
 62
     7
100
AcDbLine
 10
102.224079047309
 20
230.9350857204861
 30
0.0
 11
103.1149807400174
 21
230.7793674045139
 31
0.0
  0
LWPOLYLINE
  5
6B
330
A
100
AcDbEntity
  8
LAYER_1
 62
     7
100
AcDbPolyline
 90
        3
 70
     0
 43
0.0
 10
103.0068047417535
 20
230.2853407118055
 10
102.3598158094618
 20
230.4072970920139
 10
103.0391886393229
 20
230.7759223090278
  0
LINE
  5
6A
330
A
100
AcDbEntity
  8
LAYER_1
 62
     7
100
AcDbLine
 10
104.4806165907118
 20
236.7869249131944
 30
0.0
 11
107.7699937608507
 21
233.3535427517361
 31
0.0
  0
SPLINE
  5
69
330
A
100
AcDbEntity
  8
LAYER_1
 62
     7
100
AcDbSpline
210
0.0
220
0.0
230
1.0
 70
     8
 71
     3
 72
    11
 73
     7
 74
     0
 42
0.0000000001
 43
0.0000000001
 40
0.0
 40
0.0
 40
0.0
 40
0.0
 40
1.0
 40
1.0
 40
1.0
 40
2.0
 40
2.0
 40
2.0
 40
2.0
 10
105.049574110243
 20
238.9151326497396
 30
0.0
 10
105.0285590277778
 20
238.6574395073785
 30
0.0
 10
105.2850463867188
 20
238.3758029513889
 30
0.0
 10
105.8304050021701
 20
238.3758029513889
 30
0.0
 10
106.2372707790799
 20
238.3758029513889
 30
0.0
 10
106.4229614257812
 20
238.6150648328993
 30
0.0
 10
106.3962619357639
 20
238.8543267144097
 30
0.0
  0
SPLINE
  5
68
330
A
100
AcDbEntity
  8
LAYER_1
 62
     7
100
AcDbSpline
210
0.0
220
0.0
230
1.0
 70
     8
 71
     3
 72
    11
 73
     7
 74
     0
 42
0.0000000001
 43
0.0000000001
 40
0.0
 40
0.0
 40
0.0
 40
0.0
 40
1.0
 40
1.0
 40
1.0
 40
2.0
 40
2.0
 40
2.0
 40
2.0
 10
107.034465874566
 20
241.9163275824652
 30
0.0
 10
107.0086276584201
 20
241.6570841471354
 30
0.0
 10
107.2645982530382
 20
241.3709689670139
 30
0.0
 10
107.8140909830729
 20
241.3709689670139
 30
0.0
 10
108.2216457790799
 20
241.3709689670139
 30
0.0
 10
108.4073364257812
 20
241.61005859375
 30
0.0
 10
108.3806369357639
 20
241.8491482204861
 30
0.0
  0
SPLINE
  5
67
330
A
100
AcDbEntity
  8
LAYER_1
 62
     7
100
AcDbSpline
210
0.0
220
0.0
230
1.0
 70
     8
 71
     3
 72
    11
 73
     7
 74
     0
 42
0.0000000001
 43
0.0000000001
 40
0.0
 40
0.0
 40
0.0
 40
0.0
 40
1.0
 40
1.0
 40
1.0
 40
2.0
 40
2.0
 40
2.0
 40
2.0
 10
109.7419664171007
 20
238.3857076009115
 30
0.0
 10
109.7121663411458
 20
238.1250861273871
 30
0.0
 10
109.9683091905382
 20
237.8349229600694
 30
0.0
 10
110.5219360351562
 20
237.8349229600694
 30
0.0
 10
110.9224283854167
 20
237.8349229600694
 30
0.0
 10
111.1084635416667
 20
238.0666056315104
 30
0.0
 10
111.0886542426215
 20
238.3019056532118
 30
0.0
  0
SPLINE
  5
66
330
A
100
AcDbEntity
  8
LAYER_1
 62
     7
100
AcDbSpline
210
0.0
220
0.0
230
1.0
 70
     8
 71
     3
 72
    11
 73
     7
 74
     0
 42
0.0000000001
 43
0.0000000001
 40
0.0
 40
0.0
 40
0.0
 40
0.0
 40
1.0
 40
1.0
 40
1.0
 40
2.0
 40
2.0
 40
2.0
 40
2.0
 10
111.2330037434896
 20
240.4065144856771
 30
0.0
 10
111.0672946506076
 20
240.1233276367187
 30
0.0
 10
111.304833984375
 20
239.7111219618055
 30
0.0
 10
111.9647420247396
 20
239.7111219618055
 30
0.0
 10
112.4391316731771
 20
239.7111219618055
 30
0.0
 10
112.6125922309028
 20
240.0361667209201
 30
0.0
 10
112.4992485894097
 20
240.3072957356771
 30
0.0
  0
SPLINE
  5
65
330
A
100
AcDbEntity
  8
LAYER_1
 62
     7
100
AcDbSpline
210
0.0
220
0.0
230
1.0
 70
     8
 71
     3
 72
    11
 73
     7
 74
     0
 42
0.0000000001
 43
0.0000000001
 40
0.0
 40
0.0
 40
0.0
 40
0.0
 40
1.0
 40
1.0
 40
1.0
 40
2.0
 40
2.0
 40
2.0
 40
2.0
 10
114.7852416992187
 20
235.8565768771701
 30
0.0
 10
114.6622517903646
 20
235.5761461046007
 30
0.0
 10
114.9065090603299
 20
235.2008029513889
 30
0.0
 10
115.5359280056424
 20
235.2008029513889
 30
0.0
 10
116.0408067491319
 20
235.2008029513889
 30
0.0
 10
116.2053100585937
 20
235.5677917480469
 30
0.0
 10
116.0466634114583
 20
235.8471028645833
 30
0.0
  0
SPLINE
  5
64
330
A
100
AcDbEntity
  8
LAYER_1
 62
     7
100
AcDbSpline
210
0.0
220
0.0
230
1.0
 70
     8
 71
     3
 72
    11
 73
     7
 74
     0
 42
0.0000000001
 43
0.0000000001
 40
0.0
 40
0.0
 40
0.0
 40
0.0
 40
1.0
 40
1.0
 40
1.0
 40
2.0
 40
2.0
 40
2.0
 40
2.0
 10
118.0108846028646
 20
232.7484117296007
 30
0.0
 10
117.8901340060764
 20
232.4683254665798
 30
0.0
 10
118.1350802951389
 20
232.0947048611111
 30
0.0
 10
118.7632934570312
 20
232.0947048611111
 30
0.0
 10
119.1694702148437
 20
232.0947048611111
 30
0.0
 10
119.3548163519965
 20
232.3337944878472
 30
0.0
 10
119.3279446072049
 20
232.5728841145833
 30
0.0
  0
SPLINE
  5
63
330
A
100
AcDbEntity
  8
LAYER_1
 62
     7
100
AcDbSpline
210
0.0
220
0.0
230
1.0
 70
    11
 71
     3
 72
    11
 73
     7
 74
     0
 42
0.0000000001
 43
0.0000000001
 40
0.0
 40
0.0
 40
0.0
 40
0.0
 40
1.0
 40
1.0
 40
1.0
 40
2.0
 40
2.0
 40
2.0
 40
2.0
 10
105.8304050021701
 20
238.6169596354166
 30
0.0
 10
106.6441365559896
 20
238.6169596354166
 30
0.0
 10
106.5731675889757
 20
239.5726291232639
 30
0.0
 10
105.6877780490451
 20
239.5726291232639
 30
0.0
 10
104.8016994900174
 20
239.5726291232639
 30
0.0
 10
104.8251261393229
 20
238.6169596354166
 30
0.0
 10
105.8304050021701
 20
238.6169596354166
 30
0.0
  0
SPLINE
  5
62
330
A
100
AcDbEntity
  8
LAYER_1
 62
     7
100
AcDbSpline
210
0.0
220
0.0
230
1.0
 70
    11
 71
     3
 72
    11
 73
     7
 74
     0
 42
0.0000000001
 43
0.0000000001
 40
0.0
 40
0.0
 40
0.0
 40
0.0
 40
1.0
 40
1.0
 40
1.0
 40
2.0
 40
2.0
 40
2.0
 40
2.0
 10
107.8140909830729
 20
241.6114366319444
 30
0.0
 10
108.6292005750868
 20
241.6114366319444
 30
0.0
 10
108.5568535698785
 20
242.5677951388889
 30
0.0
 10
107.6721530490451
 20
242.5677951388889
 30
0.0
 10
106.7860744900174
 20
242.5677951388889
 30
0.0
 10
106.8095011393229
 20
241.6114366319444
 30
0.0
 10
107.8140909830729
 20
241.6114366319444
 30
0.0
  0
SPLINE
  5
61
330
A
100
AcDbEntity
  8
LAYER_1
 62
     7
100
AcDbSpline
210
0.0
220
0.0
230
1.0
 70
    11
 71
     3
 72
    11
 73
     7
 74
     0
 42
0.0000000001
 43
0.0000000001
 40
0.0
 40
0.0
 40
0.0
 40
0.0
 40
1.0
 40
1.0
 40
1.0
 40
2.0
 40
2.0
 40
2.0
 40
2.0
 10
110.5219360351562
 20
238.075390625
 30
0.0
 10
111.3356675889757
 20
238.075390625
 30
0.0
 10
111.2640096028646
 20
239.0317491319444
 30
0.0
 10
110.3793090820312
 20
239.0317491319444
 30
0.0
 10
109.4925415039062
 20
239.0317491319444
 30
0.0
 10
109.516657172309
 20
238.075390625
 30
0.0
 10
110.5219360351562
 20
238.075390625
 30
0.0
  0
SPLINE
  5
60
330
A
100
AcDbEntity
  8
LAYER_1
 62
     7
100
AcDbSpline
210
0.0
220
0.0
230
1.0
 70
    11
 71
     3
 72
    11
 73
     7
 74
     0
 42
0.0000000001
 43
0.0000000001
 40
0.0
 40
0.0
 40
0.0
 40
0.0
 40
1.0
 40
1.0
 40
1.0
 40
2.0
 40
2.0
 40
2.0
 40
2.0
 10
111.9647420247396
 20
239.9515896267361
 30
0.0
 10
112.778473578559
 20
239.9515896267361
 30
0.0
 10
112.7068155924479
 20
240.9079481336805
 30
0.0
 10
111.8214260525174
 20
240.9079481336805
 30
0.0
 10
110.9346584743924
 20
240.9079481336805
 30
0.0
 10
110.9594631618923
 20
239.9515896267361
 30
0.0
 10
111.9647420247396
 20
239.9515896267361
 30
0.0
  0
SPLINE
  5
5F
330
A
100
AcDbEntity
  8
LAYER_1
 62
     7
100
AcDbSpline
210
0.0
220
0.0
230
1.0
 70
    11
 71
     3
 72
    11
 73
     7
 74
     0
 42
0.0000000001
 43
0.0000000001
 40
0.0
 40
0.0
 40
0.0
 40
0.0
 40
1.0
 40
1.0
 40
1.0
 40
2.0
 40
2.0
 40
2.0
 40
2.0
 10
115.5359280056424
 20
235.4419596354167
 30
0.0
 10
116.3510375976562
 20
235.4419596354167
 30
0.0
 10
116.2786905924479
 20
236.3976291232639
 30
0.0
 10
115.3933010525173
 20
236.3976291232639
 30
0.0
 10
114.5079115125868
 20
236.3976291232639
 30
0.0
 10
114.5313381618924
 20
235.4419596354167
 30
0.0
 10
115.5359280056424
 20
235.4419596354167
 30
0.0
  0
SPLINE
  5
5E
330
A
100
AcDbEntity
  8
LAYER_1
 62
     7
100
AcDbSpline
210
0.0
220
0.0
230
1.0
 70
    11
 71
     3
 72
    11
 73
     7
 74
     0
 42
0.0000000001
 43
0.0000000001
 40
0.0
 40
0.0
 40
0.0
 40
0.0
 40
1.0
 40
1.0
 40
1.0
 40
2.0
 40
2.0
 40
2.0
 40
2.0
 10
118.7632934570312
 20
232.3351725260417
 30
0.0
 10
119.5756469726562
 20
232.3351725260417
 30
0.0
 10
119.5046780056424
 20
233.2915310329861
 30
0.0
 10
118.6192884657118
 20
233.2915310329861
 30
0.0
 10
117.7338989257812
 20
233.2915310329861
 30
0.0
 10
117.758014594184
 20
232.3351725260417
 30
0.0
 10
118.7632934570312
 20
232.3351725260417
 30
0.0
  0
SPLINE
  5
5D
330
A
100
AcDbEntity
  8
LAYER_1
 62
     7
100
AcDbSpline
210
0.0
220
0.0
230
1.0
 70
     8
 71
     3
 72
    11
 73
     7
 74
     0
 42
0.0000000001
 43
0.0000000001
 40
0.0
 40
0.0
 40
0.0
 40
0.0
 40
1.0
 40
1.0
 40
1.0
 40
2.0
 40
2.0
 40
2.0
 40
2.0
 10
106.0383165147569
 20
225.5619425455729
 30
0.0
 10
106.3442409939236
 20
225.8657999674479
 30
0.0
 10
106.9562622070312
 20
225.6950954861111
 30
0.0
 10
106.9562622070312
 20
225.0729112413194
 30
0.0
 10
106.9562622070312
 20
224.6696628146701
 30
0.0
 10
106.7414605034722
 20
224.4299702962239
 30
0.0
 10
106.5027153862847
 20
224.377001953125
 30
0.0
  0
SPLINE
  5
5C
330
A
100
AcDbEntity
  8
LAYER_1
 62
     7
100
AcDbSpline
210
0.0
220
0.0
230
1.0
 70
     8
 71
     3
 72
    11
 73
     7
 74
     0
 42
0.0000000001
 43
0.0000000001
 40
0.0
 40
0.0
 40
0.0
 40
0.0
 40
1.0
 40
1.0
 40
1.0
 40
2.0
 40
2.0
 40
2.0
 40
2.0
 10
113.07216796875
 20
224.3715759277343
 30
0.0
 10
113.3789537217882
 20
224.6755194769965
 30
0.0
 10
113.9925252278646
 20
224.5044704861111
 30
0.0
 10
113.9925252278646
 20
223.8822862413194
 30
0.0
 10
113.9925252278646
 20
223.4367492675781
 30
0.0
 10
113.7296644422743
 20
223.1908555772569
 30
0.0
 10
113.4619805230035
 20
223.1758694118923
 30
0.0
  0
SPLINE
  5
5B
330
A
100
AcDbEntity
  8
LAYER_1
 62
     7
100
AcDbSpline
210
0.0
220
0.0
230
1.0
 70
     8
 71
     3
 72
    11
 73
     7
 74
     0
 42
0.0000000001
 43
0.0000000001
 40
0.0
 40
0.0
 40
0.0
 40
0.0
 40
1.0
 40
1.0
 40
1.0
 40
2.0
 40
2.0
 40
2.0
 40
2.0
 10
111.3764919704861
 20
220.365963406033
 30
0.0
 10
111.6832777235243
 20
220.6702514648437
 30
0.0
 10
112.2968492296007
 20
220.4992024739583
 30
0.0
 10
112.2968492296007
 20
219.8770182291667
 30
0.0
 10
112.2968492296007
 20
219.4757507324219
 30
0.0
 10
112.0835978190104
 20
219.2363165961371
 30
0.0
 10
111.8457139756944
 20
219.1816257052951
 30
0.0
  0
SPLINE
  5
5A
330
A
100
AcDbEntity
  8
LAYER_1
 62
     7
100
AcDbSpline
210
0.0
220
0.0
230
1.0
 70
     8
 71
     3
 72
    11
 73
     7
 74
     0
 42
0.0000000001
 43
0.0000000001
 40
0.0
 40
0.0
 40
0.0
 40
0.0
 40
1.0
 40
1.0
 40
1.0
 40
2.0
 40
2.0
 40
2.0
 40
2.0
 10
112.0984117296007
 20
214.3764065212673
 30
0.0
 10
112.4050252278646
 20
214.6802639431423
 30
0.0
 10
113.0182522243924
 20
214.5093872070312
 30
0.0
 10
113.0182522243924
 20
213.8866861979167
 30
0.0
 10
113.0182522243924
 20
213.5466552734375
 30
0.0
 10
112.8649454752604
 20
213.3230685763889
 30
0.0
 10
112.6733981662326
 20
213.2297064887153
 30
0.0
  0
SPLINE
  5
59
330
A
100
AcDbEntity
  8
LAYER_1
 62
     7
100
AcDbSpline
210
0.0
220
0.0
230
1.0
 70
     8
 71
     3
 72
    11
 73
     7
 74
     0
 42
0.0000000001
 43
0.0000000001
 40
0.0
 40
0.0
 40
0.0
 40
0.0
 40
1.0
 40
1.0
 40
1.0
 40
2.0
 40
2.0
 40
2.0
 40
2.0
 10
107.154010687934
 20
220.9433614095052
 30
0.0
 10
107.4606241861979
 20
221.247649468316
 30
0.0
 10
108.0738511827257
 20
221.0766004774305
 30
0.0
 10
108.0738511827257
 20
220.4544162326389
 30
0.0
 10
108.0738511827257
 20
220.0410909016927
 30
0.0
 10
107.8480251736111
 20
219.7996758355035
 30
0.0
 10
107.6020453559028
 20
219.7546312120226
 30
0.0
  0
SPLINE
  5
58
330
A
100
AcDbEntity
  8
LAYER_1
 62
     7
100
AcDbSpline
210
0.0
220
0.0
230
1.0
 70
     8
 71
     3
 72
    11
 73
     7
 74
     0
 42
0.0000000001
 43
0.0000000001
 40
0.0
 40
0.0
 40
0.0
 40
0.0
 40
1.0
 40
1.0
 40
1.0
 40
2.0
 40
2.0
 40
2.0
 40
2.0
 10
106.3604329427083
 20
215.3475789388021
 30
0.0
 10
106.6584337022569
 20
215.3896091037326
 30
0.0
 10
106.9920912000868
 20
215.176185438368
 30
0.0
 10
106.9920912000868
 20
214.7169542100694
 30
0.0
 10
106.9920912000868
 20
214.3769232855903
 30
0.0
 10
106.8389567057292
 20
214.1533365885416
 30
0.0
 10
106.6474093967014
 20
214.0598022460937
 30
0.0
  0
SPLINE
  5
57
330
A
100
AcDbEntity
  8
LAYER_1
 62
     7
100
AcDbSpline
210
0.0
220
0.0
230
1.0
 70
    11
 71
     3
 72
    11
 73
     7
 74
     0
 42
0.0000000001
 43
0.0000000001
 40
0.0
 40
0.0
 40
0.0
 40
0.0
 40
1.0
 40
1.0
 40
1.0
 40
2.0
 40
2.0
 40
2.0
 40
2.0
 10
106.7716050889757
 20
224.9826497395833
 30
0.0
 10
106.7716050889757
 20
224.0745225694444
 30
0.0
 10
105.6808878580729
 20
223.9959743923611
 30
0.0
 10
105.6808878580729
 20
225.0088324652778
 30
0.0
 10
105.6808878580729
 20
225.8397894965277
 30
0.0
 10
106.7716050889757
 20
225.8122287326389
 30
0.0
 10
106.7716050889757
 20
224.9826497395833
 30
0.0
  0
SPLINE
  5
56
330
A
100
AcDbEntity
  8
LAYER_1
 62
     7
100
AcDbSpline
210
0.0
220
0.0
230
1.0
 70
    11
 71
     3
 72
    11
 73
     7
 74
     0
 42
0.0000000001
 43
0.0000000001
 40
0.0
 40
0.0
 40
0.0
 40
0.0
 40
1.0
 40
1.0
 40
1.0
 40
2.0
 40
2.0
 40
2.0
 40
2.0
 10
113.8064900716146
 20
223.7913357204861
 30
0.0
 10
113.8064900716146
 20
222.8838975694444
 30
0.0
 10
112.716461859809
 20
222.8053493923611
 30
0.0
 10
112.716461859809
 20
223.8175184461805
 30
0.0
 10
112.716461859809
 20
224.6484754774305
 30
0.0
 10
113.8064900716146
 20
224.6216037326389
 30
0.0
 10
113.8064900716146
 20
223.7913357204861
 30
0.0
  0
SPLINE
  5
55
330
A
100
AcDbEntity
  8
LAYER_1
 62
     7
100
AcDbSpline
210
0.0
220
0.0
230
1.0
 70
    11
 71
     3
 72
    11
 73
     7
 74
     0
 42
0.0000000001
 43
0.0000000001
 40
0.0
 40
0.0
 40
0.0
 40
0.0
 40
1.0
 40
1.0
 40
1.0
 40
2.0
 40
2.0
 40
2.0
 40
2.0
 10
112.1101250542535
 20
219.7874457465278
 30
0.0
 10
112.1101250542535
 20
218.8793185763889
 30
0.0
 10
111.0200968424479
 20
218.8007703993056
 30
0.0
 10
111.0200968424479
 20
219.812939453125
 30
0.0
 10
111.0200968424479
 20
220.643896484375
 30
0.0
 10
112.1101250542535
 20
220.6163357204861
 30
0.0
 10
112.1101250542535
 20
219.7874457465278
 30
0.0
  0
SPLINE
  5
54
330
A
100
AcDbEntity
  8
LAYER_1
 62
     7
100
AcDbSpline
210
0.0
220
0.0
230
1.0
 70
    11
 71
     3
 72
    11
 73
     7
 74
     0
 42
0.0000000001
 43
0.0000000001
 40
0.0
 40
0.0
 40
0.0
 40
0.0
 40
1.0
 40
1.0
 40
1.0
 40
2.0
 40
2.0
 40
2.0
 40
2.0
 10
112.8335951063368
 20
213.7984917534722
 30
0.0
 10
112.8335951063368
 20
212.8889865451389
 30
0.0
 10
111.7421888563368
 20
212.8111273871528
 30
0.0
 10
111.7421888563368
 20
213.8239854600694
 30
0.0
 10
111.7421888563368
 20
214.6542534722222
 30
0.0
 10
112.8335951063368
 20
214.6260036892361
 30
0.0
 10
112.8335951063368
 20
213.7984917534722
 30
0.0
  0
SPLINE
  5
53
330
A
100
AcDbEntity
  8
LAYER_1
 62
     7
100
AcDbSpline
210
0.0
220
0.0
230
1.0
 70
    11
 71
     3
 72
    11
 73
     7
 74
     0
 42
0.0000000001
 43
0.0000000001
 40
0.0
 40
0.0
 40
0.0
 40
0.0
 40
1.0
 40
1.0
 40
1.0
 40
2.0
 40
2.0
 40
2.0
 40
2.0
 10
107.8898830837673
 20
220.3641547309028
 30
0.0
 10
107.8898830837673
 20
219.4560275607639
 30
0.0
 10
106.7984768337674
 20
219.3781684027778
 30
0.0
 10
106.7984768337674
 20
220.3896484375
 30
0.0
 10
106.7984768337674
 20
221.2212944878472
 30
0.0
 10
107.8898830837673
 20
221.1937337239583
 30
0.0
 10
107.8898830837673
 20
220.3641547309028
 30
0.0
  0
SPLINE
  5
52
330
A
100
AcDbEntity
  8
LAYER_1
 62
     7
100
AcDbSpline
210
0.0
220
0.0
230
1.0
 70
    11
 71
     3
 72
    11
 73
     7
 74
     0
 42
0.0000000001
 43
0.0000000001
 40
0.0
 40
0.0
 40
0.0
 40
0.0
 40
1.0
 40
1.0
 40
1.0
 40
2.0
 40
2.0
 40
2.0
 40
2.0
 10
106.8060560438368
 20
214.6260036892361
 30
0.0
 10
106.8060560438368
 20
213.7192545572916
 30
0.0
 10
105.7167168511285
 20
213.6407063802083
 30
0.0
 10
105.7167168511285
 20
214.6528754340278
 30
0.0
 10
105.7167168511285
 20
215.4838324652778
 30
0.0
 10
106.8060560438368
 20
215.4562717013889
 30
0.0
 10
106.8060560438368
 20
214.6260036892361
 30
0.0
  0
SPLINE
  5
51
330
A
100
AcDbEntity
  8
LAYER_1
 62
     7
100
AcDbSpline
210
0.0
220
0.0
230
1.0
 70
     8
 71
     3
 72
    41
 73
    37
 74
     0
 42
0.0000000001
 43
0.0000000001
 40
0.0
 40
0.0
 40
0.0
 40
0.0
 40
1.0
 40
1.0
 40
1.0
 40
2.0
 40
2.0
 40
2.0
 40
3.0
 40
3.0
 40
3.0
 40
4.0
 40
4.0
 40
4.0
 40
5.0
 40
5.0
 40
5.0
 40
6.0
 40
6.0
 40
6.0
 40
7.0
 40
7.0
 40
7.0
 40
8.0
 40
8.0
 40
8.0
 40
9.0
 40
9.0
 40
9.0
 40
10.0
 40
10.0
 40
10.0
 40
11.0
 40
11.0
 40
11.0
 40
12.0
 40
12.0
 40
12.0
 40
12.0
 10
116.9387708875868
 20
223.9753038194444
 30
0.0
 10
117.1654581705729
 20
223.55224609375
 30
0.0
 10
117.2853474934896
 20
223.5219292534722
 30
0.0
 10
117.3156643337673
 20
222.9107693142361
 30
0.0
 10
117.3466701931423
 20
222.2989203559028
 30
0.0
 10
117.3466701931423
 20
221.8613932291667
 30
0.0
 10
117.3466701931423
 20
221.4610731336805
 30
0.0
 10
117.3466701931423
 20
221.0607530381944
 30
0.0
 10
117.3156643337673
 20
220.8657606336805
 30
0.0
 10
117.4596693250868
 20
220.5474338107639
 30
0.0
 10
117.6043633355035
 20
220.2297960069444
 30
0.0
 10
117.8083129882812
 20
220.0658094618055
 30
0.0
 10
117.7249416775174
 20
219.5063259548611
 30
0.0
 10
117.6415703667535
 20
218.9468424479167
 30
0.0
 10
117.5747355143229
 20
217.8306315104167
 30
0.0
 10
117.6264119466146
 20
217.4530490451389
 30
0.0
 10
117.6780883789062
 20
217.0747775607639
 30
0.0
 10
117.7690388997396
 20
214.2284396701389
 30
0.0
 10
117.7545694986979
 20
213.8818630642361
 30
0.0
 10
117.7387220594618
 20
213.5345974392361
 30
0.0
 10
117.6043633355035
 20
212.6064887152778
 30
0.0
 10
117.9282023111979
 20
212.2730034722222
 30
0.0
 10
118.2527303059896
 20
211.9415852864583
 30
0.0
 10
118.737799750434
 20
211.2697916666666
 30
0.0
 10
118.8873168945312
 20
210.9817816840278
 30
0.0
 10
119.0368340386285
 20
210.6965277777778
 30
0.0
 10
119.6266343858507
 20
209.5630913628472
 30
0.0
 10
119.6107869466146
 20
209.1400336371528
 30
0.0
 10
119.5963175455729
 20
208.7197319878472
 30
0.0
 10
119.6107869466146
 20
207.6848253038194
 30
0.0
 10
119.7106947157118
 20
207.0867567274305
 30
0.0
 10
119.8078464084201
 20
206.4900661892361
 30
0.0
 10
120.0496921115451
 20
205.4565375434028
 30
0.0
 10
120.0345336914062
 20
205.0265896267361
 30
0.0
 10
120.0193752712674
 20
204.595263671875
 30
0.0
 10
120.1413316514757
 20
203.6361490885417
 30
0.0
 10
120.2474405924479
 20
203.3033528645833
 30
0.0
  0
SPLINE
  5
50
330
A
100
AcDbEntity
  8
LAYER_1
 62
     7
100
AcDbSpline
210
0.0
220
0.0
230
1.0
 70
     8
 71
     3
 72
    23
 73
    19
 74
     0
 42
0.0000000001
 43
0.0000000001
 40
0.0
 40
0.0
 40
0.0
 40
0.0
 40
1.0
 40
1.0
 40
1.0
 40
2.0
 40
2.0
 40
2.0
 40
3.0
 40
3.0
 40
3.0
 40
4.0
 40
4.0
 40
4.0
 40
5.0
 40
5.0
 40
5.0
 40
6.0
 40
6.0
 40
6.0
 40
6.0
 10
119.0368340386285
 20
203.0249891493055
 30
0.0
 10
119.0671508789062
 20
203.6451063368055
 30
0.0
 10
118.9699991861979
 20
204.496044921875
 30
0.0
 10
118.9699991861979
 20
205.0121202256944
 30
0.0
 10
118.9699991861979
 20
205.525439453125
 30
0.0
 10
119.1119371202257
 20
206.1069715711805
 30
0.0
 10
118.8632012261285
 20
206.43701171875
 30
0.0
 10
118.6144653320312
 20
206.7691189236111
 30
0.0
 10
118.2906263563368
 20
207.0047634548611
 30
0.0
 10
118.3057847764757
 20
207.298974609375
 30
0.0
 10
118.3209431966146
 20
207.5931857638889
 30
0.0
 10
118.3526380750868
 20
207.6758680555555
 30
0.0
 10
118.1934746636285
 20
208.06171875
 30
0.0
 10
118.0343112521701
 20
208.4475694444444
 30
0.0
 10
117.633991156684
 20
209.246142578125
 30
0.0
 10
117.4596693250868
 20
209.48798828125
 30
0.0
 10
117.2853474934896
 20
209.729833984375
 30
0.0
 10
116.9015638563368
 20
210.3768229166666
 30
0.0
 10
116.6989922417535
 20
210.6269368489583
 30
0.0
  0
SPLINE
  5
4F
330
A
100
AcDbEntity
  8
LAYER_1
 62
     7
100
AcDbSpline
210
0.0
220
0.0
230
1.0
 70
     8
 71
     3
 72
    14
 73
    10
 74
     0
 42
0.0000000001
 43
0.0000000001
 40
0.0
 40
0.0
 40
0.0
 40
0.0
 40
1.0
 40
1.0
 40
1.0
 40
2.0
 40
2.0
 40
2.0
 40
3.0
 40
3.0
 40
3.0
 40
3.0
 10
116.6989922417535
 20
206.5217610677083
 30
0.0
 10
117.0441908094618
 20
206.2172146267361
 30
0.0
 10
117.5127237955729
 20
205.6914930555555
 30
0.0
 10
117.7166734483507
 20
205.3132215711806
 30
0.0
 10
117.9213121202257
 20
204.9335720486111
 30
0.0
 10
118.2265475802951
 20
204.434033203125
 30
0.0
 10
118.0577379014757
 20
204.0302680121528
 30
0.0
 10
117.9357815212673
 20
203.7443250868055
 30
0.0
 10
117.9888359917535
 20
203.1235188802083
 30
0.0
 10
118.0646280924479
 20
202.7989908854167
 30
0.0
  0
SPLINE
  5
4E
330
A
100
AcDbEntity
  8
LAYER_1
 62
     7
100
AcDbSpline
210
0.0
220
0.0
230
1.0
 70
     8
 71
     3
 72
     8
 73
     4
 74
     0
 42
0.0000000001
 43
0.0000000001
 40
0.0
 40
0.0
 40
0.0
 40
0.0
 40
1.0
 40
1.0
 40
1.0
 40
1.0
 10
116.6989922417535
 20
203.5631130642361
 30
0.0
 10
116.9167222764757
 20
203.4328884548611
 30
0.0
 10
117.1881958007812
 20
203.0098307291667
 30
0.0
 10
117.2715671115451
 20
202.6039984809028
 30
0.0
  0
SPLINE
  5
4D
330
A
100
AcDbEntity
  8
LAYER_1
 62
     7
100
AcDbSpline
210
0.0
220
0.0
230
1.0
 70
     8
 71
     3
 72
    50
 73
    46
 74
     0
 42
0.0000000001
 43
0.0000000001
 40
0.0
 40
0.0
 40
0.0
 40
0.0
 40
1.0
 40
1.0
 40
1.0
 40
2.0
 40
2.0
 40
2.0
 40
3.0
 40
3.0
 40
3.0
 40
4.0
 40
4.0
 40
4.0
 40
5.0
 40
5.0
 40
5.0
 40
6.0
 40
6.0
 40
6.0
 40
7.0
 40
7.0
 40
7.0
 40
8.0
 40
8.0
 40
8.0
 40
9.0
 40
9.0
 40
9.0
 40
10.0
 40
10.0
 40
10.0
 40
11.0
 40
11.0
 40
11.0
 40
12.0
 40
12.0
 40
12.0
 40
13.0
 40
13.0
 40
13.0
 40
14.0
 40
14.0
 40
14.0
 40
15.0
 40
15.0
 40
15.0
 40
15.0
 10
118.1466213650174
 20
224.1682291666666
 30
0.0
 10
118.2485961914062
 20
223.8423231336805
 30
0.0
 10
118.3312784830729
 20
223.211181640625
 30
0.0
 10
118.4532348632812
 20
222.9238606770833
 30
0.0
 10
118.5745022243924
 20
222.6358506944444
 30
0.0
 10
118.6130872938368
 20
222.7081976996528
 30
0.0
 10
118.6523613823785
 20
222.2465549045139
 30
0.0
 10
118.6923244900174
 20
221.7856011284722
 30
0.0
 10
118.6372029622396
 20
221.3473849826389
 30
0.0
 10
118.6723429361979
 20
221.1530815972222
 30
0.0
 10
118.7074829101562
 20
220.9594672309028
 30
0.0
 10
118.9252129448785
 20
220.8760959201389
 30
0.0
 10
118.8225490993924
 20
220.3421061197917
 30
0.0
 10
118.7205742730035
 20
219.80673828125
 30
0.0
 10
118.7109280056423
 20
219.3699001736111
 30
0.0
 10
118.731598578559
 20
219.1507921006944
 30
0.0
 10
118.7495130750868
 20
218.932373046875
 30
0.0
 10
118.9782674153646
 20
217.7410590277778
 30
0.0
 10
118.9348592122396
 20
217.2697699652778
 30
0.0
 10
118.8907619900174
 20
216.7977918836805
 30
0.0
 10
118.9252129448785
 20
215.286083984375
 30
0.0
 10
118.9017862955729
 20
215.0421712239583
 30
0.0
 10
118.8769816080729
 20
214.7968804253472
 30
0.0
 10
118.9155666775174
 20
214.7514051649305
 30
0.0
 10
119.0127183702257
 20
214.6335828993055
 30
0.0
 10
119.1091810438368
 20
214.5164496527778
 30
0.0
 10
119.9401380750868
 20
213.03505859375
 30
0.0
 10
120.0441799587673
 20
212.5927083333333
 30
0.0
 10
120.145465766059
 20
212.1489800347222
 30
0.0
 10
120.3866224500868
 20
211.1774631076389
 30
0.0
 10
120.5292494032118
 20
210.8515570746528
 30
0.0
 10
120.6704983181424
 20
210.5249620225694
 30
0.0
 10
120.7111504448785
 20
210.2052571614583
 30
0.0
 10
120.6704983181424
 20
209.8648817274305
 30
0.0
 10
120.6326022677951
 20
209.5245062934028
 30
0.0
 10
120.3700859917535
 20
208.8382432725694
 30
0.0
 10
120.4761949327257
 20
208.4138075086806
 30
0.0
 10
120.5823038736979
 20
207.9928168402778
 30
0.0
 10
120.8489542643229
 20
207.7778428819444
 30
0.0
 10
120.8854722764757
 20
207.3554741753472
 30
0.0
 10
120.9185451931424
 20
206.93310546875
 30
0.0
 10
120.9433498806423
 20
205.6584201388889
 30
0.0
 10
121.0053615993923
 20
205.3187337239583
 30
0.0
 10
121.0687513563368
 20
204.9776692708333
 30
0.0
 10
121.2540974934896
 20
203.888330078125
 30
0.0
 10
121.2100002712674
 20
203.528662109375
 30
0.0
  0
SPLINE
  5
4C
330
A
100
AcDbEntity
  8
LAYER_1
 62
     7
100
AcDbSpline
210
0.0
220
0.0
230
1.0
 70
     8
 71
     3
 72
     8
 73
     4
 74
     0
 42
0.0000000001
 43
0.0000000001
 40
0.0
 40
0.0
 40
0.0
 40
0.0
 40
1.0
 40
1.0
 40
1.0
 40
1.0
 10
122.2517971462674
 20
203.7753309461805
 30
0.0
 10
122.1877183702257
 20
204.2238823784722
 30
0.0
 10
122.0264879014757
 20
204.7261773003472
 30
0.0
 10
122.0843655056424
 20
205.0066080729166
 30
0.0
  0
SPLINE
  5
4B
330
A
100
AcDbEntity
  8
LAYER_1
 62
     7
100
AcDbSpline
210
0.0
220
0.0
230
1.0
 70
     8
 71
     3
 72
    38
 73
    34
 74
     0
 42
0.0000000001
 43
0.0000000001
 40
0.0
 40
0.0
 40
0.0
 40
0.0
 40
1.0
 40
1.0
 40
1.0
 40
2.0
 40
2.0
 40
2.0
 40
3.0
 40
3.0
 40
3.0
 40
4.0
 40
4.0
 40
4.0
 40
5.0
 40
5.0
 40
5.0
 40
6.0
 40
6.0
 40
6.0
 40
7.0
 40
7.0
 40
7.0
 40
8.0
 40
8.0
 40
8.0
 40
9.0
 40
9.0
 40
9.0
 40
10.0
 40
10.0
 40
10.0
 40
11.0
 40
11.0
 40
11.0
 40
11.0
 10
122.1477552625868
 20
205.8182725694444
 30
0.0
 10
122.061627875434
 20
206.2234157986111
 30
0.0
 10
121.9541408962674
 20
207.4243760850694
 30
0.0
 10
121.8190931532118
 20
208.0706759982639
 30
0.0
 10
121.6826673719618
 20
208.7169759114583
 30
0.0
 10
121.5551988389757
 20
209.8552354600694
 30
0.0
 10
121.5614000108507
 20
210.2190375434028
 30
0.0
 10
121.5648451063368
 20
210.5828396267361
 30
0.0
 10
121.7012708875868
 20
211.10029296875
 30
0.0
 10
121.7054050021701
 20
211.43515625
 30
0.0
 10
121.7116061740451
 20
211.77001953125
 30
0.0
 10
121.7370998806424
 20
212.0628526475694
 30
0.0
 10
121.4966322157118
 20
212.6733235677083
 30
0.0
 10
121.2582316080729
 20
213.2865505642361
 30
0.0
 10
120.6856567382812
 20
214.901611328125
 30
0.0
 10
120.5643893771701
 20
215.0759331597222
 30
0.0
 10
120.4424329969618
 20
215.2502549913194
 30
0.0
 10
120.2047214084201
 20
215.7187879774305
 30
0.0
 10
120.1943861219618
 20
215.9854383680555
 30
0.0
 10
120.182672797309
 20
216.2541558159722
 30
0.0
 10
119.9484063042535
 20
217.8120279947916
 30
0.0
 10
119.9849243164062
 20
218.1971896701389
 30
0.0
 10
120.0241984049479
 20
218.5816623263889
 30
0.0
 10
120.0910332573785
 20
218.9902506510416
 30
0.0
 10
119.9456502278646
 20
219.3933268229166
 30
0.0
 10
119.8002671983507
 20
219.7970920138889
 30
0.0
 10
119.5039889865451
 20
220.4013617621528
 30
0.0
 10
119.4598917643229
 20
220.755517578125
 30
0.0
 10
119.4164835611979
 20
221.108984375
 30
0.0
 10
119.4784952799479
 20
221.6739800347222
 30
0.0
 10
119.4357760959201
 20
222.0529405381944
 30
0.0
 10
119.3909898546007
 20
222.4319010416666
 30
0.0
 10
119.1808390299479
 20
223.5742947048611
 30
0.0
 10
119.1629245334201
 20
224.3184353298611
 30
0.0
  0
SPLINE
  5
4A
330
A
100
AcDbEntity
  8
LAYER_1
 62
     7
100
AcDbSpline
210
0.0
220
0.0
230
1.0
 70
     8
 71
     3
 72
    29
 73
    25
 74
     0
 42
0.0000000001
 43
0.0000000001
 40
0.0
 40
0.0
 40
0.0
 40
0.0
 40
1.0
 40
1.0
 40
1.0
 40
2.0
 40
2.0
 40
2.0
 40
3.0
 40
3.0
 40
3.0
 40
4.0
 40
4.0
 40
4.0
 40
5.0
 40
5.0
 40
5.0
 40
6.0
 40
6.0
 40
6.0
 40
7.0
 40
7.0
 40
7.0
 40
8.0
 40
8.0
 40
8.0
 40
8.0
 10
120.3108303493924
 20
224.4927571614583
 30
0.0
 10
120.3631958007812
 20
224.1234429253472
 30
0.0
 10
120.5092678493923
 20
223.8719509548611
 30
0.0
 10
120.5685234917535
 20
223.409619140625
 30
0.0
 10
120.6277791341146
 20
222.9472873263889
 30
0.0
 10
120.6091756184896
 20
222.1742078993055
 30
0.0
 10
120.6470716688368
 20
221.6595106336805
 30
0.0
 10
120.6856567382812
 20
221.1441243489583
 30
0.0
 10
120.7180406358507
 20
221.1000271267361
 30
0.0
 10
120.8220825195312
 20
220.867138671875
 30
0.0
 10
120.9233683268229
 20
220.6328721788194
 30
0.0
 10
120.9095879448785
 20
220.6955729166666
 30
0.0
 10
120.9536851671007
 20
220.2201497395833
 30
0.0
 10
120.9964043511285
 20
219.7433485243055
 30
0.0
 10
120.9598863389757
 20
218.4218098958333
 30
0.0
 10
121.0460137261285
 20
217.98359375
 30
0.0
 10
121.1328301323785
 20
217.5467556423611
 30
0.0
 10
121.0398125542535
 20
217.4303114149305
 30
0.0
 10
121.2871704101562
 20
217.1574598524306
 30
0.0
 10
121.5365953233507
 20
216.8846082899305
 30
0.0
 10
121.850788031684
 20
216.4436360677083
 30
0.0
 10
121.9782565646701
 20
216.005419921875
 30
0.0
 10
122.1064141167535
 20
215.5678927951389
 30
0.0
 10
122.4571248372396
 20
214.5185167100694
 30
0.0
 10
122.570123969184
 20
214.2835611979166
 30
0.0
  0
SPLINE
  5
49
330
A
100
AcDbEntity
  8
LAYER_1
 62
     7
100
AcDbSpline
210
0.0
220
0.0
230
1.0
 70
     8
 71
     3
 72
    14
 73
    10
 74
     0
 42
0.0000000001
 43
0.0000000001
 40
0.0
 40
0.0
 40
0.0
 40
0.0
 40
1.0
 40
1.0
 40
1.0
 40
2.0
 40
2.0
 40
2.0
 40
3.0
 40
3.0
 40
3.0
 40
3.0
 10
121.7370998806424
 20
224.6905056423611
 30
0.0
 10
121.7963555230035
 20
224.2323079427083
 30
0.0
 10
121.7860202365451
 20
223.5556911892361
 30
0.0
 10
121.8466539171007
 20
222.8198187934028
 30
0.0
 10
121.9059095594618
 20
222.0832573784722
 30
0.0
 10
121.9555189344618
 20
221.2881293402778
 30
0.0
 10
121.9555189344618
 20
220.8698947482639
 30
0.0
 10
121.9555189344618
 20
220.4523491753472
 30
0.0
 10
122.3523939344618
 20
219.4263997395833
 30
0.0
 10
122.570123969184
 20
218.9599338107639
 30
0.0
  0
SPLINE
  5
48
330
A
100
AcDbEntity
  8
LAYER_1
 62
     7
100
AcDbSpline
210
0.0
220
0.0
230
1.0
 70
     8
 71
     3
 72
    26
 73
    22
 74
     0
 42
0.0000000001
 43
0.0000000001
 40
0.0
 40
0.0
 40
0.0
 40
0.0
 40
1.0
 40
1.0
 40
1.0
 40
2.0
 40
2.0
 40
2.0
 40
3.0
 40
3.0
 40
3.0
 40
4.0
 40
4.0
 40
4.0
 40
5.0
 40
5.0
 40
5.0
 40
6.0
 40
6.0
 40
6.0
 40
7.0
 40
7.0
 40
7.0
 40
7.0
 10
122.5818372938368
 20
208.1774739583333
 30
0.0
 10
122.7616712782118
 20
208.6728786892361
 30
0.0
 10
122.9291029188368
 20
209.5389756944444
 30
0.0
 10
123.0379679361979
 20
210.1156846788194
 30
0.0
 10
123.1489000108507
 20
210.6923936631944
 30
0.0
 10
123.1089369032118
 20
210.8618923611111
 30
0.0
 10
123.2391615125868
 20
211.4792534722222
 30
0.0
 10
123.3686971028646
 20
212.0959255642361
 30
0.0
 10
123.4761840820312
 20
213.1887098524306
 30
0.0
 10
123.7262980143229
 20
213.9555881076389
 30
0.0
 10
123.9750339084201
 20
214.7224663628472
 30
0.0
 10
124.1341973198785
 20
215.1696397569444
 30
0.0
 10
124.0845879448785
 20
215.9055121527778
 30
0.0
 10
124.033600531684
 20
216.6420735677083
 30
0.0
 10
123.8641018337674
 20
218.6698567708333
 30
0.0
 10
123.835163031684
 20
219.3671440972222
 30
0.0
 10
123.8048461914062
 20
220.0637424045139
 30
0.0
 10
123.7469685872396
 20
221.9447645399305
 30
0.0
 10
123.7063164605035
 20
222.6110460069444
 30
0.0
 10
123.6656643337674
 20
223.2780164930555
 30
0.0
 10
123.5381958007812
 20
224.6305609809028
 30
0.0
 10
123.5760918511285
 20
224.9695583767361
 30
0.0
  0
SPLINE
  5
47
330
A
100
AcDbEntity
  8
LAYER_1
 62
     7
100
AcDbSpline
210
0.0
220
0.0
230
1.0
 70
     8
 71
     3
 72
    32
 73
    28
 74
     0
 42
0.0000000001
 43
0.0000000001
 40
0.0
 40
0.0
 40
0.0
 40
0.0
 40
1.0
 40
1.0
 40
1.0
 40
2.0
 40
2.0
 40
2.0
 40
3.0
 40
3.0
 40
3.0
 40
4.0
 40
4.0
 40
4.0
 40
5.0
 40
5.0
 40
5.0
 40
6.0
 40
6.0
 40
6.0
 40
7.0
 40
7.0
 40
7.0
 40
8.0
 40
8.0
 40
8.0
 40
9.0
 40
9.0
 40
9.0
 40
9.0
 10
124.721930609809
 20
225.1280327690972
 30
0.0
 10
124.6902357313368
 20
224.401806640625
 30
0.0
 10
124.6606079101562
 20
223.2862847222222
 30
0.0
 10
124.7804972330729
 20
222.46083984375
 30
0.0
 10
124.8996975368924
 20
221.636083984375
 30
0.0
 10
125.0602389865451
 20
221.1985568576389
 30
0.0
 10
125.0602389865451
 20
220.4227213541666
 30
0.0
 10
125.0602389865451
 20
219.6461968315972
 30
0.0
 10
125.0602389865451
 20
218.7304904513889
 30
0.0
 10
125.1491224500868
 20
217.8761067708333
 30
0.0
 10
125.2373168945312
 20
217.0203450520833
 30
0.0
 10
125.2690117730035
 20
216.33408203125
 30
0.0
 10
125.3082858615451
 20
215.5775390625
 30
0.0
 10
125.3468709309896
 20
214.8216851128472
 30
0.0
 10
125.1463663736979
 20
213.6069444444444
 30
0.0
 10
125.1194946289062
 20
212.7911458333333
 30
0.0
 10
125.0891777886285
 20
211.9760362413194
 30
0.0
 10
125.2297376844618
 20
211.230517578125
 30
0.0
 10
124.9300143771701
 20
210.622802734375
 30
0.0
 10
124.6309800889757
 20
210.0164659288194
 30
0.0
 10
124.4931762695312
 20
209.3991048177083
 30
0.0
 10
124.3629516601562
 20
208.8217068142361
 30
0.0
 10
124.2327270507812
 20
208.2443088107639
 30
0.0
 10
123.835163031684
 20
206.9027886284722
 30
0.0
 10
123.7745293511285
 20
206.1965440538194
 30
0.0
 10
123.7152737087674
 20
205.4896104600694
 30
0.0
 10
123.6959811740451
 20
204.5242947048611
 30
0.0
 10
123.6959811740451
 20
204.1074381510416
 30
0.0
  0
SPLINE
  5
46
330
A
100
AcDbEntity
  8
LAYER_1
 62
     7
100
AcDbSpline
210
0.0
220
0.0
230
1.0
 70
     8
 71
     3
 72
    29
 73
    25
 74
     0
 42
0.0000000001
 43
0.0000000001
 40
0.0
 40
0.0
 40
0.0
 40
0.0
 40
1.0
 40
1.0
 40
1.0
 40
2.0
 40
2.0
 40
2.0
 40
3.0
 40
3.0
 40
3.0
 40
4.0
 40
4.0
 40
4.0
 40
5.0
 40
5.0
 40
5.0
 40
6.0
 40
6.0
 40
6.0
 40
7.0
 40
7.0
 40
7.0
 40
8.0
 40
8.0
 40
8.0
 40
8.0
 10
125.3372246636285
 20
204.5063802083333
 30
0.0
 10
125.4171508789062
 20
205.1003146701389
 30
0.0
 10
125.6162773980035
 20
206.5252061631944
 30
0.0
 10
125.7272094726562
 20
207.4195529513889
 30
0.0
 10
125.8360744900174
 20
208.3145887586805
 30
0.0
 10
125.912555609809
 20
209.109716796875
 30
0.0
 10
126.0744750976562
 20
209.8765950520833
 30
0.0
 10
126.2336385091146
 20
210.6434733072917
 30
0.0
 10
126.6429158528646
 20
211.1402560763889
 30
0.0
 10
126.631891547309
 20
211.9760362413194
 30
0.0
 10
126.6201782226562
 20
212.8111273871528
 30
0.0
 10
126.5223375108507
 20
214.6211805555555
 30
0.0
 10
126.4513685438368
 20
215.3288031684028
 30
0.0
 10
126.3831556532118
 20
216.0357367621528
 30
0.0
 10
126.321832953559
 20
217.2794162326389
 30
0.0
 10
126.2143459743923
 20
217.9553439670139
 30
0.0
 10
126.1041029188368
 20
218.6319607204861
 30
0.0
 10
126.1041029188368
 20
219.1879991319444
 30
0.0
 10
126.0937676323785
 20
219.8342990451389
 30
0.0
 10
126.0834323459201
 20
220.4833550347222
 30
0.0
 10
125.8546780056424
 20
222.0446723090278
 30
0.0
 10
125.7540812174479
 20
222.9286838107639
 30
0.0
 10
125.6548624674479
 20
223.8147623697917
 30
0.0
 10
125.6452162000868
 20
224.680859375
 30
0.0
 10
125.5267049153646
 20
225.257568359375
 30
0.0
  0
SPLINE
  5
45
330
A
100
AcDbEntity
  8
LAYER_1
 62
     7
100
AcDbSpline
210
0.0
220
0.0
230
1.0
 70
     8
 71
     3
 72
    17
 73
    13
 74
     0
 42
0.0000000001
 43
0.0000000001
 40
0.0
 40
0.0
 40
0.0
 40
0.0
 40
1.0
 40
1.0
 40
1.0
 40
2.0
 40
2.0
 40
2.0
 40
3.0
 40
3.0
 40
3.0
 40
4.0
 40
4.0
 40
4.0
 40
4.0
 10
126.3831556532118
 20
225.3864149305555
 30
0.0
 10
126.5223375108507
 20
224.5216959635417
 30
0.0
 10
126.7717624240451
 20
223.942919921875
 30
0.0
 10
126.8013902452257
 20
223.0885362413194
 30
0.0
 10
126.830329047309
 20
222.2341525607639
 30
0.0
 10
126.9185234917535
 20
221.0697102864583
 30
0.0
 10
127.0873331705729
 20
220.4723307291667
 30
0.0
 10
127.258209906684
 20
219.874951171875
 30
0.0
 10
127.3973917643229
 20
219.4484483506944
 30
0.0
 10
127.4580254448785
 20
218.6216254340278
 30
0.0
 10
127.5165920681423
 20
217.7954915364583
 30
0.0
 10
127.7460354275174
 20
216.4718858506944
 30
0.0
 10
127.9858140733507
 20
215.6671115451389
 30
0.0
  0
SPLINE
  5
44
330
A
100
AcDbEntity
  8
LAYER_1
 62
     7
100
AcDbSpline
210
0.0
220
0.0
230
1.0
 70
     8
 71
     3
 72
    11
 73
     7
 74
     0
 42
0.0000000001
 43
0.0000000001
 40
0.0
 40
0.0
 40
0.0
 40
0.0
 40
1.0
 40
1.0
 40
1.0
 40
2.0
 40
2.0
 40
2.0
 40
2.0
 10
127.258209906684
 20
225.5262858072917
 30
0.0
 10
127.376032172309
 20
225.0384602864583
 30
0.0
 10
127.5462198893229
 20
224.7187554253472
 30
0.0
 10
127.6144327799479
 20
224.2026801215278
 30
0.0
 10
127.686090766059
 20
223.6859157986111
 30
0.0
 10
127.7749742296007
 20
222.9583116319444
 30
0.0
 10
127.9933932834201
 20
222.3023654513889
 30
0.0
  0
SPLINE
  5
43
330
A
100
AcDbEntity
  8
LAYER_1
 62
     7
100
AcDbSpline
210
0.0
220
0.0
230
1.0
 70
     8
 71
     3
 72
    11
 73
     7
 74
     0
 42
0.0000000001
 43
0.0000000001
 40
0.0
 40
0.0
 40
0.0
 40
0.0
 40
1.0
 40
1.0
 40
1.0
 40
2.0
 40
2.0
 40
2.0
 40
2.0
 10
112.2816908094618
 20
144.0325520833333
 30
0.0
 10
112.2816908094618
 20
144.0325520833333
 30
0.0
 10
105.1358737521701
 20
180.9949815538194
 30
0.0
 10
104.9856675889757
 20
181.7232747395833
 30
0.0
 10
104.8154798719618
 20
182.5576768663194
 30
0.0
 10
104.1746921115451
 20
184.305029296875
 30
0.0
 10
103.389899359809
 20
185.3185763888889
 30
0.0
  0
SPLINE
  5
42
330
A
100
AcDbEntity
  8
LAYER_1
 62
     7
100
AcDbSpline
210
0.0
220
0.0
230
1.0
 70
     8
 71
     3
 72
    11
 73
     7
 74
     0
 42
0.0000000001
 43
0.0000000001
 40
0.0
 40
0.0
 40
0.0
 40
0.0
 40
1.0
 40
1.0
 40
1.0
 40
2.0
 40
2.0
 40
2.0
 40
2.0
 10
113.4364868164062
 20
142.0385308159722
 30
0.0
 10
113.4364868164062
 20
142.0385308159722
 30
0.0
 10
105.8758802625868
 20
181.154833984375
 30
0.0
 10
105.7070705837674
 20
181.9761447482639
 30
0.0
 10
105.5361938476562
 20
182.8098578559028
 30
0.0
 10
104.8947170681424
 20
184.5578993055555
 30
0.0
 10
104.1113023546007
 20
185.5714463975694
 30
0.0
  0
LINE
  5
41
330
A
100
AcDbEntity
  8
LAYER_1
 62
     7
100
AcDbLine
 10
104.3104288736979
 20
148.4429633246528
 30
0.0
 11
97.27347683376735
 21
183.5822482638889
 31
0.0
  0
SPLINE
  5
40
330
A
100
AcDbEntity
  8
LAYER_1
 62
     7
100
AcDbSpline
210
0.0
220
0.0
230
1.0
 70
     8
 71
     3
 72
    11
 73
     7
 74
     0
 42
0.0000000001
 43
0.0000000001
 40
0.0
 40
0.0
 40
0.0
 40
0.0
 40
1.0
 40
1.0
 40
1.0
 40
2.0
 40
2.0
 40
2.0
 40
2.0
 10
98.44412027994791
 20
183.8785264756944
 30
0.0
 10
98.46410183376736
 20
183.461669921875
 30
0.0
 10
98.61086290147568
 20
182.940771484375
 30
0.0
 10
99.13038330078125
 20
182.6720540364583
 30
0.0
 10
99.65059271918402
 20
182.40126953125
 30
0.0
 10
105.3887437608507
 20
179.5535536024305
 30
0.0
 10
105.3887437608507
 20
179.5535536024305
 30
0.0
  0
LINE
  5
3F
330
A
100
AcDbEntity
  8
LAYER_1
 62
     7
100
AcDbLine
 10
105.1813490125868
 20
179.635546875
 30
0.0
 11
105.1813490125868
 21
150.2385470920139
 31
0.0
  0
LINE
  5
3E
330
A
100
AcDbEntity
  8
LAYER_1
 62
     7
100
AcDbLine
 10
105.1813490125868
 20
150.0194390190972
 30
0.0
 11
105.1813490125868
 21
149.2174207899305
 31
0.0
  0
SPLINE
  5
3D
330
A
100
AcDbEntity
  8
LAYER_1
 62
     7
100
AcDbSpline
210
0.0
220
0.0
230
1.0
 70
     8
 71
     3
 72
    11
 73
     7
 74
     0
 42
0.0000000001
 43
0.0000000001
 40
0.0
 40
0.0
 40
0.0
 40
0.0
 40
1.0
 40
1.0
 40
1.0
 40
2.0
 40
2.0
 40
2.0
 40
2.0
 10
107.2987046983507
 20
169.2885470920139
 30
0.0
 10
107.0410115559896
 20
169.3464246961806
 30
0.0
 10
106.7736721462673
 20
169.6571723090278
 30
0.0
 10
106.7736721462673
 20
170.1918511284722
 30
0.0
 10
106.7736721462673
 20
170.5790798611111
 30
0.0
 10
106.9156100802951
 20
170.7444444444444
 30
0.0
 10
107.0892428927951
 20
170.7540907118055
 30
0.0
  0
SPLINE
  5
3C
330
A
100
AcDbEntity
  8
LAYER_1
 62
     7
100
AcDbSpline
210
0.0
220
0.0
230
1.0
 70
     8
 71
     3
 72
    11
 73
     7
 74
     0
 42
0.0000000001
 43
0.0000000001
 40
0.0
 40
0.0
 40
0.0
 40
0.0
 40
1.0
 40
1.0
 40
1.0
 40
2.0
 40
2.0
 40
2.0
 40
2.0
 10
111.2991495768229
 20
148.8322591145833
 30
0.0
 10
111.0035603841146
 20
148.7550889756944
 30
0.0
 10
110.5991061740451
 20
149.0747938368056
 30
0.0
 10
110.5991061740451
 20
149.7328070746528
 30
0.0
 10
110.5991061740451
 20
150.2344129774305
 30
0.0
 10
110.8333726671007
 20
150.3632595486111
 30
0.0
 10
111.0752183702257
 20
150.2661078559028
 30
0.0
  0
LINE
  5
3B
330
A
100
AcDbEntity
  8
LAYER_1
 62
     7
100
AcDbLine
 10
88.16326633029513
 20
235.4791666666667
 30
0.0
 11
88.95150417751735
 21
234.5669053819444
 31
0.0
  0
SPLINE
  5
3A
330
A
100
AcDbEntity
  8
LAYER_1
 62
     7
100
AcDbSpline
210
0.0
220
0.0
230
1.0
 70
     8
 71
     3
 72
    11
 73
     7
 74
     0
 42
0.0000000001
 43
0.0000000001
 40
0.0
 40
0.0
 40
0.0
 40
0.0
 40
1.0
 40
1.0
 40
1.0
 40
2.0
 40
2.0
 40
2.0
 40
2.0
 10
107.1750257703993
 20
150.6788302951389
 30
0.0
 10
107.2578803168403
 20
151.9989908854167
 30
0.0
 10
108.9041191948785
 20
151.3731892903646
 30
0.0
 10
108.9041191948785
 20
149.9236653645833
 30
0.0
 10
108.9041191948785
 20
149.003480360243
 30
0.0
 10
108.2400770399305
 20
148.7829942491319
 30
0.0
 10
107.7343370225694
 20
149.1748738606771
 30
0.0
  0
SPLINE
  5
39
330
A
100
AcDbEntity
  8
LAYER_1
 62
     7
100
AcDbSpline
210
0.0
220
0.0
230
1.0
 70
     8
 71
     3
 72
    11
 73
     7
 74
     0
 42
0.0000000001
 43
0.0000000001
 40
0.0
 40
0.0
 40
0.0
 40
0.0
 40
1.0
 40
1.0
 40
1.0
 40
2.0
 40
2.0
 40
2.0
 40
2.0
 10
107.0566867404514
 20
150.6373168945312
 30
0.0
 10
107.1545274522569
 20
151.932672797309
 30
0.0
 10
108.7842298719618
 20
151.3053209092882
 30
0.0
 10
108.7842298719618
 20
149.8644097222222
 30
0.0
 10
108.7842298719618
 20
148.9356119791667
 30
0.0
 10
108.1076131184896
 20
148.7196044921875
 30
0.0
 10
107.6001505533854
 20
149.1262980143229
 30
0.0
  0
SPLINE
  5
38
330
A
100
AcDbEntity
  8
LAYER_1
 62
     7
100
AcDbSpline
210
0.0
220
0.0
230
1.0
 70
    11
 71
     3
 72
    47
 73
    43
 74
     0
 42
0.0000000001
 43
0.0000000001
 40
0.0
 40
0.0
 40
0.0
 40
0.0
 40
1.0
 40
1.0
 40
1.0
 40
2.0
 40
2.0
 40
2.0
 40
3.0
 40
3.0
 40
3.0
 40
4.0
 40
4.0
 40
4.0
 40
5.0
 40
5.0
 40
5.0
 40
6.0
 40
6.0
 40
6.0
 40
7.0
 40
7.0
 40
7.0
 40
8.0
 40
8.0
 40
8.0
 40
9.0
 40
9.0
 40
9.0
 40
10.0
 40
10.0
 40
10.0
 40
11.0
 40
11.0
 40
11.0
 40
12.0
 40
12.0
 40
12.0
 40
13.0
 40
13.0
 40
13.0
 40
14.0
 40
14.0
 40
14.0
 40
14.0
 10
108.2075208875868
 20
149.8292697482639
 30
0.0
 10
108.2075208875868
 20
150.3901312934028
 30
0.0
 10
107.7810180664063
 20
150.8152560763889
 30
0.0
 10
107.4847398546007
 20
150.756689453125
 30
0.0
 10
107.4847398546007
 20
150.756689453125
 30
0.0
 10
107.4833618164062
 20
150.7580674913194
 30
0.0
 10
107.4833618164062
 20
150.7580674913194
 30
0.0
 10
107.4833618164062
 20
150.7580674913194
 30
0.0
 10
107.4750935872396
 20
150.7546223958333
 30
0.0
 10
107.4750935872396
 20
150.7546223958333
 30
0.0
 10
107.4551120334201
 20
150.7497992621528
 30
0.0
 10
107.4385755750868
 20
150.7429090711806
 30
0.0
 10
107.4199720594618
 20
150.7360188802083
 30
0.0
 10
107.4199720594618
 20
150.7360188802083
 30
0.0
 10
106.8411960177951
 20
150.5327582465278
 30
0.0
 10
106.8411960177951
 20
150.5327582465278
 30
0.0
 10
106.8336168077257
 20
150.5306911892361
 30
0.0
 10
106.8260375976562
 20
150.5300021701389
 30
0.0
 10
106.8184583875868
 20
150.5265570746528
 30
0.0
 10
106.8184583875868
 20
150.5265570746528
 30
0.0
 10
106.8012329101562
 20
150.521044921875
 30
0.0
 10
106.8012329101562
 20
150.521044921875
 30
0.0
 10
106.8012329101562
 20
150.521044921875
 30
0.0
 10
106.8026109483507
 20
150.5162217881944
 30
0.0
 10
106.8026109483507
 20
150.5162217881944
 30
0.0
 10
106.6806545681423
 20
150.4542100694444
 30
0.0
 10
106.5938381618924
 20
150.2888454861111
 30
0.0
 10
106.5938381618924
 20
149.9856770833333
 30
0.0
 10
106.5938381618924
 20
149.3448893229167
 30
0.0
 10
106.9769327799479
 20
149.0265625
 30
0.0
 10
107.2683878580729
 20
149.0789279513889
 30
0.0
 10
107.2683878580729
 20
149.0789279513889
 30
0.0
 10
107.2704549153646
 20
149.0775499131944
 30
0.0
 10
107.2704549153646
 20
149.0775499131944
 30
0.0
 10
107.2704549153646
 20
149.0775499131944
 30
0.0
 10
107.9525838216146
 20
149.3159505208333
 30
0.0
 10
107.9525838216146
 20
149.3159505208333
 30
0.0
 10
107.9525838216146
 20
149.3159505208333
 30
0.0
 10
107.9505167643229
 20
149.3187065972222
 30
0.0
 10
107.9505167643229
 20
149.3187065972222
 30
0.0
 10
108.0986558702257
 20
149.3786512586806
 30
0.0
 10
108.2075208875868
 20
149.5447048611111
 30
0.0
 10
108.2075208875868
 20
149.8292697482639
 30
0.0
  0
SPLINE
  5
37
330
A
100
AcDbEntity
  8
LAYER_1
 62
     7
100
AcDbSpline
210
0.0
220
0.0
230
1.0
 70
    11
 71
     3
 72
    11
 73
     7
 74
     0
 42
0.0000000001
 43
0.0000000001
 40
0.0
 40
0.0
 40
0.0
 40
0.0
 40
1.0
 40
1.0
 40
1.0
 40
2.0
 40
2.0
 40
2.0
 40
2.0
 10
107.5922268337674
 20
149.6129177517361
 30
0.0
 10
107.5922268337674
 20
148.7537109375
 30
0.0
 10
106.5938381618924
 20
148.9507703993056
 30
0.0
 10
106.5938381618924
 20
149.9856770833333
 30
0.0
 10
106.5938381618924
 20
151.0212727864583
 30
0.0
 10
107.5922268337674
 20
150.4707465277778
 30
0.0
 10
107.5922268337674
 20
149.6129177517361
 30
0.0
  0
LINE
  5
36
330
A
100
AcDbEntity
  8
LAYER_1
 62
     7
100
AcDbLine
 10
107.5102335611979
 20
150.062158203125
 30
0.0
 11
108.0614488389757
 21
150.3625705295139
 31
0.0
  0
SPLINE
  5
35
330
A
100
AcDbEntity
  8
LAYER_1
 62
     7
100
AcDbSpline
210
0.0
220
0.0
230
1.0
 70
     8
 71
     3
 72
    11
 73
     7
 74
     0
 42
0.0000000001
 43
0.0000000001
 40
0.0
 40
0.0
 40
0.0
 40
0.0
 40
1.0
 40
1.0
 40
1.0
 40
2.0
 40
2.0
 40
2.0
 40
2.0
 10
107.7637925889757
 20
155.8049601236979
 30
0.0
 10
108.2511013454861
 20
156.1763414171007
 30
0.0
 10
109.2258911132812
 20
155.5486450195313
 30
0.0
 10
109.2258911132812
 20
154.4319173177083
 30
0.0
 10
109.2258911132812
 20
153.9800930447049
 30
0.0
 10
109.0651774088542
 20
153.6972507052951
 30
0.0
 10
108.8417629665799
 20
153.5728827582465
 30
0.0
  0
SPLINE
  5
34
330
A
100
AcDbEntity
  8
LAYER_1
 62
     7
100
AcDbSpline
210
0.0
220
0.0
230
1.0
 70
     8
 71
     3
 72
    11
 73
     7
 74
     0
 42
0.0000000001
 43
0.0000000001
 40
0.0
 40
0.0
 40
0.0
 40
0.0
 40
1.0
 40
1.0
 40
1.0
 40
2.0
 40
2.0
 40
2.0
 40
2.0
 10
107.3760470920139
 20
155.1328219943576
 30
0.0
 10
107.4642415364583
 20
156.4457478841146
 30
0.0
 10
109.1066908094618
 20
155.8196017795139
 30
0.0
 10
109.1066908094618
 20
154.3733506944444
 30
0.0
 10
109.1066908094618
 20
153.444036187066
 30
0.0
 10
108.4293850368924
 20
153.2282009548611
 30
0.0
 10
107.921233452691
 20
153.6348944769965
 30
0.0
  0
SPLINE
  5
33
330
A
100
AcDbEntity
  8
LAYER_1
 62
     7
100
AcDbSpline
210
0.0
220
0.0
230
1.0
 70
    11
 71
     3
 72
    47
 73
    43
 74
     0
 42
0.0000000001
 43
0.0000000001
 40
0.0
 40
0.0
 40
0.0
 40
0.0
 40
1.0
 40
1.0
 40
1.0
 40
2.0
 40
2.0
 40
2.0
 40
3.0
 40
3.0
 40
3.0
 40
4.0
 40
4.0
 40
4.0
 40
5.0
 40
5.0
 40
5.0
 40
6.0
 40
6.0
 40
6.0
 40
7.0
 40
7.0
 40
7.0
 40
8.0
 40
8.0
 40
8.0
 40
9.0
 40
9.0
 40
9.0
 40
10.0
 40
10.0
 40
10.0
 40
11.0
 40
11.0
 40
11.0
 40
12.0
 40
12.0
 40
12.0
 40
13.0
 40
13.0
 40
13.0
 40
14.0
 40
14.0
 40
14.0
 40
14.0
 10
108.5286037868924
 20
154.3388997395833
 30
0.0
 10
108.5286037868924
 20
154.9004503038194
 30
0.0
 10
108.1021009657118
 20
155.3262641059028
 30
0.0
 10
107.805133734809
 20
155.2656304253472
 30
0.0
 10
107.805133734809
 20
155.2656304253472
 30
0.0
 10
107.805133734809
 20
155.2670084635417
 30
0.0
 10
107.805133734809
 20
155.2670084635417
 30
0.0
 10
107.805133734809
 20
155.2670084635417
 30
0.0
 10
107.7947984483507
 20
155.2621853298611
 30
0.0
 10
107.7947984483507
 20
155.2621853298611
 30
0.0
 10
107.7761949327257
 20
155.2594292534722
 30
0.0
 10
107.7596584743924
 20
155.2532280815972
 30
0.0
 10
107.7424329969618
 20
155.2456488715278
 30
0.0
 10
107.7424329969618
 20
155.2456488715278
 30
0.0
 10
107.1622789171007
 20
155.0423882378472
 30
0.0
 10
107.1622789171007
 20
155.0423882378472
 30
0.0
 10
107.154010687934
 20
155.0403211805555
 30
0.0
 10
107.1457424587673
 20
155.0396321614583
 30
0.0
 10
107.1395412868924
 20
155.0368760850694
 30
0.0
 10
107.1395412868924
 20
155.0368760850694
 30
0.0
 10
107.123004828559
 20
155.029296875
 30
0.0
 10
107.123004828559
 20
155.029296875
 30
0.0
 10
107.123004828559
 20
155.029296875
 30
0.0
 10
107.123004828559
 20
155.0258517795139
 30
0.0
 10
107.123004828559
 20
155.0258517795139
 30
0.0
 10
107.0017374674479
 20
154.9624620225694
 30
0.0
 10
106.9156100802951
 20
154.7984754774305
 30
0.0
 10
106.9156100802951
 20
154.4946180555556
 30
0.0
 10
106.9156100802951
 20
153.8545193142361
 30
0.0
 10
107.2987046983507
 20
153.5361924913194
 30
0.0
 10
107.5908487955729
 20
153.5892469618055
 30
0.0
 10
107.5908487955729
 20
153.5892469618055
 30
0.0
 10
107.5915378146701
 20
153.5858018663194
 30
0.0
 10
107.5915378146701
 20
153.5858018663194
 30
0.0
 10
107.5915378146701
 20
153.5858018663194
 30
0.0
 10
108.2743557400174
 20
153.8221354166666
 30
0.0
 10
108.2743557400174
 20
153.8221354166666
 30
0.0
 10
108.2743557400174
 20
153.8221354166666
 30
0.0
 10
108.2729777018229
 20
153.82626953125
 30
0.0
 10
108.2729777018229
 20
153.82626953125
 30
0.0
 10
108.419049750434
 20
153.8889702690972
 30
0.0
 10
108.5286037868924
 20
154.0543348524305
 30
0.0
 10
108.5286037868924
 20
154.3388997395833
 30
0.0
  0
SPLINE
  5
32
330
A
100
AcDbEntity
  8
LAYER_1
 62
     7
100
AcDbSpline
210
0.0
220
0.0
230
1.0
 70
    11
 71
     3
 72
    11
 73
     7
 74
     0
 42
0.0000000001
 43
0.0000000001
 40
0.0
 40
0.0
 40
0.0
 40
0.0
 40
1.0
 40
1.0
 40
1.0
 40
2.0
 40
2.0
 40
2.0
 40
2.0
 10
107.9146877712674
 20
154.1211697048611
 30
0.0
 10
107.9146877712674
 20
153.2633409288194
 30
0.0
 10
106.9156100802951
 20
153.4597113715278
 30
0.0
 10
106.9156100802951
 20
154.4946180555556
 30
0.0
 10
106.9156100802951
 20
155.5309027777778
 30
0.0
 10
107.9146877712674
 20
154.9789984809028
 30
0.0
 10
107.9146877712674
 20
154.1211697048611
 30
0.0
  0
LINE
  5
31
330
A
100
AcDbEntity
  8
LAYER_1
 62
     7
100
AcDbLine
 10
107.8326944986979
 20
154.57041015625
 30
0.0
 11
108.3839097764757
 21
154.8715115017361
 31
0.0
  0
SPLINE
  5
30
330
A
100
AcDbEntity
  8
LAYER_1
 62
     7
100
AcDbSpline
210
0.0
220
0.0
230
1.0
 70
     8
 71
     3
 72
    11
 73
     7
 74
     0
 42
0.0000000001
 43
0.0000000001
 40
0.0
 40
0.0
 40
0.0
 40
0.0
 40
1.0
 40
1.0
 40
1.0
 40
2.0
 40
2.0
 40
2.0
 40
2.0
 10
107.8476806640625
 20
160.0990993923611
 30
0.0
 10
108.3534206814236
 20
160.3612711588542
 30
0.0
 10
109.2355373806424
 20
159.7421875
 30
0.0
 10
109.2355373806424
 20
158.6824761284722
 30
0.0
 10
109.2355373806424
 20
158.1247151692708
 30
0.0
 10
108.991796875
 20
157.823786078559
 30
0.0
 10
108.6870781792535
 20
157.760051812066
 30
0.0
  0
SPLINE
  5
2F
330
A
100
AcDbEntity
  8
LAYER_1
 62
     7
100
AcDbSpline
210
0.0
220
0.0
230
1.0
 70
     8
 71
     3
 72
    11
 73
     7
 74
     0
 42
0.0000000001
 43
0.0000000001
 40
0.0
 40
0.0
 40
0.0
 40
0.0
 40
1.0
 40
1.0
 40
1.0
 40
2.0
 40
2.0
 40
2.0
 40
2.0
 10
107.3813869900174
 20
159.2688313802083
 30
0.0
 10
107.3813869900174
 20
160.7288628472222
 30
0.0
 10
109.1149590386285
 20
160.108056640625
 30
0.0
 10
109.1149590386285
 20
158.619775390625
 30
0.0
 10
109.1149590386285
 20
157.691322157118
 30
0.0
 10
108.4378255208333
 20
157.4758314344618
 30
0.0
 10
107.9298461914062
 20
157.8830417209201
 30
0.0
  0
SPLINE
  5
2E
330
A
100
AcDbEntity
  8
LAYER_1
 62
     7
100
AcDbSpline
210
0.0
220
0.0
230
1.0
 70
    11
 71
     3
 72
    47
 73
    43
 74
     0
 42
0.0000000001
 43
0.0000000001
 40
0.0
 40
0.0
 40
0.0
 40
0.0
 40
1.0
 40
1.0
 40
1.0
 40
2.0
 40
2.0
 40
2.0
 40
3.0
 40
3.0
 40
3.0
 40
4.0
 40
4.0
 40
4.0
 40
5.0
 40
5.0
 40
5.0
 40
6.0
 40
6.0
 40
6.0
 40
7.0
 40
7.0
 40
7.0
 40
8.0
 40
8.0
 40
8.0
 40
9.0
 40
9.0
 40
9.0
 40
10.0
 40
10.0
 40
10.0
 40
11.0
 40
11.0
 40
11.0
 40
12.0
 40
12.0
 40
12.0
 40
13.0
 40
13.0
 40
13.0
 40
14.0
 40
14.0
 40
14.0
 40
14.0
 10
108.5375610351562
 20
158.5867024739583
 30
0.0
 10
108.5375610351562
 20
159.146875
 30
0.0
 10
108.1110582139757
 20
159.5719997829861
 30
0.0
 10
107.8127129448785
 20
159.5141221788194
 30
0.0
 10
107.8127129448785
 20
159.5141221788194
 30
0.0
 10
107.8127129448785
 20
159.5155002170139
 30
0.0
 10
107.8127129448785
 20
159.5155002170139
 30
0.0
 10
107.8127129448785
 20
159.5155002170139
 30
0.0
 10
107.8044447157118
 20
159.5113661024305
 30
0.0
 10
107.8044447157118
 20
159.5113661024305
 30
0.0
 10
107.7858412000868
 20
159.50654296875
 30
0.0
 10
107.767926703559
 20
159.5017198350694
 30
0.0
 10
107.7520792643229
 20
159.4934516059028
 30
0.0
 10
107.7520792643229
 20
159.4934516059028
 30
0.0
 10
107.1719251844618
 20
159.2901909722222
 30
0.0
 10
107.1719251844618
 20
159.2901909722222
 30
0.0
 10
107.1643459743924
 20
159.2867458767361
 30
0.0
 10
107.1574557834201
 20
159.2853678385417
 30
0.0
 10
107.1491875542535
 20
159.28330078125
 30
0.0
 10
107.1491875542535
 20
159.28330078125
 30
0.0
 10
107.1319620768229
 20
159.2764105902778
 30
0.0
 10
107.1319620768229
 20
159.2764105902778
 30
0.0
 10
107.1319620768229
 20
159.2764105902778
 30
0.0
 10
107.1340291341146
 20
159.2736545138889
 30
0.0
 10
107.1340291341146
 20
159.2736545138889
 30
0.0
 10
107.0120727539062
 20
159.2109537760417
 30
0.0
 10
106.9252563476562
 20
159.0462782118055
 30
0.0
 10
106.9252563476562
 20
158.7410427517361
 30
0.0
 10
106.9252563476562
 20
158.1016330295139
 30
0.0
 10
107.3083509657118
 20
157.7826171875
 30
0.0
 10
107.600495062934
 20
157.8363606770833
 30
0.0
 10
107.600495062934
 20
157.8363606770833
 30
0.0
 10
107.600495062934
 20
157.8336046006944
 30
0.0
 10
107.600495062934
 20
157.8336046006944
 30
0.0
 10
107.600495062934
 20
157.8336046006944
 30
0.0
 10
108.2840020073785
 20
158.0713161892361
 30
0.0
 10
108.2840020073785
 20
158.0713161892361
 30
0.0
 10
108.2840020073785
 20
158.0713161892361
 30
0.0
 10
108.282623969184
 20
158.074072265625
 30
0.0
 10
108.282623969184
 20
158.074072265625
 30
0.0
 10
108.4280069986979
 20
158.1367730034722
 30
0.0
 10
108.5375610351562
 20
158.3028266059028
 30
0.0
 10
108.5375610351562
 20
158.5867024739583
 30
0.0
  0
SPLINE
  5
2D
330
A
100
AcDbEntity
  8
LAYER_1
 62
     7
100
AcDbSpline
210
0.0
220
0.0
230
1.0
 70
    11
 71
     3
 72
    11
 73
     7
 74
     0
 42
0.0000000001
 43
0.0000000001
 40
0.0
 40
0.0
 40
0.0
 40
0.0
 40
1.0
 40
1.0
 40
1.0
 40
2.0
 40
2.0
 40
2.0
 40
2.0
 10
107.9236450195312
 20
158.3689724392361
 30
0.0
 10
107.9236450195312
 20
157.5111436631944
 30
0.0
 10
106.9252563476562
 20
157.7075141059028
 30
0.0
 10
106.9252563476562
 20
158.7410427517361
 30
0.0
 10
106.9252563476562
 20
159.7780164930555
 30
0.0
 10
107.9236450195312
 20
159.2281792534722
 30
0.0
 10
107.9236450195312
 20
158.3689724392361
 30
0.0
  0
LINE
  5
2C
330
A
100
AcDbEntity
  8
LAYER_1
 62
     7
100
AcDbLine
 10
107.8402737087674
 20
158.8189019097222
 30
0.0
 11
108.3935560438368
 21
159.1193142361111
 31
0.0
  0
SPLINE
  5
2B
330
A
100
AcDbEntity
  8
LAYER_1
 62
     7
100
AcDbSpline
210
0.0
220
0.0
230
1.0
 70
     8
 71
     3
 72
    14
 73
    10
 74
     0
 42
0.0000000001
 43
0.0000000001
 40
0.0
 40
0.0
 40
0.0
 40
0.0
 40
1.0
 40
1.0
 40
1.0
 40
2.0
 40
2.0
 40
2.0
 40
3.0
 40
3.0
 40
3.0
 40
3.0
 10
107.9300184461805
 20
161.9439480251736
 30
0.0
 10
108.2264689127604
 20
161.697279188368
 30
0.0
 10
108.584758843316
 20
161.666273328993
 30
0.0
 10
108.8324612087674
 20
161.8685004340278
 30
0.0
 10
108.8324612087674
 20
161.8685004340278
 30
0.0
 10
108.4149156358507
 20
164.0258192274305
 30
0.0
 10
108.4149156358507
 20
164.0258192274305
 30
0.0
 10
108.1785820855035
 20
164.1584554036458
 30
0.0
 10
107.9272623697917
 20
164.1848103841146
 30
0.0
 10
107.7338202582465
 20
164.0787014431423
 30
0.0
  0
SPLINE
  5
2A
330
A
100
AcDbEntity
  8
LAYER_1
 62
     7
100
AcDbSpline
210
0.0
220
0.0
230
1.0
 70
     8
 71
     3
 72
    14
 73
    10
 74
     0
 42
0.0000000001
 43
0.0000000001
 40
0.0
 40
0.0
 40
0.0
 40
0.0
 40
1.0
 40
1.0
 40
1.0
 40
2.0
 40
2.0
 40
2.0
 40
3.0
 40
3.0
 40
3.0
 40
3.0
 10
107.7906643337674
 20
161.9003675672743
 30
0.0
 10
108.1372409396701
 20
161.5978881835937
 30
0.0
 10
108.5756293402778
 20
161.5956488715278
 30
0.0
 10
108.822125922309
 20
161.9229329427083
 30
0.0
 10
108.822125922309
 20
161.9229329427083
 30
0.0
 10
108.4466105143229
 20
163.8618326822917
 30
0.0
 10
108.4466105143229
 20
163.8618326822917
 30
0.0
 10
107.941559516059
 20
164.2607747395833
 30
0.0
 10
107.2801011827257
 20
164.1560438368055
 30
0.0
 10
107.2801011827257
 20
163.2527398003472
 30
0.0
  0
SPLINE
  5
29
330
A
100
AcDbEntity
  8
LAYER_1
 62
     7
100
AcDbSpline
210
0.0
220
0.0
230
1.0
 70
    11
 71
     3
 72
    47
 73
    43
 74
     0
 42
0.0000000001
 43
0.0000000001
 40
0.0
 40
0.0
 40
0.0
 40
0.0
 40
1.0
 40
1.0
 40
1.0
 40
2.0
 40
2.0
 40
2.0
 40
3.0
 40
3.0
 40
3.0
 40
4.0
 40
4.0
 40
4.0
 40
5.0
 40
5.0
 40
5.0
 40
6.0
 40
6.0
 40
6.0
 40
7.0
 40
7.0
 40
7.0
 40
8.0
 40
8.0
 40
8.0
 40
9.0
 40
9.0
 40
9.0
 40
10.0
 40
10.0
 40
10.0
 40
11.0
 40
11.0
 40
11.0
 40
12.0
 40
12.0
 40
12.0
 40
13.0
 40
13.0
 40
13.0
 40
14.0
 40
14.0
 40
14.0
 40
14.0
 10
108.4355862087674
 20
162.5712999131944
 30
0.0
 10
108.4355862087674
 20
163.1328504774305
 30
0.0
 10
108.0090833875868
 20
163.5593532986111
 30
0.0
 10
107.7114271375868
 20
163.4987196180555
 30
0.0
 10
107.7114271375868
 20
163.4987196180555
 30
0.0
 10
107.7114271375868
 20
163.50009765625
 30
0.0
 10
107.7114271375868
 20
163.50009765625
 30
0.0
 10
107.7114271375868
 20
163.50009765625
 30
0.0
 10
107.7017808702257
 20
163.4966525607639
 30
0.0
 10
107.7017808702257
 20
163.4966525607639
 30
0.0
 10
107.6824883355035
 20
163.4918294270833
 30
0.0
 10
107.6659518771701
 20
163.4856282552083
 30
0.0
 10
107.6494154188368
 20
163.4780490451389
 30
0.0
 10
107.6494154188368
 20
163.4780490451389
 30
0.0
 10
107.0685723198785
 20
163.2761664496528
 30
0.0
 10
107.0685723198785
 20
163.2761664496528
 30
0.0
 10
107.060993109809
 20
163.2734103732639
 30
0.0
 10
107.0534138997396
 20
163.270654296875
 30
0.0
 10
107.0465237087674
 20
163.2685872395833
 30
0.0
 10
107.0465237087674
 20
163.2685872395833
 30
0.0
 10
107.0292982313368
 20
163.2630750868055
 30
0.0
 10
107.0292982313368
 20
163.2630750868055
 30
0.0
 10
107.0292982313368
 20
163.2630750868055
 30
0.0
 10
107.0306762695312
 20
163.258251953125
 30
0.0
 10
107.0306762695312
 20
163.258251953125
 30
0.0
 10
106.9094089084201
 20
163.1948621961805
 30
0.0
 10
106.8212144639757
 20
163.0308756510416
 30
0.0
 10
106.8212144639757
 20
162.7277072482639
 30
0.0
 10
106.8212144639757
 20
162.08623046875
 30
0.0
 10
107.2063761393229
 20
161.7685926649305
 30
0.0
 10
107.4978312174479
 20
161.8223361545139
 30
0.0
 10
107.4978312174479
 20
161.8223361545139
 30
0.0
 10
107.4985202365451
 20
161.8182020399306
 30
0.0
 10
107.4985202365451
 20
161.8182020399306
 30
0.0
 10
107.4985202365451
 20
161.8182020399306
 30
0.0
 10
108.1806491427951
 20
162.0566026475694
 30
0.0
 10
108.1806491427951
 20
162.0566026475694
 30
0.0
 10
108.1806491427951
 20
162.0566026475694
 30
0.0
 10
108.1799601236979
 20
162.0600477430556
 30
0.0
 10
108.1799601236979
 20
162.0600477430556
 30
0.0
 10
108.3253431532118
 20
162.1234375
 30
0.0
 10
108.4355862087674
 20
162.2867350260416
 30
0.0
 10
108.4355862087674
 20
162.5712999131944
 30
0.0
  0
SPLINE
  5
28
330
A
100
AcDbEntity
  8
LAYER_1
 62
     7
100
AcDbSpline
210
0.0
220
0.0
230
1.0
 70
    11
 71
     3
 72
    11
 73
     7
 74
     0
 42
0.0000000001
 43
0.0000000001
 40
0.0
 40
0.0
 40
0.0
 40
0.0
 40
1.0
 40
1.0
 40
1.0
 40
2.0
 40
2.0
 40
2.0
 40
2.0
 10
107.8216701931424
 20
162.3549479166667
 30
0.0
 10
107.8216701931424
 20
161.4957411024305
 30
0.0
 10
106.8212144639757
 20
161.6921115451389
 30
0.0
 10
106.8212144639757
 20
162.7277072482639
 30
0.0
 10
106.8212144639757
 20
163.7619249131944
 30
0.0
 10
107.8216701931424
 20
163.2120876736111
 30
0.0
 10
107.8216701931424
 20
162.3549479166667
 30
0.0
  0
LINE
  5
27
330
A
100
AcDbEntity
  8
LAYER_1
 62
     7
100
AcDbLine
 10
107.7382988823785
 20
162.8034993489583
 30
0.0
 11
108.2902031792535
 21
163.1039116753472
 31
0.0
  0
SPLINE
  5
26
330
A
100
AcDbEntity
  8
LAYER_1
 62
     7
100
AcDbSpline
210
0.0
220
0.0
230
1.0
 70
     8
 71
     3
 72
    14
 73
    10
 74
     0
 42
0.0000000001
 43
0.0000000001
 40
0.0
 40
0.0
 40
0.0
 40
0.0
 40
1.0
 40
1.0
 40
1.0
 40
2.0
 40
2.0
 40
2.0
 40
3.0
 40
3.0
 40
3.0
 40
3.0
 10
107.61513671875
 20
165.864983452691
 30
0.0
 10
107.7660319010417
 20
165.6808430989583
 30
0.0
 10
107.9467271592882
 20
165.5642266167534
 30
0.0
 10
108.1262166341146
 20
165.5182345920139
 30
0.0
 10
108.1262166341146
 20
165.5182345920139
 30
0.0
 10
107.668707953559
 20
167.878125
 30
0.0
 10
107.668707953559
 20
167.878125
 30
0.0
 10
107.4234171549479
 20
167.8002658420139
 30
0.0
 10
107.2415161132812
 20
167.5480848524306
 30
0.0
 10
107.2415161132812
 20
167.0754177517361
 30
0.0
  0
SPLINE
  5
25
330
A
100
AcDbEntity
  8
LAYER_1
 62
     7
100
AcDbSpline
210
0.0
220
0.0
230
1.0
 70
     8
 71
     3
 72
    14
 73
    10
 74
     0
 42
0.0000000001
 43
0.0000000001
 40
0.0
 40
0.0
 40
0.0
 40
0.0
 40
1.0
 40
1.0
 40
1.0
 40
2.0
 40
2.0
 40
2.0
 40
3.0
 40
3.0
 40
3.0
 40
3.0
 10
107.5631157769097
 20
165.7273518880208
 30
0.0
 10
107.7388156467014
 20
165.5457953559028
 30
0.0
 10
107.945521375868
 20
165.447265625
 30
0.0
 10
108.1420640733507
 20
165.4362413194444
 30
0.0
 10
108.1420640733507
 20
165.4362413194444
 30
0.0
 10
107.6762871636285
 20
167.8450520833333
 30
0.0
 10
107.6762871636285
 20
167.8450520833333
 30
0.0
 10
107.3906887478299
 20
167.8214531792535
 30
0.0
 10
107.1578002929687
 20
167.6023451063368
 30
0.0
 10
107.1255886501736
 20
167.1305392795139
 30
0.0
  0
SPLINE
  5
24
330
A
100
AcDbEntity
  8
LAYER_1
 62
     7
100
AcDbSpline
210
0.0
220
0.0
230
1.0
 70
    11
 71
     3
 72
    50
 73
    46
 74
     0
 42
0.0000000001
 43
0.0000000001
 40
0.0
 40
0.0
 40
0.0
 40
0.0
 40
1.0
 40
1.0
 40
1.0
 40
2.0
 40
2.0
 40
2.0
 40
3.0
 40
3.0
 40
3.0
 40
4.0
 40
4.0
 40
4.0
 40
5.0
 40
5.0
 40
5.0
 40
6.0
 40
6.0
 40
6.0
 40
7.0
 40
7.0
 40
7.0
 40
8.0
 40
8.0
 40
8.0
 40
9.0
 40
9.0
 40
9.0
 40
10.0
 40
10.0
 40
10.0
 40
11.0
 40
11.0
 40
11.0
 40
12.0
 40
12.0
 40
12.0
 40
13.0
 40
13.0
 40
13.0
 40
14.0
 40
14.0
 40
14.0
 40
15.0
 40
15.0
 40
15.0
 40
15.0
 10
108.0614488389757
 20
165.8489637586806
 30
0.0
 10
108.0614488389757
 20
165.8489637586806
 30
0.0
 10
107.7975545247396
 20
167.2166666666666
 30
0.0
 10
107.7975545247396
 20
167.2166666666666
 30
0.0
 10
107.7128051757812
 20
167.2586968315972
 30
0.0
 10
107.6294338650174
 20
167.2773003472222
 30
0.0
 10
107.5536417643229
 20
167.2621419270833
 30
0.0
 10
107.5536417643229
 20
167.2621419270833
 30
0.0
 10
107.5536417643229
 20
167.2621419270833
 30
0.0
 10
107.5536417643229
 20
167.2621419270833
 30
0.0
 10
107.5536417643229
 20
167.2621419270833
 30
0.0
 10
107.5433064778646
 20
167.2586968315972
 30
0.0
 10
107.5433064778646
 20
167.2586968315972
 30
0.0
 10
107.5253919813368
 20
167.2545627170139
 30
0.0
 10
107.5088555230035
 20
167.2497395833333
 30
0.0
 10
107.4902520073785
 20
167.239404296875
 30
0.0
 10
107.4902520073785
 20
167.239404296875
 30
0.0
 10
106.9100979275174
 20
167.0375217013889
 30
0.0
 10
106.9100979275174
 20
167.0375217013889
 30
0.0
 10
106.9025187174479
 20
167.034765625
 30
0.0
 10
106.8949395073785
 20
167.0326985677083
 30
0.0
 10
106.8866712782118
 20
167.0313205295139
 30
0.0
 10
106.8866712782118
 20
167.0313205295139
 30
0.0
 10
106.8708238389757
 20
167.02236328125
 30
0.0
 10
106.8708238389757
 20
167.02236328125
 30
0.0
 10
106.8708238389757
 20
167.02236328125
 30
0.0
 10
106.8715128580729
 20
167.0209852430556
 30
0.0
 10
106.8715128580729
 20
167.0209852430556
 30
0.0
 10
106.7502454969618
 20
166.9589735243056
 30
0.0
 10
106.6634290907118
 20
166.792919921875
 30
0.0
 10
106.6634290907118
 20
166.4890625
 30
0.0
 10
106.6634290907118
 20
165.8489637586806
 30
0.0
 10
107.0465237087674
 20
165.5306369357639
 30
0.0
 10
107.340045844184
 20
165.58369140625
 30
0.0
 10
107.340045844184
 20
165.58369140625
 30
0.0
 10
107.340045844184
 20
165.5809353298611
 30
0.0
 10
107.340045844184
 20
165.5809353298611
 30
0.0
 10
107.340045844184
 20
165.5809353298611
 30
0.0
 10
108.022174750434
 20
165.8186469184028
 30
0.0
 10
108.022174750434
 20
165.8186469184028
 30
0.0
 10
108.022174750434
 20
165.8186469184028
 30
0.0
 10
108.0214857313368
 20
165.8220920138889
 30
0.0
 10
108.0214857313368
 20
165.8220920138889
 30
0.0
 10
108.0359551323785
 20
165.8296712239583
 30
0.0
 10
108.0476684570312
 20
165.8413845486111
 30
0.0
 10
108.0614488389757
 20
165.8489637586806
 30
0.0
  0
SPLINE
  5
23
330
A
100
AcDbEntity
  8
LAYER_1
 62
     7
100
AcDbSpline
210
0.0
220
0.0
230
1.0
 70
    11
 71
     3
 72
    11
 73
     7
 74
     0
 42
0.0000000001
 43
0.0000000001
 40
0.0
 40
0.0
 40
0.0
 40
0.0
 40
1.0
 40
1.0
 40
1.0
 40
2.0
 40
2.0
 40
2.0
 40
2.0
 10
107.662506781684
 20
166.1176812065972
 30
0.0
 10
107.662506781684
 20
165.2584743923611
 30
0.0
 10
106.6634290907118
 20
165.4548448350694
 30
0.0
 10
106.6634290907118
 20
166.4890625
 30
0.0
 10
106.6634290907118
 20
167.5253472222222
 30
0.0
 10
107.662506781684
 20
166.9755099826389
 30
0.0
 10
107.662506781684
 20
166.1176812065972
 30
0.0
  0
LINE
  5
22
330
A
100
AcDbEntity
  8
LAYER_1
 62
     7
100
AcDbLine
 10
107.5805135091146
 20
166.5662326388889
 30
0.0
 11
107.8430297851563
 21
166.7102376302083
 31
0.0
  0
ENDSEC
  0
SECTION
  2
OBJECTS
  0
DICTIONARY
  5
19
330
0
100
AcDbDictionary
281
     1
  3
ACAD_COLOR
350
266
  3
ACAD_GROUP
350
1A
  3
ACAD_LAYOUT
350
233
  3
ACAD_MATERIAL
350
268
  3
ACAD_MLINESTYLE
350
1B
  3
ACAD_PLOTSETTINGS
350
234
  3
ACAD_PLOTSTYLENAME
350
231
  3
ACDBHEADERROUNDTRIPXREC
350
265
  0
DICTIONARY
  5
266
102
{ACAD_REACTORS
330
19
102
}
330
19
100
AcDbDictionary
281
     1
  0
DICTIONARY
  5
1A
102
{ACAD_REACTORS
330
19
102
}
330
19
100
AcDbDictionary
281
     1
  0
DICTIONARY
  5
233
102
{ACAD_REACTORS
330
19
102
}
330
19
100
AcDbDictionary
281
     1
  3
Layout1
350
236
  3
Model
350
235
  0
DICTIONARY
  5
268
102
{ACAD_REACTORS
330
19
102
}
330
19
100
AcDbDictionary
281
     1
  0
DICTIONARY
  5
1B
102
{ACAD_REACTORS
330
19
102
}
330
19
100
AcDbDictionary
281
     1
  3
STANDARD
350
1C
  0
DICTIONARY
  5
234
102
{ACAD_REACTORS
330
19
102
}
330
19
100
AcDbDictionary
281
     1
  0
ACDBDICTIONARYWDFLT
  5
231
102
{ACAD_REACTORS
330
19
102
}
330
19
100
AcDbDictionary
281
     1
  3
Normal
350
232
100
AcDbDictionaryWithDefault
340
232
  0
DICTIONARY
  5
265
102
{ACAD_REACTORS
330
19
102
}
330
19
100
AcDbDictionary
281
     1
  3
COLORDICT
350
267
  3
MATERIALDICT
350
269
  0
LAYOUT
  5
236
102
{ACAD_REACTORS
330
233
102
}
102
{ACAD_XDICTIONARY
360
26A
102
}
330
233
100
AcDbPlotSettings
  1

  2
Support Center HP LaserJet 4
  4

  6

 40
0.0
 41
0.0
 42
0.0
 43
0.0
 44
0.0
 45
0.0
 46
0.0
 47
0.0
 48
0.0
 49
0.0
140
0.0
141
0.0
142
1.0
143
1.0
 70
   688
 72
     0
 73
     0
 74
     5
  7

 75
    16
147
1.0
148
0.0
149
0.0
100
AcDbLayout
  1
Layout1
 70
     0
 71
     1
 10
0.0
 20
0.0
 11
12.0
 21
9.0
 12
0.0
 22
0.0
 32
0.0
 14
1.000000000000000E+20
 24
1.000000000000000E+20
 34
1.000000000000000E+20
 15
-1.000000000000000E+20
 25
-1.000000000000000E+20
 35
-1.000000000000000E+20
146
0.0
 13
0.0
 23
0.0
 33
0.0
 16
1.0
 26
0.0
 36
0.0
 17
0.0
 27
1.0
 37
0.0
 76
     0
330
B
  0
LAYOUT
  5
235
102
{ACAD_REACTORS
330
233
102
}
102
{ACAD_XDICTIONARY
360
26C
102
}
330
233
100
AcDbPlotSettings
  1

  2
Support Center HP LaserJet 4
  4

  6

 40
0.0
 41
0.0
 42
0.0
 43
0.0
 44
0.0
 45
0.0
 46
0.0
 47
0.0
 48
0.0
 49
0.0
140
0.0
141
0.0
142
1.0
143
1.0
 70
  1712
 72
     0
 73
     0
 74
     0
  7

 75
     0
147
1.0
148
0.0
149
0.0
100
AcDbLayout
  1
Model
 70
     1
 71
     0
 10
0.0
 20
0.0
 11
12.0
 21
9.0
 12
0.0
 22
0.0
 32
0.0
 14
0.0
 24
0.0
 34
0.0
 15
0.0
 25
0.0
 35
0.0
146
0.0
 13
0.0
 23
0.0
 33
0.0
 16
1.0
 26
0.0
 36
0.0
 17
0.0
 27
1.0
 37
0.0
 76
     0
330
A
  0
MLINESTYLE
  5
1C
102
{ACAD_REACTORS
330
1B
102
}
330
1B
100
AcDbMlineStyle
  2
STANDARD
 70
     0
  3

 62
     0
 51
90.0000000000002
 52
90.0000000000002
 71
     2
 49
0.5
 62
   256
  6
BYLAYER
 49
-0.5
 62
   256
  6
BYLAYER
  0
ACDBPLACEHOLDER
  5
232
102
{ACAD_REACTORS
330
231
102
}
330
231
  0
XRECORD
  5
267
102
{ACAD_REACTORS
330
265
102
}
330
265
100
AcDbXrecord
340
266
  0
XRECORD
  5
269
102
{ACAD_REACTORS
330
265
102
}
330
265
100
AcDbXrecord
340
268
  0
DICTIONARY
  5
26A
330
236
100
AcDbDictionary
280
     1
281
     1
  3
ACAD_XREC_ROUNDTRIP
360
26B
  0
DICTIONARY
  5
26C
330
235
100
AcDbDictionary
280
     1
281
     1
  3
ACAD_XREC_ROUNDTRIP
360
26D
  0
XRECORD
  5
26B
102
{ACAD_REACTORS
330
26A
102
}
330
26A
100
AcDbXrecord
102
SHADEPLOT
 70
     0
102
SHADEPLOTRESLEVEL
 70
     0
102
SHADEPLOTCUSTOMDPI
 70
     0
  0
XRECORD
  5
26D
102
{ACAD_REACTORS
330
26C
102
}
330
26C
100
AcDbXrecord
102
SHADEPLOT
 70
-24624
102
SHADEPLOTRESLEVEL
 70
 21896
102
SHADEPLOTCUSTOMDPI
 70
-22384
  0
ENDSEC
  0
EOF
