  0
SECTION
  2
HEADER
  9
$ACADVER
  1
AC1015
  9
$ACADMAINTVER
 70
     6
  9
$DWGCODEPAGE
  3
ASCII
  9
$INSBASE
 10
0.0
 20
0.0
 30
0.0
  9
$EXTMIN
 10
0.9660200000000001
 20
2.168352
 30
0.0
  9
$EXTMAX
 10
7.458693809523809
 20
9.428453999999999
 30
0.0
  9
$LIMMIN
 10
0.0
 20
0.0
  9
$LIMMAX
 10
8.5
 20
11.0
  9
$ORTHOMODE
 70
     0
  9
$REGENMODE
 70
     0
  9
$FILLMODE
 70
     1
  9
$QTEXTMODE
 70
     0
  9
$MIRRTEXT
 70
     1
  9
$LTSCALE
 40
0.2
  9
$ATTMODE
 70
     1
  9
$TEXTSIZE
 40
0.25
  9
$TRACEWID
 40
0.05
  9
$TEXTSTYLE
  7
STANDARD
  9
$CLAYER
  8
0
  9
$CELTYPE
  6
ByLayer
  9
$CECOLOR
 62
   256
  9
$CELTSCALE
 40
1.0
  9
$DISPSILH
 70
     0
  9
$DIMSCALE
 40
1.0
  9
$DIMASZ
 40
0.2
  9
$DIMEXO
 40
0.0625
  9
$DIMDLI
 40
0.38
  9
$DIMRND
 40
0.0
  9
$DIMDLE
 40
0.0
  9
$DIMEXE
 40
0.075
  9
$DIMTP
 40
0.0
  9
$DIMTM
 40
0.0
  9
$DIMTXT
 40
0.1
  9
$DIMCEN
 40
0.09
  9
$DIMTSZ
 40
0.0
  9
$DIMTOL
 70
     0
  9
$DIMLIM
 70
     0
  9
$DIMTIH
 70
     0
  9
$DIMTOH
 70
     0
  9
$DIMSE1
 70
     0
  9
$DIMSE2
 70
     0
  9
$DIMTAD
 70
     1
  9
$DIMZIN
 70
     0
  9
$DIMBLK
  1

  9
$DIMASO
 70
     0
  9
$DIMSHO
 70
     1
  9
$DIMPOST
  1

  9
$DIMAPOST
  1

  9
$DIMALT
 70
     0
  9
$DIMALTD
 70
     2
  9
$DIMALTF
 40
25.4
  9
$DIMLFAC
 40
1.0
  9
$DIMTOFL
 70
     0
  9
$DIMTVP
 40
0.0
  9
$DIMTIX
 70
     0
  9
$DIMSOXD
 70
     0
  9
$DIMSAH
 70
     0
  9
$DIMBLK1
  1

  9
$DIMBLK2
  1

  9
$DIMSTYLE
  2
Standard
  9
$DIMCLRD
 70
     0
  9
$DIMCLRE
 70
     0
  9
$DIMCLRT
 70
     0
  9
$DIMTFAC
 40
1.0
  9
$DIMGAP
 40
0.09
  9
$DIMJUST
 70
     0
  9
$DIMSD1
 70
     0
  9
$DIMSD2
 70
     0
  9
$DIMTOLJ
 70
     1
  9
$DIMTZIN
 70
     0
  9
$DIMALTZ
 70
     0
  9
$DIMALTTZ
 70
     0
  9
$DIMUPT
 70
     0
  9
$DIMDEC
 70
     4
  9
$DIMTDEC
 70
     4
  9
$DIMALTU
 70
     2
  9
$DIMALTTD
 70
     2
  9
$DIMTXSTY
  7
STANDARD
  9
$DIMAUNIT
 70
     0
  9
$DIMADEC
 70
     0
  9
$DIMALTRND
 40
0.0
  9
$DIMAZIN
 70
     0
  9
$DIMDSEP
 70
    46
  9
$DIMATFIT
 70
     3
  9
$DIMFRAC
 70
     0
  9
$DIMLDRBLK
  1

  9
$DIMLUNIT
 70
     2
  9
$DIMLWD
 70
    -2
  9
$DIMLWE
 70
    -2
  9
$DIMTMOVE
 70
     0
  9
$LUNITS
 70
     2
  9
$LUPREC
 70
     4
  9
$SKETCHINC
 40
0.1
  9
$FILLETRAD
 40
0.03
  9
$AUNITS
 70
     0
  9
$AUPREC
 70
     0
  9
$MENU
  1
acad
  9
$ELEVATION
 40
0.0
  9
$PELEVATION
 40
0.0
  9
$THICKNESS
 40
0.0
  9
$LIMCHECK
 70
     0
  9
$CHAMFERA
 40
0.0
  9
$CHAMFERB
 40
0.0
  9
$CHAMFERC
 40
1.0
  9
$CHAMFERD
 40
0.0
  9
$SKPOLY
 70
     0
  9
$TDCREATE
 40
2453955.561304039
  9
$TDUCREATE
 40
2453955.894637373
  9
$TDUPDATE
 40
2453955.602970718
  9
$TDUUPDATE
 40
2453955.894637385
  9
$TDINDWG
 40
0.0000000116
  9
$TDUSRTIMER
 40
0.0000000116
  9
$USRTIMER
 70
     1
  9
$ANGBASE
 50
0.0
  9
$ANGDIR
 70
     0
  9
$PDMODE
 70
     0
  9
$PDSIZE
 40
0.0
  9
$PLINEWID
 40
0.0
  9
$SPLFRAME
 70
     0
  9
$SPLINETYPE
 70
     6
  9
$SPLINESEGS
 70
     8
  9
$HANDSEED
  5
1BC
  9
$SURFTAB1
 70
     6
  9
$SURFTAB2
 70
     6
  9
$SURFTYPE
 70
     6
  9
$SURFU
 70
     6
  9
$SURFV
 70
     6
  9
$UCSBASE
  2

  9
$UCSNAME
  2

  9
$UCSORG
 10
0.0
 20
0.0
 30
0.0
  9
$UCSXDIR
 10
1.0
 20
0.0
 30
0.0
  9
$UCSYDIR
 10
0.0
 20
1.0
 30
0.0
  9
$UCSORTHOREF
  2

  9
$UCSORTHOVIEW
 70
     0
  9
$UCSORGTOP
 10
0.0
 20
0.0
 30
0.0
  9
$UCSORGBOTTOM
 10
0.0
 20
0.0
 30
0.0
  9
$UCSORGLEFT
 10
0.0
 20
0.0
 30
0.0
  9
$UCSORGRIGHT
 10
0.0
 20
0.0
 30
0.0
  9
$UCSORGFRONT
 10
0.0
 20
0.0
 30
0.0
  9
$UCSORGBACK
 10
0.0
 20
0.0
 30
0.0
  9
$PUCSBASE
  2

  9
$PUCSNAME
  2

  9
$PUCSORG
 10
0.0
 20
0.0
 30
0.0
  9
$PUCSXDIR
 10
1.0
 20
0.0
 30
0.0
  9
$PUCSYDIR
 10
0.0
 20
1.0
 30
0.0
  9
$PUCSORTHOREF
  2

  9
$PUCSORTHOVIEW
 70
     0
  9
$PUCSORGTOP
 10
0.0
 20
0.0
 30
0.0
  9
$PUCSORGBOTTOM
 10
0.0
 20
0.0
 30
0.0
  9
$PUCSORGLEFT
 10
0.0
 20
0.0
 30
0.0
  9
$PUCSORGRIGHT
 10
0.0
 20
0.0
 30
0.0
  9
$PUCSORGFRONT
 10
0.0
 20
0.0
 30
0.0
  9
$PUCSORGBACK
 10
0.0
 20
0.0
 30
0.0
  9
$USERI1
 70
     0
  9
$USERI2
 70
     0
  9
$USERI3
 70
     0
  9
$USERI4
 70
     0
  9
$USERI5
 70
     0
  9
$USERR1
 40
0.0
  9
$USERR2
 40
0.0
  9
$USERR3
 40
0.0
  9
$USERR4
 40
0.0
  9
$USERR5
 40
0.0
  9
$WORLDVIEW
 70
     1
  9
$SHADEDGE
 70
     3
  9
$SHADEDIF
 70
    70
  9
$TILEMODE
 70
     1
  9
$MAXACTVP
 70
    16
  9
$PINSBASE
 10
0.0
 20
0.0
 30
0.0
  9
$PLIMCHECK
 70
     0
  9
$PEXTMIN
 10
1.000000000000000E+20
 20
1.000000000000000E+20
 30
1.000000000000000E+20
  9
$PEXTMAX
 10
-1.000000000000000E+20
 20
-1.000000000000000E+20
 30
-1.000000000000000E+20
  9
$PLIMMIN
 10
0.0
 20
0.0
  9
$PLIMMAX
 10
12.0
 20
9.0
  9
$UNITMODE
 70
     0
  9
$VISRETAIN
 70
     0
  9
$PLINEGEN
 70
     0
  9
$PSLTSCALE
 70
     1
  9
$TREEDEPTH
 70
  3020
  9
$CMLSTYLE
  2
Standard
  9
$CMLJUST
 70
     0
  9
$CMLSCALE
 40
1.0
  9
$PROXYGRAPHICS
 70
     1
  9
$MEASUREMENT
 70
     0
  9
$CELWEIGHT
370
    -1
  9
$ENDCAPS
280
     0
  9
$JOINSTYLE
280
     0
  9
$LWDISPLAY
290
     0
  9
$INSUNITS
 70
     1
  9
$HYPERLINKBASE
  1

  9
$STYLESHEET
  1

  9
$XEDIT
290
     1
  9
$CEPSNTYPE
380
     0
  9
$PSTYLEMODE
290
     0
  9
$FINGERPRINTGUID
  2
{FAEB1C30-E019-11D5-929B-00C0DF256EC4}
  9
$VERSIONGUID
  2
{FAEB1C32-E019-11D5-929B-00C0DF256EC4}
  9
$EXTNAMES
290
     1
  9
$PSVPSCALE
 40
0.0
  9
$OLESTARTUP
290
     0
  0
ENDSEC
  0
SECTION
  2
CLASSES
  0
CLASS
  1
ACDBDICTIONARYWDFLT
  2
AcDbDictionaryWithDefault
  3
AutoCAD 2000
 90
        0
280
     0
281
     0
  0
CLASS
  1
ACDBPLACEHOLDER
  2
AcDbPlaceHolder
  3
ObjectDBX Classes
 90
        0
280
     0
281
     0
  0
CLASS
  1
LAYOUT
  2
AcDbLayout
  3
ObjectDBX Classes
 90
        0
280
     0
281
     0
  0
ENDSEC
  0
SECTION
  2
TABLES
  0
TABLE
  2
VPORT
  5
8
330
0
100
AcDbSymbolTable
 70
     2
  0
VPORT
  5
1E
330
8
100
AcDbSymbolTableRecord
100
AcDbViewportTableRecord
  2
*ACTIVE
 70
     0
 10
0.0
 20
0.0
 11
1.0
 21
1.0
 12
7.630750605326877
 22
5.5
 13
0.0
 23
0.0
 14
1.0
 24
1.0
 15
0.0
 25
0.0
 16
0.0
 26
0.0
 36
1.0
 17
0.0
 27
0.0
 37
0.0
 40
11.0
 41
0.7207678883071553
 42
50.0
 43
0.0
 44
0.0
 50
0.0
 51
0.0
 71
     0
 72
  2000
 73
     1
 74
     0
 75
     0
 76
     0
 77
     0
 78
     2
281
     0
 65
     1
110
0.0
120
0.0
130
0.0
111
1.0
121
0.0
131
0.0
112
0.0
122
1.0
132
0.0
 79
     0
146
0.0
  0
ENDTAB
  0
TABLE
  2
LTYPE
  5
5
330
0
100
AcDbSymbolTable
 70
     1
  0
LTYPE
  5
10
330
5
100
AcDbSymbolTableRecord
100
AcDbLinetypeTableRecord
  2
ByBlock
 70
     0
  3

 72
    65
 73
     0
 40
0.0
  0
LTYPE
  5
11
330
5
100
AcDbSymbolTableRecord
100
AcDbLinetypeTableRecord
  2
ByLayer
 70
     0
  3

 72
    65
 73
     0
 40
0.0
  0
LTYPE
  5
1B
330
5
100
AcDbSymbolTableRecord
100
AcDbLinetypeTableRecord
  2
CONTINUOUS
 70
     0
  3
Solid line
 72
    65
 73
     0
 40
0.0
  0
ENDTAB
  0
TABLE
  2
LAYER
  5
2
330
0
100
AcDbSymbolTable
 70
     1
  0
LAYER
  5
1C
330
2
100
AcDbSymbolTableRecord
100
AcDbLayerTableRecord
  2
0
 70
     0
 62
     7
  6
CONTINUOUS
370
    -3
390
F
  0
ENDTAB
  0
TABLE
  2
STYLE
  5
3
330
0
100
AcDbSymbolTable
 70
     1
  0
STYLE
  5
21
330
3
100
AcDbSymbolTableRecord
100
AcDbTextStyleTableRecord
  2
STANDARD
 70
     0
 40
0.0
 41
1.0
 50
0.0
 71
     0
 42
0.25
  3
ROMANS.SHX
  4

  0
ENDTAB
  0
TABLE
  2
VIEW
  5
6
330
0
100
AcDbSymbolTable
 70
     1
  0
VIEW
  5
20
330
6
100
AcDbSymbolTableRecord
100
AcDbViewTableRecord
  2
1
 70
     0
 40
11.0
 10
7.225941000000001
 20
5.5
 41
14.451883
 11
0.0
 21
0.0
 31
1.0
 12
0.0
 22
0.0
 32
0.0
 42
50.0
 43
0.0
 44
0.0
 50
0.0
 71
     0
281
     0
 72
     0
  0
ENDTAB
  0
TABLE
  2
UCS
  5
7
330
0
100
AcDbSymbolTable
 70
     0
  0
ENDTAB
  0
TABLE
  2
APPID
  5
9
330
0
100
AcDbSymbolTable
 70
     1
  0
APPID
  5
1F
330
9
100
AcDbSymbolTableRecord
100
AcDbRegAppTableRecord
  2
ACAD
 70
     0
  0
ENDTAB
  0
TABLE
  2
DIMSTYLE
  5
A
330
0
100
AcDbSymbolTable
 70
     1
100
AcDbDimStyleTable
  0
DIMSTYLE
105
22
330
A
100
AcDbSymbolTableRecord
100
AcDbDimStyleTableRecord
  2
Standard
 70
     0
  3

  4

340
21
  0
ENDTAB
  0
TABLE
  2
BLOCK_RECORD
  5
1
330
0
100
AcDbSymbolTable
 70
     0
  0
BLOCK_RECORD
  5
18
330
1
100
AcDbSymbolTableRecord
100
AcDbBlockTableRecord
  2
*Model_Space
340
19
  0
BLOCK_RECORD
  5
16
330
1
100
AcDbSymbolTableRecord
100
AcDbBlockTableRecord
  2
*Paper_Space
340
17
  0
ENDTAB
  0
ENDSEC
  0
SECTION
  2
BLOCKS
  0
BLOCK
  5
1B1
330
18
100
AcDbEntity
  8
0
100
AcDbBlockBegin
  2
*Model_Space
 70
     0
 10
0.0
 20
0.0
 30
0.0
  3
*Model_Space
  1

  4

  0
ENDBLK
  5
1B2
330
18
100
AcDbEntity
  8
0
100
AcDbBlockEnd
  0
BLOCK
  5
1AF
330
16
100
AcDbEntity
 67
     1
  8
0
100
AcDbBlockBegin
  2
*Paper_Space
 70
     0
 10
0.0
 20
0.0
 30
0.0
  3
*Paper_Space
  1

  4

  0
ENDBLK
  5
1B0
330
16
100
AcDbEntity
 67
     1
  8
0
100
AcDbBlockEnd
  0
ENDSEC
  0
SECTION
  2
ENTITIES
  0
LINE
  5
23
330
18
100
AcDbEntity
  8
0
100
AcDbLine
 10
0.9660200000000001
 20
3.612483
 30
0.0
 11
0.9660200000000001
 21
8.296073
 31
0.0
  0
LINE
  5
24
330
18
100
AcDbEntity
  8
0
100
AcDbLine
 10
0.9660200000000001
 20
8.296073
 30
0.0
 11
6.179876999999999
 21
9.428453999999999
 31
0.0
  0
LINE
  5
25
330
18
100
AcDbEntity
  8
0
100
AcDbLine
 10
7.036661000000001
 20
9.127508000000001
 30
0.0
 11
7.036661000000001
 21
7.802782000000001
 31
0.0
  0
LINE
  5
26
330
18
100
AcDbEntity
  8
0
100
AcDbLine
 10
7.036661000000001
 20
4.843234
 30
0.0
 11
6.825166
 21
4.777183999999999
 31
0.0
  0
LINE
  5
27
330
18
100
AcDbEntity
  8
0
100
AcDbLine
 10
7.15337
 20
3.570923000000001
 30
0.0
 11
6.216115
 21
3.248328
 31
0.0
  0
LINE
  5
28
330
18
100
AcDbEntity
  8
0
100
AcDbLine
 10
6.216115
 20
3.248328
 30
0.0
 11
4.615302
 21
4.076769000000001
 31
0.0
  0
LINE
  5
29
330
18
100
AcDbEntity
  8
0
100
AcDbLine
 10
3.8751
 20
4.459833000000001
 30
0.0
 11
3.8751
 21
4.542955999999999
 31
0.0
  0
LINE
  5
2A
330
18
100
AcDbEntity
  8
0
100
AcDbLine
 10
7.15337
 20
7.760211
 30
0.0
 11
6.241251
 21
7.501005999999999
 31
0.0
  0
LINE
  5
2B
330
18
100
AcDbEntity
  8
0
100
AcDbLine
 10
6.241251
 20
6.951728999999999
 30
0.0
 11
6.241251
 21
7.501005999999999
 31
0.0
  0
LINE
  5
2C
330
18
100
AcDbEntity
  8
0
100
AcDbLine
 10
6.241251
 20
6.951728999999999
 30
0.0
 11
6.569456
 21
7.044998
 31
0.0
  0
LINE
  5
2D
330
18
100
AcDbEntity
  8
0
100
AcDbLine
 10
7.15337
 20
4.141035
 30
0.0
 11
6.825166
 21
4.028069
 31
0.0
  0
LINE
  5
2E
330
18
100
AcDbEntity
  8
0
100
AcDbLine
 10
6.216115
 20
3.818439
 30
0.0
 11
6.216115
 21
3.248328
 31
0.0
  0
LINE
  5
2F
330
18
100
AcDbEntity
  8
0
100
AcDbLine
 10
6.825166
 20
3.788884
 30
0.0
 11
6.825166
 21
7.342950999999999
 31
0.0
  0
LINE
  5
30
330
18
100
AcDbEntity
  8
0
100
AcDbLine
 10
6.569456
 20
3.700871
 30
0.0
 11
6.569456
 21
7.270283
 31
0.0
  0
LINE
  5
31
330
18
100
AcDbEntity
  8
0
100
AcDbLine
 10
6.825166
 20
7.117665
 30
0.0
 11
7.15337
 21
7.210934
 31
0.0
  0
LINE
  5
32
330
18
100
AcDbEntity
  8
0
100
AcDbLine
 10
6.569456
 20
7.270283
 30
0.0
 11
6.825166
 21
7.342950999999999
 31
0.0
  0
LINE
  5
33
330
18
100
AcDbEntity
  8
0
100
AcDbLine
 10
6.825166
 20
3.788884
 30
0.0
 11
6.569456
 21
3.700871
 31
0.0
  0
LINE
  5
34
330
18
100
AcDbEntity
  8
0
100
AcDbLine
 10
6.216115
 20
3.818439
 30
0.0
 11
4.371685
 21
4.745666
 31
0.0
  0
LINE
  5
35
330
18
100
AcDbEntity
  8
0
100
AcDbLine
 10
6.569456
 20
3.940056
 30
0.0
 11
4.232979
 21
5.114644
 31
0.0
  0
LINE
  5
36
330
18
100
AcDbEntity
  8
0
100
AcDbLine
 10
6.569456
 20
3.940056
 30
0.0
 11
6.216115
 21
3.818439
 31
0.0
  0
LINE
  5
37
330
18
100
AcDbEntity
  8
0
100
AcDbLine
 10
7.036661000000001
 20
7.177768
 30
0.0
 11
7.036661000000001
 21
4.843234
 31
0.0
  0
LINE
  5
38
330
18
100
AcDbEntity
  8
0
100
AcDbLine
 10
7.036661000000001
 20
9.127508000000001
 30
0.0
 11
1.807419
 21
7.947193
 31
0.0
  0
LINE
  5
39
330
18
100
AcDbEntity
  8
0
100
AcDbLine
 10
1.807419
 20
7.947193
 30
0.0
 11
1.807419
 21
4.876336
 31
0.0
  0
CIRCLE
  5
3A
330
18
100
AcDbEntity
  8
0
100
AcDbCircle
 10
2.283762
 20
3.779978
 30
0.0
 40
1.195367
  0
LINE
  5
3B
330
18
100
AcDbEntity
  8
0
100
AcDbLine
 10
6.250437000000001
 20
9.403722999999999
 30
0.0
 11
1.035298
 21
8.267347000000001
 31
0.0
  0
LINE
  5
3C
330
18
100
AcDbEntity
  8
0
100
AcDbLine
 10
6.320997
 20
9.378992
 30
0.0
 11
1.104576
 21
8.238621999999999
 31
0.0
  0
LINE
  5
3D
330
18
100
AcDbEntity
  8
0
100
AcDbLine
 10
1.173854
 20
8.209896000000001
 30
0.0
 11
6.391557
 21
9.35426
 31
0.0
  0
LINE
  5
3E
330
18
100
AcDbEntity
  8
0
100
AcDbLine
 10
6.462117
 20
9.329528999999999
 30
0.0
 11
1.243132
 21
8.181171000000001
 31
0.0
  0
LINE
  5
3F
330
18
100
AcDbEntity
  8
0
100
AcDbLine
 10
1.31241
 20
8.152445
 30
0.0
 11
6.532677
 21
9.304798
 31
0.0
  0
LINE
  5
40
330
18
100
AcDbEntity
  8
0
100
AcDbLine
 10
6.603236999999999
 20
9.280066999999999
 30
0.0
 11
1.381688
 21
8.123720000000001
 31
0.0
  0
LINE
  5
41
330
18
100
AcDbEntity
  8
0
100
AcDbLine
 10
1.46103
 20
8.090821
 30
0.0
 11
6.690230000000001
 21
9.252578
 31
0.0
  0
LINE
  5
42
330
18
100
AcDbEntity
  8
0
100
AcDbLine
 10
6.759510000000001
 20
9.227567000000001
 30
0.0
 11
1.530308
 21
8.062096
 31
0.0
  0
LINE
  5
43
330
18
100
AcDbEntity
  8
0
100
AcDbLine
 10
1.599586
 20
8.03337
 30
0.0
 11
6.828792999999999
 21
9.202553999999999
 31
0.0
  0
LINE
  5
44
330
18
100
AcDbEntity
  8
0
100
AcDbLine
 10
6.89808
 20
9.177539999999999
 30
0.0
 11
1.668864
 21
8.004645
 31
0.0
  0
LINE
  5
45
330
18
100
AcDbEntity
  8
0
100
AcDbLine
 10
1.738141
 20
7.975919
 30
0.0
 11
6.967369000000001
 21
9.152524
 31
0.0
  0
LINE
  5
46
330
18
100
AcDbEntity
  8
0
100
AcDbLine
 10
0.9660200000000001
 20
8.296073
 30
0.0
 11
1.381688
 21
8.123720000000001
 31
0.0
  0
LINE
  5
47
330
18
100
AcDbEntity
  8
0
100
AcDbLine
 10
1.738141
 20
7.975919
 30
0.0
 11
1.738141
 21
4.843557
 31
0.0
  0
LINE
  5
48
330
18
100
AcDbEntity
  8
0
100
AcDbLine
 10
1.668864
 20
8.004645
 30
0.0
 11
1.668864
 21
4.805064
 31
0.0
  0
LINE
  5
49
330
18
100
AcDbEntity
  8
0
100
AcDbLine
 10
1.599586
 20
8.03337
 30
0.0
 11
1.599586
 21
4.760184
 31
0.0
  0
LINE
  5
4A
330
18
100
AcDbEntity
  8
0
100
AcDbLine
 10
1.530308
 20
8.062096
 30
0.0
 11
1.530308
 21
4.707991000000001
 31
0.0
  0
LINE
  5
4B
330
18
100
AcDbEntity
  8
0
100
AcDbLine
 10
1.46103
 20
8.090821
 30
0.0
 11
1.46103
 21
4.647165
 31
0.0
  0
LINE
  5
4C
330
18
100
AcDbEntity
  8
0
100
AcDbLine
 10
1.381688
 20
8.123720000000001
 30
0.0
 11
1.381688
 21
4.564302
 31
0.0
  0
LINE
  5
4D
330
18
100
AcDbEntity
  8
0
100
AcDbLine
 10
1.31241
 20
8.152445
 30
0.0
 11
1.31241
 21
4.476668
 31
0.0
  0
LINE
  5
4E
330
18
100
AcDbEntity
  8
0
100
AcDbLine
 10
1.243132
 20
8.181171000000001
 30
0.0
 11
1.243132
 21
4.368187
 31
0.0
  0
LINE
  5
4F
330
18
100
AcDbEntity
  8
0
100
AcDbLine
 10
1.173854
 20
8.209896000000001
 30
0.0
 11
1.173854
 21
4.223831
 31
0.0
  0
LINE
  5
50
330
18
100
AcDbEntity
  8
0
100
AcDbLine
 10
1.104576
 20
8.238621999999999
 30
0.0
 11
1.104576
 21
3.975992
 31
0.0
  0
LINE
  5
51
330
18
100
AcDbEntity
  8
0
100
AcDbLine
 10
1.035298
 20
8.267347000000001
 30
0.0
 11
1.035298
 21
3.592773
 31
0.0
  0
LINE
  5
52
330
18
100
AcDbEntity
  8
0
100
AcDbLine
 10
1.391752
 20
8.119547000000001
 30
0.0
 11
6.614583000000001
 21
9.279889000000001
 31
0.0
  0
LINE
  5
53
330
18
100
AcDbEntity
  8
0
100
AcDbLine
 10
1.391752
 20
8.119547000000001
 30
0.0
 11
1.391752
 21
4.575729
 31
0.0
  0
LINE
  5
54
330
18
100
AcDbEntity
  8
0
100
AcDbLine
 10
1.391752
 20
8.119547000000001
 30
0.0
 11
1.807419
 21
7.947193
 31
0.0
  0
LINE
  5
55
330
18
100
AcDbEntity
  8
0
100
AcDbLine
 10
7.036661000000001
 20
9.127508000000001
 30
0.0
 11
6.614583000000001
 21
9.279889000000001
 31
0.0
  0
LINE
  5
56
330
18
100
AcDbEntity
  8
0
100
AcDbLine
 10
6.603236999999999
 20
9.280066999999999
 30
0.0
 11
6.179876999999999
 21
9.428453999999999
 31
0.0
  0
LINE
  5
57
330
18
100
AcDbEntity
  8
0
100
AcDbLine
 10
6.603236999999999
 20
9.280066999999999
 30
0.0
 11
6.603236999999999
 21
9.277367999999999
 31
0.0
  0
LINE
  5
58
330
18
100
AcDbEntity
  8
0
100
AcDbLine
 10
0.9660200000000001
 20
3.612483
 30
0.0
 11
1.072693
 21
3.582134
 31
0.0
  0
LINE
  5
59
330
18
100
AcDbEntity
  8
0
100
AcDbLine
 10
2.893178
 20
3.682318
 30
0.0
 11
2.994976
 21
3.775726
 31
0.0
  0
LINE
  5
5A
330
18
100
AcDbEntity
  8
0
100
AcDbLine
 10
2.955222
 20
3.819052
 30
0.0
 11
2.994976
 21
3.775726
 31
0.0
  0
LINE
  5
5B
330
18
100
AcDbEntity
  8
0
100
AcDbLine
 10
3.016672
 20
3.814235
 30
0.0
 11
3.049421
 21
3.843759
 31
0.0
  0
LINE
  5
5C
330
18
100
AcDbEntity
  8
0
100
AcDbLine
 10
3.049421
 20
3.843759
 30
0.0
 11
2.926445
 21
3.97472
 31
0.0
  0
LINE
  5
5D
330
18
100
AcDbEntity
  8
0
100
AcDbLine
 10
2.893697
 20
3.945197
 30
0.0
 11
2.926445
 21
3.97472
 31
0.0
  0
LINE
  5
5E
330
18
100
AcDbEntity
  8
0
100
AcDbLine
 10
2.893697
 20
3.945197
 30
0.0
 11
3.016672
 21
3.814235
 31
0.0
  0
LINE
  5
5F
330
18
100
AcDbEntity
  8
0
100
AcDbLine
 10
2.315926
 20
3.279439
 30
0.0
 11
2.385163
 21
3.405153
 31
0.0
  0
LINE
  5
60
330
18
100
AcDbEntity
  8
0
100
AcDbLine
 10
2.385163
 20
3.405153
 30
0.0
 11
2.924895
 21
3.911973
 31
0.0
  0
LINE
  5
61
330
18
100
AcDbEntity
  8
0
100
AcDbLine
 10
2.445743
 20
3.34064
 30
0.0
 11
2.985474
 21
3.847459
 31
0.0
  0
LINE
  5
62
330
18
100
AcDbEntity
  8
0
100
AcDbLine
 10
2.315926
 20
3.279439
 30
0.0
 11
2.445743
 21
3.34064
 31
0.0
  0
ARC
  5
63
330
18
100
AcDbEntity
  8
0
100
AcDbCircle
 10
2.782846
 20
2.982205
 30
0.0
 40
0.024394
100
AcDbArc
 50
270.0
 51
0.0
  0
LINE
  5
64
330
18
100
AcDbEntity
  8
0
100
AcDbLine
 10
2.782846
 20
2.957811
 30
0.0
 11
1.784679
 21
2.957811
 31
0.0
  0
ARC
  5
65
330
18
100
AcDbEntity
  8
0
100
AcDbCircle
 10
1.784679
 20
2.982205
 30
0.0
 40
0.024394
100
AcDbArc
 50
180.0
 51
270.0
  0
LINE
  5
66
330
18
100
AcDbEntity
  8
0
100
AcDbLine
 10
2.885276
 20
3.664344
 30
0.0
 11
2.885276
 21
2.982205
 31
0.0
  0
ARC
  5
67
330
18
100
AcDbEntity
  8
0
100
AcDbCircle
 10
2.782846
 20
2.982205
 30
0.0
 40
0.102431
100
AcDbArc
 50
270.0
 51
0.0
  0
LINE
  5
68
330
18
100
AcDbEntity
  8
0
100
AcDbLine
 10
2.782846
 20
2.879774
 30
0.0
 11
1.784679
 21
2.879774
 31
0.0
  0
ARC
  5
69
330
18
100
AcDbEntity
  8
0
100
AcDbCircle
 10
1.784679
 20
2.982205
 30
0.0
 40
0.102431
100
AcDbArc
 50
180.0
 51
270.0
  0
ARC
  5
6A
330
18
100
AcDbEntity
  8
0
100
AcDbCircle
 10
2.909671
 20
3.664344
 30
0.0
 40
0.024394
100
AcDbArc
 50
132.538945
 51
180.0
  0
LINE
  5
6B
330
18
100
AcDbEntity
  8
0
100
AcDbLine
 10
2.885276
 20
3.87477
 30
0.0
 11
2.80724
 21
3.87477
 31
0.0
  0
LINE
  5
6C
330
18
100
AcDbEntity
  8
0
100
AcDbLine
 10
2.905486
 20
3.863398
 30
0.0
 11
2.935775
 21
3.831141
 31
0.0
  0
LINE
  5
6D
330
18
100
AcDbEntity
  8
0
100
AcDbLine
 10
2.890892
 20
3.849694
 30
0.0
 11
2.921182
 21
3.817438
 31
0.0
  0
LINE
  5
6E
330
18
100
AcDbEntity
  8
0
100
AcDbLine
 10
2.876299
 20
3.835991
 30
0.0
 11
2.906589
 21
3.803734
 31
0.0
  0
LINE
  5
6F
330
18
100
AcDbEntity
  8
0
100
AcDbLine
 10
2.383882
 20
3.541275
 30
0.0
 11
2.383882
 21
4.971145
 31
0.0
  0
LINE
  5
70
330
18
100
AcDbEntity
  8
0
100
AcDbLine
 10
2.183642
 20
3.541275
 30
0.0
 11
2.183642
 21
4.971145
 31
0.0
  0
LINE
  5
71
330
18
100
AcDbEntity
  8
0
100
AcDbLine
 10
2.183642
 20
3.541275
 30
0.0
 11
2.383882
 21
3.541275
 31
0.0
  0
LINE
  5
72
330
18
100
AcDbEntity
  8
0
100
AcDbLine
 10
2.763673
 20
3.969639
 30
0.0
 11
2.383882
 21
3.969639
 31
0.0
  0
LINE
  5
73
330
18
100
AcDbEntity
  8
0
100
AcDbLine
 10
2.763673
 20
2.997934
 30
0.0
 11
1.803852
 21
2.997934
 31
0.0
  0
POINT
  5
74
330
18
100
AcDbEntity
  8
0
100
AcDbPoint
 10
2.788067
 20
3.861672
 30
0.0
  0
LINE
  5
75
330
18
100
AcDbEntity
  8
0
100
AcDbLine
 10
2.788067
 20
3.861672
 30
0.0
 11
2.383882
 21
3.861672
 31
0.0
  0
LINE
  5
76
330
18
100
AcDbEntity
  8
0
100
AcDbLine
 10
2.756349
 20
3.753705
 30
0.0
 11
2.383882
 21
3.753705
 31
0.0
  0
LINE
  5
77
330
18
100
AcDbEntity
  8
0
100
AcDbLine
 10
2.788067
 20
3.645737
 30
0.0
 11
2.770653
 21
3.645737
 31
0.0
  0
LINE
  5
78
330
18
100
AcDbEntity
  8
0
100
AcDbLine
 10
2.788067
 20
3.53777
 30
0.0
 11
2.655674
 21
3.53777
 31
0.0
  0
LINE
  5
79
330
18
100
AcDbEntity
  8
0
100
AcDbLine
 10
2.788067
 20
3.429803
 30
0.0
 11
2.540696
 21
3.429803
 31
0.0
  0
LINE
  5
7A
330
18
100
AcDbEntity
  8
0
100
AcDbLine
 10
2.788067
 20
3.321836
 30
0.0
 11
2.405856
 21
3.321836
 31
0.0
  0
LINE
  5
7B
330
18
100
AcDbEntity
  8
0
100
AcDbLine
 10
2.788067
 20
3.213868
 30
0.0
 11
1.779458
 21
3.213868
 31
0.0
  0
LINE
  5
7C
330
18
100
AcDbEntity
  8
0
100
AcDbLine
 10
2.788067
 20
3.105901
 30
0.0
 11
1.779458
 21
3.105901
 31
0.0
  0
LINE
  5
7D
330
18
100
AcDbEntity
  8
0
100
AcDbLine
 10
2.788067
 20
3.022328
 30
0.0
 11
2.788067
 21
3.66209
 31
0.0
  0
LINE
  5
7E
330
18
100
AcDbEntity
  8
0
100
AcDbLine
 10
2.80724
 20
3.680094
 30
0.0
 11
2.80724
 21
2.982205
 31
0.0
  0
LINE
  5
7F
330
18
100
AcDbEntity
  8
0
100
AcDbLine
 10
2.64137
 20
3.645737
 30
0.0
 11
2.383882
 21
3.645737
 31
0.0
  0
LINE
  5
80
330
18
100
AcDbEntity
  8
0
100
AcDbLine
 10
2.788067
 20
3.783489
 30
0.0
 11
2.788067
 21
3.945245
 31
0.0
  0
LINE
  5
81
330
18
100
AcDbEntity
  8
0
100
AcDbLine
 10
2.526392
 20
3.53777
 30
0.0
 11
2.041133
 21
3.53777
 31
0.0
  0
LINE
  5
82
330
18
100
AcDbEntity
  8
0
100
AcDbLine
 10
2.411413
 20
3.429803
 30
0.0
 11
2.156111
 21
3.429803
 31
0.0
  0
LINE
  5
83
330
18
100
AcDbEntity
  8
0
100
AcDbLine
 10
2.339276
 20
3.321836
 30
0.0
 11
2.228249
 21
3.321836
 31
0.0
  0
ARC
  5
84
330
18
100
AcDbEntity
  8
0
100
AcDbCircle
 10
2.763673
 20
3.945245
 30
0.0
 40
0.024394
100
AcDbArc
 50
0.0
 51
90.0
  0
ARC
  5
85
330
18
100
AcDbEntity
  8
0
100
AcDbCircle
 10
2.763673
 20
3.022328
 30
0.0
 40
0.024394
100
AcDbArc
 50
270.0
 51
0.0
  0
LINE
  5
86
330
18
100
AcDbEntity
  8
0
100
AcDbLine
 10
1.779458
 20
3.022328
 30
0.0
 11
1.779458
 21
3.66209
 31
0.0
  0
ARC
  5
87
330
18
100
AcDbEntity
  8
0
100
AcDbCircle
 10
1.803852
 20
3.022328
 30
0.0
 40
0.024394
100
AcDbArc
 50
180.0
 51
270.0
  0
ARC
  5
88
330
18
100
AcDbEntity
  8
0
100
AcDbCircle
 10
1.803852
 20
3.945245
 30
0.0
 40
0.024394
100
AcDbArc
 50
90.0
 51
180.0
  0
LINE
  5
89
330
18
100
AcDbEntity
  8
0
100
AcDbLine
 10
2.183642
 20
3.861672
 30
0.0
 11
1.779458
 21
3.861672
 31
0.0
  0
LINE
  5
8A
330
18
100
AcDbEntity
  8
0
100
AcDbLine
 10
2.183642
 20
3.645737
 30
0.0
 11
1.926154
 21
3.645737
 31
0.0
  0
LINE
  5
8B
330
18
100
AcDbEntity
  8
0
100
AcDbLine
 10
2.183642
 20
3.753705
 30
0.0
 11
1.779458
 21
3.753705
 31
0.0
  0
LINE
  5
8C
330
18
100
AcDbEntity
  8
0
100
AcDbLine
 10
2.183642
 20
3.969639
 30
0.0
 11
1.803852
 21
3.969639
 31
0.0
  0
LINE
  5
8D
330
18
100
AcDbEntity
  8
0
100
AcDbLine
 10
2.251598
 20
3.279439
 30
0.0
 11
2.121782
 21
3.34064
 31
0.0
  0
LINE
  5
8E
330
18
100
AcDbEntity
  8
0
100
AcDbLine
 10
2.251598
 20
3.279439
 30
0.0
 11
2.182362
 21
3.405153
 31
0.0
  0
LINE
  5
8F
330
18
100
AcDbEntity
  8
0
100
AcDbLine
 10
2.182362
 20
3.405153
 30
0.0
 11
1.64263
 21
3.911973
 31
0.0
  0
LINE
  5
90
330
18
100
AcDbEntity
  8
0
100
AcDbLine
 10
2.121782
 20
3.34064
 30
0.0
 11
1.582051
 21
3.847459
 31
0.0
  0
ARC
  5
91
330
18
100
AcDbEntity
  8
0
100
AcDbCircle
 10
1.803852
 20
3.945245
 30
0.0
 40
0.024394
100
AcDbArc
 50
90.0
 51
180.0
  0
LINE
  5
92
330
18
100
AcDbEntity
  8
0
100
AcDbLine
 10
1.779458
 20
3.783489
 30
0.0
 11
1.779458
 21
3.945245
 31
0.0
  0
LINE
  5
93
330
18
100
AcDbEntity
  8
0
100
AcDbLine
 10
1.779458
 20
3.645737
 30
0.0
 11
1.796872
 21
3.645737
 31
0.0
  0
POINT
  5
94
330
18
100
AcDbEntity
  8
0
100
AcDbPoint
 10
1.779458
 20
3.861672
 30
0.0
  0
LINE
  5
95
330
18
100
AcDbEntity
  8
0
100
AcDbLine
 10
1.691225
 20
3.835991
 30
0.0
 11
1.660936
 21
3.803734
 31
0.0
  0
LINE
  5
96
330
18
100
AcDbEntity
  8
0
100
AcDbLine
 10
1.676632
 20
3.849694
 30
0.0
 11
1.646342
 21
3.817438
 31
0.0
  0
LINE
  5
97
330
18
100
AcDbEntity
  8
0
100
AcDbLine
 10
1.662039
 20
3.863398
 30
0.0
 11
1.631749
 21
3.831141
 31
0.0
  0
LINE
  5
98
330
18
100
AcDbEntity
  8
0
100
AcDbLine
 10
1.682248
 20
3.87477
 30
0.0
 11
1.760285
 21
3.87477
 31
0.0
  0
ARC
  5
99
330
18
100
AcDbEntity
  8
0
100
AcDbCircle
 10
1.657854
 20
3.664344
 30
0.0
 40
0.024394
100
AcDbArc
 50
0.0
 51
47.461055
  0
LINE
  5
9A
330
18
100
AcDbEntity
  8
0
100
AcDbLine
 10
1.674347
 20
3.682318
 30
0.0
 11
1.572549
 21
3.775726
 31
0.0
  0
LINE
  5
9B
330
18
100
AcDbEntity
  8
0
100
AcDbLine
 10
1.612303
 20
3.819052
 30
0.0
 11
1.572549
 21
3.775726
 31
0.0
  0
LINE
  5
9C
330
18
100
AcDbEntity
  8
0
100
AcDbLine
 10
1.673828
 20
3.945197
 30
0.0
 11
1.550853
 21
3.814235
 31
0.0
  0
LINE
  5
9D
330
18
100
AcDbEntity
  8
0
100
AcDbLine
 10
1.673828
 20
3.945197
 30
0.0
 11
1.641079
 21
3.97472
 31
0.0
  0
LINE
  5
9E
330
18
100
AcDbEntity
  8
0
100
AcDbLine
 10
1.518104
 20
3.843759
 30
0.0
 11
1.641079
 21
3.97472
 31
0.0
  0
LINE
  5
9F
330
18
100
AcDbEntity
  8
0
100
AcDbLine
 10
1.550853
 20
3.814235
 30
0.0
 11
1.518104
 21
3.843759
 31
0.0
  0
LINE
  5
A0
330
18
100
AcDbEntity
  8
0
100
AcDbLine
 10
1.682248
 20
3.664344
 30
0.0
 11
1.682248
 21
2.982205
 31
0.0
  0
LINE
  5
A1
330
18
100
AcDbEntity
  8
0
100
AcDbLine
 10
1.760285
 20
3.680094
 30
0.0
 11
1.760285
 21
2.982205
 31
0.0
  0
LINE
  5
A2
330
18
100
AcDbEntity
  8
0
100
AcDbLine
 10
1.796872
 20
3.645737
 30
0.0
 11
1.779458
 21
3.645737
 31
0.0
  0
LINE
  5
A3
330
18
100
AcDbEntity
  8
0
100
AcDbLine
 10
1.91185
 20
3.53777
 30
0.0
 11
1.779458
 21
3.53777
 31
0.0
  0
LINE
  5
A4
330
18
100
AcDbEntity
  8
0
100
AcDbLine
 10
2.026829
 20
3.429803
 30
0.0
 11
1.779458
 21
3.429803
 31
0.0
  0
LINE
  5
A5
330
18
100
AcDbEntity
  8
0
100
AcDbLine
 10
1.779458
 20
3.783489
 30
0.0
 11
1.779458
 21
3.945245
 31
0.0
  0
LINE
  5
A6
330
18
100
AcDbEntity
  8
0
100
AcDbLine
 10
2.161669
 20
3.321836
 30
0.0
 11
1.779458
 21
3.321836
 31
0.0
  0
LINE
  5
A7
330
18
100
AcDbEntity
  8
0
100
AcDbLine
 10
6.241251
 20
7.501005999999999
 30
0.0
 11
3.901135
 21
8.419775
 31
0.0
  0
LINE
  5
A8
330
18
100
AcDbEntity
  8
0
100
AcDbLine
 10
7.15337
 20
7.760211
 30
0.0
 11
4.793163
 21
8.621117999999999
 31
0.0
  0
LINE
  5
A9
330
18
100
AcDbEntity
  8
0
100
AcDbLine
 10
7.15337
 20
7.681742999999999
 30
0.0
 11
6.241251
 21
7.422536999999999
 31
0.0
  0
LINE
  5
AA
330
18
100
AcDbEntity
  8
0
100
AcDbLine
 10
7.15337
 20
7.603275
 30
0.0
 11
6.241251
 21
7.344069
 31
0.0
  0
LINE
  5
AB
330
18
100
AcDbEntity
  8
0
100
AcDbLine
 10
7.15337
 20
7.524807000000001
 30
0.0
 11
6.241251
 21
7.265600999999999
 31
0.0
  0
LINE
  5
AC
330
18
100
AcDbEntity
  8
0
100
AcDbLine
 10
7.15337
 20
7.446338000000001
 30
0.0
 11
6.241251
 21
7.187133
 31
0.0
  0
LINE
  5
AD
330
18
100
AcDbEntity
  8
0
100
AcDbLine
 10
7.15337
 20
7.36787
 30
0.0
 11
6.825166
 21
7.274601
 31
0.0
  0
LINE
  5
AE
330
18
100
AcDbEntity
  8
0
100
AcDbLine
 10
7.15337
 20
7.289402000000001
 30
0.0
 11
6.825166
 21
7.196133000000001
 31
0.0
  0
LINE
  5
AF
330
18
100
AcDbEntity
  8
0
100
AcDbLine
 10
7.15337
 20
7.210934
 30
0.0
 11
7.15337
 21
7.760211
 31
0.0
  0
LINE
  5
B0
330
18
100
AcDbEntity
  8
0
100
AcDbLine
 10
6.569456
 20
7.123466000000001
 30
0.0
 11
6.241251
 21
7.030197
 31
0.0
  0
LINE
  5
B1
330
18
100
AcDbEntity
  8
0
100
AcDbLine
 10
6.569456
 20
7.201934
 30
0.0
 11
6.241251
 21
7.108664999999999
 31
0.0
  0
LINE
  5
B2
330
18
100
AcDbEntity
  8
0
100
AcDbLine
 10
6.241251
 20
6.951728999999999
 30
0.0
 11
4.232979
 21
7.74021
 31
0.0
  0
LINE
  5
B3
330
18
100
AcDbEntity
  8
0
100
AcDbLine
 10
7.15337
 20
3.652368
 30
0.0
 11
6.216115
 21
3.329772
 31
0.0
  0
LINE
  5
B4
330
18
100
AcDbEntity
  8
0
100
AcDbLine
 10
7.15337
 20
3.733812
 30
0.0
 11
6.216115
 21
3.411217
 31
0.0
  0
LINE
  5
B5
330
18
100
AcDbEntity
  8
0
100
AcDbLine
 10
7.15337
 20
3.815257
 30
0.0
 11
6.216115
 21
3.492661
 31
0.0
  0
LINE
  5
B6
330
18
100
AcDbEntity
  8
0
100
AcDbLine
 10
7.15337
 20
3.896701
 30
0.0
 11
6.216115
 21
3.574106
 31
0.0
  0
LINE
  5
B7
330
18
100
AcDbEntity
  8
0
100
AcDbLine
 10
7.15337
 20
3.978146
 30
0.0
 11
6.825166
 21
3.865180000000001
 31
0.0
  0
LINE
  5
B8
330
18
100
AcDbEntity
  8
0
100
AcDbLine
 10
7.15337
 20
4.05959
 30
0.0
 11
6.825166
 21
3.946625
 31
0.0
  0
LINE
  5
B9
330
18
100
AcDbEntity
  8
0
100
AcDbLine
 10
7.15337
 20
4.141035
 30
0.0
 11
7.15337
 21
3.570923000000001
 31
0.0
  0
LINE
  5
BA
330
18
100
AcDbEntity
  8
0
100
AcDbLine
 10
6.569456
 20
3.858612
 30
0.0
 11
6.216115
 21
3.736995
 31
0.0
  0
LINE
  5
BB
330
18
100
AcDbEntity
  8
0
100
AcDbLine
 10
6.569456
 20
3.777167
 30
0.0
 11
6.216115
 21
3.65555
 31
0.0
  0
LINE
  5
BC
330
18
100
AcDbEntity
  8
0
100
AcDbLine
 10
3.610654
 20
8.233235000000001
 30
0.0
 11
3.610654
 21
5.077826
 31
0.0
  0
LINE
  5
BD
330
18
100
AcDbEntity
  8
0
100
AcDbLine
 10
3.591141
 20
5.07346
 30
0.0
 11
3.864853
 21
4.789519
 31
0.0
  0
LINE
  5
BE
330
18
100
AcDbEntity
  8
0
100
AcDbLine
 10
3.974447
 20
4.565499
 30
0.0
 11
3.974447
 21
4.332259
 31
0.0
  0
LINE
  5
BF
330
18
100
AcDbEntity
  8
0
100
AcDbLine
 10
4.565869
 20
4.158012
 30
0.0
 11
4.565869
 21
4.255156
 31
0.0
  0
ARC
  5
C0
330
18
100
AcDbEntity
  8
0
100
AcDbCircle
 10
4.437799
 20
4.255156
 30
0.0
 40
0.128069
100
AcDbArc
 50
0.0
 51
22.672548
  0
LINE
  5
C1
330
18
100
AcDbEntity
  8
0
100
AcDbLine
 10
4.555972
 20
4.304522
 30
0.0
 11
4.23722
 21
5.067548
 31
0.0
  0
ARC
  5
C2
330
18
100
AcDbEntity
  8
0
100
AcDbCircle
 10
4.287866
 20
5.088705
 30
0.0
 40
0.054887
100
AcDbArc
 50
180.0
 51
202.672548
  0
LINE
  5
C3
330
18
100
AcDbEntity
  8
0
100
AcDbLine
 10
4.232979
 20
5.088705
 30
0.0
 11
4.232979
 21
8.190342999999999
 31
0.0
  0
LINE
  5
C4
330
18
100
AcDbEntity
  8
0
100
AcDbLine
 10
4.529277
 20
4.159726
 30
0.0
 11
4.529277
 21
4.255156
 31
0.0
  0
ARC
  5
C5
330
18
100
AcDbEntity
  8
0
100
AcDbCircle
 10
4.437799
 20
4.255156
 30
0.0
 40
0.091478
100
AcDbArc
 50
0.0
 51
22.672548
  0
LINE
  5
C6
330
18
100
AcDbEntity
  8
0
100
AcDbLine
 10
4.522208
 20
4.290417
 30
0.0
 11
4.203457
 21
5.053444
 31
0.0
  0
ARC
  5
C7
330
18
100
AcDbEntity
  8
0
100
AcDbCircle
 10
4.287866
 20
5.088705
 30
0.0
 40
0.091478
100
AcDbArc
 50
180.0
 51
202.672548
  0
LINE
  5
C8
330
18
100
AcDbEntity
  8
0
100
AcDbLine
 10
4.196388
 20
5.088705
 30
0.0
 11
4.196388
 21
8.176467000000001
 31
0.0
  0
ARC
  5
C9
330
18
100
AcDbEntity
  8
0
100
AcDbCircle
 10
4.657347
 20
4.158012
 30
0.0
 40
0.091478
100
AcDbArc
 50
180.0
 51
242.637867
  0
ARC
  5
CA
330
18
100
AcDbEntity
  8
0
100
AcDbCircle
 10
4.620755
 20
4.159726
 30
0.0
 40
0.091478
100
AcDbArc
 50
180.0
 51
276.251147
  0
LINE
  5
CB
330
18
100
AcDbEntity
  8
0
100
AcDbLine
 10
4.582272
 20
4.076736
 30
0.0
 11
3.522472
 21
3.745764
 31
0.0
  0
LINE
  5
CC
330
18
100
AcDbEntity
  8
0
100
AcDbLine
 10
3.610654
 20
8.233235000000001
 30
0.0
 11
3.960477
 21
8.329459
 31
0.0
  0
LINE
  5
CD
330
18
100
AcDbEntity
  8
0
100
AcDbLine
 10
3.970501
 20
8.327831
 30
0.0
 11
4.196388
 21
8.176467000000001
 31
0.0
  0
LINE
  5
CE
330
18
100
AcDbEntity
  8
0
100
AcDbLine
 10
4.196388
 20
8.176467000000001
 30
0.0
 11
4.232979
 21
8.190342999999999
 31
0.0
  0
LINE
  5
CF
330
18
100
AcDbEntity
  8
0
100
AcDbLine
 10
3.984892
 20
8.356584
 30
0.0
 11
4.232979
 21
8.190342999999999
 31
0.0
  0
LINE
  5
D0
330
18
100
AcDbEntity
  8
0
100
AcDbLine
 10
3.574063
 20
8.26112
 30
0.0
 11
3.574063
 21
5.115785
 31
0.0
  0
LINE
  5
D1
330
18
100
AcDbEntity
  8
0
100
AcDbLine
 10
3.574063
 20
8.26112
 30
0.0
 11
3.944794
 21
8.363095
 31
0.0
  0
LINE
  5
D2
330
18
100
AcDbEntity
  8
0
100
AcDbLine
 10
3.574063
 20
8.26112
 30
0.0
 11
3.610654
 21
8.233235000000001
 31
0.0
  0
ARC
  5
D3
330
18
100
AcDbEntity
  8
0
100
AcDbCircle
 10
3.963712
 20
8.317699000000001
 30
0.0
 40
0.012197
100
AcDbArc
 50
56.174317
 51
105.37968
  0
ARC
  5
D4
330
18
100
AcDbEntity
  8
0
100
AcDbCircle
 10
3.957733
 20
8.316053999999999
 30
0.0
 40
0.048788
100
AcDbArc
 50
56.174317
 51
105.37968
  0
LINE
  5
D5
330
18
100
AcDbEntity
  8
0
100
AcDbLine
 10
3.919087
 20
8.286660000000001
 30
0.0
 11
3.919087
 21
8.24273
 31
0.0
  0
LINE
  5
D6
330
18
100
AcDbEntity
  8
0
100
AcDbLine
 10
3.940014
 20
4.77629
 30
0.0
 11
3.940014
 21
4.86916
 31
0.0
  0
LINE
  5
D7
330
18
100
AcDbEntity
  8
0
100
AcDbLine
 10
3.940014
 20
8.245291
 30
0.0
 11
3.940014
 21
8.280822000000001
 31
0.0
  0
LINE
  5
D8
330
18
100
AcDbEntity
  8
0
100
AcDbLine
 10
3.919087
 20
8.201207
 30
0.0
 11
3.919087
 21
4.948348999999999
 31
0.0
  0
LINE
  5
D9
330
18
100
AcDbEntity
  8
0
100
AcDbLine
 10
3.919087
 20
4.899536
 30
0.0
 11
3.919087
 21
4.834609
 31
0.0
  0
LINE
  5
DA
330
18
100
AcDbEntity
  8
0
100
AcDbLine
 10
3.940014
 20
4.924101
 30
0.0
 11
3.940014
 21
8.195300999999999
 31
0.0
  0
LINE
  5
DB
330
18
100
AcDbEntity
  8
0
100
AcDbLine
 10
3.974447
 20
4.405987000000001
 30
0.0
 11
3.8751
 21
4.459833000000001
 31
0.0
  0
LINE
  5
DC
330
18
100
AcDbEntity
  8
0
100
AcDbLine
 10
3.974447
 20
4.332259
 30
0.0
 11
4.585297
 21
4.0754
 31
0.0
  0
ARC
  5
DD
330
18
100
AcDbEntity
  8
0
100
AcDbCircle
 10
3.671639
 20
5.077826
 30
0.0
 40
0.060985
100
AcDbArc
 50
180.0
 51
223.949093
  0
ARC
  5
DE
330
18
100
AcDbEntity
  8
0
100
AcDbCircle
 10
3.635048
 20
5.115785
 30
0.0
 40
0.060985
100
AcDbArc
 50
180.0
 51
223.949093
  0
LINE
  5
DF
330
18
100
AcDbEntity
  8
0
100
AcDbLine
 10
4.051772
 20
5.549828
 30
0.0
 11
4.117894000000001
 21
5.519777
 31
0.0
  0
LINE
  5
E0
330
18
100
AcDbEntity
  8
0
100
AcDbLine
 10
4.117894000000001
 20
5.519777
 30
0.0
 11
4.092911
 21
5.601380000000001
 31
0.0
  0
LINE
  5
E1
330
18
100
AcDbEntity
  8
0
100
AcDbLine
 10
4.092911
 20
5.601380000000001
 30
0.0
 11
4.051772
 21
5.549828
 31
0.0
  0
LINE
  5
E2
330
18
100
AcDbEntity
  8
0
100
AcDbLine
 10
4.092911
 20
6.519451
 30
0.0
 11
4.051772
 21
6.467899
 31
0.0
  0
LINE
  5
E3
330
18
100
AcDbEntity
  8
0
100
AcDbLine
 10
4.117894000000001
 20
6.437847000000001
 30
0.0
 11
4.092911
 21
6.519451
 31
0.0
  0
LINE
  5
E4
330
18
100
AcDbEntity
  8
0
100
AcDbLine
 10
4.051772
 20
6.467899
 30
0.0
 11
4.117894000000001
 21
6.437847000000001
 31
0.0
  0
LINE
  5
E5
330
18
100
AcDbEntity
  8
0
100
AcDbLine
 10
4.179255
 20
4.60111
 30
0.0
 11
4.15695
 21
4.657241
 31
0.0
  0
LINE
  5
E6
330
18
100
AcDbEntity
  8
0
100
AcDbLine
 10
4.260075
 20
4.563838
 30
0.0
 11
4.260075
 21
4.666353
 31
0.0
  0
ARC
  5
E7
330
18
100
AcDbEntity
  8
0
100
AcDbCircle
 10
4.163562000000001
 20
4.666353
 30
0.0
 40
0.096512
100
AcDbArc
 50
0.0
 51
48.824125
  0
LINE
  5
E8
330
18
100
AcDbEntity
  8
0
100
AcDbLine
 10
4.260075
 20
4.601811
 30
0.0
 11
4.220572
 21
4.673051
 31
0.0
  0
ARC
  5
E9
330
18
100
AcDbEntity
  8
0
100
AcDbCircle
 10
3.838509
 20
4.764124
 30
0.0
 40
0.036591
100
AcDbArc
 50
0.0
 51
43.949093
  0
LINE
  5
EA
330
18
100
AcDbEntity
  8
0
100
AcDbLine
 10
3.8751
 20
4.707580999999999
 30
0.0
 11
3.8751
 21
4.764124
 31
0.0
  0
SOLID
  5
EB
330
18
100
AcDbEntity
  8
0
100
AcDbTrace
 10
4.084976
 20
4.643169
 30
0.0
 11
3.83891
 21
4.665719
 31
0.0
 12
3.844641
 22
4.583797
 32
0.0
 13
3.844641
 23
4.583797
 33
0.0
  0
LINE
  5
EC
330
18
100
AcDbEntity
  8
0
100
AcDbLine
 10
4.084976
 20
4.643169
 30
0.0
 11
3.841756
 21
4.624416
 31
0.0
  0
ARC
  5
ED
330
18
100
AcDbEntity
  8
0
100
AcDbCircle
 10
3.930187
 20
3.477556
 30
0.0
 40
1.150264
100
AcDbArc
 50
94.409155
 51
124.032608
  0
LINE
  5
EE
330
18
100
AcDbEntity
  8
0
100
AcDbLine
 10
7.15337
 20
4.141035
 30
0.0
 11
6.825166
 21
4.306029
 31
0.0
  0
LINE
  5
EF
330
18
100
AcDbEntity
  8
0
100
AcDbLine
 10
1.682248
 20
4.812975
 30
0.0
 11
1.682248
 21
3.87477
 31
0.0
  0
LINE
  5
F0
330
18
100
AcDbEntity
  8
0
100
AcDbLine
 10
1.760285
 20
4.854628
 30
0.0
 11
1.760285
 21
3.87477
 31
0.0
  0
LINE
  5
F1
330
18
100
AcDbEntity
  8
0
100
AcDbLine
 10
2.80724
 20
4.854628
 30
0.0
 11
2.80724
 21
3.87477
 31
0.0
  0
LINE
  5
F2
330
18
100
AcDbEntity
  8
0
100
AcDbLine
 10
2.885276
 20
4.812975
 30
0.0
 11
2.885276
 21
3.87477
 31
0.0
  0
ARC
  5
F3
330
18
100
AcDbEntity
  8
0
100
AcDbCircle
 10
3.806214
 20
5.026528
 30
0.0
 40
0.032127
100
AcDbArc
 50
90.0
 51
117.874052
  0
ARC
  5
F4
330
18
100
AcDbEntity
  8
0
100
AcDbCircle
 10
3.811254
 20
5.016999
 30
0.0
 40
0.042907
100
AcDbArc
 50
117.874052
 51
141.932992
  0
ARC
  5
F5
330
18
100
AcDbEntity
  8
0
100
AcDbCircle
 10
3.81917
 20
5.0108
 30
0.0
 40
0.052961
100
AcDbArc
 50
141.932992
 51
162.02694
  0
ARC
  5
F6
330
18
100
AcDbEntity
  8
0
100
AcDbCircle
 10
3.831631
 20
5.006757
 30
0.0
 40
0.066062
100
AcDbArc
 50
162.02694
 51
180.0
  0
ARC
  5
F7
330
18
100
AcDbEntity
  8
0
100
AcDbCircle
 10
3.831631
 20
5.006757
 30
0.0
 40
0.066062
100
AcDbArc
 50
180.0
 51
197.97306
  0
ARC
  5
F8
330
18
100
AcDbEntity
  8
0
100
AcDbCircle
 10
3.81917
 20
5.002715
 30
0.0
 40
0.052961
100
AcDbArc
 50
197.97306
 51
218.067008
  0
ARC
  5
F9
330
18
100
AcDbEntity
  8
0
100
AcDbCircle
 10
3.811254
 20
4.996516000000001
 30
0.0
 40
0.042907
100
AcDbArc
 50
218.067008
 51
242.125948
  0
ARC
  5
FA
330
18
100
AcDbEntity
  8
0
100
AcDbCircle
 10
3.806214
 20
4.986987
 30
0.0
 40
0.032127
100
AcDbArc
 50
242.125948
 51
270.0
  0
ARC
  5
FB
330
18
100
AcDbEntity
  8
0
100
AcDbCircle
 10
3.806214
 20
4.986987
 30
0.0
 40
0.032127
100
AcDbArc
 50
270.0
 51
297.874052
  0
ARC
  5
FC
330
18
100
AcDbEntity
  8
0
100
AcDbCircle
 10
3.801174
 20
4.996516000000001
 30
0.0
 40
0.042907
100
AcDbArc
 50
297.874052
 51
321.932992
  0
ARC
  5
FD
330
18
100
AcDbEntity
  8
0
100
AcDbCircle
 10
3.793259
 20
5.002715
 30
0.0
 40
0.052961
100
AcDbArc
 50
321.932992
 51
342.02694
  0
ARC
  5
FE
330
18
100
AcDbEntity
  8
0
100
AcDbCircle
 10
3.780797
 20
5.006757
 30
0.0
 40
0.066062
100
AcDbArc
 50
342.02694
 51
0.0
  0
ARC
  5
FF
330
18
100
AcDbEntity
  8
0
100
AcDbCircle
 10
3.780797
 20
5.006757
 30
0.0
 40
0.066062
100
AcDbArc
 50
0.0
 51
17.97306
  0
ARC
  5
100
330
18
100
AcDbEntity
  8
0
100
AcDbCircle
 10
3.793259
 20
5.0108
 30
0.0
 40
0.052961
100
AcDbArc
 50
17.97306
 51
38.067008
  0
ARC
  5
101
330
18
100
AcDbEntity
  8
0
100
AcDbCircle
 10
3.801174
 20
5.016999
 30
0.0
 40
0.042907
100
AcDbArc
 50
38.067008
 51
62.125948
  0
ARC
  5
102
330
18
100
AcDbEntity
  8
0
100
AcDbCircle
 10
3.806214
 20
5.026528
 30
0.0
 40
0.032127
100
AcDbArc
 50
62.125948
 51
90.0
  0
ARC
  5
103
330
18
100
AcDbEntity
  8
0
100
AcDbCircle
 10
3.710618
 20
5.256548
 30
0.0
 40
0.032127
100
AcDbArc
 50
90.0
 51
117.874052
  0
ARC
  5
104
330
18
100
AcDbEntity
  8
0
100
AcDbCircle
 10
3.715658
 20
5.247019
 30
0.0
 40
0.042907
100
AcDbArc
 50
117.874052
 51
141.932992
  0
ARC
  5
105
330
18
100
AcDbEntity
  8
0
100
AcDbCircle
 10
3.723574
 20
5.240819999999999
 30
0.0
 40
0.052961
100
AcDbArc
 50
141.932992
 51
162.02694
  0
ARC
  5
106
330
18
100
AcDbEntity
  8
0
100
AcDbCircle
 10
3.736035
 20
5.236777
 30
0.0
 40
0.066062
100
AcDbArc
 50
162.02694
 51
180.0
  0
ARC
  5
107
330
18
100
AcDbEntity
  8
0
100
AcDbCircle
 10
3.736035
 20
5.236777
 30
0.0
 40
0.066062
100
AcDbArc
 50
180.0
 51
197.97306
  0
ARC
  5
108
330
18
100
AcDbEntity
  8
0
100
AcDbCircle
 10
3.723574
 20
5.232735
 30
0.0
 40
0.052961
100
AcDbArc
 50
197.97306
 51
218.067008
  0
ARC
  5
109
330
18
100
AcDbEntity
  8
0
100
AcDbCircle
 10
3.715658
 20
5.226536
 30
0.0
 40
0.042907
100
AcDbArc
 50
218.067008
 51
242.125948
  0
ARC
  5
10A
330
18
100
AcDbEntity
  8
0
100
AcDbCircle
 10
3.710618
 20
5.217007
 30
0.0
 40
0.032127
100
AcDbArc
 50
242.125948
 51
270.0
  0
ARC
  5
10B
330
18
100
AcDbEntity
  8
0
100
AcDbCircle
 10
3.710618
 20
5.217007
 30
0.0
 40
0.032127
100
AcDbArc
 50
270.0
 51
297.874052
  0
ARC
  5
10C
330
18
100
AcDbEntity
  8
0
100
AcDbCircle
 10
3.705579
 20
5.226536
 30
0.0
 40
0.042907
100
AcDbArc
 50
297.874052
 51
321.932992
  0
ARC
  5
10D
330
18
100
AcDbEntity
  8
0
100
AcDbCircle
 10
3.697663
 20
5.232735
 30
0.0
 40
0.052961
100
AcDbArc
 50
321.932992
 51
342.02694
  0
ARC
  5
10E
330
18
100
AcDbEntity
  8
0
100
AcDbCircle
 10
3.685201
 20
5.236777
 30
0.0
 40
0.066062
100
AcDbArc
 50
342.02694
 51
0.0
  0
ARC
  5
10F
330
18
100
AcDbEntity
  8
0
100
AcDbCircle
 10
3.685201
 20
5.236777
 30
0.0
 40
0.066062
100
AcDbArc
 50
0.0
 51
17.97306
  0
ARC
  5
110
330
18
100
AcDbEntity
  8
0
100
AcDbCircle
 10
3.697663
 20
5.240819999999999
 30
0.0
 40
0.052961
100
AcDbArc
 50
17.97306
 51
38.067008
  0
ARC
  5
111
330
18
100
AcDbEntity
  8
0
100
AcDbCircle
 10
3.705579
 20
5.247019
 30
0.0
 40
0.042907
100
AcDbArc
 50
38.067008
 51
62.125948
  0
ARC
  5
112
330
18
100
AcDbEntity
  8
0
100
AcDbCircle
 10
3.710618
 20
5.256548
 30
0.0
 40
0.032127
100
AcDbArc
 50
62.125948
 51
90.0
  0
ARC
  5
113
330
18
100
AcDbEntity
  8
0
100
AcDbCircle
 10
3.813411
 20
5.567296
 30
0.0
 40
0.032127
100
AcDbArc
 50
90.0
 51
117.874052
  0
ARC
  5
114
330
18
100
AcDbEntity
  8
0
100
AcDbCircle
 10
3.818451
 20
5.557767
 30
0.0
 40
0.042907
100
AcDbArc
 50
117.874052
 51
141.932992
  0
ARC
  5
115
330
18
100
AcDbEntity
  8
0
100
AcDbCircle
 10
3.826367
 20
5.551567
 30
0.0
 40
0.052961
100
AcDbArc
 50
141.932992
 51
162.02694
  0
ARC
  5
116
330
18
100
AcDbEntity
  8
0
100
AcDbCircle
 10
3.838828
 20
5.547525
 30
0.0
 40
0.066062
100
AcDbArc
 50
162.02694
 51
180.0
  0
ARC
  5
117
330
18
100
AcDbEntity
  8
0
100
AcDbCircle
 10
3.838828
 20
5.547525
 30
0.0
 40
0.066062
100
AcDbArc
 50
180.0
 51
197.97306
  0
ARC
  5
118
330
18
100
AcDbEntity
  8
0
100
AcDbCircle
 10
3.826367
 20
5.543482
 30
0.0
 40
0.052961
100
AcDbArc
 50
197.97306
 51
218.067008
  0
ARC
  5
119
330
18
100
AcDbEntity
  8
0
100
AcDbCircle
 10
3.818451
 20
5.537283
 30
0.0
 40
0.042907
100
AcDbArc
 50
218.067008
 51
242.125948
  0
ARC
  5
11A
330
18
100
AcDbEntity
  8
0
100
AcDbCircle
 10
3.813411
 20
5.527754
 30
0.0
 40
0.032127
100
AcDbArc
 50
242.125948
 51
270.0
  0
ARC
  5
11B
330
18
100
AcDbEntity
  8
0
100
AcDbCircle
 10
3.813411
 20
5.527754
 30
0.0
 40
0.032127
100
AcDbArc
 50
270.0
 51
297.874052
  0
ARC
  5
11C
330
18
100
AcDbEntity
  8
0
100
AcDbCircle
 10
3.808372
 20
5.537283
 30
0.0
 40
0.042907
100
AcDbArc
 50
297.874052
 51
321.932992
  0
ARC
  5
11D
330
18
100
AcDbEntity
  8
0
100
AcDbCircle
 10
3.800456
 20
5.543482
 30
0.0
 40
0.052961
100
AcDbArc
 50
321.932992
 51
342.02694
  0
ARC
  5
11E
330
18
100
AcDbEntity
  8
0
100
AcDbCircle
 10
3.787995
 20
5.547525
 30
0.0
 40
0.066062
100
AcDbArc
 50
342.02694
 51
0.0
  0
ARC
  5
11F
330
18
100
AcDbEntity
  8
0
100
AcDbCircle
 10
3.787995
 20
5.547525
 30
0.0
 40
0.066062
100
AcDbArc
 50
0.0
 51
17.97306
  0
ARC
  5
120
330
18
100
AcDbEntity
  8
0
100
AcDbCircle
 10
3.800456
 20
5.551567
 30
0.0
 40
0.052961
100
AcDbArc
 50
17.97306
 51
38.067008
  0
ARC
  5
121
330
18
100
AcDbEntity
  8
0
100
AcDbCircle
 10
3.808372
 20
5.557767
 30
0.0
 40
0.042907
100
AcDbArc
 50
38.067008
 51
62.125948
  0
ARC
  5
122
330
18
100
AcDbEntity
  8
0
100
AcDbCircle
 10
3.813411
 20
5.567296
 30
0.0
 40
0.032127
100
AcDbArc
 50
62.125948
 51
90.0
  0
ARC
  5
123
330
18
100
AcDbEntity
  8
0
100
AcDbCircle
 10
3.716458
 20
5.816835
 30
0.0
 40
0.032127
100
AcDbArc
 50
90.0
 51
117.874052
  0
ARC
  5
124
330
18
100
AcDbEntity
  8
0
100
AcDbCircle
 10
3.721498
 20
5.807306
 30
0.0
 40
0.042907
100
AcDbArc
 50
117.874052
 51
141.932992
  0
ARC
  5
125
330
18
100
AcDbEntity
  8
0
100
AcDbCircle
 10
3.729414
 20
5.801107
 30
0.0
 40
0.052961
100
AcDbArc
 50
141.932992
 51
162.02694
  0
ARC
  5
126
330
18
100
AcDbEntity
  8
0
100
AcDbCircle
 10
3.741875
 20
5.797065
 30
0.0
 40
0.066062
100
AcDbArc
 50
162.02694
 51
180.0
  0
ARC
  5
127
330
18
100
AcDbEntity
  8
0
100
AcDbCircle
 10
3.741875
 20
5.797065
 30
0.0
 40
0.066062
100
AcDbArc
 50
180.0
 51
197.97306
  0
ARC
  5
128
330
18
100
AcDbEntity
  8
0
100
AcDbCircle
 10
3.729414
 20
5.793022000000001
 30
0.0
 40
0.052961
100
AcDbArc
 50
197.97306
 51
218.067008
  0
ARC
  5
129
330
18
100
AcDbEntity
  8
0
100
AcDbCircle
 10
3.721498
 20
5.786823
 30
0.0
 40
0.042907
100
AcDbArc
 50
218.067008
 51
242.125948
  0
ARC
  5
12A
330
18
100
AcDbEntity
  8
0
100
AcDbCircle
 10
3.716458
 20
5.777294
 30
0.0
 40
0.032127
100
AcDbArc
 50
242.125948
 51
270.0
  0
ARC
  5
12B
330
18
100
AcDbEntity
  8
0
100
AcDbCircle
 10
3.716458
 20
5.777294
 30
0.0
 40
0.032127
100
AcDbArc
 50
270.0
 51
297.874052
  0
ARC
  5
12C
330
18
100
AcDbEntity
  8
0
100
AcDbCircle
 10
3.711418
 20
5.786823
 30
0.0
 40
0.042907
100
AcDbArc
 50
297.874052
 51
321.932992
  0
ARC
  5
12D
330
18
100
AcDbEntity
  8
0
100
AcDbCircle
 10
3.703503
 20
5.793022000000001
 30
0.0
 40
0.052961
100
AcDbArc
 50
321.932992
 51
342.02694
  0
ARC
  5
12E
330
18
100
AcDbEntity
  8
0
100
AcDbCircle
 10
3.691041
 20
5.797065
 30
0.0
 40
0.066062
100
AcDbArc
 50
342.02694
 51
0.0
  0
ARC
  5
12F
330
18
100
AcDbEntity
  8
0
100
AcDbCircle
 10
3.691041
 20
5.797065
 30
0.0
 40
0.066062
100
AcDbArc
 50
0.0
 51
17.97306
  0
ARC
  5
130
330
18
100
AcDbEntity
  8
0
100
AcDbCircle
 10
3.703503
 20
5.801107
 30
0.0
 40
0.052961
100
AcDbArc
 50
17.97306
 51
38.067008
  0
ARC
  5
131
330
18
100
AcDbEntity
  8
0
100
AcDbCircle
 10
3.711418
 20
5.807306
 30
0.0
 40
0.042907
100
AcDbArc
 50
38.067008
 51
62.125948
  0
ARC
  5
132
330
18
100
AcDbEntity
  8
0
100
AcDbCircle
 10
3.716458
 20
5.816835
 30
0.0
 40
0.032127
100
AcDbArc
 50
62.125948
 51
90.0
  0
ARC
  5
133
330
18
100
AcDbEntity
  8
0
100
AcDbCircle
 10
3.831313
 20
6.670825999999999
 30
0.0
 40
0.032127
100
AcDbArc
 50
90.0
 51
117.874052
  0
ARC
  5
134
330
18
100
AcDbEntity
  8
0
100
AcDbCircle
 10
3.836353
 20
6.661297
 30
0.0
 40
0.042907
100
AcDbArc
 50
117.874052
 51
141.932992
  0
ARC
  5
135
330
18
100
AcDbEntity
  8
0
100
AcDbCircle
 10
3.844269
 20
6.655097000000001
 30
0.0
 40
0.052961
100
AcDbArc
 50
141.932992
 51
162.02694
  0
ARC
  5
136
330
18
100
AcDbEntity
  8
0
100
AcDbCircle
 10
3.85673
 20
6.651055
 30
0.0
 40
0.066062
100
AcDbArc
 50
162.02694
 51
180.0
  0
ARC
  5
137
330
18
100
AcDbEntity
  8
0
100
AcDbCircle
 10
3.85673
 20
6.651055
 30
0.0
 40
0.066062
100
AcDbArc
 50
180.0
 51
197.97306
  0
ARC
  5
138
330
18
100
AcDbEntity
  8
0
100
AcDbCircle
 10
3.844269
 20
6.647011999999999
 30
0.0
 40
0.052961
100
AcDbArc
 50
197.97306
 51
218.067008
  0
ARC
  5
139
330
18
100
AcDbEntity
  8
0
100
AcDbCircle
 10
3.836353
 20
6.640813000000001
 30
0.0
 40
0.042907
100
AcDbArc
 50
218.067008
 51
242.125948
  0
ARC
  5
13A
330
18
100
AcDbEntity
  8
0
100
AcDbCircle
 10
3.831313
 20
6.631284
 30
0.0
 40
0.032127
100
AcDbArc
 50
242.125948
 51
270.0
  0
ARC
  5
13B
330
18
100
AcDbEntity
  8
0
100
AcDbCircle
 10
3.831313
 20
6.631284
 30
0.0
 40
0.032127
100
AcDbArc
 50
270.0
 51
297.874052
  0
ARC
  5
13C
330
18
100
AcDbEntity
  8
0
100
AcDbCircle
 10
3.826274
 20
6.640813000000001
 30
0.0
 40
0.042907
100
AcDbArc
 50
297.874052
 51
321.932992
  0
ARC
  5
13D
330
18
100
AcDbEntity
  8
0
100
AcDbCircle
 10
3.818358
 20
6.647011999999999
 30
0.0
 40
0.052961
100
AcDbArc
 50
321.932992
 51
342.02694
  0
ARC
  5
13E
330
18
100
AcDbEntity
  8
0
100
AcDbCircle
 10
3.805897
 20
6.651055
 30
0.0
 40
0.066062
100
AcDbArc
 50
342.02694
 51
0.0
  0
ARC
  5
13F
330
18
100
AcDbEntity
  8
0
100
AcDbCircle
 10
3.805897
 20
6.651055
 30
0.0
 40
0.066062
100
AcDbArc
 50
0.0
 51
17.97306
  0
ARC
  5
140
330
18
100
AcDbEntity
  8
0
100
AcDbCircle
 10
3.818358
 20
6.655097000000001
 30
0.0
 40
0.052961
100
AcDbArc
 50
17.97306
 51
38.067008
  0
ARC
  5
141
330
18
100
AcDbEntity
  8
0
100
AcDbCircle
 10
3.826274
 20
6.661297
 30
0.0
 40
0.042907
100
AcDbArc
 50
38.067008
 51
62.125948
  0
ARC
  5
142
330
18
100
AcDbEntity
  8
0
100
AcDbCircle
 10
3.831313
 20
6.670825999999999
 30
0.0
 40
0.032127
100
AcDbArc
 50
62.125948
 51
90.0
  0
ARC
  5
143
330
18
100
AcDbEntity
  8
0
100
AcDbCircle
 10
3.830313
 20
6.116675
 30
0.0
 40
0.032127
100
AcDbArc
 50
90.0
 51
117.874052
  0
ARC
  5
144
330
18
100
AcDbEntity
  8
0
100
AcDbCircle
 10
3.835353
 20
6.107146
 30
0.0
 40
0.042907
100
AcDbArc
 50
117.874052
 51
141.932992
  0
ARC
  5
145
330
18
100
AcDbEntity
  8
0
100
AcDbCircle
 10
3.843268
 20
6.100947
 30
0.0
 40
0.052961
100
AcDbArc
 50
141.932992
 51
162.02694
  0
ARC
  5
146
330
18
100
AcDbEntity
  8
0
100
AcDbCircle
 10
3.85573
 20
6.096904
 30
0.0
 40
0.066062
100
AcDbArc
 50
162.02694
 51
180.0
  0
ARC
  5
147
330
18
100
AcDbEntity
  8
0
100
AcDbCircle
 10
3.85573
 20
6.096904
 30
0.0
 40
0.066062
100
AcDbArc
 50
180.0
 51
197.97306
  0
ARC
  5
148
330
18
100
AcDbEntity
  8
0
100
AcDbCircle
 10
3.843268
 20
6.092862
 30
0.0
 40
0.052961
100
AcDbArc
 50
197.97306
 51
218.067008
  0
ARC
  5
149
330
18
100
AcDbEntity
  8
0
100
AcDbCircle
 10
3.835353
 20
6.086663
 30
0.0
 40
0.042907
100
AcDbArc
 50
218.067008
 51
242.125948
  0
ARC
  5
14A
330
18
100
AcDbEntity
  8
0
100
AcDbCircle
 10
3.830313
 20
6.077134
 30
0.0
 40
0.032127
100
AcDbArc
 50
242.125948
 51
270.0
  0
ARC
  5
14B
330
18
100
AcDbEntity
  8
0
100
AcDbCircle
 10
3.830313
 20
6.077134
 30
0.0
 40
0.032127
100
AcDbArc
 50
270.0
 51
297.874052
  0
ARC
  5
14C
330
18
100
AcDbEntity
  8
0
100
AcDbCircle
 10
3.825273
 20
6.086663
 30
0.0
 40
0.042907
100
AcDbArc
 50
297.874052
 51
321.932992
  0
ARC
  5
14D
330
18
100
AcDbEntity
  8
0
100
AcDbCircle
 10
3.817358
 20
6.092862
 30
0.0
 40
0.052961
100
AcDbArc
 50
321.932992
 51
342.02694
  0
ARC
  5
14E
330
18
100
AcDbEntity
  8
0
100
AcDbCircle
 10
3.804896
 20
6.096904
 30
0.0
 40
0.066062
100
AcDbArc
 50
342.02694
 51
0.0
  0
ARC
  5
14F
330
18
100
AcDbEntity
  8
0
100
AcDbCircle
 10
3.804896
 20
6.096904
 30
0.0
 40
0.066062
100
AcDbArc
 50
0.0
 51
17.97306
  0
ARC
  5
150
330
18
100
AcDbEntity
  8
0
100
AcDbCircle
 10
3.817358
 20
6.100947
 30
0.0
 40
0.052961
100
AcDbArc
 50
17.97306
 51
38.067008
  0
ARC
  5
151
330
18
100
AcDbEntity
  8
0
100
AcDbCircle
 10
3.825273
 20
6.107146
 30
0.0
 40
0.042907
100
AcDbArc
 50
38.067008
 51
62.125948
  0
ARC
  5
152
330
18
100
AcDbEntity
  8
0
100
AcDbCircle
 10
3.830313
 20
6.116675
 30
0.0
 40
0.032127
100
AcDbArc
 50
62.125948
 51
90.0
  0
ARC
  5
153
330
18
100
AcDbEntity
  8
0
100
AcDbCircle
 10
3.72852
 20
6.360078
 30
0.0
 40
0.032127
100
AcDbArc
 50
90.0
 51
117.874052
  0
ARC
  5
154
330
18
100
AcDbEntity
  8
0
100
AcDbCircle
 10
3.73356
 20
6.350549
 30
0.0
 40
0.042907
100
AcDbArc
 50
117.874052
 51
141.932992
  0
ARC
  5
155
330
18
100
AcDbEntity
  8
0
100
AcDbCircle
 10
3.741476
 20
6.34435
 30
0.0
 40
0.052961
100
AcDbArc
 50
141.932992
 51
162.02694
  0
ARC
  5
156
330
18
100
AcDbEntity
  8
0
100
AcDbCircle
 10
3.753937
 20
6.340307
 30
0.0
 40
0.066062
100
AcDbArc
 50
162.02694
 51
180.0
  0
ARC
  5
157
330
18
100
AcDbEntity
  8
0
100
AcDbCircle
 10
3.753937
 20
6.340307
 30
0.0
 40
0.066062
100
AcDbArc
 50
180.0
 51
197.97306
  0
ARC
  5
158
330
18
100
AcDbEntity
  8
0
100
AcDbCircle
 10
3.741476
 20
6.336265
 30
0.0
 40
0.052961
100
AcDbArc
 50
197.97306
 51
218.067008
  0
ARC
  5
159
330
18
100
AcDbEntity
  8
0
100
AcDbCircle
 10
3.73356
 20
6.330066
 30
0.0
 40
0.042907
100
AcDbArc
 50
218.067008
 51
242.125948
  0
ARC
  5
15A
330
18
100
AcDbEntity
  8
0
100
AcDbCircle
 10
3.72852
 20
6.320537
 30
0.0
 40
0.032127
100
AcDbArc
 50
242.125948
 51
270.0
  0
ARC
  5
15B
330
18
100
AcDbEntity
  8
0
100
AcDbCircle
 10
3.72852
 20
6.320537
 30
0.0
 40
0.032127
100
AcDbArc
 50
270.0
 51
297.874052
  0
ARC
  5
15C
330
18
100
AcDbEntity
  8
0
100
AcDbCircle
 10
3.72348
 20
6.330066
 30
0.0
 40
0.042907
100
AcDbArc
 50
297.874052
 51
321.932992
  0
ARC
  5
15D
330
18
100
AcDbEntity
  8
0
100
AcDbCircle
 10
3.715565
 20
6.336265
 30
0.0
 40
0.052961
100
AcDbArc
 50
321.932992
 51
342.02694
  0
ARC
  5
15E
330
18
100
AcDbEntity
  8
0
100
AcDbCircle
 10
3.703103
 20
6.340307
 30
0.0
 40
0.066062
100
AcDbArc
 50
342.02694
 51
0.0
  0
ARC
  5
15F
330
18
100
AcDbEntity
  8
0
100
AcDbCircle
 10
3.703103
 20
6.340307
 30
0.0
 40
0.066062
100
AcDbArc
 50
0.0
 51
17.97306
  0
ARC
  5
160
330
18
100
AcDbEntity
  8
0
100
AcDbCircle
 10
3.715565
 20
6.34435
 30
0.0
 40
0.052961
100
AcDbArc
 50
17.97306
 51
38.067008
  0
ARC
  5
161
330
18
100
AcDbEntity
  8
0
100
AcDbCircle
 10
3.72348
 20
6.350549
 30
0.0
 40
0.042907
100
AcDbArc
 50
38.067008
 51
62.125948
  0
ARC
  5
162
330
18
100
AcDbEntity
  8
0
100
AcDbCircle
 10
3.72852
 20
6.360078
 30
0.0
 40
0.032127
100
AcDbArc
 50
62.125948
 51
90.0
  0
ARC
  5
163
330
18
100
AcDbEntity
  8
0
100
AcDbCircle
 10
4.171605000000001
 20
4.696232
 30
0.0
 40
0.041566
100
AcDbArc
 50
208.639662
 51
214.265041
  0
ARC
  5
164
330
18
100
AcDbEntity
  8
0
100
AcDbCircle
 10
4.171605000000001
 20
4.696232
 30
0.0
 40
0.041566
100
AcDbArc
 50
214.265041
 51
239.965616
  0
ARC
  5
165
330
18
100
AcDbEntity
  8
0
100
AcDbCircle
 10
4.175445
 20
4.702873
 30
0.0
 40
0.049237
100
AcDbArc
 50
239.965616
 51
263.548104
  0
ARC
  5
166
330
18
100
AcDbEntity
  8
0
100
AcDbCircle
 10
4.176215
 20
4.709685
 30
0.0
 40
0.056092
100
AcDbArc
 50
263.548104
 51
284.644248
  0
ARC
  5
167
330
18
100
AcDbEntity
  8
0
100
AcDbCircle
 10
4.174027
 20
4.718057
 30
0.0
 40
0.064746
100
AcDbArc
 50
284.644248
 51
304.265041
  0
ARC
  5
168
330
18
100
AcDbEntity
  8
0
100
AcDbCircle
 10
4.174027
 20
4.718057
 30
0.0
 40
0.064746
100
AcDbArc
 50
304.265041
 51
323.885834
  0
ARC
  5
169
330
18
100
AcDbEntity
  8
0
100
AcDbCircle
 10
4.181018
 20
4.712957
 30
0.0
 40
0.056092
100
AcDbArc
 50
323.885834
 51
344.981978
  0
ARC
  5
16A
330
18
100
AcDbEntity
  8
0
100
AcDbCircle
 10
4.187639
 20
4.711181
 30
0.0
 40
0.049237
100
AcDbArc
 50
344.981978
 51
8.564467000000001
  0
ARC
  5
16B
330
18
100
AcDbEntity
  8
0
100
AcDbCircle
 10
4.195224
 20
4.712323000000001
 30
0.0
 40
0.041566
100
AcDbArc
 50
8.564467000000001
 51
34.265041
  0
ARC
  5
16C
330
18
100
AcDbEntity
  8
0
100
AcDbCircle
 10
4.195224
 20
4.712323000000001
 30
0.0
 40
0.041566
100
AcDbArc
 50
34.265041
 51
47.913006
  0
ARC
  5
16D
330
18
100
AcDbEntity
  8
0
100
AcDbCircle
 10
4.162985
 20
4.707157
 30
0.0
 40
0.041566
100
AcDbArc
 50
214.265041
 51
239.965616
  0
ARC
  5
16E
330
18
100
AcDbEntity
  8
0
100
AcDbCircle
 10
4.166824
 20
4.713798000000001
 30
0.0
 40
0.049237
100
AcDbArc
 50
239.965616
 51
263.548104
  0
ARC
  5
16F
330
18
100
AcDbEntity
  8
0
100
AcDbCircle
 10
4.167595
 20
4.72061
 30
0.0
 40
0.056092
100
AcDbArc
 50
263.548104
 51
284.644248
  0
ARC
  5
170
330
18
100
AcDbEntity
  8
0
100
AcDbCircle
 10
4.165407
 20
4.728982
 30
0.0
 40
0.064746
100
AcDbArc
 50
284.644248
 51
304.265041
  0
ARC
  5
171
330
18
100
AcDbEntity
  8
0
100
AcDbCircle
 10
4.165407
 20
4.728982
 30
0.0
 40
0.064746
100
AcDbArc
 50
304.265041
 51
323.885834
  0
ARC
  5
172
330
18
100
AcDbEntity
  8
0
100
AcDbCircle
 10
4.172398
 20
4.723882
 30
0.0
 40
0.056092
100
AcDbArc
 50
323.885834
 51
344.981978
  0
ARC
  5
173
330
18
100
AcDbEntity
  8
0
100
AcDbCircle
 10
4.179018
 20
4.722106
 30
0.0
 40
0.049237
100
AcDbArc
 50
344.981978
 51
8.564467000000001
  0
ARC
  5
174
330
18
100
AcDbEntity
  8
0
100
AcDbCircle
 10
4.186604
 20
4.723248
 30
0.0
 40
0.041566
100
AcDbArc
 50
8.564467000000001
 51
34.265041
  0
ARC
  5
175
330
18
100
AcDbEntity
  8
0
100
AcDbCircle
 10
4.186604
 20
4.723248
 30
0.0
 40
0.041566
100
AcDbArc
 50
34.265041
 51
59.965616
  0
ARC
  5
176
330
18
100
AcDbEntity
  8
0
100
AcDbCircle
 10
4.182764
 20
4.716607
 30
0.0
 40
0.049237
100
AcDbArc
 50
59.965616
 51
83.54810400000001
  0
ARC
  5
177
330
18
100
AcDbEntity
  8
0
100
AcDbCircle
 10
4.181994
 20
4.709795
 30
0.0
 40
0.056092
100
AcDbArc
 50
83.54810400000001
 51
104.644248
  0
ARC
  5
178
330
18
100
AcDbEntity
  8
0
100
AcDbCircle
 10
4.184182
 20
4.701423
 30
0.0
 40
0.064746
100
AcDbArc
 50
104.644248
 51
124.265041
  0
ARC
  5
179
330
18
100
AcDbEntity
  8
0
100
AcDbCircle
 10
4.184182
 20
4.701423
 30
0.0
 40
0.064746
100
AcDbArc
 50
124.265041
 51
143.885834
  0
ARC
  5
17A
330
18
100
AcDbEntity
  8
0
100
AcDbCircle
 10
4.177191000000001
 20
4.706523000000001
 30
0.0
 40
0.056092
100
AcDbArc
 50
143.885834
 51
164.981978
  0
ARC
  5
17B
330
18
100
AcDbEntity
  8
0
100
AcDbCircle
 10
4.17057
 20
4.7083
 30
0.0
 40
0.049237
100
AcDbArc
 50
164.981978
 51
188.564467
  0
ARC
  5
17C
330
18
100
AcDbEntity
  8
0
100
AcDbCircle
 10
4.162985
 20
4.707157
 30
0.0
 40
0.041566
100
AcDbArc
 50
188.564467
 51
214.265041
  0
ARC
  5
17D
330
18
100
AcDbEntity
  8
0
100
AcDbCircle
 10
3.82927
 20
7.659481
 30
0.0
 40
0.032127
100
AcDbArc
 50
90.0
 51
117.874052
  0
ARC
  5
17E
330
18
100
AcDbEntity
  8
0
100
AcDbCircle
 10
3.83431
 20
7.649952000000001
 30
0.0
 40
0.042907
100
AcDbArc
 50
117.874052
 51
141.932992
  0
ARC
  5
17F
330
18
100
AcDbEntity
  8
0
100
AcDbCircle
 10
3.842226
 20
7.643753
 30
0.0
 40
0.052961
100
AcDbArc
 50
141.932992
 51
162.02694
  0
ARC
  5
180
330
18
100
AcDbEntity
  8
0
100
AcDbCircle
 10
3.854687
 20
7.639711
 30
0.0
 40
0.066062
100
AcDbArc
 50
162.02694
 51
180.0
  0
ARC
  5
181
330
18
100
AcDbEntity
  8
0
100
AcDbCircle
 10
3.854687
 20
7.639711
 30
0.0
 40
0.066062
100
AcDbArc
 50
180.0
 51
197.97306
  0
ARC
  5
182
330
18
100
AcDbEntity
  8
0
100
AcDbCircle
 10
3.842226
 20
7.635667999999999
 30
0.0
 40
0.052961
100
AcDbArc
 50
197.97306
 51
218.067008
  0
ARC
  5
183
330
18
100
AcDbEntity
  8
0
100
AcDbCircle
 10
3.83431
 20
7.629469
 30
0.0
 40
0.042907
100
AcDbArc
 50
218.067008
 51
242.125948
  0
ARC
  5
184
330
18
100
AcDbEntity
  8
0
100
AcDbCircle
 10
3.82927
 20
7.61994
 30
0.0
 40
0.032127
100
AcDbArc
 50
242.125948
 51
270.0
  0
ARC
  5
185
330
18
100
AcDbEntity
  8
0
100
AcDbCircle
 10
3.82927
 20
7.61994
 30
0.0
 40
0.032127
100
AcDbArc
 50
270.0
 51
297.874052
  0
ARC
  5
186
330
18
100
AcDbEntity
  8
0
100
AcDbCircle
 10
3.824230000000001
 20
7.629469
 30
0.0
 40
0.042907
100
AcDbArc
 50
297.874052
 51
321.932992
  0
ARC
  5
187
330
18
100
AcDbEntity
  8
0
100
AcDbCircle
 10
3.816315
 20
7.635667999999999
 30
0.0
 40
0.052961
100
AcDbArc
 50
321.932992
 51
342.02694
  0
ARC
  5
188
330
18
100
AcDbEntity
  8
0
100
AcDbCircle
 10
3.803853
 20
7.639711
 30
0.0
 40
0.066062
100
AcDbArc
 50
342.02694
 51
0.0
  0
ARC
  5
189
330
18
100
AcDbEntity
  8
0
100
AcDbCircle
 10
3.803853
 20
7.639711
 30
0.0
 40
0.066062
100
AcDbArc
 50
0.0
 51
17.97306
  0
ARC
  5
18A
330
18
100
AcDbEntity
  8
0
100
AcDbCircle
 10
3.816315
 20
7.643753
 30
0.0
 40
0.052961
100
AcDbArc
 50
17.97306
 51
38.067008
  0
ARC
  5
18B
330
18
100
AcDbEntity
  8
0
100
AcDbCircle
 10
3.824230000000001
 20
7.649952000000001
 30
0.0
 40
0.042907
100
AcDbArc
 50
38.067008
 51
62.125948
  0
ARC
  5
18C
330
18
100
AcDbEntity
  8
0
100
AcDbCircle
 10
3.82927
 20
7.659481
 30
0.0
 40
0.032127
100
AcDbArc
 50
62.125948
 51
90.0
  0
ARC
  5
18D
330
18
100
AcDbEntity
  8
0
100
AcDbCircle
 10
3.724876
 20
7.054563000000001
 30
0.0
 40
0.032127
100
AcDbArc
 50
90.0
 51
117.874052
  0
ARC
  5
18E
330
18
100
AcDbEntity
  8
0
100
AcDbCircle
 10
3.729916
 20
7.045033999999999
 30
0.0
 40
0.042907
100
AcDbArc
 50
117.874052
 51
141.932992
  0
ARC
  5
18F
330
18
100
AcDbEntity
  8
0
100
AcDbCircle
 10
3.737831
 20
7.038835000000001
 30
0.0
 40
0.052961
100
AcDbArc
 50
141.932992
 51
162.02694
  0
ARC
  5
190
330
18
100
AcDbEntity
  8
0
100
AcDbCircle
 10
3.750293
 20
7.034792
 30
0.0
 40
0.066062
100
AcDbArc
 50
162.02694
 51
180.0
  0
ARC
  5
191
330
18
100
AcDbEntity
  8
0
100
AcDbCircle
 10
3.750293
 20
7.034792
 30
0.0
 40
0.066062
100
AcDbArc
 50
180.0
 51
197.97306
  0
ARC
  5
192
330
18
100
AcDbEntity
  8
0
100
AcDbCircle
 10
3.737831
 20
7.030749
 30
0.0
 40
0.052961
100
AcDbArc
 50
197.97306
 51
218.067008
  0
ARC
  5
193
330
18
100
AcDbEntity
  8
0
100
AcDbCircle
 10
3.729916
 20
7.02455
 30
0.0
 40
0.042907
100
AcDbArc
 50
218.067008
 51
242.125948
  0
ARC
  5
194
330
18
100
AcDbEntity
  8
0
100
AcDbCircle
 10
3.724876
 20
7.015021000000001
 30
0.0
 40
0.032127
100
AcDbArc
 50
242.125948
 51
270.0
  0
ARC
  5
195
330
18
100
AcDbEntity
  8
0
100
AcDbCircle
 10
3.724876
 20
7.015021000000001
 30
0.0
 40
0.032127
100
AcDbArc
 50
270.0
 51
297.874052
  0
ARC
  5
196
330
18
100
AcDbEntity
  8
0
100
AcDbCircle
 10
3.719836
 20
7.02455
 30
0.0
 40
0.042907
100
AcDbArc
 50
297.874052
 51
321.932992
  0
ARC
  5
197
330
18
100
AcDbEntity
  8
0
100
AcDbCircle
 10
3.711921
 20
7.030749
 30
0.0
 40
0.052961
100
AcDbArc
 50
321.932992
 51
342.02694
  0
ARC
  5
198
330
18
100
AcDbEntity
  8
0
100
AcDbCircle
 10
3.699459
 20
7.034792
 30
0.0
 40
0.066062
100
AcDbArc
 50
342.02694
 51
0.0
  0
ARC
  5
199
330
18
100
AcDbEntity
  8
0
100
AcDbCircle
 10
3.699459
 20
7.034792
 30
0.0
 40
0.066062
100
AcDbArc
 50
0.0
 51
17.97306
  0
ARC
  5
19A
330
18
100
AcDbEntity
  8
0
100
AcDbCircle
 10
3.711921
 20
7.038835000000001
 30
0.0
 40
0.052961
100
AcDbArc
 50
17.97306
 51
38.067008
  0
ARC
  5
19B
330
18
100
AcDbEntity
  8
0
100
AcDbCircle
 10
3.719836
 20
7.045033999999999
 30
0.0
 40
0.042907
100
AcDbArc
 50
38.067008
 51
62.125948
  0
ARC
  5
19C
330
18
100
AcDbEntity
  8
0
100
AcDbCircle
 10
3.724876
 20
7.054563000000001
 30
0.0
 40
0.032127
100
AcDbArc
 50
62.125948
 51
90.0
  0
ARC
  5
19D
330
18
100
AcDbEntity
  8
0
100
AcDbCircle
 10
3.734371
 20
8.138505
 30
0.0
 40
0.032127
100
AcDbArc
 50
90.0
 51
117.874052
  0
ARC
  5
19E
330
18
100
AcDbEntity
  8
0
100
AcDbCircle
 10
3.739411
 20
8.128976
 30
0.0
 40
0.042907
100
AcDbArc
 50
117.874052
 51
141.932992
  0
ARC
  5
19F
330
18
100
AcDbEntity
  8
0
100
AcDbCircle
 10
3.747326
 20
8.122776
 30
0.0
 40
0.052961
100
AcDbArc
 50
141.932992
 51
162.02694
  0
ARC
  5
1A0
330
18
100
AcDbEntity
  8
0
100
AcDbCircle
 10
3.759788
 20
8.118734
 30
0.0
 40
0.066062
100
AcDbArc
 50
162.02694
 51
180.0
  0
ARC
  5
1A1
330
18
100
AcDbEntity
  8
0
100
AcDbCircle
 10
3.759788
 20
8.118734
 30
0.0
 40
0.066062
100
AcDbArc
 50
180.0
 51
197.97306
  0
ARC
  5
1A2
330
18
100
AcDbEntity
  8
0
100
AcDbCircle
 10
3.747326
 20
8.114691000000001
 30
0.0
 40
0.052961
100
AcDbArc
 50
197.97306
 51
218.067008
  0
ARC
  5
1A3
330
18
100
AcDbEntity
  8
0
100
AcDbCircle
 10
3.739411
 20
8.108492
 30
0.0
 40
0.042907
100
AcDbArc
 50
218.067008
 51
242.125948
  0
ARC
  5
1A4
330
18
100
AcDbEntity
  8
0
100
AcDbCircle
 10
3.734371
 20
8.098963000000001
 30
0.0
 40
0.032127
100
AcDbArc
 50
242.125948
 51
270.0
  0
ARC
  5
1A5
330
18
100
AcDbEntity
  8
0
100
AcDbCircle
 10
3.734371
 20
8.098963000000001
 30
0.0
 40
0.032127
100
AcDbArc
 50
270.0
 51
297.874052
  0
ARC
  5
1A6
330
18
100
AcDbEntity
  8
0
100
AcDbCircle
 10
3.729331
 20
8.108492
 30
0.0
 40
0.042907
100
AcDbArc
 50
297.874052
 51
321.932992
  0
ARC
  5
1A7
330
18
100
AcDbEntity
  8
0
100
AcDbCircle
 10
3.721416000000001
 20
8.114691000000001
 30
0.0
 40
0.052961
100
AcDbArc
 50
321.932992
 51
342.02694
  0
ARC
  5
1A8
330
18
100
AcDbEntity
  8
0
100
AcDbCircle
 10
3.708954
 20
8.118734
 30
0.0
 40
0.066062
100
AcDbArc
 50
342.02694
 51
0.0
  0
ARC
  5
1A9
330
18
100
AcDbEntity
  8
0
100
AcDbCircle
 10
3.708954
 20
8.118734
 30
0.0
 40
0.066062
100
AcDbArc
 50
0.0
 51
17.97306
  0
ARC
  5
1AA
330
18
100
AcDbEntity
  8
0
100
AcDbCircle
 10
3.721416000000001
 20
8.122776
 30
0.0
 40
0.052961
100
AcDbArc
 50
17.97306
 51
38.067008
  0
ARC
  5
1AB
330
18
100
AcDbEntity
  8
0
100
AcDbCircle
 10
3.729331
 20
8.128976
 30
0.0
 40
0.042907
100
AcDbArc
 50
38.067008
 51
62.125948
  0
ARC
  5
1AC
330
18
100
AcDbEntity
  8
0
100
AcDbCircle
 10
3.734371
 20
8.138505
 30
0.0
 40
0.032127
100
AcDbArc
 50
62.125948
 51
90.0
  0
TEXT
  5
1AD
330
18
100
AcDbEntity
  8
0
100
AcDbText
 10
3.64917
 20
2.573114
 30
0.0
 40
0.25
  1
Simpson Strong-Tie
100
AcDbText
  0
TEXT
  5
1AE
330
18
100
AcDbEntity
  8
0
100
AcDbText
 10
3.64917
 20
2.168352
 30
0.0
 40
0.25
  1
MIU
100
AcDbText
  0
ENDSEC
  0
SECTION
  2
OBJECTS
  0
DICTIONARY
  5
C
330
0
100
AcDbDictionary
281
     1
  3
ACAD_COLOR
350
1B4
  3
ACAD_GROUP
350
D
  3
ACAD_LAYOUT
350
15
  3
ACAD_MATERIAL
350
1B6
  3
ACAD_MLINESTYLE
350
12
  3
ACAD_PLOTSETTINGS
350
14
  3
ACAD_PLOTSTYLENAME
350
E
  3
ACDBHEADERROUNDTRIPXREC
350
1B3
  0
DICTIONARY
  5
1B4
102
{ACAD_REACTORS
330
C
102
}
330
C
100
AcDbDictionary
281
     1
  0
DICTIONARY
  5
D
102
{ACAD_REACTORS
330
C
102
}
330
C
100
AcDbDictionary
281
     1
  0
DICTIONARY
  5
15
102
{ACAD_REACTORS
330
C
102
}
330
C
100
AcDbDictionary
281
     1
  3
Layout1
350
17
  3
Model
350
19
  0
DICTIONARY
  5
1B6
102
{ACAD_REACTORS
330
C
102
}
330
C
100
AcDbDictionary
281
     1
  0
DICTIONARY
  5
12
102
{ACAD_REACTORS
330
C
102
}
330
C
100
AcDbDictionary
281
     1
  3
Standard
350
13
  0
DICTIONARY
  5
14
102
{ACAD_REACTORS
330
C
102
}
330
C
100
AcDbDictionary
281
     1
  0
ACDBDICTIONARYWDFLT
  5
E
102
{ACAD_REACTORS
330
C
102
}
330
C
100
AcDbDictionary
281
     1
  3
Normal
350
F
100
AcDbDictionaryWithDefault
340
F
  0
DICTIONARY
  5
1B3
102
{ACAD_REACTORS
330
C
102
}
330
C
100
AcDbDictionary
281
     1
  3
COLORDICT
350
1B5
  3
MATERIALDICT
350
1B7
  0
LAYOUT
  5
17
102
{ACAD_REACTORS
330
15
102
}
102
{ACAD_XDICTIONARY
360
1B8
102
}
330
15
100
AcDbPlotSettings
  1

  2

  4

  6

 40
0.0
 41
0.0
 42
0.0
 43
0.0
 44
0.0
 45
0.0
 46
0.0
 47
0.0
 48
0.0
 49
0.0
140
0.0
141
0.0
142
1.0
143
1.0
 70
   688
 72
     0
 73
     0
 74
     5
  7

 75
    16
147
1.0
148
0.0
149
0.0
100
AcDbLayout
  1
Layout1
 70
     1
 71
     1
 10
0.0
 20
0.0
 11
12.0
 21
9.0
 12
0.0
 22
0.0
 32
0.0
 14
1.000000000000000E+20
 24
1.000000000000000E+20
 34
1.000000000000000E+20
 15
-1.000000000000000E+20
 25
-1.000000000000000E+20
 35
-1.000000000000000E+20
146
0.0
 13
0.0
 23
0.0
 33
0.0
 16
1.0
 26
0.0
 36
0.0
 17
0.0
 27
1.0
 37
0.0
 76
     0
330
16
  0
LAYOUT
  5
19
102
{ACAD_REACTORS
330
15
102
}
102
{ACAD_XDICTIONARY
360
1BA
102
}
330
15
100
AcDbPlotSettings
  1

  2

  4

  6

 40
0.0
 41
0.0
 42
0.0
 43
0.0
 44
0.0
 45
0.0
 46
0.0
 47
0.0
 48
0.0
 49
0.0
140
0.0
141
0.0
142
1.0
143
1.0
 70
  1712
 72
     0
 73
     0
 74
     0
  7

 75
     0
147
1.0
148
0.0
149
0.0
100
AcDbLayout
  1
Model
 70
     1
 71
     0
 10
0.0
 20
0.0
 11
0.0
 21
0.0
 12
0.0
 22
0.0
 32
0.0
 14
0.0
 24
0.0
 34
0.0
 15
0.0
 25
0.0
 35
0.0
146
0.0
 13
0.0
 23
0.0
 33
0.0
 16
1.0
 26
0.0
 36
0.0
 17
0.0
 27
1.0
 37
0.0
 76
     0
330
18
  0
MLINESTYLE
  5
13
102
{ACAD_REACTORS
330
12
102
}
330
12
100
AcDbMlineStyle
  2
Standard
 70
     0
  3

 62
   256
 51
90.0
 52
90.0
 71
     2
 49
0.5
 62
   256
  6
BYLAYER
 49
-0.5
 62
   256
  6
BYLAYER
  0
ACDBPLACEHOLDER
  5
F
102
{ACAD_REACTORS
330
E
102
}
330
E
  0
XRECORD
  5
1B5
102
{ACAD_REACTORS
330
1B3
102
}
330
1B3
100
AcDbXrecord
340
1B4
  0
XRECORD
  5
1B7
102
{ACAD_REACTORS
330
1B3
102
}
330
1B3
100
AcDbXrecord
340
1B6
  0
DICTIONARY
  5
1B8
330
17
100
AcDbDictionary
280
     1
281
     1
  3
ACAD_XREC_ROUNDTRIP
360
1B9
  0
DICTIONARY
  5
1BA
330
19
100
AcDbDictionary
280
     1
281
     1
  3
ACAD_XREC_ROUNDTRIP
360
1BB
  0
XRECORD
  5
1B9
102
{ACAD_REACTORS
330
1B8
102
}
330
1B8
100
AcDbXrecord
102
SHADEPLOT
 70
     0
102
SHADEPLOTRESLEVEL
 70
     0
102
SHADEPLOTCUSTOMDPI
 70
     0
  0
XRECORD
  5
1BB
102
{ACAD_REACTORS
330
1BA
102
}
330
1BA
100
AcDbXrecord
102
SHADEPLOT
 70
     0
102
SHADEPLOTRESLEVEL
 70
     0
102
SHADEPLOTCUSTOMDPI
 70
     0
  0
ENDSEC
  0
EOF
