  0
SECTION
  2
HEADER
  9
$ACADVER
  1
AC1015
  9
$ACADMAINTVER
 70
     6
  9
$DWGCODEPAGE
  3
ANSI_1252
  9
$INSBASE
 10
0.0
 20
0.0
 30
0.0
  9
$EXTMIN
 10
21.99625549886655
 20
9.749813979812357
 30
-0.0015258207003612
  9
$EXTMAX
 10
183.3211610832232
 20
107.2105385105502
 30
0.0000000349246008
  9
$LIMMIN
 10
21.77903238932291
 20
9.611127387152777
  9
$LIMMAX
 10
183.550725640191
 20
107.3417683919271
  9
$ORTHOMODE
 70
     0
  9
$REGENMODE
 70
     1
  9
$FILLMODE
 70
     1
  9
$QTEXTMODE
 70
     0
  9
$MIRRTEXT
 70
     1
  9
$LTSCALE
 40
1.0
  9
$ATTMODE
 70
     1
  9
$TEXTSIZE
 40
0.2
  9
$TRACEWID
 40
0.05
  9
$TEXTSTYLE
  7
STANDARD
  9
$CLAYER
  8
0
  9
$CELTYPE
  6
CONTINUOUS
  9
$CECOLOR
 62
   256
  9
$CELTSCALE
 40
1.0
  9
$DISPSILH
 70
     0
  9
$DIMSCALE
 40
1.0
  9
$DIMASZ
 40
0.18
  9
$DIMEXO
 40
0.0625
  9
$DIMDLI
 40
0.38
  9
$DIMRND
 40
0.0
  9
$DIMDLE
 40
0.0
  9
$DIMEXE
 40
0.18
  9
$DIMTP
 40
0.0
  9
$DIMTM
 40
0.0
  9
$DIMTXT
 40
0.18
  9
$DIMCEN
 40
0.09
  9
$DIMTSZ
 40
0.0
  9
$DIMTOL
 70
     0
  9
$DIMLIM
 70
     0
  9
$DIMTIH
 70
     1
  9
$DIMTOH
 70
     1
  9
$DIMSE1
 70
     0
  9
$DIMSE2
 70
     0
  9
$DIMTAD
 70
     0
  9
$DIMZIN
 70
     0
  9
$DIMBLK
  1

  9
$DIMASO
 70
     1
  9
$DIMSHO
 70
     1
  9
$DIMPOST
  1

  9
$DIMAPOST
  1

  9
$DIMALT
 70
     0
  9
$DIMALTD
 70
     2
  9
$DIMALTF
 40
25.4
  9
$DIMLFAC
 40
1.0
  9
$DIMTOFL
 70
     0
  9
$DIMTVP
 40
0.0
  9
$DIMTIX
 70
     0
  9
$DIMSOXD
 70
     0
  9
$DIMSAH
 70
     0
  9
$DIMBLK1
  1

  9
$DIMBLK2
  1

  9
$DIMSTYLE
  2
STANDARD
  9
$DIMCLRD
 70
     0
  9
$DIMCLRE
 70
     0
  9
$DIMCLRT
 70
     0
  9
$DIMTFAC
 40
1.0
  9
$DIMGAP
 40
0.09
  9
$DIMJUST
 70
     0
  9
$DIMSD1
 70
     0
  9
$DIMSD2
 70
     0
  9
$DIMTOLJ
 70
     1
  9
$DIMTZIN
 70
     0
  9
$DIMALTZ
 70
     0
  9
$DIMALTTZ
 70
     0
  9
$DIMUPT
 70
     0
  9
$DIMDEC
 70
     4
  9
$DIMTDEC
 70
     4
  9
$DIMALTU
 70
     2
  9
$DIMALTTD
 70
     2
  9
$DIMTXSTY
  7
STANDARD
  9
$DIMAUNIT
 70
     0
  9
$DIMADEC
 70
     0
  9
$DIMALTRND
 40
0.0
  9
$DIMAZIN
 70
     0
  9
$DIMDSEP
 70
    46
  9
$DIMATFIT
 70
     3
  9
$DIMFRAC
 70
     0
  9
$DIMLDRBLK
  1

  9
$DIMLUNIT
 70
     2
  9
$DIMLWD
 70
    -2
  9
$DIMLWE
 70
    -2
  9
$DIMTMOVE
 70
     0
  9
$LUNITS
 70
     2
  9
$LUPREC
 70
     4
  9
$SKETCHINC
 40
0.1
  9
$FILLETRAD
 40
0.0
  9
$AUNITS
 70
     0
  9
$AUPREC
 70
     0
  9
$MENU
  1
acad
  9
$ELEVATION
 40
0.0
  9
$PELEVATION
 40
0.0
  9
$THICKNESS
 40
0.0
  9
$LIMCHECK
 70
     0
  9
$CHAMFERA
 40
0.0
  9
$CHAMFERB
 40
0.0
  9
$CHAMFERC
 40
0.0
  9
$CHAMFERD
 40
0.0
  9
$SKPOLY
 70
     0
  9
$TDCREATE
 40
2444971.666666667
  9
$TDUCREATE
 40
2444972.0
  9
$TDUPDATE
 40
2452219.372196412
  9
$TDUUPDATE
 40
2452219.705529745
  9
$TDINDWG
 40
0.0012262731
  9
$TDUSRTIMER
 40
0.0012262731
  9
$USRTIMER
 70
     1
  9
$ANGBASE
 50
0.0
  9
$ANGDIR
 70
     0
  9
$PDMODE
 70
     0
  9
$PDSIZE
 40
0.0
  9
$PLINEWID
 40
0.0
  9
$SPLFRAME
 70
     0
  9
$SPLINETYPE
 70
     6
  9
$SPLINESEGS
 70
     8
  9
$HANDSEED
  5
115
  9
$SURFTAB1
 70
     6
  9
$SURFTAB2
 70
     6
  9
$SURFTYPE
 70
     6
  9
$SURFU
 70
     6
  9
$SURFV
 70
     6
  9
$UCSBASE
  2

  9
$UCSNAME
  2

  9
$UCSORG
 10
0.0
 20
0.0
 30
0.0
  9
$UCSXDIR
 10
1.0
 20
0.0
 30
0.0
  9
$UCSYDIR
 10
0.0
 20
1.0
 30
0.0
  9
$UCSORTHOREF
  2

  9
$UCSORTHOVIEW
 70
     0
  9
$UCSORGTOP
 10
0.0
 20
0.0
 30
0.0
  9
$UCSORGBOTTOM
 10
0.0
 20
0.0
 30
0.0
  9
$UCSORGLEFT
 10
0.0
 20
0.0
 30
0.0
  9
$UCSORGRIGHT
 10
0.0
 20
0.0
 30
0.0
  9
$UCSORGFRONT
 10
0.0
 20
0.0
 30
0.0
  9
$UCSORGBACK
 10
0.0
 20
0.0
 30
0.0
  9
$PUCSBASE
  2

  9
$PUCSNAME
  2

  9
$PUCSORG
 10
0.0
 20
0.0
 30
0.0
  9
$PUCSXDIR
 10
1.0
 20
0.0
 30
0.0
  9
$PUCSYDIR
 10
0.0
 20
1.0
 30
0.0
  9
$PUCSORTHOREF
  2

  9
$PUCSORTHOVIEW
 70
     0
  9
$PUCSORGTOP
 10
0.0
 20
0.0
 30
0.0
  9
$PUCSORGBOTTOM
 10
0.0
 20
0.0
 30
0.0
  9
$PUCSORGLEFT
 10
0.0
 20
0.0
 30
0.0
  9
$PUCSORGRIGHT
 10
0.0
 20
0.0
 30
0.0
  9
$PUCSORGFRONT
 10
0.0
 20
0.0
 30
0.0
  9
$PUCSORGBACK
 10
0.0
 20
0.0
 30
0.0
  9
$USERI1
 70
     0
  9
$USERI2
 70
     0
  9
$USERI3
 70
     0
  9
$USERI4
 70
     0
  9
$USERI5
 70
     0
  9
$USERR1
 40
0.0
  9
$USERR2
 40
0.0
  9
$USERR3
 40
0.0
  9
$USERR4
 40
0.0
  9
$USERR5
 40
0.0
  9
$WORLDVIEW
 70
     1
  9
$SHADEDGE
 70
     3
  9
$SHADEDIF
 70
    70
  9
$TILEMODE
 70
     1
  9
$MAXACTVP
 70
    16
  9
$PINSBASE
 10
0.0
 20
0.0
 30
0.0
  9
$PLIMCHECK
 70
     0
  9
$PEXTMIN
 10
1.000000000000000E+20
 20
1.000000000000000E+20
 30
1.000000000000000E+20
  9
$PEXTMAX
 10
-1.000000000000000E+20
 20
-1.000000000000000E+20
 30
-1.000000000000000E+20
  9
$PLIMMIN
 10
0.0
 20
0.0
  9
$PLIMMAX
 10
12.0
 20
9.0
  9
$UNITMODE
 70
     0
  9
$VISRETAIN
 70
     0
  9
$PLINEGEN
 70
     1
  9
$PSLTSCALE
 70
     0
  9
$TREEDEPTH
 70
  3020
  9
$CMLSTYLE
  2
STANDARD
  9
$CMLJUST
 70
     0
  9
$CMLSCALE
 40
1.0
  9
$PROXYGRAPHICS
 70
     0
  9
$MEASUREMENT
 70
     0
  9
$CELWEIGHT
370
    -1
  9
$ENDCAPS
280
     0
  9
$JOINSTYLE
280
     0
  9
$LWDISPLAY
290
     0
  9
$INSUNITS
 70
     0
  9
$HYPERLINKBASE
  1

  9
$STYLESHEET
  1

  9
$XEDIT
290
     1
  9
$CEPSNTYPE
380
     0
  9
$PSTYLEMODE
290
     1
  9
$FINGERPRINTGUID
  2
{0AE0CF45-D1C7-11D5-923F-00805F198AD5}
  9
$VERSIONGUID
  2
{0AE0CF47-D1C7-11D5-923F-00805F198AD5}
  9
$EXTNAMES
290
     1
  9
$PSVPSCALE
 40
0.0
  9
$OLESTARTUP
290
     0
  0
ENDSEC
  0
SECTION
  2
CLASSES
  0
CLASS
  1
LWPOLYLINE
  2
AcDbPolyline
  3
AutoCAD 2000
 90
        0
280
     0
281
     1
  0
CLASS
  1
IMAGE
  2
AcDbRasterImage
  3
ISM
 90
      127
280
     0
281
     1
  0
CLASS
  1
OLE2FRAME
  2
AcDbOle2Frame
  3
AutoCAD 2000
 90
        0
280
     0
281
     1
  0
CLASS
  1
HATCH
  2
AcDbHatch
  3
AutoCAD 2000
 90
        0
280
     0
281
     1
  0
CLASS
  1
DICTIONARYVAR
  2
AcDbDictionaryVar
  3
AutoCAD 2000
 90
        0
280
     0
281
     0
  0
CLASS
  1
RASTERVARIABLES
  2
AcDbRasterVariables
  3
ISM
 90
        0
280
     0
281
     0
  0
CLASS
  1
IMAGEDEF
  2
AcDbRasterImageDef
  3
ISM
 90
        0
280
     0
281
     0
  0
CLASS
  1
IMAGEDEF_REACTOR
  2
AcDbRasterImageDefReactor
  3
ISM
 90
        1
280
     0
281
     0
  0
CLASS
  1
IDBUFFER
  2
AcDbIdBuffer
  3
AutoCAD 2000
 90
        0
280
     0
281
     0
  0
CLASS
  1
SPATIAL_FILTER
  2
AcDbSpatialFilter
  3
AutoCAD 2000
 90
        0
280
     0
281
     0
  0
CLASS
  1
XRECORD
  2
AcDbXrecord
  3
AutoCAD 2000
 90
        0
280
     0
281
     0
  0
CLASS
  1
SORTENTSTABLE
  2
AcDbSortentsTable
  3
AutoCAD 2000
 90
        0
280
     0
281
     0
  0
CLASS
  1
LAYER_INDEX
  2
AcDbLayerIndex
  3
AutoCAD 2000
 90
        0
280
     0
281
     0
  0
CLASS
  1
SPATIAL_INDEX
  2
AcDbSpatialIndex
  3
AutoCAD 2000
 90
        0
280
     0
281
     0
  0
CLASS
  1
OBJECT_PTR
  2
CAseDLPNTableRecord
  3
ASE-LPNTableRecord
 90
        1
280
     1
281
     0
  0
CLASS
  1
LAYOUT
  2
AcDbLayout
  3
ObjectDBX Classes
 90
        0
280
     0
281
     0
  0
CLASS
  1
PLOTSETTINGS
  2
AcDbPlotSettings
  3
AutoCAD 2000
 90
        0
280
     0
281
     0
  0
CLASS
  1
ACDBDICTIONARYWDFLT
  2
AcDbDictionaryWithDefault
  3
AutoCAD 2000
 90
        0
280
     0
281
     0
  0
CLASS
  1
ACDBPLACEHOLDER
  2
AcDbPlaceHolder
  3
ObjectDBX Classes
 90
        0
280
     0
281
     0
  0
CLASS
  1
VBAPROJECT
  2
AcDbVbaProject
  3
ObjectDBX Classes
 90
        0
280
     0
281
     0
  0
CLASS
  1
WIPEOUT
  2
AcDbWipeout
  3
WipeOut|AutoCAD Express Tool|expresstools@autodesk.com
 90
      127
280
     0
281
     1
  0
CLASS
  1
WIPEOUTVARIABLES
  2
AcDbWipeoutVariables
  3
WipeOut|AutoCAD Express Tool|expresstools@autodesk.com
 90
        0
280
     0
281
     0
  0
CLASS
  1
RTEXT
  2
RText
  3
RText|AutoCAD Express Tool|expresstools@autodesk.com
 90
        0
280
     0
281
     1
  0
CLASS
  1
ARCALIGNEDTEXT
  2
AcDbArcAlignedText
  3
ATEXT|AutoCAD Express Tool|expresstools@autodesk.com
 90
        0
280
     0
281
     1
  0
CLASS
  1
LONG_TRANSACTION
  2
AcDbLongTransaction
  3
AutoCAD 2000
 90
        0
280
     1
281
     0
  0
CLASS
  1
LWPOLYLINE
  2
AcDbPolyline
  3
AutoCAD 2000
 90
        0
280
     0
281
     1
  0
CLASS
  1
HATCH
  2
AcDbHatch
  3
AutoCAD 2000
 90
        0
280
     0
281
     1
  0
CLASS
  1
XRECORD
  2
AcDbXrecord
  3
AutoCAD 2000
 90
        0
280
     0
281
     0
  0
ENDSEC
  0
SECTION
  2
TABLES
  0
TABLE
  2
VPORT
  5
7
330
0
100
AcDbSymbolTable
 70
     2
  0
VPORT
  5
E1
330
7
100
AcDbSymbolTableRecord
100
AcDbViewportTableRecord
  2
*Active
 70
     0
 10
0.0
 20
0.0
 11
1.0
 21
1.0
 12
102.6587082910449
 22
58.48017624518125
 13
0.0
 23
0.0
 14
1.0
 24
1.0
 15
0.0
 25
0.0
 16
0.0
 26
0.0
 36
1.0
 17
0.0
 27
0.0
 37
0.0
 40
98.99553909027696
 41
1.836842105263158
 42
50.0
 43
0.0
 44
0.0
 50
0.0
 51
0.0
 71
     0
 72
   100
 73
     1
 74
     1
 75
     0
 76
     0
 77
     0
 78
     0
281
     0
 65
     1
110
0.0
120
0.0
130
0.0
111
1.0
121
0.0
131
0.0
112
0.0
122
1.0
132
0.0
 79
     0
146
0.0
  0
ENDTAB
  0
TABLE
  2
LTYPE
  5
4
330
0
100
AcDbSymbolTable
 70
     1
  0
LTYPE
  5
11
330
4
100
AcDbSymbolTableRecord
100
AcDbLinetypeTableRecord
  2
BYBLOCK
 70
     0
  3

 72
    65
 73
     0
 40
0.0
  0
LTYPE
  5
12
330
4
100
AcDbSymbolTableRecord
100
AcDbLinetypeTableRecord
  2
BYLAYER
 70
     0
  3

 72
    65
 73
     0
 40
0.0
  0
LTYPE
  5
13
330
4
100
AcDbSymbolTableRecord
100
AcDbLinetypeTableRecord
  2
CONTINUOUS
 70
     0
  3
Solid line
 72
    65
 73
     0
 40
0.0
  0
ENDTAB
  0
TABLE
  2
LAYER
  5
2
330
0
100
AcDbSymbolTable
 70
     2
  0
LAYER
  5
14
330
2
100
AcDbSymbolTableRecord
100
AcDbLayerTableRecord
  2
0
 70
     0
 62
     7
  6
CONTINUOUS
370
    -3
390
0
  0
LAYER
  5
21
330
2
100
AcDbSymbolTableRecord
100
AcDbLayerTableRecord
  2
LAYER_1
 70
     0
 62
     5
  6
CONTINUOUS
370
    -3
390
0
  0
ENDTAB
  0
TABLE
  2
STYLE
  5
3
330
0
100
AcDbSymbolTable
 70
     5
  0
STYLE
  5
17
330
3
100
AcDbSymbolTableRecord
100
AcDbTextStyleTableRecord
  2
STANDARD
 70
     0
 40
0.0
 41
1.0
 50
0.0
 71
     0
 42
0.2
  3
txt
  4

  0
STYLE
  5
1D
330
3
100
AcDbSymbolTableRecord
100
AcDbTextStyleTableRecord
  2
STD
 70
     0
 40
0.0
 41
1.0
 50
0.0
 71
     0
 42
0.2
  3
txt
  4

  0
STYLE
  5
1E
330
3
100
AcDbSymbolTableRecord
100
AcDbTextStyleTableRecord
  2
TATESTD
 70
     4
 40
0.0
 41
1.0
 50
0.0
 71
     0
 42
0.2
  3
txt
  4

  0
STYLE
  5
1F
330
3
100
AcDbSymbolTableRecord
100
AcDbTextStyleTableRecord
  2
KANJISTD
 70
     0
 40
0.0
 41
1.0
 50
0.0
 71
     0
 42
0.2
  3
txt
  4
extfont
  0
STYLE
  5
20
330
3
100
AcDbSymbolTableRecord
100
AcDbTextStyleTableRecord
  2
KANJITATE
 70
     4
 40
0.0
 41
1.0
 50
0.0
 71
     0
 42
0.2
  3
txt
  4
extfont
  0
ENDTAB
  0
TABLE
  2
VIEW
  5
5
330
0
100
AcDbSymbolTable
 70
     0
  0
ENDTAB
  0
TABLE
  2
UCS
  5
6
330
0
100
AcDbSymbolTable
 70
     0
  0
ENDTAB
  0
TABLE
  2
APPID
  5
8
330
0
100
AcDbSymbolTable
 70
     1
  0
APPID
  5
16
330
8
100
AcDbSymbolTableRecord
100
AcDbRegAppTableRecord
  2
ACAD
 70
     0
  0
ENDTAB
  0
TABLE
  2
DIMSTYLE
  5
9
330
0
100
AcDbSymbolTable
 70
     1
100
AcDbDimStyleTable
  0
DIMSTYLE
105
18
330
9
100
AcDbSymbolTableRecord
100
AcDbDimStyleTableRecord
  2
STANDARD
 70
     0
  3

  4

289
     0
340
17
  0
ENDTAB
  0
TABLE
  2
BLOCK_RECORD
  5
1
330
0
100
AcDbSymbolTable
 70
     1
  0
BLOCK_RECORD
  5
A
330
1
100
AcDbSymbolTableRecord
100
AcDbBlockTableRecord
  2
*MODEL_SPACE
340
DC
  0
BLOCK_RECORD
  5
B
330
1
100
AcDbSymbolTableRecord
100
AcDbBlockTableRecord
  2
*PAPER_SPACE
340
DD
  0
BLOCK_RECORD
  5
22
330
1
100
AcDbSymbolTableRecord
100
AcDbBlockTableRecord
  2
AI9-BLK1
340
0
102
{BLKREFS
331
23
102
}
  0
ENDTAB
  0
ENDSEC
  0
SECTION
  2
BLOCKS
  0
BLOCK
  5
D
330
A
100
AcDbEntity
  8
0
100
AcDbBlockBegin
  2
*MODEL_SPACE
 70
     0
 10
0.0
 20
0.0
 30
0.0
  3
*MODEL_SPACE
  1

  4

  0
ENDBLK
  5
E
330
A
100
AcDbEntity
  8
0
100
AcDbBlockEnd
  0
BLOCK
  5
F
330
B
100
AcDbEntity
 67
     1
  8
0
100
AcDbBlockBegin
  2
*PAPER_SPACE
 70
     0
 10
0.0
 20
0.0
 30
0.0
  3
*PAPER_SPACE
  1

  4

  0
ENDBLK
  5
10
330
B
100
AcDbEntity
 67
     1
  8
0
100
AcDbBlockEnd
  0
BLOCK
  5
24
330
22
100
AcDbEntity
  8
LAYER_1
 62
     7
100
AcDbBlockBegin
  2
AI9-BLK1
 70
     0
 10
0.0
 20
0.0
 30
0.0
  3
AI9-BLK1
  1

  4

  0
HATCH
  5
30
330
22
100
AcDbEntity
  8
LAYER_1
 62
     7
100
AcDbHatch
 10
0.0
 20
0.0
 30
0.0
210
0.0
220
0.0
230
1.0
  2
SOLID
 70
     1
 71
     0
 91
        1
 92
        1
 93
        1
 72
     4
 94
        3
 73
     0
 74
     0
 95
       59
 96
       55
 40
0.0
 40
0.0
 40
0.0
 40
0.0
 40
1.0
 40
1.0
 40
1.0
 40
2.0
 40
2.0
 40
2.0
 40
3.0
 40
3.0
 40
3.0
 40
4.0
 40
4.0
 40
4.0
 40
5.0
 40
5.0
 40
5.0
 40
6.0
 40
6.0
 40
6.0
 40
7.0
 40
7.0
 40
7.0
 40
8.0
 40
8.0
 40
8.0
 40
9.0
 40
9.0
 40
9.0
 40
10.0
 40
10.0
 40
10.0
 40
11.0
 40
11.0
 40
11.0
 40
12.0
 40
12.0
 40
12.0
 40
13.0
 40
13.0
 40
13.0
 40
14.0
 40
14.0
 40
14.0
 40
15.0
 40
15.0
 40
15.0
 40
16.0
 40
16.0
 40
16.0
 40
17.0
 40
17.0
 40
17.0
 40
18.0
 40
18.0
 40
18.0
 40
18.0
 10
-1.072888861762153
 20
9.815593804253471
 10
-1.072888861762153
 20
9.815593804253471
 10
0.3521748860677083
 20
10.13650444878472
 10
0.3521748860677083
 20
10.13650444878472
 10
0.4227993435329861
 20
10.15235188802083
 10
0.7285515679253471
 20
10.21522488064236
 10
0.9536885579427082
 20
10.2660400390625
 10
0.9536885579427082
 20
10.2660400390625
 10
0.9538608127170138
 20
10.27189670138889
 10
0.9538608127170138
 20
10.27189670138889
 10
0.9538608127170138
 20
10.27189670138889
 10
-1.064792887369792
 20
10.42055257161458
 10
-1.064792887369792
 20
10.42055257161458
 10
-1.064792887369792
 20
10.42055257161458
 10
-1.061003282335069
 20
10.70804578993056
 10
-1.061003282335069
 20
10.70804578993056
 10
-1.061003282335069
 20
10.70804578993056
 10
0.9702250162760416
 20
11.76879069010417
 10
0.9702250162760416
 20
11.76879069010417
 10
0.9702250162760416
 20
11.76879069010417
 10
0.9703972710503471
 20
11.77464735243055
 10
0.9703972710503471
 20
11.77464735243055
 10
0.7485331217447916
 20
11.72469346788194
 10
0.4426086425781249
 20
11.64993489583333
 10
0.3719841851128472
 20
11.63391520182292
 10
0.3719841851128472
 20
11.63391520182292
 10
-1.052907307942708
 20
11.31300455729167
 10
-1.052907307942708
 20
11.31300455729167
 10
-1.052907307942708
 20
11.31300455729167
 10
-1.049289957682292
 20
11.59464111328125
 10
-1.049289957682292
 20
11.59464111328125
 10
-1.049289957682292
 20
11.59464111328125
 10
1.363827175564236
 20
12.13810492621528
 10
1.363827175564236
 20
12.13810492621528
 10
1.363827175564236
 20
12.13810492621528
 10
1.358315022786458
 20
11.72176513671875
 10
1.358315022786458
 20
11.72176513671875
 10
1.358315022786458
 20
11.72176513671875
 10
-0.6897942437065971
 20
10.64827338324653
 10
-0.6897942437065971
 20
10.64827338324653
 10
-0.6897942437065971
 20
10.64827338324653
 10
-0.6899664984809028
 20
10.64241672092014
 10
-0.6899664984809028
 20
10.64241672092014
 10
-0.6899664984809028
 20
10.64241672092014
 10
1.342123074001736
 20
10.49083251953125
 10
1.342123074001736
 20
10.49083251953125
 10
1.342123074001736
 20
10.49083251953125
 10
1.336610921223958
 20
10.07742106119792
 10
1.336610921223958
 20
10.07742106119792
 10
1.336610921223958
 20
10.07742106119792
 10
-1.076506212022569
 20
9.533957248263889
 10
-1.076506212022569
 20
9.533957248263889
 10
-1.076506212022569
 20
9.533957248263889
 10
-1.072888861762153
 20
9.815593804253471
 10
-1.072888861762153
 20
9.815593804253471
 97
        0
 75
     0
 76
     1
 98
        1
 10
0.0
 20
0.0
  0
HATCH
  5
2F
330
22
100
AcDbEntity
  8
LAYER_1
 62
     7
100
AcDbHatch
 10
0.0
 20
0.0
 30
0.0
210
0.0
220
0.0
230
1.0
  2
SOLID
 70
     1
 71
     0
 91
        1
 92
        1
 93
        1
 72
     4
 94
        3
 73
     0
 74
     0
 95
       41
 96
       37
 40
0.0
 40
0.0
 40
0.0
 40
0.0
 40
1.0
 40
1.0
 40
1.0
 40
2.0
 40
2.0
 40
2.0
 40
3.0
 40
3.0
 40
3.0
 40
4.0
 40
4.0
 40
4.0
 40
5.0
 40
5.0
 40
5.0
 40
6.0
 40
6.0
 40
6.0
 40
7.0
 40
7.0
 40
7.0
 40
8.0
 40
8.0
 40
8.0
 40
9.0
 40
9.0
 40
9.0
 40
10.0
 40
10.0
 40
10.0
 40
11.0
 40
11.0
 40
11.0
 40
12.0
 40
12.0
 40
12.0
 40
12.0
 10
-1.103894721137153
 20
7.473445638020833
 10
-1.103894721137153
 20
7.473445638020833
 10
-1.082879638671875
 20
9.060773383246527
 10
-1.082879638671875
 20
9.060773383246527
 10
-1.082879638671875
 20
9.060773383246527
 10
1.330237494574653
 20
9.604237196180554
 10
1.330237494574653
 20
9.604237196180554
 10
1.330237494574653
 20
9.604237196180554
 10
1.309566921657986
 20
8.037924533420139
 10
1.309566921657986
 20
8.037924533420139
 10
1.309566921657986
 20
8.037924533420139
 10
1.020523410373264
 20
7.972812228732638
 10
1.020523410373264
 20
7.972812228732638
 10
1.020523410373264
 20
7.972812228732638
 10
1.037404378255208
 20
9.248703342013888
 10
1.037404378255208
 20
9.248703342013888
 10
1.037404378255208
 20
9.248703342013888
 10
0.2980868869357639
 20
9.082132975260416
 10
0.2980868869357639
 20
9.082132975260416
 10
0.2980868869357639
 20
9.082132975260416
 10
0.2824117024739583
 20
7.905116102430555
 10
0.2824117024739583
 20
7.905116102430555
 10
0.2824117024739583
 20
7.905116102430555
 10
-0.0066318088107639
 20
7.840003797743055
 10
-0.0066318088107639
 20
7.840003797743055
 10
-0.0066318088107639
 20
7.840003797743055
 10
0.0090433756510417
 20
9.017020670572915
 10
0.0090433756510417
 20
9.017020670572915
 10
0.0090433756510417
 20
9.017020670572915
 10
-0.797625732421875
 20
8.835291883680554
 10
-0.797625732421875
 20
8.835291883680554
 10
-0.797625732421875
 20
8.835291883680554
 10
-0.8148512098524305
 20
7.538557942708333
 10
-0.8148512098524305
 20
7.538557942708333
 10
-0.8148512098524305
 20
7.538557942708333
 10
-1.103894721137153
 20
7.473445638020833
 10
-1.103894721137153
 20
7.473445638020833
 97
        0
 75
     0
 76
     1
 98
        1
 10
0.0
 20
0.0
  0
HATCH
  5
2E
330
22
100
AcDbEntity
  8
LAYER_1
 62
     7
100
AcDbHatch
 10
0.0
 20
0.0
 30
0.0
210
0.0
220
0.0
230
1.0
  2
SOLID
 70
     1
 71
     0
 91
        1
 92
        1
 93
        1
 72
     4
 94
        3
 73
     0
 74
     0
 95
       41
 96
       37
 40
0.0
 40
0.0
 40
0.0
 40
0.0
 40
1.0
 40
1.0
 40
1.0
 40
2.0
 40
2.0
 40
2.0
 40
3.0
 40
3.0
 40
3.0
 40
4.0
 40
4.0
 40
4.0
 40
5.0
 40
5.0
 40
5.0
 40
6.0
 40
6.0
 40
6.0
 40
7.0
 40
7.0
 40
7.0
 40
8.0
 40
8.0
 40
8.0
 40
9.0
 40
9.0
 40
9.0
 40
10.0
 40
10.0
 40
10.0
 40
11.0
 40
11.0
 40
11.0
 40
12.0
 40
12.0
 40
12.0
 40
12.0
 10
1.285278998480903
 20
6.21081814236111
 10
1.285278998480903
 20
6.21081814236111
 10
1.281661648220486
 20
5.929353841145833
 10
1.281661648220486
 20
5.929353841145833
 10
1.281661648220486
 20
5.929353841145833
 10
-1.131455485026042
 20
5.385890028211805
 10
-1.131455485026042
 20
5.385890028211805
 10
-1.131455485026042
 20
5.385890028211805
 10
-1.127149115668403
 20
5.712312825520833
 10
-1.127149115668403
 20
5.712312825520833
 10
-1.127149115668403
 20
5.712312825520833
 10
0.8365553114149305
 20
7.244519042968749
 10
0.8365553114149305
 20
7.244519042968749
 10
0.8365553114149305
 20
7.244519042968749
 10
0.8367275661892361
 20
7.250547960069444
 10
0.8367275661892361
 20
7.250547960069444
 10
0.8367275661892361
 20
7.250547960069444
 10
-1.112679714626736
 20
6.811470540364582
 10
-1.112679714626736
 20
6.811470540364582
 10
-1.112679714626736
 20
6.811470540364582
 10
-1.108890109592014
 20
7.093107096354166
 10
-1.108890109592014
 20
7.093107096354166
 10
-1.108890109592014
 20
7.093107096354166
 10
1.304227023654514
 20
7.636570909288194
 10
1.304227023654514
 20
7.636570909288194
 10
1.304227023654514
 20
7.636570909288194
 10
1.299576144748264
 20
7.292061360677082
 10
1.299576144748264
 20
7.292061360677082
 10
1.299576144748264
 20
7.292061360677082
 10
-0.6639560275607639
 20
5.777941894531249
 10
-0.6639560275607639
 20
5.777941894531249
 10
-0.6639560275607639
 20
5.777941894531249
 10
-0.6639560275607639
 20
5.771912977430555
 10
-0.6639560275607639
 20
5.771912977430555
 10
-0.6639560275607639
 20
5.771912977430555
 10
1.285278998480903
 20
6.21081814236111
 10
1.285278998480903
 20
6.21081814236111
 97
        0
 75
     0
 76
     1
 98
        1
 10
0.0
 20
0.0
  0
HATCH
  5
2D
330
22
100
AcDbEntity
  8
LAYER_1
 62
     7
100
AcDbHatch
 10
0.0
 20
0.0
 30
0.0
210
0.0
220
0.0
230
1.0
  2
SOLID
 70
     1
 71
     0
 91
        2
 92
       16
 93
        1
 72
     4
 94
        3
 73
     0
 74
     0
 95
       20
 96
       16
 40
0.0
 40
0.0
 40
0.0
 40
0.0
 40
1.0
 40
1.0
 40
1.0
 40
2.0
 40
2.0
 40
2.0
 40
3.0
 40
3.0
 40
3.0
 40
4.0
 40
4.0
 40
4.0
 40
5.0
 40
5.0
 40
5.0
 40
5.0
 10
-0.8627380371093749
 20
4.687913682725694
 10
-0.8627380371093749
 20
4.687913682725694
 10
-0.8701449924045138
 20
4.124985080295138
 10
-0.8701449924045138
 20
4.124985080295138
 10
-0.875140380859375
 20
3.747574869791666
 10
-0.5456169976128472
 20
3.576870388454861
 10
0.0626146104600694
 20
3.713812934027777
 10
0.6710184733072916
 20
3.850927734375
 10
0.9802157931857638
 20
4.168393283420139
 10
0.9853834364149304
 20
4.563717990451388
 10
0.9853834364149304
 20
4.563717990451388
 10
0.9926181369357638
 20
5.105803765190972
 10
0.9926181369357638
 20
5.105803765190972
 10
0.9926181369357638
 20
5.105803765190972
 10
-0.8627380371093749
 20
4.687913682725694
 10
-0.8627380371093749
 20
4.687913682725694
 97
        0
 92
        1
 93
        1
 72
     4
 94
        3
 73
     0
 74
     0
 95
       20
 96
       16
 40
0.0
 40
0.0
 40
0.0
 40
0.0
 40
1.0
 40
1.0
 40
1.0
 40
2.0
 40
2.0
 40
2.0
 40
3.0
 40
3.0
 40
3.0
 40
4.0
 40
4.0
 40
4.0
 40
5.0
 40
5.0
 40
5.0
 40
5.0
 10
1.275288221571181
 20
5.459098307291666
 10
1.275288221571181
 20
5.459098307291666
 10
1.263747151692708
 20
4.587661404079861
 10
1.263747151692708
 20
4.587661404079861
 10
1.256340196397569
 20
4.027488878038194
 10
0.7745435926649305
 20
3.575664605034722
 10
0.0788065592447917
 20
3.418912760416666
 10
-0.4622456868489583
 20
3.297128634982639
 10
-1.158499484592014
 20
3.349321831597222
 10
-1.149197726779514
 20
4.056083170572916
 10
-1.149197726779514
 20
4.056083170572916
 10
-1.137828911675347
 20
4.915634494357638
 10
-1.137828911675347
 20
4.915634494357638
 10
-1.137828911675347
 20
4.915634494357638
 10
1.275288221571181
 20
5.459098307291666
 10
1.275288221571181
 20
5.459098307291666
 97
        0
 75
     0
 76
     1
 98
        1
 10
0.0
 20
0.0
  0
HATCH
  5
2C
330
22
100
AcDbEntity
  8
LAYER_1
 62
     7
100
AcDbHatch
 10
0.0
 20
0.0
 30
0.0
210
0.0
220
0.0
230
1.0
  2
SOLID
 70
     1
 71
     0
 91
        1
 92
        1
 93
        1
 72
     4
 94
        3
 73
     0
 74
     0
 95
       17
 96
       13
 40
0.0
 40
0.0
 40
0.0
 40
0.0
 40
1.0
 40
1.0
 40
1.0
 40
2.0
 40
2.0
 40
2.0
 40
3.0
 40
3.0
 40
3.0
 40
4.0
 40
4.0
 40
4.0
 40
4.0
 10
-1.170729573567708
 20
2.432754177517361
 10
-1.170729573567708
 20
2.432754177517361
 10
-1.166767713758681
 20
2.723347981770833
 10
-1.166767713758681
 20
2.723347981770833
 10
-1.166767713758681
 20
2.723347981770833
 10
1.246349419487847
 20
3.266811794704861
 10
1.246349419487847
 20
3.266811794704861
 10
1.246349419487847
 20
3.266811794704861
 10
1.242387559678819
 20
2.976217990451389
 10
1.242387559678819
 20
2.976217990451389
 10
1.242387559678819
 20
2.976217990451389
 10
-1.170729573567708
 20
2.432754177517361
 10
-1.170729573567708
 20
2.432754177517361
 97
        0
 75
     0
 76
     1
 98
        1
 10
0.0
 20
0.0
  0
HATCH
  5
2B
330
22
100
AcDbEntity
  8
LAYER_1
 62
     7
100
AcDbHatch
 10
0.0
 20
0.0
 30
0.0
210
0.0
220
0.0
230
1.0
  2
SOLID
 70
     1
 71
     0
 91
        1
 92
        1
 93
        1
 72
     4
 94
        3
 73
     0
 74
     0
 95
       41
 96
       37
 40
0.0
 40
0.0
 40
0.0
 40
0.0
 40
1.0
 40
1.0
 40
1.0
 40
2.0
 40
2.0
 40
2.0
 40
3.0
 40
3.0
 40
3.0
 40
4.0
 40
4.0
 40
4.0
 40
5.0
 40
5.0
 40
5.0
 40
6.0
 40
6.0
 40
6.0
 40
7.0
 40
7.0
 40
7.0
 40
8.0
 40
8.0
 40
8.0
 40
9.0
 40
9.0
 40
9.0
 40
10.0
 40
10.0
 40
10.0
 40
11.0
 40
11.0
 40
11.0
 40
12.0
 40
12.0
 40
12.0
 40
12.0
 10
1.217066107855903
 20
1.053510199652778
 10
1.217066107855903
 20
1.053510199652778
 10
1.213276502821181
 20
0.7718736436631943
 10
1.213276502821181
 20
0.7718736436631943
 10
1.213276502821181
 20
0.7718736436631943
 10
-1.199840630425347
 20
0.2284098307291667
 10
-1.199840630425347
 20
0.2284098307291667
 10
-1.199840630425347
 20
0.2284098307291667
 10
-1.195534261067708
 20
0.5548326280381944
 10
-1.195534261067708
 20
0.5548326280381944
 10
-1.195534261067708
 20
0.5548326280381944
 10
0.7683424207899305
 20
2.087038845486111
 10
0.7683424207899305
 20
2.087038845486111
 10
0.7683424207899305
 20
2.087038845486111
 10
0.7683424207899305
 20
2.093067762586805
 10
0.7683424207899305
 20
2.093067762586805
 10
0.7683424207899305
 20
2.093067762586805
 10
-1.181064860026042
 20
1.65416259765625
 10
-1.181064860026042
 20
1.65416259765625
 10
-1.181064860026042
 20
1.65416259765625
 10
-1.177275254991319
 20
1.935626898871528
 10
-1.177275254991319
 20
1.935626898871528
 10
-1.177275254991319
 20
1.935626898871528
 10
1.235841878255208
 20
2.479090711805555
 10
1.235841878255208
 20
2.479090711805555
 10
1.235841878255208
 20
2.479090711805555
 10
1.231363254123264
 20
2.134581163194445
 10
1.231363254123264
 20
2.134581163194445
 10
1.231363254123264
 20
2.134581163194445
 10
-0.7323411729600694
 20
0.6204616970486111
 10
-0.7323411729600694
 20
0.6204616970486111
 10
-0.7323411729600694
 20
0.6204616970486111
 10
-0.7323411729600694
 20
0.6144327799479166
 10
-0.7323411729600694
 20
0.6144327799479166
 10
-0.7323411729600694
 20
0.6144327799479166
 10
1.217066107855903
 20
1.053510199652778
 10
1.217066107855903
 20
1.053510199652778
 97
        0
 75
     0
 76
     1
 98
        1
 10
0.0
 20
0.0
  0
HATCH
  5
2A
330
22
100
AcDbEntity
  8
LAYER_1
 62
     7
100
AcDbHatch
 10
0.0
 20
0.0
 30
0.0
210
0.0
220
0.0
230
1.0
  2
SOLID
 70
     1
 71
     0
 91
        1
 92
        1
 93
        1
 72
     4
 94
        3
 73
     0
 74
     0
 95
       56
 96
       52
 40
0.0
 40
0.0
 40
0.0
 40
0.0
 40
1.0
 40
1.0
 40
1.0
 40
2.0
 40
2.0
 40
2.0
 40
3.0
 40
3.0
 40
3.0
 40
4.0
 40
4.0
 40
4.0
 40
5.0
 40
5.0
 40
5.0
 40
6.0
 40
6.0
 40
6.0
 40
7.0
 40
7.0
 40
7.0
 40
8.0
 40
8.0
 40
8.0
 40
9.0
 40
9.0
 40
9.0
 40
10.0
 40
10.0
 40
10.0
 40
11.0
 40
11.0
 40
11.0
 40
12.0
 40
12.0
 40
12.0
 40
13.0
 40
13.0
 40
13.0
 40
14.0
 40
14.0
 40
14.0
 40
15.0
 40
15.0
 40
15.0
 40
16.0
 40
16.0
 40
16.0
 40
17.0
 40
17.0
 40
17.0
 40
17.0
 10
0.0722608778211806
 20
-0.8735039605034721
 10
0.0722608778211806
 20
-0.8735039605034721
 10
0.059686279296875
 20
-1.816943359375
 10
0.059686279296875
 20
-1.816943359375
 10
0.059686279296875
 20
-1.816943359375
 10
-1.230846489800347
 20
-2.107709418402778
 10
-1.230846489800347
 20
-2.107709418402778
 10
-1.230846489800347
 20
-2.107709418402778
 10
-1.228434922960069
 20
-1.918918185763889
 10
-1.228434922960069
 20
-1.918918185763889
 10
-1.228434922960069
 20
-1.918918185763889
 10
-0.9149312337239582
 20
-1.779736328125
 10
-0.9149312337239582
 20
-1.779736328125
 10
-1.141446261935764
 20
-1.684479437934028
 10
-1.285795762803819
 20
-1.448145887586805
 10
-1.281833902994792
 20
-1.154623752170139
 10
-1.277010769314236
 20
-0.7861707899305555
 10
-1.12335951063368
 20
-0.5725748697916666
 10
-1.000886366102431
 20
-0.4344265407986111
 10
-0.6470750596788194
 20
-0.0261827256944444
 10
-0.2334913465711805
 20
0.0757921006944444
 10
0.0219624837239583
 20
0.1333251953125
 10
0.610040283203125
 20
0.2657891167534722
 10
1.268053521050347
 20
0.0974962022569444
 10
1.258751763237847
 20
-0.603408474392361
 10
1.253411865234375
 20
-1.004762098524306
 10
0.9921013726128471
 20
-1.50843505859375
 10
0.4500155978732638
 20
-1.693264431423611
 10
0.4500155978732638
 20
-1.693264431423611
 10
0.4538052029079861
 20
-1.411800130208333
 10
0.4538052029079861
 20
-1.411800130208333
 10
0.875140380859375
 20
-1.224214680989583
 10
0.9667799207899305
 20
-0.8900404188368055
 10
0.9698805067274304
 20
-0.6535346137152778
 10
0.9750481499565972
 20
-0.2671671549479167
 10
0.6329501681857639
 20
-0.0275607638888889
 10
0.0011196560329861
 20
-0.1700154622395833
 10
-0.4894619411892361
 20
-0.2804307725694444
 10
-0.9955464680989582
 20
-0.5377794053819444
 10
-1.003125678168403
 20
-1.109837510850694
 10
-1.004675971137153
 20
-1.217668999565972
 10
-0.9934794108072916
 20
-1.388373480902778
 10
-0.8544698079427082
 20
-1.515325249565972
 10
-0.6889329698350694
 20
-1.666048177083333
 10
-0.4744757758246527
 20
-1.665531412760417
 10
-0.2155768500434028
 20
-1.607309299045139
 10
-0.2155768500434028
 20
-1.607309299045139
 10
-0.2067918565538194
 20
-0.9363769531249999
 10
-0.2067918565538194
 20
-0.9363769531249999
 10
-0.2067918565538194
 20
-0.9363769531249999
 10
0.0722608778211806
 20
-0.8735039605034721
 10
0.0722608778211806
 20
-0.8735039605034721
 97
        0
 75
     0
 76
     1
 98
        1
 10
0.0
 20
0.0
  0
HATCH
  5
29
330
22
100
AcDbEntity
  8
LAYER_1
 62
     7
100
AcDbHatch
 10
0.0
 20
0.0
 30
0.0
210
0.0
220
0.0
230
1.0
  2
SOLID
 70
     1
 71
     0
 91
        2
 92
       16
 93
        1
 72
     4
 94
        3
 73
     0
 74
     0
 95
       20
 96
       16
 40
0.0
 40
0.0
 40
0.0
 40
0.0
 40
1.0
 40
1.0
 40
1.0
 40
2.0
 40
2.0
 40
2.0
 40
3.0
 40
3.0
 40
3.0
 40
4.0
 40
4.0
 40
4.0
 40
5.0
 40
5.0
 40
5.0
 40
5.0
 10
0.0452168782552083
 20
-3.417879231770833
 10
0.0452168782552083
 20
-3.417879231770833
 10
0.0376376681857639
 20
-3.995966254340277
 10
0.0376376681857639
 20
-3.995966254340277
 10
0.0341925726996528
 20
-4.256415473090278
 10
0.1392679850260417
 20
-4.409033203125
 10
0.4653462727864583
 20
-4.335480414496527
 10
0.7710984971788194
 20
-4.266750759548611
 10
0.8711785210503471
 20
-4.05901150173611
 10
0.8742791069878472
 20
-3.819405110677083
 10
0.8742791069878472
 20
-3.819405110677083
 10
0.8820305718315972
 20
-3.229432508680555
 10
0.8820305718315972
 20
-3.229432508680555
 10
0.8820305718315972
 20
-3.229432508680555
 10
0.0452168782552083
 20
-3.417879231770833
 10
0.0452168782552083
 20
-3.417879231770833
 97
        0
 92
        1
 93
        1
 72
     4
 94
        3
 73
     0
 74
     0
 95
       26
 96
       22
 40
0.0
 40
0.0
 40
0.0
 40
0.0
 40
1.0
 40
1.0
 40
1.0
 40
2.0
 40
2.0
 40
2.0
 40
3.0
 40
3.0
 40
3.0
 40
4.0
 40
4.0
 40
4.0
 40
5.0
 40
5.0
 40
5.0
 40
6.0
 40
6.0
 40
6.0
 40
7.0
 40
7.0
 40
7.0
 40
7.0
 10
-1.252033827039931
 20
-3.710023328993055
 10
-1.252033827039931
 20
-3.710023328993055
 10
-1.248244222005208
 20
-3.419601779513889
 10
-1.248244222005208
 20
-3.419601779513889
 10
-1.248244222005208
 20
-3.419601779513889
 10
1.164872911241319
 20
-2.876137966579861
 10
1.164872911241319
 20
-2.876137966579861
 10
1.164872911241319
 20
-2.876137966579861
 10
1.152126057942708
 20
-3.843520779079861
 10
1.152126057942708
 20
-3.843520779079861
 10
1.146786159939236
 20
-4.241773817274305
 10
0.8546420627170138
 20
-4.546492513020833
 10
0.4646572536892361
 20
-4.634342447916667
 10
0.1285881890190972
 20
-4.709962293836806
 10
-0.248822021484375
 20
-4.62486843532986
 10
-0.242620849609375
 20
-4.157541232638889
 10
-0.242620849609375
 20
-4.157541232638889
 10
-0.2336636013454861
 20
-3.480752224392361
 10
-0.2336636013454861
 20
-3.480752224392361
 10
-0.2336636013454861
 20
-3.480752224392361
 10
-1.252033827039931
 20
-3.710023328993055
 10
-1.252033827039931
 20
-3.710023328993055
 97
        0
 75
     0
 76
     1
 98
        1
 10
0.0
 20
0.0
  0
HATCH
  5
28
330
22
100
AcDbEntity
  8
LAYER_1
 62
     7
100
AcDbHatch
 10
0.0
 20
0.0
 30
0.0
210
0.0
220
0.0
230
1.0
  2
SOLID
 70
     1
 71
     0
 91
        1
 92
        1
 93
        1
 72
     4
 94
        3
 73
     0
 74
     0
 95
       23
 96
       19
 40
0.0
 40
0.0
 40
0.0
 40
0.0
 40
1.0
 40
1.0
 40
1.0
 40
2.0
 40
2.0
 40
2.0
 40
3.0
 40
3.0
 40
3.0
 40
4.0
 40
4.0
 40
4.0
 40
5.0
 40
5.0
 40
5.0
 40
6.0
 40
6.0
 40
6.0
 40
6.0
 10
-0.9891730414496527
 20
-5.612749565972222
 10
-0.9891730414496527
 20
-5.612749565972222
 10
-1.003642442491319
 20
-6.702950032552082
 10
-1.003642442491319
 20
-6.702950032552082
 10
-1.003642442491319
 20
-6.702950032552082
 10
-1.292685953776042
 20
-6.767890082465277
 10
-1.292685953776042
 20
-6.767890082465277
 10
-1.292685953776042
 20
-6.767890082465277
 10
-1.274254692925347
 20
-5.387268066406249
 10
-1.274254692925347
 20
-5.387268066406249
 10
-1.274254692925347
 20
-5.387268066406249
 10
1.13886244032118
 20
-4.843804253472221
 10
1.13886244032118
 20
-4.843804253472221
 10
1.13886244032118
 20
-4.843804253472221
 10
1.134900580512153
 20
-5.134398057725694
 10
1.134900580512153
 20
-5.134398057725694
 10
1.134900580512153
 20
-5.134398057725694
 10
-0.9891730414496527
 20
-5.612749565972222
 10
-0.9891730414496527
 20
-5.612749565972222
 97
        0
 75
     0
 76
     1
 98
        1
 10
0.0
 20
0.0
  0
HATCH
  5
27
330
22
100
AcDbEntity
  8
LAYER_1
 62
     7
100
AcDbHatch
 10
0.0
 20
0.0
 30
0.0
210
0.0
220
0.0
230
1.0
  2
SOLID
 70
     1
 71
     0
 91
        2
 92
       16
 93
        1
 72
     4
 94
        3
 73
     0
 74
     0
 95
       17
 96
       13
 40
0.0
 40
0.0
 40
0.0
 40
0.0
 40
1.0
 40
1.0
 40
1.0
 40
2.0
 40
2.0
 40
2.0
 40
3.0
 40
3.0
 40
3.0
 40
4.0
 40
4.0
 40
4.0
 40
4.0
 10
-0.3194464789496527
 20
-7.925442165798611
 10
-0.3194464789496527
 20
-7.925442165798611
 10
0.746810574001736
 20
-7.368714735243055
 10
0.746810574001736
 20
-7.368714735243055
 10
0.746810574001736
 20
-7.368714735243055
 10
0.7469828287760416
 20
-7.362858072916666
 10
0.7469828287760416
 20
-7.362858072916666
 10
0.7469828287760416
 20
-7.362858072916666
 10
-0.3106614854600694
 20
-7.257610405815972
 10
-0.3106614854600694
 20
-7.257610405815972
 10
-0.3106614854600694
 20
-7.257610405815972
 10
-0.3194464789496527
 20
-7.925442165798611
 10
-0.3194464789496527
 20
-7.925442165798611
 97
        0
 92
        1
 93
        1
 72
     4
 94
        3
 73
     0
 74
     0
 95
       29
 96
       25
 40
0.0
 40
0.0
 40
0.0
 40
0.0
 40
1.0
 40
1.0
 40
1.0
 40
2.0
 40
2.0
 40
2.0
 40
3.0
 40
3.0
 40
3.0
 40
4.0
 40
4.0
 40
4.0
 40
5.0
 40
5.0
 40
5.0
 40
6.0
 40
6.0
 40
6.0
 40
7.0
 40
7.0
 40
7.0
 40
8.0
 40
8.0
 40
8.0
 40
8.0
 10
-0.5984992133246527
 20
-7.232805718315972
 10
-0.5984992133246527
 20
-7.232805718315972
 10
-1.297853597005208
 20
-7.166315375434027
 10
-1.297853597005208
 20
-7.166315375434027
 10
-1.297853597005208
 20
-7.166315375434027
 10
-1.29389173719618
 20
-6.866764322916666
 10
-1.29389173719618
 20
-6.866764322916666
 10
-1.29389173719618
 20
-6.866764322916666
 10
1.108545600043403
 20
-7.132036675347222
 10
1.108545600043403
 20
-7.132036675347222
 10
1.108545600043403
 20
-7.132036675347222
 10
1.104066975911458
 20
-7.461560058593749
 10
1.104066975911458
 20
-7.461560058593749
 10
1.104066975911458
 20
-7.461560058593749
 10
-1.319385443793403
 20
-8.783615451388888
 10
-1.319385443793403
 20
-8.783615451388888
 10
-1.319385443793403
 20
-8.783615451388888
 10
-1.315079074435764
 20
-8.46614990234375
 10
-1.315079074435764
 20
-8.46614990234375
 10
-1.315079074435764
 20
-8.46614990234375
 10
-0.6098680284288194
 20
-8.095285373263888
 10
-0.6098680284288194
 20
-8.095285373263888
 10
-0.6098680284288194
 20
-8.095285373263888
 10
-0.5984992133246527
 20
-7.232805718315972
 10
-0.5984992133246527
 20
-7.232805718315972
 97
        0
 75
     0
 76
     1
 98
        1
 10
0.0
 20
0.0
  0
HATCH
  5
26
330
22
100
AcDbEntity
  8
LAYER_1
 62
     7
100
AcDbHatch
 10
0.0
 20
0.0
 30
0.0
210
0.0
220
0.0
230
1.0
  2
SOLID
 70
     1
 71
     0
 91
        1
 92
        1
 93
        1
 72
     4
 94
        3
 73
     0
 74
     0
 95
       29
 96
       25
 40
0.0
 40
0.0
 40
0.0
 40
0.0
 40
1.0
 40
1.0
 40
1.0
 40
2.0
 40
2.0
 40
2.0
 40
3.0
 40
3.0
 40
3.0
 40
4.0
 40
4.0
 40
4.0
 40
5.0
 40
5.0
 40
5.0
 40
6.0
 40
6.0
 40
6.0
 40
7.0
 40
7.0
 40
7.0
 40
8.0
 40
8.0
 40
8.0
 40
8.0
 10
1.097521294487847
 20
-7.961615668402777
 10
1.097521294487847
 20
-7.961615668402777
 10
1.074439154730903
 20
-9.707762315538194
 10
1.074439154730903
 20
-9.707762315538194
 10
1.074439154730903
 20
-9.707762315538194
 10
0.7853956434461805
 20
-9.772874620225693
 10
0.7853956434461805
 20
-9.772874620225693
 10
0.7853956434461805
 20
-9.772874620225693
 10
0.7950419108072916
 20
-9.045098198784721
 10
0.7950419108072916
 20
-9.045098198784721
 10
0.7950419108072916
 20
-9.045098198784721
 10
-1.329203965928819
 20
-9.523449707031249
 10
-1.329203965928819
 20
-9.523449707031249
 10
-1.329203965928819
 20
-9.523449707031249
 10
-1.325242106119792
 20
-9.232855902777777
 10
-1.325242106119792
 20
-9.232855902777777
 10
-1.325242106119792
 20
-9.232855902777777
 10
0.7988315158420138
 20
-8.754504394531249
 10
0.7988315158420138
 20
-8.754504394531249
 10
0.7988315158420138
 20
-8.754504394531249
 10
0.8084777832031249
 20
-8.026727973090278
 10
0.8084777832031249
 20
-8.026727973090278
 10
0.8084777832031249
 20
-8.026727973090278
 10
1.097521294487847
 20
-7.961615668402777
 10
1.097521294487847
 20
-7.961615668402777
 97
        0
 75
     0
 76
     1
 98
        1
 10
0.0
 20
0.0
  0
HATCH
  5
25
330
22
100
AcDbEntity
  8
LAYER_1
 62
     7
100
AcDbHatch
 10
0.0
 20
0.0
 30
0.0
210
0.0
220
0.0
230
1.0
  2
SOLID
 70
     1
 71
     0
 91
        1
 92
        1
 93
        1
 72
     4
 94
        3
 73
     0
 74
     0
 95
       41
 96
       37
 40
0.0
 40
0.0
 40
0.0
 40
0.0
 40
1.0
 40
1.0
 40
1.0
 40
2.0
 40
2.0
 40
2.0
 40
3.0
 40
3.0
 40
3.0
 40
4.0
 40
4.0
 40
4.0
 40
5.0
 40
5.0
 40
5.0
 40
6.0
 40
6.0
 40
6.0
 40
7.0
 40
7.0
 40
7.0
 40
8.0
 40
8.0
 40
8.0
 40
9.0
 40
9.0
 40
9.0
 40
10.0
 40
10.0
 40
10.0
 40
11.0
 40
11.0
 40
11.0
 40
12.0
 40
12.0
 40
12.0
 40
12.0
 10
-1.363827175564236
 20
-12.13810492621528
 10
-1.363827175564236
 20
-12.13810492621528
 10
-1.342812093098958
 20
-10.55077718098958
 10
-1.342812093098958
 20
-10.55077718098958
 10
-1.342812093098958
 20
-10.55077718098958
 10
1.070477294921875
 20
-10.00731336805555
 10
1.070477294921875
 20
-10.00731336805555
 10
1.070477294921875
 20
-10.00731336805555
 10
1.049634467230903
 20
-11.57362603081597
 10
1.049634467230903
 20
-11.57362603081597
 10
1.049634467230903
 20
-11.57362603081597
 10
0.7605909559461805
 20
-11.63873833550347
 10
0.7605909559461805
 20
-11.63873833550347
 10
0.7605909559461805
 20
-11.63873833550347
 10
0.7774719238281249
 20
-10.36284722222222
 10
0.7774719238281249
 20
-10.36284722222222
 10
0.7774719238281249
 20
-10.36284722222222
 10
0.0381544325086806
 20
-10.52941758897569
 10
0.0381544325086806
 20
-10.52941758897569
 10
0.0381544325086806
 20
-10.52941758897569
 10
0.022479248046875
 20
-11.70643446180556
 10
0.022479248046875
 20
-11.70643446180556
 10
0.022479248046875
 20
-11.70643446180556
 10
-0.2665642632378472
 20
-11.77154676649306
 10
-0.2665642632378472
 20
-11.77154676649306
 10
-0.2665642632378472
 20
-11.77154676649306
 10
-0.2508890787760417
 20
-10.59452989366319
 10
-0.2508890787760417
 20
-10.59452989366319
 10
-0.2508890787760417
 20
-10.59452989366319
 10
-1.057558186848958
 20
-10.77625868055556
 10
-1.057558186848958
 20
-10.77625868055556
 10
-1.057558186848958
 20
-10.77625868055556
 10
-1.074783664279514
 20
-12.07299262152778
 10
-1.074783664279514
 20
-12.07299262152778
 10
-1.074783664279514
 20
-12.07299262152778
 10
-1.363827175564236
 20
-12.13810492621528
 10
-1.363827175564236
 20
-12.13810492621528
 97
        0
 75
     0
 76
     1
 98
        1
 10
0.0
 20
0.0
  0
ENDBLK
  5
31
330
22
100
AcDbEntity
  8
LAYER_1
100
AcDbBlockEnd
  0
ENDSEC
  0
SECTION
  2
ENTITIES
  0
LWPOLYLINE
  5
C4
330
A
100
AcDbEntity
  8
LAYER_1
 62
     7
100
AcDbPolyline
 90
       17
 70
     1
 43
0.0
 10
27.6170912000868
 20
75.90613335503471
 10
159.6870659722222
 20
107.2044813368055
 10
178.3539713541667
 20
101.0289754231771
 10
178.6347466362847
 20
80.95888264973958
 10
175.3596666124132
 20
78.24552544487847
 10
183.3130140516493
 20
74.97044542100694
 10
178.3539713541667
 20
70.19864366319443
 10
178.3539713541667
 20
50.92350667317708
 10
115.6639133029514
 20
31.55517985026041
 10
114.9151217990451
 20
31.55517985026041
 10
113.9794338650174
 20
31.08716362847222
 10
44.92680121527778
 20
9.754098849826388
 10
27.42985026041666
 20
19.39140896267361
 10
27.52338460286458
 20
39.97619900173611
 10
30.98518880208333
 20
43.15757242838541
 10
22.00313585069444
 20
47.83583984374999
 10
27.42985026041666
 20
53.07565782335069
  0
LINE
  5
C3
330
A
100
AcDbEntity
  8
LAYER_1
 62
     7
100
AcDbLine
 10
45.11404215494791
 20
68.14002685546875
 30
0.0
 11
178.2602647569444
 21
100.8887600368924
 31
0.0
  0
LWPOLYLINE
  5
BE
330
A
100
AcDbEntity
  8
LAYER_1
 62
     7
100
AcDbPolyline
 90
        3
 70
     0
 43
0.0
 10
114.8291666666667
 20
74.36376410590277
 10
114.8215874565972
 20
85.21598714192707
 10
96.76325819227429
 20
92.28032769097221
  0
LINE
  5
BD
330
A
100
AcDbEntity
  8
LAYER_1
 62
     7
100
AcDbLine
 10
114.8686130099826
 20
31.60186089409722
 30
0.0
 11
114.8582777235243
 21
42.36365017361111
 31
0.0
  0
SPLINE
  5
BC
330
A
100
AcDbEntity
  8
LAYER_1
 62
     7
100
AcDbSpline
210
0.0
220
0.0
230
1.0
 70
     8
 71
     3
 72
    11
 73
     7
 74
     0
 42
0.0000000001
 43
0.0000000001
 40
0.0
 40
0.0
 40
0.0
 40
0.0
 40
1.0
 40
1.0
 40
1.0
 40
2.0
 40
2.0
 40
2.0
 40
2.0
 10
26.72808430989583
 20
52.37389187282986
 30
0.0
 10
26.35394694010417
 20
51.67195366753472
 30
0.0
 10
25.93261176215277
 20
51.15742865668403
 30
0.0
 10
25.32472466362847
 20
50.22174072265624
 30
0.0
 10
24.71649305555555
 20
49.28605278862847
 30
0.0
 10
23.73377956814236
 20
48.06958957248263
 30
0.0
 10
23.64024522569444
 20
47.04071180555555
 30
0.0
  0
SPLINE
  5
BB
330
A
100
AcDbEntity
  8
LAYER_1
 62
     7
100
AcDbSpline
210
0.0
220
0.0
230
1.0
 70
     8
 71
     3
 72
    17
 73
    13
 74
     0
 42
0.0000000001
 43
0.0000000001
 40
0.0
 40
0.0
 40
0.0
 40
0.0
 40
1.0
 40
1.0
 40
1.0
 40
2.0
 40
2.0
 40
2.0
 40
3.0
 40
3.0
 40
3.0
 40
4.0
 40
4.0
 40
4.0
 40
4.0
 10
26.30692138671875
 20
45.63700764973958
 30
0.0
 10
27.24260932074652
 20
47.04071180555555
 30
0.0
 10
29.53497585720486
 20
50.64307590060763
 30
0.0
 10
30.23674180772569
 20
51.62544487847222
 30
0.0
 10
29.81575113932291
 20
53.45013970269097
 30
0.0
 10
29.90945773654514
 20
54.52587076822916
 30
0.0
 10
29.44144151475694
 20
56.44427218967014
 30
0.0
 10
28.97376980251736
 20
58.36215684678819
 30
0.0
 10
29.53497585720486
 20
58.03470052083333
 30
0.0
 10
28.59928792317708
 20
59.01741400824653
 30
0.0
 10
27.6635999891493
 20
59.9996107313368
 30
0.0
 10
27.6635999891493
 20
60.18685167100694
 30
0.0
 10
27.47653130425347
 20
60.65452338324652
 30
0.0
  0
SPLINE
  5
BA
330
A
100
AcDbEntity
  8
LAYER_1
 62
     7
100
AcDbSpline
210
0.0
220
0.0
230
1.0
 70
     8
 71
     3
 72
    23
 73
    19
 74
     0
 42
0.0000000001
 43
0.0000000001
 40
0.0
 40
0.0
 40
0.0
 40
0.0
 40
1.0
 40
1.0
 40
1.0
 40
2.0
 40
2.0
 40
2.0
 40
3.0
 40
3.0
 40
3.0
 40
4.0
 40
4.0
 40
4.0
 40
5.0
 40
5.0
 40
5.0
 40
6.0
 40
6.0
 40
6.0
 40
6.0
 10
28.92674424913194
 20
75.20436740451389
 30
0.0
 10
29.02027859157986
 20
74.17497287326388
 30
0.0
 10
29.58200141059028
 20
69.77765299479167
 30
0.0
 10
29.62851019965278
 20
68.60769856770833
 30
0.0
 10
29.67553575303819
 20
67.43826090494791
 30
0.0
 10
30.04967312282986
 20
65.8008070203993
 30
0.0
 10
30.65790473090278
 20
65.00533447265624
 30
0.0
 10
31.26613633897569
 20
64.2102064344618
 30
0.0
 10
32.01458333333333
 20
62.90020887586805
 30
0.0
 10
32.15514322916666
 20
62.43253716362847
 30
0.0
 10
32.29535861545138
 20
61.96452094184027
 30
0.0
 10
32.85656467013889
 20
60.46762695312499
 30
0.0
 10
32.71634928385416
 20
59.9531019422743
 30
0.0
 10
32.57613389756944
 20
59.4384046766493
 30
0.0
 10
33.60535617404513
 20
50.59605034722222
 30
0.0
 10
33.65203721788194
 20
49.89428439670139
 30
0.0
 10
33.23104654947917
 20
49.28605278862847
 30
0.0
 10
30.47066379123264
 20
44.6548109266493
 30
0.0
 10
29.67553575303819
 20
43.76580403645833
 30
0.0
  0
SPLINE
  5
B9
330
A
100
AcDbEntity
  8
LAYER_1
 62
     7
100
AcDbSpline
210
0.0
220
0.0
230
1.0
 70
     8
 71
     3
 72
    26
 73
    22
 74
     0
 42
0.0000000001
 43
0.0000000001
 40
0.0
 40
0.0
 40
0.0
 40
0.0
 40
1.0
 40
1.0
 40
1.0
 40
2.0
 40
2.0
 40
2.0
 40
3.0
 40
3.0
 40
3.0
 40
4.0
 40
4.0
 40
4.0
 40
5.0
 40
5.0
 40
5.0
 40
6.0
 40
6.0
 40
6.0
 40
7.0
 40
7.0
 40
7.0
 40
7.0
 10
32.57613389756944
 20
42.59619411892361
 30
0.0
 10
33.23104654947917
 20
43.20442572699653
 30
0.0
 10
36.50595431857639
 20
47.78915879991319
 30
0.0
 10
36.69285074869791
 20
48.39739040798611
 30
0.0
 10
36.31871337890625
 20
49.80075005425347
 30
0.0
 10
36.27168782552083
 20
51.76566026475694
 30
0.0
 10
36.17849799262152
 20
53.21621771918402
 30
0.0
 10
36.08496365017361
 20
54.66608615451388
 30
0.0
 10
35.80418836805556
 20
58.45569118923611
 30
0.0
 10
35.66397298177083
 20
60.09331732855902
 30
0.0
 10
35.52324083116319
 20
61.73077121310763
 30
0.0
 10
36.13147243923611
 20
62.43253716362847
 30
0.0
 10
35.47673204210069
 20
63.60197482638888
 30
0.0
 10
34.82181939019097
 20
64.77158474392361
 30
0.0
 10
34.21324327256944
 20
65.89434136284721
 30
0.0
 10
33.88578694661458
 20
66.59627956814235
 30
0.0
 10
33.55833062065972
 20
67.29804551866319
 30
0.0
 10
32.76337483723958
 20
67.95295817057291
 30
0.0
 10
32.76337483723958
 20
69.68394639756944
 30
0.0
 10
32.76337483723958
 20
71.41510687934027
 30
0.0
 10
32.20165201822916
 20
73.05221625434027
 30
0.0
 10
32.3423841688368
 20
73.7539822048611
 30
0.0
  0
SPLINE
  5
B8
330
A
100
AcDbEntity
  8
LAYER_1
 62
     7
100
AcDbSpline
210
0.0
220
0.0
230
1.0
 70
     8
 71
     3
 72
    17
 73
    13
 74
     0
 42
0.0000000001
 43
0.0000000001
 40
0.0
 40
0.0
 40
0.0
 40
0.0
 40
1.0
 40
1.0
 40
1.0
 40
2.0
 40
2.0
 40
2.0
 40
3.0
 40
3.0
 40
3.0
 40
4.0
 40
4.0
 40
4.0
 40
4.0
 10
40.71620551215278
 20
70.05808376736111
 30
0.0
 10
41.13754069010416
 20
68.65472412109375
 30
0.0
 10
41.93266872829861
 20
67.43826090494791
 30
0.0
 10
42.35365939670139
 20
66.59627956814235
 30
0.0
 10
42.77465006510416
 20
65.75412597656249
 30
0.0
 10
43.38288167317708
 20
63.92943115234375
 30
0.0
 10
43.38288167317708
 20
63.36822509765624
 30
0.0
 10
43.38288167317708
 20
62.80667453342014
 30
0.0
 10
43.94460449218749
 20
58.26862250434027
 30
0.0
 10
44.22503526475694
 20
56.77172851562499
 30
0.0
 10
44.505810546875
 20
55.2743177625868
 30
0.0
 10
44.45912950303819
 20
52.98212348090277
 30
0.0
 10
44.97382676866319
 20
52.13996988932291
 30
0.0
  0
SPLINE
  5
B7
330
A
100
AcDbEntity
  8
LAYER_1
 62
     7
100
AcDbSpline
210
0.0
220
0.0
230
1.0
 70
     8
 71
     3
 72
    20
 73
    16
 74
     0
 42
0.0000000001
 43
0.0000000001
 40
0.0
 40
0.0
 40
0.0
 40
0.0
 40
1.0
 40
1.0
 40
1.0
 40
2.0
 40
2.0
 40
2.0
 40
3.0
 40
3.0
 40
3.0
 40
4.0
 40
4.0
 40
4.0
 40
5.0
 40
5.0
 40
5.0
 40
5.0
 10
37.62836642795138
 20
40.11675889756944
 30
0.0
 10
38.65810546874999
 20
41.09895562065972
 30
0.0
 10
41.41797146267361
 20
45.26269802517361
 30
0.0
 10
41.74542778862847
 20
45.96446397569444
 30
0.0
 10
41.51167805989583
 20
47.08739284939236
 30
0.0
 10
39.92107747395833
 20
57.98767496744791
 30
0.0
 10
39.92107747395833
 20
59.29784478081596
 30
0.0
 10
39.92107747395833
 20
60.60784233940971
 30
0.0
 10
39.51903483072916
 20
63.79197184244791
 30
0.0
 10
39.2193115234375
 20
64.81843804253472
 30
0.0
 10
38.56439887152777
 20
67.06377902560763
 30
0.0
 10
37.58185763888888
 20
67.53179524739583
 30
0.0
 10
37.34793565538194
 20
68.09317355685764
 30
0.0
 10
37.11418592664931
 20
68.65472412109375
 30
0.0
 10
36.41241997612847
 20
71.32105577256944
 30
0.0
 10
36.41241997612847
 20
71.97631293402777
 30
0.0
  0
LINE
  5
B6
330
A
100
AcDbEntity
  8
LAYER_1
 62
     7
100
AcDbLine
 10
27.52338460286458
 20
53.07565782335069
 30
0.0
 11
44.92680121527778
 21
44.28032904730902
 31
0.0
  0
SPLINE
  5
B5
330
A
100
AcDbEntity
  8
LAYER_1
 62
     7
100
AcDbSpline
210
0.0
220
0.0
230
1.0
 70
     8
 71
     3
 72
    11
 73
     7
 74
     0
 42
0.0000000001
 43
0.0000000001
 40
0.0
 40
0.0
 40
0.0
 40
0.0
 40
1.0
 40
1.0
 40
1.0
 40
2.0
 40
2.0
 40
2.0
 40
2.0
 10
27.52338460286458
 20
30.33871663411458
 30
0.0
 10
27.99105631510416
 20
28.09303114149305
 30
0.0
 10
27.80381537543402
 20
26.97027452256944
 30
0.0
 10
28.92674424913194
 20
25.09889865451389
 30
0.0
 10
30.04967312282986
 20
23.22752278645833
 30
0.0
 10
30.23674180772569
 20
20.23339029947917
 30
0.0
 10
30.14320746527778
 20
18.08123914930555
 30
0.0
  0
SPLINE
  5
B4
330
A
100
AcDbEntity
  8
LAYER_1
 62
     7
100
AcDbSpline
210
0.0
220
0.0
230
1.0
 70
     8
 71
     3
 72
    26
 73
    22
 74
     0
 42
0.0000000001
 43
0.0000000001
 40
0.0
 40
0.0
 40
0.0
 40
0.0
 40
1.0
 40
1.0
 40
1.0
 40
2.0
 40
2.0
 40
2.0
 40
3.0
 40
3.0
 40
3.0
 40
4.0
 40
4.0
 40
4.0
 40
5.0
 40
5.0
 40
5.0
 40
6.0
 40
6.0
 40
6.0
 40
7.0
 40
7.0
 40
7.0
 40
7.0
 10
34.07302788628472
 20
15.74236382378472
 30
0.0
 10
33.69906277126736
 20
19.01692708333333
 30
0.0
 10
33.41811523437499
 20
20.42063123914931
 30
0.0
 10
33.23104654947917
 20
22.76002332899305
 30
0.0
 10
33.04380560980903
 20
25.09889865451389
 30
0.0
 10
33.60535617404513
 20
26.78337809244792
 30
0.0
 10
32.66966824001736
 20
28.37380642361111
 30
0.0
 10
31.73415256076389
 20
29.96440700954861
 30
0.0
 10
30.61122368706597
 20
30.9936292860243
 30
0.0
 10
30.42398274739583
 20
31.55517985026041
 30
0.0
 10
30.23674180772569
 20
32.11655815972222
 30
0.0
 10
29.76924235026041
 20
33.14578043619792
 30
0.0
 10
29.76924235026041
 20
34.17500271267361
 30
0.0
 10
29.76924235026041
 20
35.2042249891493
 30
0.0
 10
28.6463134765625
 20
38.66637369791666
 30
0.0
 10
28.83355441623264
 20
39.13404541015625
 30
0.0
 10
29.02027859157986
 20
39.60206163194444
 30
0.0
 10
30.23674180772569
 20
41.19266221788194
 30
0.0
 10
30.61122368706597
 20
41.4734375
 30
0.0
 10
30.98518880208333
 20
41.75386827256944
 30
0.0
 10
31.07889539930555
 20
42.22188449435764
 30
0.0
 10
31.45320502387153
 20
42.78343505859375
 30
0.0
  0
SPLINE
  5
B3
330
A
100
AcDbEntity
  8
LAYER_1
 62
     7
100
AcDbSpline
210
0.0
220
0.0
230
1.0
 70
     8
 71
     3
 72
    23
 73
    19
 74
     0
 42
0.0000000001
 43
0.0000000001
 40
0.0
 40
0.0
 40
0.0
 40
0.0
 40
1.0
 40
1.0
 40
1.0
 40
2.0
 40
2.0
 40
2.0
 40
3.0
 40
3.0
 40
3.0
 40
4.0
 40
4.0
 40
4.0
 40
5.0
 40
5.0
 40
5.0
 40
6.0
 40
6.0
 40
6.0
 40
6.0
 10
35.19595675998264
 20
41.09895562065972
 30
0.0
 10
34.54104410807291
 20
39.50852728949653
 30
0.0
 10
33.69906277126736
 20
38.19835747612847
 30
0.0
 10
32.76337483723958
 20
37.35637613932291
 30
0.0
 10
32.9500990125868
 20
35.57870686848958
 30
0.0
 10
32.85656467013889
 20
33.89457194010416
 30
0.0
 10
33.41811523437499
 20
33.23931477864583
 30
0.0
 10
33.9794935438368
 20
32.58457438151041
 30
0.0
 10
34.26026882595486
 20
32.02285156249999
 30
0.0
 10
35.38302544487847
 20
30.71319851345486
 30
0.0
 10
36.50595431857639
 20
29.40320095486111
 30
0.0
 10
37.44164225260416
 20
27.62535942925347
 30
0.0
 10
37.34793565538194
 20
26.78337809244792
 30
0.0
 10
37.25440131293402
 20
25.94087999131944
 30
0.0
 10
37.81560736762152
 20
23.04079861111111
 30
0.0
 10
37.90931396484375
 20
21.35631917317708
 30
0.0
 10
38.00284830729166
 20
19.67218424479167
 30
0.0
 10
38.56439887152777
 20
14.24512532552083
 30
0.0
 10
39.03207058376736
 20
13.12219645182292
 30
0.0
  0
LINE
  5
B2
330
A
100
AcDbEntity
  8
LAYER_1
 62
     7
100
AcDbLine
 10
30.98518880208333
 20
43.15757242838541
 30
0.0
 11
39.68698323567708
 21
39.04051106770833
 31
0.0
  0
SPLINE
  5
B1
330
A
100
AcDbEntity
  8
LAYER_1
 62
     7
100
AcDbSpline
210
0.0
220
0.0
230
1.0
 70
     8
 71
     3
 72
    17
 73
    13
 74
     0
 42
0.0000000001
 43
0.0000000001
 40
0.0
 40
0.0
 40
0.0
 40
0.0
 40
1.0
 40
1.0
 40
1.0
 40
2.0
 40
2.0
 40
2.0
 40
3.0
 40
3.0
 40
3.0
 40
4.0
 40
4.0
 40
4.0
 40
4.0
 10
43.33637288411458
 20
10.50254584418403
 30
0.0
 10
43.24266628689236
 20
13.49667833116319
 30
0.0
 10
41.65223795572916
 20
18.36218668619792
 30
0.0
 10
41.46499701605902
 20
21.54356011284722
 30
0.0
 10
41.27775607638888
 20
24.72493353949653
 30
0.0
 10
40.80973985460069
 20
28.74828830295139
 30
0.0
 10
40.34224039713541
 20
30.15164794921875
 30
0.0
 10
39.87422417534722
 20
31.55517985026041
 30
0.0
 10
38.84482964409722
 20
33.42655571831597
 30
0.0
 10
38.1900892469618
 20
34.6430189344618
 30
0.0
 10
38.75163981119791
 20
35.76594780815972
 30
0.0
 10
39.50008680555555
 20
37.26284179687499
 30
0.0
 10
40.43577473958333
 20
38.47930501302083
 30
0.0
  0
SPLINE
  5
B0
330
A
100
AcDbEntity
  8
LAYER_1
 62
     7
100
AcDbSpline
210
0.0
220
0.0
230
1.0
 70
     8
 71
     3
 72
    14
 73
    10
 74
     0
 42
0.0000000001
 43
0.0000000001
 40
0.0
 40
0.0
 40
0.0
 40
0.0
 40
1.0
 40
1.0
 40
1.0
 40
2.0
 40
2.0
 40
2.0
 40
3.0
 40
3.0
 40
3.0
 40
3.0
 10
44.64602593315972
 20
37.35637613932291
 30
0.0
 10
44.17835422092013
 20
36.233447265625
 30
0.0
 10
42.77465006510416
 20
33.80103759765625
 30
0.0
 10
41.74542778862847
 20
32.67810872395833
 30
0.0
 10
42.77465006510416
 20
31.18087022569444
 30
0.0
 10
42.77465006510416
 20
30.4324232313368
 30
0.0
 10
43.4299072265625
 20
29.02871907552083
 30
0.0
 10
44.08481987847222
 20
27.62535942925347
 30
0.0
 10
44.83326687282986
 20
23.97648654513889
 30
0.0
 10
44.83326687282986
 20
23.97648654513889
 30
0.0
  0
SPLINE
  5
AF
330
A
100
AcDbEntity
  8
LAYER_1
 62
     7
100
AcDbSpline
210
0.0
220
0.0
230
1.0
 70
     8
 71
     3
 72
     8
 73
     4
 74
     0
 42
0.0000000001
 43
0.0000000001
 40
0.0
 40
0.0
 40
0.0
 40
0.0
 40
1.0
 40
1.0
 40
1.0
 40
1.0
 10
45.30128309461805
 20
31.83561062282986
 30
0.0
 10
45.67524820963541
 20
32.58457438151041
 30
0.0
 10
47.92093370225694
 20
35.57870686848958
 30
0.0
 10
48.10817464192708
 20
36.51439480251736
 30
0.0
  0
LINE
  5
AE
330
A
100
AcDbEntity
  8
LAYER_1
 62
     7
100
AcDbLine
 10
27.42985026041666
 20
40.06973334418402
 30
0.0
 11
44.73956027560764
 21
31.08716362847222
 31
0.0
  0
LWPOLYLINE
  5
A5
330
A
100
AcDbEntity
  8
LAYER_1
 62
     7
100
AcDbPolyline
 90
        7
 70
     0
 43
0.0
 10
27.75730658637152
 20
75.8125990125868
 10
45.02050781249999
 20
68.14002685546875
 10
45.02050781249999
 20
44.18679470486111
 10
39.78051757812499
 20
38.94680447048611
 10
49.97955050998264
 20
36.13991292317708
 10
44.83326687282986
 20
31.08716362847222
 10
45.02050781249999
 20
9.941167534722222
  0
LWPOLYLINE
  5
9D
330
A
100
AcDbEntity
  8
LAYER_1
 62
     7
100
AcDbPolyline
 90
        6
 70
     1
 43
0.0
 10
90.54124348958332
 20
36.51439480251736
 10
91.75718994140624
 20
35.76594780815972
 10
140.8334364149305
 20
50.12855088975694
 10
140.7397298177083
 20
79.78927273220485
 10
139.3830512152778
 20
80.44418538411458
 10
90.82167426215277
 20
67.85925157335069
  0
LINE
  5
9C
330
A
100
AcDbEntity
  8
LAYER_1
 62
     7
100
AcDbLine
 10
90.82167426215277
 20
67.85925157335069
 30
0.0
 11
91.75718994140624
 21
67.15748562282985
 31
0.0
  0
SPLINE
  5
9B
330
A
100
AcDbEntity
  8
LAYER_1
 62
     7
100
AcDbSpline
210
0.0
220
0.0
230
1.0
 70
    11
 71
     3
 72
    20
 73
    16
 74
     0
 42
0.0000000001
 43
0.0000000001
 40
0.0
 40
0.0
 40
0.0
 40
0.0
 40
1.0
 40
1.0
 40
1.0
 40
2.0
 40
2.0
 40
2.0
 40
3.0
 40
3.0
 40
3.0
 40
4.0
 40
4.0
 40
4.0
 40
5.0
 40
5.0
 40
5.0
 40
5.0
 10
94.54186062282986
 20
65.86247422960069
 30
0.0
 10
94.54186062282986
 20
65.86247422960069
 30
0.0
 10
94.611279296875
 20
65.84783257378471
 30
0.0
 10
94.611279296875
 20
65.84783257378471
 30
0.0
 10
94.611279296875
 20
65.84783257378471
 30
0.0
 10
99.33640001085068
 20
67.06377902560763
 30
0.0
 10
99.33640001085068
 20
67.06377902560763
 30
0.0
 10
99.33640001085068
 20
67.06377902560763
 30
0.0
 10
99.89433322482638
 20
68.21099582248263
 30
0.0
 10
99.89433322482638
 20
68.21099582248263
 30
0.0
 10
99.15639377170137
 20
68.02875027126736
 30
0.0
 10
95.28238389756943
 20
66.96266547309027
 30
0.0
 10
94.75149468315972
 20
66.830029296875
 30
0.0
 10
94.67036268446179
 20
66.56596272786457
 30
0.0
 10
94.58320176866319
 20
66.20595024956597
 30
0.0
 10
94.54186062282986
 20
65.86247422960069
 30
0.0
  0
SPLINE
  5
9A
330
A
100
AcDbEntity
  8
LAYER_1
 62
     7
100
AcDbSpline
210
0.0
220
0.0
230
1.0
 70
    11
 71
     3
 72
    17
 73
    13
 74
     0
 42
0.0000000001
 43
0.0000000001
 40
0.0
 40
0.0
 40
0.0
 40
0.0
 40
1.0
 40
1.0
 40
1.0
 40
2.0
 40
2.0
 40
2.0
 40
3.0
 40
3.0
 40
3.0
 40
4.0
 40
4.0
 40
4.0
 40
4.0
 10
100.2720879448785
 20
66.31533203124999
 30
0.0
 10
101.0205349392361
 20
66.73649495442707
 30
0.0
 10
100.8803195529514
 20
68.42045762803819
 30
0.0
 10
99.99131266276041
 20
68.23373345269097
 30
0.0
 10
99.61424696180555
 20
68.15449625651041
 30
0.0
 10
95.31304524739582
 20
66.97024468315972
 30
0.0
 10
94.75149468315972
 20
66.830029296875
 30
0.0
 10
94.56425374348957
 20
66.22179768880208
 30
0.0
 10
94.33033175998263
 20
65.09938557942708
 30
0.0
 10
94.75149468315972
 20
64.86511908637152
 30
0.0
 10
94.98524441189235
 20
64.91214463975693
 30
0.0
 10
99.90070665147569
 20
66.24677463107638
 30
0.0
 10
100.2720879448785
 20
66.31533203124999
 30
0.0
  0
LINE
  5
99
330
A
100
AcDbEntity
  8
LAYER_1
 62
     7
100
AcDbLine
 10
99.33640001085068
 20
67.06377902560763
 30
0.0
 11
100.4123033311632
 21
66.40903862847222
 31
0.0
  0
SPLINE
  5
98
330
A
100
AcDbEntity
  8
LAYER_1
 62
     7
100
AcDbSpline
210
0.0
220
0.0
230
1.0
 70
    11
 71
     3
 72
    20
 73
    16
 74
     0
 42
0.0000000001
 43
0.0000000001
 40
0.0
 40
0.0
 40
0.0
 40
0.0
 40
1.0
 40
1.0
 40
1.0
 40
2.0
 40
2.0
 40
2.0
 40
3.0
 40
3.0
 40
3.0
 40
4.0
 40
4.0
 40
4.0
 40
5.0
 40
5.0
 40
5.0
 40
5.0
 10
104.7403767903646
 20
68.6225124782986
 30
0.0
 10
104.7403767903646
 20
68.6225124782986
 30
0.0
 10
104.8101399739583
 20
68.60769856770833
 30
0.0
 10
104.8101399739583
 20
68.60769856770833
 30
0.0
 10
104.8101399739583
 20
68.60769856770833
 30
0.0
 10
109.5350884331597
 20
69.82416178385417
 30
0.0
 10
109.5350884331597
 20
69.82416178385417
 30
0.0
 10
109.5350884331597
 20
69.82416178385417
 30
0.0
 10
110.0931939019097
 20
70.97086181640624
 30
0.0
 10
110.0931939019097
 20
70.97086181640624
 30
0.0
 10
109.3550821940104
 20
70.78896077473958
 30
0.0
 10
105.4812445746528
 20
69.7230482313368
 30
0.0
 10
104.9503553602431
 20
69.59041205512152
 30
0.0
 10
104.8688788519965
 20
69.3261732313368
 30
0.0
 10
104.7820624457465
 20
68.96581624348957
 30
0.0
 10
104.7403767903646
 20
68.6225124782986
 30
0.0
  0
SPLINE
  5
97
330
A
100
AcDbEntity
  8
LAYER_1
 62
     7
100
AcDbSpline
210
0.0
220
0.0
230
1.0
 70
    11
 71
     3
 72
    17
 73
    13
 74
     0
 42
0.0000000001
 43
0.0000000001
 40
0.0
 40
0.0
 40
0.0
 40
0.0
 40
1.0
 40
1.0
 40
1.0
 40
2.0
 40
2.0
 40
2.0
 40
3.0
 40
3.0
 40
3.0
 40
4.0
 40
4.0
 40
4.0
 40
4.0
 10
110.4707763671875
 20
69.07571478949652
 30
0.0
 10
111.2195678710937
 20
69.4967054578993
 30
0.0
 10
111.0790079752604
 20
71.18084038628471
 30
0.0
 10
110.1903455946181
 20
70.99359944661458
 30
0.0
 10
109.8127631293403
 20
70.91487901475693
 30
0.0
 10
105.5115614149305
 20
69.73062744140624
 30
0.0
 10
104.9503553602431
 20
69.59041205512152
 30
0.0
 10
104.7631144205729
 20
68.98218044704861
 30
0.0
 10
104.5293646918403
 20
67.85925157335069
 30
0.0
 10
104.9503553602431
 20
67.62550184461804
 30
0.0
 10
105.18427734375
 20
67.67201063368054
 30
0.0
 10
110.0993950737847
 20
69.00715738932291
 30
0.0
 10
110.4707763671875
 20
69.07571478949652
 30
0.0
  0
LINE
  5
96
330
A
100
AcDbEntity
  8
LAYER_1
 62
     7
100
AcDbLine
 10
109.5350884331597
 20
69.82416178385417
 30
0.0
 11
110.6113362630208
 21
69.16942138671874
 31
0.0
  0
SPLINE
  5
95
330
A
100
AcDbEntity
  8
LAYER_1
 62
     7
100
AcDbSpline
210
0.0
220
0.0
230
1.0
 70
    11
 71
     3
 72
    20
 73
    16
 74
     0
 42
0.0000000001
 43
0.0000000001
 40
0.0
 40
0.0
 40
0.0
 40
0.0
 40
1.0
 40
1.0
 40
1.0
 40
2.0
 40
2.0
 40
2.0
 40
3.0
 40
3.0
 40
3.0
 40
4.0
 40
4.0
 40
4.0
 40
5.0
 40
5.0
 40
5.0
 40
5.0
 10
104.9276177300347
 20
64.97346733940972
 30
0.0
 10
104.9276177300347
 20
64.97346733940972
 30
0.0
 10
104.9970364040799
 20
64.95865342881943
 30
0.0
 10
104.9970364040799
 20
64.95865342881943
 30
0.0
 10
104.9970364040799
 20
64.95865342881943
 30
0.0
 10
109.7223293728299
 20
66.17511664496527
 30
0.0
 10
109.7223293728299
 20
66.17511664496527
 30
0.0
 10
109.7223293728299
 20
66.17511664496527
 30
0.0
 10
110.2804348415799
 20
67.32198893229166
 30
0.0
 10
110.2804348415799
 20
67.32198893229166
 30
0.0
 10
109.5423231336805
 20
67.13957112630207
 30
0.0
 10
105.6684855143229
 20
66.07400309244791
 30
0.0
 10
105.1375962999132
 20
65.94136691623264
 30
0.0
 10
105.0561197916667
 20
65.6767835828993
 30
0.0
 10
104.968958875868
 20
65.31677110460069
 30
0.0
 10
104.9276177300347
 20
64.97346733940972
 30
0.0
  0
SPLINE
  5
94
330
A
100
AcDbEntity
  8
LAYER_1
 62
     7
100
AcDbSpline
210
0.0
220
0.0
230
1.0
 70
    11
 71
     3
 72
    17
 73
    13
 74
     0
 42
0.0000000001
 43
0.0000000001
 40
0.0
 40
0.0
 40
0.0
 40
0.0
 40
1.0
 40
1.0
 40
1.0
 40
2.0
 40
2.0
 40
2.0
 40
3.0
 40
3.0
 40
3.0
 40
4.0
 40
4.0
 40
4.0
 40
4.0
 10
110.6578450520833
 20
65.42666965060764
 30
0.0
 10
111.406292046441
 20
65.84783257378471
 30
0.0
 10
111.2660766601562
 20
67.53179524739583
 30
0.0
 10
110.3770697699653
 20
67.3447265625
 30
0.0
 10
110.0000040690104
 20
67.26583387586805
 30
0.0
 10
105.6988023546007
 20
66.08158230251736
 30
0.0
 10
105.1375962999132
 20
65.94136691623264
 30
0.0
 10
104.9503553602431
 20
65.33313530815971
 30
0.0
 10
104.7166056315104
 20
64.2102064344618
 30
0.0
 10
105.1375962999132
 20
63.97645670572916
 30
0.0
 10
105.3713460286458
 20
64.02313774956596
 30
0.0
 10
110.2864637586805
 20
65.35776774088541
 30
0.0
 10
110.6578450520833
 20
65.42666965060764
 30
0.0
  0
LINE
  5
93
330
A
100
AcDbEntity
  8
LAYER_1
 62
     7
100
AcDbLine
 10
109.7223293728299
 20
66.17511664496527
 30
0.0
 11
110.798577202691
 21
65.52037624782986
 31
0.0
  0
SPLINE
  5
92
330
A
100
AcDbEntity
  8
LAYER_1
 62
     7
100
AcDbSpline
210
0.0
220
0.0
230
1.0
 70
    11
 71
     3
 72
    20
 73
    16
 74
     0
 42
0.0000000001
 43
0.0000000001
 40
0.0
 40
0.0
 40
0.0
 40
0.0
 40
1.0
 40
1.0
 40
1.0
 40
2.0
 40
2.0
 40
2.0
 40
3.0
 40
3.0
 40
3.0
 40
4.0
 40
4.0
 40
4.0
 40
5.0
 40
5.0
 40
5.0
 40
5.0
 10
105.3486083984375
 20
61.18386230468749
 30
0.0
 10
105.3486083984375
 20
61.18386230468749
 30
0.0
 10
105.4180270724826
 20
61.16904839409722
 30
0.0
 10
105.4180270724826
 20
61.16904839409722
 30
0.0
 10
105.4180270724826
 20
61.16904839409722
 30
0.0
 10
110.1433200412326
 20
62.38551161024305
 30
0.0
 10
110.1433200412326
 20
62.38551161024305
 30
0.0
 10
110.1433200412326
 20
62.38551161024305
 30
0.0
 10
110.7014255099826
 20
63.53238389756944
 30
0.0
 10
110.7014255099826
 20
63.53238389756944
 30
0.0
 10
109.9633138020833
 20
63.35048285590277
 30
0.0
 10
106.0894761827257
 20
62.28439805772569
 30
0.0
 10
105.558586968316
 20
62.15176188151041
 30
0.0
 10
105.4771104600694
 20
61.88769531249999
 30
0.0
 10
105.3902940538194
 20
61.52768283420139
 30
0.0
 10
105.3486083984375
 20
61.18386230468749
 30
0.0
  0
SPLINE
  5
91
330
A
100
AcDbEntity
  8
LAYER_1
 62
     7
100
AcDbSpline
210
0.0
220
0.0
230
1.0
 70
    11
 71
     3
 72
    17
 73
    13
 74
     0
 42
0.0000000001
 43
0.0000000001
 40
0.0
 40
0.0
 40
0.0
 40
0.0
 40
1.0
 40
1.0
 40
1.0
 40
2.0
 40
2.0
 40
2.0
 40
3.0
 40
3.0
 40
3.0
 40
4.0
 40
4.0
 40
4.0
 40
4.0
 10
111.0790079752604
 20
61.63706461588541
 30
0.0
 10
111.8274549696181
 20
62.05822753906249
 30
0.0
 10
111.6872395833333
 20
63.74219021267361
 30
0.0
 10
110.798577202691
 20
63.55512152777777
 30
0.0
 10
110.4209947374132
 20
63.47622884114583
 30
0.0
 10
106.1197930230035
 20
62.29197726779513
 30
0.0
 10
105.558586968316
 20
62.15176188151041
 30
0.0
 10
105.3713460286458
 20
61.5435302734375
 30
0.0
 10
105.1375962999132
 20
60.42060139973957
 30
0.0
 10
105.558586968316
 20
60.18685167100694
 30
0.0
 10
105.7925089518229
 20
60.23353271484375
 30
0.0
 10
110.7076266818576
 20
61.5685072157118
 30
0.0
 10
111.0790079752604
 20
61.63706461588541
 30
0.0
  0
LINE
  5
90
330
A
100
AcDbEntity
  8
LAYER_1
 62
     7
100
AcDbLine
 10
110.1433200412326
 20
62.38551161024305
 30
0.0
 11
111.2195678710937
 21
61.73077121310763
 31
0.0
  0
SPLINE
  5
8F
330
A
100
AcDbEntity
  8
LAYER_1
 62
     7
100
AcDbSpline
210
0.0
220
0.0
230
1.0
 70
    11
 71
     3
 72
    20
 73
    16
 74
     0
 42
0.0000000001
 43
0.0000000001
 40
0.0
 40
0.0
 40
0.0
 40
0.0
 40
1.0
 40
1.0
 40
1.0
 40
2.0
 40
2.0
 40
2.0
 40
3.0
 40
3.0
 40
3.0
 40
4.0
 40
4.0
 40
4.0
 40
5.0
 40
5.0
 40
5.0
 40
5.0
 10
120.366468641493
 20
72.64586724175346
 30
0.0
 10
120.366468641493
 20
72.64586724175346
 30
0.0
 10
120.4358873155382
 20
72.6312255859375
 30
0.0
 10
120.4358873155382
 20
72.6312255859375
 30
0.0
 10
120.4358873155382
 20
72.6312255859375
 30
0.0
 10
125.1606635199653
 20
73.84768880208333
 30
0.0
 10
125.1606635199653
 20
73.84768880208333
 30
0.0
 10
125.1606635199653
 20
73.84768880208333
 30
0.0
 10
125.7189412434896
 20
74.99438883463542
 30
0.0
 10
125.7189412434896
 20
74.99438883463542
 30
0.0
 10
124.9811740451389
 20
74.81248779296874
 30
0.0
 10
121.1069919162326
 20
73.74640299479167
 30
0.0
 10
120.5761027018229
 20
73.61376681857638
 30
0.0
 10
120.494970703125
 20
73.34970024956597
 30
0.0
 10
120.4078097873264
 20
72.98934326171874
 30
0.0
 10
120.366468641493
 20
72.64586724175346
 30
0.0
  0
SPLINE
  5
8E
330
A
100
AcDbEntity
  8
LAYER_1
 62
     7
100
AcDbSpline
210
0.0
220
0.0
230
1.0
 70
    11
 71
     3
 72
    17
 73
    13
 74
     0
 42
0.0000000001
 43
0.0000000001
 40
0.0
 40
0.0
 40
0.0
 40
0.0
 40
1.0
 40
1.0
 40
1.0
 40
2.0
 40
2.0
 40
2.0
 40
3.0
 40
3.0
 40
3.0
 40
4.0
 40
4.0
 40
4.0
 40
4.0
 10
126.0966959635417
 20
73.09924180772569
 30
0.0
 10
126.8451429578993
 20
73.52023247612847
 30
0.0
 10
126.704583062066
 20
75.20436740451389
 30
0.0
 10
125.8159206814236
 20
75.01712646484374
 30
0.0
 10
125.4385104709201
 20
74.9382337782118
 30
0.0
 10
121.137653266059
 20
73.7539822048611
 30
0.0
 10
120.5761027018229
 20
73.61376681857638
 30
0.0
 10
120.3888617621528
 20
73.00553521050347
 30
0.0
 10
120.1551120334201
 20
71.88277859157985
 30
0.0
 10
120.5761027018229
 20
71.6488566080729
 30
0.0
 10
120.8098524305556
 20
71.69553765190972
 30
0.0
 10
125.7253146701389
 20
73.03016764322916
 30
0.0
 10
126.0966959635417
 20
73.09924180772569
 30
0.0
  0
LINE
  5
8D
330
A
100
AcDbEntity
  8
LAYER_1
 62
     7
100
AcDbLine
 10
125.1606635199653
 20
73.84768880208333
 30
0.0
 11
126.2369113498264
 21
73.1927761501736
 31
0.0
  0
SPLINE
  5
8C
330
A
100
AcDbEntity
  8
LAYER_1
 62
     7
100
AcDbSpline
210
0.0
220
0.0
230
1.0
 70
    11
 71
     3
 72
    20
 73
    16
 74
     0
 42
0.0000000001
 43
0.0000000001
 40
0.0
 40
0.0
 40
0.0
 40
0.0
 40
1.0
 40
1.0
 40
1.0
 40
2.0
 40
2.0
 40
2.0
 40
3.0
 40
3.0
 40
3.0
 40
4.0
 40
4.0
 40
4.0
 40
5.0
 40
5.0
 40
5.0
 40
5.0
 10
120.366468641493
 20
69.04350314670138
 30
0.0
 10
120.366468641493
 20
69.04350314670138
 30
0.0
 10
120.4358873155382
 20
69.02920600043402
 30
0.0
 10
120.4358873155382
 20
69.02920600043402
 30
0.0
 10
120.4358873155382
 20
69.02920600043402
 30
0.0
 10
125.1606635199653
 20
70.24515245225693
 30
0.0
 10
125.1606635199653
 20
70.24515245225693
 30
0.0
 10
125.1606635199653
 20
70.24515245225693
 30
0.0
 10
125.7189412434896
 20
71.39202473958332
 30
0.0
 10
125.7189412434896
 20
71.39202473958332
 30
0.0
 10
124.9811740451389
 20
71.21012369791666
 30
0.0
 10
121.1069919162326
 20
70.14403889973957
 30
0.0
 10
120.5761027018229
 20
70.0114027235243
 30
0.0
 10
120.494970703125
 20
69.74733615451389
 30
0.0
 10
120.4078097873264
 20
69.38680691189235
 30
0.0
 10
120.366468641493
 20
69.04350314670138
 30
0.0
  0
SPLINE
  5
8B
330
A
100
AcDbEntity
  8
LAYER_1
 62
     7
100
AcDbSpline
210
0.0
220
0.0
230
1.0
 70
    11
 71
     3
 72
    17
 73
    13
 74
     0
 42
0.0000000001
 43
0.0000000001
 40
0.0
 40
0.0
 40
0.0
 40
0.0
 40
1.0
 40
1.0
 40
1.0
 40
2.0
 40
2.0
 40
2.0
 40
3.0
 40
3.0
 40
3.0
 40
4.0
 40
4.0
 40
4.0
 40
4.0
 10
126.0966959635417
 20
69.4967054578993
 30
0.0
 10
126.8451429578993
 20
69.91786838107639
 30
0.0
 10
126.704583062066
 20
71.60183105468749
 30
0.0
 10
125.8159206814236
 20
71.41510687934027
 30
0.0
 10
125.4385104709201
 20
71.33586968315971
 30
0.0
 10
121.137653266059
 20
70.15161810980902
 30
0.0
 10
120.5761027018229
 20
70.0114027235243
 30
0.0
 10
120.3888617621528
 20
69.40317111545139
 30
0.0
 10
120.1551120334201
 20
68.28024224175347
 30
0.0
 10
120.5761027018229
 20
68.04649251302082
 30
0.0
 10
120.8098524305556
 20
68.09317355685764
 30
0.0
 10
125.7253146701389
 20
69.42814805772569
 30
0.0
 10
126.0966959635417
 20
69.4967054578993
 30
0.0
  0
LINE
  5
8A
330
A
100
AcDbEntity
  8
LAYER_1
 62
     7
100
AcDbLine
 10
125.1606635199653
 20
70.24515245225693
 30
0.0
 11
126.2369113498264
 21
69.59041205512152
 31
0.0
  0
SPLINE
  5
89
330
A
100
AcDbEntity
  8
LAYER_1
 62
     7
100
AcDbSpline
210
0.0
220
0.0
230
1.0
 70
    11
 71
     3
 72
    20
 73
    16
 74
     0
 42
0.0000000001
 43
0.0000000001
 40
0.0
 40
0.0
 40
0.0
 40
0.0
 40
1.0
 40
1.0
 40
1.0
 40
2.0
 40
2.0
 40
2.0
 40
3.0
 40
3.0
 40
3.0
 40
4.0
 40
4.0
 40
4.0
 40
5.0
 40
5.0
 40
5.0
 40
5.0
 10
120.366468641493
 20
65.30092366536458
 30
0.0
 10
120.366468641493
 20
65.30092366536458
 30
0.0
 10
120.4358873155382
 20
65.2861097547743
 30
0.0
 10
120.4358873155382
 20
65.2861097547743
 30
0.0
 10
120.4358873155382
 20
65.2861097547743
 30
0.0
 10
125.1606635199653
 20
66.50257297092013
 30
0.0
 10
125.1606635199653
 20
66.50257297092013
 30
0.0
 10
125.1606635199653
 20
66.50257297092013
 30
0.0
 10
125.7189412434896
 20
67.64927300347222
 30
0.0
 10
125.7189412434896
 20
67.64927300347222
 30
0.0
 10
124.9811740451389
 20
67.46737196180555
 30
0.0
 10
121.1069919162326
 20
66.40145941840277
 30
0.0
 10
120.5761027018229
 20
66.26882324218749
 30
0.0
 10
120.494970703125
 20
66.00458441840277
 30
0.0
 10
120.4078097873264
 20
65.64422743055555
 30
0.0
 10
120.366468641493
 20
65.30092366536458
 30
0.0
  0
SPLINE
  5
88
330
A
100
AcDbEntity
  8
LAYER_1
 62
     7
100
AcDbSpline
210
0.0
220
0.0
230
1.0
 70
    11
 71
     3
 72
    17
 73
    13
 74
     0
 42
0.0000000001
 43
0.0000000001
 40
0.0
 40
0.0
 40
0.0
 40
0.0
 40
1.0
 40
1.0
 40
1.0
 40
2.0
 40
2.0
 40
2.0
 40
3.0
 40
3.0
 40
3.0
 40
4.0
 40
4.0
 40
4.0
 40
4.0
 10
126.0966959635417
 20
65.75412597656249
 30
0.0
 10
126.8451429578993
 20
66.17511664496527
 30
0.0
 10
126.704583062066
 20
67.85925157335069
 30
0.0
 10
125.8159206814236
 20
67.67201063368054
 30
0.0
 10
125.4385104709201
 20
67.59329020182291
 30
0.0
 10
121.137653266059
 20
66.40903862847222
 30
0.0
 10
120.5761027018229
 20
66.26882324218749
 30
0.0
 10
120.3888617621528
 20
65.66059163411458
 30
0.0
 10
120.1551120334201
 20
64.53766276041667
 30
0.0
 10
120.5761027018229
 20
64.30391303168402
 30
0.0
 10
120.8098524305556
 20
64.35042182074652
 30
0.0
 10
125.7253146701389
 20
65.68556857638889
 30
0.0
 10
126.0966959635417
 20
65.75412597656249
 30
0.0
  0
LINE
  5
87
330
A
100
AcDbEntity
  8
LAYER_1
 62
     7
100
AcDbLine
 10
125.1606635199653
 20
66.50257297092013
 30
0.0
 11
126.2369113498264
 21
65.84783257378471
 31
0.0
  0
SPLINE
  5
86
330
A
100
AcDbEntity
  8
LAYER_1
 62
     7
100
AcDbSpline
210
0.0
220
0.0
230
1.0
 70
    11
 71
     3
 72
    20
 73
    16
 74
     0
 42
0.0000000001
 43
0.0000000001
 40
0.0
 40
0.0
 40
0.0
 40
0.0
 40
1.0
 40
1.0
 40
1.0
 40
2.0
 40
2.0
 40
2.0
 40
3.0
 40
3.0
 40
3.0
 40
4.0
 40
4.0
 40
4.0
 40
5.0
 40
5.0
 40
5.0
 40
5.0
 10
120.366468641493
 20
54.21322835286458
 30
0.0
 10
120.366468641493
 20
54.21322835286458
 30
0.0
 10
120.4358873155382
 20
54.1985866970486
 30
0.0
 10
120.4358873155382
 20
54.1985866970486
 30
0.0
 10
120.4358873155382
 20
54.1985866970486
 30
0.0
 10
125.1606635199653
 20
55.41504991319444
 30
0.0
 10
125.1606635199653
 20
55.41504991319444
 30
0.0
 10
125.1606635199653
 20
55.41504991319444
 30
0.0
 10
125.7189412434896
 20
56.56174994574652
 30
0.0
 10
125.7189412434896
 20
56.56174994574652
 30
0.0
 10
124.9811740451389
 20
56.37950439453125
 30
0.0
 10
121.1069919162326
 20
55.31341959635416
 30
0.0
 10
120.5761027018229
 20
55.18078342013889
 30
0.0
 10
120.494970703125
 20
54.91671685112847
 30
0.0
 10
120.4078097873264
 20
54.55670437282986
 30
0.0
 10
120.366468641493
 20
54.21322835286458
 30
0.0
  0
SPLINE
  5
85
330
A
100
AcDbEntity
  8
LAYER_1
 62
     7
100
AcDbSpline
210
0.0
220
0.0
230
1.0
 70
    11
 71
     3
 72
    17
 73
    13
 74
     0
 42
0.0000000001
 43
0.0000000001
 40
0.0
 40
0.0
 40
0.0
 40
0.0
 40
1.0
 40
1.0
 40
1.0
 40
2.0
 40
2.0
 40
2.0
 40
3.0
 40
3.0
 40
3.0
 40
4.0
 40
4.0
 40
4.0
 40
4.0
 10
126.0966959635417
 20
54.66608615451388
 30
0.0
 10
126.8451429578993
 20
55.08724907769097
 30
0.0
 10
126.704583062066
 20
56.77172851562499
 30
0.0
 10
125.8159206814236
 20
56.58448757595485
 30
0.0
 10
125.4385104709201
 20
56.50559488932291
 30
0.0
 10
121.137653266059
 20
55.32134331597221
 30
0.0
 10
120.5761027018229
 20
55.18078342013889
 30
0.0
 10
120.3888617621528
 20
54.57289632161458
 30
0.0
 10
120.1551120334201
 20
53.45013970269097
 30
0.0
 10
120.5761027018229
 20
53.21621771918402
 30
0.0
 10
120.8098524305556
 20
53.26289876302083
 30
0.0
 10
125.7253146701389
 20
54.59752875434027
 30
0.0
 10
126.0966959635417
 20
54.66608615451388
 30
0.0
  0
LINE
  5
84
330
A
100
AcDbEntity
  8
LAYER_1
 62
     7
100
AcDbLine
 10
125.1606635199653
 20
55.41504991319444
 30
0.0
 11
126.2369113498264
 21
54.75979275173611
 31
0.0
  0
SPLINE
  5
83
330
A
100
AcDbEntity
  8
LAYER_1
 62
     7
100
AcDbSpline
210
0.0
220
0.0
230
1.0
 70
    11
 71
     3
 72
    20
 73
    16
 74
     0
 42
0.0000000001
 43
0.0000000001
 40
0.0
 40
0.0
 40
0.0
 40
0.0
 40
1.0
 40
1.0
 40
1.0
 40
2.0
 40
2.0
 40
2.0
 40
3.0
 40
3.0
 40
3.0
 40
4.0
 40
4.0
 40
4.0
 40
5.0
 40
5.0
 40
5.0
 40
5.0
 10
120.366468641493
 20
50.28340793185763
 30
0.0
 10
120.366468641493
 20
50.28340793185763
 30
0.0
 10
120.4358873155382
 20
50.26876627604166
 30
0.0
 10
120.4358873155382
 20
50.26876627604166
 30
0.0
 10
120.4358873155382
 20
50.26876627604166
 30
0.0
 10
125.1606635199653
 20
51.48522949218749
 30
0.0
 10
125.1606635199653
 20
51.48522949218749
 30
0.0
 10
125.1606635199653
 20
51.48522949218749
 30
0.0
 10
125.7189412434896
 20
52.63192952473958
 30
0.0
 10
125.7189412434896
 20
52.63192952473958
 30
0.0
 10
124.9811740451389
 20
52.4496839735243
 30
0.0
 10
121.1069919162326
 20
51.38359917534721
 30
0.0
 10
120.5761027018229
 20
51.25096299913194
 30
0.0
 10
120.494970703125
 20
50.98689643012153
 30
0.0
 10
120.4078097873264
 20
50.62688395182291
 30
0.0
 10
120.366468641493
 20
50.28340793185763
 30
0.0
  0
SPLINE
  5
82
330
A
100
AcDbEntity
  8
LAYER_1
 62
     7
100
AcDbSpline
210
0.0
220
0.0
230
1.0
 70
    11
 71
     3
 72
    17
 73
    13
 74
     0
 42
0.0000000001
 43
0.0000000001
 40
0.0
 40
0.0
 40
0.0
 40
0.0
 40
1.0
 40
1.0
 40
1.0
 40
2.0
 40
2.0
 40
2.0
 40
3.0
 40
3.0
 40
3.0
 40
4.0
 40
4.0
 40
4.0
 40
4.0
 10
126.0966959635417
 20
50.73626573350694
 30
0.0
 10
126.8451429578993
 20
51.15742865668403
 30
0.0
 10
126.704583062066
 20
52.84190809461805
 30
0.0
 10
125.8159206814236
 20
52.65466715494791
 30
0.0
 10
125.4385104709201
 20
52.57577446831597
 30
0.0
 10
121.137653266059
 20
51.39152289496527
 30
0.0
 10
120.5761027018229
 20
51.25096299913194
 30
0.0
 10
120.3888617621528
 20
50.64307590060763
 30
0.0
 10
120.1551120334201
 20
49.52031928168402
 30
0.0
 10
120.5761027018229
 20
49.28605278862847
 30
0.0
 10
120.8098524305556
 20
49.33307834201388
 30
0.0
 10
125.7253146701389
 20
50.66770833333333
 30
0.0
 10
126.0966959635417
 20
50.73626573350694
 30
0.0
  0
LINE
  5
81
330
A
100
AcDbEntity
  8
LAYER_1
 62
     7
100
AcDbLine
 10
125.1606635199653
 20
51.48522949218749
 30
0.0
 11
126.2369113498264
 21
50.82997233072916
 31
0.0
  0
SPLINE
  5
80
330
A
100
AcDbEntity
  8
LAYER_1
 62
     7
100
AcDbSpline
210
0.0
220
0.0
230
1.0
 70
    11
 71
     3
 72
    20
 73
    16
 74
     0
 42
0.0000000001
 43
0.0000000001
 40
0.0
 40
0.0
 40
0.0
 40
0.0
 40
1.0
 40
1.0
 40
1.0
 40
2.0
 40
2.0
 40
2.0
 40
3.0
 40
3.0
 40
3.0
 40
4.0
 40
4.0
 40
4.0
 40
5.0
 40
5.0
 40
5.0
 40
5.0
 10
120.5066840277778
 20
46.72772488064236
 30
0.0
 10
120.5066840277778
 20
46.72772488064236
 30
0.0
 10
120.5761027018229
 20
46.71325547960069
 30
0.0
 10
120.5761027018229
 20
46.71325547960069
 30
0.0
 10
120.5761027018229
 20
46.71325547960069
 30
0.0
 10
125.3013956705729
 20
47.92937418619791
 30
0.0
 10
125.3013956705729
 20
47.92937418619791
 30
0.0
 10
125.3013956705729
 20
47.92937418619791
 30
0.0
 10
125.8595011393229
 20
49.07607421874999
 30
0.0
 10
125.8595011393229
 20
49.07607421874999
 30
0.0
 10
125.1213894314236
 20
48.89417317708333
 30
0.0
 10
121.247551812066
 20
47.82826063368055
 30
0.0
 10
120.7163180881076
 20
47.69562445746527
 30
0.0
 10
120.6351860894097
 20
47.43138563368055
 30
0.0
 10
120.5480251736111
 20
47.07137315538194
 30
0.0
 10
120.5066840277778
 20
46.72772488064236
 30
0.0
  0
SPLINE
  5
7F
330
A
100
AcDbEntity
  8
LAYER_1
 62
     7
100
AcDbSpline
210
0.0
220
0.0
230
1.0
 70
    11
 71
     3
 72
    17
 73
    13
 74
     0
 42
0.0000000001
 43
0.0000000001
 40
0.0
 40
0.0
 40
0.0
 40
0.0
 40
1.0
 40
1.0
 40
1.0
 40
2.0
 40
2.0
 40
2.0
 40
3.0
 40
3.0
 40
3.0
 40
4.0
 40
4.0
 40
4.0
 40
4.0
 10
126.2369113498264
 20
47.18092719184028
 30
0.0
 10
126.985358344184
 20
47.60191786024305
 30
0.0
 10
126.8451429578993
 20
49.28605278862847
 30
0.0
 10
125.9561360677083
 20
49.09915635850694
 30
0.0
 10
125.5790703667535
 20
49.02009141710069
 30
0.0
 10
121.2778686523437
 20
47.83583984374999
 30
0.0
 10
120.7163180881076
 20
47.69562445746527
 30
0.0
 10
120.5294216579861
 20
47.08739284939236
 30
0.0
 10
120.2953274197049
 20
45.96446397569444
 30
0.0
 10
120.7163180881076
 20
45.7307142469618
 30
0.0
 10
120.9504123263889
 20
45.77756754557291
 30
0.0
 10
125.8655300564236
 20
47.11236979166667
 30
0.0
 10
126.2369113498264
 20
47.18092719184028
 30
0.0
  0
LINE
  5
7E
330
A
100
AcDbEntity
  8
LAYER_1
 62
     7
100
AcDbLine
 10
125.3013956705729
 20
47.92937418619791
 30
0.0
 11
126.3771267361111
 21
47.27446153428819
 31
0.0
  0
SPLINE
  5
7D
330
A
100
AcDbEntity
  8
LAYER_1
 62
     7
100
AcDbSpline
210
0.0
220
0.0
230
1.0
 70
    11
 71
     3
 72
    20
 73
    16
 74
     0
 42
0.0000000001
 43
0.0000000001
 40
0.0
 40
0.0
 40
0.0
 40
0.0
 40
1.0
 40
1.0
 40
1.0
 40
2.0
 40
2.0
 40
2.0
 40
3.0
 40
3.0
 40
3.0
 40
4.0
 40
4.0
 40
4.0
 40
5.0
 40
5.0
 40
5.0
 40
5.0
 10
131.7345947265625
 20
49.86241726345486
 30
0.0
 10
131.7345947265625
 20
49.86241726345486
 30
0.0
 10
131.8043579101562
 20
49.84760335286458
 30
0.0
 10
131.8043579101562
 20
49.84760335286458
 30
0.0
 10
131.8043579101562
 20
49.84760335286458
 30
0.0
 10
136.5291341145833
 20
51.0637220594618
 30
0.0
 10
136.5291341145833
 20
51.0637220594618
 30
0.0
 10
136.5291341145833
 20
51.0637220594618
 30
0.0
 10
137.0874118381076
 20
52.2109388563368
 30
0.0
 10
137.0874118381076
 20
52.2109388563368
 30
0.0
 10
136.349127875434
 20
52.02852105034722
 30
0.0
 10
132.4754625108507
 20
50.96260850694444
 30
0.0
 10
131.944573296441
 20
50.82997233072916
 30
0.0
 10
131.863441297743
 20
50.56573350694444
 30
0.0
 10
131.7762803819445
 20
50.20572102864583
 30
0.0
 10
131.7345947265625
 20
49.86241726345486
 30
0.0
  0
SPLINE
  5
7C
330
A
100
AcDbEntity
  8
LAYER_1
 62
     7
100
AcDbSpline
210
0.0
220
0.0
230
1.0
 70
    11
 71
     3
 72
    17
 73
    13
 74
     0
 42
0.0000000001
 43
0.0000000001
 40
0.0
 40
0.0
 40
0.0
 40
0.0
 40
1.0
 40
1.0
 40
1.0
 40
2.0
 40
2.0
 40
2.0
 40
3.0
 40
3.0
 40
3.0
 40
4.0
 40
4.0
 40
4.0
 40
4.0
 10
137.4648220486111
 20
50.31527506510416
 30
0.0
 10
138.2136135525174
 20
50.73626573350694
 30
0.0
 10
138.073053656684
 20
52.42074517144097
 30
0.0
 10
137.1843912760417
 20
52.23367648654514
 30
0.0
 10
136.8069810655382
 20
52.15478379991319
 30
0.0
 10
132.5061238606771
 20
50.9705322265625
 30
0.0
 10
131.944573296441
 20
50.82997233072916
 30
0.0
 10
131.7573323567708
 20
50.22174072265624
 30
0.0
 10
131.5234103732639
 20
49.09915635850694
 30
0.0
 10
131.944573296441
 20
48.86506212022569
 30
0.0
 10
132.1783230251736
 20
48.9120876736111
 30
0.0
 10
137.0934407552083
 20
50.24671766493055
 30
0.0
 10
137.4648220486111
 20
50.31527506510416
 30
0.0
  0
LINE
  5
7B
330
A
100
AcDbEntity
  8
LAYER_1
 62
     7
100
AcDbLine
 10
136.5291341145833
 20
51.0637220594618
 30
0.0
 11
137.6053819444445
 21
50.40898166232638
 31
0.0
  0
SPLINE
  5
7A
330
A
100
AcDbEntity
  8
LAYER_1
 62
     7
100
AcDbSpline
210
0.0
220
0.0
230
1.0
 70
    11
 71
     3
 72
    20
 73
    16
 74
     0
 42
0.0000000001
 43
0.0000000001
 40
0.0
 40
0.0
 40
0.0
 40
0.0
 40
1.0
 40
1.0
 40
1.0
 40
2.0
 40
2.0
 40
2.0
 40
3.0
 40
3.0
 40
3.0
 40
4.0
 40
4.0
 40
4.0
 40
5.0
 40
5.0
 40
5.0
 40
5.0
 10
131.7345947265625
 20
53.69870334201389
 30
0.0
 10
131.7345947265625
 20
53.69870334201389
 30
0.0
 10
131.8043579101562
 20
53.68388943142361
 30
0.0
 10
131.8043579101562
 20
53.68388943142361
 30
0.0
 10
131.8043579101562
 20
53.68388943142361
 30
0.0
 10
136.5291341145833
 20
54.90035264756944
 30
0.0
 10
136.5291341145833
 20
54.90035264756944
 30
0.0
 10
136.5291341145833
 20
54.90035264756944
 30
0.0
 10
137.0874118381076
 20
56.04705268012152
 30
0.0
 10
137.0874118381076
 20
56.04705268012152
 30
0.0
 10
136.349127875434
 20
55.86480712890624
 30
0.0
 10
132.4754625108507
 20
54.79872233072916
 30
0.0
 10
131.944573296441
 20
54.66608615451388
 30
0.0
 10
131.863441297743
 20
54.40201958550347
 30
0.0
 10
131.7762803819445
 20
54.04200710720485
 30
0.0
 10
131.7345947265625
 20
53.69870334201389
 30
0.0
  0
SPLINE
  5
79
330
A
100
AcDbEntity
  8
LAYER_1
 62
     7
100
AcDbSpline
210
0.0
220
0.0
230
1.0
 70
    11
 71
     3
 72
    17
 73
    13
 74
     0
 42
0.0000000001
 43
0.0000000001
 40
0.0
 40
0.0
 40
0.0
 40
0.0
 40
1.0
 40
1.0
 40
1.0
 40
2.0
 40
2.0
 40
2.0
 40
3.0
 40
3.0
 40
3.0
 40
4.0
 40
4.0
 40
4.0
 40
4.0
 10
137.4648220486111
 20
54.15156114366319
 30
0.0
 10
138.2136135525174
 20
54.57289632161458
 30
0.0
 10
138.073053656684
 20
56.25703125
 30
0.0
 10
137.1843912760417
 20
56.06979031032986
 30
0.0
 10
136.8069810655382
 20
55.99106987847222
 30
0.0
 10
132.5061238606771
 20
54.80681830512152
 30
0.0
 10
131.944573296441
 20
54.66608615451388
 30
0.0
 10
131.7573323567708
 20
54.05837131076388
 30
0.0
 10
131.5234103732639
 20
52.93544243706597
 30
0.0
 10
131.944573296441
 20
52.70169270833333
 30
0.0
 10
132.1783230251736
 20
52.74820149739583
 30
0.0
 10
137.0934407552083
 20
54.08300374348958
 30
0.0
 10
137.4648220486111
 20
54.15156114366319
 30
0.0
  0
LINE
  5
78
330
A
100
AcDbEntity
  8
LAYER_1
 62
     7
100
AcDbLine
 10
136.5291341145833
 20
54.90035264756944
 30
0.0
 11
137.6053819444445
 21
54.24543999565972
 31
0.0
  0
SPLINE
  5
77
330
A
100
AcDbEntity
  8
LAYER_1
 62
     7
100
AcDbSpline
210
0.0
220
0.0
230
1.0
 70
    11
 71
     3
 72
    20
 73
    16
 74
     0
 42
0.0000000001
 43
0.0000000001
 40
0.0
 40
0.0
 40
0.0
 40
0.0
 40
1.0
 40
1.0
 40
1.0
 40
2.0
 40
2.0
 40
2.0
 40
3.0
 40
3.0
 40
3.0
 40
4.0
 40
4.0
 40
4.0
 40
5.0
 40
5.0
 40
5.0
 40
5.0
 10
131.7345947265625
 20
57.72205810546875
 30
0.0
 10
131.7345947265625
 20
57.72205810546875
 30
0.0
 10
131.8043579101562
 20
57.70724419487847
 30
0.0
 10
131.8043579101562
 20
57.70724419487847
 30
0.0
 10
131.8043579101562
 20
57.70724419487847
 30
0.0
 10
136.5291341145833
 20
58.9237074110243
 30
0.0
 10
136.5291341145833
 20
58.9237074110243
 30
0.0
 10
136.5291341145833
 20
58.9237074110243
 30
0.0
 10
137.0874118381076
 20
60.07057969835069
 30
0.0
 10
137.0874118381076
 20
60.07057969835069
 30
0.0
 10
136.349127875434
 20
59.8881618923611
 30
0.0
 10
132.4754625108507
 20
58.82224934895833
 30
0.0
 10
131.944573296441
 20
58.68961317274305
 30
0.0
 10
131.863441297743
 20
58.42537434895833
 30
0.0
 10
131.7762803819445
 20
58.06536187065971
 30
0.0
 10
131.7345947265625
 20
57.72205810546875
 30
0.0
  0
SPLINE
  5
76
330
A
100
AcDbEntity
  8
LAYER_1
 62
     7
100
AcDbSpline
210
0.0
220
0.0
230
1.0
 70
    11
 71
     3
 72
    17
 73
    13
 74
     0
 42
0.0000000001
 43
0.0000000001
 40
0.0
 40
0.0
 40
0.0
 40
0.0
 40
1.0
 40
1.0
 40
1.0
 40
2.0
 40
2.0
 40
2.0
 40
3.0
 40
3.0
 40
3.0
 40
4.0
 40
4.0
 40
4.0
 40
4.0
 10
137.4648220486111
 20
58.17491590711805
 30
0.0
 10
138.2136135525174
 20
58.59642333984375
 30
0.0
 10
138.073053656684
 20
60.28038601345486
 30
0.0
 10
137.1843912760417
 20
60.09331732855902
 30
0.0
 10
136.8069810655382
 20
60.01442464192708
 30
0.0
 10
132.5061238606771
 20
58.83017306857639
 30
0.0
 10
131.944573296441
 20
58.68961317274305
 30
0.0
 10
131.7573323567708
 20
58.08138156467013
 30
0.0
 10
131.5234103732639
 20
56.95879720052083
 30
0.0
 10
131.944573296441
 20
56.72470296223958
 30
0.0
 10
132.1783230251736
 20
56.77172851562499
 30
0.0
 10
137.0934407552083
 20
58.10635850694444
 30
0.0
 10
137.4648220486111
 20
58.17491590711805
 30
0.0
  0
LINE
  5
75
330
A
100
AcDbEntity
  8
LAYER_1
 62
     7
100
AcDbLine
 10
136.5291341145833
 20
58.9237074110243
 30
0.0
 11
137.6053819444445
 21
58.26862250434027
 31
0.0
  0
SPLINE
  5
74
330
A
100
AcDbEntity
  8
LAYER_1
 62
     7
100
AcDbSpline
210
0.0
220
0.0
230
1.0
 70
    11
 71
     3
 72
    20
 73
    16
 74
     0
 42
0.0000000001
 43
0.0000000001
 40
0.0
 40
0.0
 40
0.0
 40
0.0
 40
1.0
 40
1.0
 40
1.0
 40
2.0
 40
2.0
 40
2.0
 40
3.0
 40
3.0
 40
3.0
 40
4.0
 40
4.0
 40
4.0
 40
5.0
 40
5.0
 40
5.0
 40
5.0
 10
131.7345947265625
 20
61.09032796223958
 30
0.0
 10
131.7345947265625
 20
61.09032796223958
 30
0.0
 10
131.8043579101562
 20
61.0755140516493
 30
0.0
 10
131.8043579101562
 20
61.0755140516493
 30
0.0
 10
131.8043579101562
 20
61.0755140516493
 30
0.0
 10
136.5291341145833
 20
62.29197726779513
 30
0.0
 10
136.5291341145833
 20
62.29197726779513
 30
0.0
 10
136.5291341145833
 20
62.29197726779513
 30
0.0
 10
137.0874118381076
 20
63.43867730034722
 30
0.0
 10
137.0874118381076
 20
63.43867730034722
 30
0.0
 10
136.349127875434
 20
63.25677625868055
 30
0.0
 10
132.4754625108507
 20
62.19086371527777
 30
0.0
 10
131.944573296441
 20
62.05822753906249
 30
0.0
 10
131.863441297743
 20
61.79398871527777
 30
0.0
 10
131.7762803819445
 20
61.43397623697916
 30
0.0
 10
131.7345947265625
 20
61.09032796223958
 30
0.0
  0
SPLINE
  5
73
330
A
100
AcDbEntity
  8
LAYER_1
 62
     7
100
AcDbSpline
210
0.0
220
0.0
230
1.0
 70
    11
 71
     3
 72
    17
 73
    13
 74
     0
 42
0.0000000001
 43
0.0000000001
 40
0.0
 40
0.0
 40
0.0
 40
0.0
 40
1.0
 40
1.0
 40
1.0
 40
2.0
 40
2.0
 40
2.0
 40
3.0
 40
3.0
 40
3.0
 40
4.0
 40
4.0
 40
4.0
 40
4.0
 10
137.4648220486111
 20
61.5435302734375
 30
0.0
 10
138.2136135525174
 20
61.96452094184027
 30
0.0
 10
138.073053656684
 20
63.64865587022569
 30
0.0
 10
137.1843912760417
 20
63.46141493055555
 30
0.0
 10
136.8069810655382
 20
63.38269449869791
 30
0.0
 10
132.5061238606771
 20
62.19844292534722
 30
0.0
 10
131.944573296441
 20
62.05822753906249
 30
0.0
 10
131.7573323567708
 20
61.44999593098958
 30
0.0
 10
131.5234103732639
 20
60.32706705729166
 30
0.0
 10
131.944573296441
 20
60.09331732855902
 30
0.0
 10
132.1783230251736
 20
60.13982611762152
 30
0.0
 10
137.0934407552083
 20
61.47497287326388
 30
0.0
 10
137.4648220486111
 20
61.5435302734375
 30
0.0
  0
LINE
  5
72
330
A
100
AcDbEntity
  8
LAYER_1
 62
     7
100
AcDbLine
 10
136.5291341145833
 20
62.29197726779513
 30
0.0
 11
137.6053819444445
 21
61.63706461588541
 31
0.0
  0
SPLINE
  5
71
330
A
100
AcDbEntity
  8
LAYER_1
 62
     7
100
AcDbSpline
210
0.0
220
0.0
230
1.0
 70
    11
 71
     3
 72
    20
 73
    16
 74
     0
 42
0.0000000001
 43
0.0000000001
 40
0.0
 40
0.0
 40
0.0
 40
0.0
 40
1.0
 40
1.0
 40
1.0
 40
2.0
 40
2.0
 40
2.0
 40
3.0
 40
3.0
 40
3.0
 40
4.0
 40
4.0
 40
4.0
 40
5.0
 40
5.0
 40
5.0
 40
5.0
 10
131.7345947265625
 20
64.8799329969618
 30
0.0
 10
131.7345947265625
 20
64.8799329969618
 30
0.0
 10
131.8043579101562
 20
64.86511908637152
 30
0.0
 10
131.8043579101562
 20
64.86511908637152
 30
0.0
 10
131.8043579101562
 20
64.86511908637152
 30
0.0
 10
136.5291341145833
 20
66.08158230251736
 30
0.0
 10
136.5291341145833
 20
66.08158230251736
 30
0.0
 10
136.5291341145833
 20
66.08158230251736
 30
0.0
 10
137.0874118381076
 20
67.22828233506944
 30
0.0
 10
137.0874118381076
 20
67.22828233506944
 30
0.0
 10
136.349127875434
 20
67.04638129340277
 30
0.0
 10
132.4754625108507
 20
65.98046875
 30
0.0
 10
131.944573296441
 20
65.84783257378471
 30
0.0
 10
131.863441297743
 20
65.58324924045138
 30
0.0
 10
131.7762803819445
 20
65.22323676215277
 30
0.0
 10
131.7345947265625
 20
64.8799329969618
 30
0.0
  0
SPLINE
  5
70
330
A
100
AcDbEntity
  8
LAYER_1
 62
     7
100
AcDbSpline
210
0.0
220
0.0
230
1.0
 70
    11
 71
     3
 72
    17
 73
    13
 74
     0
 42
0.0000000001
 43
0.0000000001
 40
0.0
 40
0.0
 40
0.0
 40
0.0
 40
1.0
 40
1.0
 40
1.0
 40
2.0
 40
2.0
 40
2.0
 40
3.0
 40
3.0
 40
3.0
 40
4.0
 40
4.0
 40
4.0
 40
4.0
 10
137.4648220486111
 20
65.33313530815971
 30
0.0
 10
138.2136135525174
 20
65.75412597656249
 30
0.0
 10
138.073053656684
 20
67.43826090494791
 30
0.0
 10
137.1843912760417
 20
67.25101996527778
 30
0.0
 10
136.8069810655382
 20
67.17229953342013
 30
0.0
 10
132.5061238606771
 20
65.98804796006944
 30
0.0
 10
131.944573296441
 20
65.84783257378471
 30
0.0
 10
131.7573323567708
 20
65.2396009657118
 30
0.0
 10
131.5234103732639
 20
64.11667209201389
 30
0.0
 10
131.944573296441
 20
63.88292236328125
 30
0.0
 10
132.1783230251736
 20
63.92943115234375
 30
0.0
 10
137.0934407552083
 20
65.2642333984375
 30
0.0
 10
137.4648220486111
 20
65.33313530815971
 30
0.0
  0
LINE
  5
6F
330
A
100
AcDbEntity
  8
LAYER_1
 62
     7
100
AcDbLine
 10
136.5291341145833
 20
66.08158230251736
 30
0.0
 11
137.6053819444445
 21
65.42666965060764
 31
0.0
  0
SPLINE
  5
6E
330
A
100
AcDbEntity
  8
LAYER_1
 62
     7
100
AcDbSpline
210
0.0
220
0.0
230
1.0
 70
    11
 71
     3
 72
    20
 73
    16
 74
     0
 42
0.0000000001
 43
0.0000000001
 40
0.0
 40
0.0
 40
0.0
 40
0.0
 40
1.0
 40
1.0
 40
1.0
 40
2.0
 40
2.0
 40
2.0
 40
3.0
 40
3.0
 40
3.0
 40
4.0
 40
4.0
 40
4.0
 40
5.0
 40
5.0
 40
5.0
 40
5.0
 10
131.7345947265625
 20
68.43527153862847
 30
0.0
 10
131.7345947265625
 20
68.43527153862847
 30
0.0
 10
131.8043579101562
 20
68.42045762803819
 30
0.0
 10
131.8043579101562
 20
68.42045762803819
 30
0.0
 10
131.8043579101562
 20
68.42045762803819
 30
0.0
 10
136.5291341145833
 20
69.63692084418402
 30
0.0
 10
136.5291341145833
 20
69.63692084418402
 30
0.0
 10
136.5291341145833
 20
69.63692084418402
 30
0.0
 10
137.0874118381076
 20
70.78379313151041
 30
0.0
 10
137.0874118381076
 20
70.78379313151041
 30
0.0
 10
136.349127875434
 20
70.60189208984374
 30
0.0
 10
132.4754625108507
 20
69.53580729166666
 30
0.0
 10
131.944573296441
 20
69.40317111545139
 30
0.0
 10
131.863441297743
 20
69.13910454644096
 30
0.0
 10
131.7762803819445
 20
68.77909206814236
 30
0.0
 10
131.7345947265625
 20
68.43527153862847
 30
0.0
  0
SPLINE
  5
6D
330
A
100
AcDbEntity
  8
LAYER_1
 62
     7
100
AcDbSpline
210
0.0
220
0.0
230
1.0
 70
    11
 71
     3
 72
    17
 73
    13
 74
     0
 42
0.0000000001
 43
0.0000000001
 40
0.0
 40
0.0
 40
0.0
 40
0.0
 40
1.0
 40
1.0
 40
1.0
 40
2.0
 40
2.0
 40
2.0
 40
3.0
 40
3.0
 40
3.0
 40
4.0
 40
4.0
 40
4.0
 40
4.0
 10
137.4648220486111
 20
68.88847384982638
 30
0.0
 10
138.2136135525174
 20
69.30963677300346
 30
0.0
 10
138.073053656684
 20
70.99359944661458
 30
0.0
 10
137.1843912760417
 20
70.80687527126736
 30
0.0
 10
136.8069810655382
 20
70.7276380750868
 30
0.0
 10
132.5061238606771
 20
69.54338650173611
 30
0.0
 10
131.944573296441
 20
69.40317111545139
 30
0.0
 10
131.7573323567708
 20
68.79493950737847
 30
0.0
 10
131.5234103732639
 20
67.67201063368054
 30
0.0
 10
131.944573296441
 20
67.43826090494791
 30
0.0
 10
132.1783230251736
 20
67.48494194878472
 30
0.0
 10
137.0934407552083
 20
68.81991644965277
 30
0.0
 10
137.4648220486111
 20
68.88847384982638
 30
0.0
  0
LINE
  5
6C
330
A
100
AcDbEntity
  8
LAYER_1
 62
     7
100
AcDbLine
 10
136.5291341145833
 20
69.63692084418402
 30
0.0
 11
137.6053819444445
 21
68.98218044704861
 31
0.0
  0
SPLINE
  5
6B
330
A
100
AcDbEntity
  8
LAYER_1
 62
     7
100
AcDbSpline
210
0.0
220
0.0
230
1.0
 70
    11
 71
     3
 72
    20
 73
    16
 74
     0
 42
0.0000000001
 43
0.0000000001
 40
0.0
 40
0.0
 40
0.0
 40
0.0
 40
1.0
 40
1.0
 40
1.0
 40
2.0
 40
2.0
 40
2.0
 40
3.0
 40
3.0
 40
3.0
 40
4.0
 40
4.0
 40
4.0
 40
5.0
 40
5.0
 40
5.0
 40
5.0
 10
131.7345947265625
 20
72.08466118706596
 30
0.0
 10
131.7345947265625
 20
72.08466118706596
 30
0.0
 10
131.8043579101562
 20
72.06984727647568
 30
0.0
 10
131.8043579101562
 20
72.06984727647568
 30
0.0
 10
131.8043579101562
 20
72.06984727647568
 30
0.0
 10
136.5291341145833
 20
73.28631049262152
 30
0.0
 10
136.5291341145833
 20
73.28631049262152
 30
0.0
 10
136.5291341145833
 20
73.28631049262152
 30
0.0
 10
137.0874118381076
 20
74.43318277994791
 30
0.0
 10
137.0874118381076
 20
74.43318277994791
 30
0.0
 10
136.349127875434
 20
74.25076497395833
 30
0.0
 10
132.4754625108507
 20
73.18519694010416
 30
0.0
 10
131.944573296441
 20
73.05221625434027
 30
0.0
 10
131.863441297743
 20
72.78797743055554
 30
0.0
 10
131.7762803819445
 20
72.42796495225694
 30
0.0
 10
131.7345947265625
 20
72.08466118706596
 30
0.0
  0
SPLINE
  5
6A
330
A
100
AcDbEntity
  8
LAYER_1
 62
     7
100
AcDbSpline
210
0.0
220
0.0
230
1.0
 70
    11
 71
     3
 72
    17
 73
    13
 74
     0
 42
0.0000000001
 43
0.0000000001
 40
0.0
 40
0.0
 40
0.0
 40
0.0
 40
1.0
 40
1.0
 40
1.0
 40
2.0
 40
2.0
 40
2.0
 40
3.0
 40
3.0
 40
3.0
 40
4.0
 40
4.0
 40
4.0
 40
4.0
 10
137.4648220486111
 20
72.53751898871528
 30
0.0
 10
138.2136135525174
 20
72.95902642144097
 30
0.0
 10
138.073053656684
 20
74.64298909505207
 30
0.0
 10
137.1843912760417
 20
74.45592041015624
 30
0.0
 10
136.8069810655382
 20
74.37702772352429
 30
0.0
 10
132.5061238606771
 20
73.1927761501736
 30
0.0
 10
131.944573296441
 20
73.05221625434027
 30
0.0
 10
131.7573323567708
 20
72.44432915581596
 30
0.0
 10
131.5234103732639
 20
71.32105577256944
 30
0.0
 10
131.944573296441
 20
71.0873060438368
 30
0.0
 10
132.1783230251736
 20
71.13433159722221
 30
0.0
 10
137.0934407552083
 20
72.46896158854166
 30
0.0
 10
137.4648220486111
 20
72.53751898871528
 30
0.0
  0
LINE
  5
69
330
A
100
AcDbEntity
  8
LAYER_1
 62
     7
100
AcDbLine
 10
136.5291341145833
 20
73.28631049262152
 30
0.0
 11
137.6053819444445
 21
72.6312255859375
 31
0.0
  0
SPLINE
  5
68
330
A
100
AcDbEntity
  8
LAYER_1
 62
     7
100
AcDbSpline
210
0.0
220
0.0
230
1.0
 70
    11
 71
     3
 72
    20
 73
    16
 74
     0
 42
0.0000000001
 43
0.0000000001
 40
0.0
 40
0.0
 40
0.0
 40
0.0
 40
1.0
 40
1.0
 40
1.0
 40
2.0
 40
2.0
 40
2.0
 40
3.0
 40
3.0
 40
3.0
 40
4.0
 40
4.0
 40
4.0
 40
5.0
 40
5.0
 40
5.0
 40
5.0
 10
131.8751546223958
 20
75.78073187934027
 30
0.0
 10
131.8751546223958
 20
75.78073187934027
 30
0.0
 10
131.944573296441
 20
75.76591796874999
 30
0.0
 10
131.944573296441
 20
75.76591796874999
 30
0.0
 10
131.944573296441
 20
75.76591796874999
 30
0.0
 10
136.6696940104167
 20
76.98203667534722
 30
0.0
 10
136.6696940104167
 20
76.98203667534722
 30
0.0
 10
136.6696940104167
 20
76.98203667534722
 30
0.0
 10
137.227971733941
 20
78.1290812174479
 30
0.0
 10
137.227971733941
 20
78.1290812174479
 30
0.0
 10
136.4896877712673
 20
77.94683566623263
 30
0.0
 10
132.616022406684
 20
76.88075086805554
 30
0.0
 10
132.0851331922743
 20
76.74811469184027
 30
0.0
 10
132.0036566840278
 20
76.48404812282985
 30
0.0
 10
131.9164957682292
 20
76.12403564453125
 30
0.0
 10
131.8751546223958
 20
75.78073187934027
 30
0.0
  0
SPLINE
  5
67
330
A
100
AcDbEntity
  8
LAYER_1
 62
     7
100
AcDbSpline
210
0.0
220
0.0
230
1.0
 70
    11
 71
     3
 72
    17
 73
    13
 74
     0
 42
0.0000000001
 43
0.0000000001
 40
0.0
 40
0.0
 40
0.0
 40
0.0
 40
1.0
 40
1.0
 40
1.0
 40
2.0
 40
2.0
 40
2.0
 40
3.0
 40
3.0
 40
3.0
 40
4.0
 40
4.0
 40
4.0
 40
4.0
 10
137.6053819444445
 20
76.23358968098958
 30
0.0
 10
138.3538289388021
 20
76.65458034939235
 30
0.0
 10
138.2136135525174
 20
78.33905978732638
 30
0.0
 10
137.3246066623264
 20
78.15181884765624
 30
0.0
 10
136.9475409613715
 20
78.07258165147569
 30
0.0
 10
132.6463392469618
 20
76.88833007812499
 30
0.0
 10
132.0851331922743
 20
76.74811469184027
 30
0.0
 10
131.8978922526042
 20
76.13988308376736
 30
0.0
 10
131.6636257595486
 20
75.01747097439235
 30
0.0
 10
132.0851331922743
 20
74.7832044813368
 30
0.0
 10
132.318882921007
 20
74.83023003472222
 30
0.0
 10
137.2340006510416
 20
76.16503228081596
 30
0.0
 10
137.6053819444445
 20
76.23358968098958
 30
0.0
  0
LINE
  5
66
330
A
100
AcDbEntity
  8
LAYER_1
 62
     7
100
AcDbLine
 10
136.6696940104167
 20
76.98203667534722
 30
0.0
 11
137.7455973307291
 21
76.32712402343749
 31
0.0
  0
SPLINE
  5
65
330
A
100
AcDbEntity
  8
LAYER_1
 62
     7
100
AcDbSpline
210
0.0
220
0.0
230
1.0
 70
    11
 71
     3
 72
    20
 73
    16
 74
     0
 42
0.0000000001
 43
0.0000000001
 40
0.0
 40
0.0
 40
0.0
 40
0.0
 40
1.0
 40
1.0
 40
1.0
 40
2.0
 40
2.0
 40
2.0
 40
3.0
 40
3.0
 40
3.0
 40
4.0
 40
4.0
 40
4.0
 40
5.0
 40
5.0
 40
5.0
 40
5.0
 10
105.4893405490451
 20
50.00263264973958
 30
0.0
 10
105.4893405490451
 20
50.00263264973958
 30
0.0
 10
105.558586968316
 20
49.9878187391493
 30
0.0
 10
105.558586968316
 20
49.9878187391493
 30
0.0
 10
105.558586968316
 20
49.9878187391493
 30
0.0
 10
110.283879937066
 20
51.20428195529514
 30
0.0
 10
110.283879937066
 20
51.20428195529514
 30
0.0
 10
110.283879937066
 20
51.20428195529514
 30
0.0
 10
110.8416408962674
 20
52.35115424262153
 30
0.0
 10
110.8416408962674
 20
52.35115424262153
 30
0.0
 10
110.1038736979167
 20
52.16873643663194
 30
0.0
 10
106.2296915690104
 20
51.10316840277778
 30
0.0
 10
105.6988023546007
 20
50.9705322265625
 30
0.0
 10
105.6176703559028
 20
50.70646565755208
 30
0.0
 10
105.5305094401042
 20
50.34593641493055
 30
0.0
 10
105.4893405490451
 20
50.00263264973958
 30
0.0
  0
SPLINE
  5
64
330
A
100
AcDbEntity
  8
LAYER_1
 62
     7
100
AcDbSpline
210
0.0
220
0.0
230
1.0
 70
    11
 71
     3
 72
    17
 73
    13
 74
     0
 42
0.0000000001
 43
0.0000000001
 40
0.0
 40
0.0
 40
0.0
 40
0.0
 40
1.0
 40
1.0
 40
1.0
 40
2.0
 40
2.0
 40
2.0
 40
3.0
 40
3.0
 40
3.0
 40
4.0
 40
4.0
 40
4.0
 40
4.0
 10
111.2195678710937
 20
50.45583496093749
 30
0.0
 10
111.9680148654514
 20
50.87699788411458
 30
0.0
 10
111.8274549696181
 20
52.56096055772569
 30
0.0
 10
110.9387925889757
 20
52.37389187282986
 30
0.0
 10
110.5617268880208
 20
52.29499918619791
 30
0.0
 10
106.2605251736111
 20
51.11074761284722
 30
0.0
 10
105.6988023546007
 20
50.9705322265625
 30
0.0
 10
105.5115614149305
 20
50.36230061848958
 30
0.0
 10
105.2778116861979
 20
49.23937174479166
 30
0.0
 10
105.6988023546007
 20
49.00562201605902
 30
0.0
 10
105.9330688476562
 20
49.05230305989583
 30
0.0
 10
110.848186577691
 20
50.38693305121527
 30
0.0
 10
111.2195678710937
 20
50.45583496093749
 30
0.0
  0
LINE
  5
63
330
A
100
AcDbEntity
  8
LAYER_1
 62
     7
100
AcDbLine
 10
110.283879937066
 20
51.20428195529514
 30
0.0
 11
111.3597832573785
 21
50.54954155815972
 31
0.0
  0
SPLINE
  5
62
330
A
100
AcDbEntity
  8
LAYER_1
 62
     7
100
AcDbSpline
210
0.0
220
0.0
230
1.0
 70
    11
 71
     3
 72
    20
 73
    16
 74
     0
 42
0.0000000001
 43
0.0000000001
 40
0.0
 40
0.0
 40
0.0
 40
0.0
 40
1.0
 40
1.0
 40
1.0
 40
2.0
 40
2.0
 40
2.0
 40
3.0
 40
3.0
 40
3.0
 40
4.0
 40
4.0
 40
4.0
 40
5.0
 40
5.0
 40
5.0
 40
5.0
 10
105.4893405490451
 20
46.07281222873264
 30
0.0
 10
105.4893405490451
 20
46.07281222873264
 30
0.0
 10
105.558586968316
 20
46.05799831814236
 30
0.0
 10
105.558586968316
 20
46.05799831814236
 30
0.0
 10
105.558586968316
 20
46.05799831814236
 30
0.0
 10
110.283879937066
 20
47.27446153428819
 30
0.0
 10
110.283879937066
 20
47.27446153428819
 30
0.0
 10
110.283879937066
 20
47.27446153428819
 30
0.0
 10
110.8416408962674
 20
48.42133382161458
 30
0.0
 10
110.8416408962674
 20
48.42133382161458
 30
0.0
 10
110.1038736979167
 20
48.23943277994791
 30
0.0
 10
106.2296915690104
 20
47.17334798177083
 30
0.0
 10
105.6988023546007
 20
47.04071180555555
 30
0.0
 10
105.6176703559028
 20
46.77612847222222
 30
0.0
 10
105.5305094401042
 20
46.4161159939236
 30
0.0
 10
105.4893405490451
 20
46.07281222873264
 30
0.0
  0
SPLINE
  5
61
330
A
100
AcDbEntity
  8
LAYER_1
 62
     7
100
AcDbSpline
210
0.0
220
0.0
230
1.0
 70
    11
 71
     3
 72
    17
 73
    13
 74
     0
 42
0.0000000001
 43
0.0000000001
 40
0.0
 40
0.0
 40
0.0
 40
0.0
 40
1.0
 40
1.0
 40
1.0
 40
2.0
 40
2.0
 40
2.0
 40
3.0
 40
3.0
 40
3.0
 40
4.0
 40
4.0
 40
4.0
 40
4.0
 10
111.2195678710937
 20
46.52601453993055
 30
0.0
 10
111.9680148654514
 20
46.94717746310764
 30
0.0
 10
111.8274549696181
 20
48.63114013671875
 30
0.0
 10
110.9387925889757
 20
48.44407145182291
 30
0.0
 10
110.5617268880208
 20
48.36517876519097
 30
0.0
 10
106.2605251736111
 20
47.18092719184028
 30
0.0
 10
105.6988023546007
 20
47.04071180555555
 30
0.0
 10
105.5115614149305
 20
46.43248019748263
 30
0.0
 10
105.2778116861979
 20
45.30955132378472
 30
0.0
 10
105.6988023546007
 20
45.07580159505208
 30
0.0
 10
105.9330688476562
 20
45.12248263888888
 30
0.0
 10
110.848186577691
 20
46.45711263020833
 30
0.0
 10
111.2195678710937
 20
46.52601453993055
 30
0.0
  0
LINE
  5
60
330
A
100
AcDbEntity
  8
LAYER_1
 62
     7
100
AcDbLine
 10
110.283879937066
 20
47.27446153428819
 30
0.0
 11
111.3597832573785
 21
46.61972113715277
 31
0.0
  0
SPLINE
  5
5F
330
A
100
AcDbEntity
  8
LAYER_1
 62
     7
100
AcDbSpline
210
0.0
220
0.0
230
1.0
 70
    11
 71
     3
 72
    20
 73
    16
 74
     0
 42
0.0000000001
 43
0.0000000001
 40
0.0
 40
0.0
 40
0.0
 40
0.0
 40
1.0
 40
1.0
 40
1.0
 40
2.0
 40
2.0
 40
2.0
 40
3.0
 40
3.0
 40
3.0
 40
4.0
 40
4.0
 40
4.0
 40
5.0
 40
5.0
 40
5.0
 40
5.0
 10
105.0213243272569
 20
42.09648301866319
 30
0.0
 10
105.0213243272569
 20
42.09648301866319
 30
0.0
 10
105.0905707465278
 20
42.08166910807292
 30
0.0
 10
105.0905707465278
 20
42.08166910807292
 30
0.0
 10
105.0905707465278
 20
42.08166910807292
 30
0.0
 10
109.8158637152778
 20
43.29813232421875
 30
0.0
 10
109.8158637152778
 20
43.29813232421875
 30
0.0
 10
109.8158637152778
 20
43.29813232421875
 30
0.0
 10
110.3741414388021
 20
44.44448784722222
 30
0.0
 10
110.3741414388021
 20
44.44448784722222
 30
0.0
 10
109.6358574761285
 20
44.26258680555555
 30
0.0
 10
105.7621921115451
 20
43.19684651692708
 30
0.0
 10
105.2311306423611
 20
43.06386583116319
 30
0.0
 10
105.1496541341146
 20
42.79979926215277
 30
0.0
 10
105.062493218316
 20
42.43978678385416
 30
0.0
 10
105.0213243272569
 20
42.09648301866319
 30
0.0
  0
SPLINE
  5
5E
330
A
100
AcDbEntity
  8
LAYER_1
 62
     7
100
AcDbSpline
210
0.0
220
0.0
230
1.0
 70
    11
 71
     3
 72
    17
 73
    13
 74
     0
 42
0.0000000001
 43
0.0000000001
 40
0.0
 40
0.0
 40
0.0
 40
0.0
 40
1.0
 40
1.0
 40
1.0
 40
2.0
 40
2.0
 40
2.0
 40
3.0
 40
3.0
 40
3.0
 40
4.0
 40
4.0
 40
4.0
 40
4.0
 10
110.7515516493055
 20
42.54934082031249
 30
0.0
 10
111.4999986436632
 20
42.97033148871527
 30
0.0
 10
111.3597832573785
 20
44.6548109266493
 30
0.0
 10
110.4707763671875
 20
44.46756998697916
 30
0.0
 10
110.0937106662326
 20
44.38833279079861
 30
0.0
 10
105.7925089518229
 20
43.20442572699653
 30
0.0
 10
105.2311306423611
 20
43.06386583116319
 30
0.0
 10
105.0440619574653
 20
42.45563422309027
 30
0.0
 10
104.8101399739583
 20
41.33287760416666
 30
0.0
 10
105.2311306423611
 20
41.09895562065972
 30
0.0
 10
105.465052625868
 20
41.14598117404513
 30
0.0
 10
110.3801703559028
 20
42.48061116536458
 30
0.0
 10
110.7515516493055
 20
42.54934082031249
 30
0.0
  0
LINE
  5
5D
330
A
100
AcDbEntity
  8
LAYER_1
 62
     7
100
AcDbLine
 10
109.8158637152778
 20
43.29813232421875
 30
0.0
 11
110.8917670355903
 21
42.64287516276041
 31
0.0
  0
SPLINE
  5
5C
330
A
100
AcDbEntity
  8
LAYER_1
 62
     7
100
AcDbSpline
210
0.0
220
0.0
230
1.0
 70
    11
 71
     3
 72
    20
 73
    16
 74
     0
 42
0.0000000001
 43
0.0000000001
 40
0.0
 40
0.0
 40
0.0
 40
0.0
 40
1.0
 40
1.0
 40
1.0
 40
2.0
 40
2.0
 40
2.0
 40
3.0
 40
3.0
 40
3.0
 40
4.0
 40
4.0
 40
4.0
 40
5.0
 40
5.0
 40
5.0
 40
5.0
 10
94.35461968315971
 20
62.11955023871527
 30
0.0
 10
94.35461968315971
 20
62.11955023871527
 30
0.0
 10
94.42403835720485
 20
62.10473632812499
 30
0.0
 10
94.42403835720485
 20
62.10473632812499
 30
0.0
 10
94.42403835720485
 20
62.10473632812499
 30
0.0
 10
99.14933132595485
 20
63.32119954427083
 30
0.0
 10
99.14933132595485
 20
63.32119954427083
 30
0.0
 10
99.14933132595485
 20
63.32119954427083
 30
0.0
 10
99.70709228515624
 20
64.46789957682292
 30
0.0
 10
99.70709228515624
 20
64.46789957682292
 30
0.0
 10
98.96932508680554
 20
64.28599853515624
 30
0.0
 10
95.0951429578993
 20
63.22008599175346
 30
0.0
 10
94.56425374348957
 20
63.08744981553819
 30
0.0
 10
94.48312174479166
 20
62.82321099175347
 30
0.0
 10
94.39596082899304
 20
62.46319851345486
 30
0.0
 10
94.35461968315971
 20
62.11955023871527
 30
0.0
  0
SPLINE
  5
5B
330
A
100
AcDbEntity
  8
LAYER_1
 62
     7
100
AcDbSpline
210
0.0
220
0.0
230
1.0
 70
    11
 71
     3
 72
    17
 73
    13
 74
     0
 42
0.0000000001
 43
0.0000000001
 40
0.0
 40
0.0
 40
0.0
 40
0.0
 40
1.0
 40
1.0
 40
1.0
 40
2.0
 40
2.0
 40
2.0
 40
3.0
 40
3.0
 40
3.0
 40
4.0
 40
4.0
 40
4.0
 40
4.0
 10
100.0848470052083
 20
62.57275254991319
 30
0.0
 10
100.833293999566
 20
62.99374321831597
 30
0.0
 10
100.6930786132812
 20
64.67787814670139
 30
0.0
 10
99.80407172309027
 20
64.49063720703124
 30
0.0
 10
99.4270060221354
 20
64.41191677517361
 30
0.0
 10
95.12580430772569
 20
63.22766520182291
 30
0.0
 10
94.56425374348957
 20
63.08744981553819
 30
0.0
 10
94.37735731336805
 20
62.47921820746527
 30
0.0
 10
94.14326307508679
 20
61.35628933376736
 30
0.0
 10
94.56425374348957
 20
61.12253960503472
 30
0.0
 10
94.79834798177083
 20
61.16904839409722
 30
0.0
 10
99.71346571180554
 20
62.50419514973958
 30
0.0
 10
100.0848470052083
 20
62.57275254991319
 30
0.0
  0
LINE
  5
5A
330
A
100
AcDbEntity
  8
LAYER_1
 62
     7
100
AcDbLine
 10
99.14933132595485
 20
63.32119954427083
 30
0.0
 11
100.225062391493
 21
62.66645914713541
 31
0.0
  0
SPLINE
  5
59
330
A
100
AcDbEntity
  8
LAYER_1
 62
     7
100
AcDbSpline
210
0.0
220
0.0
230
1.0
 70
    11
 71
     3
 72
    20
 73
    16
 74
     0
 42
0.0000000001
 43
0.0000000001
 40
0.0
 40
0.0
 40
0.0
 40
0.0
 40
1.0
 40
1.0
 40
1.0
 40
2.0
 40
2.0
 40
2.0
 40
3.0
 40
3.0
 40
3.0
 40
4.0
 40
4.0
 40
4.0
 40
5.0
 40
5.0
 40
5.0
 40
5.0
 10
94.12086995442708
 20
58.28326416015624
 30
0.0
 10
94.12086995442708
 20
58.28326416015624
 30
0.0
 10
94.1901163736979
 20
58.26862250434027
 30
0.0
 10
94.1901163736979
 20
58.26862250434027
 30
0.0
 10
94.1901163736979
 20
58.26862250434027
 30
0.0
 10
98.9154093424479
 20
59.4850857204861
 30
0.0
 10
98.9154093424479
 20
59.4850857204861
 30
0.0
 10
98.9154093424479
 20
59.4850857204861
 30
0.0
 10
99.4733425564236
 20
60.63178575303819
 30
0.0
 10
99.4733425564236
 20
60.63178575303819
 30
0.0
 10
98.73540310329861
 20
60.44988471137152
 30
0.0
 10
94.86139322916665
 20
59.38379991319444
 30
0.0
 10
94.33033175998263
 20
59.25116373697916
 30
0.0
 10
94.24937201605901
 20
58.98709716796874
 30
0.0
 10
94.16221110026041
 20
58.62674018012152
 30
0.0
 10
94.12086995442708
 20
58.28326416015624
 30
0.0
  0
SPLINE
  5
58
330
A
100
AcDbEntity
  8
LAYER_1
 62
     7
100
AcDbSpline
210
0.0
220
0.0
230
1.0
 70
    11
 71
     3
 72
    17
 73
    13
 74
     0
 42
0.0000000001
 43
0.0000000001
 40
0.0
 40
0.0
 40
0.0
 40
0.0
 40
1.0
 40
1.0
 40
1.0
 40
2.0
 40
2.0
 40
2.0
 40
3.0
 40
3.0
 40
3.0
 40
4.0
 40
4.0
 40
4.0
 40
4.0
 10
99.85109727647568
 20
58.73663872612847
 30
0.0
 10
100.5995442708333
 20
59.15762939453124
 30
0.0
 10
100.458984375
 20
60.84176432291666
 30
0.0
 10
99.57032199435763
 20
60.65452338324652
 30
0.0
 10
99.19325629340277
 20
60.57563069661457
 30
0.0
 10
94.89205457899304
 20
59.39137912326388
 30
0.0
 10
94.33033175998263
 20
59.25116373697916
 30
0.0
 10
94.14326307508679
 20
58.64293212890625
 30
0.0
 10
93.90934109157985
 20
57.52017550998264
 30
0.0
 10
94.33033175998263
 20
57.28625352647569
 30
0.0
 10
94.56425374348957
 20
57.3329345703125
 30
0.0
 10
99.47971598307291
 20
58.66790907118055
 30
0.0
 10
99.85109727647568
 20
58.73663872612847
 30
0.0
  0
LINE
  5
57
330
A
100
AcDbEntity
  8
LAYER_1
 62
     7
100
AcDbLine
 10
98.9154093424479
 20
59.4850857204861
 30
0.0
 11
99.99131266276041
 21
58.83017306857639
 31
0.0
  0
SPLINE
  5
56
330
A
100
AcDbEntity
  8
LAYER_1
 62
     7
100
AcDbSpline
210
0.0
220
0.0
230
1.0
 70
    11
 71
     3
 72
    20
 73
    16
 74
     0
 42
0.0000000001
 43
0.0000000001
 40
0.0
 40
0.0
 40
0.0
 40
0.0
 40
1.0
 40
1.0
 40
1.0
 40
2.0
 40
2.0
 40
2.0
 40
3.0
 40
3.0
 40
3.0
 40
4.0
 40
4.0
 40
4.0
 40
5.0
 40
5.0
 40
5.0
 40
5.0
 10
94.40130072699652
 20
54.77460666232638
 30
0.0
 10
94.40130072699652
 20
54.77460666232638
 30
0.0
 10
94.47106391059027
 20
54.75979275173611
 30
0.0
 10
94.47106391059027
 20
54.75979275173611
 30
0.0
 10
94.47106391059027
 20
54.75979275173611
 30
0.0
 10
99.19584011501735
 20
55.97625596788194
 30
0.0
 10
99.19584011501735
 20
55.97625596788194
 30
0.0
 10
99.19584011501735
 20
55.97625596788194
 30
0.0
 10
99.75411783854166
 20
57.12295600043402
 30
0.0
 10
99.75411783854166
 20
57.12295600043402
 30
0.0
 10
99.01583387586804
 20
56.94105495876735
 30
0.0
 10
95.14216851128471
 20
55.87497016059027
 30
0.0
 10
94.611279296875
 20
55.74233398437499
 30
0.0
 10
94.52980278862846
 20
55.47826741536458
 30
0.0
 10
94.44298638237846
 20
55.11825493706597
 30
0.0
 10
94.40130072699652
 20
54.77460666232638
 30
0.0
  0
SPLINE
  5
55
330
A
100
AcDbEntity
  8
LAYER_1
 62
     7
100
AcDbSpline
210
0.0
220
0.0
230
1.0
 70
    11
 71
     3
 72
    17
 73
    13
 74
     0
 42
0.0000000001
 43
0.0000000001
 40
0.0
 40
0.0
 40
0.0
 40
0.0
 40
1.0
 40
1.0
 40
1.0
 40
2.0
 40
2.0
 40
2.0
 40
3.0
 40
3.0
 40
3.0
 40
4.0
 40
4.0
 40
4.0
 40
4.0
 10
100.1315280490451
 20
55.2278089735243
 30
0.0
 10
100.8803195529514
 20
55.64879964192708
 30
0.0
 10
100.739759657118
 20
57.3329345703125
 30
0.0
 10
99.85109727647568
 20
57.14569363064236
 30
0.0
 10
99.47368706597221
 20
57.06680094401041
 30
0.0
 10
95.17248535156249
 20
55.88254937065972
 30
0.0
 10
94.611279296875
 20
55.74233398437499
 30
0.0
 10
94.42403835720485
 20
55.13410237630208
 30
0.0
 10
94.1901163736979
 20
54.01134575737846
 30
0.0
 10
94.611279296875
 20
53.77742377387153
 30
0.0
 10
94.84502902560763
 20
53.82410481770833
 30
0.0
 10
99.76014675564235
 20
55.15925157335069
 30
0.0
 10
100.1315280490451
 20
55.2278089735243
 30
0.0
  0
LINE
  5
54
330
A
100
AcDbEntity
  8
LAYER_1
 62
     7
100
AcDbLine
 10
99.19584011501735
 20
55.97625596788194
 30
0.0
 11
100.2720879448785
 21
55.32134331597221
 31
0.0
  0
SPLINE
  5
53
330
A
100
AcDbEntity
  8
LAYER_1
 62
     7
100
AcDbSpline
210
0.0
220
0.0
230
1.0
 70
    11
 71
     3
 72
    20
 73
    16
 74
     0
 42
0.0000000001
 43
0.0000000001
 40
0.0
 40
0.0
 40
0.0
 40
0.0
 40
1.0
 40
1.0
 40
1.0
 40
2.0
 40
2.0
 40
2.0
 40
3.0
 40
3.0
 40
3.0
 40
4.0
 40
4.0
 40
4.0
 40
5.0
 40
5.0
 40
5.0
 40
5.0
 10
94.44832628038193
 20
50.51732991536458
 30
0.0
 10
94.44832628038193
 20
50.51732991536458
 30
0.0
 10
94.51757269965277
 20
50.5025160047743
 30
0.0
 10
94.51757269965277
 20
50.5025160047743
 30
0.0
 10
94.51757269965277
 20
50.5025160047743
 30
0.0
 10
99.24286566840277
 20
51.71897922092013
 30
0.0
 10
99.24286566840277
 20
51.71897922092013
 30
0.0
 10
99.24286566840277
 20
51.71897922092013
 30
0.0
 10
99.80062662760416
 20
52.86567925347222
 30
0.0
 10
99.80062662760416
 20
52.86567925347222
 30
0.0
 10
99.06285942925346
 20
52.68343370225694
 30
0.0
 10
95.18867730034721
 20
51.61786566840277
 30
0.0
 10
94.6577880859375
 20
51.48522949218749
 30
0.0
 10
94.57665608723957
 20
51.22099066840277
 30
0.0
 10
94.48949517144096
 20
50.86063368055555
 30
0.0
 10
94.44832628038193
 20
50.51732991536458
 30
0.0
  0
SPLINE
  5
52
330
A
100
AcDbEntity
  8
LAYER_1
 62
     7
100
AcDbSpline
210
0.0
220
0.0
230
1.0
 70
    11
 71
     3
 72
    17
 73
    13
 74
     0
 42
0.0000000001
 43
0.0000000001
 40
0.0
 40
0.0
 40
0.0
 40
0.0
 40
1.0
 40
1.0
 40
1.0
 40
2.0
 40
2.0
 40
2.0
 40
3.0
 40
3.0
 40
3.0
 40
4.0
 40
4.0
 40
4.0
 40
4.0
 10
100.1785536024305
 20
50.9705322265625
 30
0.0
 10
100.9270005967882
 20
51.39152289496527
 30
0.0
 10
100.7867852105035
 20
53.07565782335069
 30
0.0
 10
99.8977783203125
 20
52.88841688368055
 30
0.0
 10
99.52071261935762
 20
52.80969645182291
 30
0.0
 10
95.21951090494791
 20
51.62544487847222
 30
0.0
 10
94.6577880859375
 20
51.48522949218749
 30
0.0
 10
94.47106391059027
 20
50.87699788411458
 30
0.0
 10
94.23679741753472
 20
49.75406901041666
 30
0.0
 10
94.6577880859375
 20
49.52031928168402
 30
0.0
 10
94.89205457899304
 20
49.56682807074652
 30
0.0
 10
99.80717230902776
 20
50.90163031684028
 30
0.0
 10
100.1785536024305
 20
50.9705322265625
 30
0.0
  0
LINE
  5
51
330
A
100
AcDbEntity
  8
LAYER_1
 62
     7
100
AcDbLine
 10
99.24286566840277
 20
51.71897922092013
 30
0.0
 11
100.3187689887153
 21
51.0637220594618
 31
0.0
  0
SPLINE
  5
50
330
A
100
AcDbEntity
  8
LAYER_1
 62
     7
100
AcDbSpline
210
0.0
220
0.0
230
1.0
 70
    11
 71
     3
 72
    20
 73
    16
 74
     0
 42
0.0000000001
 43
0.0000000001
 40
0.0
 40
0.0
 40
0.0
 40
0.0
 40
1.0
 40
1.0
 40
1.0
 40
2.0
 40
2.0
 40
2.0
 40
3.0
 40
3.0
 40
3.0
 40
4.0
 40
4.0
 40
4.0
 40
5.0
 40
5.0
 40
5.0
 40
5.0
 10
94.35461968315971
 20
46.68104383680555
 30
0.0
 10
94.35461968315971
 20
46.68104383680555
 30
0.0
 10
94.42403835720485
 20
46.66622992621527
 30
0.0
 10
94.42403835720485
 20
46.66622992621527
 30
0.0
 10
94.42403835720485
 20
46.66622992621527
 30
0.0
 10
99.14933132595485
 20
47.88269314236111
 30
0.0
 10
99.14933132595485
 20
47.88269314236111
 30
0.0
 10
99.14933132595485
 20
47.88269314236111
 30
0.0
 10
99.70709228515624
 20
49.02956542968749
 30
0.0
 10
99.70709228515624
 20
49.02956542968749
 30
0.0
 10
98.96932508680554
 20
48.84714762369791
 30
0.0
 10
95.0951429578993
 20
47.78157958984374
 30
0.0
 10
94.56425374348957
 20
47.64859890407985
 30
0.0
 10
94.48312174479166
 20
47.38436008029513
 30
0.0
 10
94.39596082899304
 20
47.02434760199652
 30
0.0
 10
94.35461968315971
 20
46.68104383680555
 30
0.0
  0
SPLINE
  5
4F
330
A
100
AcDbEntity
  8
LAYER_1
 62
     7
100
AcDbSpline
210
0.0
220
0.0
230
1.0
 70
    11
 71
     3
 72
    17
 73
    13
 74
     0
 42
0.0000000001
 43
0.0000000001
 40
0.0
 40
0.0
 40
0.0
 40
0.0
 40
1.0
 40
1.0
 40
1.0
 40
2.0
 40
2.0
 40
2.0
 40
3.0
 40
3.0
 40
3.0
 40
4.0
 40
4.0
 40
4.0
 40
4.0
 10
100.0848470052083
 20
47.13390163845486
 30
0.0
 10
100.833293999566
 20
47.55540907118055
 30
0.0
 10
100.6930786132812
 20
49.23937174479166
 30
0.0
 10
99.80407172309027
 20
49.05230305989583
 30
0.0
 10
99.4270060221354
 20
48.97341037326388
 30
0.0
 10
95.12580430772569
 20
47.78915879991319
 30
0.0
 10
94.56425374348957
 20
47.64859890407985
 30
0.0
 10
94.37735731336805
 20
47.04071180555555
 30
0.0
 10
94.14326307508679
 20
45.91778293185764
 30
0.0
 10
94.56425374348957
 20
45.68368869357639
 30
0.0
 10
94.79834798177083
 20
45.7307142469618
 30
0.0
 10
99.71346571180554
 20
47.06534423828125
 30
0.0
 10
100.0848470052083
 20
47.13390163845486
 30
0.0
  0
LINE
  5
4E
330
A
100
AcDbEntity
  8
LAYER_1
 62
     7
100
AcDbLine
 10
99.14933132595485
 20
47.88269314236111
 30
0.0
 11
100.225062391493
 21
47.22760823567708
 31
0.0
  0
SPLINE
  5
4D
330
A
100
AcDbEntity
  8
LAYER_1
 62
     7
100
AcDbSpline
210
0.0
220
0.0
230
1.0
 70
    11
 71
     3
 72
    20
 73
    16
 74
     0
 42
0.0000000001
 43
0.0000000001
 40
0.0
 40
0.0
 40
0.0
 40
0.0
 40
1.0
 40
1.0
 40
1.0
 40
2.0
 40
2.0
 40
2.0
 40
3.0
 40
3.0
 40
3.0
 40
4.0
 40
4.0
 40
4.0
 40
5.0
 40
5.0
 40
5.0
 40
5.0
 10
94.35461968315971
 20
42.65768907335069
 30
0.0
 10
94.35461968315971
 20
42.65768907335069
 30
0.0
 10
94.42403835720485
 20
42.64287516276041
 30
0.0
 10
94.42403835720485
 20
42.64287516276041
 30
0.0
 10
94.42403835720485
 20
42.64287516276041
 30
0.0
 10
99.14933132595485
 20
43.85933837890624
 30
0.0
 10
99.14933132595485
 20
43.85933837890624
 30
0.0
 10
99.14933132595485
 20
43.85933837890624
 30
0.0
 10
99.70709228515624
 20
45.00603841145833
 30
0.0
 10
99.70709228515624
 20
45.00603841145833
 30
0.0
 10
98.96932508680554
 20
44.82379286024305
 30
0.0
 10
95.0951429578993
 20
43.75822482638888
 30
0.0
 10
94.56425374348957
 20
43.6255886501736
 30
0.0
 10
94.48312174479166
 20
43.36100531684028
 30
0.0
 10
94.39596082899304
 20
43.00099283854166
 30
0.0
 10
94.35461968315971
 20
42.65768907335069
 30
0.0
  0
SPLINE
  5
4C
330
A
100
AcDbEntity
  8
LAYER_1
 62
     7
100
AcDbSpline
210
0.0
220
0.0
230
1.0
 70
    11
 71
     3
 72
    17
 73
    13
 74
     0
 42
0.0000000001
 43
0.0000000001
 40
0.0
 40
0.0
 40
0.0
 40
0.0
 40
1.0
 40
1.0
 40
1.0
 40
2.0
 40
2.0
 40
2.0
 40
3.0
 40
3.0
 40
3.0
 40
4.0
 40
4.0
 40
4.0
 40
4.0
 10
100.0848470052083
 20
43.11089138454861
 30
0.0
 10
100.833293999566
 20
43.53188205295138
 30
0.0
 10
100.6930786132812
 20
45.2160169813368
 30
0.0
 10
99.80407172309027
 20
45.02877604166666
 30
0.0
 10
99.4270060221354
 20
44.95005560980903
 30
0.0
 10
95.12580430772569
 20
43.76580403645833
 30
0.0
 10
94.56425374348957
 20
43.6255886501736
 30
0.0
 10
94.37735731336805
 20
43.01735704210069
 30
0.0
 10
94.14326307508679
 20
41.89442816840278
 30
0.0
 10
94.56425374348957
 20
41.66067843967014
 30
0.0
 10
94.79834798177083
 20
41.70718722873264
 30
0.0
 10
99.71346571180554
 20
43.04198947482639
 30
0.0
 10
100.0848470052083
 20
43.11089138454861
 30
0.0
  0
LINE
  5
4B
330
A
100
AcDbEntity
  8
LAYER_1
 62
     7
100
AcDbLine
 10
99.14933132595485
 20
43.85933837890624
 30
0.0
 11
100.225062391493
 21
43.20442572699653
 31
0.0
  0
SPLINE
  5
4A
330
A
100
AcDbEntity
  8
LAYER_1
 62
     7
100
AcDbSpline
210
0.0
220
0.0
230
1.0
 70
    11
 71
     3
 72
    20
 73
    16
 74
     0
 42
0.0000000001
 43
0.0000000001
 40
0.0
 40
0.0
 40
0.0
 40
0.0
 40
1.0
 40
1.0
 40
1.0
 40
2.0
 40
2.0
 40
2.0
 40
3.0
 40
3.0
 40
3.0
 40
4.0
 40
4.0
 40
4.0
 40
5.0
 40
5.0
 40
5.0
 40
5.0
 10
94.38390299479165
 20
39.20122477213541
 30
0.0
 10
94.38390299479165
 20
39.20122477213541
 30
0.0
 10
94.45314941406249
 20
39.18641086154513
 30
0.0
 10
94.45314941406249
 20
39.18641086154513
 30
0.0
 10
94.45314941406249
 20
39.18641086154513
 30
0.0
 10
99.17844238281249
 20
40.40252956814236
 30
0.0
 10
99.17844238281249
 20
40.40252956814236
 30
0.0
 10
99.17844238281249
 20
40.40252956814236
 30
0.0
 10
99.73620334201388
 20
41.54957411024305
 30
0.0
 10
99.73620334201388
 20
41.54957411024305
 30
0.0
 10
98.99843614366318
 20
41.36732855902778
 30
0.0
 10
95.12425401475694
 20
40.30124376085069
 30
0.0
 10
94.59336480034722
 20
40.16860758463541
 30
0.0
 10
94.51223280164929
 20
39.90454101562499
 30
0.0
 10
94.42507188585068
 20
39.54452853732639
 30
0.0
 10
94.38390299479165
 20
39.20122477213541
 30
0.0
  0
SPLINE
  5
49
330
A
100
AcDbEntity
  8
LAYER_1
 62
     7
100
AcDbSpline
210
0.0
220
0.0
230
1.0
 70
    11
 71
     3
 72
    17
 73
    13
 74
     0
 42
0.0000000001
 43
0.0000000001
 40
0.0
 40
0.0
 40
0.0
 40
0.0
 40
1.0
 40
1.0
 40
1.0
 40
2.0
 40
2.0
 40
2.0
 40
3.0
 40
3.0
 40
3.0
 40
4.0
 40
4.0
 40
4.0
 40
4.0
 10
100.1141303168403
 20
39.65408257378472
 30
0.0
 10
100.8625773111979
 20
40.07507324218749
 30
0.0
 10
100.7220174153646
 20
41.75955268012152
 30
0.0
 10
99.83335503472222
 20
41.57231174045138
 30
0.0
 10
99.45577256944443
 20
41.49341905381944
 30
0.0
 10
95.15508761935763
 20
40.30916748046874
 30
0.0
 10
94.59336480034722
 20
40.16860758463541
 30
0.0
 10
94.40612386067707
 20
39.5603759765625
 30
0.0
 10
94.17237413194444
 20
38.4379638671875
 30
0.0
 10
94.59336480034722
 20
38.20369737413194
 30
0.0
 10
94.82728678385416
 20
38.25072292751736
 30
0.0
 10
99.7427490234375
 20
39.5853529188368
 30
0.0
 10
100.1141303168403
 20
39.65408257378472
 30
0.0
  0
LINE
  5
48
330
A
100
AcDbEntity
  8
LAYER_1
 62
     7
100
AcDbLine
 10
99.17844238281249
 20
40.40252956814236
 30
0.0
 11
100.254345703125
 21
39.74761691623264
 31
0.0
  0
LWPOLYLINE
  5
43
330
A
100
AcDbEntity
  8
LAYER_1
 62
     7
100
AcDbPolyline
 90
        3
 70
     0
 43
0.0
 10
91.75718994140624
 20
35.85948215060763
 10
91.80421549479166
 20
67.11080457899305
 10
140.6932210286458
 20
79.74241943359374
  0
LWPOLYLINE
  5
3E
330
A
100
AcDbEntity
  8
LAYER_1
 62
     7
100
AcDbPolyline
 90
        3
 70
     0
 43
0.0
 10
113.4649088541667
 20
69.59041205512152
 10
115.8508097330729
 20
73.28631049262152
 10
118.3772705078125
 20
70.90006510416666
  0
LWPOLYLINE
  5
39
330
A
100
AcDbEntity
  8
LAYER_1
 62
     7
100
AcDbPolyline
 90
        3
 70
     0
 43
0.0
 10
113.3717190212674
 20
45.35623236762152
 10
116.038050672743
 20
42.97033148871527
 10
118.2367106119792
 20
46.61972113715277
  0
LWPOLYLINE
  5
34
330
A
100
AcDbEntity
  8
LAYER_1
 62
     7
100
AcDbPolyline
 90
        3
 70
     0
 43
0.0
 10
175.3596666124132
 20
78.24552544487847
 10
172.5293484157986
 20
75.64878472222222
 10
183.3130140516493
 20
74.97044542100694
  0
SPLINE
  5
33
330
A
100
AcDbEntity
  8
LAYER_1
 62
     7
100
AcDbSpline
210
0.0
220
0.0
230
1.0
 70
     8
 71
     3
 72
     8
 73
     4
 74
     0
 42
0.0000000001
 43
0.0000000001
 40
0.0
 40
0.0
 40
0.0
 40
0.0
 40
1.0
 40
1.0
 40
1.0
 40
1.0
 10
173.6991305881076
 20
76.74811469184027
 30
0.0
 10
174.7049262152778
 20
76.65458034939235
 30
0.0
 10
177.0251980251736
 20
76.2001722547743
 30
0.0
 10
178.2273640950521
 20
77.01235351562499
 30
0.0
  0
MTEXT
  5
32
330
A
100
AcDbEntity
  8
LAYER_1
 62
     7
100
AcDbMText
 10
103.579205614727
 20
66.2026248342394
 30
0.0
 40
2.227942111394393
 41
0.0
 71
     1
 72
     2
  1
\W0.84;\fHelvetica|b0|i0;\Q-11.78;NOT FOR TRUSSES
  7
STD
 11
0.02050000056624413
 21
-0.9998000264167786
 31
0.0
 73
     1
 44
1.0
  0
INSERT
  5
23
330
A
100
AcDbEntity
  8
LAYER_1
 62
     7
100
AcDbBlockReference
  2
AI9-BLK1
 10
115.7349683973524
 20
58.09929606119791
 30
0.0
  0
ENDSEC
  0
SECTION
  2
OBJECTS
  0
DICTIONARY
  5
19
330
0
100
AcDbDictionary
281
     1
  3
ACAD_COLOR
350
10D
  3
ACAD_GROUP
350
1A
  3
ACAD_LAYOUT
350
DA
  3
ACAD_MATERIAL
350
10F
  3
ACAD_MLINESTYLE
350
1B
  3
ACAD_PLOTSETTINGS
350
DB
  3
ACAD_PLOTSTYLENAME
350
D8
  3
ACDBHEADERROUNDTRIPXREC
350
10C
  0
DICTIONARY
  5
10D
102
{ACAD_REACTORS
330
19
102
}
330
19
100
AcDbDictionary
281
     1
  0
DICTIONARY
  5
1A
102
{ACAD_REACTORS
330
19
102
}
330
19
100
AcDbDictionary
281
     1
  0
DICTIONARY
  5
DA
102
{ACAD_REACTORS
330
19
102
}
330
19
100
AcDbDictionary
281
     1
  3
Layout1
350
DD
  3
Model
350
DC
  0
DICTIONARY
  5
10F
102
{ACAD_REACTORS
330
19
102
}
330
19
100
AcDbDictionary
281
     1
  0
DICTIONARY
  5
1B
102
{ACAD_REACTORS
330
19
102
}
330
19
100
AcDbDictionary
281
     1
  3
STANDARD
350
1C
  0
DICTIONARY
  5
DB
102
{ACAD_REACTORS
330
19
102
}
330
19
100
AcDbDictionary
281
     1
  0
ACDBDICTIONARYWDFLT
  5
D8
102
{ACAD_REACTORS
330
19
102
}
330
19
100
AcDbDictionary
281
     1
  3
Normal
350
D9
100
AcDbDictionaryWithDefault
340
D9
  0
DICTIONARY
  5
10C
102
{ACAD_REACTORS
330
19
102
}
330
19
100
AcDbDictionary
281
     1
  3
COLORDICT
350
10E
  3
MATERIALDICT
350
110
  0
LAYOUT
  5
DD
102
{ACAD_REACTORS
330
DA
102
}
102
{ACAD_XDICTIONARY
360
111
102
}
330
DA
100
AcDbPlotSettings
  1

  2
Support Center HP LaserJet 4
  4

  6

 40
0.0
 41
0.0
 42
0.0
 43
0.0
 44
0.0
 45
0.0
 46
0.0
 47
0.0
 48
0.0
 49
0.0
140
0.0
141
0.0
142
1.0
143
1.0
 70
   688
 72
     0
 73
     0
 74
     5
  7

 75
    16
147
1.0
148
0.0
149
0.0
100
AcDbLayout
  1
Layout1
 70
     0
 71
     1
 10
0.0
 20
0.0
 11
12.0
 21
9.0
 12
0.0
 22
0.0
 32
0.0
 14
1.000000000000000E+20
 24
1.000000000000000E+20
 34
1.000000000000000E+20
 15
-1.000000000000000E+20
 25
-1.000000000000000E+20
 35
-1.000000000000000E+20
146
0.0
 13
0.0
 23
0.0
 33
0.0
 16
1.0
 26
0.0
 36
0.0
 17
0.0
 27
1.0
 37
0.0
 76
     0
330
B
  0
LAYOUT
  5
DC
102
{ACAD_REACTORS
330
DA
102
}
102
{ACAD_XDICTIONARY
360
113
102
}
330
DA
100
AcDbPlotSettings
  1

  2
Support Center HP LaserJet 4
  4

  6

 40
0.0
 41
0.0
 42
0.0
 43
0.0
 44
0.0
 45
0.0
 46
0.0
 47
0.0
 48
0.0
 49
0.0
140
0.0
141
0.0
142
1.0
143
1.0
 70
  1712
 72
     0
 73
     0
 74
     0
  7

 75
     0
147
1.0
148
0.0
149
0.0
100
AcDbLayout
  1
Model
 70
     1
 71
     0
 10
0.0
 20
0.0
 11
12.0
 21
9.0
 12
0.0
 22
0.0
 32
0.0
 14
0.0
 24
0.0
 34
0.0
 15
0.0
 25
0.0
 35
0.0
146
0.0
 13
0.0
 23
0.0
 33
0.0
 16
1.0
 26
0.0
 36
0.0
 17
0.0
 27
1.0
 37
0.0
 76
     0
330
A
  0
MLINESTYLE
  5
1C
102
{ACAD_REACTORS
330
1B
102
}
330
1B
100
AcDbMlineStyle
  2
STANDARD
 70
     0
  3

 62
     0
 51
90.0000000000002
 52
90.0000000000002
 71
     2
 49
0.5
 62
   256
  6
BYLAYER
 49
-0.5
 62
   256
  6
BYLAYER
  0
ACDBPLACEHOLDER
  5
D9
102
{ACAD_REACTORS
330
D8
102
}
330
D8
  0
XRECORD
  5
10E
102
{ACAD_REACTORS
330
10C
102
}
330
10C
100
AcDbXrecord
340
10D
  0
XRECORD
  5
110
102
{ACAD_REACTORS
330
10C
102
}
330
10C
100
AcDbXrecord
340
10F
  0
DICTIONARY
  5
111
330
DD
100
AcDbDictionary
280
     1
281
     1
  3
ACAD_XREC_ROUNDTRIP
360
112
  0
DICTIONARY
  5
113
330
DC
100
AcDbDictionary
280
     1
281
     1
  3
ACAD_XREC_ROUNDTRIP
360
114
  0
XRECORD
  5
112
102
{ACAD_REACTORS
330
111
102
}
330
111
100
AcDbXrecord
102
SHADEPLOT
 70
     0
102
SHADEPLOTRESLEVEL
 70
     0
102
SHADEPLOTCUSTOMDPI
 70
     0
  0
XRECORD
  5
114
102
{ACAD_REACTORS
330
113
102
}
330
113
100
AcDbXrecord
102
SHADEPLOT
 70
     0
102
SHADEPLOTRESLEVEL
 70
     0
102
SHADEPLOTCUSTOMDPI
 70
     0
  0
ENDSEC
  0
EOF
