  0
SECTION
  2
HEADER
  9
$ACADVER
  1
AC1015
  9
$ACADMAINTVER
 70
     6
  9
$DWGCODEPAGE
  3
ANSI_1252
  9
$INSBASE
 10
0.0
 20
0.0
 30
0.0
  9
$EXTMIN
 10
0.155
 20
0.710666
 30
0.0
  9
$EXTMAX
 10
5.874
 20
6.215
 30
0.0
  9
$LIMMIN
 10
0.0
 20
0.0
  9
$LIMMAX
 10
15.0
 20
12.0
  9
$ORTHOMODE
 70
     1
  9
$REGENMODE
 70
     1
  9
$FILLMODE
 70
     1
  9
$QTEXTMODE
 70
     0
  9
$MIRRTEXT
 70
     1
  9
$LTSCALE
 40
0.25
  9
$ATTMODE
 70
     1
  9
$TEXTSIZE
 40
0.15
  9
$TRACEWID
 40
0.05
  9
$TEXTSTYLE
  7
STANDARD
  9
$CLAYER
  8
0
  9
$CELTYPE
  6
ByLayer
  9
$CECOLOR
 62
   256
  9
$CELTSCALE
 40
1.0
  9
$DISPSILH
 70
     0
  9
$DIMSCALE
 40
1.0
  9
$DIMASZ
 40
0.125
  9
$DIMEXO
 40
0.063
  9
$DIMDLI
 40
0.38
  9
$DIMRND
 40
0.0
  9
$DIMDLE
 40
0.0
  9
$DIMEXE
 40
0.18
  9
$DIMTP
 40
0.0
  9
$DIMTM
 40
0.0
  9
$DIMTXT
 40
0.125
  9
$DIMCEN
 40
0.09
  9
$DIMTSZ
 40
0.0
  9
$DIMTOL
 70
     0
  9
$DIMLIM
 70
     0
  9
$DIMTIH
 70
     1
  9
$DIMTOH
 70
     1
  9
$DIMSE1
 70
     0
  9
$DIMSE2
 70
     0
  9
$DIMTAD
 70
     0
  9
$DIMZIN
 70
     0
  9
$DIMBLK
  1

  9
$DIMASO
 70
     0
  9
$DIMSHO
 70
     0
  9
$DIMPOST
  1

  9
$DIMAPOST
  1

  9
$DIMALT
 70
     0
  9
$DIMALTD
 70
     2
  9
$DIMALTF
 40
25.4
  9
$DIMLFAC
 40
1.0
  9
$DIMTOFL
 70
     0
  9
$DIMTVP
 40
0.0
  9
$DIMTIX
 70
     0
  9
$DIMSOXD
 70
     0
  9
$DIMSAH
 70
     0
  9
$DIMBLK1
  1

  9
$DIMBLK2
  1

  9
$DIMSTYLE
  2
Standard
  9
$DIMCLRD
 70
     0
  9
$DIMCLRE
 70
     0
  9
$DIMCLRT
 70
     0
  9
$DIMTFAC
 40
1.0
  9
$DIMGAP
 40
0.09
  9
$DIMJUST
 70
     0
  9
$DIMSD1
 70
     0
  9
$DIMSD2
 70
     0
  9
$DIMTOLJ
 70
     1
  9
$DIMTZIN
 70
     0
  9
$DIMALTZ
 70
     0
  9
$DIMALTTZ
 70
     0
  9
$DIMUPT
 70
     0
  9
$DIMDEC
 70
     4
  9
$DIMTDEC
 70
     4
  9
$DIMALTU
 70
     2
  9
$DIMALTTD
 70
     2
  9
$DIMTXSTY
  7
STANDARD
  9
$DIMAUNIT
 70
     0
  9
$DIMADEC
 70
     0
  9
$DIMALTRND
 40
0.0
  9
$DIMAZIN
 70
     0
  9
$DIMDSEP
 70
    46
  9
$DIMATFIT
 70
     3
  9
$DIMFRAC
 70
     0
  9
$DIMLDRBLK
  1

  9
$DIMLUNIT
 70
     2
  9
$DIMLWD
 70
    -2
  9
$DIMLWE
 70
    -2
  9
$DIMTMOVE
 70
     0
  9
$LUNITS
 70
     2
  9
$LUPREC
 70
     4
  9
$SKETCHINC
 40
0.175
  9
$FILLETRAD
 40
0.028
  9
$AUNITS
 70
     0
  9
$AUPREC
 70
     0
  9
$MENU
  1
acad
  9
$ELEVATION
 40
0.0
  9
$PELEVATION
 40
0.0
  9
$THICKNESS
 40
0.0
  9
$LIMCHECK
 70
     0
  9
$CHAMFERA
 40
0.0
  9
$CHAMFERB
 40
0.0
  9
$CHAMFERC
 40
1.0
  9
$CHAMFERD
 40
0.0
  9
$SKPOLY
 70
     1
  9
$TDCREATE
 40
2453955.561279445
  9
$TDUCREATE
 40
2453955.894612778
  9
$TDUPDATE
 40
2453955.602946123
  9
$TDUUPDATE
 40
2453955.894612789
  9
$TDINDWG
 40
0.0000000116
  9
$TDUSRTIMER
 40
0.0000000116
  9
$USRTIMER
 70
     1
  9
$ANGBASE
 50
0.0
  9
$ANGDIR
 70
     0
  9
$PDMODE
 70
     0
  9
$PDSIZE
 40
0.0
  9
$PLINEWID
 40
0.0
  9
$SPLFRAME
 70
     0
  9
$SPLINETYPE
 70
     6
  9
$SPLINESEGS
 70
     8
  9
$HANDSEED
  5
532
  9
$SURFTAB1
 70
     6
  9
$SURFTAB2
 70
     6
  9
$SURFTYPE
 70
     6
  9
$SURFU
 70
     6
  9
$SURFV
 70
     6
  9
$UCSBASE
  2

  9
$UCSNAME
  2

  9
$UCSORG
 10
0.0
 20
0.0
 30
0.0
  9
$UCSXDIR
 10
1.0
 20
0.0
 30
0.0
  9
$UCSYDIR
 10
0.0
 20
1.0
 30
0.0
  9
$UCSORTHOREF
  2

  9
$UCSORTHOVIEW
 70
     0
  9
$UCSORGTOP
 10
0.0
 20
0.0
 30
0.0
  9
$UCSORGBOTTOM
 10
0.0
 20
0.0
 30
0.0
  9
$UCSORGLEFT
 10
0.0
 20
0.0
 30
0.0
  9
$UCSORGRIGHT
 10
0.0
 20
0.0
 30
0.0
  9
$UCSORGFRONT
 10
0.0
 20
0.0
 30
0.0
  9
$UCSORGBACK
 10
0.0
 20
0.0
 30
0.0
  9
$PUCSBASE
  2

  9
$PUCSNAME
  2

  9
$PUCSORG
 10
0.0
 20
0.0
 30
0.0
  9
$PUCSXDIR
 10
1.0
 20
0.0
 30
0.0
  9
$PUCSYDIR
 10
0.0
 20
1.0
 30
0.0
  9
$PUCSORTHOREF
  2

  9
$PUCSORTHOVIEW
 70
     0
  9
$PUCSORGTOP
 10
0.0
 20
0.0
 30
0.0
  9
$PUCSORGBOTTOM
 10
0.0
 20
0.0
 30
0.0
  9
$PUCSORGLEFT
 10
0.0
 20
0.0
 30
0.0
  9
$PUCSORGRIGHT
 10
0.0
 20
0.0
 30
0.0
  9
$PUCSORGFRONT
 10
0.0
 20
0.0
 30
0.0
  9
$PUCSORGBACK
 10
0.0
 20
0.0
 30
0.0
  9
$USERI1
 70
     0
  9
$USERI2
 70
     0
  9
$USERI3
 70
     0
  9
$USERI4
 70
     0
  9
$USERI5
 70
     0
  9
$USERR1
 40
0.0
  9
$USERR2
 40
0.0
  9
$USERR3
 40
0.0
  9
$USERR4
 40
0.0
  9
$USERR5
 40
0.0
  9
$WORLDVIEW
 70
     1
  9
$SHADEDGE
 70
     3
  9
$SHADEDIF
 70
    70
  9
$TILEMODE
 70
     1
  9
$MAXACTVP
 70
    16
  9
$PINSBASE
 10
0.0
 20
0.0
 30
0.0
  9
$PLIMCHECK
 70
     0
  9
$PEXTMIN
 10
1.000000000000000E+20
 20
1.000000000000000E+20
 30
1.000000000000000E+20
  9
$PEXTMAX
 10
-1.000000000000000E+20
 20
-1.000000000000000E+20
 30
-1.000000000000000E+20
  9
$PLIMMIN
 10
0.0
 20
0.0
  9
$PLIMMAX
 10
12.0
 20
9.0
  9
$UNITMODE
 70
     0
  9
$VISRETAIN
 70
     0
  9
$PLINEGEN
 70
     0
  9
$PSLTSCALE
 70
     0
  9
$TREEDEPTH
 70
  3020
  9
$CMLSTYLE
  2
Standard
  9
$CMLJUST
 70
     0
  9
$CMLSCALE
 40
1.0
  9
$PROXYGRAPHICS
 70
     1
  9
$MEASUREMENT
 70
     0
  9
$CELWEIGHT
370
    -1
  9
$ENDCAPS
280
     0
  9
$JOINSTYLE
280
     0
  9
$LWDISPLAY
290
     0
  9
$INSUNITS
 70
     1
  9
$HYPERLINKBASE
  1

  9
$STYLESHEET
  1

  9
$XEDIT
290
     1
  9
$CEPSNTYPE
380
     0
  9
$PSTYLEMODE
290
     0
  9
$FINGERPRINTGUID
  2
{FAEB1C30-E019-11D5-929B-00C0DF256EC4}
  9
$VERSIONGUID
  2
{FAEB1C32-E019-11D5-929B-00C0DF256EC4}
  9
$EXTNAMES
290
     1
  9
$PSVPSCALE
 40
0.0
  9
$OLESTARTUP
290
     0
  0
ENDSEC
  0
SECTION
  2
CLASSES
  0
CLASS
  1
ACDBDICTIONARYWDFLT
  2
AcDbDictionaryWithDefault
  3
AutoCAD 2000
 90
        0
280
     0
281
     0
  0
CLASS
  1
ACDBPLACEHOLDER
  2
AcDbPlaceHolder
  3
ObjectDBX Classes
 90
        0
280
     0
281
     0
  0
CLASS
  1
LAYOUT
  2
AcDbLayout
  3
ObjectDBX Classes
 90
        0
280
     0
281
     0
  0
ENDSEC
  0
SECTION
  2
TABLES
  0
TABLE
  2
VPORT
  5
8
330
0
100
AcDbSymbolTable
 70
     2
  0
VPORT
  5
1E
330
8
100
AcDbSymbolTableRecord
100
AcDbViewportTableRecord
  2
*ACTIVE
 70
     0
 10
0.0
 20
0.0
 11
1.0
 21
1.0
 12
8.324455205811137
 22
6.0
 13
2.149593
 23
1.177641
 14
0.005
 24
0.005
 15
0.0
 25
0.0
 16
0.0
 26
0.0
 36
1.0
 17
0.0
 27
0.0
 37
0.0
 40
12.0
 41
0.7207678883071553
 42
50.0
 43
0.0
 44
0.0
 50
0.0
 51
0.0
 71
     0
 72
  2000
 73
     1
 74
     0
 75
     0
 76
     0
 77
     0
 78
     0
281
     0
 65
     1
110
0.0
120
0.0
130
0.0
111
1.0
121
0.0
131
0.0
112
0.0
122
1.0
132
0.0
 79
     0
146
0.0
  0
ENDTAB
  0
TABLE
  2
LTYPE
  5
5
330
0
100
AcDbSymbolTable
 70
     1
  0
LTYPE
  5
10
330
5
100
AcDbSymbolTableRecord
100
AcDbLinetypeTableRecord
  2
ByBlock
 70
     0
  3

 72
    65
 73
     0
 40
0.0
  0
LTYPE
  5
11
330
5
100
AcDbSymbolTableRecord
100
AcDbLinetypeTableRecord
  2
ByLayer
 70
     0
  3

 72
    65
 73
     0
 40
0.0
  0
LTYPE
  5
1B
330
5
100
AcDbSymbolTableRecord
100
AcDbLinetypeTableRecord
  2
CONTINUOUS
 70
     0
  3
Solid line
 72
    65
 73
     0
 40
0.0
  0
ENDTAB
  0
TABLE
  2
LAYER
  5
2
330
0
100
AcDbSymbolTable
 70
     1
  0
LAYER
  5
1C
330
2
100
AcDbSymbolTableRecord
100
AcDbLayerTableRecord
  2
0
 70
     0
 62
     7
  6
CONTINUOUS
370
    -3
390
F
  0
ENDTAB
  0
TABLE
  2
STYLE
  5
3
330
0
100
AcDbSymbolTable
 70
     1
  0
STYLE
  5
21
330
3
100
AcDbSymbolTableRecord
100
AcDbTextStyleTableRecord
  2
STANDARD
 70
     0
 40
0.0
 41
1.0
 50
0.0
 71
     0
 42
0.15
  3
ROMANS
  4

  0
ENDTAB
  0
TABLE
  2
VIEW
  5
6
330
0
100
AcDbSymbolTable
 70
     1
  0
VIEW
  5
20
330
6
100
AcDbSymbolTableRecord
100
AcDbViewTableRecord
  2
1
 70
     0
 40
5.116000000000001
 10
3.644
 20
3.657
 41
6.979
 11
0.0
 21
0.0
 31
1.0
 12
0.0
 22
0.0
 32
0.0
 42
50.0
 43
0.0
 44
0.0
 50
0.0
 71
     0
281
     0
 72
     0
  0
ENDTAB
  0
TABLE
  2
UCS
  5
7
330
0
100
AcDbSymbolTable
 70
     0
  0
ENDTAB
  0
TABLE
  2
APPID
  5
9
330
0
100
AcDbSymbolTable
 70
     1
  0
APPID
  5
1F
330
9
100
AcDbSymbolTableRecord
100
AcDbRegAppTableRecord
  2
ACAD
 70
     0
  0
ENDTAB
  0
TABLE
  2
DIMSTYLE
  5
A
330
0
100
AcDbSymbolTable
 70
     1
100
AcDbDimStyleTable
  0
DIMSTYLE
105
22
330
A
100
AcDbSymbolTableRecord
100
AcDbDimStyleTableRecord
  2
Standard
 70
     0
  3

  4

340
21
  0
ENDTAB
  0
TABLE
  2
BLOCK_RECORD
  5
1
330
0
100
AcDbSymbolTable
 70
     0
  0
BLOCK_RECORD
  5
18
330
1
100
AcDbSymbolTableRecord
100
AcDbBlockTableRecord
  2
*Model_Space
340
19
  0
BLOCK_RECORD
  5
16
330
1
100
AcDbSymbolTableRecord
100
AcDbBlockTableRecord
  2
*Paper_Space
340
17
  0
ENDTAB
  0
ENDSEC
  0
SECTION
  2
BLOCKS
  0
BLOCK
  5
527
330
18
100
AcDbEntity
  8
0
100
AcDbBlockBegin
  2
*Model_Space
 70
     0
 10
0.0
 20
0.0
 30
0.0
  3
*Model_Space
  1

  4

  0
ENDBLK
  5
528
330
18
100
AcDbEntity
  8
0
100
AcDbBlockEnd
  0
BLOCK
  5
525
330
16
100
AcDbEntity
 67
     1
  8
0
100
AcDbBlockBegin
  2
*Paper_Space
 70
     0
 10
0.0
 20
0.0
 30
0.0
  3
*Paper_Space
  1

  4

  0
ENDBLK
  5
526
330
16
100
AcDbEntity
 67
     1
  8
0
100
AcDbBlockEnd
  0
ENDSEC
  0
SECTION
  2
ENTITIES
  0
LINE
  5
23
330
18
100
AcDbEntity
  8
0
100
AcDbLine
 10
3.541
 20
4.898
 30
0.0
 11
5.874
 21
6.064
 31
0.0
  0
LINE
  5
24
330
18
100
AcDbEntity
  8
0
100
AcDbLine
 10
0.155
 20
3.591
 30
0.0
 11
5.6
 21
6.215
 31
0.0
  0
LINE
  5
25
330
18
100
AcDbEntity
  8
0
100
AcDbLine
 10
5.874
 20
6.064
 30
0.0
 11
5.874
 21
5.836
 31
0.0
  0
LINE
  5
26
330
18
100
AcDbEntity
  8
0
100
AcDbLine
 10
4.15
 20
1.24
 30
0.0
 11
2.717
 21
2.428
 31
0.0
  0
LINE
  5
27
330
18
100
AcDbEntity
  8
0
100
AcDbLine
 10
0.725
 20
3.558
 30
0.0
 11
5.36
 21
5.857
 31
0.0
  0
LINE
  5
28
330
18
100
AcDbEntity
  8
0
100
AcDbLine
 10
5.36
 20
5.88
 30
0.0
 11
0.725
 21
3.586
 31
0.0
  0
LINE
  5
29
330
18
100
AcDbEntity
  8
0
100
AcDbLine
 10
0.5550000000000001
 20
3.723
 30
0.0
 11
5.228
 21
5.992999999999999
 31
0.0
  0
LINE
  5
2A
330
18
100
AcDbEntity
  8
0
100
AcDbLine
 10
4.15
 20
3.878
 30
0.0
 11
3.355
 21
4.418
 31
0.0
  0
LINE
  5
2B
330
18
100
AcDbEntity
  8
0
100
AcDbLine
 10
3.65
 20
4.571000000000001
 30
0.0
 11
3.845
 21
4.67
 31
0.0
  0
LINE
  5
2C
330
18
100
AcDbEntity
  8
0
100
AcDbLine
 10
3.65
 20
4.596
 30
0.0
 11
3.834
 21
4.688
 31
0.0
  0
ARC
  5
2D
330
18
100
AcDbEntity
  8
0
100
AcDbCircle
 10
3.674
 20
4.785
 30
0.0
 40
0.035
100
AcDbArc
 50
4.063
 51
109.586
  0
LINE
  5
2E
330
18
100
AcDbEntity
  8
0
100
AcDbLine
 10
3.65
 20
4.75
 30
0.0
 11
3.71
 21
4.788
 31
0.0
  0
LWPOLYLINE
  5
2F
330
18
100
AcDbEntity
  8
0
100
AcDbPolyline
 90
       16
 70
     1
 43
0.0
 10
3.696
 20
5.185
 42
0.159
 10
3.694
 20
5.19
 42
0.106
 10
3.688
 20
5.196000000000001
 42
0.071
 10
3.679
 20
5.2
 42
0.058
 10
3.668
 20
5.201000000000001
 42
0.058
 10
3.656
 20
5.2
 42
0.071
 10
3.648
 20
5.196000000000001
 42
0.106
 10
3.641
 20
5.19
 42
0.159
 10
3.639
 20
5.185
 42
0.159
 10
3.641
 20
5.178999999999999
 42
0.106
 10
3.648
 20
5.174
 42
0.071
 10
3.656
 20
5.17
 42
0.058
 10
3.668
 20
5.169
 42
0.058
 10
3.679
 20
5.17
 42
0.071
 10
3.688
 20
5.174
 42
0.106
 10
3.694
 20
5.178999999999999
 42
0.159
  0
LWPOLYLINE
  5
42
330
18
100
AcDbEntity
  8
0
100
AcDbPolyline
 90
       32
 70
     0
 43
0.0
 10
1.129
 20
3.381
 10
1.323
 20
3.393
 10
1.446
 20
3.374
 10
1.526
 20
3.355
 10
1.573
 20
3.341
 10
1.653
 20
3.327
 10
1.724
 20
3.318
 10
1.785
 20
3.308
 10
1.841
 20
3.285
 10
1.898
 20
3.271
 10
1.945
 20
3.256
 10
2.002
 20
3.233
 10
2.03
 20
3.2
 10
2.049
 20
3.153
 10
2.049
 20
3.106
 10
2.053
 20
3.021
 10
2.053
 20
2.988
 10
2.049
 20
2.945
 10
2.035
 20
2.898
 10
1.959
 20
2.748
 10
1.917
 20
2.677
 10
1.87
 20
2.611
 10
1.837
 20
2.564
 10
1.794
 20
2.526
 10
1.747
 20
2.47
 10
1.695
 20
2.408
 10
1.639
 20
2.338
 10
1.601
 20
2.291
 10
1.554
 20
2.239
 10
1.516
 20
2.215
 10
1.465
 20
2.154
 10
1.346
 20
2.071
  0
LINE
  5
65
330
18
100
AcDbEntity
  8
0
100
AcDbLine
 10
0.267
 20
3.334
 30
0.0
 11
0.267
 21
1.41
 31
0.0
  0
LINE
  5
66
330
18
100
AcDbEntity
  8
0
100
AcDbLine
 10
0.3
 20
3.307
 30
0.0
 11
0.3
 21
1.378
 31
0.0
  0
LINE
  5
67
330
18
100
AcDbEntity
  8
0
100
AcDbLine
 10
0.236
 20
3.36
 30
0.0
 11
0.236
 21
1.44
 31
0.0
  0
LINE
  5
68
330
18
100
AcDbEntity
  8
0
100
AcDbLine
 10
0.215
 20
1.46
 30
0.0
 11
0.215
 21
3.378
 31
0.0
  0
LINE
  5
69
330
18
100
AcDbEntity
  8
0
100
AcDbLine
 10
0.337
 20
1.342
 30
0.0
 11
0.337
 21
3.276
 31
0.0
  0
LWPOLYLINE
  5
6A
330
18
100
AcDbEntity
  8
0
100
AcDbPolyline
 90
       35
 70
     0
 43
0.0
 10
0.603
 20
3.109
 10
0.7440000000000001
 20
3.11
 10
0.895
 20
3.092
 10
0.9890000000000001
 20
3.11
 10
1.097
 20
3.082
 10
1.182
 20
3.063
 10
1.276
 20
3.049
 10
1.351
 20
3.035
 10
1.399
 20
3.035
 10
1.446
 20
3.026
 10
1.465
 20
3.016
 10
1.516
 20
2.969
 10
1.53
 20
2.945
 10
1.545
 20
2.903
 10
1.549
 20
2.861
 10
1.549
 20
2.837
 10
1.545
 20
2.799
 10
1.535
 20
2.734
 10
1.526
 20
2.668
 10
1.512
 20
2.62
 10
1.488
 20
2.578
 10
1.455
 20
2.517
 10
1.394
 20
2.451
 10
1.342
 20
2.385
 10
1.295
 20
2.333
 10
1.257
 20
2.277
 10
1.215
 20
2.225
 10
1.191
 20
2.182
 10
1.149
 20
2.102
 10
1.116
 20
2.069
 10
1.078
 20
2.022
 10
1.022
 20
1.966
 10
0.9890000000000001
 20
1.919
 10
0.9420000000000001
 20
1.862
 10
0.867
 20
1.794
  0
LINE
  5
90
330
18
100
AcDbEntity
  8
0
100
AcDbLine
 10
0.442
 20
1.382
 30
0.0
 11
2.743
 21
2.745
 31
0.0
  0
LINE
  5
91
330
18
100
AcDbEntity
  8
0
100
AcDbLine
 10
2.608
 20
2.412
 30
0.0
 11
0.442
 21
1.099
 31
0.0
  0
LINE
  5
92
330
18
100
AcDbEntity
  8
0
100
AcDbLine
 10
0.337
 20
1.487
 30
0.0
 11
2.315
 21
2.633
 31
0.0
  0
LWPOLYLINE
  5
93
330
18
100
AcDbEntity
  8
0
100
AcDbPolyline
 90
       28
 70
     0
 43
0.0
 10
0.337
 20
2.71
 10
0.414
 20
2.691
 10
0.499
 20
2.682
 10
0.579
 20
2.668
 10
0.635
 20
2.644
 10
0.73
 20
2.63
 10
0.8759999999999999
 20
2.597
 10
0.904
 20
2.583
 10
0.9179999999999999
 20
2.578
 10
0.9370000000000001
 20
2.569
 10
0.946
 20
2.559
 10
0.951
 20
2.555
 10
0.961
 20
2.536
 10
0.965
 20
2.526
 10
0.956
 20
2.484
 10
0.89
 20
2.375
 10
0.8190000000000001
 20
2.164
 10
0.8050000000000001
 20
2.098
 10
0.767
 20
2.013
 10
0.7440000000000001
 20
1.966
 10
0.6970000000000001
 20
1.895
 10
0.664
 20
1.838
 10
0.588
 20
1.744
 10
0.537
 20
1.674
 10
0.485
 20
1.612
 10
0.428
 20
1.575
 10
0.391
 20
1.542
 10
0.337
 20
1.518
  0
LWPOLYLINE
  5
B2
330
18
100
AcDbEntity
  8
0
100
AcDbPolyline
 90
       18
 70
     0
 43
0.0
 10
0.337
 20
2.3
 10
0.391
 20
2.272
 10
0.405
 20
2.267
 10
0.428
 20
2.258
 10
0.456
 20
2.258
 10
0.475
 20
2.253
 10
0.489
 20
2.239
 10
0.499
 20
2.211
 10
0.504
 20
2.121
 10
0.485
 20
2.083
 10
0.471
 20
2.046
 10
0.466
 20
2.017
 10
0.456
 20
1.98
 10
0.433
 20
1.947
 10
0.4
 20
1.904
 10
0.3720000000000001
 20
1.862
 10
0.3720000000000001
 20
1.862
 10
0.337
 20
1.838
  0
LINE
  5
C7
330
18
100
AcDbEntity
  8
0
100
AcDbLine
 10
0.337
 20
1.394
 30
0.0
 11
0.442
 21
1.297
 31
0.0
  0
LINE
  5
C8
330
18
100
AcDbEntity
  8
0
100
AcDbLine
 10
0.155
 20
1.41
 30
0.0
 11
0.442
 21
1.148
 31
0.0
  0
LINE
  5
C9
330
18
100
AcDbEntity
  8
0
100
AcDbLine
 10
0.155
 20
1.453
 30
0.0
 11
0.442
 21
1.199
 31
0.0
  0
LINE
  5
CA
330
18
100
AcDbEntity
  8
0
100
AcDbLine
 10
0.155
 20
1.518
 30
0.0
 11
0.442
 21
1.24
 31
0.0
  0
LINE
  5
CB
330
18
100
AcDbEntity
  8
0
100
AcDbLine
 10
0.442
 20
1.099
 30
0.0
 11
0.442
 21
1.382
 31
0.0
  0
LINE
  5
CC
330
18
100
AcDbEntity
  8
0
100
AcDbLine
 10
0.442
 20
1.099
 30
0.0
 11
0.155
 21
1.367
 31
0.0
  0
LINE
  5
CD
330
18
100
AcDbEntity
  8
0
100
AcDbLine
 10
0.155
 20
1.562
 30
0.0
 11
0.215
 21
1.507
 31
0.0
  0
LINE
  5
CE
330
18
100
AcDbEntity
  8
0
100
AcDbLine
 10
0.155
 20
1.367
 30
0.0
 11
0.155
 21
1.669
 31
0.0
  0
LINE
  5
CF
330
18
100
AcDbEntity
  8
0
100
AcDbLine
 10
0.155
 20
1.616
 30
0.0
 11
0.215
 21
1.559
 31
0.0
  0
LINE
  5
D0
330
18
100
AcDbEntity
  8
0
100
AcDbLine
 10
0.155
 20
1.669
 30
0.0
 11
0.215
 21
1.703
 31
0.0
  0
LINE
  5
D1
330
18
100
AcDbEntity
  8
0
100
AcDbLine
 10
0.155
 20
1.669
 30
0.0
 11
0.215
 21
1.609
 31
0.0
  0
LINE
  5
D2
330
18
100
AcDbEntity
  8
0
100
AcDbLine
 10
0.337
 20
1.442
 30
0.0
 11
0.442
 21
1.34
 31
0.0
  0
LINE
  5
D3
330
18
100
AcDbEntity
  8
0
100
AcDbLine
 10
0.337
 20
1.487
 30
0.0
 11
0.442
 21
1.382
 31
0.0
  0
LINE
  5
D4
330
18
100
AcDbEntity
  8
0
100
AcDbLine
 10
0.442
 20
3.351
 30
0.0
 11
3.038
 21
4.647
 31
0.0
  0
LINE
  5
D5
330
18
100
AcDbEntity
  8
0
100
AcDbLine
 10
0.442
 20
3.026
 30
0.0
 11
2.809
 21
4.25
 31
0.0
  0
LINE
  5
D6
330
18
100
AcDbEntity
  8
0
100
AcDbLine
 10
0.617
 20
3.591
 30
0.0
 11
0.532
 21
3.661
 31
0.0
  0
LINE
  5
D7
330
18
100
AcDbEntity
  8
0
100
AcDbLine
 10
0.532
 20
3.633
 30
0.0
 11
0.617
 21
3.562
 31
0.0
  0
LWPOLYLINE
  5
D8
330
18
100
AcDbEntity
  8
0
100
AcDbPolyline
 90
       16
 70
     1
 43
0.0
 10
0.631
 20
3.693
 42
0.183
 10
0.629
 20
3.698
 42
0.103
 10
0.622
 20
3.703
 42
0.062
 10
0.613
 20
3.706
 42
0.048
 10
0.601
 20
3.707
 42
0.048
 10
0.589
 20
3.706
 42
0.062
 10
0.579
 20
3.703
 42
0.103
 10
0.5720000000000001
 20
3.698
 42
0.183
 10
0.5710000000000001
 20
3.693
 42
0.183
 10
0.5720000000000001
 20
3.688
 42
0.103
 10
0.579
 20
3.683
 42
0.062
 10
0.589
 20
3.68
 42
0.048
 10
0.601
 20
3.679
 42
0.048
 10
0.613
 20
3.68
 42
0.062
 10
0.622
 20
3.683
 42
0.103
 10
0.629
 20
3.688
 42
0.183
  0
LINE
  5
EB
330
18
100
AcDbEntity
  8
0
100
AcDbLine
 10
0.442
 20
3.026
 30
0.0
 11
0.442
 21
3.351
 31
0.0
  0
LINE
  5
EC
330
18
100
AcDbEntity
  8
0
100
AcDbLine
 10
0.337
 20
3.219
 30
0.0
 11
0.442
 21
3.133
 31
0.0
  0
LINE
  5
ED
330
18
100
AcDbEntity
  8
0
100
AcDbLine
 10
0.337
 20
3.114
 30
0.0
 11
0.442
 21
3.026
 31
0.0
  0
LINE
  5
EE
330
18
100
AcDbEntity
  8
0
100
AcDbLine
 10
0.337
 20
3.161
 30
0.0
 11
0.442
 21
3.077
 31
0.0
  0
LINE
  5
EF
330
18
100
AcDbEntity
  8
0
100
AcDbLine
 10
0.532
 20
3.661
 30
0.0
 11
0.532
 21
3.633
 31
0.0
  0
LINE
  5
F0
330
18
100
AcDbEntity
  8
0
100
AcDbLine
 10
0.155
 20
3.428
 30
0.0
 11
0.442
 21
3.188
 31
0.0
  0
LINE
  5
F1
330
18
100
AcDbEntity
  8
0
100
AcDbLine
 10
0.155
 20
3.551
 30
0.0
 11
0.442
 21
3.313
 31
0.0
  0
LINE
  5
F2
330
18
100
AcDbEntity
  8
0
100
AcDbLine
 10
0.155
 20
3.591
 30
0.0
 11
0.442
 21
3.351
 31
0.0
  0
LINE
  5
F3
330
18
100
AcDbEntity
  8
0
100
AcDbLine
 10
0.155
 20
3.467
 30
0.0
 11
0.442
 21
3.233
 31
0.0
  0
LINE
  5
F4
330
18
100
AcDbEntity
  8
0
100
AcDbLine
 10
0.155
 20
3.51
 30
0.0
 11
0.442
 21
3.278
 31
0.0
  0
LINE
  5
F5
330
18
100
AcDbEntity
  8
0
100
AcDbLine
 10
0.155
 20
3.266
 30
0.0
 11
0.155
 21
3.591
 31
0.0
  0
LINE
  5
F6
330
18
100
AcDbEntity
  8
0
100
AcDbLine
 10
0.155
 20
3.306
 30
0.0
 11
0.215
 21
3.258
 31
0.0
  0
LINE
  5
F7
330
18
100
AcDbEntity
  8
0
100
AcDbLine
 10
0.155
 20
3.266
 30
0.0
 11
0.215
 21
3.216
 31
0.0
  0
LINE
  5
F8
330
18
100
AcDbEntity
  8
0
100
AcDbLine
 10
0.155
 20
3.368
 30
0.0
 11
0.215
 21
3.319
 31
0.0
  0
LINE
  5
F9
330
18
100
AcDbEntity
  8
0
100
AcDbLine
 10
0.532
 20
3.661
 30
0.0
 11
0.5550000000000001
 21
3.723
 31
0.0
  0
LINE
  5
FA
330
18
100
AcDbEntity
  8
0
100
AcDbLine
 10
2.791
 20
2.917
 30
0.0
 11
2.791
 21
4.184
 31
0.0
  0
LWPOLYLINE
  5
FB
330
18
100
AcDbEntity
  8
0
100
AcDbPolyline
 90
        6
 70
     0
 43
0.0
 10
2.411
 20
3.784
 10
2.454
 20
3.826
 10
2.543
 20
3.954
 10
2.652
 20
4.048
 10
2.718
 20
4.09
 10
2.791
 20
4.128
  0
LINE
  5
104
330
18
100
AcDbEntity
  8
0
100
AcDbLine
 10
3.047
 20
4.227
 30
0.0
 11
3.047
 21
3.011
 31
0.0
  0
LINE
  5
105
330
18
100
AcDbEntity
  8
0
100
AcDbLine
 10
3.026
 20
2.891
 30
0.0
 11
3.026
 21
4.393
 31
0.0
  0
LINE
  5
106
330
18
100
AcDbEntity
  8
0
100
AcDbLine
 10
3.193
 20
2.903
 30
0.0
 11
3.193
 21
4.312
 31
0.0
  0
LINE
  5
107
330
18
100
AcDbEntity
  8
0
100
AcDbLine
 10
2.816
 20
2.917
 30
0.0
 11
2.816
 21
4.184
 31
0.0
  0
LWPOLYLINE
  5
108
330
18
100
AcDbEntity
  8
0
100
AcDbPolyline
 90
       16
 70
     1
 43
0.0
 10
3.071
 20
4.175
 42
0.167
 10
3.064
 20
4.173
 42
0.105
 10
3.057
 20
4.164
 42
0.068
 10
3.053
 20
4.152
 42
0.054
 10
3.051
 20
4.137
 42
0.054
 10
3.053
 20
4.122
 42
0.068
 10
3.057
 20
4.111000000000001
 42
0.105
 10
3.064
 20
4.102
 42
0.167
 10
3.071
 20
4.1
 42
0.167
 10
3.078
 20
4.102
 42
0.105
 10
3.085
 20
4.111000000000001
 42
0.068
 10
3.089
 20
4.122
 42
0.054
 10
3.091
 20
4.137
 42
0.054
 10
3.089
 20
4.152
 42
0.068
 10
3.085
 20
4.164
 42
0.105
 10
3.078
 20
4.173
 42
0.167
  0
LWPOLYLINE
  5
11B
330
18
100
AcDbEntity
  8
0
100
AcDbPolyline
 90
        6
 70
     0
 43
0.0
 10
1.582
 20
3.615
 10
1.714
 20
3.633
 10
1.898
 20
3.619
 10
2.077
 20
3.567
 10
2.199
 20
3.52
 10
2.315
 20
3.473
  0
LWPOLYLINE
  5
124
330
18
100
AcDbEntity
  8
0
100
AcDbPolyline
 90
        5
 70
     0
 43
0.0
 10
1.98
 20
2.439
 10
2.1
 20
2.55
 10
2.228
 20
2.719
 10
2.27
 20
2.814
 10
2.315
 20
2.903
  0
LWPOLYLINE
  5
12C
330
18
100
AcDbEntity
  8
0
100
AcDbPolyline
 90
        5
 70
     0
 43
0.0
 10
2.01
 20
3.837
 10
2.091
 20
3.845
 10
2.185
 20
3.836
 10
2.251
 20
3.812
 10
2.315
 20
3.793
  0
LINE
  5
134
330
18
100
AcDbEntity
  8
0
100
AcDbLine
 10
0.617
 20
3.562
 30
0.0
 11
0.725
 21
3.558
 31
0.0
  0
LINE
  5
135
330
18
100
AcDbEntity
  8
0
100
AcDbLine
 10
0.725
 20
3.586
 30
0.0
 11
0.617
 21
3.591
 31
0.0
  0
LINE
  5
136
330
18
100
AcDbEntity
  8
0
100
AcDbLine
 10
0.617
 20
3.591
 30
0.0
 11
0.617
 21
3.562
 31
0.0
  0
LINE
  5
137
330
18
100
AcDbEntity
  8
0
100
AcDbLine
 10
0.725
 20
3.586
 30
0.0
 11
0.725
 21
3.558
 31
0.0
  0
LWPOLYLINE
  5
138
330
18
100
AcDbEntity
  8
0
100
AcDbPolyline
 90
       16
 70
     1
 43
0.0
 10
1.016
 20
3.784
 42
0.183
 10
1.014
 20
3.788
 42
0.103
 10
1.007
 20
3.794
 42
0.062
 10
0.998
 20
3.797
 42
0.048
 10
0.986
 20
3.798
 42
0.048
 10
0.9740000000000001
 20
3.797
 42
0.062
 10
0.965
 20
3.794
 42
0.103
 10
0.958
 20
3.788
 42
0.183
 10
0.956
 20
3.784
 42
0.183
 10
0.958
 20
3.779
 42
0.103
 10
0.965
 20
3.774
 42
0.062
 10
0.9740000000000001
 20
3.771
 42
0.048
 10
0.986
 20
3.77
 42
0.048
 10
0.998
 20
3.771
 42
0.062
 10
1.007
 20
3.774
 42
0.103
 10
1.014
 20
3.779
 42
0.183
  0
LWPOLYLINE
  5
14B
330
18
100
AcDbEntity
  8
0
100
AcDbPolyline
 90
       16
 70
     1
 43
0.0
 10
0.784
 20
3.762
 42
0.054
 10
0.755
 20
3.762
 42
0.068
 10
0.733
 20
3.756
 42
0.105
 10
0.716
 20
3.744
 42
0.168
 10
0.71
 20
3.732
 42
0.168
 10
0.713
 20
3.719
 42
0.105
 10
0.728
 20
3.704
 42
0.068
 10
0.748
 20
3.694
 42
0.054
 10
0.7759999999999999
 20
3.688
 42
0.054
 10
0.8040000000000001
 20
3.689
 42
0.068
 10
0.826
 20
3.694
 42
0.105
 10
0.8440000000000001
 20
3.706
 42
0.168
 10
0.8490000000000001
 20
3.718
 42
0.168
 10
0.846
 20
3.731
 42
0.105
 10
0.8320000000000001
 20
3.746
 42
0.068
 10
0.8109999999999999
 20
3.756
 42
0.054
  0
LWPOLYLINE
  5
15E
330
18
100
AcDbEntity
  8
0
100
AcDbPolyline
 90
        4
 70
     0
 43
0.0
 10
0.8440000000000001
 20
3.707
 42
0.078
 10
0.833
 20
3.717
 42
0.068
 10
0.8120000000000001
 20
3.727
 42
0.054
 10
0.785
 20
3.733
 42
0.054
  0
LWPOLYLINE
  5
165
330
18
100
AcDbEntity
  8
0
100
AcDbPolyline
 90
        4
 70
     0
 43
0.0
 10
0.785
 20
3.733
 42
0.054
 10
0.7559999999999999
 20
3.733
 42
0.068
 10
0.7340000000000001
 20
3.727
 42
0.105
 10
0.7170000000000001
 20
3.716
 42
0.09
  0
LWPOLYLINE
  5
16C
330
18
100
AcDbEntity
  8
0
100
AcDbPolyline
 90
       16
 70
     1
 43
0.0
 10
1.266
 20
4.005
 42
0.183
 10
1.264
 20
4.01
 42
0.103
 10
1.257
 20
4.015
 42
0.062
 10
1.248
 20
4.018
 42
0.048
 10
1.236
 20
4.019
 42
0.048
 10
1.224
 20
4.018
 42
0.062
 10
1.214
 20
4.015
 42
0.103
 10
1.207
 20
4.01
 42
0.183
 10
1.206
 20
4.005
 42
0.183
 10
1.207
 20
4.0
 42
0.103
 10
1.214
 20
3.995
 42
0.062
 10
1.224
 20
3.992
 42
0.048
 10
1.236
 20
3.991
 42
0.048
 10
1.248
 20
3.992
 42
0.062
 10
1.257
 20
3.995
 42
0.103
 10
1.264
 20
4.0
 42
0.183
  0
LWPOLYLINE
  5
17F
330
18
100
AcDbEntity
  8
0
100
AcDbPolyline
 90
       16
 70
     1
 43
0.0
 10
1.665
 20
4.097
 42
0.183
 10
1.664
 20
4.101
 42
0.103
 10
1.657
 20
4.107
 42
0.062
 10
1.647
 20
4.11
 42
0.048
 10
1.635
 20
4.111000000000001
 42
0.048
 10
1.623
 20
4.11
 42
0.062
 10
1.614
 20
4.107
 42
0.103
 10
1.607
 20
4.101
 42
0.183
 10
1.605
 20
4.097
 42
0.183
 10
1.607
 20
4.092
 42
0.103
 10
1.614
 20
4.087
 42
0.062
 10
1.623
 20
4.084
 42
0.048
 10
1.635
 20
4.082
 42
0.048
 10
1.647
 20
4.084
 42
0.062
 10
1.657
 20
4.087
 42
0.103
 10
1.664
 20
4.092
 42
0.183
  0
TEXT
  5
192
330
18
100
AcDbEntity
  8
0
100
AcDbText
 10
2.887
 20
4.055
 30
0.0
 40
0.063
  1
SIMPSON Strong-Tie
 50
270.0
100
AcDbText
  0
LINE
  5
193
330
18
100
AcDbEntity
  8
0
100
AcDbLine
 10
2.374
 20
4.025
 30
0.0
 11
2.374
 21
2.581
 31
0.0
  0
LINE
  5
194
330
18
100
AcDbEntity
  8
0
100
AcDbLine
 10
2.343
 20
4.009
 30
0.0
 11
2.343
 21
2.609
 31
0.0
  0
LINE
  5
195
330
18
100
AcDbEntity
  8
0
100
AcDbLine
 10
2.411
 20
4.044
 30
0.0
 11
2.411
 21
2.548
 31
0.0
  0
LINE
  5
196
330
18
100
AcDbEntity
  8
0
100
AcDbLine
 10
2.315
 20
3.995
 30
0.0
 11
2.315
 21
2.633
 31
0.0
  0
LWPOLYLINE
  5
197
330
18
100
AcDbEntity
  8
0
100
AcDbPolyline
 90
       16
 70
     1
 43
0.0
 10
2.551
 20
3.192
 42
0.135
 10
2.541
 20
3.193
 42
0.107
 10
2.53
 20
3.187
 42
0.082
 10
2.521
 20
3.178
 42
0.07
 10
2.515
 20
3.165
 42
0.07
 10
2.512
 20
3.15
 42
0.082
 10
2.514
 20
3.137
 42
0.107
 10
2.52
 20
3.126
 42
0.135
 10
2.528
 20
3.121
 42
0.135
 10
2.538
 20
3.12
 42
0.107
 10
2.549
 20
3.126
 42
0.082
 10
2.558
 20
3.135
 42
0.07
 10
2.564
 20
3.148
 42
0.07
 10
2.567
 20
3.163
 42
0.082
 10
2.565
 20
3.176
 42
0.107
 10
2.559
 20
3.187
 42
0.135
  0
LINE
  5
1AA
330
18
100
AcDbEntity
  8
0
100
AcDbLine
 10
3.095
 20
3.24
 30
0.0
 11
3.123
 21
3.162
 31
0.0
  0
LINE
  5
1AB
330
18
100
AcDbEntity
  8
0
100
AcDbLine
 10
3.107
 20
3.257
 30
0.0
 11
3.135
 21
3.177
 31
0.0
  0
LINE
  5
1AC
330
18
100
AcDbEntity
  8
0
100
AcDbLine
 10
3.104
 20
3.14
 30
0.0
 11
3.081
 21
3.218
 31
0.0
  0
LINE
  5
1AD
330
18
100
AcDbEntity
  8
0
100
AcDbLine
 10
2.958
 20
2.578
 30
0.0
 11
2.656
 21
2.39
 31
0.0
  0
LWPOLYLINE
  5
1AE
330
18
100
AcDbEntity
  8
0
100
AcDbPolyline
 90
       16
 70
     1
 43
0.0
 10
2.9
 20
2.851
 42
0.059
 10
2.89
 20
2.858
 42
0.073
 10
2.88
 20
2.861
 42
0.107
 10
2.871
 20
2.861
 42
0.156
 10
2.866
 20
2.857
 42
0.156
 10
2.863
 20
2.851
 42
0.107
 10
2.864
 20
2.842
 42
0.073
 10
2.869
 20
2.833
 42
0.059
 10
2.877
 20
2.825
 42
0.059
 10
2.887
 20
2.818
 42
0.073
 10
2.897
 20
2.815
 42
0.107
 10
2.906
 20
2.815
 42
0.156
 10
2.911
 20
2.818
 42
0.156
 10
2.914
 20
2.824
 42
0.107
 10
2.913
 20
2.833
 42
0.073
 10
2.908
 20
2.842
 42
0.059
  0
ARC
  5
1C1
330
18
100
AcDbEntity
  8
0
100
AcDbCircle
 10
2.505
 20
2.905
 30
0.0
 40
0.312
100
AcDbArc
 50
317.945
 51
2.284
  0
ARC
  5
1C2
330
18
100
AcDbEntity
  8
0
100
AcDbCircle
 10
2.505
 20
2.905
 30
0.0
 40
0.287
100
AcDbArc
 50
317.945
 51
2.284
  0
LWPOLYLINE
  5
1C3
330
18
100
AcDbEntity
  8
0
100
AcDbPolyline
 90
        4
 70
     0
 43
0.0
 10
2.411
 20
2.752
 10
2.468
 20
2.724
 10
2.529
 20
2.696
 10
2.608
 20
2.665
  0
ARC
  5
1CA
330
18
100
AcDbEntity
  8
0
100
AcDbCircle
 10
3.007
 20
2.437
 30
0.0
 40
0.4
100
AcDbArc
 50
136.235
 51
185.28
  0
LINE
  5
1CB
330
18
100
AcDbEntity
  8
0
100
AcDbLine
 10
2.315
 20
2.633
 30
0.0
 11
2.411
 21
2.548
 31
0.0
  0
ARC
  5
1CC
330
18
100
AcDbEntity
  8
0
100
AcDbCircle
 10
3.007
 20
2.437
 30
0.0
 40
0.375
100
AcDbArc
 50
136.235
 51
185.28
  0
ARC
  5
1CD
330
18
100
AcDbEntity
  8
0
100
AcDbCircle
 10
2.606
 20
2.4
 30
0.0
 40
0.028
100
AcDbArc
 50
226.821
 51
5.28
  0
LINE
  5
1CE
330
18
100
AcDbEntity
  8
0
100
AcDbLine
 10
2.574
 20
2.391
 30
0.0
 11
2.586
 21
2.379
 31
0.0
  0
ARC
  5
1CF
330
18
100
AcDbEntity
  8
0
100
AcDbCircle
 10
2.605
 20
2.451
 30
0.0
 40
0.08
100
AcDbArc
 50
271.034
 51
309.603
  0
LWPOLYLINE
  5
1D0
330
18
100
AcDbEntity
  8
0
100
AcDbPolyline
 90
        9
 70
     0
 43
0.0
 10
2.411
 20
3.021
 10
2.463
 20
2.978
 10
2.506
 20
2.945
 10
2.581
 20
2.941
 10
2.623
 20
2.927
 10
2.68
 20
2.931
 10
2.732
 20
2.936
 10
2.76
 20
2.927
 10
2.791
 20
2.931
  0
LINE
  5
1DC
330
18
100
AcDbEntity
  8
0
100
AcDbLine
 10
2.864
 20
2.779
 30
0.0
 11
2.903
 21
2.795
 31
0.0
  0
LWPOLYLINE
  5
1DD
330
18
100
AcDbEntity
  8
0
100
AcDbPolyline
 90
       10
 70
     0
 43
0.0
 10
2.858
 20
2.847
 42
0.153
 10
2.855
 20
2.841
 42
0.107
 10
2.857
 20
2.832
 42
0.073
 10
2.861
 20
2.823
 42
0.059
 10
2.869
 20
2.814
 42
0.059
 10
2.879
 20
2.808
 42
0.073
 10
2.889
 20
2.804
 42
0.107
 10
2.898
 20
2.805
 42
0.156
 10
2.903
 20
2.808
 42
0.06
 10
2.905
 20
2.81
 42
0.012
  0
LINE
  5
1EA
330
18
100
AcDbEntity
  8
0
100
AcDbLine
 10
2.857
 20
2.846
 30
0.0
 11
2.866
 21
2.857
 31
0.0
  0
LINE
  5
1EB
330
18
100
AcDbEntity
  8
0
100
AcDbLine
 10
2.876
 20
2.81
 30
0.0
 11
2.865
 21
2.793
 31
0.0
  0
LINE
  5
1EC
330
18
100
AcDbEntity
  8
0
100
AcDbLine
 10
2.867
 20
2.816
 30
0.0
 11
2.864
 21
2.779
 31
0.0
  0
LINE
  5
1ED
330
18
100
AcDbEntity
  8
0
100
AcDbLine
 10
2.903
 20
2.795
 30
0.0
 11
2.899
 21
2.805
 31
0.0
  0
LINE
  5
1EE
330
18
100
AcDbEntity
  8
0
100
AcDbLine
 10
2.902
 20
2.807
 30
0.0
 11
2.912
 21
2.819
 31
0.0
  0
LWPOLYLINE
  5
1EF
330
18
100
AcDbEntity
  8
0
100
AcDbPolyline
 90
       16
 70
     1
 43
0.0
 10
2.721
 20
3.113
 42
0.135
 10
2.711
 20
3.113
 42
0.107
 10
2.7
 20
3.108
 42
0.082
 10
2.691
 20
3.099
 42
0.07
 10
2.684
 20
3.085
 42
0.07
 10
2.682
 20
3.071
 42
0.082
 10
2.683
 20
3.058
 42
0.107
 10
2.689
 20
3.047
 42
0.135
 10
2.698
 20
3.042
 42
0.135
 10
2.707
 20
3.041
 42
0.107
 10
2.718
 20
3.046
 42
0.082
 10
2.727
 20
3.056
 42
0.07
 10
2.734
 20
3.069
 42
0.07
 10
2.737
 20
3.084
 42
0.082
 10
2.735
 20
3.097
 42
0.107
 10
2.729
 20
3.107
 42
0.135
  0
ARC
  5
202
330
18
100
AcDbEntity
  8
0
100
AcDbCircle
 10
3.2
 20
2.604
 30
0.0
 40
0.244
100
AcDbArc
 50
120.774
 51
186.096
  0
LINE
  5
203
330
18
100
AcDbEntity
  8
0
100
AcDbLine
 10
3.026
 20
2.665
 30
0.0
 11
3.026
 21
2.775
 31
0.0
  0
LINE
  5
204
330
18
100
AcDbEntity
  8
0
100
AcDbLine
 10
3.026
 20
2.665
 30
0.0
 11
2.957
 21
2.624
 31
0.0
  0
LINE
  5
205
330
18
100
AcDbEntity
  8
0
100
AcDbLine
 10
3.047
 20
2.974
 30
0.0
 11
3.047
 21
2.941
 31
0.0
  0
ARC
  5
206
330
18
100
AcDbEntity
  8
0
100
AcDbCircle
 10
2.955
 20
3.094
 30
0.0
 40
0.305
100
AcDbArc
 50
293.199
 51
321.271
  0
LINE
  5
207
330
18
100
AcDbEntity
  8
0
100
AcDbLine
 10
3.026
 20
2.801
 30
0.0
 11
3.026
 21
2.843
 31
0.0
  0
LINE
  5
208
330
18
100
AcDbEntity
  8
0
100
AcDbLine
 10
3.135
 20
3.177
 30
0.0
 11
3.104
 21
3.14
 31
0.0
  0
TEXT
  5
209
330
18
100
AcDbEntity
  8
0
100
AcDbText
 10
2.939
 20
3.091
 30
0.0
 40
0.01
  1
@
 50
270.0
100
AcDbText
  0
LWPOLYLINE
  5
20A
330
18
100
AcDbEntity
  8
0
100
AcDbPolyline
 90
       18
 70
     0
 43
0.0
 10
2.791
 20
3.737
 10
2.713
 20
3.685
 10
2.609
 20
3.586
 10
2.534
 20
3.482
 10
2.506
 20
3.435
 10
2.501
 20
3.374
 10
2.543
 20
3.369
 10
2.567
 20
3.369
 10
2.576
 20
3.36
 10
2.581
 20
3.341
 10
2.595
 20
3.322
 10
2.619
 20
3.308
 10
2.652
 20
3.299
 10
2.713
 20
3.28
 10
2.741
 20
3.271
 10
2.769
 20
3.271
 10
2.769
 20
3.271
 10
2.791
 20
3.266
  0
LWPOLYLINE
  5
21F
330
18
100
AcDbEntity
  8
0
100
AcDbPolyline
 90
       16
 70
     1
 43
0.0
 10
2.704
 20
3.593
 42
0.135
 10
2.694
 20
3.594
 42
0.107
 10
2.683
 20
3.589
 42
0.082
 10
2.674
 20
3.579
 42
0.07
 10
2.667
 20
3.566
 42
0.07
 10
2.665
 20
3.551
 42
0.082
 10
2.666
 20
3.538
 42
0.107
 10
2.672
 20
3.528
 42
0.135
 10
2.681
 20
3.522
 42
0.135
 10
2.69
 20
3.522
 42
0.107
 10
2.701
 20
3.527
 42
0.082
 10
2.71
 20
3.536
 42
0.07
 10
2.717
 20
3.55
 42
0.07
 10
2.72
 20
3.564
 42
0.082
 10
2.718
 20
3.577
 42
0.107
 10
2.712
 20
3.588
 42
0.135
  0
LWPOLYLINE
  5
232
330
18
100
AcDbEntity
  8
0
100
AcDbPolyline
 90
       16
 70
     1
 43
0.0
 10
2.545
 20
3.777
 42
0.135
 10
2.536
 20
3.778
 42
0.107
 10
2.525
 20
3.772
 42
0.082
 10
2.516
 20
3.763
 42
0.07
 10
2.509
 20
3.75
 42
0.07
 10
2.506
 20
3.735
 42
0.082
 10
2.508
 20
3.722
 42
0.107
 10
2.514
 20
3.711
 42
0.135
 10
2.522
 20
3.706
 42
0.135
 10
2.532
 20
3.706
 42
0.107
 10
2.543
 20
3.711
 42
0.082
 10
2.552
 20
3.72
 42
0.07
 10
2.559
 20
3.733
 42
0.07
 10
2.561
 20
3.748
 42
0.082
 10
2.56
 20
3.761
 42
0.107
 10
2.554
 20
3.772
 42
0.135
  0
LINE
  5
245
330
18
100
AcDbEntity
  8
0
100
AcDbLine
 10
3.081
 20
3.218
 30
0.0
 11
3.107
 21
3.257
 31
0.0
  0
LINE
  5
246
330
18
100
AcDbEntity
  8
0
100
AcDbLine
 10
2.397
 20
5.069
 30
0.0
 11
1.827
 21
5.456
 31
0.0
  0
LINE
  5
247
330
18
100
AcDbEntity
  8
0
100
AcDbLine
 10
2.322
 20
5.678
 30
0.0
 11
1.827
 21
5.456
 31
0.0
  0
LINE
  5
248
330
18
100
AcDbEntity
  8
0
100
AcDbLine
 10
1.827
 20
5.456
 30
0.0
 11
1.827
 21
4.924
 31
0.0
  0
LINE
  5
249
330
18
100
AcDbEntity
  8
0
100
AcDbLine
 10
1.827
 20
4.593999999999999
 30
0.0
 11
1.827
 21
4.397
 31
0.0
  0
LWPOLYLINE
  5
24A
330
18
100
AcDbEntity
  8
0
100
AcDbPolyline
 90
       16
 70
     1
 43
0.0
 10
1.884
 20
4.335
 42
0.061
 10
1.874
 20
4.334
 42
0.074
 10
1.867
 20
4.331
 42
0.107
 10
1.862
 20
4.326000000000001
 42
0.152
 10
1.86
 20
4.321000000000001
 42
0.152
 10
1.862
 20
4.316
 42
0.107
 10
1.867
 20
4.311
 42
0.074
 10
1.874
 20
4.308
 42
0.061
 10
1.884
 20
4.307
 42
0.061
 10
1.893
 20
4.308
 42
0.074
 10
1.9
 20
4.311
 42
0.107
 10
1.906
 20
4.316
 42
0.152
 10
1.907
 20
4.321000000000001
 42
0.152
 10
1.906
 20
4.326000000000001
 42
0.107
 10
1.9
 20
4.331
 42
0.074
 10
1.893
 20
4.334
 42
0.061
  0
LINE
  5
25D
330
18
100
AcDbEntity
  8
0
100
AcDbLine
 10
1.742
 20
4.698
 30
0.0
 11
1.827
 21
4.593999999999999
 31
0.0
  0
LINE
  5
25E
330
18
100
AcDbEntity
  8
0
100
AcDbLine
 10
1.926
 20
4.792
 30
0.0
 11
1.742
 21
4.698
 31
0.0
  0
LINE
  5
25F
330
18
100
AcDbEntity
  8
0
100
AcDbLine
 10
1.827
 20
4.924
 30
0.0
 11
1.926
 21
4.792
 31
0.0
  0
LINE
  5
260
330
18
100
AcDbEntity
  8
0
100
AcDbLine
 10
2.986
 20
5.024
 30
0.0
 11
3.197
 21
5.126
 31
0.0
  0
ARC
  5
261
330
18
100
AcDbEntity
  8
0
100
AcDbCircle
 10
2.931
 20
5.006
 30
0.0
 40
0.058
100
AcDbArc
 50
18.881
 51
91.75599999999999
  0
LINE
  5
262
330
18
100
AcDbEntity
  8
0
100
AcDbLine
 10
2.712
 20
5.183
 30
0.0
 11
2.921
 21
5.036000000000001
 31
0.0
  0
LINE
  5
263
330
18
100
AcDbEntity
  8
0
100
AcDbLine
 10
2.634
 20
5.178
 30
0.0
 11
2.85
 21
5.035
 31
0.0
  0
ARC
  5
264
330
18
100
AcDbEntity
  8
0
100
AcDbCircle
 10
2.561
 20
5.07
 30
0.0
 40
0.031
100
AcDbArc
 50
342.442
 51
114.291
  0
LINE
  5
265
330
18
100
AcDbEntity
  8
0
100
AcDbLine
 10
2.397
 20
5.013999999999999
 30
0.0
 11
2.397
 21
5.069
 31
0.0
  0
ARC
  5
266
330
18
100
AcDbEntity
  8
0
100
AcDbCircle
 10
2.475
 20
5.048
 30
0.0
 40
0.017
100
AcDbArc
 50
113.729
 51
180.0
  0
LWPOLYLINE
  5
267
330
18
100
AcDbEntity
  8
0
100
AcDbPolyline
 90
       16
 70
     1
 43
0.0
 10
2.763
 20
5.053
 42
0.197
 10
2.761
 20
5.056
 42
0.099
 10
2.755
 20
5.061
 42
0.056
 10
2.747
 20
5.063
 42
0.043
 10
2.737
 20
5.064
 42
0.043
 10
2.726
 20
5.063
 42
0.056
 10
2.718
 20
5.061
 42
0.099
 10
2.712
 20
5.056
 42
0.197
 10
2.71
 20
5.053
 42
0.197
 10
2.712
 20
5.049
 42
0.099
 10
2.718
 20
5.045
 42
0.056
 10
2.726
 20
5.043
 42
0.043
 10
2.737
 20
5.042
 42
0.043
 10
2.747
 20
5.043
 42
0.056
 10
2.755
 20
5.045
 42
0.099
 10
2.761
 20
5.049
 42
0.197
  0
LINE
  5
27A
330
18
100
AcDbEntity
  8
0
100
AcDbLine
 10
3.241
 20
5.098
 30
0.0
 11
3.025
 21
4.997
 31
0.0
  0
TEXT
  5
27B
330
18
100
AcDbEntity
  8
0
100
AcDbText
 10
2.792
 20
4.684
 30
0.0
 40
0.05
  1
SIMPSON Strong-Tie
 50
26.332
100
AcDbText
  0
LINE
  5
27C
330
18
100
AcDbEntity
  8
0
100
AcDbLine
 10
2.904
 20
4.999
 30
0.0
 11
2.96
 21
4.962
 31
0.0
  0
LINE
  5
27D
330
18
100
AcDbEntity
  8
0
100
AcDbLine
 10
2.807
 20
4.247
 30
0.0
 11
3.026
 21
4.641
 31
0.0
  0
LINE
  5
27E
330
18
100
AcDbEntity
  8
0
100
AcDbLine
 10
2.96
 20
4.962
 30
0.0
 11
2.783
 21
4.878
 31
0.0
  0
LINE
  5
27F
330
18
100
AcDbEntity
  8
0
100
AcDbLine
 10
2.83
 20
4.234
 30
0.0
 11
3.037
 21
4.606
 31
0.0
  0
LWPOLYLINE
  5
280
330
18
100
AcDbEntity
  8
0
100
AcDbPolyline
 90
       16
 70
     1
 43
0.0
 10
2.294
 20
4.439
 42
0.061
 10
2.284
 20
4.438
 42
0.074
 10
2.277
 20
4.435
 42
0.107
 10
2.272
 20
4.43
 42
0.152
 10
2.27
 20
4.425
 42
0.152
 10
2.272
 20
4.42
 42
0.107
 10
2.277
 20
4.415
 42
0.074
 10
2.284
 20
4.412
 42
0.061
 10
2.294
 20
4.41
 42
0.061
 10
2.303
 20
4.412
 42
0.074
 10
2.31
 20
4.415
 42
0.107
 10
2.316
 20
4.42
 42
0.152
 10
2.317
 20
4.425
 42
0.152
 10
2.316
 20
4.43
 42
0.107
 10
2.31
 20
4.435
 42
0.074
 10
2.303
 20
4.438
 42
0.061
  0
ARC
  5
293
330
18
100
AcDbEntity
  8
0
100
AcDbCircle
 10
2.92
 20
4.184
 30
0.0
 40
0.129
100
AcDbArc
 50
150.884
 51
180.0
  0
ARC
  5
294
330
18
100
AcDbEntity
  8
0
100
AcDbCircle
 10
2.92
 20
4.184
 30
0.0
 40
0.104
100
AcDbArc
 50
150.884
 51
180.0
  0
LINE
  5
295
330
18
100
AcDbEntity
  8
0
100
AcDbLine
 10
2.532
 20
4.736000000000001
 30
0.0
 11
2.501
 21
4.8
 31
0.0
  0
LWPOLYLINE
  5
296
330
18
100
AcDbEntity
  8
0
100
AcDbPolyline
 90
       16
 70
     1
 43
0.0
 10
2.524
 20
4.637
 42
0.061
 10
2.515
 20
4.635
 42
0.074
 10
2.508
 20
4.632
 42
0.107
 10
2.502
 20
4.627
 42
0.152
 10
2.501
 20
4.622
 42
0.152
 10
2.502
 20
4.617
 42
0.107
 10
2.508
 20
4.612
 42
0.074
 10
2.515
 20
4.609
 42
0.061
 10
2.524
 20
4.608000000000001
 42
0.061
 10
2.534
 20
4.609
 42
0.074
 10
2.541
 20
4.612
 42
0.107
 10
2.546
 20
4.617
 42
0.152
 10
2.548
 20
4.622
 42
0.152
 10
2.546
 20
4.627
 42
0.107
 10
2.541
 20
4.632
 42
0.074
 10
2.534
 20
4.635
 42
0.061
  0
LINE
  5
2A9
330
18
100
AcDbEntity
  8
0
100
AcDbLine
 10
2.59
 20
5.061
 30
0.0
 11
2.512
 21
5.026
 31
0.0
  0
ARC
  5
2AA
330
18
100
AcDbEntity
  8
0
100
AcDbCircle
 10
2.595
 20
4.9
 30
0.0
 40
0.137
100
AcDbArc
 50
184.999
 51
226.545
  0
LINE
  5
2AB
330
18
100
AcDbEntity
  8
0
100
AcDbLine
 10
2.501
 20
5.009
 30
0.0
 11
2.501
 21
4.8
 31
0.0
  0
LINE
  5
2AC
330
18
100
AcDbEntity
  8
0
100
AcDbLine
 10
2.458
 20
4.888
 30
0.0
 11
2.397
 21
5.013999999999999
 31
0.0
  0
ARC
  5
2AD
330
18
100
AcDbEntity
  8
0
100
AcDbCircle
 10
2.52
 20
5.009
 30
0.0
 40
0.019
100
AcDbArc
 50
113.95
 51
180.0
  0
LINE
  5
2AE
330
18
100
AcDbEntity
  8
0
100
AcDbLine
 10
2.458
 20
5.048
 30
0.0
 11
2.458
 21
4.888
 31
0.0
  0
LINE
  5
2AF
330
18
100
AcDbEntity
  8
0
100
AcDbLine
 10
2.699
 20
4.816
 30
0.0
 11
2.699
 21
4.869
 31
0.0
  0
LINE
  5
2B0
330
18
100
AcDbEntity
  8
0
100
AcDbLine
 10
2.637
 20
4.787
 30
0.0
 11
2.637
 21
4.911000000000001
 31
0.0
  0
LWPOLYLINE
  5
2B1
330
18
100
AcDbEntity
  8
0
100
AcDbPolyline
 90
       16
 70
     1
 43
0.0
 10
2.587
 20
4.781000000000001
 42
0.126
 10
2.589
 20
4.786000000000001
 42
0.106
 10
2.589
 20
4.792
 42
0.086
 10
2.586
 20
4.798
 42
0.076
 10
2.581
 20
4.803999999999999
 42
0.076
 10
2.574
 20
4.808
 42
0.086
 10
2.568
 20
4.81
 42
0.106
 10
2.561
 20
4.808
 42
0.126
 10
2.557
 20
4.805
 42
0.126
 10
2.554
 20
4.8
 42
0.106
 10
2.555
 20
4.794
 42
0.086
 10
2.557
 20
4.787
 42
0.076
 10
2.563
 20
4.782
 42
0.076
 10
2.569
 20
4.778000000000001
 42
0.086
 10
2.576
 20
4.776
 42
0.106
 10
2.582
 20
4.777
 42
0.126
  0
LWPOLYLINE
  5
2C4
330
18
100
AcDbEntity
  8
0
100
AcDbPolyline
 90
       16
 70
     1
 43
0.0
 10
2.903
 20
4.686
 42
0.159
 10
2.902
 20
4.689
 42
0.106
 10
2.899
 20
4.692
 42
0.071
 10
2.894
 20
4.694
 42
0.058
 10
2.889
 20
4.694
 42
0.058
 10
2.883
 20
4.694
 42
0.071
 10
2.879
 20
4.692
 42
0.106
 10
2.875
 20
4.689
 42
0.159
 10
2.874
 20
4.686
 42
0.159
 10
2.875
 20
4.683
 42
0.106
 10
2.879
 20
4.681
 42
0.071
 10
2.883
 20
4.678999999999999
 42
0.058
 10
2.889
 20
4.678
 42
0.058
 10
2.894
 20
4.678999999999999
 42
0.071
 10
2.899
 20
4.681
 42
0.106
 10
2.902
 20
4.683
 42
0.159
  0
LINE
  5
2D7
330
18
100
AcDbEntity
  8
0
100
AcDbLine
 10
2.659
 20
4.945
 30
0.0
 11
2.85
 21
5.035
 31
0.0
  0
ARC
  5
2D8
330
18
100
AcDbEntity
  8
0
100
AcDbCircle
 10
2.746
 20
4.869
 30
0.0
 40
0.047
100
AcDbArc
 50
117.181
 51
180.0
  0
ARC
  5
2D9
330
18
100
AcDbEntity
  8
0
100
AcDbCircle
 10
2.65
 20
4.998
 30
0.0
 40
0.045
100
AcDbArc
 50
13.236
 51
106.251
  0
LINE
  5
2DA
330
18
100
AcDbEntity
  8
0
100
AcDbLine
 10
2.694
 20
5.009
 30
0.0
 11
2.623
 21
4.98
 31
0.0
  0
LINE
  5
2DB
330
18
100
AcDbEntity
  8
0
100
AcDbLine
 10
2.637
 20
5.042
 30
0.0
 11
2.555
 21
5.006
 31
0.0
  0
ARC
  5
2DC
330
18
100
AcDbEntity
  8
0
100
AcDbCircle
 10
2.576
 20
4.886
 30
0.0
 40
0.033
100
AcDbArc
 50
171.87
 51
315.0
  0
ARC
  5
2DD
330
18
100
AcDbEntity
  8
0
100
AcDbCircle
 10
2.637
 20
4.945
 30
0.0
 40
0.038
100
AcDbArc
 50
112.249
 51
180.0
  0
ARC
  5
2DE
330
18
100
AcDbEntity
  8
0
100
AcDbCircle
 10
2.562
 20
4.989
 30
0.0
 40
0.019
100
AcDbArc
 50
113.429
 51
180.0
  0
LINE
  5
2DF
330
18
100
AcDbEntity
  8
0
100
AcDbLine
 10
2.543
 20
4.989
 30
0.0
 11
2.543
 21
4.891
 31
0.0
  0
LINE
  5
2E0
330
18
100
AcDbEntity
  8
0
100
AcDbLine
 10
2.6
 20
4.863
 30
0.0
 11
2.6
 21
4.945
 31
0.0
  0
ARC
  5
2E1
330
18
100
AcDbEntity
  8
0
100
AcDbCircle
 10
2.675
 20
4.911000000000001
 30
0.0
 40
0.038
100
AcDbArc
 50
115.278
 51
180.0
  0
ARC
  5
2E2
330
18
100
AcDbEntity
  8
0
100
AcDbCircle
 10
2.856
 20
4.985
 30
0.0
 40
0.05
100
AcDbArc
 50
15.704
 51
97.07799999999999
  0
LINE
  5
2E3
330
18
100
AcDbEntity
  8
0
100
AcDbLine
 10
2.724
 20
4.911000000000001
 30
0.0
 11
2.904
 21
4.999
 31
0.0
  0
ARC
  5
2E4
330
18
100
AcDbEntity
  8
0
100
AcDbCircle
 10
2.832
 20
4.779
 30
0.0
 40
0.11
100
AcDbArc
 50
114.318
 51
149.552
  0
LINE
  5
2E5
330
18
100
AcDbEntity
  8
0
100
AcDbLine
 10
3.58
 20
4.557
 30
0.0
 11
3.347
 21
4.707
 31
0.0
  0
ARC
  5
2E6
330
18
100
AcDbEntity
  8
0
100
AcDbCircle
 10
3.288
 20
4.59
 30
0.0
 40
0.026
100
AcDbArc
 50
345.4380000000001
 51
130.552
  0
ARC
  5
2E7
330
18
100
AcDbEntity
  8
0
100
AcDbCircle
 10
3.163
 20
4.582
 30
0.0
 40
0.026
100
AcDbArc
 50
117.326
 51
180.0
  0
LINE
  5
2E8
330
18
100
AcDbEntity
  8
0
100
AcDbLine
 10
3.209
 20
4.578
 30
0.0
 11
3.271
 21
4.61
 31
0.0
  0
LINE
  5
2E9
330
18
100
AcDbEntity
  8
0
100
AcDbLine
 10
3.08
 20
4.269
 30
0.0
 11
3.08
 21
4.622
 31
0.0
  0
LINE
  5
2EA
330
18
100
AcDbEntity
  8
0
100
AcDbLine
 10
3.65
 20
4.571000000000001
 30
0.0
 11
3.43
 21
4.716
 31
0.0
  0
LINE
  5
2EB
330
18
100
AcDbEntity
  8
0
100
AcDbLine
 10
3.65
 20
4.596
 30
0.0
 11
3.65
 21
4.571000000000001
 31
0.0
  0
LINE
  5
2EC
330
18
100
AcDbEntity
  8
0
100
AcDbLine
 10
3.193
 20
4.312
 30
0.0
 11
3.302
 21
4.368
 31
0.0
  0
LINE
  5
2ED
330
18
100
AcDbEntity
  8
0
100
AcDbLine
 10
3.251
 20
4.553
 30
0.0
 11
3.313
 21
4.583
 31
0.0
  0
LINE
  5
2EE
330
18
100
AcDbEntity
  8
0
100
AcDbLine
 10
3.287
 20
4.525
 30
0.0
 11
3.36
 21
4.553999999999999
 31
0.0
  0
LWPOLYLINE
  5
2EF
330
18
100
AcDbEntity
  8
0
100
AcDbPolyline
 90
       16
 70
     1
 43
0.0
 10
3.207
 20
4.363
 42
0.13
 10
3.211
 20
4.37
 42
0.106
 10
3.212
 20
4.379
 42
0.084
 10
3.209
 20
4.387
 42
0.073
 10
3.202
 20
4.396
 42
0.073
 10
3.194
 20
4.402
 42
0.084
 10
3.185
 20
4.405
 42
0.106
 10
3.176
 20
4.405
 42
0.13
 10
3.17
 20
4.401
 42
0.13
 10
3.166
 20
4.395
 42
0.106
 10
3.166
 20
4.386
 42
0.084
 10
3.169
 20
4.377
 42
0.073
 10
3.175
 20
4.368
 42
0.073
 10
3.183
 20
4.362
 42
0.084
 10
3.192
 20
4.359
 42
0.106
 10
3.201
 20
4.36
 42
0.13
  0
LINE
  5
302
330
18
100
AcDbEntity
  8
0
100
AcDbLine
 10
3.137
 20
4.582
 30
0.0
 11
3.137
 21
4.241000000000001
 31
0.0
  0
LINE
  5
303
330
18
100
AcDbEntity
  8
0
100
AcDbLine
 10
3.269
 20
4.493
 30
0.0
 11
3.269
 21
4.351
 31
0.0
  0
ARC
  5
304
330
18
100
AcDbEntity
  8
0
100
AcDbCircle
 10
3.12
 20
4.279
 30
0.0
 40
0.041
100
AcDbArc
 50
193.241
 51
293.629
  0
LINE
  5
305
330
18
100
AcDbEntity
  8
0
100
AcDbLine
 10
3.047
 20
4.312
 30
0.0
 11
3.047
 21
4.283
 31
0.0
  0
LINE
  5
306
330
18
100
AcDbEntity
  8
0
100
AcDbLine
 10
3.026
 20
4.463
 30
0.0
 11
3.026
 21
4.512
 31
0.0
  0
ARC
  5
307
330
18
100
AcDbEntity
  8
0
100
AcDbCircle
 10
3.222
 20
4.553
 30
0.0
 40
0.028
100
AcDbArc
 50
116.565
 51
180.0
  0
ARC
  5
308
330
18
100
AcDbEntity
  8
0
100
AcDbCircle
 10
3.264
 20
4.527
 30
0.0
 40
0.028
100
AcDbArc
 50
116.565
 51
180.0
  0
ARC
  5
309
330
18
100
AcDbEntity
  8
0
100
AcDbCircle
 10
3.224
 20
4.467
 30
0.0
 40
0.031
100
AcDbArc
 50
189.605
 51
292.286
  0
LINE
  5
30A
330
18
100
AcDbEntity
  8
0
100
AcDbLine
 10
3.193
 20
4.553
 30
0.0
 11
3.193
 21
4.462
 31
0.0
  0
LINE
  5
30B
330
18
100
AcDbEntity
  8
0
100
AcDbLine
 10
3.236
 20
4.439
 30
0.0
 11
3.236
 21
4.527
 31
0.0
  0
ARC
  5
30C
330
18
100
AcDbEntity
  8
0
100
AcDbCircle
 10
3.306
 20
4.493
 30
0.0
 40
0.038
100
AcDbArc
 50
121.608
 51
180.0
  0
LINE
  5
30D
330
18
100
AcDbEntity
  8
0
100
AcDbLine
 10
3.372
 20
4.428999999999999
 30
0.0
 11
3.58
 21
4.535
 31
0.0
  0
LINE
  5
30E
330
18
100
AcDbEntity
  8
0
100
AcDbLine
 10
3.382
 20
4.458
 30
0.0
 11
3.58
 21
4.557
 31
0.0
  0
ARC
  5
30F
330
18
100
AcDbEntity
  8
0
100
AcDbCircle
 10
3.372
 20
4.521
 30
0.0
 40
0.035
100
AcDbArc
 50
5.669
 51
110.32
  0
LINE
  5
310
330
18
100
AcDbEntity
  8
0
100
AcDbLine
 10
3.34
 20
4.489
 30
0.0
 11
3.407
 21
4.525
 31
0.0
  0
ARC
  5
311
330
18
100
AcDbEntity
  8
0
100
AcDbCircle
 10
3.266
 20
4.435
 30
0.0
 40
0.076
100
AcDbArc
 50
297.955
 51
344.725
  0
ARC
  5
312
330
18
100
AcDbEntity
  8
0
100
AcDbCircle
 10
3.427
 20
4.32
 30
0.0
 40
0.122
100
AcDbArc
 50
116.742
 51
143.869
  0
ARC
  5
313
330
18
100
AcDbEntity
  8
0
100
AcDbCircle
 10
3.358
 20
4.456
 30
0.0
 40
0.038
100
AcDbArc
 50
118.301
 51
180.0
  0
LINE
  5
314
330
18
100
AcDbEntity
  8
0
100
AcDbLine
 10
3.321
 20
4.456
 30
0.0
 11
3.321
 21
4.387
 31
0.0
  0
ARC
  5
315
330
18
100
AcDbEntity
  8
0
100
AcDbCircle
 10
3.455
 20
4.342
 30
0.0
 40
0.137
100
AcDbArc
 50
122.32
 51
147.68
  0
LINE
  5
316
330
18
100
AcDbEntity
  8
0
100
AcDbLine
 10
3.58
 20
4.557
 30
0.0
 11
3.58
 21
4.535
 31
0.0
  0
LINE
  5
317
330
18
100
AcDbEntity
  8
0
100
AcDbLine
 10
3.347
 20
4.707
 30
0.0
 11
3.151
 21
4.606
 31
0.0
  0
ARC
  5
318
330
18
100
AcDbEntity
  8
0
100
AcDbCircle
 10
3.293
 20
4.688
 30
0.0
 40
0.057
100
AcDbArc
 50
19.149
 51
95.04100000000001
  0
LINE
  5
319
330
18
100
AcDbEntity
  8
0
100
AcDbLine
 10
3.095
 20
4.646
 30
0.0
 11
3.288
 21
4.745
 31
0.0
  0
LINE
  5
31A
330
18
100
AcDbEntity
  8
0
100
AcDbLine
 10
3.048
 20
4.663
 30
0.0
 11
3.255
 21
4.766
 31
0.0
  0
ARC
  5
31B
330
18
100
AcDbEntity
  8
0
100
AcDbCircle
 10
3.028
 20
4.611000000000001
 30
0.0
 40
0.009
100
AcDbArc
 50
330.884
 51
0.0
  0
ARC
  5
31C
330
18
100
AcDbEntity
  8
0
100
AcDbCircle
 10
3.057
 20
4.646
 30
0.0
 40
0.019
100
AcDbArc
 50
116.565
 51
180.0
  0
LINE
  5
31D
330
18
100
AcDbEntity
  8
0
100
AcDbLine
 10
3.026
 20
4.641
 30
0.0
 11
2.977
 21
4.675
 31
0.0
  0
LINE
  5
31E
330
18
100
AcDbEntity
  8
0
100
AcDbLine
 10
3.038
 20
4.611000000000001
 30
0.0
 11
3.038
 21
4.646
 31
0.0
  0
ARC
  5
31F
330
18
100
AcDbEntity
  8
0
100
AcDbCircle
 10
3.107
 20
4.622
 30
0.0
 40
0.026
100
AcDbArc
 50
117.249
 51
180.0
  0
LINE
  5
320
330
18
100
AcDbEntity
  8
0
100
AcDbLine
 10
3.288
 20
4.745
 30
0.0
 11
3.255
 21
4.766
 31
0.0
  0
LWPOLYLINE
  5
321
330
18
100
AcDbEntity
  8
0
100
AcDbPolyline
 90
       16
 70
     1
 43
0.0
 10
3.093
 20
4.916
 42
0.159
 10
3.092
 20
4.919
 42
0.106
 10
3.089
 20
4.922
 42
0.071
 10
3.084
 20
4.924
 42
0.058
 10
3.079
 20
4.924
 42
0.058
 10
3.073
 20
4.924
 42
0.071
 10
3.069
 20
4.922
 42
0.106
 10
3.065
 20
4.919
 42
0.159
 10
3.064
 20
4.916
 42
0.159
 10
3.065
 20
4.913
 42
0.106
 10
3.069
 20
4.911000000000001
 42
0.071
 10
3.073
 20
4.909
 42
0.058
 10
3.079
 20
4.908
 42
0.058
 10
3.084
 20
4.909
 42
0.071
 10
3.089
 20
4.911000000000001
 42
0.106
 10
3.092
 20
4.913
 42
0.159
  0
LINE
  5
334
330
18
100
AcDbEntity
  8
0
100
AcDbLine
 10
2.978
 20
4.996
 30
0.0
 11
3.016
 21
4.97
 31
0.0
  0
LINE
  5
335
330
18
100
AcDbEntity
  8
0
100
AcDbLine
 10
3.025
 20
4.997
 30
0.0
 11
2.986
 21
5.024
 31
0.0
  0
ARC
  5
336
330
18
100
AcDbEntity
  8
0
100
AcDbCircle
 10
2.923
 20
4.978
 30
0.0
 40
0.058
100
AcDbArc
 50
18.081
 51
91.715
  0
LINE
  5
337
330
18
100
AcDbEntity
  8
0
100
AcDbLine
 10
2.96
 20
4.962
 30
0.0
 11
2.96
 21
4.942
 31
0.0
  0
LINE
  5
338
330
18
100
AcDbEntity
  8
0
100
AcDbLine
 10
3.025
 20
4.997
 30
0.0
 11
3.025
 21
4.974
 31
0.0
  0
LINE
  5
339
330
18
100
AcDbEntity
  8
0
100
AcDbLine
 10
3.372
 20
4.777
 30
0.0
 11
3.574
 21
4.877
 31
0.0
  0
LINE
  5
33A
330
18
100
AcDbEntity
  8
0
100
AcDbLine
 10
3.335
 20
4.801
 30
0.0
 11
3.533
 21
4.903000000000001
 31
0.0
  0
LINE
  5
33B
330
18
100
AcDbEntity
  8
0
100
AcDbLine
 10
3.432
 20
4.738
 30
0.0
 11
3.628
 21
4.842
 31
0.0
  0
LINE
  5
33C
330
18
100
AcDbEntity
  8
0
100
AcDbLine
 10
3.663
 20
4.819
 30
0.0
 11
3.628
 21
4.842
 31
0.0
  0
LINE
  5
33D
330
18
100
AcDbEntity
  8
0
100
AcDbLine
 10
3.432
 20
4.738
 30
0.0
 11
3.65
 21
4.596
 31
0.0
  0
ARC
  5
33E
330
18
100
AcDbEntity
  8
0
100
AcDbCircle
 10
3.366
 20
4.685
 30
0.0
 40
0.072
100
AcDbArc
 50
25.942
 51
86.96299999999999
  0
ARC
  5
33F
330
18
100
AcDbEntity
  8
0
100
AcDbCircle
 10
3.368
 20
4.706
 30
0.0
 40
0.072
100
AcDbArc
 50
26.867
 51
86.96299999999999
  0
LINE
  5
340
330
18
100
AcDbEntity
  8
0
100
AcDbLine
 10
3.37
 20
4.756
 30
0.0
 11
3.335
 21
4.779
 31
0.0
  0
LINE
  5
341
330
18
100
AcDbEntity
  8
0
100
AcDbLine
 10
3.335
 20
4.801
 30
0.0
 11
3.372
 21
4.777
 31
0.0
  0
LINE
  5
342
330
18
100
AcDbEntity
  8
0
100
AcDbLine
 10
3.335
 20
4.801
 30
0.0
 11
3.335
 21
4.779
 31
0.0
  0
LWPOLYLINE
  5
343
330
18
100
AcDbEntity
  8
0
100
AcDbPolyline
 90
       16
 70
     1
 43
0.0
 10
3.392
 20
4.629
 42
0.197
 10
3.39
 20
4.633
 42
0.099
 10
3.384
 20
4.638
 42
0.056
 10
3.375
 20
4.64
 42
0.043
 10
3.363
 20
4.641
 42
0.043
 10
3.351
 20
4.64
 42
0.056
 10
3.343
 20
4.638
 42
0.099
 10
3.336
 20
4.633
 42
0.197
 10
3.334
 20
4.629
 42
0.197
 10
3.336
 20
4.625
 42
0.099
 10
3.343
 20
4.62
 42
0.056
 10
3.351
 20
4.618
 42
0.043
 10
3.363
 20
4.617
 42
0.043
 10
3.375
 20
4.618
 42
0.056
 10
3.384
 20
4.62
 42
0.099
 10
3.39
 20
4.625
 42
0.197
  0
LWPOLYLINE
  5
356
330
18
100
AcDbEntity
  8
0
100
AcDbPolyline
 90
       16
 70
     1
 43
0.0
 10
3.566
 20
4.723
 42
0.197
 10
3.565
 20
4.727
 42
0.099
 10
3.558
 20
4.732
 42
0.056
 10
3.549
 20
4.734
 42
0.043
 10
3.537
 20
4.735
 42
0.043
 10
3.526
 20
4.734
 42
0.056
 10
3.517
 20
4.732
 42
0.099
 10
3.51
 20
4.727
 42
0.197
 10
3.508
 20
4.723
 42
0.197
 10
3.51
 20
4.718999999999999
 42
0.099
 10
3.517
 20
4.715
 42
0.056
 10
3.526
 20
4.712
 42
0.043
 10
3.537
 20
4.711
 42
0.043
 10
3.549
 20
4.712
 42
0.056
 10
3.558
 20
4.715
 42
0.099
 10
3.565
 20
4.718999999999999
 42
0.197
  0
LINE
  5
369
330
18
100
AcDbEntity
  8
0
100
AcDbLine
 10
3.598
 20
4.783
 30
0.0
 11
3.663
 21
4.819
 31
0.0
  0
ARC
  5
36A
330
18
100
AcDbEntity
  8
0
100
AcDbCircle
 10
3.641
 20
4.792
 30
0.0
 40
0.043
100
AcDbArc
 50
192.529
 51
282.529
  0
LWPOLYLINE
  5
36B
330
18
100
AcDbEntity
  8
0
100
AcDbPolyline
 90
       16
 70
     1
 43
0.0
 10
3.498
 20
4.976
 42
0.159
 10
3.497
 20
4.979
 42
0.106
 10
3.494
 20
4.982
 42
0.071
 10
3.489
 20
4.984
 42
0.058
 10
3.484
 20
4.984
 42
0.058
 10
3.478
 20
4.984
 42
0.071
 10
3.474
 20
4.982
 42
0.106
 10
3.47
 20
4.979
 42
0.159
 10
3.469
 20
4.976
 42
0.159
 10
3.47
 20
4.973
 42
0.106
 10
3.474
 20
4.971
 42
0.071
 10
3.478
 20
4.968999999999999
 42
0.058
 10
3.484
 20
4.968
 42
0.058
 10
3.489
 20
4.968999999999999
 42
0.071
 10
3.494
 20
4.971
 42
0.106
 10
3.497
 20
4.973
 42
0.159
  0
LINE
  5
37E
330
18
100
AcDbEntity
  8
0
100
AcDbLine
 10
3.574
 20
4.877
 30
0.0
 11
3.533
 21
4.903000000000001
 31
0.0
  0
ARC
  5
37F
330
18
100
AcDbEntity
  8
0
100
AcDbCircle
 10
3.578
 20
4.824
 30
0.0
 40
0.052
100
AcDbArc
 50
19.06
 51
94.58899999999998
  0
LINE
  5
380
330
18
100
AcDbEntity
  8
0
100
AcDbLine
 10
2.929
 20
5.064
 30
0.0
 11
2.712
 21
5.214
 31
0.0
  0
LINE
  5
381
330
18
100
AcDbEntity
  8
0
100
AcDbLine
 10
2.712
 20
5.214
 30
0.0
 11
2.916
 21
5.307
 31
0.0
  0
LINE
  5
382
330
18
100
AcDbEntity
  8
0
100
AcDbLine
 10
2.863
 20
5.233
 30
0.0
 11
2.96
 21
5.279
 31
0.0
  0
LINE
  5
383
330
18
100
AcDbEntity
  8
0
100
AcDbLine
 10
2.896
 20
5.204
 30
0.0
 11
2.998
 21
5.254
 31
0.0
  0
LWPOLYLINE
  5
384
330
18
100
AcDbEntity
  8
0
100
AcDbPolyline
 90
       16
 70
     1
 43
0.0
 10
2.93
 20
5.132000000000001
 42
0.197
 10
2.928
 20
5.136
 42
0.099
 10
2.922
 20
5.14
 42
0.056
 10
2.914
 20
5.142
 42
0.043
 10
2.903
 20
5.143
 42
0.043
 10
2.893
 20
5.142
 42
0.056
 10
2.885
 20
5.14
 42
0.099
 10
2.879
 20
5.136
 42
0.197
 10
2.877
 20
5.132000000000001
 42
0.197
 10
2.879
 20
5.127999999999999
 42
0.099
 10
2.885
 20
5.124
 42
0.056
 10
2.893
 20
5.122000000000001
 42
0.043
 10
2.903
 20
5.121
 42
0.043
 10
2.914
 20
5.122000000000001
 42
0.056
 10
2.922
 20
5.124
 42
0.099
 10
2.928
 20
5.127999999999999
 42
0.197
  0
LINE
  5
397
330
18
100
AcDbEntity
  8
0
100
AcDbLine
 10
2.9
 20
5.3
 30
0.0
 11
2.322
 21
5.678
 31
0.0
  0
LINE
  5
398
330
18
100
AcDbEntity
  8
0
100
AcDbLine
 10
2.397
 20
5.069
 30
0.0
 11
2.634
 21
5.178
 31
0.0
  0
LINE
  5
399
330
18
100
AcDbEntity
  8
0
100
AcDbLine
 10
2.548
 20
5.098
 30
0.0
 11
2.469
 21
5.063
 31
0.0
  0
LINE
  5
39A
330
18
100
AcDbEntity
  8
0
100
AcDbLine
 10
2.712
 20
5.214
 30
0.0
 11
2.712
 21
5.183
 31
0.0
  0
ARC
  5
39B
330
18
100
AcDbEntity
  8
0
100
AcDbCircle
 10
2.899
 20
5.24
 30
0.0
 40
0.036
100
AcDbArc
 50
191.3
 51
265.644
  0
LINE
  5
39C
330
18
100
AcDbEntity
  8
0
100
AcDbLine
 10
2.916
 20
5.307
 30
0.0
 11
3.139
 21
5.162999999999999
 31
0.0
  0
LINE
  5
39D
330
18
100
AcDbEntity
  8
0
100
AcDbLine
 10
2.929
 20
5.064
 30
0.0
 11
3.139
 21
5.162999999999999
 31
0.0
  0
LINE
  5
39E
330
18
100
AcDbEntity
  8
0
100
AcDbLine
 10
3.009
 20
5.158
 30
0.0
 11
3.083
 21
5.2
 31
0.0
  0
LINE
  5
39F
330
18
100
AcDbEntity
  8
0
100
AcDbLine
 10
2.973
 20
5.188
 30
0.0
 11
3.042
 21
5.226
 31
0.0
  0
ARC
  5
3A0
330
18
100
AcDbEntity
  8
0
100
AcDbCircle
 10
3.02
 20
5.209
 30
0.0
 40
0.051
100
AcDbArc
 50
204.109
 51
257.484
  0
ARC
  5
3A1
330
18
100
AcDbEntity
  8
0
100
AcDbCircle
 10
3.235
 20
5.062
 30
0.0
 40
0.037
100
AcDbArc
 50
44.228
 51
80.393
  0
LINE
  5
3A2
330
18
100
AcDbEntity
  8
0
100
AcDbLine
 10
3.197
 20
5.126
 30
0.0
 11
3.241
 21
5.098
 31
0.0
  0
ARC
  5
3A3
330
18
100
AcDbEntity
  8
0
100
AcDbCircle
 10
3.147
 20
5.111000000000001
 30
0.0
 40
0.053
100
AcDbArc
 50
16.388
 51
98.098
  0
LWPOLYLINE
  5
3A4
330
18
100
AcDbEntity
  8
0
100
AcDbPolyline
 90
       10
 70
     0
 43
0.0
 10
4.168
 20
3.889
 10
4.211
 20
3.652
 10
4.258
 20
3.346
 10
4.3
 20
3.082
 10
4.333
 20
2.856
 10
4.371
 20
2.705
 10
4.437
 20
2.512
 10
4.498
 20
2.343
 10
4.559
 20
2.098
 10
4.635
 20
1.909
  0
LWPOLYLINE
  5
3B1
330
18
100
AcDbEntity
  8
0
100
AcDbPolyline
 90
        6
 70
     0
 43
0.0
 10
4.15
 20
3.346
 10
4.234
 20
2.983
 10
4.352
 20
2.338
 10
4.503
 20
1.9
 10
4.564
 20
1.782
 10
4.629
 20
1.598
  0
LINE
  5
3BA
330
18
100
AcDbEntity
  8
0
100
AcDbLine
 10
4.15
 20
3.878
 30
0.0
 11
4.15
 21
1.24
 31
0.0
  0
LINE
  5
3BB
330
18
100
AcDbEntity
  8
0
100
AcDbLine
 10
4.635
 20
4.166
 30
0.0
 11
4.635
 21
1.603
 31
0.0
  0
LWPOLYLINE
  5
3BC
330
18
100
AcDbEntity
  8
0
100
AcDbPolyline
 90
       10
 70
     0
 43
0.0
 10
4.15
 20
2.832
 10
4.173
 20
2.686
 10
4.211
 20
2.559
 10
4.234
 20
2.408
 10
4.244
 20
2.272
 10
4.296
 20
2.131
 10
4.357
 20
1.961
 10
4.399
 20
1.843
 10
4.46
 20
1.683
 10
4.531000000000001
 20
1.526
  0
LWPOLYLINE
  5
3C9
330
18
100
AcDbEntity
  8
0
100
AcDbPolyline
 90
        5
 70
     0
 43
0.0
 10
4.15
 20
2.526
 10
4.159
 20
2.31
 10
4.216
 20
2.135
 10
4.376
 20
1.641
 10
4.442
 20
1.459
  0
LINE
  5
3D1
330
18
100
AcDbEntity
  8
0
100
AcDbLine
 10
4.635
 20
1.603
 30
0.0
 11
4.15
 21
1.24
 31
0.0
  0
LWPOLYLINE
  5
3D2
330
18
100
AcDbEntity
  8
0
100
AcDbPolyline
 90
        5
 70
     0
 43
0.0
 10
4.15
 20
1.692
 10
4.173
 20
1.556
 10
4.201000000000001
 20
1.438
 10
4.22
 20
1.363
 10
4.243
 20
1.31
  0
LWPOLYLINE
  5
3DA
330
18
100
AcDbEntity
  8
0
100
AcDbPolyline
 90
        6
 70
     0
 43
0.0
 10
4.15
 20
2.069
 10
4.164
 20
1.919
 10
4.192
 20
1.787
 10
4.225
 20
1.655
 10
4.3
 20
1.466
 10
4.343
 20
1.385
  0
LINE
  5
3E3
330
18
100
AcDbEntity
  8
0
100
AcDbLine
 10
4.635
 20
3.867
 30
0.0
 11
5.874
 21
4.601
 31
0.0
  0
LINE
  5
3E4
330
18
100
AcDbEntity
  8
0
100
AcDbLine
 10
5.874
 20
4.392
 30
0.0
 11
4.635
 21
3.641
 31
0.0
  0
LINE
  5
3E5
330
18
100
AcDbEntity
  8
0
100
AcDbLine
 10
4.635
 20
3.977
 30
0.0
 11
5.794
 21
4.649
 31
0.0
  0
LINE
  5
3E6
330
18
100
AcDbEntity
  8
0
100
AcDbLine
 10
4.635
 20
4.166
 30
0.0
 11
4.15
 21
3.878
 31
0.0
  0
LWPOLYLINE
  5
3E7
330
18
100
AcDbEntity
  8
0
100
AcDbPolyline
 90
        3
 70
     0
 43
0.0
 10
4.579
 20
4.133
 10
4.597
 20
3.972
 10
4.635
 20
3.812
  0
LWPOLYLINE
  5
3ED
330
18
100
AcDbEntity
  8
0
100
AcDbPolyline
 90
        5
 70
     0
 43
0.0
 10
4.433
 20
4.046
 10
4.479
 20
3.69
 10
4.559
 20
3.365
 10
4.592
 20
3.256
 10
4.635
 20
3.054
  0
LWPOLYLINE
  5
3F5
330
18
100
AcDbEntity
  8
0
100
AcDbPolyline
 90
        6
 70
     0
 43
0.0
 10
4.34
 20
3.991
 10
4.395
 20
3.751
 10
4.475
 20
3.214
 10
4.526
 20
2.993
 10
4.559
 20
2.851
 10
4.635
 20
2.682
  0
LWPOLYLINE
  5
3FE
330
18
100
AcDbEntity
  8
0
100
AcDbPolyline
 90
        6
 70
     0
 43
0.0
 10
4.253
 20
3.939
 10
4.357
 20
3.327
 10
4.423
 20
2.964
 10
4.503
 20
2.734
 10
4.597
 20
2.456
 10
4.635
 20
2.361
  0
LWPOLYLINE
  5
407
330
18
100
AcDbEntity
  8
0
100
AcDbPolyline
 90
        3
 70
     0
 43
0.0
 10
4.513999999999999
 20
4.093999999999999
 10
4.559
 20
3.765
 10
4.635
 20
3.384
  0
LINE
  5
40D
330
18
100
AcDbEntity
  8
0
100
AcDbLine
 10
3.785
 20
4.755
 30
0.0
 11
5.874
 21
5.836
 31
0.0
  0
LWPOLYLINE
  5
40E
330
18
100
AcDbEntity
  8
0
100
AcDbPolyline
 90
       23
 70
     0
 43
0.0
 10
4.385
 20
5.066
 10
4.705
 20
5.098
 10
5.03
 20
5.117
 10
5.257000000000001
 20
5.112
 10
5.346
 20
5.112
 10
5.417000000000001
 20
5.093999999999999
 10
5.445
 20
5.084
 10
5.502000000000001
 20
5.079
 10
5.563
 20
5.061
 10
5.577000000000001
 20
4.995
 10
5.563
 20
4.957
 10
5.544
 20
4.933
 10
5.544
 20
4.91
 10
5.539
 20
4.877
 10
5.525
 20
4.825
 10
5.497000000000001
 20
4.773
 10
5.445
 20
4.698
 10
5.379
 20
4.622
 10
5.303999999999999
 20
4.519
 10
5.218999999999999
 20
4.42
 10
5.111000000000001
 20
4.297
 10
5.03
 20
4.231
 10
4.896
 20
4.128
  0
LWPOLYLINE
  5
428
330
18
100
AcDbEntity
  8
0
100
AcDbPolyline
 90
       12
 70
     0
 43
0.0
 10
4.884
 20
5.324
 10
5.073
 20
5.343
 10
5.294
 20
5.353
 10
5.393
 20
5.348
 10
5.431
 20
5.343
 10
5.464
 20
5.324
 10
5.525
 20
5.32
 10
5.596
 20
5.31
 10
5.662000000000001
 20
5.305
 10
5.718
 20
5.305
 10
5.765
 20
5.301
 10
5.794
 20
5.287000000000001
  0
LWPOLYLINE
  5
437
330
18
100
AcDbEntity
  8
0
100
AcDbPolyline
 90
        8
 70
     0
 43
0.0
 10
5.223
 20
5.87
 42
0.094
 10
5.212999999999999
 20
5.879
 42
0.074
 10
5.199
 20
5.885
 42
0.061
 10
5.18
 20
5.887000000000001
 42
0.061
 10
5.161000000000001
 20
5.885
 42
0.074
 10
5.147
 20
5.879
 42
0.107
 10
5.136
 20
5.869
 42
0.073
 10
5.134
 20
5.864
 42
0.152
  0
LWPOLYLINE
  5
442
330
18
100
AcDbEntity
  8
0
100
AcDbPolyline
 90
       16
 70
     1
 43
0.0
 10
5.224
 20
5.875
 42
0.152
 10
5.221
 20
5.885
 42
0.107
 10
5.21
 20
5.895
 42
0.074
 10
5.195
 20
5.901
 42
0.061
 10
5.177000000000001
 20
5.904
 42
0.061
 10
5.158
 20
5.901
 42
0.074
 10
5.143
 20
5.895
 42
0.107
 10
5.132999999999999
 20
5.885
 42
0.152
 10
5.129
 20
5.875
 42
0.152
 10
5.132999999999999
 20
5.866000000000001
 42
0.107
 10
5.143
 20
5.855
 42
0.074
 10
5.158
 20
5.85
 42
0.061
 10
5.177000000000001
 20
5.847
 42
0.061
 10
5.195
 20
5.85
 42
0.074
 10
5.21
 20
5.855
 42
0.107
 10
5.221
 20
5.866000000000001
 42
0.152
  0
LINE
  5
455
330
18
100
AcDbEntity
  8
0
100
AcDbLine
 10
4.635
 20
4.166
 30
0.0
 11
3.865
 21
4.669
 31
0.0
  0
LWPOLYLINE
  5
456
330
18
100
AcDbEntity
  8
0
100
AcDbPolyline
 90
       24
 70
     0
 43
0.0
 10
4.216
 20
4.797
 10
4.428
 20
4.797
 10
4.602
 20
4.783
 10
4.71
 20
4.778000000000001
 10
4.847
 20
4.773
 10
4.946000000000001
 20
4.773
 10
5.016
 20
4.768
 10
5.04
 20
4.773
 10
5.059
 20
4.754
 10
5.059
 20
4.745
 10
5.049
 20
4.721
 10
5.04
 20
4.707
 10
5.026
 20
4.693000000000001
 10
5.016
 20
4.678999999999999
 10
5.012
 20
4.665
 10
5.012
 20
4.637
 10
5.007
 20
4.608000000000001
 10
4.993
 20
4.571000000000001
 10
4.941
 20
4.495
 10
4.884
 20
4.428999999999999
 10
4.823
 20
4.359
 10
4.734
 20
4.279
 10
4.672
 20
4.231
 10
4.607
 20
4.183
  0
LWPOLYLINE
  5
471
330
18
100
AcDbEntity
  8
0
100
AcDbPolyline
 90
       13
 70
     0
 43
0.0
 10
4.216
 20
4.593999999999999
 10
4.3
 20
4.575
 10
4.39
 20
4.575
 10
4.432
 20
4.561
 10
4.456
 20
4.538
 10
4.475
 20
4.505
 10
4.503
 20
4.486000000000001
 10
4.522
 20
4.481
 10
4.531000000000001
 20
4.434
 10
4.531000000000001
 20
4.392
 10
4.512
 20
4.335
 10
4.484
 20
4.288
 10
4.462
 20
4.278000000000001
  0
LINE
  5
481
330
18
100
AcDbEntity
  8
0
100
AcDbLine
 10
4.216
 20
4.979
 30
0.0
 11
4.216
 21
4.439
 31
0.0
  0
LWPOLYLINE
  5
482
330
18
100
AcDbEntity
  8
0
100
AcDbPolyline
 90
        3
 70
     0
 43
0.0
 10
4.144
 20
4.486000000000001
 10
4.178
 20
4.528000000000001
 10
4.216
 20
4.557
  0
LWPOLYLINE
  5
488
330
18
100
AcDbEntity
  8
0
100
AcDbPolyline
 90
        4
 70
     0
 43
0.0
 10
3.903
 20
4.644
 10
4.022
 20
4.763999999999999
 10
4.135
 20
4.839
 10
4.216
 20
4.891
  0
ARC
  5
48F
330
18
100
AcDbEntity
  8
0
100
AcDbCircle
 10
3.848
 20
4.663
 30
0.0
 40
0.029
100
AcDbArc
 50
355.6230000000001
 51
119.272
  0
ARC
  5
490
330
18
100
AcDbEntity
  8
0
100
AcDbCircle
 10
3.73
 20
4.727
 30
0.0
 40
0.037
100
AcDbArc
 50
181.859
 51
293.199
  0
LINE
  5
491
330
18
100
AcDbEntity
  8
0
100
AcDbLine
 10
3.86
 20
4.69
 30
0.0
 11
3.804
 21
4.726
 31
0.0
  0
LINE
  5
492
330
18
100
AcDbEntity
  8
0
100
AcDbLine
 10
3.744
 20
4.693000000000001
 30
0.0
 11
3.804
 21
4.726
 31
0.0
  0
ARC
  5
493
330
18
100
AcDbEntity
  8
0
100
AcDbCircle
 10
3.759
 20
4.718
 30
0.0
 40
0.046
100
AcDbArc
 50
10.033
 51
103.616
  0
LINE
  5
494
330
18
100
AcDbEntity
  8
0
100
AcDbLine
 10
3.748
 20
4.763
 30
0.0
 11
3.71
 21
4.788
 31
0.0
  0
LINE
  5
495
330
18
100
AcDbEntity
  8
0
100
AcDbLine
 10
3.693
 20
4.726
 30
0.0
 11
3.748
 21
4.763
 31
0.0
  0
ARC
  5
496
330
18
100
AcDbEntity
  8
0
100
AcDbCircle
 10
3.853
 20
4.645
 30
0.0
 40
0.026
100
AcDbArc
 50
62.522
 51
107.596
  0
LWPOLYLINE
  5
497
330
18
100
AcDbEntity
  8
0
100
AcDbPolyline
 90
       16
 70
     1
 43
0.0
 10
4.087
 20
5.277
 42
0.159
 10
4.086
 20
5.283
 42
0.106
 10
4.079
 20
5.289
 42
0.071
 10
4.071000000000001
 20
5.292000000000001
 42
0.058
 10
4.059
 20
5.292999999999999
 42
0.058
 10
4.048
 20
5.292000000000001
 42
0.071
 10
4.039
 20
5.289
 42
0.106
 10
4.033
 20
5.283
 42
0.159
 10
4.031000000000001
 20
5.277
 42
0.159
 10
4.033
 20
5.272
 42
0.106
 10
4.039
 20
5.266
 42
0.071
 10
4.048
 20
5.263
 42
0.058
 10
4.059
 20
5.261
 42
0.058
 10
4.071000000000001
 20
5.263
 42
0.071
 10
4.079
 20
5.266
 42
0.106
 10
4.086
 20
5.272
 42
0.159
  0
LWPOLYLINE
  5
4AA
330
18
100
AcDbEntity
  8
0
100
AcDbPolyline
 90
       16
 70
     1
 43
0.0
 10
4.252
 20
5.456
 42
0.159
 10
4.25
 20
5.462000000000001
 42
0.106
 10
4.244
 20
5.468
 42
0.071
 10
4.235
 20
5.471
 42
0.058
 10
4.224
 20
5.472
 42
0.058
 10
4.213
 20
5.471
 42
0.071
 10
4.204
 20
5.468
 42
0.106
 10
4.198
 20
5.462000000000001
 42
0.159
 10
4.196000000000001
 20
5.456
 42
0.159
 10
4.198
 20
5.451000000000001
 42
0.106
 10
4.204
 20
5.445
 42
0.071
 10
4.213
 20
5.442
 42
0.058
 10
4.224
 20
5.44
 42
0.058
 10
4.235
 20
5.442
 42
0.071
 10
4.244
 20
5.445
 42
0.106
 10
4.25
 20
5.451000000000001
 42
0.159
  0
LWPOLYLINE
  5
4BD
330
18
100
AcDbEntity
  8
0
100
AcDbPolyline
 90
       16
 70
     1
 43
0.0
 10
4.63
 20
5.552000000000001
 42
0.169
 10
4.628
 20
5.557
 42
0.105
 10
4.622
 20
5.562
 42
0.067
 10
4.614
 20
5.565
 42
0.053
 10
4.604
 20
5.566
 42
0.053
 10
4.593999999999999
 20
5.565
 42
0.067
 10
4.586
 20
5.562
 42
0.105
 10
4.58
 20
5.557
 42
0.169
 10
4.579
 20
5.552000000000001
 42
0.169
 10
4.58
 20
5.547999999999999
 42
0.105
 10
4.586
 20
5.542999999999999
 42
0.067
 10
4.593999999999999
 20
5.54
 42
0.053
 10
4.604
 20
5.539
 42
0.053
 10
4.614
 20
5.54
 42
0.067
 10
4.622
 20
5.542999999999999
 42
0.105
 10
4.628
 20
5.547999999999999
 42
0.169
  0
LWPOLYLINE
  5
4D0
330
18
100
AcDbEntity
  8
0
100
AcDbPolyline
 90
       16
 70
     1
 43
0.0
 10
4.777
 20
5.712000000000001
 42
0.169
 10
4.775
 20
5.717000000000001
 42
0.105
 10
4.77
 20
5.722
 42
0.067
 10
4.762
 20
5.725
 42
0.053
 10
4.752
 20
5.726
 42
0.053
 10
4.741000000000001
 20
5.725
 42
0.067
 10
4.734
 20
5.722
 42
0.105
 10
4.728
 20
5.717000000000001
 42
0.169
 10
4.726
 20
5.712000000000001
 42
0.169
 10
4.728
 20
5.707999999999999
 42
0.105
 10
4.734
 20
5.702999999999999
 42
0.067
 10
4.741000000000001
 20
5.7
 42
0.053
 10
4.752
 20
5.699
 42
0.053
 10
4.762
 20
5.7
 42
0.067
 10
4.77
 20
5.702999999999999
 42
0.105
 10
4.775
 20
5.707999999999999
 42
0.169
  0
LWPOLYLINE
  5
4E3
330
18
100
AcDbEntity
  8
0
100
AcDbPolyline
 90
       16
 70
     1
 43
0.0
 10
5.144
 20
5.802000000000001
 42
0.169
 10
5.143
 20
5.807
 42
0.105
 10
5.137000000000001
 20
5.811
 42
0.067
 10
5.129
 20
5.814
 42
0.053
 10
5.119
 20
5.815
 42
0.053
 10
5.109
 20
5.814
 42
0.067
 10
5.101
 20
5.811
 42
0.105
 10
5.095
 20
5.807
 42
0.169
 10
5.093999999999999
 20
5.802000000000001
 42
0.169
 10
5.095
 20
5.797000000000001
 42
0.105
 10
5.101
 20
5.792999999999999
 42
0.067
 10
5.109
 20
5.79
 42
0.053
 10
5.119
 20
5.789
 42
0.053
 10
5.129
 20
5.79
 42
0.067
 10
5.137000000000001
 20
5.792999999999999
 42
0.105
 10
5.143
 20
5.797000000000001
 42
0.169
  0
LINE
  5
4F6
330
18
100
AcDbEntity
  8
0
100
AcDbLine
 10
5.794
 20
5.795
 30
0.0
 11
5.794
 21
4.649
 31
0.0
  0
LWPOLYLINE
  5
4F7
330
18
100
AcDbEntity
  8
0
100
AcDbPolyline
 90
        7
 70
     0
 43
0.0
 10
5.394
 20
4.417
 10
5.544
 20
4.552
 10
5.605
 20
4.608000000000001
 10
5.657
 20
4.67
 10
5.718
 20
4.736000000000001
 10
5.756
 20
4.792
 10
5.794
 20
4.858000000000001
  0
LINE
  5
501
330
18
100
AcDbEntity
  8
0
100
AcDbLine
 10
5.874
 20
4.601
 30
0.0
 11
5.874
 21
4.392
 31
0.0
  0
LINE
  5
502
330
18
100
AcDbEntity
  8
0
100
AcDbLine
 10
5.874
 20
4.601
 30
0.0
 11
5.794
 21
4.649
 31
0.0
  0
LWPOLYLINE
  5
503
330
18
100
AcDbEntity
  8
0
100
AcDbPolyline
 90
        4
 70
     0
 43
0.0
 10
5.33
 20
5.555
 10
5.539
 20
5.582999999999999
 10
5.695
 20
5.587999999999999
 10
5.794
 20
5.569
  0
LINE
  5
50A
330
18
100
AcDbEntity
  8
0
100
AcDbLine
 10
5.29
 20
5.992999999999999
 30
0.0
 11
5.384
 21
5.937
 31
0.0
  0
LWPOLYLINE
  5
50B
330
18
100
AcDbEntity
  8
0
100
AcDbPolyline
 90
       16
 70
     1
 43
0.0
 10
5.267
 20
5.952999999999999
 42
0.169
 10
5.265
 20
5.957000000000001
 42
0.105
 10
5.26
 20
5.962000000000001
 42
0.067
 10
5.252000000000001
 20
5.965
 42
0.053
 10
5.242000000000001
 20
5.966
 42
0.053
 10
5.231
 20
5.965
 42
0.067
 10
5.224
 20
5.962000000000001
 42
0.105
 10
5.218
 20
5.957000000000001
 42
0.169
 10
5.216
 20
5.952999999999999
 42
0.169
 10
5.218
 20
5.948
 42
0.105
 10
5.224
 20
5.943
 42
0.067
 10
5.231
 20
5.941
 42
0.053
 10
5.242000000000001
 20
5.939
 42
0.053
 10
5.252000000000001
 20
5.941
 42
0.067
 10
5.26
 20
5.943
 42
0.105
 10
5.265
 20
5.948
 42
0.169
  0
LINE
  5
51E
330
18
100
AcDbEntity
  8
0
100
AcDbLine
 10
5.228
 20
5.992999999999999
 30
0.0
 11
5.29
 21
5.992999999999999
 31
0.0
  0
LINE
  5
51F
330
18
100
AcDbEntity
  8
0
100
AcDbLine
 10
5.36
 20
5.857
 30
0.0
 11
5.384
 21
5.912000000000001
 31
0.0
  0
LINE
  5
520
330
18
100
AcDbEntity
  8
0
100
AcDbLine
 10
5.384
 20
5.937
 30
0.0
 11
5.36
 21
5.88
 31
0.0
  0
LINE
  5
521
330
18
100
AcDbEntity
  8
0
100
AcDbLine
 10
5.384
 20
5.937
 30
0.0
 11
5.384
 21
5.912000000000001
 31
0.0
  0
LINE
  5
522
330
18
100
AcDbEntity
  8
0
100
AcDbLine
 10
5.6
 20
6.215
 30
0.0
 11
5.874
 21
6.064
 31
0.0
  0
TEXT
  5
523
330
18
100
AcDbEntity
  8
0
100
AcDbText
 10
1.132723
 20
0.953523
 30
0.0
 40
0.15
  1
Simpson Strong-Tie
100
AcDbText
  0
TEXT
  5
524
330
18
100
AcDbEntity
  8
0
100
AcDbText
 10
1.132723
 20
0.710666
 30
0.0
 40
0.15
  1
MSTI
100
AcDbText
  0
ENDSEC
  0
SECTION
  2
OBJECTS
  0
DICTIONARY
  5
C
330
0
100
AcDbDictionary
281
     1
  3
ACAD_COLOR
350
52A
  3
ACAD_GROUP
350
D
  3
ACAD_LAYOUT
350
15
  3
ACAD_MATERIAL
350
52C
  3
ACAD_MLINESTYLE
350
12
  3
ACAD_PLOTSETTINGS
350
14
  3
ACAD_PLOTSTYLENAME
350
E
  3
ACDBHEADERROUNDTRIPXREC
350
529
  0
DICTIONARY
  5
52A
102
{ACAD_REACTORS
330
C
102
}
330
C
100
AcDbDictionary
281
     1
  0
DICTIONARY
  5
D
102
{ACAD_REACTORS
330
C
102
}
330
C
100
AcDbDictionary
281
     1
  0
DICTIONARY
  5
15
102
{ACAD_REACTORS
330
C
102
}
330
C
100
AcDbDictionary
281
     1
  3
Layout1
350
17
  3
Model
350
19
  0
DICTIONARY
  5
52C
102
{ACAD_REACTORS
330
C
102
}
330
C
100
AcDbDictionary
281
     1
  0
DICTIONARY
  5
12
102
{ACAD_REACTORS
330
C
102
}
330
C
100
AcDbDictionary
281
     1
  3
Standard
350
13
  0
DICTIONARY
  5
14
102
{ACAD_REACTORS
330
C
102
}
330
C
100
AcDbDictionary
281
     1
  0
ACDBDICTIONARYWDFLT
  5
E
102
{ACAD_REACTORS
330
C
102
}
330
C
100
AcDbDictionary
281
     1
  3
Normal
350
F
100
AcDbDictionaryWithDefault
340
F
  0
DICTIONARY
  5
529
102
{ACAD_REACTORS
330
C
102
}
330
C
100
AcDbDictionary
281
     1
  3
COLORDICT
350
52B
  3
MATERIALDICT
350
52D
  0
LAYOUT
  5
17
102
{ACAD_REACTORS
330
15
102
}
102
{ACAD_XDICTIONARY
360
52E
102
}
330
15
100
AcDbPlotSettings
  1

  2

  4

  6

 40
0.0
 41
0.0
 42
0.0
 43
0.0
 44
0.0
 45
0.0
 46
0.0
 47
0.0
 48
0.0
 49
0.0
140
0.0
141
0.0
142
1.0
143
1.0
 70
   688
 72
     0
 73
     0
 74
     5
  7

 75
    16
147
1.0
148
0.0
149
0.0
100
AcDbLayout
  1
Layout1
 70
     1
 71
     1
 10
0.0
 20
0.0
 11
12.0
 21
9.0
 12
0.0
 22
0.0
 32
0.0
 14
1.000000000000000E+20
 24
1.000000000000000E+20
 34
1.000000000000000E+20
 15
-1.000000000000000E+20
 25
-1.000000000000000E+20
 35
-1.000000000000000E+20
146
0.0
 13
0.0
 23
0.0
 33
0.0
 16
1.0
 26
0.0
 36
0.0
 17
0.0
 27
1.0
 37
0.0
 76
     0
330
16
  0
LAYOUT
  5
19
102
{ACAD_REACTORS
330
15
102
}
102
{ACAD_XDICTIONARY
360
530
102
}
330
15
100
AcDbPlotSettings
  1

  2

  4

  6

 40
0.0
 41
0.0
 42
0.0
 43
0.0
 44
0.0
 45
0.0
 46
0.0
 47
0.0
 48
0.0
 49
0.0
140
0.0
141
0.0
142
1.0
143
1.0
 70
  1712
 72
     0
 73
     0
 74
     0
  7

 75
     0
147
1.0
148
0.0
149
0.0
100
AcDbLayout
  1
Model
 70
     1
 71
     0
 10
0.0
 20
0.0
 11
0.0
 21
0.0
 12
0.0
 22
0.0
 32
0.0
 14
0.0
 24
0.0
 34
0.0
 15
0.0
 25
0.0
 35
0.0
146
0.0
 13
0.0
 23
0.0
 33
0.0
 16
1.0
 26
0.0
 36
0.0
 17
0.0
 27
1.0
 37
0.0
 76
     0
330
18
  0
MLINESTYLE
  5
13
102
{ACAD_REACTORS
330
12
102
}
330
12
100
AcDbMlineStyle
  2
Standard
 70
     0
  3

 62
   256
 51
90.0
 52
90.0
 71
     2
 49
0.5
 62
   256
  6
BYLAYER
 49
-0.5
 62
   256
  6
BYLAYER
  0
ACDBPLACEHOLDER
  5
F
102
{ACAD_REACTORS
330
E
102
}
330
E
  0
XRECORD
  5
52B
102
{ACAD_REACTORS
330
529
102
}
330
529
100
AcDbXrecord
340
52A
  0
XRECORD
  5
52D
102
{ACAD_REACTORS
330
529
102
}
330
529
100
AcDbXrecord
340
52C
  0
DICTIONARY
  5
52E
330
17
100
AcDbDictionary
280
     1
281
     1
  3
ACAD_XREC_ROUNDTRIP
360
52F
  0
DICTIONARY
  5
530
330
19
100
AcDbDictionary
280
     1
281
     1
  3
ACAD_XREC_ROUNDTRIP
360
531
  0
XRECORD
  5
52F
102
{ACAD_REACTORS
330
52E
102
}
330
52E
100
AcDbXrecord
102
SHADEPLOT
 70
 -8048
102
SHADEPLOTRESLEVEL
 70
  6792
102
SHADEPLOTCUSTOMDPI
 70
  9040
  0
XRECORD
  5
531
102
{ACAD_REACTORS
330
530
102
}
330
530
100
AcDbXrecord
102
SHADEPLOT
 70
 23504
102
SHADEPLOTRESLEVEL
 70
 23544
102
SHADEPLOTCUSTOMDPI
 70
 27632
  0
ENDSEC
  0
EOF
