  0
SECTION
  2
HEADER
  9
$ACADVER
  1
AC1015
  9
$ACADMAINTVER
 70
     6
  9
$DWGCODEPAGE
  3
ASCII
  9
$INSBASE
 10
0.0
 20
0.0
 30
0.0
  9
$EXTMIN
 10
1.089575
 20
0.5069629999999998
 30
0.0
  9
$EXTMAX
 10
7.321867
 20
8.596391000000001
 30
0.0
  9
$LIMMIN
 10
0.0
 20
0.0
  9
$LIMMAX
 10
8.5
 20
11.0
  9
$ORTHOMODE
 70
     0
  9
$REGENMODE
 70
     0
  9
$FILLMODE
 70
     1
  9
$QTEXTMODE
 70
     0
  9
$MIRRTEXT
 70
     1
  9
$LTSCALE
 40
0.2
  9
$ATTMODE
 70
     1
  9
$TEXTSIZE
 40
0.22
  9
$TRACEWID
 40
0.05
  9
$TEXTSTYLE
  7
STANDARD
  9
$CLAYER
  8
0
  9
$CELTYPE
  6
ByLayer
  9
$CECOLOR
 62
   256
  9
$CELTSCALE
 40
1.0
  9
$DISPSILH
 70
     0
  9
$DIMSCALE
 40
1.0
  9
$DIMASZ
 40
0.2
  9
$DIMEXO
 40
0.0625
  9
$DIMDLI
 40
0.38
  9
$DIMRND
 40
0.0
  9
$DIMDLE
 40
0.0
  9
$DIMEXE
 40
0.075
  9
$DIMTP
 40
0.0
  9
$DIMTM
 40
0.0
  9
$DIMTXT
 40
0.1
  9
$DIMCEN
 40
0.09
  9
$DIMTSZ
 40
0.0
  9
$DIMTOL
 70
     0
  9
$DIMLIM
 70
     0
  9
$DIMTIH
 70
     0
  9
$DIMTOH
 70
     0
  9
$DIMSE1
 70
     0
  9
$DIMSE2
 70
     0
  9
$DIMTAD
 70
     1
  9
$DIMZIN
 70
     0
  9
$DIMBLK
  1

  9
$DIMASO
 70
     0
  9
$DIMSHO
 70
     1
  9
$DIMPOST
  1

  9
$DIMAPOST
  1

  9
$DIMALT
 70
     0
  9
$DIMALTD
 70
     2
  9
$DIMALTF
 40
25.4
  9
$DIMLFAC
 40
1.0
  9
$DIMTOFL
 70
     0
  9
$DIMTVP
 40
0.0
  9
$DIMTIX
 70
     0
  9
$DIMSOXD
 70
     0
  9
$DIMSAH
 70
     0
  9
$DIMBLK1
  1

  9
$DIMBLK2
  1

  9
$DIMSTYLE
  2
Standard
  9
$DIMCLRD
 70
     0
  9
$DIMCLRE
 70
     0
  9
$DIMCLRT
 70
     0
  9
$DIMTFAC
 40
1.0
  9
$DIMGAP
 40
0.09
  9
$DIMJUST
 70
     0
  9
$DIMSD1
 70
     0
  9
$DIMSD2
 70
     0
  9
$DIMTOLJ
 70
     1
  9
$DIMTZIN
 70
     0
  9
$DIMALTZ
 70
     0
  9
$DIMALTTZ
 70
     0
  9
$DIMUPT
 70
     0
  9
$DIMDEC
 70
     4
  9
$DIMTDEC
 70
     4
  9
$DIMALTU
 70
     2
  9
$DIMALTTD
 70
     2
  9
$DIMTXSTY
  7
STANDARD
  9
$DIMAUNIT
 70
     0
  9
$DIMADEC
 70
     0
  9
$DIMALTRND
 40
0.0
  9
$DIMAZIN
 70
     0
  9
$DIMDSEP
 70
    46
  9
$DIMATFIT
 70
     3
  9
$DIMFRAC
 70
     0
  9
$DIMLDRBLK
  1

  9
$DIMLUNIT
 70
     2
  9
$DIMLWD
 70
    -2
  9
$DIMLWE
 70
    -2
  9
$DIMTMOVE
 70
     0
  9
$LUNITS
 70
     2
  9
$LUPREC
 70
     4
  9
$SKETCHINC
 40
0.1
  9
$FILLETRAD
 40
0.0
  9
$AUNITS
 70
     0
  9
$AUPREC
 70
     0
  9
$MENU
  1
acad
  9
$ELEVATION
 40
0.0
  9
$PELEVATION
 40
0.0
  9
$THICKNESS
 40
0.0
  9
$LIMCHECK
 70
     0
  9
$CHAMFERA
 40
0.0
  9
$CHAMFERB
 40
0.0
  9
$CHAMFERC
 40
1.0
  9
$CHAMFERD
 40
0.0
  9
$SKPOLY
 70
     0
  9
$TDCREATE
 40
2453955.561257014
  9
$TDUCREATE
 40
2453955.894590347
  9
$TDUPDATE
 40
2453955.602923692
  9
$TDUUPDATE
 40
2453955.894590359
  9
$TDINDWG
 40
0.0000000116
  9
$TDUSRTIMER
 40
0.0000000116
  9
$USRTIMER
 70
     1
  9
$ANGBASE
 50
0.0
  9
$ANGDIR
 70
     0
  9
$PDMODE
 70
     0
  9
$PDSIZE
 40
0.0
  9
$PLINEWID
 40
0.0
  9
$SPLFRAME
 70
     0
  9
$SPLINETYPE
 70
     6
  9
$SPLINESEGS
 70
     8
  9
$HANDSEED
  5
48F
  9
$SURFTAB1
 70
     6
  9
$SURFTAB2
 70
     6
  9
$SURFTYPE
 70
     6
  9
$SURFU
 70
     6
  9
$SURFV
 70
     6
  9
$UCSBASE
  2

  9
$UCSNAME
  2

  9
$UCSORG
 10
0.0
 20
0.0
 30
0.0
  9
$UCSXDIR
 10
1.0
 20
0.0
 30
0.0
  9
$UCSYDIR
 10
0.0
 20
1.0
 30
0.0
  9
$UCSORTHOREF
  2

  9
$UCSORTHOVIEW
 70
     0
  9
$UCSORGTOP
 10
0.0
 20
0.0
 30
0.0
  9
$UCSORGBOTTOM
 10
0.0
 20
0.0
 30
0.0
  9
$UCSORGLEFT
 10
0.0
 20
0.0
 30
0.0
  9
$UCSORGRIGHT
 10
0.0
 20
0.0
 30
0.0
  9
$UCSORGFRONT
 10
0.0
 20
0.0
 30
0.0
  9
$UCSORGBACK
 10
0.0
 20
0.0
 30
0.0
  9
$PUCSBASE
  2

  9
$PUCSNAME
  2

  9
$PUCSORG
 10
0.0
 20
0.0
 30
0.0
  9
$PUCSXDIR
 10
1.0
 20
0.0
 30
0.0
  9
$PUCSYDIR
 10
0.0
 20
1.0
 30
0.0
  9
$PUCSORTHOREF
  2

  9
$PUCSORTHOVIEW
 70
     0
  9
$PUCSORGTOP
 10
0.0
 20
0.0
 30
0.0
  9
$PUCSORGBOTTOM
 10
0.0
 20
0.0
 30
0.0
  9
$PUCSORGLEFT
 10
0.0
 20
0.0
 30
0.0
  9
$PUCSORGRIGHT
 10
0.0
 20
0.0
 30
0.0
  9
$PUCSORGFRONT
 10
0.0
 20
0.0
 30
0.0
  9
$PUCSORGBACK
 10
0.0
 20
0.0
 30
0.0
  9
$USERI1
 70
     0
  9
$USERI2
 70
     0
  9
$USERI3
 70
     0
  9
$USERI4
 70
     0
  9
$USERI5
 70
     0
  9
$USERR1
 40
0.0
  9
$USERR2
 40
0.0
  9
$USERR3
 40
0.0
  9
$USERR4
 40
0.0
  9
$USERR5
 40
0.0
  9
$WORLDVIEW
 70
     1
  9
$SHADEDGE
 70
     3
  9
$SHADEDIF
 70
    70
  9
$TILEMODE
 70
     1
  9
$MAXACTVP
 70
    16
  9
$PINSBASE
 10
0.0
 20
0.0
 30
0.0
  9
$PLIMCHECK
 70
     0
  9
$PEXTMIN
 10
1.000000000000000E+20
 20
1.000000000000000E+20
 30
1.000000000000000E+20
  9
$PEXTMAX
 10
-1.000000000000000E+20
 20
-1.000000000000000E+20
 30
-1.000000000000000E+20
  9
$PLIMMIN
 10
0.0
 20
0.0
  9
$PLIMMAX
 10
12.0
 20
9.0
  9
$UNITMODE
 70
     0
  9
$VISRETAIN
 70
     0
  9
$PLINEGEN
 70
     0
  9
$PSLTSCALE
 70
     1
  9
$TREEDEPTH
 70
  3020
  9
$CMLSTYLE
  2
Standard
  9
$CMLJUST
 70
     0
  9
$CMLSCALE
 40
1.0
  9
$PROXYGRAPHICS
 70
     1
  9
$MEASUREMENT
 70
     0
  9
$CELWEIGHT
370
    -1
  9
$ENDCAPS
280
     0
  9
$JOINSTYLE
280
     0
  9
$LWDISPLAY
290
     0
  9
$INSUNITS
 70
     1
  9
$HYPERLINKBASE
  1

  9
$STYLESHEET
  1

  9
$XEDIT
290
     1
  9
$CEPSNTYPE
380
     0
  9
$PSTYLEMODE
290
     0
  9
$FINGERPRINTGUID
  2
{FAEB1C30-E019-11D5-929B-00C0DF256EC4}
  9
$VERSIONGUID
  2
{FAEB1C32-E019-11D5-929B-00C0DF256EC4}
  9
$EXTNAMES
290
     1
  9
$PSVPSCALE
 40
0.0
  9
$OLESTARTUP
290
     0
  0
ENDSEC
  0
SECTION
  2
CLASSES
  0
CLASS
  1
ACDBDICTIONARYWDFLT
  2
AcDbDictionaryWithDefault
  3
AutoCAD 2000
 90
        0
280
     0
281
     0
  0
CLASS
  1
ACDBPLACEHOLDER
  2
AcDbPlaceHolder
  3
ObjectDBX Classes
 90
        0
280
     0
281
     0
  0
CLASS
  1
LAYOUT
  2
AcDbLayout
  3
ObjectDBX Classes
 90
        0
280
     0
281
     0
  0
ENDSEC
  0
SECTION
  2
TABLES
  0
TABLE
  2
VPORT
  5
8
330
0
100
AcDbSymbolTable
 70
     2
  0
VPORT
  5
1E
330
8
100
AcDbSymbolTableRecord
100
AcDbViewportTableRecord
  2
*ACTIVE
 70
     0
 10
0.0
 20
0.0
 11
1.0
 21
1.0
 12
7.630750605326877
 22
5.5
 13
0.0
 23
0.0
 14
1.0
 24
1.0
 15
0.0
 25
0.0
 16
0.0
 26
0.0
 36
1.0
 17
0.0
 27
0.0
 37
0.0
 40
11.0
 41
0.7207678883071553
 42
50.0
 43
0.0
 44
0.0
 50
0.0
 51
0.0
 71
     0
 72
  2000
 73
     1
 74
     0
 75
     0
 76
     0
 77
     0
 78
     0
281
     0
 65
     1
110
0.0
120
0.0
130
0.0
111
1.0
121
0.0
131
0.0
112
0.0
122
1.0
132
0.0
 79
     0
146
0.0
  0
ENDTAB
  0
TABLE
  2
LTYPE
  5
5
330
0
100
AcDbSymbolTable
 70
     1
  0
LTYPE
  5
10
330
5
100
AcDbSymbolTableRecord
100
AcDbLinetypeTableRecord
  2
ByBlock
 70
     0
  3

 72
    65
 73
     0
 40
0.0
  0
LTYPE
  5
11
330
5
100
AcDbSymbolTableRecord
100
AcDbLinetypeTableRecord
  2
ByLayer
 70
     0
  3

 72
    65
 73
     0
 40
0.0
  0
LTYPE
  5
1B
330
5
100
AcDbSymbolTableRecord
100
AcDbLinetypeTableRecord
  2
CONTINUOUS
 70
     0
  3
Solid line
 72
    65
 73
     0
 40
0.0
  0
ENDTAB
  0
TABLE
  2
LAYER
  5
2
330
0
100
AcDbSymbolTable
 70
     1
  0
LAYER
  5
1C
330
2
100
AcDbSymbolTableRecord
100
AcDbLayerTableRecord
  2
0
 70
     0
 62
     7
  6
CONTINUOUS
370
    -3
390
F
  0
ENDTAB
  0
TABLE
  2
STYLE
  5
3
330
0
100
AcDbSymbolTable
 70
     1
  0
STYLE
  5
21
330
3
100
AcDbSymbolTableRecord
100
AcDbTextStyleTableRecord
  2
STANDARD
 70
     0
 40
0.0
 41
1.0
 50
0.0
 71
     0
 42
0.22
  3
ROMANS.SHX
  4

  0
ENDTAB
  0
TABLE
  2
VIEW
  5
6
330
0
100
AcDbSymbolTable
 70
     1
  0
VIEW
  5
20
330
6
100
AcDbSymbolTableRecord
100
AcDbViewTableRecord
  2
1
 70
     0
 40
11.0
 10
7.225941000000001
 20
5.5
 41
14.451883
 11
0.0
 21
0.0
 31
1.0
 12
0.0
 22
0.0
 32
0.0
 42
50.0
 43
0.0
 44
0.0
 50
0.0
 71
     0
281
     0
 72
     0
  0
ENDTAB
  0
TABLE
  2
UCS
  5
7
330
0
100
AcDbSymbolTable
 70
     0
  0
ENDTAB
  0
TABLE
  2
APPID
  5
9
330
0
100
AcDbSymbolTable
 70
     1
  0
APPID
  5
1F
330
9
100
AcDbSymbolTableRecord
100
AcDbRegAppTableRecord
  2
ACAD
 70
     0
  0
ENDTAB
  0
TABLE
  2
DIMSTYLE
  5
A
330
0
100
AcDbSymbolTable
 70
     1
100
AcDbDimStyleTable
  0
DIMSTYLE
105
22
330
A
100
AcDbSymbolTableRecord
100
AcDbDimStyleTableRecord
  2
Standard
 70
     0
  3

  4

340
21
  0
ENDTAB
  0
TABLE
  2
BLOCK_RECORD
  5
1
330
0
100
AcDbSymbolTable
 70
     0
  0
BLOCK_RECORD
  5
18
330
1
100
AcDbSymbolTableRecord
100
AcDbBlockTableRecord
  2
*Model_Space
340
19
  0
BLOCK_RECORD
  5
16
330
1
100
AcDbSymbolTableRecord
100
AcDbBlockTableRecord
  2
*Paper_Space
340
17
  0
ENDTAB
  0
ENDSEC
  0
SECTION
  2
BLOCKS
  0
BLOCK
  5
484
330
18
100
AcDbEntity
  8
0
100
AcDbBlockBegin
  2
*Model_Space
 70
     0
 10
0.0
 20
0.0
 30
0.0
  3
*Model_Space
  1

  4

  0
ENDBLK
  5
485
330
18
100
AcDbEntity
  8
0
100
AcDbBlockEnd
  0
BLOCK
  5
482
330
16
100
AcDbEntity
 67
     1
  8
0
100
AcDbBlockBegin
  2
*Paper_Space
 70
     0
 10
0.0
 20
0.0
 30
0.0
  3
*Paper_Space
  1

  4

  0
ENDBLK
  5
483
330
16
100
AcDbEntity
 67
     1
  8
0
100
AcDbBlockEnd
  0
ENDSEC
  0
SECTION
  2
ENTITIES
  0
LINE
  5
23
330
18
100
AcDbEntity
  8
0
100
AcDbLine
 10
1.089575
 20
6.604073
 30
0.0
 11
1.089575
 21
4.698563
 31
0.0
  0
LINE
  5
24
330
18
100
AcDbEntity
  8
0
100
AcDbLine
 10
5.811085
 20
8.596391000000001
 30
0.0
 11
5.811085
 21
6.38668
 31
0.0
  0
LINE
  5
25
330
18
100
AcDbEntity
  8
0
100
AcDbLine
 10
7.321867
 20
7.803477
 30
0.0
 11
7.321867
 21
5.760908000000001
 31
0.0
  0
LINE
  5
26
330
18
100
AcDbEntity
  8
0
100
AcDbLine
 10
6.497411000000001
 20
8.246841999999999
 30
0.0
 11
6.497411000000001
 21
6.128647
 31
0.0
  0
LINE
  5
27
330
18
100
AcDbEntity
  8
0
100
AcDbLine
 10
6.779424000000001
 20
8.292666000000001
 30
0.0
 11
6.779424000000001
 21
6.124784
 31
0.0
  0
LINE
  5
28
330
18
100
AcDbEntity
  8
0
100
AcDbLine
 10
6.875869000000001
 20
8.044669000000001
 30
0.0
 11
6.875869000000001
 21
5.968217
 31
0.0
  0
LINE
  5
29
330
18
100
AcDbEntity
  8
0
100
AcDbLine
 10
2.7185
 20
5.280965
 30
0.0
 11
2.7185
 21
1.89369
 31
0.0
  0
LINE
  5
2A
330
18
100
AcDbEntity
  8
0
100
AcDbLine
 10
5.681254
 20
5.221081
 30
0.0
 11
5.681254
 21
1.84227
 31
0.0
  0
LINE
  5
2B
330
18
100
AcDbEntity
  8
0
100
AcDbLine
 10
1.089575
 20
6.604073
 30
0.0
 11
5.811085
 21
8.596391000000001
 31
0.0
  0
LINE
  5
2C
330
18
100
AcDbEntity
  8
0
100
AcDbLine
 10
1.089575
 20
4.698563
 30
0.0
 11
3.617299
 21
5.602319000000001
 31
0.0
  0
LINE
  5
2D
330
18
100
AcDbEntity
  8
0
100
AcDbLine
 10
2.375088
 20
4.170976000000001
 30
0.0
 11
2.7185
 21
4.250772
 31
0.0
  0
LINE
  5
2E
330
18
100
AcDbEntity
  8
0
100
AcDbLine
 10
5.681254
 20
5.221081
 30
0.0
 11
7.321867
 21
5.760908000000001
 31
0.0
  0
LINE
  5
2F
330
18
100
AcDbEntity
  8
0
100
AcDbLine
 10
4.153449
 20
5.822417
 30
0.0
 11
5.681254
 21
5.221081
 31
0.0
  0
LINE
  5
30
330
18
100
AcDbEntity
  8
0
100
AcDbLine
 10
2.7185
 20
1.89369
 30
0.0
 11
4.148806
 21
1.478837
 31
0.0
  0
LINE
  5
31
330
18
100
AcDbEntity
  8
0
100
AcDbLine
 10
7.321867
 20
5.760908000000001
 30
0.0
 11
6.875942
 21
5.968218
 31
0.0
  0
LINE
  5
32
330
18
100
AcDbEntity
  8
0
100
AcDbLine
 10
6.875942
 20
5.968218
 30
0.0
 11
6.576867
 21
5.962077
 31
0.0
  0
LINE
  5
33
330
18
100
AcDbEntity
  8
0
100
AcDbLine
 10
6.576867
 20
5.962077
 30
0.0
 11
6.779424000000001
 21
6.124784
 31
0.0
  0
LINE
  5
34
330
18
100
AcDbEntity
  8
0
100
AcDbLine
 10
6.779424000000001
 20
6.124784
 30
0.0
 11
6.497411000000001
 21
6.127636
 31
0.0
  0
LINE
  5
35
330
18
100
AcDbEntity
  8
0
100
AcDbLine
 10
6.497411000000001
 20
6.127636
 30
0.0
 11
5.811085
 21
6.38668
 31
0.0
  0
LINE
  5
36
330
18
100
AcDbEntity
  8
0
100
AcDbLine
 10
5.811085
 20
8.596391000000001
 30
0.0
 11
6.497411000000001
 21
8.246841999999999
 31
0.0
  0
LINE
  5
37
330
18
100
AcDbEntity
  8
0
100
AcDbLine
 10
6.497411000000001
 20
8.246841999999999
 30
0.0
 11
6.779424000000001
 21
8.292666000000001
 31
0.0
  0
LINE
  5
38
330
18
100
AcDbEntity
  8
0
100
AcDbLine
 10
6.779424000000001
 20
8.044772
 30
0.0
 11
6.875869000000001
 21
8.044669000000001
 31
0.0
  0
LINE
  5
39
330
18
100
AcDbEntity
  8
0
100
AcDbLine
 10
6.875869000000001
 20
8.044669000000001
 30
0.0
 11
7.321867
 21
7.803477
 31
0.0
  0
LINE
  5
3A
330
18
100
AcDbEntity
  8
0
100
AcDbLine
 10
1.089575
 20
4.698563
 30
0.0
 11
1.780294
 21
4.404357
 31
0.0
  0
LINE
  5
3B
330
18
100
AcDbEntity
  8
0
100
AcDbLine
 10
1.780294
 20
4.404357
 30
0.0
 11
1.892623
 21
4.415636
 31
0.0
  0
LINE
  5
3C
330
18
100
AcDbEntity
  8
0
100
AcDbLine
 10
1.892623
 20
4.415636
 30
0.0
 11
1.780294
 21
4.225908
 31
0.0
  0
LINE
  5
3D
330
18
100
AcDbEntity
  8
0
100
AcDbLine
 10
1.780294
 20
4.225908
 30
0.0
 11
2.043215
 21
4.291248
 31
0.0
  0
LINE
  5
3E
330
18
100
AcDbEntity
  8
0
100
AcDbLine
 10
2.043215
 20
4.291248
 30
0.0
 11
2.375088
 21
4.170976000000001
 31
0.0
  0
LINE
  5
3F
330
18
100
AcDbEntity
  8
0
100
AcDbLine
 10
5.681254
 20
1.84227
 30
0.0
 11
5.162473
 21
1.719237
 31
0.0
  0
LINE
  5
40
330
18
100
AcDbEntity
  8
0
100
AcDbLine
 10
5.162473
 20
1.719237
 30
0.0
 11
5.086282
 21
1.510455
 31
0.0
  0
LINE
  5
41
330
18
100
AcDbEntity
  8
0
100
AcDbLine
 10
5.086282
 20
1.510455
 30
0.0
 11
3.647036
 21
1.928817
 31
0.0
  0
LINE
  5
42
330
18
100
AcDbEntity
  8
0
100
AcDbLine
 10
2.7185
 20
1.895158
 30
0.0
 11
3.388053
 21
2.056171
 31
0.0
  0
LINE
  5
43
330
18
100
AcDbEntity
  8
0
100
AcDbLine
 10
3.388053
 20
2.056171
 30
0.0
 11
3.457241
 21
2.209752
 31
0.0
  0
LINE
  5
44
330
18
100
AcDbEntity
  8
0
100
AcDbLine
 10
3.457241
 20
2.209752
 30
0.0
 11
3.647036
 21
1.928817
 31
0.0
  0
LINE
  5
45
330
18
100
AcDbEntity
  8
0
100
AcDbLine
 10
3.647036
 20
1.928817
 30
0.0
 11
3.725235
 21
2.135592
 31
0.0
  0
LINE
  5
46
330
18
100
AcDbEntity
  8
0
100
AcDbLine
 10
3.725235
 20
2.135592
 30
0.0
 11
4.223972
 21
2.281316
 31
0.0
  0
LINE
  5
47
330
18
100
AcDbEntity
  8
0
100
AcDbLine
 10
4.223972
 20
2.281316
 30
0.0
 11
5.681254
 21
1.84227
 31
0.0
  0
LINE
  5
48
330
18
100
AcDbEntity
  8
0
100
AcDbLine
 10
3.388053
 20
2.056171
 30
0.0
 11
3.617117
 21
1.973104
 31
0.0
  0
LINE
  5
49
330
18
100
AcDbEntity
  8
0
100
AcDbLine
 10
4.724974
 20
1.61548
 30
0.0
 11
4.148806
 21
1.478837
 31
0.0
  0
LINE
  5
4A
330
18
100
AcDbEntity
  8
0
100
AcDbLine
 10
3.725235
 20
2.135592
 30
0.0
 11
5.162473
 21
1.719237
 31
0.0
  0
LINE
  5
4B
330
18
100
AcDbEntity
  8
0
100
AcDbLine
 10
1.780294
 20
4.225908
 30
0.0
 11
1.780294
 21
4.404357
 31
0.0
  0
LINE
  5
4C
330
18
100
AcDbEntity
  8
0
100
AcDbLine
 10
4.869032
 20
2.510066
 30
0.0
 11
4.869032
 21
4.10637
 31
0.0
  0
LINE
  5
4D
330
18
100
AcDbEntity
  8
0
100
AcDbLine
 10
3.617299
 20
5.600922
 30
0.0
 11
3.617299
 21
5.966468
 31
0.0
  0
LINE
  5
4E
330
18
100
AcDbEntity
  8
0
100
AcDbLine
 10
4.339044
 20
2.721038
 30
0.0
 11
4.339044
 21
4.251678
 31
0.0
  0
LINE
  5
4F
330
18
100
AcDbEntity
  8
0
100
AcDbLine
 10
4.140073999999999
 20
5.895789
 30
0.0
 11
4.140073999999999
 21
6.14415
 31
0.0
  0
LINE
  5
50
330
18
100
AcDbEntity
  8
0
100
AcDbLine
 10
3.982155
 20
7.559148
 30
0.0
 11
3.692593
 21
7.449983000000001
 31
0.0
  0
LINE
  5
51
330
18
100
AcDbEntity
  8
0
100
AcDbLine
 10
4.028897
 20
7.55302
 30
0.0
 11
4.140073999999999
 21
7.473438000000001
 31
0.0
  0
LINE
  5
52
330
18
100
AcDbEntity
  8
0
100
AcDbLine
 10
3.692593
 20
7.449983000000001
 30
0.0
 11
3.617299
 21
7.318303
 31
0.0
  0
LINE
  5
53
330
18
100
AcDbEntity
  8
0
100
AcDbLine
 10
4.090074
 20
5.915468
 30
0.0
 11
4.090074
 21
6.143852
 31
0.0
  0
LINE
  5
54
330
18
100
AcDbEntity
  8
0
100
AcDbLine
 10
4.389044
 20
2.735734
 30
0.0
 11
4.389044
 21
4.287249
 31
0.0
  0
LINE
  5
55
330
18
100
AcDbEntity
  8
0
100
AcDbLine
 10
4.475647
 20
2.601137
 30
0.0
 11
4.825825
 21
2.497673
 31
0.0
  0
LINE
  5
56
330
18
100
AcDbEntity
  8
0
100
AcDbLine
 10
4.475647
 20
2.601137
 30
0.0
 11
4.389044
 21
2.735734
 31
0.0
  0
LINE
  5
57
330
18
100
AcDbEntity
  8
0
100
AcDbLine
 10
4.428676
 20
2.572992
 30
0.0
 11
4.339044
 21
2.721038
 31
0.0
  0
LINE
  5
58
330
18
100
AcDbEntity
  8
0
100
AcDbLine
 10
4.428676
 20
2.572992
 30
0.0
 11
4.79367
 21
2.464042
 31
0.0
  0
LINE
  5
59
330
18
100
AcDbEntity
  8
0
100
AcDbLine
 10
4.869032
 20
2.510066
 30
0.0
 11
4.79367
 21
2.464042
 31
0.0
  0
LINE
  5
5A
330
18
100
AcDbEntity
  8
0
100
AcDbLine
 10
4.825825
 20
2.497673
 30
0.0
 11
4.869032
 21
2.510066
 31
0.0
  0
LINE
  5
5B
330
18
100
AcDbEntity
  8
0
100
AcDbLine
 10
4.224521
 20
5.794443
 30
0.0
 11
4.863809
 21
4.507841
 31
0.0
  0
LINE
  5
5C
330
18
100
AcDbEntity
  8
0
100
AcDbLine
 10
3.638852
 20
5.538906
 30
0.0
 11
4.367492
 21
4.617208
 31
0.0
  0
ARC
  5
5D
330
18
100
AcDbEntity
  8
0
100
AcDbCircle
 10
4.240074
 20
5.895789
 30
0.0
 40
0.1
100
AcDbArc
 50
180.0
 51
248.51568
  0
ARC
  5
5E
330
18
100
AcDbEntity
  8
0
100
AcDbCircle
 10
3.717299
 20
5.600922
 30
0.0
 40
0.1
100
AcDbArc
 50
180.0
 51
218.327835
  0
LINE
  5
5F
330
18
100
AcDbEntity
  8
0
100
AcDbLine
 10
4.192338
 20
5.807918
 30
0.0
 11
5.811085
 21
6.38668
 31
0.0
  0
ARC
  5
60
330
18
100
AcDbEntity
  8
0
100
AcDbCircle
 10
4.819032
 20
4.485592
 30
0.0
 40
0.05
100
AcDbArc
 50
0.0
 51
26.42190900000001
  0
ARC
  5
61
330
18
100
AcDbEntity
  8
0
100
AcDbCircle
 10
4.239044
 20
4.618440000000001
 30
0.0
 40
0.1
100
AcDbArc
 50
0.0
 51
38.327835
  0
ARC
  5
62
330
18
100
AcDbEntity
  8
0
100
AcDbCircle
 10
4.289044000000001
 20
4.555192
 30
0.0
 40
0.1
100
AcDbArc
 50
0.0
 51
38.327835
  0
LINE
  5
63
330
18
100
AcDbEntity
  8
0
100
AcDbLine
 10
4.245882
 20
4.860155000000001
 30
0.0
 11
4.245882
 21
4.881251
 31
0.0
  0
LINE
  5
64
330
18
100
AcDbEntity
  8
0
100
AcDbLine
 10
4.200699
 20
4.917811
 30
0.0
 11
4.200699
 21
4.938441
 31
0.0
  0
ARC
  5
65
330
18
100
AcDbEntity
  8
0
100
AcDbCircle
 10
4.190074
 20
5.915468
 30
0.0
 40
0.1
100
AcDbArc
 50
180.0
 51
248.51568
  0
LWPOLYLINE
  5
66
330
18
100
AcDbEntity
  8
0
100
AcDbPolyline
 90
       18
 70
     0
 43
0.0
 10
3.847431
 20
2.100193
 10
3.872676
 20
2.104106
 10
3.952964
 20
2.106146
 10
4.024219
 20
2.108182
 10
4.069382
 20
2.109203
 10
4.131602
 20
2.118261
 10
4.202856
 20
2.125315
 10
4.232964
 20
2.125327
 10
4.27612
 20
2.12434
 10
4.30924
 20
2.122347
 10
4.355402
 20
2.132401
 10
4.417616000000001
 20
2.156513
 10
4.448727
 20
2.16054
 10
4.483853
 20
2.160554
 10
4.526007
 20
2.154549
 10
4.576191000000001
 20
2.14654
 10
4.600278
 20
2.145546
 10
4.66385
 20
2.148791
  0
LWPOLYLINE
  5
7B
330
18
100
AcDbEntity
  8
0
100
AcDbPolyline
 90
       15
 70
     0
 43
0.0
 10
5.412574
 20
1.77855
 10
5.381237000000001
 20
1.778538
 10
5.348118
 20
1.777521
 10
5.313994999999999
 20
1.777507
 10
5.291915
 20
1.779505
 10
5.261806
 20
1.780497
 10
5.233704
 20
1.782493
 10
5.201589
 20
1.779469
 10
5.181518
 20
1.777454
 10
5.150408000000001
 20
1.773427
 10
5.130336
 20
1.771412
 10
5.105247
 20
1.768391
 10
5.084172
 20
1.766375
 10
5.064103
 20
1.757334
 10
5.050909
 20
1.751556
  0
LWPOLYLINE
  5
8D
330
18
100
AcDbEntity
  8
0
100
AcDbPolyline
 90
       23
 70
     0
 43
0.0
 10
5.608741
 20
1.864116
 10
5.608019000000001
 20
1.863936
 10
5.576911
 20
1.853887
 10
5.552827
 20
1.846852
 10
5.515694
 20
1.843826
 10
5.458491
 20
1.838785
 10
5.412328
 20
1.830738
 10
5.377202
 20
1.828717
 10
5.323008
 20
1.82468
 10
5.289888
 20
1.828682
 10
5.263793
 20
1.830678
 10
5.228664
 20
1.83769
 10
5.183498
 20
1.844697
 10
5.139336
 20
1.853711
 10
5.09618
 20
1.854698
 10
5.055032
 20
1.853678
 10
5.013886
 20
1.848643
 10
4.982776
 20
1.844616
 10
4.959693
 20
1.8426
 10
4.908511
 20
1.838565
 10
4.863351000000001
 20
1.832525
 10
4.815180000000001
 20
1.824477
 10
4.806534
 20
1.822349
  0
LWPOLYLINE
  5
A7
330
18
100
AcDbEntity
  8
0
100
AcDbPolyline
 90
       19
 70
     0
 43
0.0
 10
5.339872
 20
1.945121
 10
5.283819
 20
1.945098
 10
5.238658999999999
 20
1.938055
 10
5.193499
 20
1.934022
 10
5.149342
 20
1.927983
 10
5.108196
 20
1.922948
 10
5.064038
 20
1.920923
 10
5.022889
 20
1.922914
 10
4.981739
 20
1.927916
 10
4.934568
 20
1.930907
 10
4.892414
 20
1.934905
 10
4.833203
 20
1.929863
 10
4.791054
 20
1.923825
 10
4.745893
 20
1.918788
 10
4.699728
 20
1.916763
 10
4.66159
 20
1.917751
 10
4.61442
 20
1.917732
 10
4.541163
 20
1.902648
 10
4.526746
 20
1.903401
  0
LWPOLYLINE
  5
BD
330
18
100
AcDbEntity
  8
0
100
AcDbPolyline
 90
       18
 70
     0
 43
0.0
 10
4.196008
 20
1.999213
 10
4.229
 20
1.999874
 10
4.278176
 20
2.002904
 10
4.298247
 20
2.004919
 10
4.328355999999999
 20
2.004931
 10
4.380543
 20
2.004952
 10
4.433733
 20
2.009992
 10
4.481905
 20
2.014026
 10
4.545129
 20
2.02208
 10
4.605343
 20
2.030133
 10
4.672585
 20
2.03016
 10
4.75488
 20
2.0322
 10
4.805064
 20
2.025195
 10
4.849224
 20
2.022202
 10
4.909441999999999
 20
2.018212
 10
4.937543
 20
2.02023
 10
4.989726999999999
 20
2.02828
 10
5.040340000000001
 20
2.035363
  0
LWPOLYLINE
  5
D2
330
18
100
AcDbEntity
  8
0
100
AcDbPolyline
 90
        2
 70
     0
 43
0.0
 10
5.064103
 20
1.757334
 10
4.975491000000001
 20
1.542659
  0
LWPOLYLINE
  5
D7
330
18
100
AcDbEntity
  8
0
100
AcDbPolyline
 90
        2
 70
     0
 43
0.0
 10
4.806534
 20
1.822349
 10
4.663980000000001
 20
1.63321
  0
LWPOLYLINE
  5
DC
330
18
100
AcDbEntity
  8
0
100
AcDbPolyline
 90
        2
 70
     0
 43
0.0
 10
4.541163
 20
1.902648
 10
4.381332
 20
1.71537
  0
LWPOLYLINE
  5
E1
330
18
100
AcDbEntity
  8
0
100
AcDbPolyline
 90
        2
 70
     0
 43
0.0
 10
4.196008
 20
1.999213
 10
4.090612999999999
 20
1.799877
  0
LWPOLYLINE
  5
E6
330
18
100
AcDbEntity
  8
0
100
AcDbPolyline
 90
        2
 70
     0
 43
0.0
 10
3.847431
 20
2.100193
 10
3.789203
 20
1.887491
  0
LWPOLYLINE
  5
EB
330
18
100
AcDbEntity
  8
0
100
AcDbPolyline
 90
       17
 70
     0
 43
0.0
 10
3.789203
 20
1.887491
 10
3.76237
 20
1.874235
 10
3.702157
 20
1.866181
 10
3.670038
 20
1.873194
 10
3.608821
 20
1.86514
 10
3.56366
 20
1.861108
 10
3.543588
 20
1.862103
 10
3.511474
 20
1.856069
 10
3.495417
 20
1.856062
 10
3.454268
 20
1.858053
 10
3.398068
 20
1.852009
 10
3.353911
 20
1.846973
 10
3.296706
 20
1.843939
 10
3.238497
 20
1.843916
 10
3.165236
 20
1.835858
 10
3.093984
 20
1.825793
 10
3.000649
 20
1.811854
  0
LWPOLYLINE
  5
FF
330
18
100
AcDbEntity
  8
0
100
AcDbPolyline
 90
       11
 70
     0
 43
0.0
 10
4.578735
 20
1.580798
 10
4.512191000000001
 20
1.571444
 10
4.474054
 20
1.569422
 10
4.44495
 20
1.567403
 10
4.410828
 20
1.566386
 10
4.343587
 20
1.562344
 10
4.266311
 20
1.557295
 10
4.192048000000001
 20
1.547229
 10
4.113772
 20
1.532144
 10
4.039509
 20
1.521074
 10
4.016524
 20
1.517204
  0
LWPOLYLINE
  5
10D
330
18
100
AcDbEntity
  8
0
100
AcDbPolyline
 90
       15
 70
     0
 43
0.0
 10
4.381332
 20
1.71537
 10
4.362945
 20
1.704658
 10
4.330489
 20
1.690801
 10
4.295363
 20
1.690787
 10
4.263249
 20
1.68676
 10
4.205046
 20
1.669675
 10
4.166915
 20
1.652598
 10
4.133799
 20
1.646564
 10
4.088636
 20
1.646545
 10
4.022398
 20
1.645515
 10
3.93408
 20
1.646483
 10
3.869851
 20
1.639432
 10
3.801609
 20
1.630372
 10
3.726343
 20
1.619302
 10
3.688979
 20
1.612207
  0
LWPOLYLINE
  5
11F
330
18
100
AcDbEntity
  8
0
100
AcDbPolyline
 90
       10
 70
     0
 43
0.0
 10
4.090612999999999
 20
1.799877
 10
4.027359
 20
1.787027
 10
3.959119
 20
1.772949
 10
3.860771
 20
1.757855
 10
3.782489
 20
1.758827
 10
3.681124
 20
1.758786
 10
3.607862
 20
1.754743
 10
3.546644
 20
1.747693
 10
3.406147
 20
1.72656
 10
3.335807
 20
1.714643
  0
LWPOLYLINE
  5
12C
330
18
100
AcDbEntity
  8
0
100
AcDbPolyline
 90
       15
 70
     0
 43
0.0
 10
3.623198
 20
1.964102
 10
3.596738
 20
1.96349
 10
3.561616
 20
1.952436
 10
3.52348
 20
1.950413
 10
3.479321
 20
1.950396
 10
3.439176
 20
1.952387
 10
3.391003
 20
1.949356
 10
3.35086
 20
1.947333
 10
3.310718
 20
1.941295
 10
3.276595
 20
1.940278
 10
3.218386
 20
1.939251
 10
3.159174
 20
1.935213
 10
3.087914
 20
1.946224
 10
2.996582
 20
1.954216
 10
2.967515
 20
1.955041
  0
LWPOLYLINE
  5
13E
330
18
100
AcDbEntity
  8
0
100
AcDbPolyline
 90
       22
 70
     0
 43
0.0
 10
6.00237
 20
6.314482
 10
5.994619
 20
6.342212
 10
5.991598000000001
 20
6.369308999999999
 10
5.982541
 20
6.429522
 10
5.976497
 20
6.485722
 10
5.971447
 20
6.565005
 10
5.9644
 20
6.618194
 10
5.958347
 20
6.697477
 10
5.953316
 20
6.728586999999999
 10
5.951291
 20
6.771741000000001
 10
5.950266
 20
6.826939
 10
5.938208
 20
6.863065
 10
5.917111
 20
6.91424
 10
5.904049
 20
6.952373
 10
5.888972
 20
7.008569000000001
 10
5.876903
 20
7.072794999999999
 10
5.86685
 20
7.114942999999999
 10
5.851771
 20
7.177161
 10
5.840713
 20
7.222319000000001
 10
5.827644
 20
7.276509
 10
5.822617
 20
7.300594
 10
5.809539
 20
7.377866
  0
LWPOLYLINE
  5
157
330
18
100
AcDbEntity
  8
0
100
AcDbPolyline
 90
       31
 70
     0
 43
0.0
 10
6.144826999999999
 20
6.260714
 10
6.137152
 20
6.292089
 10
6.127089
 20
6.361333999999999
 10
6.108994
 20
6.433587
 10
6.099948
 20
6.467706
 10
6.08386
 20
6.542971
 10
6.072801
 20
6.592142999999999
 10
6.06375
 20
6.637302
 10
6.054701000000001
 20
6.678447
 10
6.048669
 20
6.704538
 10
6.044638
 20
6.744681
 10
6.046644000000001
 20
6.747692999999999
 10
6.050649
 20
6.772785000000001
 10
6.050644
 20
6.784828
 10
6.049629
 20
6.812929
 10
6.044592
 20
6.860097000000001
 10
6.035538
 20
6.913284
 10
6.028502
 20
6.939375999999999
 10
6.019451
 20
6.986542
 10
6.003375
 20
7.032700999999999
 10
5.987298
 20
7.079865
 10
5.969211000000001
 20
7.134053
 10
5.952119000000001
 20
7.210319999999999
 10
5.936033999999999
 20
7.277556
 10
5.912907
 20
7.387944
 10
5.901847
 20
7.437117
 10
5.886765000000001
 20
7.507364
 10
5.863655000000001
 20
7.573592999999999
 10
5.851595
 20
7.616743
 10
5.832503
 20
7.672938
 10
5.811085
 20
7.72375
  0
LWPOLYLINE
  5
179
330
18
100
AcDbEntity
  8
0
100
AcDbPolyline
 90
       32
 70
     0
 43
0.0
 10
6.288525
 20
6.206477
 10
6.204301
 20
6.52395
 10
6.198272
 20
6.542013
 10
6.188228
 20
6.564088000000001
 10
6.175166
 20
6.59921
 10
6.160094
 20
6.64537
 10
6.161076
 20
6.697558
 10
6.159061
 20
6.718633000000001
 10
6.159041
 20
6.768814
 10
6.156009
 20
6.819997
 10
6.156993
 20
6.870178
 10
6.157989
 20
6.887239999999999
 10
6.156981
 20
6.898279
 10
6.150951999999999
 20
6.916342
 10
6.140907
 20
6.938416999999999
 10
6.119809
 20
6.995614
 10
6.095691
 20
7.072883
 10
6.076596
 20
7.139114
 10
6.062526
 20
7.186278
 10
6.04443
 20
7.263549
 10
6.03036
 20
7.311717
 10
5.993183
 20
7.419088
 10
5.979122
 20
7.445177
 10
5.968064
 20
7.491338000000001
 10
5.959009
 20
7.548541
 10
5.946940000000001
 20
7.611763000000001
 10
5.928847
 20
7.680002
 10
5.908744
 20
7.756268
 10
5.883627
 20
7.824503999999999
 10
5.851477
 20
7.909797999999999
 10
5.823342
 20
7.995094
 10
5.811085
 20
8.026435000000001
  0
LWPOLYLINE
  5
19C
330
18
100
AcDbEntity
  8
0
100
AcDbPolyline
 90
       40
 70
     0
 43
0.0
 10
6.455357
 20
6.145689
 10
6.384005999999999
 20
6.379502
 10
6.368935
 20
6.420644
 10
6.356882
 20
6.44573
 10
6.341813
 20
6.481854
 10
6.331764
 20
6.513965
 10
6.32874
 20
6.548087000000001
 10
6.331737
 20
6.582211
 10
6.331721
 20
6.622356
 10
6.330680999999999
 20
6.712680000000001
 10
6.331666
 20
6.757842999999999
 10
6.327634
 20
6.802001
 10
6.324601
 20
6.857198
 10
6.312545
 20
6.889309
 10
6.302501
 20
6.909377
 10
6.282408
 20
6.960553
 10
6.260307
 20
7.013736
 10
6.238205000000001
 20
7.069928999999999
 10
6.221123
 20
7.12211
 10
6.201025
 20
7.18533
 10
6.177914
 20
7.254569999999999
 10
6.1548
 20
7.331839
 10
6.129673
 20
7.422153999999999
 10
6.093519000000001
 20
7.48336
 10
6.067393
 20
7.562635
 10
6.056337999999999
 20
7.600768
 10
6.044271
 20
7.659976
 10
6.029189
 20
7.728216000000001
 10
6.012104
 20
7.787422
 10
5.997025
 20
7.848636
 10
5.979943000000001
 20
7.899814
 10
5.962857
 20
7.961027000000001
 10
5.94878
 20
8.028264
 10
5.929683
 20
8.098509
 10
5.913599
 20
8.164741000000001
 10
5.8945
 20
8.239001
 10
5.874398
 20
8.313260000000001
 10
5.851284
 20
8.390528999999999
 10
5.826162999999999
 20
8.46579
 10
5.811085
 20
8.50474
  0
LWPOLYLINE
  5
1C7
330
18
100
AcDbEntity
  8
0
100
AcDbPolyline
 90
       43
 70
     0
 43
0.0
 10
6.715076
 20
6.125435
 10
6.497411000000001
 20
6.468872
 10
6.495352
 20
6.516038
 10
6.487312
 20
6.544136
 10
6.475232
 20
6.635460000000001
 10
6.464176999999999
 20
6.673592999999999
 10
6.457134
 20
6.717749
 10
6.454097
 20
6.781979
 10
6.451075
 20
6.812086
 10
6.44604
 20
6.852229
 10
6.441008999999999
 20
6.884342
 10
6.43195
 20
6.951581
 10
6.421905000000001
 20
6.973656
 10
6.399814
 20
7.002752
 10
6.377715
 20
7.050917
 10
6.366667
 20
7.070985
 10
6.347581
 20
7.114132000000001
 10
6.326483000000001
 20
7.169322999999999
 10
6.303374
 20
7.234547999999999
 10
6.266216
 20
7.293746000000001
 10
6.249132
 20
7.351949
 10
6.238076
 20
7.391086000000001
 10
6.228017
 20
7.447284
 10
6.216956
 20
7.500471000000001
 10
6.202883
 20
7.556667999999999
 10
6.186792
 20
7.639961
 10
6.17473
 20
7.687125999999999
 10
6.151622
 20
7.747333
 10
6.138552
 20
7.804533999999999
 10
6.121462
 20
7.876786999999999
 10
6.10136
 20
7.950042999999999
 10
6.082269999999999
 20
8.005234
 10
6.070209999999999
 20
8.045374000000001
 10
6.061164
 20
8.078488999999999
 10
6.040055000000001
 20
8.160777000000001
 10
6.023979
 20
8.207941
 10
6.001875
 20
8.269152
 10
5.982784
 20
8.324342999999999
 10
5.956664
 20
8.389567
 10
5.940586
 20
8.438738000000001
 10
5.928528
 20
8.474863000000001
 10
5.914462
 20
8.515002000000001
 10
5.902294
 20
8.549938000000001
  0
LWPOLYLINE
  5
1F5
330
18
100
AcDbEntity
  8
0
100
AcDbPolyline
 90
       46
 70
     0
 43
0.0
 10
6.779424000000001
 20
6.609483
 10
6.744199000000001
 20
6.639583
 10
6.728124
 20
6.680724000000001
 10
6.706030999999999
 20
6.715841999999999
 10
6.681928999999999
 20
6.753969000000001
 10
6.662849000000001
 20
6.781059
 10
6.649792999999999
 20
6.804137
 10
6.635732000000001
 20
6.830225
 10
6.614642999999999
 20
6.863336
 10
6.593553
 20
6.897450999999999
 10
6.581497
 20
6.928558
 10
6.572448
 20
6.969702000000001
 10
6.562396000000001
 20
7.009842999999999
 10
6.547324
 20
7.053996000000001
 10
6.53527
 20
7.080085
 10
6.52623
 20
7.09915
 10
6.497411000000001
 20
7.112187
 10
6.48105
 20
7.142287
 10
6.471986
 20
7.220565
 10
6.446880999999999
 20
7.257689
 10
6.419771
 20
7.289794000000001
 10
6.389647
 20
7.328922
 10
6.370564
 20
7.365044999999999
 10
6.352489
 20
7.389124000000001
 10
6.318349
 20
7.432266
 10
6.305289
 20
7.463373
 10
6.294233
 20
7.503513000000001
 10
6.286179
 20
7.567741000000001
 10
6.278132
 20
7.6129
 10
6.268075
 20
7.665083999999999
 10
6.258014
 20
7.7263
 10
6.246957
 20
7.768447999999999
 10
6.23891
 20
7.814611
 10
6.230864
 20
7.856758999999999
 10
6.217798999999999
 20
7.900913
 10
6.204726
 20
7.967146000000001
 10
6.189649
 20
8.022339000000001
 10
6.176586
 20
8.062478000000001
 10
6.149465
 20
8.120677000000001
 10
6.129369000000001
 20
8.179882000000001
 10
6.103248000000001
 20
8.24912
 10
6.074113
 20
8.323376
 10
6.058035
 20
8.374554
 10
6.040959
 20
8.410677
 10
6.01986
 20
8.466871000000001
 10
6.012502
 20
8.493808
  0
LWPOLYLINE
  5
226
330
18
100
AcDbEntity
  8
0
100
AcDbPolyline
 90
       39
 70
     0
 43
0.0
 10
6.779424000000001
 20
6.932644
 10
6.732023
 20
6.968763
 10
6.726
 20
6.973778
 10
6.709935000000001
 20
6.990833
 10
6.686837
 20
7.027958
 10
6.670766
 20
7.061071000000001
 10
6.656702
 20
7.094183999999999
 10
6.636609
 20
7.14536
 10
6.611501
 20
7.190513
 10
6.586397
 20
7.223622
 10
6.565309
 20
7.254725
 10
6.543215
 20
7.289842999999999
 10
6.530158999999999
 20
7.312921
 10
6.514088
 20
7.346034
 10
6.507058
 20
7.358074
 10
6.507058
 20
7.358074
 10
6.482957
 20
7.392187
 10
6.468904
 20
7.398203
 10
6.454848
 20
7.412248
 10
6.443801000000001
 20
7.431313
 10
6.433756
 20
7.452384
 10
6.424708
 20
7.491522
 10
6.416665
 20
7.526644999999999
 10
6.407609
 20
7.585853999999999
 10
6.396543
 20
7.651085000000001
 10
6.383465
 20
7.726350999999999
 10
6.369396
 20
7.773515
 10
6.359344
 20
7.812652000000001
 10
6.322185
 20
7.875864
 10
6.305092
 20
7.955143
 10
6.289011
 20
8.012342
 10
6.277954
 20
8.056497
 10
6.261874
 20
8.110685999999999
 10
6.240777
 20
8.162865
 10
6.223694
 20
8.218057
 10
6.209624
 20
8.266225
 10
6.191539
 20
8.315394
 10
6.170441
 20
8.369581
 10
6.159445
 20
8.418969000000001
  0
LWPOLYLINE
  5
250
330
18
100
AcDbEntity
  8
0
100
AcDbPolyline
 90
       10
 70
     0
 43
0.0
 10
6.779424000000001
 20
7.677324000000001
 10
6.497411000000001
 20
8.032492
 10
6.460202
 20
8.098919
 10
6.443517
 20
8.138860000000001
 10
6.438487
 20
8.167961999999999
 10
6.434468
 20
8.180003999999999
 10
6.425423
 20
8.209105000000001
 10
6.418387999999999
 20
8.234192999999999
 10
6.409345
 20
8.261286999999999
 10
6.399696
 20
8.296609
  0
LWPOLYLINE
  5
25D
330
18
100
AcDbEntity
  8
0
100
AcDbPolyline
 90
       30
 70
     0
 43
0.0
 10
6.779424000000001
 20
7.291934
 10
6.728869
 20
7.326047999999999
 10
6.707780000000001
 20
7.358155
 10
6.691712
 20
7.383239
 10
6.676647999999999
 20
7.408322999999999
 10
6.660578999999999
 20
7.435414
 10
6.644508999999999
 20
7.467523
 10
6.624422999999999
 20
7.501638000000001
 10
6.603333999999999
 20
7.534749000000001
 10
6.582245
 20
7.566856
 10
6.564164999999999
 20
7.602979
 10
6.54207
 20
7.643114
 10
6.528009
 20
7.669203
 10
6.517965
 20
7.687264
 10
6.512942
 20
7.700309
 10
6.513615
 20
7.698560000000001
 10
6.456703
 20
7.791614999999999
 10
6.44465
 20
7.815697
 10
6.430571
 20
7.886947999999999
 10
6.419519999999999
 20
7.914041
 10
6.408468
 20
7.946152000000001
 10
6.397414
 20
7.98027
 10
6.386361
 20
8.014389
 10
6.375306
 20
8.051518
 10
6.366256
 20
8.095673
 10
6.355199
 20
8.138824000000001
 10
6.340125
 20
8.187994999999999
 10
6.328062
 20
8.237167
 10
6.31801
 20
8.276304
 10
6.307037
 20
8.343800999999999
  0
LWPOLYLINE
  5
27E
330
18
100
AcDbEntity
  8
0
100
AcDbPolyline
 90
       10
 70
     0
 43
0.0
 10
6.779424000000001
 20
8.044772
 10
6.731591000000001
 20
8.045639
 10
6.715528999999999
 20
8.055669
 10
6.703479
 20
8.073729
 10
6.688412
 20
8.104835000000001
 10
6.677361
 20
8.132932
 10
6.661291
 20
8.164036999999999
 10
6.636178
 20
8.218222000000001
 10
6.615087
 20
8.257355
 10
6.61066
 20
8.265244000000001
  0
LWPOLYLINE
  5
28B
330
18
100
AcDbEntity
  8
0
100
AcDbPolyline
 90
        7
 70
     0
 43
0.0
 10
7.189469
 20
7.875075999999999
 10
7.195345
 20
7.834063
 10
7.207408999999999
 20
7.78188
 10
7.217459
 20
7.747761
 10
7.238555
 20
7.697589
 10
7.269692
 20
7.636381
 10
7.321867
 20
7.55972
  0
LWPOLYLINE
  5
295
330
18
100
AcDbEntity
  8
0
100
AcDbPolyline
 90
       17
 70
     0
 43
0.0
 10
7.064832000000001
 20
7.942479
 10
7.064832000000001
 20
7.941397
 10
7.069872999999999
 20
7.886201
 10
7.07892
 20
7.849071
 10
7.092985000000001
 20
7.812946000000001
 10
7.106042
 20
7.787861
 10
7.11207
 20
7.771806
 10
7.123123
 20
7.739694999999999
 10
7.133176
 20
7.697547
 10
7.145238000000001
 20
7.651385
 10
7.160310000000001
 20
7.607233
 10
7.183411
 20
7.561076
 10
7.217557000000001
 20
7.503883
 10
7.240664999999999
 20
7.441669
 10
7.281849
 20
7.353367
 10
7.313991000000001
 20
7.286138
 10
7.321867
 20
7.269477999999999
  0
LWPOLYLINE
  5
2A9
330
18
100
AcDbEntity
  8
0
100
AcDbPolyline
 90
       19
 70
     0
 43
0.0
 10
6.934487
 20
8.012969
 10
6.926336
 20
7.93532
 10
6.945428999999999
 20
7.875111
 10
6.955485
 20
7.824934
 10
6.962523
 20
7.793825
 10
6.9776
 20
7.737628999999999
 10
7.001716
 20
7.663371000000001
 10
7.025838
 20
7.57707
 10
7.048957000000001
 20
7.487758
 10
7.080107000000001
 20
7.393431
 10
7.103211
 20
7.339245
 10
7.118272
 20
7.322189999999999
 10
7.129314999999999
 20
7.314164999999999
 10
7.158428
 20
7.294105
 10
7.202602000000001
 20
7.257992
 10
7.226722000000001
 20
7.174702000000001
 10
7.257861
 20
7.107472000000001
 10
7.295028
 20
7.025191
 10
7.321867
 20
6.976439
  0
LWPOLYLINE
  5
2BF
330
18
100
AcDbEntity
  8
0
100
AcDbPolyline
 90
       26
 70
     0
 43
0.0
 10
6.779424000000001
 20
7.847938
 10
6.875869000000001
 20
7.757655000000001
 10
6.875869000000001
 20
7.757655000000001
 10
6.902701
 20
7.679498
 10
6.913123
 20
7.623245
 10
6.927714
 20
7.554492
 10
6.938556
 20
7.496746000000001
 10
6.957653
 20
7.425497
 10
6.977759
 20
7.342205
 10
6.996859
 20
7.262928
 10
7.023986
 20
7.189675
 10
7.042072999999999
 20
7.134483
 10
7.067187
 20
7.07528
 10
7.083258
 20
7.044175
 10
7.106355000000001
 20
7.009058000000001
 10
7.12242
 20
6.990999
 10
7.151536999999999
 20
6.960902000000001
 10
7.173626
 20
6.936824000000001
 10
7.196717
 20
6.915758
 10
7.209771000000001
 20
6.899705
 10
7.226844
 20
6.869603999999999
 10
7.235892
 20
6.83147
 10
7.251975
 20
6.769252000000001
 10
7.277092999999999
 20
6.69901
 10
7.306224
 20
6.635794000000001
 10
7.321867
 20
6.606274000000001
  0
LWPOLYLINE
  5
2DC
330
18
100
AcDbEntity
  8
0
100
AcDbPolyline
 90
        4
 70
     0
 43
0.0
 10
6.706527
 20
6.066228
 10
6.730389999999999
 20
6.037408999999999
 10
6.76152
 20
5.992259
 10
6.775931
 20
5.966165
  0
LWPOLYLINE
  5
2E3
330
18
100
AcDbEntity
  8
0
100
AcDbPolyline
 90
       15
 70
     0
 43
0.0
 10
6.779424000000001
 20
6.396724
 10
6.875869000000001
 20
6.302423
 10
6.891881
 20
6.263287
 10
6.900925
 20
6.235189
 10
6.900925
 20
6.234186
 10
6.911973
 20
6.213114
 10
6.923029
 20
6.173978
 10
6.936091
 20
6.136849
 10
6.945139
 20
6.096709
 10
6.953182000000001
 20
6.062589
 10
6.958214
 20
6.028468
 10
6.966253999999999
 20
6.000369999999999
 10
6.97329
 20
5.972272
 10
6.984347000000001
 20
5.930125
 10
6.98735
 20
5.916425
  0
LWPOLYLINE
  5
2F5
330
18
100
AcDbEntity
  8
0
100
AcDbPolyline
 90
       19
 70
     0
 43
0.0
 10
6.779424000000001
 20
6.789132
 10
6.875869000000001
 20
6.653689
 10
6.918845
 20
6.595494
 10
6.929905000000001
 20
6.546321
 10
6.938950999999999
 20
6.511198
 10
6.942984
 20
6.466037
 10
6.947009
 20
6.438941000000001
 10
6.955057000000001
 20
6.390771
 10
6.976151
 20
6.346621
 10
6.993224000000001
 20
6.318526
 10
7.008288
 20
6.293442
 10
7.026375
 20
6.238251
 10
7.031407000000001
 20
6.203126
 10
7.04448
 20
6.139904000000001
 10
7.066586999999999
 20
6.071667
 10
7.086689
 20
5.996404
 10
7.10076
 20
5.945225
 10
7.115838
 20
5.887022
 10
7.128267
 20
5.850912999999999
  0
LWPOLYLINE
  5
30B
330
18
100
AcDbEntity
  8
0
100
AcDbPolyline
 90
       31
 70
     0
 43
0.0
 10
6.779424000000001
 20
7.151433
 10
6.875869000000001
 20
7.025016
 10
6.890604
 20
6.94474
 10
6.895633
 20
6.916641
 10
6.910705999999999
 20
6.869477000000001
 10
6.918753999999999
 20
6.823314
 10
6.93182
 20
6.774141999999999
 10
6.943882
 20
6.727981
 10
6.952928999999999
 20
6.692858
 10
6.970008999999999
 20
6.646698
 10
6.983076
 20
6.595519
 10
6.993127
 20
6.560397
 10
7.008192
 20
6.532302
 10
7.037313
 20
6.491165000000001
 10
7.058404
 20
6.455044
 10
7.080499000000001
 20
6.414908000000001
 10
7.104599
 20
6.381799
 10
7.131709
 20
6.351701
 10
7.146775
 20
6.321599
 10
7.150797
 20
6.304539
 10
7.150807
 20
6.277441000000001
 10
7.148811
 20
6.251347
 10
7.151837
 20
6.212207
 10
7.164915
 20
6.135937999999999
 10
7.173962
 20
6.098808
 10
7.183011000000001
 20
6.057663
 10
7.199101
 20
5.978383999999999
 10
7.222214999999999
 20
5.902119
 10
7.238291
 20
5.854956
 10
7.255377
 20
5.795749
 10
7.256810000000001
 20
5.791153
  0
LWPOLYLINE
  5
32D
330
18
100
AcDbEntity
  8
0
100
AcDbPolyline
 90
       24
 70
     0
 43
0.0
 10
6.779424000000001
 20
7.554884
 10
6.873479
 20
7.396153
 10
6.873479
 20
7.396153
 10
6.900517
 20
7.251849000000001
 10
6.919619
 20
7.168557000000001
 10
6.931683000000001
 20
7.117378
 10
6.944750999999999
 20
7.064191
 10
6.963841
 20
7.011008
 10
6.98193
 20
6.951802000000001
 10
7.003025999999999
 20
6.901629
 10
7.030139
 20
6.861496000000001
 10
7.043194000000001
 20
6.841429
 10
7.069300999999999
 20
6.809324
 10
7.096413
 20
6.773204
 10
7.126537
 20
6.735078999999999
 10
7.151652
 20
6.672865
 10
7.165723
 20
6.62269
 10
7.185822
 20
6.555456
 10
7.19889
 20
6.504277
 10
7.223004
 20
6.435038
 10
7.243108
 20
6.35576
 10
7.280278999999999
 20
6.263443
 10
7.312436999999999
 20
6.158076
 10
7.321867
 20
6.123947
  0
LINE
  5
348
330
18
100
AcDbEntity
  8
0
100
AcDbLine
 10
4.200699
 20
5.696999
 30
0.0
 11
4.200699
 21
5.722937
 31
0.0
  0
LINE
  5
349
330
18
100
AcDbEntity
  8
0
100
AcDbLine
 10
4.200699
 20
4.995647
 30
0.0
 11
4.200699
 21
5.629925
 31
0.0
  0
LINE
  5
34A
330
18
100
AcDbEntity
  8
0
100
AcDbLine
 10
4.245882
 20
4.951504
 30
0.0
 11
4.245882
 21
5.572739
 31
0.0
  0
LINE
  5
34B
330
18
100
AcDbEntity
  8
0
100
AcDbLine
 10
4.245882
 20
5.631955000000001
 30
0.0
 11
4.245882
 21
5.661829
 31
0.0
  0
LINE
  5
34C
330
18
100
AcDbEntity
  8
0
100
AcDbLine
 10
4.389044
 20
2.735734
 30
0.0
 11
4.339044
 21
2.721038
 31
0.0
  0
LINE
  5
34D
330
18
100
AcDbEntity
  8
0
100
AcDbLine
 10
4.475647
 20
2.601137
 30
0.0
 11
4.428676
 21
2.572992
 31
0.0
  0
CIRCLE
  5
34E
330
18
100
AcDbEntity
  8
0
100
AcDbCircle
 10
4.507274
 20
3.819536
 30
0.0
 40
0.045441
  0
ARC
  5
34F
330
18
100
AcDbEntity
  8
0
100
AcDbCircle
 10
4.498519
 20
3.808598
 30
0.0
 40
0.045441
100
AcDbArc
 50
132.458216
 51
330.193747
  0
ARC
  5
350
330
18
100
AcDbEntity
  8
0
100
AcDbCircle
 10
4.498519
 20
3.328873
 30
0.0
 40
0.045441
100
AcDbArc
 50
132.458216
 51
330.193747
  0
CIRCLE
  5
351
330
18
100
AcDbEntity
  8
0
100
AcDbCircle
 10
4.507274
 20
3.33981
 30
0.0
 40
0.045441
  0
LWPOLYLINE
  5
352
330
18
100
AcDbEntity
  8
0
100
AcDbPolyline
 90
       16
 70
     1
 43
0.0
 10
4.500605999999999
 20
2.929328
 42
0.12066
 10
4.486172
 20
2.919834
 42
0.105081
 10
4.476017
 20
2.902872
 42
0.088624
 10
4.472905
 20
2.882725
 42
0.079698
 10
4.477015
 20
2.860466
 42
0.079698
 10
4.487881
 20
2.840609
 42
0.088624
 10
4.503015
 20
2.826949
 42
0.105081
 10
4.521599
 20
2.820207
 42
0.12066
 10
4.538786
 20
2.821957
 42
0.12066
 10
4.55322
 20
2.831451
 42
0.105081
 10
4.563375
 20
2.848413
 42
0.088624
 10
4.566487
 20
2.86856
 42
0.079698
 10
4.562377
 20
2.89082
 42
0.079698
 10
4.551511
 20
2.910676
 42
0.088624
 10
4.536377
 20
2.924336
 42
0.105081
 10
4.517794
 20
2.931079
 42
0.12066
  0
LWPOLYLINE
  5
365
330
18
100
AcDbEntity
  8
0
100
AcDbPolyline
 90
       10
 70
     0
 43
0.0
 10
4.478823
 20
2.909417
 42
0.0919
 10
4.470311
 20
2.894317
 42
0.088624
 10
4.467198000000001
 20
2.87417
 42
0.079698
 10
4.471309
 20
2.85191
 42
0.079698
 10
4.482175
 20
2.832053
 42
0.088624
 10
4.497308
 20
2.818394
 42
0.105081
 10
4.515892
 20
2.811651
 42
0.12066
 10
4.53308
 20
2.813402
 42
0.12066
 10
4.547514
 20
2.822896
 42
0.067327
 10
4.554863
 20
2.833313
 42
0.088624
  0
CIRCLE
  5
372
330
18
100
AcDbEntity
  8
0
100
AcDbCircle
 10
4.770356
 20
3.482427
 30
0.0
 40
0.045441
  0
ARC
  5
373
330
18
100
AcDbEntity
  8
0
100
AcDbCircle
 10
4.761601000000001
 20
3.47149
 30
0.0
 40
0.045441
100
AcDbArc
 50
132.458216
 51
330.193747
  0
ARC
  5
374
330
18
100
AcDbEntity
  8
0
100
AcDbCircle
 10
4.761601000000001
 20
3.910068
 30
0.0
 40
0.045441
100
AcDbArc
 50
132.458216
 51
330.193747
  0
CIRCLE
  5
375
330
18
100
AcDbEntity
  8
0
100
AcDbCircle
 10
4.770356
 20
3.921005
 30
0.0
 40
0.045441
  0
ARC
  5
376
330
18
100
AcDbEntity
  8
0
100
AcDbCircle
 10
4.761601000000001
 20
3.06804
 30
0.0
 40
0.045441
100
AcDbArc
 50
132.458216
 51
330.193747
  0
CIRCLE
  5
377
330
18
100
AcDbEntity
  8
0
100
AcDbCircle
 10
4.770356
 20
3.078977
 30
0.0
 40
0.045441
  0
CIRCLE
  5
378
330
18
100
AcDbEntity
  8
0
100
AcDbCircle
 10
4.770356
 20
2.631376
 30
0.0
 40
0.045441
  0
ARC
  5
379
330
18
100
AcDbEntity
  8
0
100
AcDbCircle
 10
4.761601000000001
 20
2.620438
 30
0.0
 40
0.045441
100
AcDbArc
 50
132.458216
 51
330.193747
  0
LWPOLYLINE
  5
37A
330
18
100
AcDbEntity
  8
0
100
AcDbPolyline
 90
       16
 70
     1
 43
0.0
 10
4.641137000000001
 20
2.866157
 42
0.114081
 10
4.615991
 20
2.84943
 42
0.103641
 10
4.598652
 20
2.821154
 42
0.091642
 10
4.593222
 20
2.787674
 42
0.084652
 10
4.600181
 20
2.751667
 42
0.084652
 10
4.618679
 20
2.720002
 42
0.091642
 10
4.644829
 20
2.698401
 42
0.103641
 10
4.676506
 20
2.688564
 42
0.114081
 10
4.706442
 20
2.692558
 42
0.114081
 10
4.731588
 20
2.709285
 42
0.103641
 10
4.748927
 20
2.737561
 42
0.091642
 10
4.754357
 20
2.771041
 42
0.084652
 10
4.747398000000001
 20
2.807048
 42
0.084652
 10
4.728899
 20
2.838713
 42
0.091642
 10
4.70275
 20
2.860314
 42
0.103641
 10
4.671073000000001
 20
2.870151
 42
0.114081
  0
LWPOLYLINE
  5
38D
330
18
100
AcDbEntity
  8
0
100
AcDbPolyline
 90
        8
 70
     0
 43
0.0
 10
4.673786
 20
2.688869
 42
0.083177
 10
4.691446
 20
2.702244
 42
0.103641
 10
4.708785
 20
2.73052
 42
0.091642
 10
4.714215
 20
2.763999
 42
0.084652
 10
4.707256
 20
2.800006
 42
0.084652
 10
4.688758
 20
2.831672
 42
0.091642
 10
4.662608000000001
 20
2.853272
 42
0.095096
 10
4.633651
 20
2.862805
 42
0.114081
  0
LWPOLYLINE
  5
398
330
18
100
AcDbEntity
  8
0
100
AcDbPolyline
 90
       16
 70
     1
 43
0.0
 10
3.880783
 20
7.375217999999999
 42
0.129601
 10
3.858312
 20
7.379217
 42
0.106408
 10
3.831847
 20
7.371214999999999
 42
0.084504
 10
3.80934
 20
7.353227
 42
0.073636
 10
3.791225
 20
7.325632000000001
 42
0.073636
 10
3.781883
 20
7.293972999999999
 42
0.084504
 10
3.78271
 20
7.265172
 42
0.106408
 10
3.793714
 20
7.239808
 42
0.129601
 10
3.811293
 20
7.22525
 42
0.129601
 10
3.833763
 20
7.22125
 42
0.106408
 10
3.860228
 20
7.229253
 42
0.084504
 10
3.882736
 20
7.247241000000001
 42
0.073636
 10
3.900851
 20
7.274835
 42
0.073636
 10
3.910192
 20
7.306495
 42
0.084504
 10
3.909365
 20
7.335296000000001
 42
0.106408
 10
3.898361
 20
7.36066
 42
0.129601
  0
LWPOLYLINE
  5
3AB
330
18
100
AcDbEntity
  8
0
100
AcDbPolyline
 90
        7
 70
     0
 43
0.0
 10
3.899767
 20
7.358616000000001
 42
0.085665
 10
3.87866
 20
7.351274
 42
0.084504
 10
3.856153
 20
7.333286
 42
0.073636
 10
3.838038
 20
7.305692
 42
0.073636
 10
3.828696
 20
7.274032000000001
 42
0.084504
 10
3.829523000000001
 20
7.245231
 42
0.096868
 10
3.839121
 20
7.221911
 42
0.129601
  0
LWPOLYLINE
  5
3B5
330
18
100
AcDbEntity
  8
0
100
AcDbPolyline
 90
       16
 70
     1
 43
0.0
 10
3.950908
 20
6.834642
 42
0.123539
 10
3.967697
 20
6.830507000000001
 42
0.105585
 10
3.987382
 20
6.834801
 42
0.087297
 10
4.004599
 20
6.846562
 42
0.077668
 10
4.018616000000001
 20
6.865297999999999
 42
0.077668
 10
4.026249
 20
6.887416
 42
0.087297
 10
4.026313
 20
6.908267
 42
0.105585
 10
4.018813
 20
6.926966999999999
 42
0.123539
 10
4.005965
 20
6.938538
 42
0.123539
 10
3.989176
 20
6.942672
 42
0.105585
 10
3.96949
 20
6.938378999999999
 42
0.087297
 10
3.952273
 20
6.926618
 42
0.077668
 10
3.938256
 20
6.907882000000001
 42
0.077668
 10
3.930624
 20
6.885763000000001
 42
0.087297
 10
3.930559
 20
6.864913000000001
 42
0.105585
 10
3.93806
 20
6.846213000000001
 42
0.123539
  0
LWPOLYLINE
  5
3C8
330
18
100
AcDbEntity
  8
0
100
AcDbPolyline
 90
       16
 70
     1
 43
0.0
 10
3.950908
 20
6.473533
 42
0.123539
 10
3.967697
 20
6.469399
 42
0.105585
 10
3.987382
 20
6.473692
 42
0.087297
 10
4.004599
 20
6.485454
 42
0.077668
 10
4.018616000000001
 20
6.504189
 42
0.077668
 10
4.026249
 20
6.526308
 42
0.087297
 10
4.026313
 20
6.547158000000001
 42
0.105585
 10
4.018813
 20
6.565859
 42
0.123539
 10
4.005965
 20
6.577429
 42
0.123539
 10
3.989176
 20
6.581564
 42
0.105585
 10
3.96949
 20
6.57727
 42
0.087297
 10
3.952273
 20
6.565509
 42
0.077668
 10
3.938256
 20
6.546773
 42
0.077668
 10
3.930624
 20
6.524655
 42
0.087297
 10
3.930559
 20
6.503804
 42
0.105585
 10
3.93806
 20
6.485104
 42
0.123539
  0
LWPOLYLINE
  5
3DB
330
18
100
AcDbEntity
  8
0
100
AcDbPolyline
 90
       16
 70
     1
 43
0.0
 10
3.724584
 20
6.904561
 42
0.123539
 10
3.741373
 20
6.900427000000001
 42
0.105585
 10
3.761058
 20
6.904721
 42
0.087297
 10
3.778275
 20
6.916482000000001
 42
0.077668
 10
3.792292
 20
6.935217
 42
0.077668
 10
3.799925
 20
6.957336
 42
0.087297
 10
3.799989
 20
6.978186
 42
0.105585
 10
3.792489
 20
6.996886999999999
 42
0.123539
 10
3.77964
 20
7.008457000000001
 42
0.123539
 10
3.762852
 20
7.012592
 42
0.105585
 10
3.743166
 20
7.008298
 42
0.087297
 10
3.725949
 20
6.996536999999999
 42
0.077668
 10
3.711932
 20
6.977802000000001
 42
0.077668
 10
3.704299
 20
6.955683000000001
 42
0.087297
 10
3.704235
 20
6.934832000000001
 42
0.105585
 10
3.711735
 20
6.916132000000001
 42
0.123539
  0
LWPOLYLINE
  5
3EE
330
18
100
AcDbEntity
  8
0
100
AcDbPolyline
 90
       16
 70
     1
 43
0.0
 10
3.723373000000001
 20
6.537507
 42
0.123539
 10
3.740161
 20
6.533372
 42
0.105585
 10
3.759847
 20
6.537666000000001
 42
0.087297
 10
3.777064
 20
6.549427
 42
0.077668
 10
3.791081
 20
6.568161999999999
 42
0.077668
 10
3.798713
 20
6.590281
 42
0.087297
 10
3.798778
 20
6.611132000000001
 42
0.105585
 10
3.791277
 20
6.629832
 42
0.123539
 10
3.778429
 20
6.641403
 42
0.123539
 10
3.76164
 20
6.645536999999999
 42
0.105585
 10
3.741955
 20
6.641242999999999
 42
0.087297
 10
3.724738
 20
6.629482
 42
0.077668
 10
3.710721
 20
6.610747
 42
0.077668
 10
3.703088
 20
6.588628
 42
0.087297
 10
3.703024
 20
6.567778
 42
0.105585
 10
3.710524
 20
6.549077
 42
0.123539
  0
LWPOLYLINE
  5
401
330
18
100
AcDbEntity
  8
0
100
AcDbPolyline
 90
       16
 70
     1
 43
0.0
 10
3.724584
 20
6.194039
 42
0.123539
 10
3.741373
 20
6.189905
 42
0.105585
 10
3.761058
 20
6.194199
 42
0.087297
 10
3.778275
 20
6.20596
 42
0.077668
 10
3.792292
 20
6.224695
 42
0.077668
 10
3.799925
 20
6.246814
 42
0.087297
 10
3.799989
 20
6.267664
 42
0.105585
 10
3.792489
 20
6.286365
 42
0.123539
 10
3.77964
 20
6.297935
 42
0.123539
 10
3.762852
 20
6.30207
 42
0.105585
 10
3.743166
 20
6.297776
 42
0.087297
 10
3.725949
 20
6.286015
 42
0.077668
 10
3.711932
 20
6.26728
 42
0.077668
 10
3.704299
 20
6.245161
 42
0.087297
 10
3.704235
 20
6.22431
 42
0.105585
 10
3.711735
 20
6.20561
 42
0.123539
  0
ARC
  5
414
330
18
100
AcDbEntity
  8
0
100
AcDbCircle
 10
3.999794
 20
7.512363000000001
 30
0.0
 40
0.05
100
AcDbArc
 50
54.404511
 51
110.656525
  0
LWPOLYLINE
  5
415
330
18
100
AcDbEntity
  8
0
100
AcDbPolyline
 90
       16
 70
     1
 43
0.0
 10
3.950908
 20
7.248398
 42
0.123539
 10
3.967697
 20
7.244264
 42
0.105585
 10
3.987382
 20
7.248558
 42
0.087297
 10
4.004599
 20
7.260319
 42
0.077668
 10
4.018616000000001
 20
7.279054
 42
0.077668
 10
4.026249
 20
7.301173
 42
0.087297
 10
4.026313
 20
7.322023
 42
0.105585
 10
4.018813
 20
7.340724000000001
 42
0.123539
 10
4.005965
 20
7.352294000000001
 42
0.123539
 10
3.989176
 20
7.356428999999999
 42
0.105585
 10
3.96949
 20
7.352135000000001
 42
0.087297
 10
3.952273
 20
7.340374000000001
 42
0.077668
 10
3.938256
 20
7.321639
 42
0.077668
 10
3.930624
 20
7.299519999999999
 42
0.087297
 10
3.930559
 20
7.278669
 42
0.105585
 10
3.93806
 20
7.259969
 42
0.123539
  0
LWPOLYLINE
  5
428
330
18
100
AcDbEntity
  8
0
100
AcDbPolyline
 90
       16
 70
     1
 43
0.0
 10
3.728432
 20
7.292742
 42
0.123539
 10
3.743541000000001
 20
7.28902
 42
0.105585
 10
3.761259
 20
7.292885000000001
 42
0.087297
 10
3.776754
 20
7.30347
 42
0.077668
 10
3.789369
 20
7.320332000000001
 42
0.077668
 10
3.796238
 20
7.340239
 42
0.087297
 10
3.796296
 20
7.359004
 42
0.105585
 10
3.789546
 20
7.375833999999999
 42
0.123539
 10
3.777983
 20
7.386247999999999
 42
0.123539
 10
3.762873
 20
7.389969000000001
 42
0.105585
 10
3.745155000000001
 20
7.386105000000001
 42
0.087297
 10
3.72966
 20
7.37552
 42
0.077668
 10
3.717045
 20
7.358658
 42
0.077668
 10
3.710176
 20
7.338750999999999
 42
0.087297
 10
3.710118
 20
7.319986
 42
0.105585
 10
3.716868
 20
7.303155
 42
0.123539
  0
LINE
  5
43B
330
18
100
AcDbEntity
  8
0
100
AcDbLine
 10
4.869032
 20
4.172149
 30
0.0
 11
4.869032
 21
4.485592
 31
0.0
  0
LWPOLYLINE
  5
43C
330
18
100
AcDbEntity
  8
0
100
AcDbPolyline
 90
        5
 70
     0
 43
0.0
 10
4.869032
 20
4.172149
 42
0.037862
 10
4.858342
 20
4.169206
 42
0.080601
 10
4.843467
 20
4.160978
 42
0.107056
 10
4.833158999999999
 20
4.148525
 42
0.138145
 10
4.830607
 20
4.136164
 42
0.138145
  0
LWPOLYLINE
  5
444
330
18
100
AcDbEntity
  8
0
100
AcDbPolyline
 90
        5
 70
     0
 43
0.0
 10
4.830607
 20
4.136164
 42
0.138145
 10
4.834883000000001
 20
4.124288
 42
0.107056
 10
4.846849
 20
4.113419
 42
0.080601
 10
4.862739
 20
4.107379
 42
0.021743
 10
4.869032
 20
4.10637
 42
0.068453
  0
LWPOLYLINE
  5
44C
330
18
100
AcDbEntity
  8
0
100
AcDbPolyline
 90
        6
 70
     0
 43
0.0
 10
1.848795
 20
4.341609
 10
1.84749
 20
4.342354
 10
1.83143
 20
4.347365
 10
1.808342
 20
4.358396
 10
1.790275
 20
4.363407
 10
1.780294
 20
4.365504000000001
  0
LINE
  5
455
330
18
100
AcDbEntity
  8
0
100
AcDbLine
 10
4.090074
 20
6.216419999999999
 30
0.0
 11
4.090074
 21
7.509229
 31
0.0
  0
LINE
  5
456
330
18
100
AcDbEntity
  8
0
100
AcDbLine
 10
4.140073999999999
 20
6.22506
 30
0.0
 11
4.140073999999999
 21
7.473438000000001
 31
0.0
  0
LWPOLYLINE
  5
457
330
18
100
AcDbEntity
  8
0
100
AcDbPolyline
 90
        6
 70
     0
 43
0.0
 10
4.040654
 20
6.16981
 42
0.18033
 10
4.047736
 20
6.157962
 42
0.103102
 10
4.068808
 20
6.147265
 42
0.062727
 10
4.094207
 20
6.143712
 42
0.008551
 10
4.12845
 20
6.143321
 10
4.140073999999999
 20
6.14415
  0
LINE
  5
460
330
18
100
AcDbEntity
  8
0
100
AcDbLine
 10
3.617299
 20
6.040751
 30
0.0
 11
3.617299
 21
7.318303
 31
0.0
  0
LWPOLYLINE
  5
461
330
18
100
AcDbEntity
  8
0
100
AcDbPolyline
 90
        4
 70
     0
 43
0.0
 10
3.661351
 20
6.013094000000001
 42
0.176195
 10
3.653919
 20
6.025948000000001
 42
0.103926
 10
3.632152
 20
6.037576000000001
 42
0.036474
 10
3.617299
 20
6.040751
 42
0.050517
  0
LWPOLYLINE
  5
468
330
18
100
AcDbEntity
  8
0
100
AcDbPolyline
 90
        5
 70
     0
 43
0.0
 10
3.617299
 20
5.966468
 42
0.002656
 10
3.618968
 20
5.967119
 42
0.064354
 10
3.642345
 20
5.980068
 42
0.103926
 10
3.65879
 20
5.998469
 42
0.176195
 10
3.661351
 20
6.013094000000001
 42
0.176195
  0
LINE
  5
470
330
18
100
AcDbEntity
  8
0
100
AcDbLine
 10
4.389044
 20
4.35956
 30
0.0
 11
4.389044
 21
4.555192
 31
0.0
  0
LINE
  5
471
330
18
100
AcDbEntity
  8
0
100
AcDbLine
 10
4.339044
 20
4.35499
 30
0.0
 11
4.339044
 21
4.618440000000001
 31
0.0
  0
LINE
  5
472
330
18
100
AcDbEntity
  8
0
100
AcDbLine
 10
4.223972
 20
4.798754
 30
0.0
 11
4.223972
 21
2.281316
 31
0.0
  0
ARC
  5
473
330
18
100
AcDbEntity
  8
0
100
AcDbCircle
 10
4.377115
 20
4.323403
 30
0.0
 40
0.038074
100
AcDbArc
 50
281.691008
 51
88.52259599999999
  0
ARC
  5
474
330
18
100
AcDbEntity
  8
0
100
AcDbCircle
 10
4.331087999999999
 20
4.299087
 30
0.0
 40
0.056496
100
AcDbArc
 50
347.039941
 51
81.90431
  0
LINE
  5
475
330
18
100
AcDbEntity
  8
0
100
AcDbLine
 10
4.126271
 20
6.224221
 30
0.0
 11
4.122927
 21
6.163812999999999
 31
0.0
  0
ARC
  5
476
330
18
100
AcDbEntity
  8
0
100
AcDbCircle
 10
4.141397
 20
5.996784
 30
0.0
 40
0.168047
100
AcDbArc
 50
96.31020699999999
 51
111.631234
  0
ARC
  5
477
330
18
100
AcDbEntity
  8
0
100
AcDbCircle
 10
4.117278
 20
6.057606
 30
0.0
 40
0.102617
100
AcDbArc
 50
111.631234
 51
118.795987
  0
ARC
  5
478
330
18
100
AcDbEntity
  8
0
100
AcDbCircle
 10
4.143361
 20
6.057045
 30
0.0
 40
0.168047
100
AcDbArc
 50
91.12076400000001
 51
100.423553
  0
ARC
  5
479
330
18
100
AcDbEntity
  8
0
100
AcDbCircle
 10
4.143361
 20
6.057045
 30
0.0
 40
0.168047
100
AcDbArc
 50
100.423553
 51
111.631234
  0
ARC
  5
47A
330
18
100
AcDbEntity
  8
0
100
AcDbCircle
 10
4.119241000000001
 20
6.117867
 30
0.0
 40
0.102617
100
AcDbArc
 50
111.631234
 51
125.988303
  0
ARC
  5
47B
330
18
100
AcDbEntity
  8
0
100
AcDbCircle
 10
4.092969999999999
 20
6.154042
 30
0.0
 40
0.057909
100
AcDbArc
 50
125.988303
 51
149.534359
  0
ARC
  5
47C
330
18
100
AcDbEntity
  8
0
100
AcDbCircle
 10
4.060087
 20
6.173385
 30
0.0
 40
0.019759
100
AcDbArc
 50
149.534359
 51
190.423553
  0
LINE
  5
47D
330
18
100
AcDbEntity
  8
0
100
AcDbLine
 10
4.378096
 20
4.361465
 30
0.0
 11
4.339044
 21
4.35499
 31
0.0
  0
LINE
  5
47E
330
18
100
AcDbEntity
  8
0
100
AcDbLine
 10
4.38483
 20
4.286119
 30
0.0
 11
4.362287
 21
4.280907
 31
0.0
  0
ARC
  5
47F
330
18
100
AcDbEntity
  8
0
100
AcDbCircle
 10
4.369044000000001
 20
4.251678
 30
0.0
 40
0.03
100
AcDbArc
 50
103.017238
 51
180.0
  0
TEXT
  5
480
330
18
100
AcDbEntity
  8
0
100
AcDbText
 10
1.59156
 20
0.8631540000000001
 30
0.0
 40
0.22
  1
Simpson Strong-Tie
100
AcDbText
  0
TEXT
  5
481
330
18
100
AcDbEntity
  8
0
100
AcDbText
 10
1.59156
 20
0.5069630000000001
 30
0.0
 40
0.22
  1
MTS
100
AcDbText
  0
ENDSEC
  0
SECTION
  2
OBJECTS
  0
DICTIONARY
  5
C
330
0
100
AcDbDictionary
281
     1
  3
ACAD_COLOR
350
487
  3
ACAD_GROUP
350
D
  3
ACAD_LAYOUT
350
15
  3
ACAD_MATERIAL
350
489
  3
ACAD_MLINESTYLE
350
12
  3
ACAD_PLOTSETTINGS
350
14
  3
ACAD_PLOTSTYLENAME
350
E
  3
ACDBHEADERROUNDTRIPXREC
350
486
  0
DICTIONARY
  5
487
102
{ACAD_REACTORS
330
C
102
}
330
C
100
AcDbDictionary
281
     1
  0
DICTIONARY
  5
D
102
{ACAD_REACTORS
330
C
102
}
330
C
100
AcDbDictionary
281
     1
  0
DICTIONARY
  5
15
102
{ACAD_REACTORS
330
C
102
}
330
C
100
AcDbDictionary
281
     1
  3
Layout1
350
17
  3
Model
350
19
  0
DICTIONARY
  5
489
102
{ACAD_REACTORS
330
C
102
}
330
C
100
AcDbDictionary
281
     1
  0
DICTIONARY
  5
12
102
{ACAD_REACTORS
330
C
102
}
330
C
100
AcDbDictionary
281
     1
  3
Standard
350
13
  0
DICTIONARY
  5
14
102
{ACAD_REACTORS
330
C
102
}
330
C
100
AcDbDictionary
281
     1
  0
ACDBDICTIONARYWDFLT
  5
E
102
{ACAD_REACTORS
330
C
102
}
330
C
100
AcDbDictionary
281
     1
  3
Normal
350
F
100
AcDbDictionaryWithDefault
340
F
  0
DICTIONARY
  5
486
102
{ACAD_REACTORS
330
C
102
}
330
C
100
AcDbDictionary
281
     1
  3
COLORDICT
350
488
  3
MATERIALDICT
350
48A
  0
LAYOUT
  5
17
102
{ACAD_REACTORS
330
15
102
}
102
{ACAD_XDICTIONARY
360
48B
102
}
330
15
100
AcDbPlotSettings
  1

  2

  4

  6

 40
0.0
 41
0.0
 42
0.0
 43
0.0
 44
0.0
 45
0.0
 46
0.0
 47
0.0
 48
0.0
 49
0.0
140
0.0
141
0.0
142
1.0
143
1.0
 70
   688
 72
     0
 73
     0
 74
     5
  7

 75
    16
147
1.0
148
0.0
149
0.0
100
AcDbLayout
  1
Layout1
 70
     1
 71
     1
 10
0.0
 20
0.0
 11
12.0
 21
9.0
 12
0.0
 22
0.0
 32
0.0
 14
1.000000000000000E+20
 24
1.000000000000000E+20
 34
1.000000000000000E+20
 15
-1.000000000000000E+20
 25
-1.000000000000000E+20
 35
-1.000000000000000E+20
146
0.0
 13
0.0
 23
0.0
 33
0.0
 16
1.0
 26
0.0
 36
0.0
 17
0.0
 27
1.0
 37
0.0
 76
     0
330
16
  0
LAYOUT
  5
19
102
{ACAD_REACTORS
330
15
102
}
102
{ACAD_XDICTIONARY
360
48D
102
}
330
15
100
AcDbPlotSettings
  1

  2

  4

  6

 40
0.0
 41
0.0
 42
0.0
 43
0.0
 44
0.0
 45
0.0
 46
0.0
 47
0.0
 48
0.0
 49
0.0
140
0.0
141
0.0
142
1.0
143
1.0
 70
  1712
 72
     0
 73
     0
 74
     0
  7

 75
     0
147
1.0
148
0.0
149
0.0
100
AcDbLayout
  1
Model
 70
     1
 71
     0
 10
0.0
 20
0.0
 11
0.0
 21
0.0
 12
0.0
 22
0.0
 32
0.0
 14
0.0
 24
0.0
 34
0.0
 15
0.0
 25
0.0
 35
0.0
146
0.0
 13
0.0
 23
0.0
 33
0.0
 16
1.0
 26
0.0
 36
0.0
 17
0.0
 27
1.0
 37
0.0
 76
     0
330
18
  0
MLINESTYLE
  5
13
102
{ACAD_REACTORS
330
12
102
}
330
12
100
AcDbMlineStyle
  2
Standard
 70
     0
  3

 62
   256
 51
90.0
 52
90.0
 71
     2
 49
0.5
 62
   256
  6
BYLAYER
 49
-0.5
 62
   256
  6
BYLAYER
  0
ACDBPLACEHOLDER
  5
F
102
{ACAD_REACTORS
330
E
102
}
330
E
  0
XRECORD
  5
488
102
{ACAD_REACTORS
330
486
102
}
330
486
100
AcDbXrecord
340
487
  0
XRECORD
  5
48A
102
{ACAD_REACTORS
330
486
102
}
330
486
100
AcDbXrecord
340
489
  0
DICTIONARY
  5
48B
330
17
100
AcDbDictionary
280
     1
281
     1
  3
ACAD_XREC_ROUNDTRIP
360
48C
  0
DICTIONARY
  5
48D
330
19
100
AcDbDictionary
280
     1
281
     1
  3
ACAD_XREC_ROUNDTRIP
360
48E
  0
XRECORD
  5
48C
102
{ACAD_REACTORS
330
48B
102
}
330
48B
100
AcDbXrecord
102
SHADEPLOT
 70
 -8048
102
SHADEPLOTRESLEVEL
 70
  6792
102
SHADEPLOTCUSTOMDPI
 70
  9040
  0
XRECORD
  5
48E
102
{ACAD_REACTORS
330
48D
102
}
330
48D
100
AcDbXrecord
102
SHADEPLOT
 70
 -7696
102
SHADEPLOTRESLEVEL
 70
 -7656
102
SHADEPLOTCUSTOMDPI
 70
 -8904
  0
ENDSEC
  0
EOF
