  0
SECTION
  2
HEADER
  9
$ACADVER
  1
AC1015
  9
$ACADMAINTVER
 70
     6
  9
$DWGCODEPAGE
  3
ISO8859-1
  9
$INSBASE
 10
0.0
 20
0.0
 30
0.0
  9
$EXTMIN
 10
4.402706608871593
 20
0.4114540504742068
 30
0.0
  9
$EXTMAX
 10
9.806340616955293
 20
8.818045508705904
 30
0.0
  9
$LIMMIN
 10
0.0
 20
0.0
  9
$LIMMAX
 10
12.0
 20
9.0
  9
$ORTHOMODE
 70
     0
  9
$REGENMODE
 70
     1
  9
$FILLMODE
 70
     1
  9
$QTEXTMODE
 70
     0
  9
$MIRRTEXT
 70
     1
  9
$LTSCALE
 40
1.0
  9
$ATTMODE
 70
     1
  9
$TEXTSIZE
 40
0.2
  9
$TRACEWID
 40
0.05
  9
$TEXTSTYLE
  7
STANDARD
  9
$CLAYER
  8
0
  9
$CELTYPE
  6
ByLayer
  9
$CECOLOR
 62
   256
  9
$CELTSCALE
 40
1.0
  9
$DISPSILH
 70
     0
  9
$DIMSCALE
 40
1.0
  9
$DIMASZ
 40
0.18
  9
$DIMEXO
 40
0.0625
  9
$DIMDLI
 40
0.38
  9
$DIMRND
 40
0.0
  9
$DIMDLE
 40
0.0
  9
$DIMEXE
 40
0.18
  9
$DIMTP
 40
0.0
  9
$DIMTM
 40
0.0
  9
$DIMTXT
 40
0.18
  9
$DIMCEN
 40
0.09
  9
$DIMTSZ
 40
0.0
  9
$DIMTOL
 70
     0
  9
$DIMLIM
 70
     0
  9
$DIMTIH
 70
     1
  9
$DIMTOH
 70
     1
  9
$DIMSE1
 70
     0
  9
$DIMSE2
 70
     0
  9
$DIMTAD
 70
     0
  9
$DIMZIN
 70
     0
  9
$DIMBLK
  1

  9
$DIMASO
 70
     1
  9
$DIMSHO
 70
     1
  9
$DIMPOST
  1

  9
$DIMAPOST
  1

  9
$DIMALT
 70
     0
  9
$DIMALTD
 70
     2
  9
$DIMALTF
 40
25.4
  9
$DIMLFAC
 40
1.0
  9
$DIMTOFL
 70
     0
  9
$DIMTVP
 40
0.0
  9
$DIMTIX
 70
     0
  9
$DIMSOXD
 70
     0
  9
$DIMSAH
 70
     0
  9
$DIMBLK1
  1

  9
$DIMBLK2
  1

  9
$DIMSTYLE
  2
Standard
  9
$DIMCLRD
 70
     0
  9
$DIMCLRE
 70
     0
  9
$DIMCLRT
 70
     0
  9
$DIMTFAC
 40
1.0
  9
$DIMGAP
 40
0.09
  9
$DIMJUST
 70
     0
  9
$DIMSD1
 70
     0
  9
$DIMSD2
 70
     0
  9
$DIMTOLJ
 70
     1
  9
$DIMTZIN
 70
     0
  9
$DIMALTZ
 70
     0
  9
$DIMALTTZ
 70
     0
  9
$DIMUPT
 70
     0
  9
$DIMDEC
 70
     4
  9
$DIMTDEC
 70
     4
  9
$DIMALTU
 70
     2
  9
$DIMALTTD
 70
     2
  9
$DIMTXSTY
  7
STANDARD
  9
$DIMAUNIT
 70
     0
  9
$DIMADEC
 70
     0
  9
$DIMALTRND
 40
0.0
  9
$DIMAZIN
 70
     0
  9
$DIMDSEP
 70
    46
  9
$DIMATFIT
 70
     3
  9
$DIMFRAC
 70
     0
  9
$DIMLDRBLK
  1

  9
$DIMLUNIT
 70
     2
  9
$DIMLWD
 70
    -2
  9
$DIMLWE
 70
    -2
  9
$DIMTMOVE
 70
     0
  9
$LUNITS
 70
     2
  9
$LUPREC
 70
     4
  9
$SKETCHINC
 40
0.1
  9
$FILLETRAD
 40
0.0
  9
$AUNITS
 70
     0
  9
$AUPREC
 70
     0
  9
$MENU
  1
acad
  9
$ELEVATION
 40
0.0
  9
$PELEVATION
 40
0.0
  9
$THICKNESS
 40
0.0
  9
$LIMCHECK
 70
     0
  9
$CHAMFERA
 40
0.0
  9
$CHAMFERB
 40
0.0
  9
$CHAMFERC
 40
1.0
  9
$CHAMFERD
 40
0.0
  9
$SKPOLY
 70
     0
  9
$TDCREATE
 40
2453955.561264248
  9
$TDUCREATE
 40
2453955.894597581
  9
$TDUPDATE
 40
2453955.602930926
  9
$TDUUPDATE
 40
2453955.894597593
  9
$TDINDWG
 40
0.0000000116
  9
$TDUSRTIMER
 40
0.0000000116
  9
$USRTIMER
 70
     1
  9
$ANGBASE
 50
0.0
  9
$ANGDIR
 70
     0
  9
$PDMODE
 70
     0
  9
$PDSIZE
 40
0.0
  9
$PLINEWID
 40
0.0
  9
$SPLFRAME
 70
     0
  9
$SPLINETYPE
 70
     6
  9
$SPLINESEGS
 70
     8
  9
$HANDSEED
  5
A97
  9
$SURFTAB1
 70
     6
  9
$SURFTAB2
 70
     6
  9
$SURFTYPE
 70
     6
  9
$SURFU
 70
     6
  9
$SURFV
 70
     6
  9
$UCSBASE
  2

  9
$UCSNAME
  2

  9
$UCSORG
 10
0.0
 20
0.0
 30
0.0
  9
$UCSXDIR
 10
1.0
 20
0.0
 30
0.0
  9
$UCSYDIR
 10
0.0
 20
1.0
 30
0.0
  9
$UCSORTHOREF
  2

  9
$UCSORTHOVIEW
 70
     0
  9
$UCSORGTOP
 10
0.0
 20
0.0
 30
0.0
  9
$UCSORGBOTTOM
 10
0.0
 20
0.0
 30
0.0
  9
$UCSORGLEFT
 10
0.0
 20
0.0
 30
0.0
  9
$UCSORGRIGHT
 10
0.0
 20
0.0
 30
0.0
  9
$UCSORGFRONT
 10
0.0
 20
0.0
 30
0.0
  9
$UCSORGBACK
 10
0.0
 20
0.0
 30
0.0
  9
$PUCSBASE
  2

  9
$PUCSNAME
  2

  9
$PUCSORG
 10
0.0
 20
0.0
 30
0.0
  9
$PUCSXDIR
 10
1.0
 20
0.0
 30
0.0
  9
$PUCSYDIR
 10
0.0
 20
1.0
 30
0.0
  9
$PUCSORTHOREF
  2

  9
$PUCSORTHOVIEW
 70
     0
  9
$PUCSORGTOP
 10
0.0
 20
0.0
 30
0.0
  9
$PUCSORGBOTTOM
 10
0.0
 20
0.0
 30
0.0
  9
$PUCSORGLEFT
 10
0.0
 20
0.0
 30
0.0
  9
$PUCSORGRIGHT
 10
0.0
 20
0.0
 30
0.0
  9
$PUCSORGFRONT
 10
0.0
 20
0.0
 30
0.0
  9
$PUCSORGBACK
 10
0.0
 20
0.0
 30
0.0
  9
$USERI1
 70
     0
  9
$USERI2
 70
     0
  9
$USERI3
 70
     0
  9
$USERI4
 70
     0
  9
$USERI5
 70
     0
  9
$USERR1
 40
0.0
  9
$USERR2
 40
0.0
  9
$USERR3
 40
0.0
  9
$USERR4
 40
0.0
  9
$USERR5
 40
0.0
  9
$WORLDVIEW
 70
     1
  9
$SHADEDGE
 70
     3
  9
$SHADEDIF
 70
    70
  9
$TILEMODE
 70
     1
  9
$MAXACTVP
 70
    16
  9
$PINSBASE
 10
0.0
 20
0.0
 30
0.0
  9
$PLIMCHECK
 70
     0
  9
$PEXTMIN
 10
1.000000000000000E+20
 20
1.000000000000000E+20
 30
1.000000000000000E+20
  9
$PEXTMAX
 10
-1.000000000000000E+20
 20
-1.000000000000000E+20
 30
-1.000000000000000E+20
  9
$PLIMMIN
 10
0.0
 20
0.0
  9
$PLIMMAX
 10
12.0
 20
9.0
  9
$UNITMODE
 70
     0
  9
$VISRETAIN
 70
     0
  9
$PLINEGEN
 70
     0
  9
$PSLTSCALE
 70
     1
  9
$TREEDEPTH
 70
  3020
  9
$CMLSTYLE
  2
Standard
  9
$CMLJUST
 70
     0
  9
$CMLSCALE
 40
1.0
  9
$PROXYGRAPHICS
 70
     1
  9
$MEASUREMENT
 70
     0
  9
$CELWEIGHT
370
    -1
  9
$ENDCAPS
280
     0
  9
$JOINSTYLE
280
     0
  9
$LWDISPLAY
290
     0
  9
$INSUNITS
 70
     1
  9
$HYPERLINKBASE
  1

  9
$STYLESHEET
  1

  9
$XEDIT
290
     1
  9
$CEPSNTYPE
380
     0
  9
$PSTYLEMODE
290
     0
  9
$FINGERPRINTGUID
  2
{FAEB1C30-E019-11D5-929B-00C0DF256EC4}
  9
$VERSIONGUID
  2
{FAEB1C32-E019-11D5-929B-00C0DF256EC4}
  9
$EXTNAMES
290
     1
  9
$PSVPSCALE
 40
0.0
  9
$OLESTARTUP
290
     0
  0
ENDSEC
  0
SECTION
  2
CLASSES
  0
CLASS
  1
ACDBDICTIONARYWDFLT
  2
AcDbDictionaryWithDefault
  3
AutoCAD 2000
 90
        0
280
     0
281
     0
  0
CLASS
  1
ACDBPLACEHOLDER
  2
AcDbPlaceHolder
  3
ObjectDBX Classes
 90
        0
280
     0
281
     0
  0
CLASS
  1
LAYOUT
  2
AcDbLayout
  3
ObjectDBX Classes
 90
        0
280
     0
281
     0
  0
ENDSEC
  0
SECTION
  2
TABLES
  0
TABLE
  2
VPORT
  5
8
330
0
100
AcDbSymbolTable
 70
     2
  0
VPORT
  5
1F
330
8
100
AcDbSymbolTableRecord
100
AcDbViewportTableRecord
  2
*ACTIVE
 70
     0
 10
0.0
 20
0.0
 11
1.0
 21
1.0
 12
10.75178820293188
 22
4.614749779590055
 13
0.0
 23
0.0
 14
1.0
 24
1.0
 15
0.0
 25
0.0
 16
0.0
 26
0.0
 36
1.0
 17
0.0
 27
0.0
 37
0.0
 40
8.406591458231697
 41
0.6620320855614974
 42
50.0
 43
0.0
 44
0.0
 50
0.0
 51
0.0
 71
     0
 72
   100
 73
     1
 74
     0
 75
     0
 76
     0
 77
     0
 78
     0
281
     0
 65
     1
110
0.0
120
0.0
130
0.0
111
1.0
121
0.0
131
0.0
112
0.0
122
1.0
132
0.0
 79
     0
146
0.0
  0
ENDTAB
  0
TABLE
  2
LTYPE
  5
5
330
0
100
AcDbSymbolTable
 70
     2
  0
LTYPE
  5
10
330
5
100
AcDbSymbolTableRecord
100
AcDbLinetypeTableRecord
  2
ByBlock
 70
     0
  3

 72
    65
 73
     0
 40
0.0
  0
LTYPE
  5
11
330
5
100
AcDbSymbolTableRecord
100
AcDbLinetypeTableRecord
  2
ByLayer
 70
     0
  3

 72
    65
 73
     0
 40
0.0
  0
LTYPE
  5
1B
330
5
100
AcDbSymbolTableRecord
100
AcDbLinetypeTableRecord
  2
CONTINUOUS
 70
     0
  3
Solid line
 72
    65
 73
     0
 40
0.0
  0
LTYPE
  5
1C
330
5
100
AcDbSymbolTableRecord
100
AcDbLinetypeTableRecord
  2
HIDDEN
 70
     0
  3
Hidden __ __ __ __ __ __ __ __ __ __ __ __ __ _
 72
    65
 73
     2
 40
0.375
 49
0.25
 74
     0
 49
-0.125
 74
     0
  0
ENDTAB
  0
TABLE
  2
LAYER
  5
2
330
0
100
AcDbSymbolTable
 70
     1
  0
LAYER
  5
1D
330
2
100
AcDbSymbolTableRecord
100
AcDbLayerTableRecord
  2
0
 70
     0
 62
     7
  6
CONTINUOUS
370
    -3
390
F
  0
ENDTAB
  0
TABLE
  2
STYLE
  5
3
330
0
100
AcDbSymbolTable
 70
     1
  0
STYLE
  5
21
330
3
100
AcDbSymbolTableRecord
100
AcDbTextStyleTableRecord
  2
STANDARD
 70
     0
 40
0.0
 41
1.0
 50
0.0
 71
     0
 42
0.2
  3
ROMANS.SHX
  4

  0
ENDTAB
  0
TABLE
  2
VIEW
  5
6
330
0
100
AcDbSymbolTable
 70
     0
  0
ENDTAB
  0
TABLE
  2
UCS
  5
7
330
0
100
AcDbSymbolTable
 70
     0
  0
ENDTAB
  0
TABLE
  2
APPID
  5
9
330
0
100
AcDbSymbolTable
 70
     1
  0
APPID
  5
20
330
9
100
AcDbSymbolTableRecord
100
AcDbRegAppTableRecord
  2
ACAD
 70
     0
  0
ENDTAB
  0
TABLE
  2
DIMSTYLE
  5
A
330
0
100
AcDbSymbolTable
 70
     1
100
AcDbDimStyleTable
  0
DIMSTYLE
105
22
330
A
100
AcDbSymbolTableRecord
100
AcDbDimStyleTableRecord
  2
Standard
 70
     0
  3

  4

340
21
  0
ENDTAB
  0
TABLE
  2
BLOCK_RECORD
  5
1
330
0
100
AcDbSymbolTable
 70
     0
  0
BLOCK_RECORD
  5
18
330
1
100
AcDbSymbolTableRecord
100
AcDbBlockTableRecord
  2
*Model_Space
340
19
  0
BLOCK_RECORD
  5
16
330
1
100
AcDbSymbolTableRecord
100
AcDbBlockTableRecord
  2
*Paper_Space
340
17
  0
ENDTAB
  0
ENDSEC
  0
SECTION
  2
BLOCKS
  0
BLOCK
  5
A8C
330
18
100
AcDbEntity
  8
0
100
AcDbBlockBegin
  2
*Model_Space
 70
     0
 10
0.0
 20
0.0
 30
0.0
  3
*Model_Space
  1

  4

  0
ENDBLK
  5
A8D
330
18
100
AcDbEntity
  8
0
100
AcDbBlockEnd
  0
BLOCK
  5
A8A
330
16
100
AcDbEntity
 67
     1
  8
0
100
AcDbBlockBegin
  2
*Paper_Space
 70
     0
 10
0.0
 20
0.0
 30
0.0
  3
*Paper_Space
  1

  4

  0
ENDBLK
  5
A8B
330
16
100
AcDbEntity
 67
     1
  8
0
100
AcDbBlockEnd
  0
ENDSEC
  0
SECTION
  2
ENTITIES
  0
TEXT
  5
23
330
18
100
AcDbEntity
  8
0
100
AcDbText
 10
7.06348347409815
 20
0.5786361302354847
 30
0.0
 40
0.18
  1
MTS30
100
AcDbText
  0
TEXT
  5
24
330
18
100
AcDbEntity
  8
0
100
AcDbText
 10
7.06348347409815
 20
0.8700647016640561
 30
0.0
 40
0.18
  1
Simpson Strong-Tie
100
AcDbText
  0
LINE
  5
25
330
18
100
AcDbEntity
  8
0
  6
HIDDEN
100
AcDbLine
 10
6.637975114070962
 20
7.926165063417935
 30
0.0
 11
6.637975114070962
 21
7.87656769509714
 31
0.0
  0
LINE
  5
26
330
18
100
AcDbEntity
  8
0
  6
HIDDEN
100
AcDbLine
 10
6.773457801964374
 20
8.071304853203092
 30
0.0
 11
6.691308447404294
 21
8.071304853203092
 31
0.0
  0
LINE
  5
27
330
18
100
AcDbEntity
  8
0
100
AcDbLine
 10
6.741363976805909
 20
5.683105993655677
 30
0.0
 11
6.741363976805909
 21
6.053358260033434
 31
0.0
  0
LINE
  5
28
330
18
100
AcDbEntity
  8
0
100
AcDbLine
 10
6.921703650669532
 20
8.071304853203094
 30
0.0
 11
5.893305173263798
 21
8.818045508705904
 31
0.0
  0
LINE
  5
29
330
18
100
AcDbEntity
  8
0
100
AcDbLine
 10
8.693728222427488
 20
3.872599353228607
 30
0.0
 11
8.592220121891698
 21
3.926103781110816
 31
0.0
  0
LINE
  5
2A
330
18
100
AcDbEntity
  8
0
100
AcDbLine
 10
8.592220121891698
 20
4.174900301288883
 30
0.0
 11
8.499060466016429
 21
4.224004304447256
 31
0.0
  0
ARC
  5
2B
330
18
100
AcDbEntity
  8
0
100
AcDbCircle
 10
6.799725645828887
 20
5.553303700023575
 30
0.0
 40
0.1067
100
AcDbArc
 50
138.2236224925551
 51
180.0
  0
LWPOLYLINE
  5
2C
330
18
100
AcDbEntity
  8
0
100
AcDbPolyline
 90
       33
 70
   129
 43
0.0
 10
6.944837927878158
 20
7.837576236029864
 10
6.94390638501656
 20
7.835730750836931
 10
6.943543459910462
 20
7.833563528875551
 10
6.943762269618788
 20
7.83115289919405
 10
6.944554905788579
 20
7.828585988229952
 10
6.945892720483463
 20
7.82595557083352
 10
6.947727361594725
 20
7.823356717142946
 10
6.949992520412494
 20
7.820883356501858
 10
6.952606328195283
 20
7.818624882608099
 10
6.95547431511961
 20
7.816662922592589
 10
6.958492824665564
 20
7.815068386802124
 10
6.961552760033505
 20
7.813898905914694
 10
6.96454352718665
 20
7.813196748016623
 10
6.967357032007717
 20
7.812987290923803
 10
6.969891587101959
 20
7.813278104961303
 10
6.972055587044549
 20
7.814058679352099
 10
6.973770819239316
 20
7.815300802103941
 10
6.974975290725748
 20
7.81695957966426
 10
6.975625468766105
 20
7.81897505949012
 10
6.975697854231985
 20
7.821274396889335
 10
6.975189830924053
 20
7.823774487817431
 10
6.974119760128301
 20
7.826384972474345
 10
6.972526316991328
 20
7.829011501143023
 10
6.970467092699781
 20
7.831559144234026
 10
6.968016512984812
 20
7.833935823288226
 10
6.965263148182244
 20
7.836055638932227
 10
6.962306512069862
 20
7.83784197550553
 10
6.959253465180211
 20
7.83923027015012
 10
6.956214352582517
 20
7.840170346280375
 10
6.953299015724391
 20
7.840628227095603
 10
6.950612822475723
 20
7.840587363590147
 10
6.948252858859327
 20
7.84004923267756
 10
6.946304420109126
 20
7.839033283811112
  0
LINE
  5
50
330
18
100
AcDbEntity
  8
0
100
AcDbLine
 10
6.997208708756932
 20
7.927462680641592
 30
0.0
 11
7.000892258893813
 21
7.934206580166213
 31
0.0
  0
LINE
  5
51
330
18
100
AcDbEntity
  8
0
100
AcDbLine
 10
6.935121816483748
 20
7.976654605424818
 30
0.0
 11
6.931642614388113
 21
7.970303780156335
 31
0.0
  0
LWPOLYLINE
  5
52
330
18
100
AcDbEntity
  8
0
100
AcDbPolyline
 90
       18
 70
   128
 43
0.0
 10
6.93164261438811
 20
7.970303780156331
 10
6.92960639797444
 20
7.965194148297886
 10
6.928761249782923
 20
7.959520822906888
 10
6.929136139918343
 20
7.953478275003574
 10
6.930718217845595
 20
7.947273631867734
 10
6.933453252882068
 20
7.94111957710161
 10
6.93724749312438
 20
7.935227060232417
 10
6.941970879088874
 20
7.929798065755729
 10
6.94746150190832
 20
7.925018689483436
 10
6.953531153266103
 20
7.921052759526164
 10
6.959971776826531
 20
7.918036220570995
 10
6.966562600018237
 20
7.916072473950968
 10
6.973077701706441
 20
7.915228833240112
 10
6.979293756348374
 20
7.915534216869582
 10
6.984997689176632
 20
7.916978156857748
 10
6.989993980005077
 20
7.919511157633087
 10
6.994111365296391
 20
7.923046392650124
 10
6.997208708756929
 20
7.927462680641586
  0
LWPOLYLINE
  5
67
330
18
100
AcDbEntity
  8
0
100
AcDbPolyline
 90
       33
 70
   129
 43
0.0
 10
6.998684404629871
 20
7.930916413136363
 10
7.001608114477055
 20
7.935637659986823
 10
7.003323213216475
 20
7.941085337556433
 10
7.00376771271104
 20
7.947062552584041
 10
7.002925547590888
 20
7.953353272945066
 10
7.000827155897698
 20
7.95973013561535
 10
6.997548378974569
 20
7.965962664163234
 10
6.993207720362274
 20
7.971825598768304
 10
6.987962062772535
 20
7.977107037698206
 10
6.982000997938075
 20
7.981616095989357
 10
6.975539974273412
 20
7.985189804526879
 10
6.968812510007822
 20
7.987699000173018
 10
6.962061753228098
 20
7.989052994059479
 10
6.955531693873187
 20
7.989202849319407
 10
6.949458345302078
 20
7.988143149793265
 10
6.944061214156087
 20
7.985912195782947
 10
6.939535366816918
 20
7.982590619779082
 10
6.936044379199386
 20
7.978298472192728
 10
6.933714424691673
 20
7.973190882420741
 10
6.932629713920322
 20
7.967452452065174
 10
6.932829451158796
 20
7.961290582950411
 10
6.934306417382887
 20
7.954927981080854
 10
6.937007231185057
 20
7.948594607465667
 10
6.940834278117597
 20
7.942519366728746
 10
6.945649238733088
 20
7.936921833899208
 10
6.951278087809631
 20
7.932004318397743
 10
6.957517384075775
 20
7.927944552047036
 10
6.964141623108135
 20
7.924889265380617
 10
6.970911387648793
 20
7.922948884419086
 10
6.977582000768803
 20
7.922193539586004
 10
6.983912369129893
 20
7.922650531011669
 10
6.98967369672588
 20
7.92430334183528
 10
6.994657754166451
 20
7.927092235167315
  0
LINE
  5
8B
330
18
100
AcDbEntity
  8
0
100
AcDbLine
 10
7.078337703875225
 20
7.872662691805003
 30
0.0
 11
7.07485850177959
 21
7.86631186653652
 31
0.0
  0
LINE
  5
8C
330
18
100
AcDbEntity
  8
0
100
AcDbLine
 10
7.140424596148409
 20
7.823470767021776
 30
0.0
 11
7.144108146285291
 21
7.830214666546397
 31
0.0
  0
LWPOLYLINE
  5
8D
330
18
100
AcDbEntity
  8
0
100
AcDbPolyline
 90
       33
 70
   129
 43
0.0
 10
7.141900292021348
 20
7.826924499516547
 10
7.144824001868532
 20
7.831645746367007
 10
7.146539100607952
 20
7.837093423936617
 10
7.146983600102518
 20
7.843070638964225
 10
7.146141434982365
 20
7.84936135932525
 10
7.144043043289175
 20
7.855738221995534
 10
7.140764266366046
 20
7.861970750543418
 10
7.136423607753751
 20
7.867833685148488
 10
7.131177950164013
 20
7.87311512407839
 10
7.125216885329552
 20
7.877624182369541
 10
7.118755861664889
 20
7.881197890907063
 10
7.112028397399299
 20
7.883707086553202
 10
7.105277640619575
 20
7.885061080439663
 10
7.098747581264664
 20
7.885210935699591
 10
7.092674232693556
 20
7.884151236173449
 10
7.087277101547564
 20
7.881920282163131
 10
7.082751254208395
 20
7.878598706159266
 10
7.079260266590864
 20
7.874306558572912
 10
7.07693031208315
 20
7.869198968800925
 10
7.075845601311799
 20
7.863460538445358
 10
7.076045338550273
 20
7.857298669330595
 10
7.077522304774364
 20
7.850936067461038
 10
7.080223118576535
 20
7.844602693845851
 10
7.084050165509074
 20
7.83852745310893
 10
7.088865126124565
 20
7.832929920279392
 10
7.094493975201108
 20
7.828012404777927
 10
7.100733271467252
 20
7.82395263842722
 10
7.107357510499612
 20
7.820897351760801
 10
7.11412727504027
 20
7.81895697079927
 10
7.12079788816028
 20
7.818201625966188
 10
7.12712825652137
 20
7.818658617391853
 10
7.132889584117357
 20
7.820311428215464
 10
7.137873641557929
 20
7.823100321547499
  0
LWPOLYLINE
  5
B1
330
18
100
AcDbEntity
  8
0
100
AcDbPolyline
 90
       18
 70
   128
 43
0.0
 10
7.074858501779588
 20
7.866311866536515
 10
7.072822285365917
 20
7.86120223467807
 10
7.0719771371744
 20
7.855528909287072
 10
7.072352027309821
 20
7.849486361383758
 10
7.073934105237072
 20
7.843281718247918
 10
7.076669140273546
 20
7.837127663481794
 10
7.080463380515857
 20
7.831235146612601
 10
7.085186766480351
 20
7.825806152135913
 10
7.090677389299797
 20
7.82102677586362
 10
7.09674704065758
 20
7.817060845906348
 10
7.103187664218008
 20
7.814044306951179
 10
7.109778487409714
 20
7.812080560331152
 10
7.116293589097919
 20
7.811236919620296
 10
7.122509643739851
 20
7.811542303249766
 10
7.128213576568109
 20
7.812986243237932
 10
7.133209867396555
 20
7.815519244013271
 10
7.137327252687868
 20
7.819054479030308
 10
7.140424596148407
 20
7.82347076702177
  0
LINE
  5
C6
330
18
100
AcDbEntity
  8
0
100
AcDbLine
 10
6.994125622528996
 20
7.315688718629898
 30
0.0
 11
7.00233573588661
 21
7.319100783577299
 31
0.0
  0
LWPOLYLINE
  5
C7
330
18
100
AcDbEntity
  8
0
100
AcDbPolyline
 90
       33
 70
   129
 43
0.0
 10
-7.001073036635526
 20
7.317005416630917
 10
-7.006261615169711
 20
7.316276408250388
 10
-7.011262664956962
 20
7.314115731371086
 10
-7.015895435027859
 20
7.310601478485017
 10
-7.019992485001474
 20
7.305860663847781
 10
-7.023405736817002
 20
7.300064632852439
 10
-7.026011826660688
 20
7.293422869160575
 10
-7.027716563655481
 20
7.286175423416959
 10
-7.028458334164741
 20
7.2785842371938
 10
-7.028210328669599
 20
7.270923675739848
 10
-7.02698151073482
 20
7.263470611705444
 10
-7.024816293042221
 20
7.256494418243563
 10
-7.021792932200634
 20
7.250247233162212
 10
-7.018020700348163
 20
7.244954846007111
 10
-7.013635935772409
 20
7.240808537439228
 10
-7.008797115289534
 20
7.237958165853306
 10
-7.003679126479212
 20
7.236506751105031
 10
-6.998466946791839
 20
7.236506751105031
 10
-6.993348957981517
 20
7.237958165853305
 10
-6.988510137498643
 20
7.240808537439228
 10
-6.98412537292289
 20
7.244954846007111
 10
-6.980353141070418
 20
7.250247233162212
 10
-6.97732978022883
 20
7.256494418243563
 10
-6.975164562536231
 20
7.263470611705444
 10
-6.973935744601453
 20
7.270923675739848
 10
-6.97368773910631
 20
7.2785842371938
 10
-6.97442950961557
 20
7.286175423416959
 10
-6.976134246610363
 20
7.293422869160574
 10
-6.97874033645405
 20
7.300064632852439
 10
-6.982153588269577
 20
7.305860663847781
 10
-6.986250638243193
 20
7.310601478485017
 10
-6.990883408314089
 20
7.314115731371086
 10
-6.99588445810134
 20
7.316276408250388
210
0.0
220
0.0
230
-1.0
  0
LINE
  5
EB
330
18
100
AcDbEntity
  8
0
100
AcDbLine
 10
7.010365278231066
 20
7.238711794565124
 30
0.0
 11
7.016963152750947
 21
7.241344350403236
 31
0.0
  0
LWPOLYLINE
  5
EC
330
18
100
AcDbEntity
  8
0
100
AcDbPolyline
 90
       18
 70
   128
 43
0.0
 10
-7.002335735886621
 20
7.319100783577304
 10
-7.007327517367591
 20
7.320456830350936
 10
-7.012403639423499
 20
7.320435554661764
 10
-7.017390089576661
 20
7.319037685853044
 10
-7.022115929355451
 20
7.31631114369743
 10
-7.026419154166598
 20
7.312349395678721
 10
-7.030152246908821
 20
7.307288252871023
 10
-7.033187234946641
 20
7.301301214254503
 10
-7.035420077088298
 20
7.294593519067341
 10
-7.036774230179574
 20
7.287395111082803
 10
-7.037203273048563
 20
7.279952756000177
 10
-7.036692497850999
 20
7.2725215821701
 10
-7.035259414263893
 20
7.265356334643234
 10
-7.03295314924341
 20
7.25870264235869
 10
-7.029852762923643
 20
7.252788597838173
 10
-7.026064538388284
 20
7.247816938038915
 10
-7.021718338223412
 20
7.243958094410431
 10
-7.016963152750947
 20
7.241344350403236
210
0.0
220
0.0
230
-1.0
  0
LINE
  5
101
330
18
100
AcDbEntity
  8
0
100
AcDbLine
 10
6.840444903637878
 20
7.517834453954523
 30
0.0
 11
6.848655016995493
 21
7.521246518901926
 31
0.0
  0
LINE
  5
102
330
18
100
AcDbEntity
  8
0
100
AcDbLine
 10
6.856684559339949
 20
7.440857529889751
 30
0.0
 11
6.863282433859829
 21
7.443490085727862
 31
0.0
  0
LWPOLYLINE
  5
103
330
18
100
AcDbEntity
  8
0
100
AcDbPolyline
 90
       33
 70
   129
 43
0.0
 10
-6.847392317744409
 20
7.519151151955544
 10
-6.852580896278594
 20
7.518422143575015
 10
-6.857581946065845
 20
7.516261466695712
 10
-6.862214716136742
 20
7.512747213809644
 10
-6.866311766110357
 20
7.508006399172408
 10
-6.869725017925885
 20
7.502210368177066
 10
-6.872331107769571
 20
7.495568604485202
 10
-6.874035844764364
 20
7.488321158741585
 10
-6.874777615273624
 20
7.480729972518427
 10
-6.874529609778482
 20
7.473069411064475
 10
-6.873300791843703
 20
7.465616347030071
 10
-6.871135574151104
 20
7.45864015356819
 10
-6.868112213309517
 20
7.452392968486839
 10
-6.864339981457046
 20
7.447100581331738
 10
-6.859955216881292
 20
7.442954272763855
 10
-6.855116396398417
 20
7.440103901177933
 10
-6.849998407588095
 20
7.438652486429658
 10
-6.844786227900722
 20
7.438652486429658
 10
-6.8396682390904
 20
7.440103901177933
 10
-6.834829418607526
 20
7.442954272763855
 10
-6.830444654031773
 20
7.447100581331738
 10
-6.826672422179301
 20
7.452392968486839
 10
-6.823649061337713
 20
7.45864015356819
 10
-6.821483843645114
 20
7.465616347030071
 10
-6.820255025710336
 20
7.473069411064475
 10
-6.820007020215193
 20
7.480729972518427
 10
-6.820748790724453
 20
7.488321158741585
 10
-6.822453527719246
 20
7.495568604485201
 10
-6.825059617562933
 20
7.502210368177066
 10
-6.82847286937846
 20
7.508006399172408
 10
-6.832569919352076
 20
7.512747213809644
 10
-6.837202689422973
 20
7.516261466695712
 10
-6.842203739210223
 20
7.518422143575015
210
0.0
220
0.0
230
-1.0
  0
LWPOLYLINE
  5
127
330
18
100
AcDbEntity
  8
0
100
AcDbPolyline
 90
       18
 70
   128
 43
0.0
 10
-6.848655016995505
 20
7.521246518901931
 10
-6.853646798476474
 20
7.522602565675562
 10
-6.858722920532382
 20
7.522581289986391
 10
-6.863709370685544
 20
7.52118342117767
 10
-6.868435210464334
 20
7.518456879022057
 10
-6.872738435275481
 20
7.514495131003348
 10
-6.876471528017704
 20
7.509433988195649
 10
-6.879506516055524
 20
7.503446949579129
 10
-6.881739358197181
 20
7.496739254391968
 10
-6.883093511288458
 20
7.489540846407429
 10
-6.883522554157446
 20
7.482098491324804
 10
-6.883011778959882
 20
7.474667317494727
 10
-6.881578695372776
 20
7.467502069967861
 10
-6.879272430352293
 20
7.460848377683317
 10
-6.876172044032527
 20
7.454934333162799
 10
-6.872383819497167
 20
7.449962673363542
 10
-6.868037619332295
 20
7.446103829735058
 10
-6.86328243385983
 20
7.443490085727863
210
0.0
220
0.0
230
-1.0
  0
LWPOLYLINE
  5
13C
330
18
100
AcDbEntity
  8
0
100
AcDbPolyline
 90
       18
 70
   128
 43
0.0
 10
-6.848655016995505
 20
6.910655947454508
 10
-6.853646798476474
 20
6.91201199422814
 10
-6.858722920532382
 20
6.911990718538968
 10
-6.863709370685544
 20
6.910592849730247
 10
-6.868435210464334
 20
6.907866307574634
 10
-6.872738435275481
 20
6.903904559555925
 10
-6.876471528017704
 20
6.898843416748226
 10
-6.879506516055524
 20
6.892856378131707
 10
-6.881739358197181
 20
6.886148682944545
 10
-6.883093511288458
 20
6.878950274960006
 10
-6.883522554157446
 20
6.871507919877381
 10
-6.883011778959882
 20
6.864076746047304
 10
-6.881578695372776
 20
6.856911498520438
 10
-6.879272430352293
 20
6.850257806235894
 10
-6.876172044032527
 20
6.844343761715376
 10
-6.872383819497167
 20
6.839372101916119
 10
-6.868037619332295
 20
6.835513258287635
 10
-6.86328243385983
 20
6.83289951428044
210
0.0
220
0.0
230
-1.0
  0
LINE
  5
151
330
18
100
AcDbEntity
  8
0
100
AcDbLine
 10
6.856684559339949
 20
6.830266958442328
 30
0.0
 11
6.863282433859829
 21
6.83289951428044
 31
0.0
  0
LWPOLYLINE
  5
152
330
18
100
AcDbEntity
  8
0
100
AcDbPolyline
 90
       33
 70
   129
 43
0.0
 10
-6.847392317744409
 20
6.908560580508121
 10
-6.852580896278594
 20
6.907831572127592
 10
-6.857581946065845
 20
6.90567089524829
 10
-6.862214716136742
 20
6.902156642362221
 10
-6.866311766110357
 20
6.897415827724985
 10
-6.869725017925885
 20
6.891619796729643
 10
-6.872331107769571
 20
6.884978033037779
 10
-6.874035844764364
 20
6.877730587294162
 10
-6.874777615273624
 20
6.870139401071004
 10
-6.874529609778482
 20
6.862478839617052
 10
-6.873300791843703
 20
6.855025775582648
 10
-6.871135574151104
 20
6.848049582120767
 10
-6.868112213309517
 20
6.841802397039416
 10
-6.864339981457046
 20
6.836510009884315
 10
-6.859955216881292
 20
6.832363701316432
 10
-6.855116396398417
 20
6.82951332973051
 10
-6.849998407588095
 20
6.828061914982235
 10
-6.844786227900722
 20
6.828061914982235
 10
-6.8396682390904
 20
6.82951332973051
 10
-6.834829418607526
 20
6.832363701316432
 10
-6.830444654031773
 20
6.836510009884315
 10
-6.826672422179301
 20
6.841802397039416
 10
-6.823649061337713
 20
6.848049582120767
 10
-6.821483843645114
 20
6.855025775582648
 10
-6.820255025710336
 20
6.862478839617052
 10
-6.820007020215193
 20
6.870139401071004
 10
-6.820748790724453
 20
6.877730587294162
 10
-6.822453527719246
 20
6.884978033037778
 10
-6.825059617562933
 20
6.891619796729643
 10
-6.82847286937846
 20
6.897415827724985
 10
-6.832569919352076
 20
6.902156642362221
 10
-6.837202689422973
 20
6.90567089524829
 10
-6.842203739210223
 20
6.907831572127592
210
0.0
220
0.0
230
-1.0
  0
LINE
  5
176
330
18
100
AcDbEntity
  8
0
100
AcDbLine
 10
6.840444903637878
 20
6.907243882507101
 30
0.0
 11
6.848655016995493
 21
6.910655947454503
 31
0.0
  0
LINE
  5
177
330
18
100
AcDbEntity
  8
0
100
AcDbLine
 10
6.840444903637878
 20
6.601584521851387
 30
0.0
 11
6.848655016995493
 21
6.604996586798788
 31
0.0
  0
LWPOLYLINE
  5
178
330
18
100
AcDbEntity
  8
0
100
AcDbPolyline
 90
       33
 70
   129
 43
0.0
 10
-6.847392317744409
 20
6.602901219852407
 10
-6.852580896278594
 20
6.602172211471878
 10
-6.857581946065845
 20
6.600011534592575
 10
-6.862214716136742
 20
6.596497281706506
 10
-6.866311766110357
 20
6.591756467069271
 10
-6.869725017925885
 20
6.585960436073928
 10
-6.872331107769571
 20
6.579318672382065
 10
-6.874035844764364
 20
6.572071226638448
 10
-6.874777615273624
 20
6.564480040415289
 10
-6.874529609778482
 20
6.556819478961337
 10
-6.873300791843703
 20
6.549366414926934
 10
-6.871135574151104
 20
6.542390221465053
 10
-6.868112213309517
 20
6.536143036383701
 10
-6.864339981457046
 20
6.530850649228601
 10
-6.859955216881292
 20
6.526704340660717
 10
-6.855116396398417
 20
6.523853969074795
 10
-6.849998407588095
 20
6.52240255432652
 10
-6.844786227900722
 20
6.52240255432652
 10
-6.8396682390904
 20
6.523853969074795
 10
-6.834829418607526
 20
6.526704340660717
 10
-6.830444654031773
 20
6.530850649228601
 10
-6.826672422179301
 20
6.536143036383701
 10
-6.823649061337713
 20
6.542390221465053
 10
-6.821483843645114
 20
6.549366414926934
 10
-6.820255025710336
 20
6.556819478961337
 10
-6.820007020215193
 20
6.564480040415289
 10
-6.820748790724453
 20
6.572071226638448
 10
-6.822453527719246
 20
6.579318672382064
 10
-6.825059617562933
 20
6.585960436073928
 10
-6.82847286937846
 20
6.591756467069271
 10
-6.832569919352076
 20
6.596497281706506
 10
-6.837202689422973
 20
6.600011534592575
 10
-6.842203739210223
 20
6.602172211471878
210
0.0
220
0.0
230
-1.0
  0
LINE
  5
19C
330
18
100
AcDbEntity
  8
0
100
AcDbLine
 10
6.856684559339949
 20
6.524607597786614
 30
0.0
 11
6.863282433859829
 21
6.527240153624725
 31
0.0
  0
LWPOLYLINE
  5
19D
330
18
100
AcDbEntity
  8
0
100
AcDbPolyline
 90
       18
 70
   128
 43
0.0
 10
-6.848655016995505
 20
6.604996586798793
 10
-6.853646798476474
 20
6.606352633572425
 10
-6.858722920532382
 20
6.606331357883254
 10
-6.863709370685544
 20
6.604933489074533
 10
-6.868435210464334
 20
6.602206946918919
 10
-6.872738435275481
 20
6.59824519890021
 10
-6.876471528017704
 20
6.593184056092512
 10
-6.879506516055524
 20
6.587197017475992
 10
-6.881739358197181
 20
6.58048932228883
 10
-6.883093511288458
 20
6.573290914304292
 10
-6.883522554157446
 20
6.565848559221666
 10
-6.883011778959882
 20
6.558417385391589
 10
-6.881578695372776
 20
6.551252137864723
 10
-6.879272430352293
 20
6.54459844558018
 10
-6.876172044032527
 20
6.538684401059662
 10
-6.872383819497167
 20
6.533712741260405
 10
-6.868037619332295
 20
6.52985389763192
 10
-6.86328243385983
 20
6.527240153624725
210
0.0
220
0.0
230
-1.0
  0
LINE
  5
1B2
330
18
100
AcDbEntity
  8
0
100
AcDbLine
 10
6.994125622528996
 20
6.424743156450197
 30
0.0
 11
7.00233573588661
 21
6.428155221397599
 31
0.0
  0
LINE
  5
1B3
330
18
100
AcDbEntity
  8
0
100
AcDbLine
 10
7.010365278231066
 20
6.347766232385425
 30
0.0
 11
7.016963152750947
 21
6.350398788223536
 31
0.0
  0
LWPOLYLINE
  5
1B4
330
18
100
AcDbEntity
  8
0
100
AcDbPolyline
 90
       18
 70
   128
 43
0.0
 10
-7.002335735886621
 20
6.428155221397605
 10
-7.007327517367591
 20
6.429511268171236
 10
-7.012403639423499
 20
6.429489992482065
 10
-7.017390089576661
 20
6.428092123673344
 10
-7.022115929355451
 20
6.42536558151773
 10
-7.026419154166598
 20
6.421403833499022
 10
-7.030152246908821
 20
6.416342690691323
 10
-7.033187234946641
 20
6.410355652074803
 10
-7.035420077088298
 20
6.403647956887641
 10
-7.036774230179574
 20
6.396449548903103
 10
-7.037203273048563
 20
6.389007193820477
 10
-7.036692497850999
 20
6.3815760199904
 10
-7.035259414263893
 20
6.374410772463534
 10
-7.03295314924341
 20
6.367757080178991
 10
-7.029852762923643
 20
6.361843035658473
 10
-7.026064538388284
 20
6.356871375859216
 10
-7.021718338223412
 20
6.353012532230731
 10
-7.016963152750947
 20
6.350398788223536
210
0.0
220
0.0
230
-1.0
  0
LWPOLYLINE
  5
1C9
330
18
100
AcDbEntity
  8
0
100
AcDbPolyline
 90
       33
 70
   129
 43
0.0
 10
-7.001073036635526
 20
6.426059854451218
 10
-7.006261615169711
 20
6.425330846070689
 10
-7.011262664956962
 20
6.423170169191386
 10
-7.015895435027859
 20
6.419655916305318
 10
-7.019992485001474
 20
6.414915101668082
 10
-7.023405736817002
 20
6.409119070672739
 10
-7.026011826660688
 20
6.402477306980876
 10
-7.027716563655481
 20
6.395229861237259
 10
-7.028458334164741
 20
6.387638675014101
 10
-7.028210328669599
 20
6.379978113560148
 10
-7.02698151073482
 20
6.372525049525745
 10
-7.024816293042221
 20
6.365548856063864
 10
-7.021792932200634
 20
6.359301670982513
 10
-7.018020700348163
 20
6.354009283827412
 10
-7.013635935772409
 20
6.349862975259528
 10
-7.008797115289534
 20
6.347012603673607
 10
-7.003679126479212
 20
6.345561188925331
 10
-6.998466946791839
 20
6.345561188925331
 10
-6.993348957981517
 20
6.347012603673607
 10
-6.988510137498643
 20
6.349862975259528
 10
-6.98412537292289
 20
6.354009283827412
 10
-6.980353141070418
 20
6.359301670982513
 10
-6.97732978022883
 20
6.365548856063864
 10
-6.975164562536231
 20
6.372525049525745
 10
-6.973935744601453
 20
6.379978113560148
 10
-6.97368773910631
 20
6.387638675014101
 10
-6.97442950961557
 20
6.395229861237259
 10
-6.976134246610363
 20
6.402477306980875
 10
-6.97874033645405
 20
6.409119070672739
 10
-6.982153588269577
 20
6.414915101668082
 10
-6.986250638243193
 20
6.419655916305318
 10
-6.990883408314089
 20
6.423170169191386
 10
-6.99588445810134
 20
6.425330846070689
210
0.0
220
0.0
230
-1.0
  0
LWPOLYLINE
  5
1ED
330
18
100
AcDbEntity
  8
0
100
AcDbPolyline
 90
       33
 70
   129
 43
0.0
 10
7.024463037937335
 20
7.608708122102515
 10
7.021877887066687
 20
7.608377567330974
 10
7.019386170284048
 20
7.607397850127047
 10
7.017077944726049
 20
7.605804380023112
 10
7.015036635678379
 20
7.60365474918047
 10
7.013336021368599
 20
7.601026650858585
 10
7.012037566428772
 20
7.598015071378251
 10
7.011188200403514
 20
7.594728857068483
 10
7.010818621593981
 20
7.591286780276581
 10
7.010942187541277
 20
7.587813246626052
 10
7.011554432250118
 20
7.584433798673226
 10
7.012633227601539
 20
7.581270578472187
 10
7.014139583120766
 20
7.578437913042688
 10
7.016019055194564
 20
7.576038182293789
 10
7.018203714805266
 20
7.574158118747195
 10
7.02061460266247
 20
7.572865672797935
 10
7.023164582997508
 20
7.572207556810052
 10
7.025761492877162
 20
7.572207556810052
 10
7.0283114732122
 20
7.572865672797935
 10
7.030722361069404
 20
7.574158118747195
 10
7.032907020680106
 20
7.576038182293789
 10
7.034786492753904
 20
7.578437913042688
 10
7.036292848273131
 20
7.581270578472187
 10
7.037371643624552
 20
7.584433798673226
 10
7.037983888333393
 20
7.587813246626052
 10
7.038107454280689
 20
7.591286780276581
 10
7.037737875471156
 20
7.594728857068483
 10
7.036888509445898
 20
7.598015071378251
 10
7.035590054506071
 20
7.601026650858585
 10
7.033889440196291
 20
7.60365474918047
 10
7.031848131148621
 20
7.605804380023112
 10
7.029539905590622
 20
7.607397850127047
 10
7.027048188807983
 20
7.608377567330974
  0
LWPOLYLINE
  5
211
330
18
100
AcDbEntity
  8
0
100
AcDbPolyline
 90
       33
 70
   129
 43
0.0
 10
6.868400154813753
 20
7.164514949566922
 10
6.865815003943105
 20
7.164184394795381
 10
6.863323287160466
 20
7.163204677591454
 10
6.861015061602467
 20
7.161611207487518
 10
6.858973752554797
 20
7.159461576644877
 10
6.857273138245017
 20
7.156833478322992
 10
6.85597468330519
 20
7.153821898842658
 10
6.855125317279932
 20
7.15053568453289
 10
6.854755738470399
 20
7.147093607740988
 10
6.854879304417695
 20
7.143620074090459
 10
6.855491549126536
 20
7.140240626137633
 10
6.856570344477957
 20
7.137077405936593
 10
6.858076699997184
 20
7.134244740507095
 10
6.859956172070982
 20
7.131845009758196
 10
6.862140831681685
 20
7.129964946211602
 10
6.864551719538889
 20
7.128672500262342
 10
6.867101699873926
 20
7.128014384274459
 10
6.869698609753581
 20
7.128014384274459
 10
6.872248590088618
 20
7.128672500262342
 10
6.874659477945822
 20
7.129964946211602
 10
6.876844137556525
 20
7.131845009758196
 10
6.878723609630322
 20
7.134244740507095
 10
6.88022996514955
 20
7.137077405936593
 10
6.88130876050097
 20
7.140240626137633
 10
6.881921005209811
 20
7.143620074090459
 10
6.882044571157107
 20
7.147093607740988
 10
6.881674992347574
 20
7.15053568453289
 10
6.880825626322316
 20
7.153821898842658
 10
6.879527171382489
 20
7.156833478322992
 10
6.87782655707271
 20
7.159461576644877
 10
6.875785248025039
 20
7.161611207487518
 10
6.87347702246704
 20
7.163204677591454
 10
6.870985305684402
 20
7.164184394795381
  0
LWPOLYLINE
  5
235
330
18
100
AcDbEntity
  8
0
100
AcDbPolyline
 90
       33
 70
   129
 43
0.0
 10
7.014820637672323
 20
7.008190242882175
 10
7.012235486801675
 20
7.007859688110634
 10
7.009743770019036
 20
7.006879970906707
 10
7.007435544461037
 20
7.005286500802772
 10
7.005394235413367
 20
7.00313686996013
 10
7.003693621103587
 20
7.000508771638245
 10
7.00239516616376
 20
6.997497192157911
 10
7.001545800138502
 20
6.994210977848143
 10
7.001176221328969
 20
6.990768901056241
 10
7.001299787276265
 20
6.987295367405712
 10
7.001912031985106
 20
6.983915919452886
 10
7.002990827336527
 20
6.980752699251847
 10
7.004497182855754
 20
6.977920033822348
 10
7.006376654929552
 20
6.975520303073449
 10
7.008561314540255
 20
6.973640239526855
 10
7.010972202397459
 20
6.972347793577595
 10
7.013522182732496
 20
6.971689677589712
 10
7.016119092612151
 20
6.971689677589712
 10
7.018669072947188
 20
6.972347793577595
 10
7.021079960804392
 20
6.973640239526855
 10
7.023264620415095
 20
6.975520303073449
 10
7.025144092488892
 20
6.977920033822348
 10
7.02665044800812
 20
6.980752699251847
 10
7.02772924335954
 20
6.983915919452886
 10
7.028341488068381
 20
6.987295367405712
 10
7.028465054015677
 20
6.990768901056241
 10
7.028095475206144
 20
6.994210977848143
 10
7.027246109180886
 20
6.997497192157911
 10
7.025947654241059
 20
7.000508771638245
 10
7.02424703993128
 20
7.00313686996013
 10
7.022205730883609
 20
7.005286500802772
 10
7.01989750532561
 20
7.006879970906707
 10
7.017405788542972
 20
7.007859688110634
  0
LWPOLYLINE
  5
259
330
18
100
AcDbEntity
  8
0
100
AcDbPolyline
 90
       33
 70
   129
 43
0.0
 10
7.006538860957744
 20
6.677824823481029
 10
7.003953710087096
 20
6.677494268709489
 10
7.001461993304457
 20
6.676514551505561
 10
6.999153767746458
 20
6.674921081401626
 10
6.997112458698788
 20
6.672771450558985
 10
6.995411844389008
 20
6.670143352237099
 10
6.994113389449181
 20
6.667131772756766
 10
6.993264023423923
 20
6.663845558446997
 10
6.99289444461439
 20
6.660403481655096
 10
6.993018010561686
 20
6.656929948004566
 10
6.993630255270527
 20
6.653550500051741
 10
6.994709050621948
 20
6.650387279850701
 10
6.996215406141175
 20
6.647554614421202
 10
6.998094878214973
 20
6.645154883672304
 10
7.000279537825676
 20
6.64327482012571
 10
7.00269042568288
 20
6.641982374176449
 10
7.005240406017917
 20
6.641324258188567
 10
7.007837315897572
 20
6.641324258188567
 10
7.010387296232609
 20
6.641982374176449
 10
7.012798184089813
 20
6.64327482012571
 10
7.014982843700516
 20
6.645154883672304
 10
7.016862315774313
 20
6.647554614421202
 10
7.018368671293541
 20
6.650387279850701
 10
7.019447466644961
 20
6.653550500051741
 10
7.020059711353802
 20
6.656929948004566
 10
7.020183277301098
 20
6.660403481655096
 10
7.019813698491565
 20
6.663845558446997
 10
7.018964332466307
 20
6.667131772756766
 10
7.01766587752648
 20
6.670143352237099
 10
7.0159652632167
 20
6.672771450558985
 10
7.01392395416903
 20
6.674921081401626
 10
7.011615728611031
 20
6.676514551505561
 10
7.009124011828392
 20
6.677494268709489
  0
LWPOLYLINE
  5
27D
330
18
100
AcDbEntity
  8
0
100
AcDbPolyline
 90
       33
 70
   129
 43
0.0
 10
6.616375751468044
 20
5.151869359189604
 10
6.613790600597396
 20
5.151538804418063
 10
6.611298883814757
 20
5.150559087214136
 10
6.608990658256758
 20
5.148965617110201
 10
6.606949349209088
 20
5.146815986267559
 10
6.605248734899308
 20
5.144187887945674
 10
6.603950279959481
 20
5.14117630846534
 10
6.603100913934223
 20
5.137890094155572
 10
6.60273133512469
 20
5.134448017363671
 10
6.602854901071986
 20
5.130974483713141
 10
6.603467145780827
 20
5.127595035760316
 10
6.604545941132248
 20
5.124431815559276
 10
6.606052296651475
 20
5.121599150129777
 10
6.607931768725273
 20
5.119199419380879
 10
6.610116428335975
 20
5.117319355834284
 10
6.612527316193179
 20
5.116026909885024
 10
6.615077296528217
 20
5.115368793897141
 10
6.617674206407871
 20
5.115368793897141
 10
6.620224186742909
 20
5.116026909885024
 10
6.622635074600113
 20
5.117319355834284
 10
6.624819734210815
 20
5.119199419380879
 10
6.626699206284613
 20
5.121599150129777
 10
6.62820556180384
 20
5.124431815559276
 10
6.629284357155261
 20
5.127595035760316
 10
6.629896601864102
 20
5.130974483713141
 10
6.630020167811398
 20
5.134448017363671
 10
6.629650589001865
 20
5.137890094155572
 10
6.628801222976607
 20
5.14117630846534
 10
6.62750276803678
 20
5.144187887945674
 10
6.625802153727
 20
5.146815986267559
 10
6.62376084467933
 20
5.148965617110201
 10
6.621452619121331
 20
5.150559087214136
 10
6.618960902338692
 20
5.151538804418063
  0
LWPOLYLINE
  5
2A1
330
18
100
AcDbEntity
  8
0
100
AcDbPolyline
 90
       33
 70
   129
 43
0.0
 10
6.487617622303083
 20
5.261750445447287
 10
6.485032471432435
 20
5.261419890675747
 10
6.482540754649796
 20
5.260440173471819
 10
6.480232529091797
 20
5.258846703367884
 10
6.478191220044127
 20
5.256697072525243
 10
6.476490605734347
 20
5.254068974203357
 10
6.47519215079452
 20
5.251057394723024
 10
6.474342784769262
 20
5.247771180413255
 10
6.473973205959729
 20
5.244329103621355
 10
6.474096771907025
 20
5.240855569970824
 10
6.474709016615866
 20
5.237476122017999
 10
6.475787811967287
 20
5.234312901816959
 10
6.477294167486514
 20
5.23148023638746
 10
6.479173639560312
 20
5.229080505638562
 10
6.481358299171014
 20
5.227200442091967
 10
6.483769187028218
 20
5.225907996142707
 10
6.486319167363256
 20
5.225249880154824
 10
6.48891607724291
 20
5.225249880154824
 10
6.491466057577948
 20
5.225907996142707
 10
6.493876945435152
 20
5.227200442091967
 10
6.496061605045854
 20
5.229080505638562
 10
6.497941077119652
 20
5.23148023638746
 10
6.499447432638879
 20
5.234312901816959
 10
6.5005262279903
 20
5.237476122017999
 10
6.501138472699141
 20
5.240855569970824
 10
6.501262038646437
 20
5.244329103621355
 10
6.500892459836904
 20
5.247771180413255
 10
6.500043093811646
 20
5.251057394723024
 10
6.498744638871819
 20
5.254068974203357
 10
6.497044024562039
 20
5.256697072525243
 10
6.495002715514369
 20
5.258846703367884
 10
6.49269448995637
 20
5.260440173471819
 10
6.490202773173731
 20
5.261419890675747
  0
LWPOLYLINE
  5
2C5
330
18
100
AcDbEntity
  8
0
100
AcDbPolyline
 90
       33
 70
   129
 43
0.0
 10
6.461605889935027
 20
4.970294783458173
 10
6.459020739064378
 20
4.969964228686632
 10
6.45652902228174
 20
4.968984511482705
 10
6.454220796723741
 20
4.96739104137877
 10
6.45217948767607
 20
4.965241410536128
 10
6.450478873366291
 20
4.962613312214243
 10
6.449180418426463
 20
4.959601732733909
 10
6.448331052401206
 20
4.956315518424141
 10
6.447961473591673
 20
4.95287344163224
 10
6.448085039538968
 20
4.94939990798171
 10
6.448697284247809
 20
4.946020460028885
 10
6.44977607959923
 20
4.942857239827845
 10
6.451282435118458
 20
4.940024574398346
 10
6.453161907192255
 20
4.937624843649448
 10
6.455346566802958
 20
4.935744780102853
 10
6.457757454660162
 20
4.934452334153593
 10
6.460307434995199
 20
4.93379421816571
 10
6.462904344874854
 20
4.93379421816571
 10
6.465454325209891
 20
4.934452334153593
 10
6.467865213067095
 20
4.935744780102853
 10
6.470049872677798
 20
4.937624843649448
 10
6.471929344751596
 20
4.940024574398346
 10
6.473435700270823
 20
4.942857239827845
 10
6.474514495622244
 20
4.946020460028885
 10
6.475126740331085
 20
4.94939990798171
 10
6.47525030627838
 20
4.95287344163224
 10
6.474880727468848
 20
4.956315518424141
 10
6.47403136144359
 20
4.959601732733909
 10
6.472732906503762
 20
4.962613312214243
 10
6.471032292193983
 20
4.965241410536128
 10
6.468990983146313
 20
4.96739104137877
 10
6.466682757588314
 20
4.968984511482705
 10
6.464191040805675
 20
4.969964228686632
  0
LWPOLYLINE
  5
2E9
330
18
100
AcDbEntity
  8
0
100
AcDbPolyline
 90
       33
 70
   129
 43
0.0
 10
6.599044969358283
 20
4.879709228426163
 10
6.596459818487634
 20
4.879378673654623
 10
6.593968101704996
 20
4.878398956450695
 10
6.591659876146997
 20
4.87680548634676
 10
6.589618567099326
 20
4.874655855504119
 10
6.587917952789547
 20
4.872027757182234
 10
6.58661949784972
 20
4.8690161777019
 10
6.585770131824462
 20
4.865729963392131
 10
6.585400553014929
 20
4.862287886600231
 10
6.585524118962224
 20
4.8588143529497
 10
6.586136363671066
 20
4.855434904996876
 10
6.587215159022486
 20
4.852271684795835
 10
6.588721514541714
 20
4.849439019366336
 10
6.590600986615511
 20
4.847039288617438
 10
6.592785646226214
 20
4.845159225070844
 10
6.595196534083418
 20
4.843866779121584
 10
6.597746514418455
 20
4.843208663133701
 10
6.60034342429811
 20
4.843208663133701
 10
6.602893404633147
 20
4.843866779121584
 10
6.605304292490351
 20
4.845159225070844
 10
6.607488952101054
 20
4.847039288617438
 10
6.609368424174852
 20
4.849439019366336
 10
6.610874779694079
 20
4.852271684795835
 10
6.6119535750455
 20
4.855434904996876
 10
6.612565819754341
 20
4.8588143529497
 10
6.612689385701636
 20
4.862287886600231
 10
6.612319806892104
 20
4.865729963392131
 10
6.611470440866846
 20
4.8690161777019
 10
6.610171985927019
 20
4.872027757182234
 10
6.608471371617239
 20
4.874655855504119
 10
6.606430062569569
 20
4.87680548634676
 10
6.60412183701157
 20
4.878398956450695
 10
6.601630120228931
 20
4.879378673654623
  0
LWPOLYLINE
  5
30D
330
18
100
AcDbEntity
  8
0
100
AcDbPolyline
 90
       33
 70
   129
 43
0.0
 10
6.479569769874858
 20
4.720417546779146
 10
6.47698461900421
 20
4.720086992007605
 10
6.474492902221571
 20
4.719107274803678
 10
6.472184676663572
 20
4.717513804699743
 10
6.470143367615902
 20
4.715364173857101
 10
6.468442753306122
 20
4.712736075535216
 10
6.467144298366295
 20
4.709724496054882
 10
6.466294932341037
 20
4.706438281745114
 10
6.465925353531504
 20
4.702996204953213
 10
6.4660489194788
 20
4.699522671302683
 10
6.466661164187641
 20
4.696143223349858
 10
6.467739959539061
 20
4.692980003148818
 10
6.469246315058289
 20
4.690147337719319
 10
6.471125787132086
 20
4.687747606970421
 10
6.473310446742789
 20
4.685867543423826
 10
6.475721334599993
 20
4.684575097474566
 10
6.47827131493503
 20
4.683916981486683
 10
6.480868224814685
 20
4.683916981486683
 10
6.483418205149722
 20
4.684575097474566
 10
6.485829093006926
 20
4.685867543423826
 10
6.488013752617629
 20
4.687747606970421
 10
6.489893224691427
 20
4.690147337719319
 10
6.491399580210654
 20
4.692980003148818
 10
6.492478375562075
 20
4.696143223349858
 10
6.493090620270916
 20
4.699522671302683
 10
6.493214186218212
 20
4.702996204953213
 10
6.492844607408679
 20
4.706438281745114
 10
6.491995241383421
 20
4.709724496054882
 10
6.490696786443594
 20
4.712736075535216
 10
6.488996172133814
 20
4.715364173857101
 10
6.486954863086144
 20
4.717513804699743
 10
6.484646637528145
 20
4.719107274803678
 10
6.482154920745506
 20
4.720086992007605
  0
LWPOLYLINE
  5
331
330
18
100
AcDbEntity
  8
0
100
AcDbPolyline
 90
       33
 70
   129
 43
0.0
 10
6.616796385995774
 20
4.606154136557036
 10
6.614211235125126
 20
4.605823581785495
 10
6.611719518342487
 20
4.604843864581568
 10
6.609411292784488
 20
4.603250394477633
 10
6.607369983736818
 20
4.601100763634991
 10
6.605669369427038
 20
4.598472665313106
 10
6.604370914487211
 20
4.595461085832772
 10
6.603521548461953
 20
4.592174871523004
 10
6.60315196965242
 20
4.588732794731103
 10
6.603275535599716
 20
4.585259261080573
 10
6.603887780308557
 20
4.581879813127748
 10
6.604966575659978
 20
4.578716592926708
 10
6.606472931179205
 20
4.575883927497209
 10
6.608352403253003
 20
4.573484196748311
 10
6.610537062863705
 20
4.571604133201716
 10
6.612947950720909
 20
4.570311687252456
 10
6.615497931055947
 20
4.569653571264573
 10
6.618094840935601
 20
4.569653571264573
 10
6.620644821270639
 20
4.570311687252456
 10
6.623055709127843
 20
4.571604133201716
 10
6.625240368738545
 20
4.573484196748311
 10
6.627119840812343
 20
4.575883927497209
 10
6.62862619633157
 20
4.578716592926708
 10
6.629704991682991
 20
4.581879813127748
 10
6.630317236391832
 20
4.585259261080573
 10
6.630440802339128
 20
4.588732794731103
 10
6.630071223529595
 20
4.592174871523004
 10
6.629221857504337
 20
4.595461085832772
 10
6.62792340256451
 20
4.598472665313106
 10
6.62622278825473
 20
4.601100763634991
 10
6.62418147920706
 20
4.603250394477633
 10
6.621873253649061
 20
4.604843864581568
 10
6.619381536866422
 20
4.605823581785495
  0
LWPOLYLINE
  5
355
330
18
100
AcDbEntity
  8
0
100
AcDbPolyline
 90
       33
 70
   129
 43
0.0
 10
6.455636529554455
 20
4.423561239218906
 10
6.453051378683806
 20
4.423230684447366
 10
6.450559661901168
 20
4.422250967243438
 10
6.448251436343169
 20
4.420657497139503
 10
6.446210127295498
 20
4.418507866296862
 10
6.444509512985719
 20
4.415879767974976
 10
6.443211058045891
 20
4.412868188494643
 10
6.442361692020634
 20
4.409581974184873
 10
6.441992113211101
 20
4.406139897392973
 10
6.442115679158396
 20
4.402666363742443
 10
6.442727923867238
 20
4.399286915789618
 10
6.443806719218658
 20
4.396123695588578
 10
6.445313074737886
 20
4.393291030159078
 10
6.447192546811683
 20
4.390891299410181
 10
6.449377206422386
 20
4.389011235863586
 10
6.45178809427959
 20
4.387718789914326
 10
6.454338074614627
 20
4.387060673926444
 10
6.456934984494282
 20
4.387060673926444
 10
6.459484964829319
 20
4.387718789914326
 10
6.461895852686523
 20
4.389011235863586
 10
6.464080512297226
 20
4.390891299410181
 10
6.465959984371024
 20
4.393291030159078
 10
6.467466339890251
 20
4.396123695588578
 10
6.468545135241672
 20
4.399286915789618
 10
6.469157379950513
 20
4.402666363742443
 10
6.469280945897808
 20
4.406139897392973
 10
6.468911367088276
 20
4.409581974184873
 10
6.468062001063018
 20
4.412868188494643
 10
6.466763546123191
 20
4.415879767974976
 10
6.465062931813411
 20
4.418507866296862
 10
6.463021622765741
 20
4.420657497139503
 10
6.460713397207742
 20
4.422250967243438
 10
6.458221680425103
 20
4.423230684447366
  0
LWPOLYLINE
  5
379
330
18
100
AcDbEntity
  8
0
100
AcDbPolyline
 90
       33
 70
   129
 43
0.0
 10
6.591896330322796
 20
4.320070147869894
 10
6.589311179452148
 20
4.319739593098354
 10
6.586819462669509
 20
4.318759875894426
 10
6.58451123711151
 20
4.317166405790491
 10
6.58246992806384
 20
4.31501677494785
 10
6.58076931375406
 20
4.312388676625965
 10
6.579470858814233
 20
4.309377097145631
 10
6.578621492788975
 20
4.306090882835862
 10
6.578251913979442
 20
4.302648806043961
 10
6.578375479926738
 20
4.299175272393431
 10
6.578987724635579
 20
4.295795824440606
 10
6.580066519987
 20
4.292632604239566
 10
6.581572875506227
 20
4.289799938810067
 10
6.583452347580025
 20
4.287400208061169
 10
6.585637007190727
 20
4.285520144514574
 10
6.588047895047931
 20
4.284227698565315
 10
6.590597875382969
 20
4.283569582577432
 10
6.593194785262623
 20
4.283569582577432
 10
6.595744765597661
 20
4.284227698565315
 10
6.598155653454865
 20
4.285520144514574
 10
6.600340313065567
 20
4.287400208061169
 10
6.602219785139365
 20
4.289799938810067
 10
6.603726140658592
 20
4.292632604239566
 10
6.604804936010013
 20
4.295795824440606
 10
6.605417180718854
 20
4.299175272393431
 10
6.60554074666615
 20
4.302648806043961
 10
6.605171167856617
 20
4.306090882835862
 10
6.604321801831359
 20
4.309377097145631
 10
6.603023346891532
 20
4.312388676625965
 10
6.601322732581752
 20
4.31501677494785
 10
6.599281423534082
 20
4.317166405790491
 10
6.596973197976083
 20
4.318759875894426
 10
6.594481481193444
 20
4.319739593098354
  0
LWPOLYLINE
  5
39D
330
18
100
AcDbEntity
  8
0
100
AcDbPolyline
 90
       33
 70
   129
 43
0.0
 10
6.477873282663594
 20
4.175797905137685
 10
6.475288131792945
 20
4.175467350366144
 10
6.472796415010307
 20
4.174487633162217
 10
6.470488189452308
 20
4.172894163058282
 10
6.468446880404637
 20
4.170744532215641
 10
6.466746266094858
 20
4.168116433893755
 10
6.46544781115503
 20
4.165104854413421
 10
6.464598445129773
 20
4.161818640103653
 10
6.46422886632024
 20
4.158376563311752
 10
6.464352432267535
 20
4.154903029661222
 10
6.464964676976376
 20
4.151523581708397
 10
6.466043472327797
 20
4.148360361507357
 10
6.467549827847025
 20
4.145527696077858
 10
6.469429299920822
 20
4.14312796532896
 10
6.471613959531525
 20
4.141247901782365
 10
6.474024847388729
 20
4.139955455833105
 10
6.476574827723766
 20
4.139297339845222
 10
6.479171737603421
 20
4.139297339845222
 10
6.481721717938458
 20
4.139955455833105
 10
6.484132605795662
 20
4.141247901782365
 10
6.486317265406365
 20
4.14312796532896
 10
6.488196737480163
 20
4.145527696077858
 10
6.48970309299939
 20
4.148360361507357
 10
6.490781888350811
 20
4.151523581708397
 10
6.491394133059652
 20
4.154903029661222
 10
6.491517699006947
 20
4.158376563311752
 10
6.491148120197415
 20
4.161818640103653
 10
6.490298754172157
 20
4.165104854413421
 10
6.48900029923233
 20
4.168116433893755
 10
6.48729968492255
 20
4.170744532215641
 10
6.48525837587488
 20
4.172894163058282
 10
6.482950150316881
 20
4.174487633162217
 10
6.480458433534242
 20
4.175467350366144
  0
LWPOLYLINE
  5
3C1
330
18
100
AcDbEntity
  8
0
100
AcDbPolyline
 90
       33
 70
   129
 43
0.0
 10
6.614036509203598
 20
4.061544152338626
 10
6.61145135833295
 20
4.061213597567085
 10
6.608959641550311
 20
4.060233880363158
 10
6.606651415992312
 20
4.058640410259223
 10
6.604610106944642
 20
4.056490779416581
 10
6.602909492634862
 20
4.053862681094696
 10
6.601611037695035
 20
4.050851101614362
 10
6.600761671669777
 20
4.047564887304594
 10
6.600392092860244
 20
4.044122810512693
 10
6.60051565880754
 20
4.040649276862163
 10
6.601127903516381
 20
4.037269828909338
 10
6.602206698867802
 20
4.034106608708298
 10
6.603713054387029
 20
4.031273943278799
 10
6.605592526460827
 20
4.0288742125299
 10
6.607777186071529
 20
4.026994148983306
 10
6.610188073928733
 20
4.025701703034046
 10
6.612738054263771
 20
4.025043587046163
 10
6.615334964143425
 20
4.025043587046163
 10
6.617884944478463
 20
4.025701703034046
 10
6.620295832335667
 20
4.026994148983306
 10
6.622480491946369
 20
4.0288742125299
 10
6.624359964020167
 20
4.031273943278799
 10
6.625866319539394
 20
4.034106608708298
 10
6.626945114890815
 20
4.037269828909338
 10
6.627557359599656
 20
4.040649276862163
 10
6.627680925546952
 20
4.044122810512693
 10
6.627311346737419
 20
4.047564887304594
 10
6.626461980712161
 20
4.050851101614362
 10
6.625163525772334
 20
4.053862681094696
 10
6.623462911462554
 20
4.056490779416581
 10
6.621421602414884
 20
4.058640410259223
 10
6.619113376856885
 20
4.060233880363158
 10
6.616621660074246
 20
4.061213597567085
  0
LWPOLYLINE
  5
3E5
330
18
100
AcDbEntity
  8
0
100
AcDbPolyline
 90
       33
 70
   129
 43
0.0
 10
6.461432056523745
 20
3.884255326341112
 10
6.458846905653097
 20
3.883924771569571
 10
6.456355188870458
 20
3.882945054365644
 10
6.454046963312459
 20
3.881351584261709
 10
6.452005654264789
 20
3.879201953419067
 10
6.450305039955009
 20
3.876573855097182
 10
6.449006585015182
 20
3.873562275616848
 10
6.448157218989924
 20
3.870276061307079
 10
6.447787640180391
 20
3.866833984515179
 10
6.447911206127687
 20
3.863360450864649
 10
6.448523450836528
 20
3.859981002911823
 10
6.449602246187949
 20
3.856817782710784
 10
6.451108601707176
 20
3.853985117281284
 10
6.452988073780974
 20
3.851585386532387
 10
6.455172733391676
 20
3.849705322985791
 10
6.45758362124888
 20
3.848412877036532
 10
6.460133601583918
 20
3.847754761048649
 10
6.462730511463573
 20
3.847754761048649
 10
6.46528049179861
 20
3.848412877036532
 10
6.467691379655814
 20
3.849705322985791
 10
6.469876039266516
 20
3.851585386532387
 10
6.471755511340314
 20
3.853985117281284
 10
6.473261866859541
 20
3.856817782710784
 10
6.474340662210962
 20
3.859981002911823
 10
6.474952906919803
 20
3.863360450864649
 10
6.475076472867099
 20
3.866833984515179
 10
6.474706894057566
 20
3.870276061307079
 10
6.473857528032308
 20
3.873562275616848
 10
6.472559073092481
 20
3.876573855097182
 10
6.470858458782701
 20
3.879201953419067
 10
6.468817149735031
 20
3.881351584261709
 10
6.466508924177032
 20
3.882945054365644
 10
6.464017207394393
 20
3.883924771569571
  0
LWPOLYLINE
  5
409
330
18
100
AcDbEntity
  8
0
100
AcDbPolyline
 90
       33
 70
   129
 43
0.0
 10
6.57976875318193
 20
3.798148669504038
 10
6.577183602311282
 20
3.797818114732498
 10
6.574691885528643
 20
3.79683839752857
 10
6.572383659970644
 20
3.795244927424635
 10
6.570342350922974
 20
3.793095296581994
 10
6.568641736613194
 20
3.790467198260108
 10
6.567343281673367
 20
3.787455618779775
 10
6.566493915648109
 20
3.784169404470005
 10
6.566124336838576
 20
3.780727327678105
 10
6.566247902785872
 20
3.777253794027575
 10
6.566860147494713
 20
3.77387434607475
 10
6.567938942846133
 20
3.77071112587371
 10
6.569445298365361
 20
3.76787846044421
 10
6.571324770439158
 20
3.765478729695313
 10
6.573509430049861
 20
3.763598666148718
 10
6.575920317907065
 20
3.762306220199458
 10
6.578470298242102
 20
3.761648104211576
 10
6.581067208121757
 20
3.761648104211576
 10
6.583617188456794
 20
3.762306220199458
 10
6.586028076313998
 20
3.763598666148718
 10
6.588212735924701
 20
3.765478729695313
 10
6.590092207998499
 20
3.76787846044421
 10
6.591598563517726
 20
3.77071112587371
 10
6.592677358869147
 20
3.77387434607475
 10
6.593289603577988
 20
3.777253794027575
 10
6.593413169525284
 20
3.780727327678105
 10
6.593043590715751
 20
3.784169404470005
 10
6.592194224690493
 20
3.787455618779775
 10
6.590895769750666
 20
3.790467198260108
 10
6.589195155440886
 20
3.793095296581994
 10
6.587153846393216
 20
3.795244927424635
 10
6.584845620835217
 20
3.79683839752857
 10
6.582353904052578
 20
3.797818114732498
  0
LWPOLYLINE
  5
42D
330
18
100
AcDbEntity
  8
0
100
AcDbPolyline
 90
       33
 70
   129
 43
0.0
 10
6.476080221224
 20
3.620415602046178
 10
6.473495070353351
 20
3.620085047274637
 10
6.471003353570713
 20
3.61910533007071
 10
6.468695128012714
 20
3.617511859966775
 10
6.466653818965043
 20
3.615362229124133
 10
6.464953204655264
 20
3.612734130802248
 10
6.463654749715436
 20
3.609722551321914
 10
6.462805383690179
 20
3.606436337012146
 10
6.462435804880646
 20
3.602994260220245
 10
6.462559370827941
 20
3.599520726569715
 10
6.463171615536782
 20
3.59614127861689
 10
6.464250410888203
 20
3.59297805841585
 10
6.465756766407431
 20
3.590145392986351
 10
6.467636238481228
 20
3.587745662237452
 10
6.469820898091931
 20
3.585865598690858
 10
6.472231785949135
 20
3.584573152741598
 10
6.474781766284172
 20
3.583915036753715
 10
6.477378676163827
 20
3.583915036753715
 10
6.479928656498864
 20
3.584573152741598
 10
6.482339544356068
 20
3.585865598690858
 10
6.484524203966771
 20
3.587745662237452
 10
6.486403676040569
 20
3.590145392986351
 10
6.487910031559796
 20
3.59297805841585
 10
6.488988826911217
 20
3.59614127861689
 10
6.489601071620058
 20
3.599520726569715
 10
6.489724637567353
 20
3.602994260220245
 10
6.489355058757821
 20
3.606436337012146
 10
6.488505692732563
 20
3.609722551321914
 10
6.487207237792735
 20
3.612734130802248
 10
6.485506623482956
 20
3.615362229124133
 10
6.483465314435286
 20
3.617511859966775
 10
6.481157088877287
 20
3.61910533007071
 10
6.478665372094648
 20
3.620085047274637
  0
LWPOLYLINE
  5
451
330
18
100
AcDbEntity
  8
0
100
AcDbPolyline
 90
       33
 70
   129
 43
0.0
 10
6.619832036172883
 20
3.522238239460831
 10
6.617246885302235
 20
3.52190768468929
 10
6.614755168519596
 20
3.520927967485362
 10
6.612446942961597
 20
3.519334497381427
 10
6.610405633913927
 20
3.517184866538786
 10
6.608705019604147
 20
3.514556768216901
 10
6.60740656466432
 20
3.511545188736567
 10
6.606557198639062
 20
3.508258974426799
 10
6.606187619829529
 20
3.504816897634898
 10
6.606311185776825
 20
3.501343363984367
 10
6.606923430485666
 20
3.497963916031543
 10
6.608002225837087
 20
3.494800695830502
 10
6.609508581356314
 20
3.491968030401004
 10
6.611388053430112
 20
3.489568299652105
 10
6.613572713040814
 20
3.487688236105511
 10
6.615983600898018
 20
3.486395790156251
 10
6.618533581233056
 20
3.485737674168368
 10
6.621130491112711
 20
3.485737674168368
 10
6.623680471447748
 20
3.486395790156251
 10
6.626091359304952
 20
3.487688236105511
 10
6.628276018915654
 20
3.489568299652105
 10
6.630155490989452
 20
3.491968030401004
 10
6.631661846508679
 20
3.494800695830502
 10
6.6327406418601
 20
3.497963916031543
 10
6.633352886568941
 20
3.501343363984367
 10
6.633476452516237
 20
3.504816897634898
 10
6.633106873706704
 20
3.508258974426799
 10
6.632257507681446
 20
3.511545188736567
 10
6.630959052741619
 20
3.514556768216901
 10
6.629258438431839
 20
3.517184866538786
 10
6.627217129384169
 20
3.519334497381427
 10
6.62490890382617
 20
3.520927967485362
 10
6.622417187043531
 20
3.52190768468929
  0
LWPOLYLINE
  5
475
330
18
100
AcDbEntity
  8
0
100
AcDbPolyline
 90
       33
 70
   129
 43
0.0
 10
6.444809485488388
 20
3.335465824042347
 10
6.442224334617739
 20
3.335135269270806
 10
6.439732617835101
 20
3.334155552066878
 10
6.437424392277102
 20
3.332562081962943
 10
6.435383083229431
 20
3.330412451120302
 10
6.433682468919652
 20
3.327784352798417
 10
6.432384013979824
 20
3.324772773318083
 10
6.431534647954567
 20
3.321486559008315
 10
6.431165069145034
 20
3.318044482216414
 10
6.431288635092329
 20
3.314570948565883
 10
6.43190087980117
 20
3.311191500613059
 10
6.432979675152591
 20
3.308028280412018
 10
6.434486030671819
 20
3.30519561498252
 10
6.436365502745616
 20
3.302795884233621
 10
6.438550162356319
 20
3.300915820687027
 10
6.440961050213523
 20
3.299623374737767
 10
6.44351103054856
 20
3.298965258749884
 10
6.446107940428215
 20
3.298965258749884
 10
6.448657920763252
 20
3.299623374737767
 10
6.451068808620456
 20
3.300915820687027
 10
6.453253468231159
 20
3.302795884233621
 10
6.455132940304956
 20
3.30519561498252
 10
6.456639295824184
 20
3.308028280412018
 10
6.457718091175605
 20
3.311191500613059
 10
6.458330335884446
 20
3.314570948565883
 10
6.458453901831741
 20
3.318044482216414
 10
6.458084323022209
 20
3.321486559008315
 10
6.457234956996951
 20
3.324772773318083
 10
6.455936502057123
 20
3.327784352798417
 10
6.454235887747344
 20
3.330412451120302
 10
6.452194578699674
 20
3.332562081962943
 10
6.449886353141674
 20
3.334155552066878
 10
6.447394636359036
 20
3.335135269270806
  0
LWPOLYLINE
  5
499
330
18
100
AcDbEntity
  8
0
100
AcDbPolyline
 90
       33
 70
   129
 43
0.0
 10
6.575858570003342
 20
3.243861947403638
 10
6.573273419132693
 20
3.243531392632097
 10
6.570781702350055
 20
3.24255167542817
 10
6.568473476792056
 20
3.240958205324235
 10
6.566432167744385
 20
3.238808574481594
 10
6.564731553434606
 20
3.236180476159708
 10
6.563433098494778
 20
3.233168896679374
 10
6.562583732469521
 20
3.229882682369605
 10
6.562214153659988
 20
3.226440605577705
 10
6.562337719607283
 20
3.222967071927175
 10
6.562949964316124
 20
3.219587623974349
 10
6.564028759667545
 20
3.21642440377331
 10
6.565535115186773
 20
3.213591738343811
 10
6.56741458726057
 20
3.211192007594913
 10
6.569599246871273
 20
3.209311944048318
 10
6.572010134728477
 20
3.208019498099058
 10
6.574560115063514
 20
3.207361382111175
 10
6.577157024943169
 20
3.207361382111175
 10
6.579707005278206
 20
3.208019498099058
 10
6.58211789313541
 20
3.209311944048318
 10
6.584302552746113
 20
3.211192007594913
 10
6.586182024819911
 20
3.213591738343811
 10
6.587688380339138
 20
3.21642440377331
 10
6.588767175690559
 20
3.219587623974349
 10
6.5893794203994
 20
3.222967071927175
 10
6.589502986346695
 20
3.226440605577705
 10
6.589133407537163
 20
3.229882682369605
 10
6.588284041511905
 20
3.233168896679374
 10
6.586985586572077
 20
3.236180476159708
 10
6.585284972262298
 20
3.238808574481594
 10
6.583243663214628
 20
3.240958205324235
 10
6.580935437656629
 20
3.24255167542817
 10
6.57844372087399
 20
3.243531392632097
  0
LWPOLYLINE
  5
4BD
330
18
100
AcDbEntity
  8
0
100
AcDbPolyline
 90
       33
 70
   129
 43
0.0
 10
6.478733866564721
 20
3.086519992162559
 10
6.476148715694073
 20
3.086189437391018
 10
6.473656998911435
 20
3.08520972018709
 10
6.471348773353435
 20
3.083616250083155
 10
6.469307464305765
 20
3.081466619240514
 10
6.467606849995986
 20
3.078838520918628
 10
6.466308395056158
 20
3.075826941438295
 10
6.4654590290309
 20
3.072540727128526
 10
6.465089450221368
 20
3.069098650336626
 10
6.465213016168663
 20
3.065625116686095
 10
6.465825260877504
 20
3.06224566873327
 10
6.466904056228925
 20
3.05908244853223
 10
6.468410411748153
 20
3.056249783102731
 10
6.47028988382195
 20
3.053850052353833
 10
6.472474543432653
 20
3.051969988807239
 10
6.474885431289857
 20
3.050677542857979
 10
6.477435411624894
 20
3.050019426870096
 10
6.480032321504549
 20
3.050019426870096
 10
6.482582301839586
 20
3.050677542857979
 10
6.48499318969679
 20
3.051969988807239
 10
6.487177849307493
 20
3.053850052353833
 10
6.48905732138129
 20
3.056249783102731
 10
6.490563676900518
 20
3.05908244853223
 10
6.491642472251939
 20
3.06224566873327
 10
6.49225471696078
 20
3.065625116686095
 10
6.492378282908075
 20
3.069098650336625
 10
6.492008704098542
 20
3.072540727128526
 10
6.491159338073285
 20
3.075826941438295
 10
6.489860883133457
 20
3.078838520918628
 10
6.488160268823678
 20
3.081466619240514
 10
6.486118959776007
 20
3.083616250083155
 10
6.483810734218008
 20
3.085209720187091
 10
6.48131901743537
 20
3.086189437391018
  0
LWPOLYLINE
  5
4E1
330
18
100
AcDbEntity
  8
0
100
AcDbPolyline
 90
       33
 70
   129
 43
0.0
 10
6.616240547947814
 20
3.003468300145582
 10
6.613655397077165
 20
3.00313774537404
 10
6.611163680294527
 20
3.002158028170113
 10
6.608855454736528
 20
3.000564558066178
 10
6.606814145688857
 20
2.998414927223537
 10
6.605113531379078
 20
2.995786828901651
 10
6.603815076439251
 20
2.992775249421317
 10
6.602965710413993
 20
2.989489035111549
 10
6.60259613160446
 20
2.986046958319649
 10
6.602719697551756
 20
2.982573424669118
 10
6.603331942260597
 20
2.979193976716293
 10
6.604410737612017
 20
2.976030756515253
 10
6.605917093131245
 20
2.973198091085754
 10
6.607796565205042
 20
2.970798360336856
 10
6.609981224815745
 20
2.968918296790261
 10
6.612392112672949
 20
2.967625850841002
 10
6.614942093007986
 20
2.966967734853118
 10
6.617539002887641
 20
2.966967734853118
 10
6.620088983222678
 20
2.967625850841002
 10
6.622499871079882
 20
2.968918296790261
 10
6.624684530690585
 20
2.970798360336856
 10
6.626564002764383
 20
2.973198091085754
 10
6.62807035828361
 20
2.976030756515253
 10
6.629149153635031
 20
2.979193976716293
 10
6.629761398343872
 20
2.982573424669118
 10
6.629884964291168
 20
2.986046958319648
 10
6.629515385481635
 20
2.989489035111549
 10
6.628666019456377
 20
2.992775249421317
 10
6.62736756451655
 20
2.995786828901651
 10
6.62566695020677
 20
2.998414927223537
 10
6.6236256411591
 20
3.000564558066178
 10
6.621317415601101
 20
3.002158028170114
 10
6.618825698818462
 20
3.00313774537404
  0
LWPOLYLINE
  5
505
330
18
100
AcDbEntity
  8
0
100
AcDbPolyline
 90
       33
 70
   129
 43
0.0
 10
6.44779148320547
 20
2.838163263088882
 10
6.445206332334822
 20
2.837832708317341
 10
6.442714615552183
 20
2.836852991113414
 10
6.440406389994184
 20
2.835259521009479
 10
6.438365080946514
 20
2.833109890166838
 10
6.436664466636734
 20
2.830481791844952
 10
6.435366011696907
 20
2.827470212364618
 10
6.434516645671649
 20
2.82418399805485
 10
6.434147066862116
 20
2.820741921262949
 10
6.434270632809412
 20
2.817268387612419
 10
6.434882877518253
 20
2.813888939659594
 10
6.435961672869674
 20
2.810725719458554
 10
6.437468028388901
 20
2.807893054029055
 10
6.439347500462699
 20
2.805493323280157
 10
6.441532160073401
 20
2.803613259733562
 10
6.443943047930605
 20
2.802320813784303
 10
6.446493028265643
 20
2.801662697796419
 10
6.449089938145297
 20
2.801662697796419
 10
6.451639918480335
 20
2.802320813784303
 10
6.454050806337539
 20
2.803613259733562
 10
6.456235465948241
 20
2.805493323280157
 10
6.458114938022039
 20
2.807893054029055
 10
6.459621293541266
 20
2.810725719458554
 10
6.460700088892687
 20
2.813888939659594
 10
6.461312333601528
 20
2.817268387612419
 10
6.461435899548824
 20
2.820741921262949
 10
6.461066320739291
 20
2.82418399805485
 10
6.460216954714033
 20
2.827470212364618
 10
6.458918499774206
 20
2.830481791844952
 10
6.457217885464426
 20
2.833109890166838
 10
6.455176576416756
 20
2.835259521009479
 10
6.452868350858757
 20
2.836852991113414
 10
6.450376634076118
 20
2.837832708317341
  0
LWPOLYLINE
  5
529
330
18
100
AcDbEntity
  8
0
100
AcDbPolyline
 90
       33
 70
   129
 43
0.0
 10
6.611759503752842
 20
2.504080808863465
 10
6.609174352882194
 20
2.503750254091924
 10
6.606682636099555
 20
2.502770536887997
 10
6.604374410541556
 20
2.501177066784062
 10
6.602333101493886
 20
2.499027435941421
 10
6.600632487184106
 20
2.496399337619535
 10
6.599334032244279
 20
2.493387758139201
 10
6.598484666219021
 20
2.490101543829432
 10
6.598115087409489
 20
2.486659467037532
 10
6.598238653356784
 20
2.483185933387002
 10
6.598850898065625
 20
2.479806485434176
 10
6.599929693417046
 20
2.476643265233137
 10
6.601436048936273
 20
2.473810599803638
 10
6.603315521010071
 20
2.47141086905474
 10
6.605500180620774
 20
2.469530805508145
 10
6.607911068477978
 20
2.468238359558885
 10
6.610461048813015
 20
2.467580243571002
 10
6.61305795869267
 20
2.467580243571002
 10
6.615607939027707
 20
2.468238359558885
 10
6.618018826884911
 20
2.469530805508145
 10
6.620203486495614
 20
2.47141086905474
 10
6.622082958569411
 20
2.473810599803638
 10
6.623589314088639
 20
2.476643265233137
 10
6.62466810944006
 20
2.479806485434176
 10
6.625280354148901
 20
2.483185933387002
 10
6.625403920096196
 20
2.486659467037532
 10
6.625034341286663
 20
2.490101543829432
 10
6.624184975261406
 20
2.493387758139201
 10
6.622886520321578
 20
2.496399337619535
 10
6.621185906011799
 20
2.499027435941421
 10
6.619144596964128
 20
2.501177066784062
 10
6.616836371406129
 20
2.502770536887997
 10
6.614344654623491
 20
2.503750254091924
  0
LWPOLYLINE
  5
54D
330
18
100
AcDbEntity
  8
0
100
AcDbPolyline
 90
       33
 70
   129
 43
0.0
 10
6.439994723770929
 20
2.324813284190859
 10
6.437409572900281
 20
2.324482729419318
 10
6.434917856117642
 20
2.323503012215391
 10
6.432609630559643
 20
2.321909542111456
 10
6.430568321511973
 20
2.319759911268815
 10
6.428867707202193
 20
2.317131812946929
 10
6.427569252262366
 20
2.314120233466595
 10
6.426719886237108
 20
2.310834019156827
 10
6.426350307427575
 20
2.307391942364926
 10
6.426473873374871
 20
2.303918408714396
 10
6.427086118083712
 20
2.30053896076157
 10
6.428164913435133
 20
2.297375740560531
 10
6.42967126895436
 20
2.294543075131032
 10
6.431550741028158
 20
2.292143344382134
 10
6.43373540063886
 20
2.290263280835539
 10
6.436146288496064
 20
2.288970834886279
 10
6.438696268831102
 20
2.288312718898396
 10
6.441293178710756
 20
2.288312718898396
 10
6.443843159045794
 20
2.288970834886279
 10
6.446254046902998
 20
2.290263280835539
 10
6.4484387065137
 20
2.292143344382134
 10
6.450318178587498
 20
2.294543075131032
 10
6.451824534106725
 20
2.297375740560531
 10
6.452903329458146
 20
2.30053896076157
 10
6.453515574166987
 20
2.303918408714396
 10
6.453639140114283
 20
2.307391942364926
 10
6.45326956130475
 20
2.310834019156827
 10
6.452420195279492
 20
2.314120233466595
 10
6.451121740339665
 20
2.317131812946929
 10
6.449421126029885
 20
2.319759911268815
 10
6.447379816982215
 20
2.321909542111456
 10
6.445071591424216
 20
2.323503012215391
 10
6.442579874641577
 20
2.324482729419318
  0
LWPOLYLINE
  5
571
330
18
100
AcDbEntity
  8
0
100
AcDbPolyline
 90
       33
 70
   129
 43
0.0
 10
6.465663081193649
 20
2.103927631465598
 10
6.463077930323001
 20
2.103597076694057
 10
6.460586213540362
 20
2.10261735949013
 10
6.458277987982363
 20
2.101023889386194
 10
6.456236678934693
 20
2.098874258543553
 10
6.454536064624914
 20
2.096246160221667
 10
6.453237609685086
 20
2.093234580741334
 10
6.452388243659828
 20
2.089948366431565
 10
6.452018664850296
 20
2.086506289639664
 10
6.452142230797591
 20
2.083032755989134
 10
6.452754475506432
 20
2.079653308036309
 10
6.453833270857853
 20
2.076490087835269
 10
6.45533962637708
 20
2.07365742240577
 10
6.457219098450878
 20
2.071257691656872
 10
6.459403758061581
 20
2.069377628110277
 10
6.461814645918785
 20
2.068085182161018
 10
6.464364626253822
 20
2.067427066173134
 10
6.466961536133477
 20
2.067427066173134
 10
6.469511516468514
 20
2.068085182161018
 10
6.471922404325718
 20
2.069377628110277
 10
6.474107063936421
 20
2.071257691656872
 10
6.475986536010218
 20
2.07365742240577
 10
6.477492891529446
 20
2.076490087835269
 10
6.478571686880867
 20
2.079653308036309
 10
6.479183931589708
 20
2.083032755989134
 10
6.479307497537003
 20
2.086506289639664
 10
6.47893791872747
 20
2.089948366431565
 10
6.478088552702213
 20
2.093234580741334
 10
6.476790097762385
 20
2.096246160221667
 10
6.475089483452606
 20
2.098874258543553
 10
6.473048174404935
 20
2.101023889386194
 10
6.470739948846936
 20
2.10261735949013
 10
6.468248232064298
 20
2.103597076694057
  0
LWPOLYLINE
  5
595
330
18
100
AcDbEntity
  8
0
100
AcDbPolyline
 90
       33
 70
   129
 43
0.0
 10
6.603285651650753
 20
2.033791133188675
 10
6.600700500780105
 20
2.033460578417134
 10
6.598208783997467
 20
2.032480861213207
 10
6.595900558439467
 20
2.030887391109272
 10
6.593859249391797
 20
2.028737760266631
 10
6.592158635082018
 20
2.026109661944745
 10
6.59086018014219
 20
2.023098082464411
 10
6.590010814116933
 20
2.019811868154642
 10
6.5896412353074
 20
2.016369791362742
 10
6.589764801254695
 20
2.012896257712212
 10
6.590377045963536
 20
2.009516809759386
 10
6.591455841314957
 20
2.006353589558346
 10
6.592962196834185
 20
2.003520924128848
 10
6.594841668907982
 20
2.001121193379949
 10
6.597026328518685
 20
1.999241129833355
 10
6.599437216375889
 20
1.997948683884095
 10
6.601987196710926
 20
1.997290567896212
 10
6.604584106590581
 20
1.997290567896212
 10
6.607134086925618
 20
1.997948683884095
 10
6.609544974782822
 20
1.999241129833355
 10
6.611729634393525
 20
2.001121193379949
 10
6.613609106467322
 20
2.003520924128848
 10
6.61511546198655
 20
2.006353589558346
 10
6.616194257337971
 20
2.009516809759386
 10
6.616806502046812
 20
2.012896257712212
 10
6.616930067994107
 20
2.016369791362742
 10
6.616560489184574
 20
2.019811868154642
 10
6.615711123159317
 20
2.023098082464411
 10
6.614412668219489
 20
2.026109661944745
 10
6.61271205390971
 20
2.028737760266631
 10
6.610670744862039
 20
2.030887391109272
 10
6.60836251930404
 20
2.032480861213207
 10
6.605870802521402
 20
2.033460578417134
  0
LWPOLYLINE
  5
5B9
330
18
100
AcDbEntity
  8
0
100
AcDbPolyline
 90
       33
 70
   129
 43
0.0
 10
6.561680400213883
 20
1.782302179910495
 10
6.559095249343235
 20
1.781971625138954
 10
6.556603532560597
 20
1.780991907935027
 10
6.554295307002597
 20
1.779398437831092
 10
6.552253997954927
 20
1.777248806988451
 10
6.550553383645148
 20
1.774620708666565
 10
6.54925492870532
 20
1.771609129186231
 10
6.548405562680062
 20
1.768322914876463
 10
6.54803598387053
 20
1.764880838084562
 10
6.548159549817825
 20
1.761407304434032
 10
6.548771794526666
 20
1.758027856481207
 10
6.549850589878087
 20
1.754864636280167
 10
6.551356945397314
 20
1.752031970850668
 10
6.553236417471112
 20
1.74963224010177
 10
6.555421077081815
 20
1.747752176555175
 10
6.557831964939019
 20
1.746459730605915
 10
6.560381945274056
 20
1.745801614618032
 10
6.562978855153711
 20
1.745801614618032
 10
6.565528835488748
 20
1.746459730605915
 10
6.567939723345952
 20
1.747752176555175
 10
6.570124382956655
 20
1.74963224010177
 10
6.572003855030452
 20
1.752031970850668
 10
6.57351021054968
 20
1.754864636280167
 10
6.574589005901101
 20
1.758027856481207
 10
6.575201250609942
 20
1.761407304434032
 10
6.575324816557237
 20
1.764880838084562
 10
6.574955237747704
 20
1.768322914876463
 10
6.574105871722447
 20
1.771609129186231
 10
6.572807416782619
 20
1.774620708666565
 10
6.57110680247284
 20
1.777248806988451
 10
6.569065493425169
 20
1.779398437831092
 10
6.56675726786717
 20
1.780991907935027
 10
6.564265551084532
 20
1.781971625138954
  0
LWPOLYLINE
  5
5DD
330
18
100
AcDbEntity
  8
0
100
AcDbPolyline
 90
       33
 70
   129
 43
0.0
 10
6.479317604411183
 20
1.610833560861642
 10
6.476732453540535
 20
1.610503006090101
 10
6.474240736757897
 20
1.609523288886174
 10
6.471932511199897
 20
1.607929818782239
 10
6.469891202152227
 20
1.605780187939597
 10
6.468190587842448
 20
1.603152089617712
 10
6.46689213290262
 20
1.600140510137378
 10
6.466042766877362
 20
1.59685429582761
 10
6.46567318806783
 20
1.593412219035709
 10
6.465796754015125
 20
1.589938685385179
 10
6.466408998723966
 20
1.586559237432353
 10
6.467487794075387
 20
1.583396017231314
 10
6.468994149594614
 20
1.580563351801815
 10
6.470873621668412
 20
1.578163621052916
 10
6.473058281279115
 20
1.576283557506322
 10
6.475469169136319
 20
1.574991111557062
 10
6.478019149471356
 20
1.574332995569179
 10
6.480616059351011
 20
1.574332995569179
 10
6.483166039686048
 20
1.574991111557062
 10
6.485576927543252
 20
1.576283557506322
 10
6.487761587153955
 20
1.578163621052916
 10
6.489641059227752
 20
1.580563351801815
 10
6.49114741474698
 20
1.583396017231314
 10
6.492226210098401
 20
1.586559237432353
 10
6.492838454807242
 20
1.589938685385179
 10
6.492962020754537
 20
1.593412219035709
 10
6.492592441945004
 20
1.59685429582761
 10
6.491743075919747
 20
1.600140510137378
 10
6.490444620979919
 20
1.603152089617712
 10
6.48874400667014
 20
1.605780187939597
 10
6.486702697622469
 20
1.607929818782239
 10
6.48439447206447
 20
1.609523288886174
 10
6.481902755281832
 20
1.610503006090101
  0
LWPOLYLINE
  5
601
330
18
100
AcDbEntity
  8
0
100
AcDbPolyline
 90
       33
 70
   129
 43
0.0
 10
6.432752729714616
 20
1.399214742063886
 10
6.430167578843967
 20
1.398884187292345
 10
6.427675862061329
 20
1.397904470088418
 10
6.42536763650333
 20
1.396310999984483
 10
6.423326327455659
 20
1.394161369141841
 10
6.42162571314588
 20
1.391533270819956
 10
6.420327258206052
 20
1.388521691339622
 10
6.419477892180795
 20
1.385235477029853
 10
6.419108313371262
 20
1.381793400237953
 10
6.419231879318557
 20
1.378319866587423
 10
6.419844124027399
 20
1.374940418634597
 10
6.420922919378819
 20
1.371777198433557
 10
6.422429274898047
 20
1.368944533004059
 10
6.424308746971844
 20
1.36654480225516
 10
6.426493406582547
 20
1.364664738708566
 10
6.428904294439751
 20
1.363372292759306
 10
6.431454274774788
 20
1.362714176771423
 10
6.434051184654443
 20
1.362714176771423
 10
6.43660116498948
 20
1.363372292759306
 10
6.439012052846684
 20
1.364664738708566
 10
6.441196712457387
 20
1.36654480225516
 10
6.443076184531185
 20
1.368944533004059
 10
6.444582540050412
 20
1.371777198433557
 10
6.445661335401833
 20
1.374940418634597
 10
6.446273580110674
 20
1.378319866587423
 10
6.446397146057969
 20
1.381793400237953
 10
6.446027567248437
 20
1.385235477029853
 10
6.445178201223179
 20
1.388521691339622
 10
6.443879746283352
 20
1.391533270819956
 10
6.442179131973572
 20
1.394161369141841
 10
6.440137822925902
 20
1.396310999984483
 10
6.437829597367903
 20
1.397904470088418
 10
6.435337880585264
 20
1.398884187292345
  0
LWPOLYLINE
  5
625
330
18
100
AcDbEntity
  8
0
100
AcDbPolyline
 90
       33
 70
   129
 43
0.0
 10
6.571342115524279
 20
1.318305924913866
 10
6.56875696465363
 20
1.317975370142325
 10
6.566265247870992
 20
1.316995652938398
 10
6.563957022312993
 20
1.315402182834463
 10
6.561915713265322
 20
1.313252551991822
 10
6.560215098955543
 20
1.310624453669936
 10
6.558916644015715
 20
1.307612874189602
 10
6.558067277990458
 20
1.304326659879834
 10
6.557697699180925
 20
1.300884583087933
 10
6.55782126512822
 20
1.297411049437403
 10
6.558433509837061
 20
1.294031601484578
 10
6.559512305188482
 20
1.290868381283538
 10
6.56101866070771
 20
1.288035715854039
 10
6.562898132781507
 20
1.285635985105141
 10
6.56508279239221
 20
1.283755921558546
 10
6.567493680249414
 20
1.282463475609286
 10
6.570043660584451
 20
1.281805359621403
 10
6.572640570464106
 20
1.281805359621403
 10
6.575190550799143
 20
1.282463475609286
 10
6.577601438656347
 20
1.283755921558546
 10
6.57978609826705
 20
1.285635985105141
 10
6.581665570340848
 20
1.288035715854039
 10
6.583171925860075
 20
1.290868381283538
 10
6.584250721211496
 20
1.294031601484578
 10
6.584862965920337
 20
1.297411049437403
 10
6.584986531867632
 20
1.300884583087933
 10
6.5846169530581
 20
1.304326659879834
 10
6.583767587032842
 20
1.307612874189602
 10
6.582469132093014
 20
1.310624453669936
 10
6.580768517783235
 20
1.313252551991822
 10
6.578727208735565
 20
1.315402182834463
 10
6.576418983177566
 20
1.316995652938398
 10
6.573927266394927
 20
1.317975370142325
  0
LWPOLYLINE
  5
649
330
18
100
AcDbEntity
  8
0
100
AcDbPolyline
 90
       33
 70
   129
 43
0.0
 10
6.470430351864311
 20
2.592624112775869
 10
6.465241773330126
 20
2.59189510439534
 10
6.460240723542875
 20
2.589734427516038
 10
6.455607953471978
 20
2.586220174629969
 10
6.451510903498363
 20
2.581479359992732
 10
6.448097651682835
 20
2.575683328997391
 10
6.445491561839149
 20
2.569041565305526
 10
6.443786824844356
 20
2.561794119561911
 10
6.443045054335096
 20
2.554202933338752
 10
6.443293059830238
 20
2.546542371884799
 10
6.444521877765017
 20
2.539089307850396
 10
6.446687095457616
 20
2.532113114388515
 10
6.449710456299203
 20
2.525865929307164
 10
6.453482688151675
 20
2.520573542152063
 10
6.457867452727428
 20
2.51642723358418
 10
6.462706273210303
 20
2.513576861998257
 10
6.467824262020625
 20
2.512125447249983
 10
6.473036441707998
 20
2.512125447249983
 10
6.47815443051832
 20
2.513576861998257
 10
6.482993251001195
 20
2.51642723358418
 10
6.487378015576947
 20
2.520573542152063
 10
6.491150247429419
 20
2.525865929307164
 10
6.494173608271007
 20
2.532113114388515
 10
6.496338825963606
 20
2.539089307850396
 10
6.497567643898385
 20
2.546542371884799
 10
6.497815649393527
 20
2.554202933338752
 10
6.497073878884267
 20
2.561794119561911
 10
6.495369141889474
 20
2.569041565305526
 10
6.492763052045787
 20
2.575683328997391
 10
6.48934980023026
 20
2.581479359992732
 10
6.485252750256644
 20
2.586220174629969
 10
6.480619980185748
 20
2.589734427516038
 10
6.475618930398497
 20
2.59189510439534
  0
LWPOLYLINE
  5
66D
330
18
100
AcDbEntity
  8
0
100
AcDbPolyline
 90
       18
 70
   128
 43
0.0
 10
6.469167652613214
 20
2.594719479722255
 10
6.464175871132245
 20
2.596075526495887
 10
6.459099749076336
 20
2.596054250806715
 10
6.454113298923175
 20
2.594656381997995
 10
6.449387459144385
 20
2.591929839842381
 10
6.445084234333238
 20
2.587968091823671
 10
6.441351141591015
 20
2.582906949015974
 10
6.438316153553195
 20
2.576919910399453
 10
6.436083311411537
 20
2.570212215212291
 10
6.434729158320261
 20
2.563013807227754
 10
6.434300115451272
 20
2.555571452145128
 10
6.434810890648836
 20
2.548140278315051
 10
6.436243974235943
 20
2.540975030788185
 10
6.438550239256426
 20
2.534321338503641
 10
6.441650625576192
 20
2.528407293983124
 10
6.445438850111551
 20
2.523435634183866
 10
6.449785050276423
 20
2.519576790555382
 10
6.454540235748889
 20
2.516963046548187
  0
LINE
  5
682
330
18
100
AcDbEntity
  8
0
100
AcDbLine
 10
6.47737776597084
 20
2.59130741477485
 30
0.0
 11
6.469167652613225
 21
2.59471947972225
 31
0.0
  0
LINE
  5
683
330
18
100
AcDbEntity
  8
0
100
AcDbLine
 10
6.461138110268769
 20
2.514330490710076
 30
0.0
 11
6.45454023574889
 21
2.516963046548188
 31
0.0
  0
LWPOLYLINE
  5
684
330
18
100
AcDbEntity
  8
0
100
AcDbPolyline
 90
       33
 70
   129
 43
0.0
 10
6.62393322226898
 20
2.775690223843497
 10
6.618744643734795
 20
2.774961215462968
 10
6.613743593947544
 20
2.772800538583665
 10
6.609110823876647
 20
2.769286285697596
 10
6.605013773903032
 20
2.764545471060361
 10
6.601600522087504
 20
2.758749440065019
 10
6.598994432243818
 20
2.752107676373155
 10
6.597289695249025
 20
2.744860230629538
 10
6.596547924739765
 20
2.737269044406379
 10
6.596795930234907
 20
2.729608482952427
 10
6.598024748169686
 20
2.722155418918024
 10
6.600189965862285
 20
2.715179225456144
 10
6.603213326703872
 20
2.708932040374791
 10
6.606985558556343
 20
2.703639653219691
 10
6.611370323132097
 20
2.699493344651807
 10
6.616209143614972
 20
2.696642973065885
 10
6.621327132425294
 20
2.695191558317611
 10
6.626539312112667
 20
2.695191558317611
 10
6.631657300922988
 20
2.696642973065885
 10
6.636496121405863
 20
2.699493344651807
 10
6.640880885981616
 20
2.703639653219691
 10
6.644653117834088
 20
2.708932040374791
 10
6.647676478675676
 20
2.715179225456144
 10
6.649841696368275
 20
2.722155418918024
 10
6.651070514303053
 20
2.729608482952427
 10
6.651318519798195
 20
2.737269044406379
 10
6.650576749288936
 20
2.744860230629538
 10
6.648872012294143
 20
2.752107676373155
 10
6.646265922450456
 20
2.758749440065019
 10
6.642852670634929
 20
2.764545471060361
 10
6.638755620661313
 20
2.769286285697596
 10
6.634122850590416
 20
2.772800538583665
 10
6.629121800803166
 20
2.774961215462968
  0
LWPOLYLINE
  5
6A8
330
18
100
AcDbEntity
  8
0
100
AcDbPolyline
 90
       18
 70
   128
 43
0.0
 10
6.622670523017884
 20
2.777785590789883
 10
6.617678741536915
 20
2.779141637563515
 10
6.612602619481007
 20
2.779120361874343
 10
6.607616169327845
 20
2.777722493065622
 10
6.602890329549055
 20
2.774995950910008
 10
6.598587104737908
 20
2.7710342028913
 10
6.594854011995685
 20
2.765973060083602
 10
6.591819023957865
 20
2.759986021467081
 10
6.589586181816208
 20
2.753278326279919
 10
6.588232028724931
 20
2.746079918295382
 10
6.587802985855943
 20
2.738637563212756
 10
6.588313761053507
 20
2.731206389382678
 10
6.589746844640613
 20
2.724041141855813
 10
6.592053109661096
 20
2.717387449571269
 10
6.595153495980862
 20
2.711473405050751
 10
6.598941720516222
 20
2.706501745251494
 10
6.603287920681094
 20
2.70264290162301
 10
6.608043106153559
 20
2.700029157615815
  0
LINE
  5
6BD
330
18
100
AcDbEntity
  8
0
100
AcDbLine
 10
6.63088063637551
 20
2.774373525842477
 30
0.0
 11
6.622670523017896
 21
2.777785590789878
 31
0.0
  0
LINE
  5
6BE
330
18
100
AcDbEntity
  8
0
100
AcDbLine
 10
6.61464098067344
 20
2.697396601777704
 30
0.0
 11
6.608043106153559
 21
2.700029157615815
 31
0.0
  0
LWPOLYLINE
  5
6BF
330
18
100
AcDbEntity
  8
0
100
AcDbPolyline
 90
       33
 70
   129
 43
0.0
 10
6.455346530267076
 20
1.859764127412171
 10
6.450157951732891
 20
1.859035119031642
 10
6.44515690194564
 20
1.85687444215234
 10
6.440524131874743
 20
1.853360189266271
 10
6.436427081901128
 20
1.848619374629035
 10
6.4330138300856
 20
1.842823343633693
 10
6.430407740241914
 20
1.836181579941828
 10
6.42870300324712
 20
1.828934134198212
 10
6.427961232737861
 20
1.821342947975054
 10
6.428209238233003
 20
1.813682386521101
 10
6.429438056167782
 20
1.806229322486698
 10
6.431603273860381
 20
1.799253129024817
 10
6.434626634701968
 20
1.793005943943466
 10
6.438398866554439
 20
1.787713556788365
 10
6.442783631130193
 20
1.783567248220481
 10
6.447622451613068
 20
1.780716876634559
 10
6.45274044042339
 20
1.779265461886285
 10
6.457952620110762
 20
1.779265461886285
 10
6.463070608921084
 20
1.780716876634559
 10
6.467909429403959
 20
1.783567248220481
 10
6.472294193979712
 20
1.787713556788365
 10
6.476066425832184
 20
1.793005943943466
 10
6.479089786673772
 20
1.799253129024817
 10
6.48125500436637
 20
1.806229322486698
 10
6.482483822301149
 20
1.813682386521101
 10
6.482731827796291
 20
1.821342947975054
 10
6.481990057287032
 20
1.828934134198212
 10
6.480285320292238
 20
1.836181579941828
 10
6.477679230448552
 20
1.842823343633693
 10
6.474265978633024
 20
1.848619374629034
 10
6.470168928659409
 20
1.853360189266271
 10
6.465536158588512
 20
1.85687444215234
 10
6.460535108801262
 20
1.859035119031642
  0
LWPOLYLINE
  5
6E3
330
18
100
AcDbEntity
  8
0
100
AcDbPolyline
 90
       18
 70
   128
 43
0.0
 10
6.45408383101598
 20
1.861859494358557
 10
6.449092049535011
 20
1.863215541132189
 10
6.444015927479103
 20
1.863194265443017
 10
6.439029477325941
 20
1.861796396634297
 10
6.434303637547151
 20
1.859069854478683
 10
6.430000412736004
 20
1.855108106459974
 10
6.426267319993781
 20
1.850046963652276
 10
6.423232331955961
 20
1.844059925035755
 10
6.420999489814304
 20
1.837352229848594
 10
6.419645336723027
 20
1.830153821864056
 10
6.419216293854039
 20
1.82271146678143
 10
6.419727069051603
 20
1.815280292951353
 10
6.421160152638709
 20
1.808115045424487
 10
6.423466417659192
 20
1.801461353139943
 10
6.426566803978958
 20
1.795547308619426
 10
6.430355028514318
 20
1.790575648820168
 10
6.43470122867919
 20
1.786716805191684
 10
6.439456414151655
 20
1.784103061184489
  0
LINE
  5
6F8
330
18
100
AcDbEntity
  8
0
100
AcDbLine
 10
6.462293944373605
 20
1.858447429411152
 30
0.0
 11
6.454083831015991
 21
1.861859494358552
 31
0.0
  0
LINE
  5
6F9
330
18
100
AcDbEntity
  8
0
100
AcDbLine
 10
6.446054288671535
 20
1.781470505346378
 30
0.0
 11
6.439456414151654
 21
1.78410306118449
 31
0.0
  0
LWPOLYLINE
  5
6FA
330
18
100
AcDbEntity
  8
0
100
AcDbPolyline
 90
       33
 70
   129
 43
0.0
 10
6.62393322226898
 20
2.261350895607929
 10
6.618744643734795
 20
2.2606218872274
 10
6.613743593947544
 20
2.258461210348097
 10
6.609110823876647
 20
2.254946957462028
 10
6.605013773903032
 20
2.250206142824792
 10
6.601600522087504
 20
2.24441011182945
 10
6.598994432243818
 20
2.237768348137586
 10
6.597289695249025
 20
2.23052090239397
 10
6.596547924739765
 20
2.222929716170811
 10
6.596795930234907
 20
2.215269154716859
 10
6.598024748169686
 20
2.207816090682456
 10
6.600189965862285
 20
2.200839897220575
 10
6.603213326703872
 20
2.194592712139223
 10
6.606985558556343
 20
2.189300324984123
 10
6.611370323132097
 20
2.185154016416239
 10
6.616209143614972
 20
2.182303644830317
 10
6.621327132425294
 20
2.180852230082043
 10
6.626539312112667
 20
2.180852230082043
 10
6.631657300922988
 20
2.182303644830317
 10
6.636496121405863
 20
2.185154016416239
 10
6.640880885981616
 20
2.189300324984123
 10
6.644653117834088
 20
2.194592712139223
 10
6.647676478675676
 20
2.200839897220575
 10
6.649841696368275
 20
2.207816090682456
 10
6.651070514303053
 20
2.215269154716859
 10
6.651318519798195
 20
2.222929716170811
 10
6.650576749288936
 20
2.23052090239397
 10
6.648872012294143
 20
2.237768348137586
 10
6.646265922450456
 20
2.24441011182945
 10
6.642852670634929
 20
2.250206142824792
 10
6.638755620661313
 20
2.254946957462028
 10
6.634122850590416
 20
2.258461210348097
 10
6.629121800803166
 20
2.2606218872274
  0
LWPOLYLINE
  5
71E
330
18
100
AcDbEntity
  8
0
100
AcDbPolyline
 90
       18
 70
   128
 43
0.0
 10
6.622670523017884
 20
2.263446262554314
 10
6.617678741536915
 20
2.264802309327946
 10
6.612602619481007
 20
2.264781033638775
 10
6.607616169327845
 20
2.263383164830054
 10
6.602890329549055
 20
2.26065662267444
 10
6.598587104737908
 20
2.256694874655731
 10
6.594854011995685
 20
2.251633731848033
 10
6.591819023957865
 20
2.245646693231513
 10
6.589586181816208
 20
2.238938998044351
 10
6.588232028724931
 20
2.231740590059813
 10
6.587802985855943
 20
2.224298234977187
 10
6.588313761053507
 20
2.21686706114711
 10
6.589746844640613
 20
2.209701813620244
 10
6.592053109661096
 20
2.203048121335701
 10
6.595153495980862
 20
2.197134076815183
 10
6.598941720516222
 20
2.192162417015926
 10
6.603287920681094
 20
2.188303573387441
 10
6.608043106153559
 20
2.185689829380247
  0
LINE
  5
733
330
18
100
AcDbEntity
  8
0
100
AcDbLine
 10
6.63088063637551
 20
2.260034197606909
 30
0.0
 11
6.622670523017896
 21
2.26344626255431
 31
0.0
  0
LINE
  5
734
330
18
100
AcDbEntity
  8
0
100
AcDbLine
 10
6.61464098067344
 20
2.183057273542135
 30
0.0
 11
6.608043106153559
 21
2.185689829380248
 31
0.0
  0
LWPOLYLINE
  5
735
330
18
100
AcDbEntity
  8
0
100
AcDbPolyline
 90
       33
 70
   129
 43
0.0
 10
6.62393322226898
 20
1.553635620687718
 10
6.618744643734795
 20
1.552906612307189
 10
6.613743593947544
 20
1.550745935427886
 10
6.609110823876647
 20
1.547231682541818
 10
6.605013773903032
 20
1.542490867904581
 10
6.601600522087504
 20
1.53669483690924
 10
6.598994432243818
 20
1.530053073217375
 10
6.597289695249025
 20
1.522805627473759
 10
6.596547924739765
 20
1.515214441250601
 10
6.596795930234907
 20
1.507553879796648
 10
6.598024748169686
 20
1.500100815762245
 10
6.600189965862285
 20
1.493124622300364
 10
6.603213326703872
 20
1.486877437219013
 10
6.606985558556343
 20
1.481585050063912
 10
6.611370323132097
 20
1.477438741496028
 10
6.616209143614972
 20
1.474588369910106
 10
6.621327132425294
 20
1.473136955161832
 10
6.626539312112667
 20
1.473136955161832
 10
6.631657300922988
 20
1.474588369910106
 10
6.636496121405863
 20
1.477438741496028
 10
6.640880885981616
 20
1.481585050063912
 10
6.644653117834088
 20
1.486877437219013
 10
6.647676478675676
 20
1.493124622300364
 10
6.649841696368275
 20
1.500100815762245
 10
6.651070514303053
 20
1.507553879796648
 10
6.651318519798195
 20
1.515214441250601
 10
6.650576749288936
 20
1.522805627473759
 10
6.648872012294143
 20
1.530053073217375
 10
6.646265922450456
 20
1.53669483690924
 10
6.642852670634929
 20
1.542490867904581
 10
6.638755620661313
 20
1.547231682541818
 10
6.634122850590416
 20
1.550745935427886
 10
6.629121800803166
 20
1.552906612307189
  0
LWPOLYLINE
  5
759
330
18
100
AcDbEntity
  8
0
100
AcDbPolyline
 90
       18
 70
   128
 43
0.0
 10
6.622670523017884
 20
1.555730987634103
 10
6.617678741536915
 20
1.557087034407736
 10
6.612602619481007
 20
1.557065758718564
 10
6.607616169327845
 20
1.555667889909843
 10
6.602890329549055
 20
1.55294134775423
 10
6.598587104737908
 20
1.548979599735521
 10
6.594854011995685
 20
1.543918456927823
 10
6.591819023957865
 20
1.537931418311302
 10
6.589586181816208
 20
1.53122372312414
 10
6.588232028724931
 20
1.524025315139603
 10
6.587802985855943
 20
1.516582960056977
 10
6.588313761053507
 20
1.5091517862269
 10
6.589746844640613
 20
1.501986538700034
 10
6.592053109661096
 20
1.49533284641549
 10
6.595153495980862
 20
1.489418801894972
 10
6.598941720516222
 20
1.484447142095715
 10
6.603287920681094
 20
1.480588298467231
 10
6.608043106153559
 20
1.477974554460036
  0
LINE
  5
76E
330
18
100
AcDbEntity
  8
0
100
AcDbLine
 10
6.63088063637551
 20
1.552318922686698
 30
0.0
 11
6.622670523017896
 21
1.555730987634099
 31
0.0
  0
LINE
  5
76F
330
18
100
AcDbEntity
  8
0
100
AcDbLine
 10
6.61464098067344
 20
1.475341998621925
 30
0.0
 11
6.608043106153559
 21
1.477974554460036
 31
0.0
  0
LWPOLYLINE
  5
770
330
18
100
AcDbEntity
  8
0
100
AcDbPolyline
 90
       33
 70
   129
 43
0.0
 10
6.47715191855622
 20
1.208372016685084
 10
6.471963340022034
 20
1.207643008304555
 10
6.466962290234783
 20
1.205482331425253
 10
6.462329520163887
 20
1.201968078539184
 10
6.458232470190271
 20
1.197227263901948
 10
6.454819218374744
 20
1.191431232906606
 10
6.452213128531057
 20
1.184789469214742
 10
6.450508391536264
 20
1.177542023471126
 10
6.449766621027004
 20
1.169950837247967
 10
6.450014626522147
 20
1.162290275794015
 10
6.451243444456925
 20
1.154837211759612
 10
6.453408662149524
 20
1.147861018297731
 10
6.456432022991112
 20
1.141613833216379
 10
6.460204254843583
 20
1.136321446061279
 10
6.464589019419337
 20
1.132175137493395
 10
6.469427839902211
 20
1.129324765907473
 10
6.474545828712533
 20
1.127873351159198
 10
6.479758008399906
 20
1.127873351159198
 10
6.484875997210228
 20
1.129324765907473
 10
6.489714817693103
 20
1.132175137493395
 10
6.494099582268856
 20
1.136321446061279
 10
6.497871814121328
 20
1.141613833216379
 10
6.500895174962915
 20
1.147861018297731
 10
6.503060392655514
 20
1.154837211759612
 10
6.504289210590293
 20
1.162290275794015
 10
6.504537216085435
 20
1.169950837247967
 10
6.503795445576175
 20
1.177542023471125
 10
6.502090708581382
 20
1.184789469214742
 10
6.499484618737696
 20
1.191431232906606
 10
6.496071366922168
 20
1.197227263901948
 10
6.491974316948553
 20
1.201968078539184
 10
6.487341546877656
 20
1.205482331425253
 10
6.482340497090405
 20
1.207643008304555
  0
LWPOLYLINE
  5
794
330
18
100
AcDbEntity
  8
0
100
AcDbPolyline
 90
       18
 70
   128
 43
0.0
 10
6.475889219305122
 20
1.21046738363147
 10
6.470897437824153
 20
1.211823430405102
 10
6.465821315768245
 20
1.21180215471593
 10
6.460834865615083
 20
1.21040428590721
 10
6.456109025836293
 20
1.207677743751596
 10
6.451805801025146
 20
1.203715995732887
 10
6.448072708282923
 20
1.198654852925189
 10
6.445037720245103
 20
1.192667814308669
 10
6.442804878103446
 20
1.185960119121507
 10
6.441450725012169
 20
1.178761711136969
 10
6.44102168214318
 20
1.171319356054343
 10
6.441532457340744
 20
1.163888182224266
 10
6.442965540927851
 20
1.1567229346974
 10
6.445271805948334
 20
1.150069242412857
 10
6.4483721922681
 20
1.144155197892339
 10
6.452160416803459
 20
1.139183538093082
 10
6.456506616968332
 20
1.135324694464597
 10
6.461261802440797
 20
1.132710950457403
  0
LINE
  5
7A9
330
18
100
AcDbEntity
  8
0
100
AcDbLine
 10
6.484099332662749
 20
1.207055318684064
 30
0.0
 11
6.475889219305134
 21
1.210467383631465
 31
0.0
  0
LINE
  5
7AA
330
18
100
AcDbEntity
  8
0
100
AcDbLine
 10
6.467859676960678
 20
1.130078394619291
 30
0.0
 11
6.461261802440798
 21
1.132710950457403
 31
0.0
  0
LINE
  5
7AB
330
18
100
AcDbEntity
  8
0
100
AcDbLine
 10
6.63088063637551
 20
1.115239757932917
 30
0.0
 11
6.622670523017896
 21
1.118651822880318
 31
0.0
  0
LWPOLYLINE
  5
7AC
330
18
100
AcDbEntity
  8
0
100
AcDbPolyline
 90
       18
 70
   128
 43
0.0
 10
6.622670523017884
 20
1.118651822880323
 10
6.617678741536915
 20
1.120007869653955
 10
6.612602619481007
 20
1.119986593964783
 10
6.607616169327845
 20
1.118588725156063
 10
6.602890329549055
 20
1.115862183000449
 10
6.598587104737908
 20
1.11190043498174
 10
6.594854011995685
 20
1.106839292174042
 10
6.591819023957865
 20
1.100852253557521
 10
6.589586181816208
 20
1.09414455837036
 10
6.588232028724931
 20
1.086946150385822
 10
6.587802985855943
 20
1.079503795303196
 10
6.588313761053507
 20
1.072072621473119
 10
6.589746844640613
 20
1.064907373946253
 10
6.592053109661096
 20
1.058253681661709
 10
6.595153495980862
 20
1.052339637141192
 10
6.598941720516222
 20
1.047367977341934
 10
6.603287920681094
 20
1.04350913371345
 10
6.608043106153559
 20
1.040895389706255
  0
LINE
  5
7C1
330
18
100
AcDbEntity
  8
0
100
AcDbLine
 10
6.61464098067344
 20
1.038262833868144
 30
0.0
 11
6.608043106153559
 21
1.040895389706255
 31
0.0
  0
LWPOLYLINE
  5
7C2
330
18
100
AcDbEntity
  8
0
100
AcDbPolyline
 90
       33
 70
   129
 43
0.0
 10
6.62393322226898
 20
1.116556455933937
 10
6.618744643734795
 20
1.115827447553408
 10
6.613743593947544
 20
1.113666770674106
 10
6.609110823876647
 20
1.110152517788037
 10
6.605013773903032
 20
1.105411703150801
 10
6.601600522087504
 20
1.099615672155459
 10
6.598994432243818
 20
1.092973908463595
 10
6.597289695249025
 20
1.085726462719978
 10
6.596547924739765
 20
1.07813527649682
 10
6.596795930234907
 20
1.070474715042867
 10
6.598024748169686
 20
1.063021651008465
 10
6.600189965862285
 20
1.056045457546583
 10
6.603213326703872
 20
1.049798272465232
 10
6.606985558556344
 20
1.044505885310131
 10
6.611370323132097
 20
1.040359576742248
 10
6.616209143614972
 20
1.037509205156326
 10
6.621327132425294
 20
1.036057790408051
 10
6.626539312112667
 20
1.036057790408051
 10
6.631657300922988
 20
1.037509205156326
 10
6.636496121405863
 20
1.040359576742248
 10
6.640880885981616
 20
1.044505885310131
 10
6.644653117834088
 20
1.049798272465232
 10
6.647676478675676
 20
1.056045457546583
 10
6.649841696368275
 20
1.063021651008465
 10
6.651070514303053
 20
1.070474715042867
 10
6.651318519798195
 20
1.07813527649682
 10
6.650576749288936
 20
1.085726462719978
 10
6.648872012294143
 20
1.092973908463595
 10
6.646265922450456
 20
1.099615672155459
 10
6.642852670634929
 20
1.105411703150801
 10
6.638755620661313
 20
1.110152517788037
 10
6.634122850590416
 20
1.113666770674106
 10
6.629121800803166
 20
1.115827447553408
  0
LWPOLYLINE
  5
7E6
330
18
100
AcDbEntity
  8
0
100
AcDbPolyline
 90
       33
 70
   129
 43
0.0
 10
6.427749111617437
 20
0.9418161165715236
 10
6.425163960746788
 20
0.9414855617999828
 10
6.42267224396415
 20
0.9405058445960556
 10
6.420364018406151
 20
0.9389123744921204
 10
6.41832270935848
 20
0.9367627436494792
 10
6.416622095048701
 20
0.9341346453275935
 10
6.415323640108873
 20
0.9311230658472598
 10
6.414474274083616
 20
0.9278368515374912
 10
6.414104695274083
 20
0.9243947747455904
 10
6.414228261221378
 20
0.9209212410950605
 10
6.414840505930219
 20
0.9175417931422352
 10
6.41591930128164
 20
0.9143785729411953
 10
6.417425656800868
 20
0.9115459075116963
 10
6.419305128874665
 20
0.9091461767627981
 10
6.421489788485368
 20
0.9072661132162034
 10
6.423900676342572
 20
0.9059736672669438
 10
6.426450656677609
 20
0.9053155512790607
 10
6.429047566557264
 20
0.9053155512790607
 10
6.431597546892301
 20
0.9059736672669438
 10
6.434008434749505
 20
0.9072661132162034
 10
6.436193094360208
 20
0.9091461767627981
 10
6.438072566434006
 20
0.9115459075116963
 10
6.439578921953233
 20
0.9143785729411953
 10
6.440657717304654
 20
0.9175417931422352
 10
6.441269962013495
 20
0.9209212410950605
 10
6.44139352796079
 20
0.9243947747455904
 10
6.441023949151258
 20
0.9278368515374912
 10
6.440174583126
 20
0.9311230658472598
 10
6.438876128186172
 20
0.9341346453275935
 10
6.437175513876393
 20
0.9367627436494792
 10
6.435134204828723
 20
0.9389123744921204
 10
6.432825979270723
 20
0.9405058445960556
 10
6.430334262488085
 20
0.9414855617999828
  0
LWPOLYLINE
  5
80A
330
18
100
AcDbEntity
  8
0
100
AcDbPolyline
 90
       13
 70
   128
 43
0.0
 10
6.502321503633818
 20
0.9645043882214887
 10
6.510047302964831
 20
0.9657027758659652
 10
6.517464859784194
 20
0.9690072332060101
 10
6.524294364945912
 20
0.9742931076897371
 10
6.530278192111095
 20
0.9813610026611922
 10
6.535190616069996
 20
0.9899442991103552
 10
6.538846327672151
 20
0.9997192132216448
 10
6.541107424159778
 20
1.010317010324567
 10
6.541888611211225
 20
1.021337914505164
 10
6.541160420460148
 20
1.032366189172269
 10
6.538950321117388
 20
1.042985819701181
 10
6.535341683762328
 20
1.052796206565473
 10
6.530470635392191
 20
1.06142727697201
  0
LWPOLYLINE
  5
81A
330
18
100
AcDbEntity
  8
0
100
AcDbPolyline
 90
       33
 70
   129
 43
0.0
 10
6.530916142742323
 20
1.061430812199138
 10
6.523343661138917
 20
1.060400161560743
 10
6.516044868750565
 20
1.057345460044963
 10
6.509283562951002
 20
1.052377112523527
 10
6.503304114948234
 20
1.045674688020761
 10
6.498322637572382
 20
1.037480429621193
 10
6.49451917439492
 20
1.028090499173314
 10
6.49203119248491
 20
1.017844273228738
 10
6.490948613990953
 20
1.00711207708938
 10
6.49131056612045
 20
0.9962818002861835
 10
6.493103966980385
 20
0.9857448772408257
 10
6.49626399839102
 20
0.9758821398058513
 10
6.500676448583792
 20
0.9670500530092718
 10
6.506181840112208
 20
0.9595678314796936
 10
6.512581193782274
 20
0.9537059021979335
 10
6.519643220278999
 20
0.9496761305613422
 10
6.527112679564862
 20
0.9476241630163336
 10
6.534719605919785
 20
0.9476241630163336
 10
6.542189065205648
 20
0.9496761305613422
 10
6.549251091702373
 20
0.9537059021979335
 10
6.555650445372439
 20
0.9595678314796936
 10
6.561155836900855
 20
0.9670500530092718
 10
6.565568287093627
 20
0.9758821398058513
 10
6.568728318504261
 20
0.9857448772408257
 10
6.570521719364197
 20
0.9962818002861835
 10
6.570883671493694
 20
1.00711207708938
 10
6.569801092999737
 20
1.017844273228737
 10
6.567313111089726
 20
1.028090499173314
 10
6.563509647912265
 20
1.037480429621193
 10
6.558528170536413
 20
1.045674688020761
 10
6.552548722533644
 20
1.052377112523527
 10
6.545787416734082
 20
1.057345460044963
 10
6.53848862434573
 20
1.060400161560743
  0
LINE
  5
83E
330
18
100
AcDbEntity
  8
0
  6
HIDDEN
100
AcDbLine
 10
6.637975114070962
 20
7.87656769509714
 30
0.0
 11
6.691308447404295
 21
7.823234361763808
 31
0.0
  0
LINE
  5
83F
330
18
100
AcDbEntity
  8
0
  6
HIDDEN
100
AcDbLine
 10
6.67366254721856
 20
8.053658953017358
 30
0.0
 11
6.637975114070961
 21
8.017971519869759
 31
0.0
  0
LINE
  5
840
330
18
100
AcDbEntity
  8
0
  6
HIDDEN
100
AcDbLine
 10
6.72527347519601
 20
7.823234361763808
 30
0.0
 11
6.789447561057276
 21
7.823234361763808
 31
0.0
  0
LINE
  5
841
330
18
100
AcDbEntity
  8
0
  6
HIDDEN
100
AcDbLine
 10
6.637975114070961
 20
8.017971519869759
 30
0.0
 11
6.637975114070962
 21
7.960125371950872
 31
0.0
  0
LINE
  5
842
330
18
100
AcDbEntity
  8
0
  6
HIDDEN
100
AcDbLine
 10
6.92170365066953
 20
8.071304853203094
 30
0.0
 11
6.828839987569906
 21
8.071304853203094
 31
0.0
  0
LINE
  5
843
330
18
100
AcDbEntity
  8
0
100
AcDbLine
 10
7.2363299451024
 20
7.860722293827467
 30
0.0
 11
7.127104328566926
 21
7.625410644042237
 31
0.0
  0
LINE
  5
844
330
18
100
AcDbEntity
  8
0
100
AcDbLine
 10
7.206956368660345
 20
7.882051033813678
 30
0.0
 11
7.098064182107604
 21
7.647457713316149
 31
0.0
  0
LINE
  5
845
330
18
100
AcDbEntity
  8
0
100
AcDbLine
 10
7.2363299451024
 20
7.860722293827467
 30
0.0
 11
6.929981249147719
 21
8.083168194959791
 31
0.0
  0
LINE
  5
846
330
18
100
AcDbEntity
  8
0
100
AcDbLine
 10
6.789447561057276
 20
7.881757221168415
 30
0.0
 11
6.929981249147719
 21
8.083168194959791
 31
0.0
  0
LINE
  5
847
330
18
100
AcDbEntity
  8
0
100
AcDbLine
 10
6.335321932554466
 20
2.759354546114582
 30
0.0
 11
5.003307112845535
 21
2.314187436254198
 31
0.0
  0
LINE
  5
848
330
18
100
AcDbEntity
  8
0
100
AcDbLine
 10
6.693025645828889
 20
3.269483469162282
 30
0.0
 11
8.592220121891698
 21
3.852030115210566
 31
0.0
  0
LINE
  5
849
330
18
100
AcDbEntity
  8
0
100
AcDbLine
 10
6.693025645828887
 20
3.632618296320835
 30
0.0
 11
8.499060466016429
 21
4.144519121466137
 31
0.0
  0
LINE
  5
84A
330
18
100
AcDbEntity
  8
0
100
AcDbLine
 10
7.098064182107604
 20
6.081823935622645
 30
0.0
 11
7.127104328566925
 21
6.079916875926883
 31
0.0
  0
LINE
  5
84B
330
18
100
AcDbEntity
  8
0
100
AcDbLine
 10
7.127104328566925
 20
6.079916875926883
 30
0.0
 11
6.720154041746078
 21
5.624389914043515
 31
0.0
  0
ARC
  5
84C
330
18
100
AcDbEntity
  8
0
100
AcDbCircle
 10
6.939982301291709
 20
5.744766146055166
 30
0.0
 40
0.1066666666666667
100
AcDbArc
 50
138.2236224925553
 51
176.4976620392803
  0
LINE
  5
84D
330
18
100
AcDbEntity
  8
0
100
AcDbLine
 10
7.127104328566926
 20
7.625410644042237
 30
0.0
 11
7.127104328566925
 21
6.079916875926883
 31
0.0
  0
ARC
  5
84E
330
18
100
AcDbEntity
  8
0
100
AcDbCircle
 10
6.661932470610518
 20
6.191775744841041
 30
0.0
 40
0.1292471388356913
100
AcDbArc
 50
297.2613433260538
 51
350.6093994288635
  0
LINE
  5
84F
330
18
100
AcDbEntity
  8
0
100
AcDbLine
 10
6.335321932554467
 20
5.500326337326211
 30
0.0
 11
6.721134111222191
 21
6.076884541321804
 31
0.0
  0
LINE
  5
850
330
18
100
AcDbEntity
  8
0
100
AcDbLine
 10
6.36436207901379
 20
5.483191399997982
 30
0.0
 11
6.721134111222189
 21
6.016351972679358
 31
0.0
  0
LINE
  5
851
330
18
100
AcDbEntity
  8
0
100
AcDbLine
 10
7.098064182107604
 20
6.081823935622645
 30
0.0
 11
6.860435555566937
 21
5.815830152573069
 31
0.0
  0
LINE
  5
852
330
18
100
AcDbEntity
  8
0
100
AcDbLine
 10
7.098064182107604
 20
7.647457713316149
 30
0.0
 11
7.098064182107604
 21
6.081823935622645
 31
0.0
  0
LINE
  5
853
330
18
100
AcDbEntity
  8
0
100
AcDbLine
 10
6.789447561057276
 20
7.881757221168415
 30
0.0
 11
6.789447561057276
 21
6.170687250215598
 31
0.0
  0
LINE
  5
854
330
18
100
AcDbEntity
  8
0
100
AcDbLine
 10
6.693025645828887
 20
0.9943009916270549
 30
0.0
 11
6.693025645828887
 21
5.553303700023575
 31
0.0
  0
LINE
  5
855
330
18
100
AcDbEntity
  8
0
100
AcDbLine
 10
6.615350992377368
 20
0.8712257194112023
 30
0.0
 11
6.693025645828887
 21
0.9943009916270549
 31
0.0
  0
LINE
  5
856
330
18
100
AcDbEntity
  8
0
100
AcDbLine
 10
6.4244537842927
 20
0.8116072278720734
 30
0.0
 11
6.615350992377368
 21
0.8712257194112023
 31
0.0
  0
LINE
  5
857
330
18
100
AcDbEntity
  8
0
100
AcDbLine
 10
6.4244537842927
 20
0.8116072278720734
 30
0.0
 11
6.335321932554467
 21
0.8641988597917958
 31
0.0
  0
LINE
  5
858
330
18
100
AcDbEntity
  8
0
100
AcDbLine
 10
6.335321932554467
 20
5.500326337326211
 30
0.0
 11
6.335321932554467
 21
0.8641988597917958
 31
0.0
  0
LINE
  5
859
330
18
100
AcDbEntity
  8
0
100
AcDbLine
 10
6.36436207901379
 20
5.483191399997982
 30
0.0
 11
6.335321932554467
 21
5.500326337326211
 31
0.0
  0
LINE
  5
85A
330
18
100
AcDbEntity
  8
0
100
AcDbLine
 10
6.364362079013791
 20
0.8470639224635688
 30
0.0
 11
6.36436207901379
 21
5.483191399997982
 31
0.0
  0
LINE
  5
85B
330
18
100
AcDbEntity
  8
0
100
AcDbLine
 10
4.926873127152979
 20
5.749615021499363
 30
0.0
 11
4.836416379933643
 21
5.76208039259512
 31
0.0
  0
LWPOLYLINE
  5
85C
330
18
100
AcDbEntity
  8
0
100
AcDbPolyline
 90
        2
 70
     0
 43
0.0
 10
4.926873127152979
 20
5.813056779516328
 10
4.777063735790422
 20
5.846658173401402
  0
LWPOLYLINE
  5
861
330
18
100
AcDbEntity
  8
0
100
AcDbPolyline
 90
        2
 70
     0
 43
0.0
 10
4.926873127152979
 20
5.878699356938553
 10
4.777063735790422
 20
5.907025651752167
  0
LWPOLYLINE
  5
866
330
18
100
AcDbEntity
  8
0
100
AcDbPolyline
 90
        2
 70
     0
 43
0.0
 10
4.926873127152979
 20
5.942160429801619
 10
4.777063735790422
 20
5.978030245053315
  0
LWPOLYLINE
  5
86B
330
18
100
AcDbEntity
  8
0
100
AcDbPolyline
 90
        2
 70
     0
 43
0.0
 10
4.939582835941674
 20
6.020982714033767
 10
4.777063735790422
 20
6.059816814650611
  0
LWPOLYLINE
  5
870
330
18
100
AcDbEntity
  8
0
100
AcDbPolyline
 90
        2
 70
     0
 43
0.0
 10
5.287940380685082
 20
5.955011240716294
 10
4.926873127152979
 20
5.935702832931593
  0
LWPOLYLINE
  5
875
330
18
100
AcDbEntity
  8
0
100
AcDbPolyline
 90
        2
 70
     0
 43
0.0
 10
5.287940380685082
 20
5.881844457702085
 10
4.926873127152979
 20
5.86681214222825
  0
LWPOLYLINE
  5
87A
330
18
100
AcDbEntity
  8
0
100
AcDbPolyline
 90
        2
 70
     0
 43
0.0
 10
5.287940380685082
 20
5.81189681569984
 10
4.926873127152978
 20
5.781758144503735
  0
LWPOLYLINE
  5
87F
330
18
100
AcDbEntity
  8
0
100
AcDbPolyline
 90
        2
 70
     0
 43
0.0
 10
5.287940380685082
 20
5.732282093238657
 10
4.926873127152979
 20
5.692437711891407
  0
LWPOLYLINE
  5
884
330
18
100
AcDbEntity
  8
0
100
AcDbPolyline
 90
        3
 70
     0
 43
0.0
 10
5.540798502540771
 20
5.868870246373358
 10
5.383117464458027
 20
5.886385592621671
 10
5.287940380685082
 20
5.892616776575182
  0
LWPOLYLINE
  5
88A
330
18
100
AcDbEntity
  8
0
100
AcDbPolyline
 90
        3
 70
     0
 43
0.0
 10
5.54079850254077
 20
5.817209471413141
 10
5.383611066091741
 20
5.82287623264335
 10
5.28794038068508
 20
5.805468191098965
  0
LWPOLYLINE
  5
890
330
18
100
AcDbEntity
  8
0
100
AcDbPolyline
 90
        3
 70
     0
 43
0.0
 10
5.54079850254077
 20
5.750538914961163
 10
5.397909417431628
 20
5.757088793875359
 10
5.287940380685082
 20
5.743015782419549
  0
LWPOLYLINE
  5
896
330
18
100
AcDbEntity
  8
0
100
AcDbPolyline
 90
        3
 70
     0
 43
0.0
 10
5.54079850254077
 20
5.676257236109747
 10
5.421758960154048
 20
5.689061906009898
 10
5.287940380685082
 20
5.683676283098532
  0
LWPOLYLINE
  5
89C
330
18
100
AcDbEntity
  8
0
100
AcDbPolyline
 90
        4
 70
     0
 43
0.0
 10
5.54079850254077
 20
5.593307483559988
 10
5.464710885641535
 20
5.616556119949499
 10
5.410593906089063
 20
5.629963842265158
 10
5.287940380685082
 20
5.624549247084638
  0
LWPOLYLINE
  5
8A3
330
18
100
AcDbEntity
  8
0
100
AcDbPolyline
 90
        3
 70
     0
 43
0.0
 10
5.461578163676706
 20
4.329334134183465
 10
5.574328002549806
 20
4.440182200799755
 10
5.696209151950419
 20
4.605807252954338
  0
LWPOLYLINE
  5
8A9
330
18
100
AcDbEntity
  8
0
100
AcDbPolyline
 90
        5
 70
     0
 43
0.0
 10
5.397231947358011
 20
4.365716295930998
 10
5.455054535876722
 20
4.421891041571387
 10
5.518316021983522
 20
4.479439625441622
 10
5.575322717101707
 20
4.551037613735224
 10
5.647924828129107
 20
4.631767222208503
  0
LWPOLYLINE
  5
8B1
330
18
100
AcDbEntity
  8
0
100
AcDbPolyline
 90
        3
 70
     0
 43
0.0
 10
5.349503429580911
 20
4.392702601468158
 10
5.454792712391032
 20
4.511230789029815
 10
5.591546806695681
 20
4.663341011345642
  0
LWPOLYLINE
  5
8B7
330
18
100
AcDbEntity
  8
0
100
AcDbPolyline
 90
        2
 70
     0
 43
0.0
 10
5.301941761656125
 20
4.419594567995788
 10
5.545409632357161
 20
4.689427551244811
  0
LWPOLYLINE
  5
8BC
330
18
100
AcDbEntity
  8
0
100
AcDbPolyline
 90
        5
 70
     0
 43
0.0
 10
5.339385434258785
 20
5.078331838453418
 10
5.389225248165523
 20
5.026323396263362
 10
5.404731850428834
 20
4.976670292247387
 10
5.41936928463709
 20
4.830153235181002
 10
5.424912161034636
 20
4.757558340320455
  0
LWPOLYLINE
  5
8C4
330
18
100
AcDbEntity
  8
0
100
AcDbPolyline
 90
       11
 70
     0
 43
0.0
 10
5.386096760548345
 20
5.576659492781224
 10
5.396104552430848
 20
5.437428091385953
 10
5.418272630510978
 20
5.300529827663249
 10
5.427273348791975
 20
5.236943208300522
 10
5.444597692686421
 20
5.152830272798299
 10
5.46006566525839
 20
5.098872104202306
 10
5.466910632109065
 20
5.032076001250665
 10
5.457901329474407
 20
4.976187421094837
 10
5.453899937213616
 20
4.885810037183607
 10
5.455186520588883
 20
4.792155567722109
 10
5.476944622600303
 20
4.728138530716914
  0
LWPOLYLINE
  5
8D2
330
18
100
AcDbEntity
  8
0
100
AcDbPolyline
 90
       12
 70
     0
 43
0.0
 10
5.460760598541236
 20
5.551473518326907
 10
5.452367625990799
 20
5.426153586514204
 10
5.451672291546758
 20
5.348662424073875
 10
5.478702345589075
 20
5.279530297794256
 10
5.490951177149813
 20
5.222372303032403
 10
5.505317130449536
 20
5.164118727279441
 10
5.519103638379224
 20
5.041289182826208
 10
5.514289949531205
 20
4.978904376108147
 10
5.505367563702051
 20
4.932702191257358
 10
5.517374959691938
 20
4.848637542870392
 10
5.534679988740709
 20
4.76237207507816
 10
5.563877120328855
 20
4.678985800775303
  0
LWPOLYLINE
  5
8E1
330
18
100
AcDbEntity
  8
0
100
AcDbPolyline
 90
       11
 70
     0
 43
0.0
 10
5.527751425228662
 20
5.528875841928545
 10
5.528283555417375
 20
5.471747353712778
 10
5.529637740752476
 20
5.38562674726631
 10
5.539508700157701
 20
5.30050514758044
 10
5.554831811387165
 20
5.230402986809378
 10
5.564992493477416
 20
5.177569371473645
 10
5.58227820768052
 20
5.089151371391403
 10
5.595223446754472
 20
4.991085605696324
 10
5.587161644626721
 20
4.92227217437739
 10
5.588361311196475
 20
4.81893130961085
 10
5.60916978424557
 20
4.653376757713111
  0
LWPOLYLINE
  5
8EF
330
18
100
AcDbEntity
  8
0
100
AcDbPolyline
 90
        7
 70
     0
 43
0.0
 10
5.581758050304084
 20
5.52997716361456
 10
5.58575487990075
 20
5.476607183593045
 10
5.58317420186573
 20
5.426041989623935
 10
5.5944272458054
 20
5.376427515300163
 10
5.605776863973392
 20
5.337575702426438
 10
5.616034120291988
 20
5.295504748540749
 10
5.637009686460396
 20
5.242574558974505
  0
LWPOLYLINE
  5
8F9
330
18
100
AcDbEntity
  8
0
100
AcDbPolyline
 90
        5
 70
     0
 43
0.0
 10
5.637009686460396
 20
3.981123035067802
 10
5.615552322419187
 20
4.056625841409988
 10
5.583089431398306
 20
4.112891061064807
 10
5.560448139599301
 20
4.197052283682285
 10
5.560460879601782
 20
4.276604149213839
  0
LWPOLYLINE
  5
901
330
18
100
AcDbEntity
  8
0
100
AcDbPolyline
 90
        9
 70
     0
 43
0.0
 10
5.589194030800651
 20
3.360337692020881
 10
5.590258458548358
 20
3.489617074030553
 10
5.584697928934603
 20
3.699556574267801
 10
5.576421517366158
 20
3.843863154505871
 10
5.561523332741392
 20
3.961321025657133
 10
5.532250610463241
 20
4.017557273042799
 10
5.493639160104908
 20
4.099710824716033
 10
5.499815618641681
 20
4.195450224506184
 10
5.508852880652191
 20
4.302604413339394
  0
LWPOLYLINE
  5
90D
330
18
100
AcDbEntity
  8
0
100
AcDbPolyline
 90
        7
 70
     0
 43
0.0
 10
5.521412762879133
 20
3.398662075241174
 10
5.525845592985971
 20
3.540790685651881
 10
5.526975511457544
 20
3.666713824617413
 10
5.486565634313737
 20
3.785479740066905
 10
5.477332064815559
 20
3.941634905323076
 10
5.461234213621022
 20
4.162433641240877
 10
5.463364861925379
 20
4.328323912473531
  0
LWPOLYLINE
  5
917
330
18
100
AcDbEntity
  8
0
100
AcDbPolyline
 90
        9
 70
     0
 43
0.0
 10
5.469278500714565
 20
3.428139444186464
 10
5.467233619539003
 20
3.527330384034626
 10
5.45947012444993
 20
3.610280136584385
 10
5.447501358151377
 20
3.698649849551372
 10
5.426928900977198
 20
3.77633416045272
 10
5.404162062681356
 20
3.846503923185139
 10
5.41125597638736
 20
4.044488606750723
 10
5.395951106934398
 20
4.235142233185346
 10
5.380091275567531
 20
4.375407847808019
  0
LWPOLYLINE
  5
923
330
18
100
AcDbEntity
  8
0
100
AcDbPolyline
 90
        5
 70
     0
 43
0.0
 10
5.416564255385546
 20
3.457944742923234
 10
5.419419718089322
 20
3.532070032651939
 10
5.419912246653856
 20
3.586959606047173
 10
5.410834268990191
 20
3.641936096249864
 10
5.339385434258785
 20
3.717757597552734
  0
LINE
  5
92B
330
18
100
AcDbEntity
  8
0
100
AcDbLine
 10
5.339385434258785
 20
4.805916229646607
 30
0.0
 11
5.339385434258785
 21
5.592416387983533
 31
0.0
  0
LINE
  5
92C
330
18
100
AcDbEntity
  8
0
100
AcDbLine
 10
5.541025988811543
 20
4.284413332465624
 30
0.0
 11
5.243401736609934
 21
4.452693836014698
 31
0.0
  0
LINE
  5
92D
330
18
100
AcDbEntity
  8
0
100
AcDbLine
 10
5.637009686460396
 20
4.637635726097534
 30
0.0
 11
5.339385434258785
 21
4.805916229646608
 31
0.0
  0
LINE
  5
92E
330
18
100
AcDbEntity
  8
0
100
AcDbLine
 10
5.637009686460396
 20
4.637635726097533
 30
0.0
 11
5.637009686460396
 21
5.538528434004659
 31
0.0
  0
LINE
  5
92F
330
18
100
AcDbEntity
  8
0
100
AcDbLine
 10
5.243401736609934
 20
4.452693836014698
 30
0.0
 11
5.503360802704378
 21
4.713202489527816
 31
0.0
  0
LINE
  5
930
330
18
100
AcDbEntity
  8
0
100
AcDbLine
 10
5.803941819574812
 20
4.547885001634255
 30
0.0
 11
5.637009686460396
 21
4.637635726097534
 31
0.0
  0
LINE
  5
931
330
18
100
AcDbEntity
  8
0
100
AcDbLine
 10
5.541025988811543
 20
4.284413332465624
 30
0.0
 11
5.803941819574812
 21
4.547885001634255
 31
0.0
  0
LINE
  5
932
330
18
100
AcDbEntity
  8
0
100
AcDbLine
 10
5.637009686460396
 20
4.245845877046721
 30
0.0
 11
5.541025988811543
 21
4.284413332465624
 31
0.0
  0
LINE
  5
933
330
18
100
AcDbEntity
  8
0
100
AcDbLine
 10
4.978094800234628
 20
3.227160507332646
 30
0.0
 11
4.819438362445666
 21
3.320101400538736
 31
0.0
  0
LINE
  5
934
330
18
100
AcDbEntity
  8
0
100
AcDbLine
 10
4.978094800234628
 20
3.285307851432045
 30
0.0
 11
4.819438362445665
 21
3.371820120037262
 31
0.0
  0
LINE
  5
935
330
18
100
AcDbEntity
  8
0
100
AcDbLine
 10
4.978094800234628
 20
3.352094296960635
 30
0.0
 11
4.819438362445665
 21
3.434224241601425
 31
0.0
  0
LINE
  5
936
330
18
100
AcDbEntity
  8
0
100
AcDbLine
 10
4.982241980248375
 20
3.422061221654753
 30
0.0
 11
4.819438362445665
 21
3.517164336728133
 31
0.0
  0
LINE
  5
937
330
18
100
AcDbEntity
  8
0
100
AcDbLine
 10
5.011725282232095
 20
3.468518860753656
 30
0.0
 11
4.95158830054197
 21
3.552481088387065
 31
0.0
  0
LINE
  5
938
330
18
100
AcDbEntity
  8
0
100
AcDbLine
 10
5.264301469784934
 20
3.082495529391323
 30
0.0
 11
4.978094800234627
 21
3.082950501325087
 31
0.0
  0
LINE
  5
939
330
18
100
AcDbEntity
  8
0
100
AcDbLine
 10
5.264301469784933
 20
3.14277609093463
 30
0.0
 11
4.978094800234627
 21
3.142164454146439
 31
0.0
  0
LINE
  5
93A
330
18
100
AcDbEntity
  8
0
100
AcDbLine
 10
5.264301469784933
 20
3.239591756869785
 30
0.0
 11
4.978094800234628
 21
3.229370984160962
 31
0.0
  0
LINE
  5
93B
330
18
100
AcDbEntity
  8
0
100
AcDbLine
 10
5.264301469784933
 20
3.311720903431193
 30
0.0
 11
4.978094800234628
 21
3.303700950127634
 31
0.0
  0
LWPOLYLINE
  5
93C
330
18
100
AcDbEntity
  8
0
100
AcDbPolyline
 90
        2
 70
     0
 43
0.0
 10
5.268053310558703
 20
3.376780626429298
 10
4.978094800234627
 20
3.356466963502009
  0
LWPOLYLINE
  5
941
330
18
100
AcDbEntity
  8
0
100
AcDbPolyline
 90
        3
 70
     0
 43
0.0
 10
5.426450070714158
 20
3.202684305165288
 10
5.316882565586988
 20
3.245614769702517
 10
5.264301469784933
 20
3.292396399936366
  0
LWPOLYLINE
  5
947
330
18
100
AcDbEntity
  8
0
100
AcDbPolyline
 90
        3
 70
     0
 43
0.0
 10
5.426450070714158
 20
3.142403743621983
 10
5.334293826286936
 20
3.171188229505336
 10
5.264301469784933
 20
3.226744165091087
  0
LWPOLYLINE
  5
94D
330
18
100
AcDbEntity
  8
0
100
AcDbPolyline
 90
        3
 70
     0
 43
0.0
 10
5.426450070714158
 20
3.076751508776704
 10
5.331664861137749
 20
3.1152417048112
 10
5.264301469784933
 20
3.169673087136692
  0
LWPOLYLINE
  5
953
330
18
100
AcDbEntity
  8
0
100
AcDbPolyline
 90
        2
 70
     0
 43
0.0
 10
5.426450070714158
 20
3.007870475496412
 10
5.264301469784933
 20
3.106260301388882
  0
LWPOLYLINE
  5
958
330
18
100
AcDbEntity
  8
0
100
AcDbPolyline
 90
        2
 70
     0
 43
0.0
 10
5.426450070714158
 20
2.946542620077254
 10
5.264301469784933
 20
3.040579094274452
  0
LWPOLYLINE
  5
95D
330
18
100
AcDbEntity
  8
0
100
AcDbPolyline
 90
        2
 70
     0
 43
0.0
 10
4.591899559725783
 20
3.011508269901433
 10
4.402706608871593
 20
3.138769333433947
  0
LWPOLYLINE
  5
962
330
18
100
AcDbEntity
  8
0
100
AcDbPolyline
 90
        2
 70
     0
 43
0.0
 10
4.556432683746766
 20
2.957447012384352
 10
4.402706608871593
 20
3.053657391171128
  0
LWPOLYLINE
  5
967
330
18
100
AcDbEntity
  8
0
100
AcDbPolyline
 90
        2
 70
     0
 43
0.0
 10
4.547406997396561
 20
2.887762178257951
 10
4.402706608871593
 20
2.98162481884023
  0
LWPOLYLINE
  5
96C
330
18
100
AcDbEntity
  8
0
100
AcDbPolyline
 90
        2
 70
     0
 43
0.0
 10
4.547406997396561
 20
2.812529779761194
 10
4.402706608871593
 20
2.90421091578431
  0
LWPOLYLINE
  5
971
330
18
100
AcDbEntity
  8
0
100
AcDbPolyline
 90
        2
 70
     0
 43
0.0
 10
4.547406997396561
 20
2.737065603111211
 10
4.402706608871593
 20
2.830918586270439
  0
LWPOLYLINE
  5
976
330
18
100
AcDbEntity
  8
0
100
AcDbPolyline
 90
        3
 70
     0
 43
0.0
 10
4.822458173948449
 20
2.57738118625508
 10
4.661067355264755
 20
2.573467783833809
 10
4.547406997396561
 20
2.573366917416956
  0
LWPOLYLINE
  5
97C
330
18
100
AcDbEntity
  8
0
100
AcDbPolyline
 90
        3
 70
     0
 43
0.0
 10
4.822458173948449
 20
2.65179806902921
 10
4.6904162638564
 20
2.644240598981733
 10
4.547406997396561
 20
2.64132620332106
  0
LWPOLYLINE
  5
982
330
18
100
AcDbEntity
  8
0
100
AcDbPolyline
 90
        3
 70
     0
 43
0.0
 10
4.822458173948449
 20
2.720717732001705
 10
4.715434354741729
 20
2.706441914661824
 10
4.547406997396561
 20
2.701568135172161
  0
LWPOLYLINE
  5
988
330
18
100
AcDbEntity
  8
0
100
AcDbPolyline
 90
        2
 70
     0
 43
0.0
 10
4.822458173948449
 20
2.787388288453683
 10
4.547406997396561
 20
2.77791542950613
  0
LWPOLYLINE
  5
98D
330
18
100
AcDbEntity
  8
0
100
AcDbPolyline
 90
        2
 70
     0
 43
0.0
 10
4.822458173948449
 20
2.842316491541118
 10
4.547406997396561
 20
2.832814660324414
  0
LWPOLYLINE
  5
992
330
18
100
AcDbEntity
  8
0
100
AcDbPolyline
 90
        2
 70
     0
 43
0.0
 10
4.829331989829107
 20
2.886750512093358
 10
4.547406997396561
 20
2.885609645967943
  0
LWPOLYLINE
  5
997
330
18
100
AcDbEntity
  8
0
100
AcDbPolyline
 90
        2
 70
     0
 43
0.0
 10
5.003307112845536
 20
2.70164324845584
 10
4.822458173948449
 20
2.782899732835695
  0
LWPOLYLINE
  5
99C
330
18
100
AcDbEntity
  8
0
100
AcDbPolyline
 90
        2
 70
     0
 43
0.0
 10
5.003307112845536
 20
2.632926391367414
 10
4.822458173948449
 20
2.716238833806769
  0
LWPOLYLINE
  5
9A1
330
18
100
AcDbEntity
  8
0
100
AcDbPolyline
 90
        3
 70
     0
 43
0.0
 10
5.003307112845536
 20
2.551130164347068
 10
4.893166349165608
 20
2.602574183813822
 10
4.822458173948449
 20
2.636624111345586
  0
LWPOLYLINE
  5
9A7
330
18
100
AcDbEntity
  8
0
100
AcDbPolyline
 90
        3
 70
     0
 43
0.0
 10
5.003307112845536
 20
2.466066509199504
 10
4.871406028982848
 20
2.54787775887961
 10
4.822458173948449
 20
2.568857973902501
  0
LWPOLYLINE
  5
9AD
330
18
100
AcDbEntity
  8
0
100
AcDbPolyline
 90
        2
 70
     0
 43
0.0
 10
5.003307112845536
 20
2.397108216534803
 10
4.822458173948449
 20
2.533418450501759
  0
LINE
  5
9B2
330
18
100
AcDbEntity
  8
0
100
AcDbLine
 10
8.499060466016429
 20
4.913146982614312
 30
0.0
 11
8.499060466016429
 21
4.144519121466137
 31
0.0
  0
LINE
  5
9B3
330
18
100
AcDbEntity
  8
0
100
AcDbLine
 10
8.430122422166589
 20
5.072975187765844
 30
0.0
 11
8.499060466016429
 21
5.156412103654496
 31
0.0
  0
LINE
  5
9B4
330
18
100
AcDbEntity
  8
0
100
AcDbLine
 10
8.555835243931316
 20
4.979267065952382
 30
0.0
 11
8.430122422166589
 21
5.072975187765844
 31
0.0
  0
LINE
  5
9B5
330
18
100
AcDbEntity
  8
0
100
AcDbLine
 10
8.499060466016429
 20
4.913146982614312
 30
0.0
 11
8.555835243931316
 21
4.979267065952382
 31
0.0
  0
LWPOLYLINE
  5
9B6
330
18
100
AcDbEntity
  8
0
100
AcDbPolyline
 90
        4
 70
     0
 43
0.0
 10
8.365172941411032
 20
4.503448375446326
 10
8.367541247934854
 20
4.617169500551715
 10
8.397149833873852
 20
4.835400434988316
 10
8.430182512442487
 20
4.979475237073161
  0
LWPOLYLINE
  5
9BD
330
18
100
AcDbEntity
  8
0
100
AcDbPolyline
 90
        6
 70
     0
 43
0.0
 10
8.336663901868747
 20
6.972522088595973
 10
8.342105741329865
 20
6.878819940397492
 10
8.36729015454172
 20
6.722519913795556
 10
8.363172873206924
 20
6.619227336144272
 10
8.380506874524196
 20
6.536190666787053
 10
8.430182512442485
 20
6.33671444788527
  0
LWPOLYLINE
  5
9C6
330
18
100
AcDbEntity
  8
0
100
AcDbPolyline
 90
       18
 70
     0
 43
0.0
 10
8.291762402062094
 20
4.489634080158687
 10
8.298043212615925
 20
4.694221786768406
 10
8.31294890852517
 20
4.814638048509254
 10
8.335182442426797
 20
4.92207151454869
 10
8.329526411653879
 20
5.002849419962337
 10
8.309901454986605
 20
5.067608879700581
 10
8.312694596323967
 20
5.141851928859793
 10
8.349419630022164
 20
5.205023279031328
 10
8.358399960388312
 20
5.257683060752142
 10
8.366819087160925
 20
5.366318339436247
 10
8.363956197725374
 20
5.521339294009108
 10
8.351870469283645
 20
5.715192746609593
 10
8.350176128011002
 20
6.000441904728006
 10
8.342537106349603
 20
6.215782050536377
 10
8.327241894319467
 20
6.407511943116004
 10
8.312874867950569
 20
6.584164452242517
 10
8.304472909885277
 20
6.714479572595528
 10
8.275759141935156
 20
6.970277747210903
  0
LWPOLYLINE
  5
9DB
330
18
100
AcDbEntity
  8
0
100
AcDbPolyline
 90
       19
 70
     0
 43
0.0
 10
8.185548235470931
 20
4.46964684298493
 10
8.207722700198291
 20
4.702576530742774
 10
8.237766943233986
 20
4.850840508331026
 10
8.25748740106043
 20
4.915242643416381
 10
8.282534464214267
 20
4.980672757531486
 10
8.277922508176591
 20
5.059288473232074
 10
8.262290359416442
 20
5.09495011736299
 10
8.257494912344924
 20
5.153116776308491
 10
8.265759520352191
 20
5.244531796672522
 10
8.288544600424528
 20
5.294913499603664
 10
8.307143724133052
 20
5.352867695242045
 10
8.302840805626062
 20
5.465923927582779
 10
8.289430937186896
 20
5.630727851691191
 10
8.280593322024908
 20
5.83100992889255
 10
8.276781859013278
 20
6.117354668002069
 10
8.268040818079633
 20
6.328399406653473
 10
8.244499239818719
 20
6.549265744532631
 10
8.217641946318242
 20
6.756169594795884
 10
8.212063613319286
 20
6.967930565954916
  0
LWPOLYLINE
  5
9F1
330
18
100
AcDbEntity
  8
0
100
AcDbPolyline
 90
       18
 70
     0
 43
0.0
 10
8.088357759126824
 20
4.451357671548907
 10
8.107059087725746
 20
4.624916899924235
 10
8.134966894176779
 20
4.772123926213585
 10
8.14859673720278
 20
4.868871990187382
 10
8.18644203194971
 20
5.056890213179447
 10
8.202546321359552
 20
5.192364543527308
 10
8.218669925615062
 20
5.329991406165178
 10
8.228046210317407
 20
5.42677809983118
 10
8.216560315160555
 20
5.568961120048395
 10
8.210768007398791
 20
5.753070232805532
 10
8.211133916397305
 20
5.912367279689258
 10
8.20440376555147
 20
6.110477509754507
 10
8.204885563623996
 20
6.282689750378286
 10
8.200360524391824
 20
6.370991861383915
 10
8.184601756065662
 20
6.511060979003324
 10
8.18492903537285
 20
6.666052961307032
 10
8.175898271754173
 20
6.844809715608299
 10
8.166267398238887
 20
6.96624297469117
  0
LWPOLYLINE
  5
A06
330
18
100
AcDbEntity
  8
0
100
AcDbPolyline
 90
       18
 70
     0
 43
0.0
 10
8.003264324116646
 20
4.627928942865784
 10
8.064695191961958
 20
4.881473854203463
 10
8.099273058583487
 20
5.060910920304643
 10
8.107102009494049
 20
5.22229289751702
 10
8.116816303995588
 20
5.356748906258184
 10
8.136014187919825
 20
5.481431602886847
 10
8.143862453676061
 20
5.644966112389234
 10
8.138525117856661
 20
5.761260800588032
 10
8.130703678230587
 20
5.837752956267765
 10
8.126043435078735
 20
5.910987341243328
 10
8.14416827199922
 20
6.034603429150037
 10
8.149860786325135
 20
6.194928455063514
 10
8.165752612432629
 20
6.306724930221273
 10
8.155378393970855
 20
6.454279623740461
 10
8.145091092314599
 20
6.611520712564688
 10
8.126364275970875
 20
6.776372923788354
 10
8.120814476849136
 20
6.868989756797053
 10
8.126692983114383
 20
6.964784656856066
  0
LWPOLYLINE
  5
A1B
330
18
100
AcDbEntity
  8
0
100
AcDbPolyline
 90
       18
 70
     0
 43
0.0
 10
8.003264324116646
 20
5.174623857412846
 10
8.055681597050608
 20
5.299181007541844
 10
8.077025574982333
 20
5.425996921614414
 10
8.07242327636749
 20
5.505688903460008
 10
8.059072425534508
 20
5.558551491064894
 10
8.050216568596024
 20
5.638282102602691
 10
8.061777576997192
 20
5.741507078292619
 10
8.073531733855058
 20
5.866257376882636
 10
8.085256918444404
 20
5.987778877037642
 10
8.070726788956501
 20
6.027735928325525
 10
8.06605688838183
 20
6.099894047156085
 10
8.094197546050053
 20
6.154532527551992
 10
8.093181370514138
 20
6.27832244907362
 10
8.095577484446137
 20
6.426837519661198
 10
8.111004681188424
 20
6.605372153232292
 10
8.103405362287532
 20
6.706618430247129
 10
8.088275399514751
 20
6.798245913918282
 10
8.078330325029691
 20
6.963002492126251
  0
LWPOLYLINE
  5
A30
330
18
100
AcDbEntity
  8
0
100
AcDbPolyline
 90
        6
 70
     0
 43
0.0
 10
8.003264324116646
 20
6.522118728381608
 10
8.0492508261129
 20
6.597322154609213
 10
8.076579187193897
 20
6.67995321219829
 10
8.068603228802475
 20
6.739225109557948
 10
8.042539990112724
 20
6.797584916964471
 10
8.003264324116646
 20
6.916331517567859
  0
LINE
  5
A39
330
18
100
AcDbEntity
  8
0
100
AcDbLine
 10
5.312938182947843
 20
8.30085743108133
 30
0.0
 11
5.56357714379861
 21
8.81242918069168
 31
0.0
  0
LINE
  5
A3A
330
18
100
AcDbEntity
  8
0
100
AcDbLine
 10
5.165352231981426
 20
8.2843269515883
 30
0.0
 11
5.312938182947843
 21
8.30085743108133
 31
0.0
  0
LINE
  5
A3B
330
18
100
AcDbEntity
  8
0
100
AcDbLine
 10
5.299331807891774
 20
8.026558753144677
 30
0.0
 11
5.165352231981426
 21
8.2843269515883
 31
0.0
  0
LINE
  5
A3C
330
18
100
AcDbEntity
  8
0
100
AcDbLine
 10
5.178548557928192
 20
8.026558753144677
 30
0.0
 11
5.299331807891774
 21
8.026558753144677
 31
0.0
  0
LINE
  5
A3D
330
18
100
AcDbEntity
  8
0
100
AcDbLine
 10
4.897337281961813
 20
7.452586757857262
 30
0.0
 11
5.178548557928192
 21
8.026558753144677
 31
0.0
  0
LINE
  5
A3E
330
18
100
AcDbEntity
  8
0
100
AcDbLine
 10
5.287940380685082
 20
5.990768781823984
 30
0.0
 11
5.54079850254077
 21
5.918320544505266
 31
0.0
  0
LINE
  5
A3F
330
18
100
AcDbEntity
  8
0
100
AcDbLine
 10
4.926873127152978
 20
5.731567076029426
 30
0.0
 11
4.777063735790421
 21
5.782101519547229
 31
0.0
  0
LINE
  5
A40
330
18
100
AcDbEntity
  8
0
100
AcDbLine
 10
5.287940380685082
 20
5.990768781823984
 30
0.0
 11
5.287940380685082
 21
5.609770087444194
 31
0.0
  0
LINE
  5
A41
330
18
100
AcDbEntity
  8
0
100
AcDbLine
 10
4.926873127152979
 20
5.636939101113274
 30
0.0
 11
4.926873127152979
 21
5.991981382465117
 31
0.0
  0
LINE
  5
A42
330
18
100
AcDbEntity
  8
0
100
AcDbLine
 10
5.287940380685082
 20
5.67788208712502
 30
0.0
 11
4.926873127152979
 21
5.636939101113274
 31
0.0
  0
LINE
  5
A43
330
18
100
AcDbEntity
  8
0
100
AcDbLine
 10
4.926873127152979
 20
5.991981382465117
 30
0.0
 11
4.966680681975116
 21
6.082815257223979
 31
0.0
  0
LINE
  5
A44
330
18
100
AcDbEntity
  8
0
100
AcDbLine
 10
5.339922183419771
 20
6.038818811136539
 30
0.0
 11
4.926873127152979
 21
5.991981382465117
 31
0.0
  0
LINE
  5
A45
330
18
100
AcDbEntity
  8
0
100
AcDbLine
 10
5.287940380685082
 20
5.992810613535085
 30
0.0
 11
5.339922183419771
 21
6.038818811136539
 31
0.0
  0
LINE
  5
A46
330
18
100
AcDbEntity
  8
0
100
AcDbLine
 10
5.54079850254077
 20
5.524474737394948
 30
0.0
 11
5.287940380685082
 21
5.609770087444194
 31
0.0
  0
LINE
  5
A47
330
18
100
AcDbEntity
  8
0
100
AcDbLine
 10
4.819438362445665
 20
3.630085365146152
 30
0.0
 11
5.339385434258785
 21
3.757627732033158
 31
0.0
  0
LINE
  5
A48
330
18
100
AcDbEntity
  8
0
100
AcDbLine
 10
5.264301469784934
 20
3.049720738563585
 30
0.0
 11
4.978094800234627
 21
3.032889154246527
 31
0.0
  0
LINE
  5
A49
330
18
100
AcDbEntity
  8
0
100
AcDbLine
 10
5.54079850254077
 20
5.524474737394949
 30
0.0
 11
6.431555061658391
 21
5.644137246231757
 31
0.0
  0
LINE
  5
A4A
330
18
100
AcDbEntity
  8
0
100
AcDbLine
 10
4.777063735790421
 20
6.137143800899072
 30
0.0
 11
6.075897531060031
 21
6.308183430685161
 31
0.0
  0
LINE
  5
A4B
330
18
100
AcDbEntity
  8
0
100
AcDbLine
 10
4.777063735790421
 20
6.137143800899072
 30
0.0
 11
4.966680681975116
 21
6.082815257223979
 31
0.0
  0
LINE
  5
A4C
330
18
100
AcDbEntity
  8
0
100
AcDbLine
 10
4.777063735790421
 20
5.782101519547229
 30
0.0
 11
4.777063735790421
 21
6.137143800899072
 31
0.0
  0
LINE
  5
A4D
330
18
100
AcDbEntity
  8
0
100
AcDbLine
 10
5.54079850254077
 20
5.918320544505263
 30
0.0
 11
6.721134111222189
 21
6.076884541321806
 31
0.0
  0
LINE
  5
A4E
330
18
100
AcDbEntity
  8
0
100
AcDbLine
 10
4.897337281961813
 20
7.452586757857262
 30
0.0
 11
6.196407778172617
 21
6.191165800182604
 31
0.0
  0
LINE
  5
A4F
330
18
100
AcDbEntity
  8
0
100
AcDbLine
 10
6.721134111222189
 20
6.016351972679358
 30
0.0
 11
6.721134111222189
 21
6.076884541321806
 31
0.0
  0
LINE
  5
A50
330
18
100
AcDbEntity
  8
0
100
AcDbLine
 10
6.196407778172617
 20
6.191165800182604
 30
0.0
 11
6.721134111222189
 21
6.076884541321806
 31
0.0
  0
LINE
  5
A51
330
18
100
AcDbEntity
  8
0
100
AcDbLine
 10
8.003264324116646
 20
4.435344904871325
 30
0.0
 11
6.741363976805909
 21
5.648131627939398
 31
0.0
  0
LINE
  5
A52
330
18
100
AcDbEntity
  8
0
100
AcDbLine
 10
5.54079850254077
 20
5.918320544505266
 30
0.0
 11
5.54079850254077
 21
5.524474737394948
 31
0.0
  0
LINE
  5
A53
330
18
100
AcDbEntity
  8
0
100
AcDbLine
 10
6.087616807944199
 20
0.5761964937930892
 30
0.0
 11
6.280622310881636
 21
0.4114540504742068
 31
0.0
  0
LINE
  5
A54
330
18
100
AcDbEntity
  8
0
100
AcDbLine
 10
5.938359199319378
 20
0.8020292103213247
 30
0.0
 11
5.877028900442033
 21
0.7559466350445729
 31
0.0
  0
LINE
  5
A55
330
18
100
AcDbEntity
  8
0
100
AcDbLine
 10
5.982531179291467
 20
0.5099361584108457
 30
0.0
 11
5.938359199319378
 21
0.8020292103213247
 31
0.0
  0
LINE
  5
A56
330
18
100
AcDbEntity
  8
0
100
AcDbLine
 10
6.087616807944199
 20
0.5761964937930901
 30
0.0
 11
5.982531179291467
 21
0.5099361584108457
 31
0.0
  0
LINE
  5
A57
330
18
100
AcDbEntity
  8
0
100
AcDbLine
 10
5.685158808920286
 20
0.9197199326761776
 30
0.0
 11
5.877028900442032
 21
0.7559466350445729
 31
0.0
  0
LINE
  5
A58
330
18
100
AcDbEntity
  8
0
100
AcDbLine
 10
5.685158808920286
 20
2.5420662439099
 30
0.0
 11
5.685158808920286
 21
0.9197199326761776
 31
0.0
  0
LINE
  5
A59
330
18
100
AcDbEntity
  8
0
100
AcDbLine
 10
6.657502424838807
 20
0.5909909099418751
 30
0.0
 11
6.657502424838806
 21
0.9380145468337504
 31
0.0
  0
LINE
  5
A5A
330
18
100
AcDbEntity
  8
0
100
AcDbLine
 10
6.280622310881636
 20
0.4114540504742068
 30
0.0
 11
6.657502424838807
 21
0.5909909099418751
 31
0.0
  0
LINE
  5
A5B
330
18
100
AcDbEntity
  8
0
100
AcDbLine
 10
6.280622310881636
 20
2.741073614003127
 30
0.0
 11
6.280622310881636
 21
0.4114540504742068
 31
0.0
  0
LINE
  5
A5C
330
18
100
AcDbEntity
  8
0
100
AcDbLine
 10
5.339385434258785
 20
3.501582621175634
 30
0.0
 11
5.339385434258785
 21
4.398423443553839
 31
0.0
  0
LINE
  5
A5D
330
18
100
AcDbEntity
  8
0
100
AcDbLine
 10
5.637009686460396
 20
3.33330211762656
 30
0.0
 11
5.339385434258785
 21
3.501582621175634
 31
0.0
  0
LINE
  5
A5E
330
18
100
AcDbEntity
  8
0
100
AcDbLine
 10
5.637009686460396
 20
3.33330211762656
 30
0.0
 11
5.637009686460396
 21
4.24584587704672
 31
0.0
  0
LINE
  5
A5F
330
18
100
AcDbEntity
  8
0
100
AcDbLine
 10
4.978094800234627
 20
3.171932113665489
 30
0.0
 11
4.819438362445665
 21
3.274888565025494
 31
0.0
  0
LINE
  5
A60
330
18
100
AcDbEntity
  8
0
100
AcDbLine
 10
5.264301469784933
 20
3.368842112223057
 30
0.0
 11
5.264301469784934
 21
2.986204868915039
 31
0.0
  0
LINE
  5
A61
330
18
100
AcDbEntity
  8
0
100
AcDbLine
 10
4.978094800234628
 20
3.415526397554547
 30
0.0
 11
4.978094800234627
 21
3.032889154246527
 31
0.0
  0
LINE
  5
A62
330
18
100
AcDbEntity
  8
0
100
AcDbLine
 10
5.264301469784933
 20
3.368842112223057
 30
0.0
 11
5.426450070714158
 21
3.27362129650508
 31
0.0
  0
LINE
  5
A63
330
18
100
AcDbEntity
  8
0
100
AcDbLine
 10
4.978094800234628
 20
3.415526397554547
 30
0.0
 11
5.03421616687405
 21
3.503958358076176
 31
0.0
  0
LINE
  5
A64
330
18
100
AcDbEntity
  8
0
100
AcDbLine
 10
5.295178043802889
 20
3.434173808385437
 30
0.0
 11
4.978094800234628
 21
3.415526397554547
 31
0.0
  0
LINE
  5
A65
330
18
100
AcDbEntity
  8
0
100
AcDbLine
 10
5.264301469784933
 20
3.368842112223057
 30
0.0
 11
5.295178043802889
 21
3.434173808385437
 31
0.0
  0
LINE
  5
A66
330
18
100
AcDbEntity
  8
0
100
AcDbLine
 10
4.822458173948448
 20
2.878260155983331
 30
0.0
 11
4.822458173948448
 21
2.447464394791848
 31
0.0
  0
LINE
  5
A67
330
18
100
AcDbEntity
  8
0
100
AcDbLine
 10
4.822458173948448
 20
2.447464394791848
 30
0.0
 11
5.003307112845535
 21
2.314187436254198
 31
0.0
  0
LINE
  5
A68
330
18
100
AcDbEntity
  8
0
100
AcDbLine
 10
4.604809614435587
 20
3.031186738133009
 30
0.0
 11
4.402706608871593
 21
3.173190535227991
 31
0.0
  0
LINE
  5
A69
330
18
100
AcDbEntity
  8
0
100
AcDbLine
 10
4.547406997396561
 20
2.506686703541929
 30
0.0
 11
4.547406997396562
 21
2.943689388105985
 31
0.0
  0
LINE
  5
A6A
330
18
100
AcDbEntity
  8
0
100
AcDbLine
 10
4.822458173948448
 20
2.50051301448952
 30
0.0
 11
4.547406997396561
 21
2.506686703541929
 31
0.0
  0
LINE
  5
A6B
330
18
100
AcDbEntity
  8
0
100
AcDbLine
 10
4.547406997396562
 20
2.943689388105985
 30
0.0
 11
4.604809614435587
 21
3.03118673813301
 31
0.0
  0
LINE
  5
A6C
330
18
100
AcDbEntity
  8
0
100
AcDbLine
 10
4.869575410721359
 20
2.936458124341511
 30
0.0
 11
4.547406997396562
 21
2.943689388105985
 31
0.0
  0
LINE
  5
A6D
330
18
100
AcDbEntity
  8
0
100
AcDbLine
 10
4.822458173948448
 20
2.878260155983331
 30
0.0
 11
4.869575410721359
 21
2.936458124341511
 31
0.0
  0
LINE
  5
A6E
330
18
100
AcDbEntity
  8
0
100
AcDbLine
 10
4.402706608871593
 20
3.173190535227991
 30
0.0
 11
4.819438362445665
 21
3.274888565025494
 31
0.0
  0
LINE
  5
A6F
330
18
100
AcDbEntity
  8
0
100
AcDbLine
 10
4.819438362445665
 20
3.630085365146152
 30
0.0
 11
5.03421616687405
 21
3.503958358076176
 31
0.0
  0
LINE
  5
A70
330
18
100
AcDbEntity
  8
0
100
AcDbLine
 10
4.819438362445665
 20
3.274888565025494
 30
0.0
 11
4.819438362445665
 21
3.630085365146152
 31
0.0
  0
LINE
  5
A71
330
18
100
AcDbEntity
  8
0
100
AcDbLine
 10
5.426450070714158
 20
2.880982258491448
 30
0.0
 11
5.264301469784934
 21
2.986204868915039
 31
0.0
  0
LINE
  5
A72
330
18
100
AcDbEntity
  8
0
100
AcDbLine
 10
4.402706608871593
 20
2.756801083610888
 30
0.0
 11
4.547406997396561
 21
2.650163865834353
 31
0.0
  0
LINE
  5
A73
330
18
100
AcDbEntity
  8
0
100
AcDbLine
 10
4.402706608871593
 20
3.173190535227991
 30
0.0
 11
4.402706608871593
 21
2.756801083610888
 31
0.0
  0
LINE
  5
A74
330
18
100
AcDbEntity
  8
0
100
AcDbLine
 10
5.003307112845536
 20
2.751190120818253
 30
0.0
 11
4.822458173948448
 21
2.878260155983331
 31
0.0
  0
LINE
  5
A75
330
18
100
AcDbEntity
  8
0
100
AcDbLine
 10
5.426450070714158
 20
3.27362129650508
 30
0.0
 11
6.335321932554467
 21
3.531231089420971
 31
0.0
  0
LINE
  5
A76
330
18
100
AcDbEntity
  8
0
100
AcDbLine
 10
5.426450070714158
 20
2.880982258491448
 30
0.0
 11
5.426450070714158
 21
3.27362129650508
 31
0.0
  0
LINE
  5
A77
330
18
100
AcDbEntity
  8
0
100
AcDbLine
 10
5.003307112845536
 20
2.751190120818253
 30
0.0
 11
6.335321932554467
 21
3.159763742681707
 31
0.0
  0
LINE
  5
A78
330
18
100
AcDbEntity
  8
0
100
AcDbLine
 10
5.003307112845535
 20
2.314187436254198
 30
0.0
 11
5.003307112845536
 21
2.751190120818253
 31
0.0
  0
LINE
  5
A79
330
18
100
AcDbEntity
  8
0
100
AcDbLine
 10
8.693728222427488
 20
3.547547662591127
 30
0.0
 11
6.693025645828887
 21
2.878901210212131
 31
0.0
  0
LINE
  5
A7A
330
18
100
AcDbEntity
  8
0
100
AcDbLine
 10
8.693728222427488
 20
3.872599353228607
 30
0.0
 11
8.693728222427488
 21
3.547547662591127
 31
0.0
  0
LINE
  5
A7B
330
18
100
AcDbEntity
  8
0
100
AcDbLine
 10
8.592220121891698
 20
3.852030115210566
 30
0.0
 11
8.693728222427488
 21
3.872599353228607
 31
0.0
  0
LINE
  5
A7C
330
18
100
AcDbEntity
  8
0
100
AcDbLine
 10
8.592220121891698
 20
4.174900301288883
 30
0.0
 11
8.592220121891698
 21
3.852030115210566
 31
0.0
  0
LINE
  5
A7D
330
18
100
AcDbEntity
  8
0
100
AcDbLine
 10
8.499060466016429
 20
4.144519121466137
 30
0.0
 11
8.592220121891698
 21
4.174900301288883
 31
0.0
  0
LINE
  5
A7E
330
18
100
AcDbEntity
  8
0
100
AcDbLine
 10
8.499060466016429
 20
5.967883263505542
 30
0.0
 11
8.499060466016429
 21
5.156412103654496
 31
0.0
  0
LINE
  5
A7F
330
18
100
AcDbEntity
  8
0
100
AcDbLine
 10
8.60591863954725
 20
5.976531198334314
 30
0.0
 11
8.430182512442487
 21
5.962309033346398
 31
0.0
  0
LINE
  5
A80
330
18
100
AcDbEntity
  8
0
100
AcDbLine
 10
8.60591863954725
 20
6.29411662791812
 30
0.0
 11
8.430182512442487
 21
6.2829880574425
 31
0.0
  0
LINE
  5
A81
330
18
100
AcDbEntity
  8
0
100
AcDbLine
 10
8.60591863954725
 20
6.29411662791812
 30
0.0
 11
8.430182512442487
 21
6.377689820779851
 31
0.0
  0
LINE
  5
A82
330
18
100
AcDbEntity
  8
0
100
AcDbLine
 10
8.60591863954725
 20
6.29411662791812
 30
0.0
 11
8.60591863954725
 21
5.976531198334314
 31
0.0
  0
LINE
  5
A83
330
18
100
AcDbEntity
  8
0
100
AcDbLine
 10
5.56357714379861
 20
8.81242918069168
 30
0.0
 11
8.003264324116646
 21
6.960236308782872
 31
0.0
  0
LINE
  5
A84
330
18
100
AcDbEntity
  8
0
100
AcDbLine
 10
5.893305173263798
 20
8.818045508705904
 30
0.0
 11
5.56357714379861
 21
8.81242918069168
 31
0.0
  0
LINE
  5
A85
330
18
100
AcDbEntity
  8
0
100
AcDbLine
 10
8.430182512442487
 20
6.975968250902723
 30
0.0
 11
7.230124780840037
 21
7.847354116232511
 31
0.0
  0
LINE
  5
A86
330
18
100
AcDbEntity
  8
0
100
AcDbLine
 10
8.003264324116646
 20
6.960236308782872
 30
0.0
 11
8.430182512442487
 21
6.975968250902723
 31
0.0
  0
LINE
  5
A87
330
18
100
AcDbEntity
  8
0
100
AcDbLine
 10
8.003264324116646
 20
4.435344904871325
 30
0.0
 11
8.003264324116646
 21
6.960236308782872
 31
0.0
  0
LINE
  5
A88
330
18
100
AcDbEntity
  8
0
100
AcDbLine
 10
8.430182512442487
 20
4.515681787960603
 30
0.0
 11
8.003264324116646
 21
4.435344904871325
 31
0.0
  0
LINE
  5
A89
330
18
100
AcDbEntity
  8
0
100
AcDbLine
 10
8.430182512442487
 20
6.975968250902723
 30
0.0
 11
8.430182512442487
 21
4.515681787960603
 31
0.0
  0
ENDSEC
  0
SECTION
  2
OBJECTS
  0
DICTIONARY
  5
C
330
0
100
AcDbDictionary
281
     1
  3
ACAD_COLOR
350
A8F
  3
ACAD_GROUP
350
D
  3
ACAD_LAYOUT
350
15
  3
ACAD_MATERIAL
350
A91
  3
ACAD_MLINESTYLE
350
12
  3
ACAD_PLOTSETTINGS
350
14
  3
ACAD_PLOTSTYLENAME
350
E
  3
ACDBHEADERROUNDTRIPXREC
350
A8E
  0
DICTIONARY
  5
A8F
102
{ACAD_REACTORS
330
C
102
}
330
C
100
AcDbDictionary
281
     1
  0
DICTIONARY
  5
D
102
{ACAD_REACTORS
330
C
102
}
330
C
100
AcDbDictionary
281
     1
  0
DICTIONARY
  5
15
102
{ACAD_REACTORS
330
C
102
}
330
C
100
AcDbDictionary
281
     1
  3
Layout1
350
17
  3
Model
350
19
  0
DICTIONARY
  5
A91
102
{ACAD_REACTORS
330
C
102
}
330
C
100
AcDbDictionary
281
     1
  0
DICTIONARY
  5
12
102
{ACAD_REACTORS
330
C
102
}
330
C
100
AcDbDictionary
281
     1
  3
Standard
350
13
  0
DICTIONARY
  5
14
102
{ACAD_REACTORS
330
C
102
}
330
C
100
AcDbDictionary
281
     1
  0
ACDBDICTIONARYWDFLT
  5
E
102
{ACAD_REACTORS
330
C
102
}
330
C
100
AcDbDictionary
281
     1
  3
Normal
350
F
100
AcDbDictionaryWithDefault
340
F
  0
DICTIONARY
  5
A8E
102
{ACAD_REACTORS
330
C
102
}
330
C
100
AcDbDictionary
281
     1
  3
COLORDICT
350
A90
  3
MATERIALDICT
350
A92
  0
LAYOUT
  5
17
102
{ACAD_REACTORS
330
15
102
}
102
{ACAD_XDICTIONARY
360
A93
102
}
330
15
100
AcDbPlotSettings
  1

  2

  4

  6

 40
0.0
 41
0.0
 42
0.0
 43
0.0
 44
0.0
 45
0.0
 46
0.0
 47
0.0
 48
0.0
 49
0.0
140
0.0
141
0.0
142
1.0
143
1.0
 70
   688
 72
     0
 73
     0
 74
     5
  7

 75
    16
147
1.0
148
0.0
149
0.0
100
AcDbLayout
  1
Layout1
 70
     1
 71
     1
 10
0.0
 20
0.0
 11
12.0
 21
9.0
 12
0.0
 22
0.0
 32
0.0
 14
1.000000000000000E+20
 24
1.000000000000000E+20
 34
1.000000000000000E+20
 15
-1.000000000000000E+20
 25
-1.000000000000000E+20
 35
-1.000000000000000E+20
146
0.0
 13
0.0
 23
0.0
 33
0.0
 16
1.0
 26
0.0
 36
0.0
 17
0.0
 27
1.0
 37
0.0
 76
     0
330
16
  0
LAYOUT
  5
19
102
{ACAD_REACTORS
330
15
102
}
102
{ACAD_XDICTIONARY
360
A95
102
}
330
15
100
AcDbPlotSettings
  1

  2

  4

  6

 40
0.0
 41
0.0
 42
0.0
 43
0.0
 44
0.0
 45
0.0
 46
0.0
 47
0.0
 48
0.0
 49
0.0
140
0.0
141
0.0
142
1.0
143
1.0
 70
  1712
 72
     0
 73
     0
 74
     0
  7

 75
     0
147
1.0
148
0.0
149
0.0
100
AcDbLayout
  1
Model
 70
     1
 71
     0
 10
0.0
 20
0.0
 11
0.0
 21
0.0
 12
0.0
 22
0.0
 32
0.0
 14
0.0
 24
0.0
 34
0.0
 15
0.0
 25
0.0
 35
0.0
146
0.0
 13
0.0
 23
0.0
 33
0.0
 16
1.0
 26
0.0
 36
0.0
 17
0.0
 27
1.0
 37
0.0
 76
     0
330
18
  0
MLINESTYLE
  5
13
102
{ACAD_REACTORS
330
12
102
}
330
12
100
AcDbMlineStyle
  2
Standard
 70
     0
  3

 62
   256
 51
90.0
 52
90.0
 71
     2
 49
0.5
 62
   256
  6
BYLAYER
 49
-0.5
 62
   256
  6
BYLAYER
  0
ACDBPLACEHOLDER
  5
F
102
{ACAD_REACTORS
330
E
102
}
330
E
  0
XRECORD
  5
A90
102
{ACAD_REACTORS
330
A8E
102
}
330
A8E
100
AcDbXrecord
340
A8F
  0
XRECORD
  5
A92
102
{ACAD_REACTORS
330
A8E
102
}
330
A8E
100
AcDbXrecord
340
A91
  0
DICTIONARY
  5
A93
330
17
100
AcDbDictionary
280
     1
281
     1
  3
ACAD_XREC_ROUNDTRIP
360
A94
  0
DICTIONARY
  5
A95
330
19
100
AcDbDictionary
280
     1
281
     1
  3
ACAD_XREC_ROUNDTRIP
360
A96
  0
XRECORD
  5
A94
102
{ACAD_REACTORS
330
A93
102
}
330
A93
100
AcDbXrecord
102
SHADEPLOT
 70
 -7696
102
SHADEPLOTRESLEVEL
 70
 -7656
102
SHADEPLOTCUSTOMDPI
 70
 -8904
  0
XRECORD
  5
A96
102
{ACAD_REACTORS
330
A95
102
}
330
A95
100
AcDbXrecord
102
SHADEPLOT
 70
 -8048
102
SHADEPLOTRESLEVEL
 70
  6792
102
SHADEPLOTCUSTOMDPI
 70
  9040
  0
ENDSEC
  0
EOF
