  0
SECTION
  2
HEADER
  9
$ACADVER
  1
AC1015
  9
$ACADMAINTVER
 70
     6
  9
$DWGCODEPAGE
  3
ANSI_1252
  9
$INSBASE
 10
0.0
 20
0.0
 30
0.0
  9
$EXTMIN
 10
4.633117709114586
 20
1.387727653013904
 30
-0.0000000000000004
  9
$EXTMAX
 10
10.44030764331146
 20
9.391919338814649
 30
0.0000000000000003
  9
$LIMMIN
 10
0.0
 20
0.0
  9
$LIMMAX
 10
12.0
 20
9.0
  9
$ORTHOMODE
 70
     0
  9
$REGENMODE
 70
     0
  9
$FILLMODE
 70
     1
  9
$QTEXTMODE
 70
     0
  9
$MIRRTEXT
 70
     1
  9
$LTSCALE
 40
0.25
  9
$ATTMODE
 70
     1
  9
$TEXTSIZE
 40
0.2
  9
$TRACEWID
 40
0.05
  9
$TEXTSTYLE
  7
STANDARD
  9
$CLAYER
  8
0
  9
$CELTYPE
  6
BYLAYER
  9
$CECOLOR
 62
   256
  9
$CELTSCALE
 40
1.0
  9
$DISPSILH
 70
     0
  9
$DIMSCALE
 40
1.0
  9
$DIMASZ
 40
0.18
  9
$DIMEXO
 40
0.0625
  9
$DIMDLI
 40
0.38
  9
$DIMRND
 40
0.0
  9
$DIMDLE
 40
0.0
  9
$DIMEXE
 40
0.18
  9
$DIMTP
 40
0.0
  9
$DIMTM
 40
0.0
  9
$DIMTXT
 40
0.18
  9
$DIMCEN
 40
0.09
  9
$DIMTSZ
 40
0.0
  9
$DIMTOL
 70
     0
  9
$DIMLIM
 70
     0
  9
$DIMTIH
 70
     1
  9
$DIMTOH
 70
     1
  9
$DIMSE1
 70
     0
  9
$DIMSE2
 70
     0
  9
$DIMTAD
 70
     0
  9
$DIMZIN
 70
     0
  9
$DIMBLK
  1

  9
$DIMASO
 70
     1
  9
$DIMSHO
 70
     1
  9
$DIMPOST
  1

  9
$DIMAPOST
  1

  9
$DIMALT
 70
     0
  9
$DIMALTD
 70
     2
  9
$DIMALTF
 40
25.4
  9
$DIMLFAC
 40
1.0
  9
$DIMTOFL
 70
     0
  9
$DIMTVP
 40
0.0
  9
$DIMTIX
 70
     0
  9
$DIMSOXD
 70
     0
  9
$DIMSAH
 70
     0
  9
$DIMBLK1
  1

  9
$DIMBLK2
  1

  9
$DIMSTYLE
  2
STANDARD
  9
$DIMCLRD
 70
     0
  9
$DIMCLRE
 70
     0
  9
$DIMCLRT
 70
     0
  9
$DIMTFAC
 40
1.0
  9
$DIMGAP
 40
0.09
  9
$DIMJUST
 70
     0
  9
$DIMSD1
 70
     0
  9
$DIMSD2
 70
     0
  9
$DIMTOLJ
 70
     1
  9
$DIMTZIN
 70
     0
  9
$DIMALTZ
 70
     0
  9
$DIMALTTZ
 70
     0
  9
$DIMUPT
 70
     0
  9
$DIMDEC
 70
     4
  9
$DIMTDEC
 70
     4
  9
$DIMALTU
 70
     2
  9
$DIMALTTD
 70
     2
  9
$DIMTXSTY
  7
STANDARD
  9
$DIMAUNIT
 70
     0
  9
$DIMADEC
 70
     0
  9
$DIMALTRND
 40
0.0
  9
$DIMAZIN
 70
     0
  9
$DIMDSEP
 70
    46
  9
$DIMATFIT
 70
     3
  9
$DIMFRAC
 70
     0
  9
$DIMLDRBLK
  1

  9
$DIMLUNIT
 70
     2
  9
$DIMLWD
 70
    -2
  9
$DIMLWE
 70
    -2
  9
$DIMTMOVE
 70
     0
  9
$LUNITS
 70
     2
  9
$LUPREC
 70
     4
  9
$SKETCHINC
 40
0.1
  9
$FILLETRAD
 40
0.0
  9
$AUNITS
 70
     0
  9
$AUPREC
 70
     0
  9
$MENU
  1
.
  9
$ELEVATION
 40
0.0
  9
$PELEVATION
 40
0.0
  9
$THICKNESS
 40
0.0
  9
$LIMCHECK
 70
     0
  9
$CHAMFERA
 40
0.5
  9
$CHAMFERB
 40
0.5
  9
$CHAMFERC
 40
1.0
  9
$CHAMFERD
 40
0.0
  9
$SKPOLY
 70
     1
  9
$TDCREATE
 40
2451890.587386782
  9
$TDUCREATE
 40
2451890.920720116
  9
$TDUPDATE
 40
2451893.676506447
  9
$TDUUPDATE
 40
2451894.00983978
  9
$TDINDWG
 40
1.0411613542
  9
$TDUSRTIMER
 40
1.0411613542
  9
$USRTIMER
 70
     1
  9
$ANGBASE
 50
0.0
  9
$ANGDIR
 70
     0
  9
$PDMODE
 70
     0
  9
$PDSIZE
 40
0.0
  9
$PLINEWID
 40
0.0
  9
$SPLFRAME
 70
     0
  9
$SPLINETYPE
 70
     6
  9
$SPLINESEGS
 70
     8
  9
$HANDSEED
  5
14E3
  9
$SURFTAB1
 70
     6
  9
$SURFTAB2
 70
     6
  9
$SURFTYPE
 70
     6
  9
$SURFU
 70
     6
  9
$SURFV
 70
     6
  9
$UCSBASE
  2

  9
$UCSNAME
  2

  9
$UCSORG
 10
0.0
 20
0.0
 30
0.0
  9
$UCSXDIR
 10
1.0
 20
0.0
 30
0.0
  9
$UCSYDIR
 10
0.0
 20
1.0
 30
0.0
  9
$UCSORTHOREF
  2

  9
$UCSORTHOVIEW
 70
     0
  9
$UCSORGTOP
 10
0.0
 20
0.0
 30
0.0
  9
$UCSORGBOTTOM
 10
0.0
 20
0.0
 30
0.0
  9
$UCSORGLEFT
 10
0.0
 20
0.0
 30
0.0
  9
$UCSORGRIGHT
 10
0.0
 20
0.0
 30
0.0
  9
$UCSORGFRONT
 10
0.0
 20
0.0
 30
0.0
  9
$UCSORGBACK
 10
0.0
 20
0.0
 30
0.0
  9
$PUCSBASE
  2

  9
$PUCSNAME
  2

  9
$PUCSORG
 10
0.0
 20
0.0
 30
0.0
  9
$PUCSXDIR
 10
1.0
 20
0.0
 30
0.0
  9
$PUCSYDIR
 10
0.0
 20
1.0
 30
0.0
  9
$PUCSORTHOREF
  2

  9
$PUCSORTHOVIEW
 70
     0
  9
$PUCSORGTOP
 10
0.0
 20
0.0
 30
0.0
  9
$PUCSORGBOTTOM
 10
0.0
 20
0.0
 30
0.0
  9
$PUCSORGLEFT
 10
0.0
 20
0.0
 30
0.0
  9
$PUCSORGRIGHT
 10
0.0
 20
0.0
 30
0.0
  9
$PUCSORGFRONT
 10
0.0
 20
0.0
 30
0.0
  9
$PUCSORGBACK
 10
0.0
 20
0.0
 30
0.0
  9
$USERI1
 70
     0
  9
$USERI2
 70
     0
  9
$USERI3
 70
     0
  9
$USERI4
 70
     0
  9
$USERI5
 70
     0
  9
$USERR1
 40
0.0
  9
$USERR2
 40
0.0
  9
$USERR3
 40
0.0
  9
$USERR4
 40
0.0
  9
$USERR5
 40
0.0
  9
$WORLDVIEW
 70
     1
  9
$SHADEDGE
 70
     3
  9
$SHADEDIF
 70
    70
  9
$TILEMODE
 70
     1
  9
$MAXACTVP
 70
    48
  9
$PINSBASE
 10
0.0
 20
0.0
 30
0.0
  9
$PLIMCHECK
 70
     0
  9
$PEXTMIN
 10
1.000000000000000E+20
 20
1.000000000000000E+20
 30
1.000000000000000E+20
  9
$PEXTMAX
 10
-1.000000000000000E+20
 20
-1.000000000000000E+20
 30
-1.000000000000000E+20
  9
$PLIMMIN
 10
0.0
 20
0.0
  9
$PLIMMAX
 10
12.0
 20
9.0
  9
$UNITMODE
 70
     0
  9
$VISRETAIN
 70
     1
  9
$PLINEGEN
 70
     0
  9
$PSLTSCALE
 70
     1
  9
$TREEDEPTH
 70
  3020
  9
$CMLSTYLE
  2
STANDARD
  9
$CMLJUST
 70
     0
  9
$CMLSCALE
 40
1.0
  9
$PROXYGRAPHICS
 70
     1
  9
$MEASUREMENT
 70
     0
  9
$CELWEIGHT
370
    -1
  9
$ENDCAPS
280
     0
  9
$JOINSTYLE
280
     0
  9
$LWDISPLAY
290
     0
  9
$INSUNITS
 70
     1
  9
$HYPERLINKBASE
  1

  9
$STYLESHEET
  1

  9
$XEDIT
290
     1
  9
$CEPSNTYPE
380
     0
  9
$PSTYLEMODE
290
     0
  9
$FINGERPRINTGUID
  2
{FAEB1C30-E019-11D5-929B-00C0DF256EC4}
  9
$VERSIONGUID
  2
{FAEB1C32-E019-11D5-929B-00C0DF256EC4}
  9
$EXTNAMES
290
     1
  9
$PSVPSCALE
 40
0.0
  9
$OLESTARTUP
290
     0
  0
ENDSEC
  0
SECTION
  2
CLASSES
  0
CLASS
  1
LWPOLYLINE
  2
AcDbPolyline
  3
AutoCAD 2000
 90
        0
280
     0
281
     1
  0
CLASS
  1
DICTIONARYVAR
  2
AcDbDictionaryVar
  3
AutoCAD 2000
 90
        0
280
     0
281
     0
  0
CLASS
  1
HATCH
  2
AcDbHatch
  3
AutoCAD 2000
 90
        0
280
     0
281
     1
  0
CLASS
  1
ACDBPLACEHOLDER
  2
AcDbPlaceHolder
  3
ObjectDBX Classes
 90
        0
280
     0
281
     0
  0
CLASS
  1
LAYOUT
  2
AcDbLayout
  3
ObjectDBX Classes
 90
        0
280
     0
281
     0
  0
ENDSEC
  0
SECTION
  2
TABLES
  0
TABLE
  2
VPORT
  5
8
330
0
100
AcDbSymbolTable
 70
     2
  0
VPORT
  5
14D5
330
8
100
AcDbSymbolTableRecord
100
AcDbViewportTableRecord
  2
*ACTIVE
 70
     0
 10
0.0
 20
0.0
 11
1.0
 21
1.0
 12
7.53671267621302
 22
5.389823495914277
 13
0.0
 23
0.0
 14
0.5
 24
0.5
 15
0.5
 25
0.5
 16
0.0
 26
0.0
 36
1.0
 17
0.0
 27
0.0
 37
0.0
 40
8.076627809654145
 41
1.519637462235649
 42
50.0
 43
0.0
 44
0.0
 50
0.0
 51
0.0
 71
     0
 72
  2000
 73
     1
 74
     0
 75
     0
 76
     0
 77
     0
 78
     0
281
     0
 65
     1
110
0.0
120
0.0
130
0.0
111
1.0
121
0.0
131
0.0
112
0.0
122
1.0
132
0.0
 79
     0
146
0.0
  0
ENDTAB
  0
TABLE
  2
LTYPE
  5
5
330
0
100
AcDbSymbolTable
 70
     3
  0
LTYPE
  5
13
330
5
100
AcDbSymbolTableRecord
100
AcDbLinetypeTableRecord
  2
BYBLOCK
 70
     0
  3

 72
    65
 73
     0
 40
0.0
  0
LTYPE
  5
14
330
5
100
AcDbSymbolTableRecord
100
AcDbLinetypeTableRecord
  2
BYLAYER
 70
     0
  3

 72
    65
 73
     0
 40
0.0
  0
LTYPE
  5
15
330
5
100
AcDbSymbolTableRecord
100
AcDbLinetypeTableRecord
  2
CONTINUOUS
 70
     0
  3
Solid line
 72
    65
 73
     0
 40
0.0
  0
LTYPE
  5
A3A
330
5
100
AcDbSymbolTableRecord
100
AcDbLinetypeTableRecord
  2
DASHED
 70
     0
  3
Dashed __ __ __ __ __ __ __ __ __ __ __ __ __ _
 72
    65
 73
     2
 40
0.75
 49
0.5
 74
     0
 49
-0.25
 74
     0
  0
ENDTAB
  0
TABLE
  2
LAYER
  5
2
330
0
100
AcDbSymbolTable
 70
     3
  0
LAYER
  5
F
330
2
100
AcDbSymbolTableRecord
100
AcDbLayerTableRecord
  2
0
 70
     0
 62
     7
  6
CONTINUOUS
370
    -3
390
0
  0
ENDTAB
  0
TABLE
  2
STYLE
  5
3
330
0
100
AcDbSymbolTable
 70
     1
  0
STYLE
  5
10
330
3
100
AcDbSymbolTableRecord
100
AcDbTextStyleTableRecord
  2
STANDARD
 70
     0
 40
0.0
 41
1.0
 50
0.0
 71
     0
 42
0.2
  3
ARIAL.TTF
  4

1001
ACAD
1000
Arial
1071
       34
  0
ENDTAB
  0
TABLE
  2
VIEW
  5
6
330
0
100
AcDbSymbolTable
 70
     1
  0
VIEW
  5
14D4
330
6
100
AcDbSymbolTableRecord
100
AcDbViewTableRecord
  2
INITIAL
 70
     0
 40
8.076627809654145
 10
7.53671267621302
 20
5.389823495914277
 41
12.2735461880847
 11
0.0
 21
0.0
 31
1.0
 12
0.0
 22
0.0
 32
0.0
 42
50.0
 43
0.0
 44
0.0
 50
0.0
 71
     0
281
     0
 72
     0
  0
ENDTAB
  0
TABLE
  2
UCS
  5
7
330
0
100
AcDbSymbolTable
 70
     0
  0
ENDTAB
  0
TABLE
  2
APPID
  5
9
330
0
100
AcDbSymbolTable
 70
     1
  0
APPID
  5
11
330
9
100
AcDbSymbolTableRecord
100
AcDbRegAppTableRecord
  2
ACAD
 70
     0
  0
ENDTAB
  0
TABLE
  2
DIMSTYLE
  5
A
330
0
100
AcDbSymbolTable
 70
     1
100
AcDbDimStyleTable
  0
DIMSTYLE
105
1D
330
A
100
AcDbSymbolTableRecord
100
AcDbDimStyleTableRecord
  2
STANDARD
 70
     0
  3

  4

340
10
  0
ENDTAB
  0
TABLE
  2
BLOCK_RECORD
  5
1
330
0
100
AcDbSymbolTable
 70
     1
  0
BLOCK_RECORD
  5
19
330
1
100
AcDbSymbolTableRecord
100
AcDbBlockTableRecord
  2
*MODEL_SPACE
340
14D7
  0
BLOCK_RECORD
  5
16
330
1
100
AcDbSymbolTableRecord
100
AcDbBlockTableRecord
  2
*PAPER_SPACE
340
14D8
  0
ENDTAB
  0
ENDSEC
  0
SECTION
  2
BLOCKS
  0
BLOCK
  5
1A
330
19
100
AcDbEntity
  8
0
100
AcDbBlockBegin
  2
*MODEL_SPACE
 70
     0
 10
0.0
 20
0.0
 30
0.0
  3
*MODEL_SPACE
  1

  4

  0
ENDBLK
  5
1B
330
19
100
AcDbEntity
  8
0
100
AcDbBlockEnd
  0
BLOCK
  5
17
330
16
100
AcDbEntity
 67
     1
  8
0
100
AcDbBlockBegin
  2
*PAPER_SPACE
 70
     0
 10
0.0
 20
0.0
 30
0.0
  3
*PAPER_SPACE
  1

  4

  0
ENDBLK
  5
18
330
16
100
AcDbEntity
 67
     1
  8
0
100
AcDbBlockEnd
  0
ENDSEC
  0
SECTION
  2
ENTITIES
  0
LINE
  5
11A7
330
19
100
AcDbEntity
  8
0
100
AcDbLine
 10
6.271577309802091
 20
4.191181777867691
 30
0.0
 11
7.628992520708305
 21
4.593204276885677
 31
0.0
  0
LINE
  5
11A8
330
19
100
AcDbEntity
  8
0
100
AcDbLine
 10
10.09571119394959
 20
5.32376659667046
 30
0.0
 11
9.642606619196885
 21
5.417456882842441
 31
0.0
  0
LINE
  5
11A9
330
19
100
AcDbEntity
  8
0
100
AcDbLine
 10
9.016497524191587
 20
5.546920021275643
 30
0.0
 11
8.000224231578473
 21
5.292557051429522
 31
0.0
  0
LINE
  5
11AA
330
19
100
AcDbEntity
  8
0
100
AcDbLine
 10
5.219377744641556
 20
4.596539182766799
 30
0.0
 11
5.5450685547356
 21
4.471067565071283
 31
0.0
  0
LINE
  5
11AB
330
19
100
AcDbEntity
  8
0
100
AcDbLine
 10
10.44011019937215
 20
5.117568251749216
 30
0.0
 11
7.968427814689342
 21
4.32477570701662
 31
0.0
  0
LINE
  5
11AC
330
19
100
AcDbEntity
  8
0
100
AcDbLine
 10
5.729027561567857
 20
3.606487695438288
 30
0.0
 11
5.319868883270231
 21
3.79171696072074
 31
0.0
  0
LINE
  5
11AD
330
19
100
AcDbEntity
  8
0
100
AcDbLine
 10
5.219377744641556
 20
4.596539182766799
 30
0.0
 11
5.219377744641556
 21
4.240144688777318
 31
0.0
  0
LINE
  5
11AE
330
19
100
AcDbEntity
  8
0
100
AcDbLine
 10
4.678824132061219
 20
4.081922826018908
 30
0.0
 11
5.219377744641556
 21
4.240144688777318
 31
0.0
  0
LINE
  5
11AF
330
19
100
AcDbEntity
  8
0
100
AcDbLine
 10
6.271577309802091
 20
4.191181777867691
 30
0.0
 11
6.271577309802091
 21
3.780510619343152
 31
0.0
  0
LINE
  5
11B0
330
19
100
AcDbEntity
  8
0
100
AcDbLine
 10
6.271577309802091
 20
3.780510619343152
 30
0.0
 11
5.846887547694847
 21
3.966028547754953
 31
0.0
  0
LINE
  5
11B1
330
19
100
AcDbEntity
  8
0
100
AcDbLine
 10
5.729027561567857
 20
3.606487695438288
 30
0.0
 11
5.729027561567857
 21
3.19703404923925
 31
0.0
  0
LINE
  5
11B2
330
19
100
AcDbEntity
  8
0
100
AcDbLine
 10
4.678824132061219
 20
4.081922826018908
 30
0.0
 11
4.678824132061219
 21
3.729532676711413
 31
0.0
  0
LINE
  5
11B3
330
19
100
AcDbEntity
  8
0
100
AcDbLine
 10
4.678824132061219
 20
3.729532676711413
 30
0.0
 11
5.01244330140283
 21
3.560373307410679
 31
0.0
  0
LINE
  5
11B5
330
19
100
AcDbEntity
  8
0
100
AcDbLine
 10
10.44011019937215
 20
5.117568251749216
 30
0.0
 11
10.44011019937215
 21
4.835255220111582
 31
0.0
  0
LINE
  5
11B6
330
19
100
AcDbEntity
  8
0
100
AcDbLine
 10
10.09571119394959
 20
5.32376659667046
 30
0.0
 11
10.09571119394959
 21
5.007102212259532
 31
0.0
  0
LINE
  5
11B7
330
19
100
AcDbEntity
  8
0
100
AcDbLine
 10
10.44011019937215
 20
4.835255220111582
 30
0.0
 11
7.968427814689342
 21
3.9757580043831
 31
0.0
  0
LINE
  5
11B8
330
19
100
AcDbEntity
  8
0
100
AcDbLine
 10
10.44011019937215
 20
5.117568251749216
 30
0.0
 11
10.09571119394959
 21
5.202632629420245
 31
0.0
  0
LINE
  5
11B9
330
19
100
AcDbEntity
  8
0
100
AcDbLine
 10
9.642606619196886
 20
5.417456882842441
 30
0.0
 11
9.42996776216442
 21
5.400794142724004
 31
0.0
  0
LINE
  5
11BA
330
19
100
AcDbEntity
  8
0
100
AcDbLine
 10
9.42996776216442
 20
5.400794142724004
 30
0.0
 11
9.608159493624907
 21
5.463879400359179
 31
0.0
  0
LINE
  5
11BB
330
19
100
AcDbEntity
  8
0
100
AcDbLine
 10
9.608159493624907
 20
5.463879400359179
 30
0.0
 11
9.362574248604197
 21
5.475360321474828
 31
0.0
  0
LINE
  5
11BC
330
19
100
AcDbEntity
  8
0
100
AcDbLine
 10
9.362574248604201
 20
5.475360321474828
 30
0.0
 11
9.016497524191587
 21
5.546920021275643
 31
0.0
  0
LINE
  5
11BD
330
19
100
AcDbEntity
  8
0
100
AcDbLine
 10
9.608159493624907
 20
5.463879400359179
 30
0.0
 11
9.608159493624907
 21
5.414757547879662
 31
0.0
  0
LINE
  5
11BE
330
19
100
AcDbEntity
  8
0
100
AcDbLine
 10
5.545068554735602
 20
4.471067565071283
 30
0.0
 11
5.783010604183073
 21
4.491471756329368
 31
0.0
  0
LINE
  5
11BF
330
19
100
AcDbEntity
  8
0
100
AcDbLine
 10
5.783010604183073
 20
4.491471756329368
 30
0.0
 11
5.581802511537768
 21
4.323268172995783
 31
0.0
  0
LINE
  5
11C0
330
19
100
AcDbEntity
  8
0
100
AcDbLine
 10
5.581802511537768
 20
4.323268172995783
 30
0.0
 11
5.84688754769485
 21
4.354792508716782
 31
0.0
  0
LINE
  5
11C1
330
19
100
AcDbEntity
  8
0
100
AcDbLine
 10
5.846887547694847
 20
4.354792508716781
 30
0.0
 11
6.271577309802091
 21
4.191181777867691
 31
0.0
  0
LINE
  5
11C2
330
19
100
AcDbEntity
  8
0
100
AcDbLine
 10
5.846887547694847
 20
4.354792508716781
 30
0.0
 11
5.846887547694847
 21
3.966028547754952
 31
0.0
  0
LINE
  5
11C3
330
19
100
AcDbEntity
  8
0
100
AcDbLine
 10
5.581802511537768
 20
4.323268172995783
 30
0.0
 11
5.581802511537768
 21
3.953859450216335
 31
0.0
  0
LINE
  5
11C4
330
19
100
AcDbEntity
  8
0
100
AcDbLine
 10
5.581802511537768
 20
3.953859450216335
 30
0.0
 11
5.846887547694847
 21
3.966028547754952
 31
0.0
  0
LINE
  5
11C5
330
19
100
AcDbEntity
  8
0
100
AcDbLine
 10
5.545068554735602
 20
4.471067565071283
 30
0.0
 11
5.545068554735603
 21
4.097872635663518
 31
0.0
  0
LINE
  5
11C6
330
19
100
AcDbEntity
  8
0
100
AcDbLine
 10
5.545068554735603
 20
4.097872635663518
 30
0.0
 11
5.581802511537768
 21
4.105026740881312
 31
0.0
  0
LINE
  5
11C7
330
19
100
AcDbEntity
  8
0
100
AcDbLine
 10
5.545068554735603
 20
4.097872635663518
 30
0.0
 11
5.219377744641556
 21
4.240144688777318
 31
0.0
  0
LINE
  5
11C8
330
19
100
AcDbEntity
  8
0
100
AcDbLine
 10
5.319868883270229
 20
3.79171696072074
 30
0.0
 11
5.094309354049095
 21
3.788634262060699
 31
0.0
  0
LINE
  5
11C9
330
19
100
AcDbEntity
  8
0
100
AcDbLine
 10
5.094309354049095
 20
3.788634262060699
 30
0.0
 11
5.257475433915664
 21
3.955833436874415
 31
0.0
  0
LINE
  5
11CA
330
19
100
AcDbEntity
  8
0
100
AcDbLine
 10
5.257475433915664
 20
3.955833436874415
 30
0.0
 11
5.012443301402828
 21
3.930890874604848
 31
0.0
  0
LINE
  5
11CB
330
19
100
AcDbEntity
  8
0
100
AcDbLine
 10
5.012443301402828
 20
3.930890874604848
 30
0.0
 11
5.012443301402829
 21
3.560373307410679
 31
0.0
  0
LINE
  5
11CC
330
19
100
AcDbEntity
  8
0
100
AcDbLine
 10
5.012443301402828
 20
3.930890874604848
 30
0.0
 11
4.678824132061219
 21
4.081922826018908
 31
0.0
  0
LINE
  5
11CD
330
19
100
AcDbEntity
  8
0
100
AcDbLine
 10
5.319868883270231
 20
3.79171696072074
 30
0.0
 11
5.31986888327023
 21
3.404495221513429
 31
0.0
  0
LINE
  5
11CE
330
19
100
AcDbEntity
  8
0
100
AcDbLine
 10
5.094309354049095
 20
3.788634262060699
 30
0.0
 11
5.094309354049095
 21
3.389191520996031
 31
0.0
  0
LINE
  5
11CF
330
19
100
AcDbEntity
  8
0
100
AcDbLine
 10
5.094309354049095
 20
3.389191520996031
 30
0.0
 11
5.31986888327023
 21
3.404495221513429
 31
0.0
  0
LINE
  5
11D0
330
19
100
AcDbEntity
  8
0
100
AcDbLine
 10
5.012443301402829
 20
3.560373307410679
 30
0.0
 11
5.094309354049095
 21
3.566388137829012
 31
0.0
  0
LINE
  5
11D1
330
19
100
AcDbEntity
  8
0
100
AcDbLine
 10
5.319868883270229
 20
3.404495221513429
 30
0.0
 11
5.729027561567857
 21
3.19703404923925
 31
0.0
  0
LINE
  5
11D2
330
19
100
AcDbEntity
  8
0
100
AcDbLine
 10
6.583975345844731
 20
3.49433164893611
 30
0.0
 11
6.583975345844731
 21
1.97175269633039
 31
0.0
  0
LINE
  5
11D3
330
19
100
AcDbEntity
  8
0
100
AcDbLine
 10
6.583975345844731
 20
1.97175269633039
 30
0.0
 11
6.931448205748037
 21
1.775142843986861
 31
0.0
  0
LINE
  5
11D4
330
19
100
AcDbEntity
  8
0
100
AcDbLine
 10
7.615307296398475
 20
1.388196263830995
 30
0.0
 11
8.00171843691175
 21
1.578440289518267
 31
0.0
  0
LINE
  5
11D5
330
19
100
AcDbEntity
  8
0
100
AcDbLine
 10
8.00171843691175
 20
1.578440289518267
 30
0.0
 11
8.00171843691175
 21
3.987334409704166
 31
0.0
  0
LINE
  5
11D6
330
19
100
AcDbEntity
  8
0
100
AcDbLine
 10
7.615307296398475
 20
1.388196263830995
 30
0.0
 11
7.615307296398475
 21
3.85296467779371
 31
0.0
  0
LWPOLYLINE
  5
11D8
330
19
100
AcDbEntity
  8
0
100
AcDbPolyline
 90
        3
 70
     0
 43
0.0
 10
5.269009095393635
 20
4.577418821754836
 10
5.545068554735602
 20
4.407357239847332
 10
5.705122181871634
 20
4.426359505819251
  0
LWPOLYLINE
  5
11D9
330
19
100
AcDbEntity
  8
0
100
AcDbPolyline
 90
        3
 70
     0
 43
0.0
 10
5.219377744641557
 20
4.492423875847345
 10
5.545068554735602
 20
4.325266653837473
 10
5.589472608009318
 20
4.32968013035827
  0
LWPOLYLINE
  5
11DA
330
19
100
AcDbEntity
  8
0
100
AcDbPolyline
 90
        3
 70
     0
 43
0.0
 10
5.219377744641556
 20
4.414337373943053
 10
5.545068554735602
 20
4.228158580961567
 10
5.581802511537768
 20
4.245181236797456
  0
LWPOLYLINE
  5
11DB
330
19
100
AcDbEntity
  8
0
100
AcDbPolyline
 90
        4
 70
     0
 43
0.0
 10
5.219377744641556
 20
4.324237056263536
 10
5.450667367339582
 20
4.208129387694219
 10
5.545068554735602
 20
4.133053505585322
 10
5.581802511537768
 20
4.135059369425618
  0
LWPOLYLINE
  5
11DC
330
19
100
AcDbEntity
  8
0
100
AcDbPolyline
 90
        6
 70
     0
 43
0.0
 10
5.581802511537768
 20
4.294236912913098
 10
5.846887547694847
 20
4.314280785318851
 10
6.007281093180975
 20
4.234206486206145
 10
6.113404782846132
 20
4.162135925505408
 10
6.191492935067759
 20
4.142120542788393
 10
6.271577309802091
 20
4.115097144298567
  0
LWPOLYLINE
  5
11DD
330
19
100
AcDbEntity
  8
0
100
AcDbPolyline
 90
        7
 70
     0
 43
0.0
 10
5.581802511537768
 20
4.201133532154406
 10
5.719963824999455
 20
4.22617269464691
 10
5.846887547694848
 20
4.235193436105782
 10
5.918187442350313
 20
4.177135606315995
 10
5.987266405334418
 20
4.14810947090293
 10
6.127428110531553
 20
4.07203743186084
 10
6.271577309802091
 20
3.999969563783123
  0
LWPOLYLINE
  5
11DE
330
19
100
AcDbEntity
  8
0
100
AcDbPolyline
 90
        5
 70
     0
 43
0.0
 10
5.581802511537768
 20
4.158086066808484
 10
5.739992149678733
 20
4.155095771973959
 10
5.846887547694847
 20
4.138085971241525
 10
5.987272659168531
 20
4.076029703168635
 10
6.271577309802091
 20
3.932894640604364
  0
LWPOLYLINE
  5
11DF
330
19
100
AcDbEntity
  8
0
100
AcDbPolyline
 90
        5
 70
     0
 43
0.0
 10
5.581802511537768
 20
4.063982273035051
 10
5.846887547694847
 20
4.045983524650417
 10
5.920202426365358
 20
4.029972920909426
 10
6.13645111031941
 20
3.921872030810325
 10
6.271577309802091
 20
3.86381958626658
  0
LWPOLYLINE
  5
11E0
330
19
100
AcDbEntity
  8
0
100
AcDbPolyline
 90
        4
 70
     0
 43
0.0
 10
5.729027561567857
 20
3.545419245853107
 10
5.359606852273024
 20
3.743607424810655
 10
5.319868883270231
 20
3.763624284127391
 10
5.094309354049095
 20
3.762606151915994
  0
LWPOLYLINE
  5
11E1
330
19
100
AcDbEntity
  8
0
100
AcDbPolyline
 90
        3
 70
     0
 43
0.0
 10
5.729027561567857
 20
3.433296031298944
 10
5.31986888327023
 20
3.681535435293675
 10
5.094309354049095
 20
3.678512481547668
  0
LWPOLYLINE
  5
11E2
330
19
100
AcDbEntity
  8
0
100
AcDbPolyline
 90
        6
 70
     0
 43
0.0
 10
5.729027561567857
 20
3.302149942891059
 10
5.595896107998158
 20
3.42327340022561
 10
5.518806718473936
 20
3.470318782701792
 10
5.386654484370039
 20
3.539383761417949
 10
5.319868883270231
 20
3.571413828498259
 10
5.094309354049095
 20
3.560381664235435
  0
LWPOLYLINE
  5
11E3
330
19
100
AcDbEntity
  8
0
100
AcDbPolyline
 90
        4
 70
     0
 43
0.0
 10
5.729027561567857
 20
3.240081601443979
 10
5.528827959806356
 20
3.353190028721636
 10
5.31986888327023
 20
3.47530599491948
 10
5.094309354049094
 20
3.442251020640817
  0
LWPOLYLINE
  5
11E4
330
19
100
AcDbEntity
  8
0
100
AcDbPolyline
 90
        3
 70
     0
 43
0.0
 10
5.188799946078768
 20
3.885460446938955
 10
5.012443301402829
 20
3.87772643629164
 10
4.802628491930843
 20
4.025875644732596
  0
LWPOLYLINE
  5
11E5
330
19
100
AcDbEntity
  8
0
100
AcDbPolyline
 90
        3
 70
     0
 43
0.0
 10
5.127450123254797
 20
3.822594195819091
 10
5.012443301402828
 20
3.814656031512483
 10
4.678824132061219
 20
4.009842623990578
  0
LWPOLYLINE
  5
11E6
330
19
100
AcDbEntity
  8
0
100
AcDbPolyline
 90
        3
 70
     0
 43
0.0
 10
5.094309354049095
 20
3.722560620484754
 10
5.012443301402829
 20
3.710540898310644
 10
4.678824132061218
 20
3.899721104053969
  0
LWPOLYLINE
  5
11E7
330
19
100
AcDbEntity
  8
0
100
AcDbPolyline
 90
        3
 70
     0
 43
0.0
 10
5.094309354049095
 20
3.618445052988879
 10
5.012443301402829
 20
3.613432564858316
 10
4.678824132061219
 20
3.817630083750076
  0
LINE
  5
11E8
330
19
100
AcDbEntity
  8
0
100
AcDbLine
 10
6.931448205748038
 20
1.77514284398686
 30
0.0
 11
6.99057289406626
 21
1.884691574993813
 31
0.0
  0
LINE
  5
11E9
330
19
100
AcDbEntity
  8
0
100
AcDbLine
 10
6.99057289406626
 20
1.884691574993813
 30
0.0
 11
7.110745187329713
 21
1.431200126055738
 31
0.0
  0
LINE
  5
11EA
330
19
100
AcDbEntity
  8
0
100
AcDbLine
 10
7.110745187329713
 20
1.431200126055738
 30
0.0
 11
7.208410831220363
 21
1.618429652303507
 31
0.0
  0
LINE
  5
11EB
330
19
100
AcDbEntity
  8
0
100
AcDbLine
 10
7.208410831220363
 20
1.618429652303507
 30
0.0
 11
7.615307296398475
 21
1.388196263830995
 31
0.0
  0
LINE
  5
11EC
330
19
100
AcDbEntity
  8
0
100
AcDbLine
 10
7.110745187329713
 20
1.431200126055738
 30
0.0
 11
7.366943021476333
 21
1.528727709750077
 31
0.0
  0
LINE
  5
11ED
330
19
100
AcDbEntity
  8
0
100
AcDbLine
 10
7.193221133040039
 20
1.462596487093787
 30
0.0
 11
7.249241751333901
 21
1.595326376908683
 31
0.0
  0
LINE
  5
11EE
330
19
100
AcDbEntity
  8
0
100
AcDbLine
 10
7.287854110793435
 20
1.498620701306336
 30
0.0
 11
7.314608696873354
 21
1.558339932804139
 31
0.0
  0
LINE
  5
11EF
330
19
100
AcDbEntity
  8
0
100
AcDbLine
 10
6.931448205748038
 20
1.77514284398686
 30
0.0
 11
7.015799833270657
 21
1.789493248479444
 31
0.0
  0
LINE
  5
11F1
330
19
100
AcDbEntity
  8
0
100
AcDbLine
 10
7.572776299062183
 20
4.576554849555012
 30
0.0
 11
6.526617533331283
 21
4.923728136140898
 31
0.0
  0
LINE
  5
11F2
330
19
100
AcDbEntity
  8
0
100
AcDbLine
 10
6.526617533331283
 20
4.923728136140898
 30
0.0
 11
4.633536110378134
 21
6.826956738586937
 31
0.0
  0
LINE
  5
11F3
330
19
100
AcDbEntity
  8
0
100
AcDbLine
 10
4.633536110378134
 20
6.826956738586937
 30
0.0
 11
4.633536110378134
 21
7.133296359469336
 31
0.0
  0
LINE
  5
11F4
330
19
100
AcDbEntity
  8
0
100
AcDbLine
 10
4.633536110378134
 20
9.391795574759589
 30
0.0
 11
5.019742785259424
 21
9.391795574759589
 31
0.0
  0
LINE
  5
11F5
330
19
100
AcDbEntity
  8
0
100
AcDbLine
 10
5.019742785259424
 20
9.391795574759589
 30
0.0
 11
7.319453911997957
 21
7.748256986398802
 31
0.0
  0
LINE
  5
11F6
330
19
100
AcDbEntity
  8
0
100
AcDbLine
 10
8.000224231578473
 20
7.261729666931476
 30
0.0
 11
8.000224231578473
 21
4.703151107390923
 31
0.0
  0
LINE
  5
11F7
330
19
100
AcDbEntity
  8
0
100
AcDbLine
 10
4.633536110378134
 20
7.133296359469336
 30
0.0
 11
7.070534621939181
 21
4.743226390643118
 31
0.0
  0
LINE
  5
11F8
330
19
100
AcDbEntity
  8
0
100
AcDbLine
 10
4.633536110378134
 20
7.133296359469336
 30
0.0
 11
4.773663766922874
 21
7.133296359469336
 31
0.0
  0
LINE
  5
11F9
330
19
100
AcDbEntity
  8
0
100
AcDbLine
 10
4.773663766922874
 20
7.133296359469336
 30
0.0
 11
4.773663766922874
 21
7.96022337229989
 31
0.0
  0
LINE
  5
11FA
330
19
100
AcDbEntity
  8
0
100
AcDbLine
 10
4.633536110378134
 20
9.098469748373123
 30
0.0
 11
7.228537342152944
 21
7.086639721563528
 31
0.0
  0
LINE
  5
11FB
330
19
100
AcDbEntity
  8
0
100
AcDbLine
 10
4.633536110378134
 20
9.098469748373125
 30
0.0
 11
4.633536110378134
 21
9.391795574759589
 31
0.0
  0
LINE
  5
11FC
330
19
100
AcDbEntity
  8
0
100
AcDbLine
 10
4.633536110378134
 20
9.391795574759589
 30
0.0
 11
7.228537342152944
 21
7.473619171656
 31
0.0
  0
LINE
  5
11FD
330
19
100
AcDbEntity
  8
0
100
AcDbLine
 10
6.526158119237028
 20
7.631174187893235
 30
0.0
 11
6.526158119237028
 21
5.277119999798271
 31
0.0
  0
LINE
  5
11FE
330
19
100
AcDbEntity
  8
0
100
AcDbLine
 10
4.773663766922874
 20
7.133296359469336
 30
0.0
 11
6.526158119237028
 21
5.472622801646883
 31
0.0
  0
LINE
  5
11FF
330
19
100
AcDbEntity
  8
0
100
AcDbLine
 10
6.526617533331284
 20
4.923728136140898
 30
0.0
 11
5.219377744641556
 21
4.596539182766799
 31
0.0
  0
LINE
  5
1200
330
19
100
AcDbEntity
  8
0
100
AcDbLine
 10
4.773663766922874
 20
8.266561169147341
 30
0.0
 11
4.845657631296915
 21
8.133420942838121
 31
0.0
  0
LINE
  5
1201
330
19
100
AcDbEntity
  8
0
100
AcDbLine
 10
4.845657631296915
 20
8.133420942838121
 30
0.0
 11
4.650444807459067
 21
8.096363013618387
 31
0.0
  0
LINE
  5
1202
330
19
100
AcDbEntity
  8
0
100
AcDbLine
 10
4.650444807459067
 20
8.096363013618387
 30
0.0
 11
4.773663766922874
 21
7.960223372299891
 31
0.0
  0
LINE
  5
1203
330
19
100
AcDbEntity
  8
0
100
AcDbLine
 10
4.773663766922874
 20
8.266561169147341
 30
0.0
 11
4.773663766922874
 21
8.989832795306878
 31
0.0
  0
LINE
  5
1205
330
19
100
AcDbEntity
  8
0
100
AcDbLine
 10
7.228537342152944
 20
7.497923725403994
 30
0.0
 11
7.327435608451043
 21
7.770234103493934
 31
0.0
  0
LINE
  5
1206
330
19
100
AcDbEntity
  8
0
100
AcDbLine
 10
7.327435608451043
 20
7.770234103493934
 30
0.0
 11
7.59983415836173
 21
7.575558553601427
 31
0.0
  0
LINE
  5
1207
330
19
100
AcDbEntity
  8
0
100
AcDbLine
 10
7.59983415836173
 20
7.575558553601427
 30
0.0
 11
7.522694554315477
 21
7.275703745673254
 31
0.0
  0
LINE
  5
1208
330
19
100
AcDbEntity
  8
0
100
AcDbLine
 10
7.522694554315477
 20
7.275703745673254
 30
0.0
 11
7.522694554315477
 21
5.424665795757608
 31
0.0
  0
LINE
  5
120A
330
19
100
AcDbEntity
  8
0
100
AcDbLine
 10
7.59381886982546
 20
7.552176100308122
 30
0.0
 11
8.000224231578473
 21
7.261729666931476
 31
0.0
  0
LINE
  5
120F
330
19
100
AcDbEntity
  8
0
100
AcDbLine
 10
7.572776299062183
 20
4.576554849555012
 30
0.0
 11
7.572776299062183
 21
4.686348114086797
 31
0.0
  0
LINE
  5
1210
330
19
100
AcDbEntity
  8
0
100
AcDbLine
 10
7.59983415836173
 20
7.575558553601427
 30
0.0
 11
7.566747644204568
 21
7.225652173200841
 31
0.0
  0
LINE
  5
1211
330
19
100
AcDbEntity
  8
0
100
AcDbLine
 10
7.566747644204568
 20
7.225652173200841
 30
0.0
 11
7.566747644204569
 21
5.43266847196313
 31
0.0
  0
LINE
  5
1212
330
19
100
AcDbEntity
  8
0
100
AcDbLine
 10
7.566747644204568
 20
7.225652173200841
 30
0.0
 11
8.000224231578473
 21
7.261729666931476
 31
0.0
  0
LINE
  5
1213
330
19
100
AcDbEntity
  8
0
100
AcDbLine
 10
7.256382311373629
 20
7.477904434040659
 30
0.0
 11
7.276954342073268
 21
7.462683893432992
 31
0.0
  0
LINE
  5
1216
330
19
100
AcDbEntity
  8
0
100
AcDbLine
 10
7.482105360169802
 20
7.310899684706475
 30
0.0
 11
7.506675351552579
 21
7.292721189980714
 31
0.0
  0
LINE
  5
1219
330
19
100
AcDbEntity
  8
0
100
AcDbLine
 10
7.29436940705548
 20
7.449799083585245
 30
0.0
 11
7.460640580968104
 21
7.326780739340511
 31
0.0
  0
LWPOLYLINE
  5
121F
330
19
100
AcDbEntity
  8
0
100
AcDbPolyline
 90
        6
 70
     0
 43
0.0
 10
8.000224231578473
 20
6.883310191455977
 10
7.853078744215716
 20
6.871403745089499
 10
7.853078744215715
 20
7.061495321647123
 10
7.710922640540825
 20
7.047467477303731
 10
7.710922640540825
 20
6.859901020443247
 10
7.566747644204568
 20
6.848234934775034
  0
ARC
  5
1220
330
19
100
AcDbEntity
  8
0
100
AcDbCircle
 10
7.228537342152944
 20
5.501714341741717
 30
0.0
 40
0.0380279416519809
100
AcDbArc
 50
270.0
 51
90.0
  0
LINE
  5
1221
330
19
100
AcDbEntity
  8
0
100
AcDbLine
 10
7.228537342152944
 20
5.539742283393698
 30
0.0
 11
7.228537342152944
 21
7.497923725403994
 31
0.0
  0
LWPOLYLINE
  5
1222
330
19
100
AcDbEntity
  8
0
100
AcDbPolyline
 90
        6
 70
     0
 43
0.0
 10
7.228537342152944
 20
5.463686400089737
 10
7.228537342152944
 20
5.33553051965757
 42
0.0434391916683993
 10
7.236554022527174
 20
5.243429897101413
 10
7.660083545989948
 20
4.541690010852665
 42
-0.0364944246688366
 10
7.69212447042115
 20
4.478622993566986
 10
7.69212447042115
 20
4.328714245533114
  0
ARC
  5
1224
330
19
100
AcDbEntity
  8
0
100
AcDbCircle
 10
7.522694554315477
 20
5.398626113490795
 30
0.0
 40
0.0260396822668138
100
AcDbArc
 50
90.0
 51
270.0
  0
ARC
  5
1226
330
19
100
AcDbEntity
  8
0
100
AcDbCircle
 10
7.566747644204568
 20
5.406628789696316
 30
0.0
 40
0.0260396822668138
100
AcDbArc
 50
110.5921257835096
 51
270.0
  0
LINE
  5
1227
330
19
100
AcDbEntity
  8
0
100
AcDbLine
 10
7.566747644204568
 20
5.43266847196313
 30
0.0
 11
7.522694554315477
 21
5.424665795757608
 31
0.0
  0
LINE
  5
1228
330
19
100
AcDbEntity
  8
0
100
AcDbLine
 10
7.522694554315477
 20
5.372586431223981
 30
0.0
 11
7.566747644204568
 21
5.380589107429502
 31
0.0
  0
LWPOLYLINE
  5
122A
330
19
100
AcDbEntity
  8
0
100
AcDbPolyline
 90
        6
 70
     0
 43
0.0
 10
7.522694554315477
 20
5.372586431223981
 10
7.522694554315477
 20
5.240451501923464
 42
0.1370404993935244
 10
7.545903828910931
 20
5.157361458345743
 10
7.939389605902086
 20
4.576753020441802
 42
-0.101730561801497
 10
7.968427814689342
 20
4.506677987383312
 10
7.968427814689342
 20
4.384709932972238
  0
LWPOLYLINE
  5
122B
330
19
100
AcDbEntity
  8
0
100
AcDbPolyline
 90
        4
 70
     0
 43
0.0
 10
7.566747644204568
 20
5.380589107429502
 10
7.566747644204568
 20
5.249465555254186
 42
0.1700654755102355
 10
7.611980163109897
 20
5.120326199274668
 42
-0.2186940586923472
 10
7.635646986681208
 20
5.024940827938208
 42
14.35738488646348
  0
LWPOLYLINE
  5
122E
330
19
100
AcDbEntity
  8
0
100
AcDbPolyline
 90
        3
 70
     0
 43
0.0
 10
7.69212447042115
 20
2.608554072027793
 10
7.665195499665243
 20
2.632674306085168
 10
7.665195499665243
 20
4.267871993831196
  0
LINE
  5
122F
330
19
100
AcDbEntity
  8
0
100
AcDbLine
 10
7.665195499665243
 20
4.227513890464911
 30
0.0
 11
5.729027561567857
 21
3.606487695438288
 31
0.0
  0
LINE
  5
1230
330
19
100
AcDbEntity
  8
0
100
AcDbLine
 10
7.665195499665243
 20
3.870312688230328
 30
0.0
 11
5.729027561567857
 21
3.19703404923925
 31
0.0
  0
LINE
  5
1231
330
19
100
AcDbEntity
  8
0
100
AcDbLine
 10
7.878216902218937
 20
4.667016481041123
 30
0.0
 11
10.09571119394959
 21
5.32376659667046
 31
0.0
  0
LINE
  5
1232
330
19
100
AcDbEntity
  8
0
100
AcDbLine
 10
7.561955777444116
 20
4.76292634131844
 30
0.0
 11
7.561955777444116
 21
4.787953951589596
 31
0.0
  0
LINE
  5
1235
330
19
100
AcDbEntity
  8
0
100
AcDbLine
 10
7.561955777444116
 20
5.077273696117931
 30
0.0
 11
7.561955777444116
 21
5.086284014519948
 31
0.0
  0
LINE
  5
1238
330
19
100
AcDbEntity
  8
0
100
AcDbLine
 10
7.561955777444116
 20
4.820990511801146
 30
0.0
 11
7.561955777444116
 21
5.051245151679193
 31
0.0
  0
LINE
  5
123A
330
19
100
AcDbEntity
  8
0
100
AcDbLine
 10
7.952947825585092
 20
6.879484766684558
 30
0.0
 11
7.952947825585091
 21
4.689149364424333
 31
0.0
  0
LINE
  5
123B
330
19
100
AcDbEntity
  8
0
100
AcDbLine
 10
7.901067693399778
 20
6.875286826112807
 30
0.0
 11
7.901067693399779
 21
4.673784146602294
 31
0.0
  0
LINE
  5
123C
330
19
100
AcDbEntity
  8
0
100
AcDbLine
 10
7.853078744215716
 20
6.871403745089499
 30
0.0
 11
7.853078744215716
 21
4.704109122004256
 31
0.0
  0
LINE
  5
123D
330
19
100
AcDbEntity
  8
0
100
AcDbLine
 10
7.710922640540825
 20
6.859901020443247
 30
0.0
 11
7.710922640540825
 21
4.913867741297487
 31
0.0
  0
LINE
  5
123E
330
19
100
AcDbEntity
  8
0
100
AcDbLine
 10
7.809845414453686
 20
7.057229093151333
 30
0.0
 11
7.809845414453686
 21
4.767902116634104
 31
0.0
  0
LINE
  5
1240
330
19
100
AcDbEntity
  8
0
100
AcDbLine
 10
7.759099316147738
 20
7.052221510995745
 30
0.0
 11
7.759099316147738
 21
4.842780586428956
 31
0.0
  0
LINE
  5
1241
330
19
100
AcDbEntity
  8
0
100
AcDbLine
 10
7.663819364352307
 20
6.856089604669133
 30
0.0
 11
7.663819364352307
 21
4.983371040291159
 31
0.0
  0
LINE
  5
1242
330
19
100
AcDbEntity
  8
0
100
AcDbLine
 10
7.617936741084102
 20
6.852376959430144
 30
0.0
 11
7.617936741084102
 21
5.112172230058092
 31
0.0
  0
LWPOLYLINE
  5
1243
330
19
100
AcDbEntity
  8
0
100
AcDbPolyline
 90
        3
 70
     0
 43
0.0
 10
7.853078744215716
 20
6.893309023216157
 10
7.948197022130645
 20
6.911337390454022
 10
8.000224231578473
 20
6.907336346406707
  0
LWPOLYLINE
  5
1244
330
19
100
AcDbEntity
  8
0
100
AcDbPolyline
 90
        3
 70
     0
 43
0.0
 10
7.853078744215716
 20
6.951373541134093
 10
7.937177712971277
 20
6.993427281593423
 10
8.000224231578473
 20
6.986424303631424
  0
LWPOLYLINE
  5
1245
330
19
100
AcDbEntity
  8
0
100
AcDbPolyline
 90
        3
 70
     0
 43
0.0
 10
7.853078744215715
 20
7.044476487598748
 10
7.918152407070956
 20
7.042479917650815
 10
8.000224231578473
 20
7.080528965992929
  0
LWPOLYLINE
  5
1246
330
19
100
AcDbEntity
  8
0
100
AcDbPolyline
 90
        2
 70
     0
 43
0.0
 10
7.710922640540825
 20
6.879280918296344
 10
7.642973633600671
 20
6.85440284838722
  0
LWPOLYLINE
  5
1248
330
19
100
AcDbEntity
  8
0
100
AcDbPolyline
 90
        2
 70
     0
 43
0.0
 10
7.710922640540825
 20
6.932339896788286
 10
7.566747644204568
 20
6.896287418394107
  0
LWPOLYLINE
  5
1249
330
19
100
AcDbEntity
  8
0
100
AcDbPolyline
 90
        2
 70
     0
 43
0.0
 10
7.710922640540825
 20
7.020437303826951
 10
7.566747644204569
 20
6.988390212420443
  0
LWPOLYLINE
  5
124A
330
19
100
AcDbEntity
  8
0
100
AcDbPolyline
 90
        5
 70
     0
 43
0.0
 10
8.000224231578473
 20
7.14960471520117
 10
7.88210522706401
 20
7.126569853090434
 10
7.789003670340268
 20
7.109542941172996
 10
7.68689240322616
 20
7.089511923870698
 10
7.566747644204568
 20
7.071482166891919
  0
POLYLINE
  5
124B
330
19
100
AcDbEntity
  8
0
100
AcDb2dPolyline
 66
     1
 10
0.0
 20
0.0
 30
0.0
 70
     4
 75
     6
  0
VERTEX
  5
124C
330
124B
100
AcDbEntity
  8
0
100
AcDbVertex
100
AcDb2dVertex
 10
8.000224231578473
 20
7.226690282937879
 30
0.0
 70
    16
  0
VERTEX
  5
1255
330
124B
100
AcDbEntity
  8
0
100
AcDbVertex
100
AcDb2dVertex
 10
8.000224231578473
 20
7.226690282937878
 30
0.0
 70
     8
  0
VERTEX
  5
1256
330
124B
100
AcDbEntity
  8
0
100
AcDbVertex
100
AcDb2dVertex
 10
7.969469745234079
 20
7.212815203729101
 30
0.0
 70
     8
  0
VERTEX
  5
1257
330
124B
100
AcDbEntity
  8
0
100
AcDbVertex
100
AcDb2dVertex
 10
7.943571701591094
 20
7.201768821349869
 30
0.0
 70
     8
  0
VERTEX
  5
1258
330
124B
100
AcDbEntity
  8
0
100
AcDbVertex
100
AcDb2dVertex
 10
7.921849723157329
 20
7.193235304741093
 30
0.0
 70
     8
  0
VERTEX
  5
1259
330
124B
100
AcDbEntity
  8
0
100
AcDbVertex
100
AcDb2dVertex
 10
7.90362343244059
 20
7.18689882284368
 30
0.0
 70
     8
  0
VERTEX
  5
125A
330
124B
100
AcDbEntity
  8
0
100
AcDbVertex
100
AcDb2dVertex
 10
7.888212451948685
 20
7.182443544598539
 30
0.0
 70
     8
  0
VERTEX
  5
125B
330
124B
100
AcDbEntity
  8
0
100
AcDbVertex
100
AcDb2dVertex
 10
7.874936404189423
 20
7.17955363894658
 30
0.0
 70
     8
  0
VERTEX
  5
125C
330
124B
100
AcDbEntity
  8
0
100
AcDbVertex
100
AcDb2dVertex
 10
7.863114911670613
 20
7.177913274828714
 30
0.0
 70
     8
  0
VERTEX
  5
125D
330
124B
100
AcDbEntity
  8
0
100
AcDbVertex
100
AcDb2dVertex
 10
7.852067596900059
 20
7.177206621185846
 30
0.0
 70
     8
  0
VERTEX
  5
125E
330
124B
100
AcDbEntity
  8
0
100
AcDbVertex
100
AcDb2dVertex
 10
7.841236605563331
 20
7.17714457868331
 30
0.0
 70
     8
  0
VERTEX
  5
125F
330
124B
100
AcDbEntity
  8
0
100
AcDbVertex
100
AcDb2dVertex
 10
7.830554176057006
 20
7.177544974884132
 30
0.0
 70
     8
  0
VERTEX
  5
1260
330
124B
100
AcDbEntity
  8
0
100
AcDbVertex
100
AcDb2dVertex
 10
7.820075069955423
 20
7.178252369075758
 30
0.0
 70
     8
  0
VERTEX
  5
1261
330
124B
100
AcDbEntity
  8
0
100
AcDbVertex
100
AcDb2dVertex
 10
7.80985404883292
 20
7.179111320545638
 30
0.0
 70
     8
  0
VERTEX
  5
1262
330
124B
100
AcDbEntity
  8
0
100
AcDbVertex
100
AcDb2dVertex
 10
7.799945874263834
 20
7.179966388581218
 30
0.0
 70
     8
  0
VERTEX
  5
1263
330
124B
100
AcDbEntity
  8
0
100
AcDbVertex
100
AcDb2dVertex
 10
7.790405307822502
 20
7.180662132469947
 30
0.0
 70
     8
  0
VERTEX
  5
1264
330
124B
100
AcDbEntity
  8
0
100
AcDbVertex
100
AcDb2dVertex
 10
7.781287111083262
 20
7.181043111499272
 30
0.0
 70
     8
  0
VERTEX
  5
1265
330
124B
100
AcDbEntity
  8
0
100
AcDbVertex
100
AcDb2dVertex
 10
7.772646045620449
 20
7.180953884956641
 30
0.0
 70
     8
  0
VERTEX
  5
1266
330
124B
100
AcDbEntity
  8
0
100
AcDbVertex
100
AcDb2dVertex
 10
7.764518946092053
 20
7.180278605173388
 30
0.0
 70
     8
  0
VERTEX
  5
1267
330
124B
100
AcDbEntity
  8
0
100
AcDbVertex
100
AcDb2dVertex
 10
7.756870939490651
 20
7.17905979665639
 30
0.0
 70
     8
  0
VERTEX
  5
1268
330
124B
100
AcDbEntity
  8
0
100
AcDbVertex
100
AcDb2dVertex
 10
7.749649225892476
 20
7.177379576956412
 30
0.0
 70
     8
  0
VERTEX
  5
1269
330
124B
100
AcDbEntity
  8
0
100
AcDbVertex
100
AcDb2dVertex
 10
7.742801005373758
 20
7.175320063624212
 30
0.0
 70
     8
  0
VERTEX
  5
126A
330
124B
100
AcDbEntity
  8
0
100
AcDbVertex
100
AcDb2dVertex
 10
7.736273478010726
 20
7.172963374210556
 30
0.0
 70
     8
  0
VERTEX
  5
126B
330
124B
100
AcDbEntity
  8
0
100
AcDbVertex
100
AcDb2dVertex
 10
7.730013843879608
 20
7.170391626266206
 30
0.0
 70
     8
  0
VERTEX
  5
126C
330
124B
100
AcDbEntity
  8
0
100
AcDbVertex
100
AcDb2dVertex
 10
7.723969303056638
 20
7.167686937341926
 30
0.0
 70
     8
  0
VERTEX
  5
126D
330
124B
100
AcDbEntity
  8
0
100
AcDbVertex
100
AcDb2dVertex
 10
7.718087055618043
 20
7.164931424988475
 30
0.0
 70
     8
  0
VERTEX
  5
126E
330
124B
100
AcDbEntity
  8
0
100
AcDbVertex
100
AcDb2dVertex
 10
7.712306969575518
 20
7.162204110246454
 30
0.0
 70
     8
  0
VERTEX
  5
126F
330
124B
100
AcDbEntity
  8
0
100
AcDbVertex
100
AcDb2dVertex
 10
7.706539584682605
 20
7.159571628115788
 30
0.0
 70
     8
  0
VERTEX
  5
1270
330
124B
100
AcDbEntity
  8
0
100
AcDbVertex
100
AcDb2dVertex
 10
7.700688108628309
 20
7.157097517086242
 30
0.0
 70
     8
  0
VERTEX
  5
1271
330
124B
100
AcDbEntity
  8
0
100
AcDbVertex
100
AcDb2dVertex
 10
7.694655749101642
 20
7.154845315647573
 30
0.0
 70
     8
  0
VERTEX
  5
1272
330
124B
100
AcDbEntity
  8
0
100
AcDbVertex
100
AcDb2dVertex
 10
7.688345713791606
 20
7.152878562289547
 30
0.0
 70
     8
  0
VERTEX
  5
1273
330
124B
100
AcDbEntity
  8
0
100
AcDbVertex
100
AcDb2dVertex
 10
7.681661210387211
 20
7.151260795501923
 30
0.0
 70
     8
  0
VERTEX
  5
1274
330
124B
100
AcDbEntity
  8
0
100
AcDbVertex
100
AcDb2dVertex
 10
7.674505446577462
 20
7.150055553774465
 30
0.0
 70
     8
  0
VERTEX
  5
1275
330
124B
100
AcDbEntity
  8
0
100
AcDbVertex
100
AcDb2dVertex
 10
7.666781630051364
 20
7.149326375596934
 30
0.0
 70
     8
  0
VERTEX
  5
1276
330
124B
100
AcDbEntity
  8
0
100
AcDbVertex
100
AcDb2dVertex
 10
7.658380901157048
 20
7.149115943186186
 30
0.0
 70
     8
  0
VERTEX
  5
1277
330
124B
100
AcDbEntity
  8
0
100
AcDbVertex
100
AcDb2dVertex
 10
7.64914613087912
 20
7.149383513667471
 30
0.0
 70
     8
  0
VERTEX
  5
1278
330
124B
100
AcDbEntity
  8
0
100
AcDbVertex
100
AcDb2dVertex
 10
7.63890812286131
 20
7.150067487893128
 30
0.0
 70
     8
  0
VERTEX
  5
1279
330
124B
100
AcDbEntity
  8
0
100
AcDbVertex
100
AcDb2dVertex
 10
7.627497680747349
 20
7.151106266715499
 30
0.0
 70
     8
  0
VERTEX
  5
127A
330
124B
100
AcDbEntity
  8
0
100
AcDbVertex
100
AcDb2dVertex
 10
7.614745608180964
 20
7.15243825098693
 30
0.0
 70
     8
  0
VERTEX
  5
127B
330
124B
100
AcDbEntity
  8
0
100
AcDbVertex
100
AcDb2dVertex
 10
7.600482708805887
 20
7.154001841559761
 30
0.0
 70
     8
  0
VERTEX
  5
127C
330
124B
100
AcDbEntity
  8
0
100
AcDbVertex
100
AcDb2dVertex
 10
7.584539786265844
 20
7.155735439286334
 30
0.0
 70
     8
  0
VERTEX
  5
127D
330
124B
100
AcDbEntity
  8
0
100
AcDbVertex
100
AcDb2dVertex
 10
7.566747644204568
 20
7.157577445018993
 30
0.0
 70
     8
  0
VERTEX
  5
124D
330
124B
100
AcDbEntity
  8
0
100
AcDbVertex
100
AcDb2dVertex
 10
7.911132231065146
 20
7.185637737222554
 30
0.0
 70
    16
  0
VERTEX
  5
124E
330
124B
100
AcDbEntity
  8
0
100
AcDbVertex
100
AcDb2dVertex
 10
7.851067060835342
 20
7.170615907416148
 30
0.0
 70
    16
  0
VERTEX
  5
124F
330
124B
100
AcDbEntity
  8
0
100
AcDbVertex
100
AcDb2dVertex
 10
7.766972521878944
 20
7.187627445324724
 30
0.0
 70
    16
  0
VERTEX
  5
1250
330
124B
100
AcDbEntity
  8
0
100
AcDbVertex
100
AcDb2dVertex
 10
7.716919125371581
 20
7.164597621024801
 30
0.0
 70
    16
  0
VERTEX
  5
1251
330
124B
100
AcDbEntity
  8
0
100
AcDbVertex
100
AcDb2dVertex
 10
7.673873310342995
 20
7.143570620506926
 30
0.0
 70
    16
  0
VERTEX
  5
1252
330
124B
100
AcDbEntity
  8
0
100
AcDbVertex
100
AcDb2dVertex
 10
7.616809379157415
 20
7.152575640521707
 30
0.0
 70
    16
  0
VERTEX
  5
1253
330
124B
100
AcDbEntity
  8
0
100
AcDbVertex
100
AcDb2dVertex
 10
7.566747644204568
 20
7.157577445018991
 30
0.0
 70
    16
  0
SEQEND
  5
1254
330
124B
100
AcDbEntity
  8
0
  0
POLYLINE
  5
127F
330
19
100
AcDbEntity
  8
0
100
AcDb2dPolyline
 66
     1
 10
0.0
 20
0.0
 30
0.0
 70
     4
 75
     6
  0
VERTEX
  5
1280
330
127F
100
AcDbEntity
  8
0
100
AcDbVertex
100
AcDb2dVertex
 10
6.526158119237028
 20
7.569942691973297
 30
0.0
 70
    16
  0
VERTEX
  5
12B5
330
127F
100
AcDbEntity
  8
0
100
AcDbVertex
100
AcDb2dVertex
 10
6.526158119237028
 20
7.569942691973297
 30
0.0
 70
     8
  0
VERTEX
  5
12B6
330
127F
100
AcDbEntity
  8
0
100
AcDbVertex
100
AcDb2dVertex
 10
6.464091589368938
 20
7.610085192972876
 30
0.0
 70
     8
  0
VERTEX
  5
12B7
330
127F
100
AcDbEntity
  8
0
100
AcDbVertex
100
AcDb2dVertex
 10
6.414638095687788
 20
7.641933449761715
 30
0.0
 70
     8
  0
VERTEX
  5
12B8
330
127F
100
AcDbEntity
  8
0
100
AcDbVertex
100
AcDb2dVertex
 10
6.376135443538053
 20
7.666624322247471
 30
0.0
 70
     8
  0
VERTEX
  5
12B9
330
127F
100
AcDbEntity
  8
0
100
AcDbVertex
100
AcDb2dVertex
 10
6.346921438264207
 20
7.685294670337804
 30
0.0
 70
     8
  0
VERTEX
  5
12BA
330
127F
100
AcDbEntity
  8
0
100
AcDbVertex
100
AcDb2dVertex
 10
6.325333885210728
 20
7.699081353940372
 30
0.0
 70
     8
  0
VERTEX
  5
12BB
330
127F
100
AcDbEntity
  8
0
100
AcDbVertex
100
AcDb2dVertex
 10
6.309710589722092
 20
7.709121232962834
 30
0.0
 70
     8
  0
VERTEX
  5
12BC
330
127F
100
AcDbEntity
  8
0
100
AcDbVertex
100
AcDb2dVertex
 10
6.298389357142772
 20
7.716551167312848
 30
0.0
 70
     8
  0
VERTEX
  5
12BD
330
127F
100
AcDbEntity
  8
0
100
AcDbVertex
100
AcDb2dVertex
 10
6.289707992817246
 20
7.722508016898079
 30
0.0
 70
     8
  0
VERTEX
  5
12BE
330
127F
100
AcDbEntity
  8
0
100
AcDbVertex
100
AcDb2dVertex
 10
6.28226031425865
 20
7.727949754299078
 30
0.0
 70
     8
  0
VERTEX
  5
12BF
330
127F
100
AcDbEntity
  8
0
100
AcDbVertex
100
AcDb2dVertex
 10
6.275664187654756
 20
7.733118802788017
 30
0.0
 70
     8
  0
VERTEX
  5
12C0
330
127F
100
AcDbEntity
  8
0
100
AcDbVertex
100
AcDb2dVertex
 10
6.269793491361997
 20
7.738078698309965
 30
0.0
 70
     8
  0
VERTEX
  5
12C1
330
127F
100
AcDbEntity
  8
0
100
AcDbVertex
100
AcDb2dVertex
 10
6.264522103736805
 20
7.742892976809994
 30
0.0
 70
     8
  0
VERTEX
  5
12C2
330
127F
100
AcDbEntity
  8
0
100
AcDbVertex
100
AcDb2dVertex
 10
6.259723903135613
 20
7.747625174233174
 30
0.0
 70
     8
  0
VERTEX
  5
12C3
330
127F
100
AcDbEntity
  8
0
100
AcDbVertex
100
AcDb2dVertex
 10
6.255272767914853
 20
7.752338826524574
 30
0.0
 70
     8
  0
VERTEX
  5
12C4
330
127F
100
AcDbEntity
  8
0
100
AcDbVertex
100
AcDb2dVertex
 10
6.251042576430958
 20
7.757097469629265
 30
0.0
 70
     8
  0
VERTEX
  5
12C5
330
127F
100
AcDbEntity
  8
0
100
AcDbVertex
100
AcDb2dVertex
 10
6.246907207040361
 20
7.761964639492317
 30
0.0
 70
     8
  0
VERTEX
  5
12C6
330
127F
100
AcDbEntity
  8
0
100
AcDbVertex
100
AcDb2dVertex
 10
6.242752760591526
 20
7.766981550238184
 30
0.0
 70
     8
  0
VERTEX
  5
12C7
330
127F
100
AcDbEntity
  8
0
100
AcDbVertex
100
AcDb2dVertex
 10
6.238514227901049
 20
7.772100128708858
 30
0.0
 70
     8
  0
VERTEX
  5
12C8
330
127F
100
AcDbEntity
  8
0
100
AcDbVertex
100
AcDb2dVertex
 10
6.234138822277552
 20
7.777249979925717
 30
0.0
 70
     8
  0
VERTEX
  5
12C9
330
127F
100
AcDbEntity
  8
0
100
AcDbVertex
100
AcDb2dVertex
 10
6.229573757029666
 20
7.782360708910139
 30
0.0
 70
     8
  0
VERTEX
  5
12CA
330
127F
100
AcDbEntity
  8
0
100
AcDbVertex
100
AcDb2dVertex
 10
6.224766245466015
 20
7.787361920683498
 30
0.0
 70
     8
  0
VERTEX
  5
12CB
330
127F
100
AcDbEntity
  8
0
100
AcDbVertex
100
AcDb2dVertex
 10
6.219663500895226
 20
7.792183220267176
 30
0.0
 70
     8
  0
VERTEX
  5
12CC
330
127F
100
AcDbEntity
  8
0
100
AcDbVertex
100
AcDb2dVertex
 10
6.214212736625925
 20
7.796754212682544
 30
0.0
 70
     8
  0
VERTEX
  5
12CD
330
127F
100
AcDbEntity
  8
0
100
AcDbVertex
100
AcDb2dVertex
 10
6.20836116596674
 20
7.801004502950985
 30
0.0
 70
     8
  0
VERTEX
  5
12CE
330
127F
100
AcDbEntity
  8
0
100
AcDbVertex
100
AcDb2dVertex
 10
6.202076856774464
 20
7.804885206080652
 30
0.0
 70
     8
  0
VERTEX
  5
12CF
330
127F
100
AcDbEntity
  8
0
100
AcDbVertex
100
AcDb2dVertex
 10
6.19541129509856
 20
7.80843347702682
 30
0.0
 70
     8
  0
VERTEX
  5
12D0
330
127F
100
AcDbEntity
  8
0
100
AcDbVertex
100
AcDb2dVertex
 10
6.188436821536663
 20
7.811707980731544
 30
0.0
 70
     8
  0
VERTEX
  5
12D1
330
127F
100
AcDbEntity
  8
0
100
AcDbVertex
100
AcDb2dVertex
 10
6.181225776686407
 20
7.814767382136879
 30
0.0
 70
     8
  0
VERTEX
  5
12D2
330
127F
100
AcDbEntity
  8
0
100
AcDbVertex
100
AcDb2dVertex
 10
6.173850501145425
 20
7.81767034618488
 30
0.0
 70
     8
  0
VERTEX
  5
12D3
330
127F
100
AcDbEntity
  8
0
100
AcDbVertex
100
AcDb2dVertex
 10
6.166383335511348
 20
7.820475537817598
 30
0.0
 70
     8
  0
VERTEX
  5
12D4
330
127F
100
AcDbEntity
  8
0
100
AcDbVertex
100
AcDb2dVertex
 10
6.15889662038181
 20
7.82324162197709
 30
0.0
 70
     8
  0
VERTEX
  5
12D5
330
127F
100
AcDbEntity
  8
0
100
AcDbVertex
100
AcDb2dVertex
 10
6.151462696354446
 20
7.826027263605409
 30
0.0
 70
     8
  0
VERTEX
  5
12D6
330
127F
100
AcDbEntity
  8
0
100
AcDbVertex
100
AcDb2dVertex
 10
6.144143476300413
 20
7.828885586754789
 30
0.0
 70
     8
  0
VERTEX
  5
12D7
330
127F
100
AcDbEntity
  8
0
100
AcDbVertex
100
AcDb2dVertex
 10
6.136959162184977
 20
7.83184755191818
 30
0.0
 70
     8
  0
VERTEX
  5
12D8
330
127F
100
AcDbEntity
  8
0
100
AcDbVertex
100
AcDb2dVertex
 10
6.129919528246931
 20
7.834938578698709
 30
0.0
 70
     8
  0
VERTEX
  5
12D9
330
127F
100
AcDbEntity
  8
0
100
AcDbVertex
100
AcDb2dVertex
 10
6.123034348725067
 20
7.838184086699505
 30
0.0
 70
     8
  0
VERTEX
  5
12DA
330
127F
100
AcDbEntity
  8
0
100
AcDbVertex
100
AcDb2dVertex
 10
6.116313397858176
 20
7.841609495523695
 30
0.0
 70
     8
  0
VERTEX
  5
12DB
330
127F
100
AcDbEntity
  8
0
100
AcDbVertex
100
AcDb2dVertex
 10
6.109766449885051
 20
7.845240224774408
 30
0.0
 70
     8
  0
VERTEX
  5
12DC
330
127F
100
AcDbEntity
  8
0
100
AcDbVertex
100
AcDb2dVertex
 10
6.103403279044483
 20
7.849101694054773
 30
0.0
 70
     8
  0
VERTEX
  5
12DD
330
127F
100
AcDbEntity
  8
0
100
AcDbVertex
100
AcDb2dVertex
 10
6.097233659575266
 20
7.853219322967917
 30
0.0
 70
     8
  0
VERTEX
  5
12DE
330
127F
100
AcDbEntity
  8
0
100
AcDbVertex
100
AcDb2dVertex
 10
6.091256612871649
 20
7.857604191399099
 30
0.0
 70
     8
  0
VERTEX
  5
12DF
330
127F
100
AcDbEntity
  8
0
100
AcDbVertex
100
AcDb2dVertex
 10
6.085428148949732
 20
7.862210020362112
 30
0.0
 70
     8
  0
VERTEX
  5
12E0
330
127F
100
AcDbEntity
  8
0
100
AcDbVertex
100
AcDb2dVertex
 10
6.079693524981072
 20
7.866976191152876
 30
0.0
 70
     8
  0
VERTEX
  5
12E1
330
127F
100
AcDbEntity
  8
0
100
AcDbVertex
100
AcDb2dVertex
 10
6.073997998137226
 20
7.871842085067315
 30
0.0
 70
     8
  0
VERTEX
  5
12E2
330
127F
100
AcDbEntity
  8
0
100
AcDbVertex
100
AcDb2dVertex
 10
6.068286825589751
 20
7.876747083401351
 30
0.0
 70
     8
  0
VERTEX
  5
12E3
330
127F
100
AcDbEntity
  8
0
100
AcDbVertex
100
AcDb2dVertex
 10
6.062505264510205
 20
7.881630567450905
 30
0.0
 70
     8
  0
VERTEX
  5
12E4
330
127F
100
AcDbEntity
  8
0
100
AcDbVertex
100
AcDb2dVertex
 10
6.056598572070146
 20
7.886431918511902
 30
0.0
 70
     8
  0
VERTEX
  5
12E5
330
127F
100
AcDbEntity
  8
0
100
AcDbVertex
100
AcDb2dVertex
 10
6.050512005441131
 20
7.891090517880262
 30
0.0
 70
     8
  0
VERTEX
  5
12E6
330
127F
100
AcDbEntity
  8
0
100
AcDbVertex
100
AcDb2dVertex
 10
6.044192450099383
 20
7.895558456370728
 30
0.0
 70
     8
  0
VERTEX
  5
12E7
330
127F
100
AcDbEntity
  8
0
100
AcDbVertex
100
AcDb2dVertex
 10
6.037593304739787
 20
7.899838662873326
 30
0.0
 70
     8
  0
VERTEX
  5
12E8
330
127F
100
AcDbEntity
  8
0
100
AcDbVertex
100
AcDb2dVertex
 10
6.030669596361896
 20
7.903946775796903
 30
0.0
 70
     8
  0
VERTEX
  5
12E9
330
127F
100
AcDbEntity
  8
0
100
AcDbVertex
100
AcDb2dVertex
 10
6.023376351965259
 20
7.907898433550302
 30
0.0
 70
     8
  0
VERTEX
  5
12EA
330
127F
100
AcDbEntity
  8
0
100
AcDbVertex
100
AcDb2dVertex
 10
6.015668598549426
 20
7.91170927454237
 30
0.0
 70
     8
  0
VERTEX
  5
12EB
330
127F
100
AcDbEntity
  8
0
100
AcDbVertex
100
AcDb2dVertex
 10
6.007501363113949
 20
7.915394937181954
 30
0.0
 70
     8
  0
VERTEX
  5
12EC
330
127F
100
AcDbEntity
  8
0
100
AcDbVertex
100
AcDb2dVertex
 10
5.998829672658378
 20
7.918971059877897
 30
0.0
 70
     8
  0
VERTEX
  5
12ED
330
127F
100
AcDbEntity
  8
0
100
AcDbVertex
100
AcDb2dVertex
 10
5.989608554182264
 20
7.922453281039048
 30
0.0
 70
     8
  0
VERTEX
  5
12EE
330
127F
100
AcDbEntity
  8
0
100
AcDbVertex
100
AcDb2dVertex
 10
5.979789122608941
 20
7.92587451045303
 30
0.0
 70
     8
  0
VERTEX
  5
12EF
330
127F
100
AcDbEntity
  8
0
100
AcDbVertex
100
AcDb2dVertex
 10
5.969306844556872
 20
7.929336743422585
 30
0.0
 70
     8
  0
VERTEX
  5
12F0
330
127F
100
AcDbEntity
  8
0
100
AcDbVertex
100
AcDb2dVertex
 10
5.958093274568307
 20
7.932959246629235
 30
0.0
 70
     8
  0
VERTEX
  5
12F1
330
127F
100
AcDbEntity
  8
0
100
AcDbVertex
100
AcDb2dVertex
 10
5.946079967185493
 20
7.9368612867545
 30
0.0
 70
     8
  0
VERTEX
  5
12F2
330
127F
100
AcDbEntity
  8
0
100
AcDbVertex
100
AcDb2dVertex
 10
5.933198476950675
 20
7.941162130479902
 30
0.0
 70
     8
  0
VERTEX
  5
12F3
330
127F
100
AcDbEntity
  8
0
100
AcDbVertex
100
AcDb2dVertex
 10
5.919380358406106
 20
7.945981044486962
 30
0.0
 70
     8
  0
VERTEX
  5
12F4
330
127F
100
AcDbEntity
  8
0
100
AcDbVertex
100
AcDb2dVertex
 10
5.90455716609403
 20
7.951437295457203
 30
0.0
 70
     8
  0
VERTEX
  5
12F5
330
127F
100
AcDbEntity
  8
0
100
AcDbVertex
100
AcDb2dVertex
 10
5.888660454556696
 20
7.957650150072143
 30
0.0
 70
     8
  0
VERTEX
  5
12F6
330
127F
100
AcDbEntity
  8
0
100
AcDbVertex
100
AcDb2dVertex
 10
5.87167783297507
 20
7.964704010558878
 30
0.0
 70
     8
  0
VERTEX
  5
12F7
330
127F
100
AcDbEntity
  8
0
100
AcDbVertex
100
AcDb2dVertex
 10
5.853821129084999
 20
7.972543821326791
 30
0.0
 70
     8
  0
VERTEX
  5
12F8
330
127F
100
AcDbEntity
  8
0
100
AcDbVertex
100
AcDb2dVertex
 10
5.835358225261047
 20
7.981079662330838
 30
0.0
 70
     8
  0
VERTEX
  5
12F9
330
127F
100
AcDbEntity
  8
0
100
AcDbVertex
100
AcDb2dVertex
 10
5.816557003877779
 20
7.990221613525972
 30
0.0
 70
     8
  0
VERTEX
  5
12FA
330
127F
100
AcDbEntity
  8
0
100
AcDbVertex
100
AcDb2dVertex
 10
5.79768534730976
 20
7.999879754867155
 30
0.0
 70
     8
  0
VERTEX
  5
12FB
330
127F
100
AcDbEntity
  8
0
100
AcDbVertex
100
AcDb2dVertex
 10
5.779011137931557
 20
8.009964166309338
 30
0.0
 70
     8
  0
VERTEX
  5
12FC
330
127F
100
AcDbEntity
  8
0
100
AcDbVertex
100
AcDb2dVertex
 10
5.760802258117733
 20
8.020384927807479
 30
0.0
 70
     8
  0
VERTEX
  5
12FD
330
127F
100
AcDbEntity
  8
0
100
AcDbVertex
100
AcDb2dVertex
 10
5.743326590242854
 20
8.031052119316533
 30
0.0
 70
     8
  0
VERTEX
  5
12FE
330
127F
100
AcDbEntity
  8
0
100
AcDbVertex
100
AcDb2dVertex
 10
5.726797920837623
 20
8.041870276112872
 30
0.0
 70
     8
  0
VERTEX
  5
12FF
330
127F
100
AcDbEntity
  8
0
100
AcDbVertex
100
AcDb2dVertex
 10
5.711213653057297
 20
8.052721754758533
 30
0.0
 70
     8
  0
VERTEX
  5
1300
330
127F
100
AcDbEntity
  8
0
100
AcDbVertex
100
AcDb2dVertex
 10
5.69651709421327
 20
8.063483367136966
 30
0.0
 70
     8
  0
VERTEX
  5
1301
330
127F
100
AcDbEntity
  8
0
100
AcDbVertex
100
AcDb2dVertex
 10
5.682651551616938
 20
8.074031925131621
 30
0.0
 70
     8
  0
VERTEX
  5
1302
330
127F
100
AcDbEntity
  8
0
100
AcDbVertex
100
AcDb2dVertex
 10
5.669560332579693
 20
8.084244240625951
 30
0.0
 70
     8
  0
VERTEX
  5
1303
330
127F
100
AcDbEntity
  8
0
100
AcDbVertex
100
AcDb2dVertex
 10
5.657186744412933
 20
8.093997125503408
 30
0.0
 70
     8
  0
VERTEX
  5
1304
330
127F
100
AcDbEntity
  8
0
100
AcDbVertex
100
AcDb2dVertex
 10
5.64547409442805
 20
8.103167391647443
 30
0.0
 70
     8
  0
VERTEX
  5
1305
330
127F
100
AcDbEntity
  8
0
100
AcDbVertex
100
AcDb2dVertex
 10
5.63436568993644
 20
8.111631850941505
 30
0.0
 70
     8
  0
VERTEX
  5
1306
330
127F
100
AcDbEntity
  8
0
100
AcDbVertex
100
AcDb2dVertex
 10
5.623796036820211
 20
8.119297621482632
 30
0.0
 70
     8
  0
VERTEX
  5
1307
330
127F
100
AcDbEntity
  8
0
100
AcDbVertex
100
AcDb2dVertex
 10
5.613664435244323
 20
8.126193046222209
 30
0.0
 70
     8
  0
VERTEX
  5
1308
330
127F
100
AcDbEntity
  8
0
100
AcDbVertex
100
AcDb2dVertex
 10
5.603861383944449
 20
8.132376774325197
 30
0.0
 70
     8
  0
VERTEX
  5
1309
330
127F
100
AcDbEntity
  8
0
100
AcDbVertex
100
AcDb2dVertex
 10
5.594277381656262
 20
8.137907454956563
 30
0.0
 70
     8
  0
VERTEX
  5
130A
330
127F
100
AcDbEntity
  8
0
100
AcDbVertex
100
AcDb2dVertex
 10
5.584802927115436
 20
8.142843737281277
 30
0.0
 70
     8
  0
VERTEX
  5
130B
330
127F
100
AcDbEntity
  8
0
100
AcDbVertex
100
AcDb2dVertex
 10
5.575328519057642
 20
8.1472442704643
 30
0.0
 70
     8
  0
VERTEX
  5
130C
330
127F
100
AcDbEntity
  8
0
100
AcDbVertex
100
AcDb2dVertex
 10
5.565744656218556
 20
8.151167703670602
 30
0.0
 70
     8
  0
VERTEX
  5
130D
330
127F
100
AcDbEntity
  8
0
100
AcDbVertex
100
AcDb2dVertex
 10
5.55594183733385
 20
8.154672686065149
 30
0.0
 70
     8
  0
VERTEX
  5
130E
330
127F
100
AcDbEntity
  8
0
100
AcDbVertex
100
AcDb2dVertex
 10
5.545846081767369
 20
8.15782308399838
 30
0.0
 70
     8
  0
VERTEX
  5
130F
330
127F
100
AcDbEntity
  8
0
100
AcDbVertex
100
AcDb2dVertex
 10
5.535525491395648
 20
8.160703632562626
 30
0.0
 70
     8
  0
VERTEX
  5
1310
330
127F
100
AcDbEntity
  8
0
100
AcDbVertex
100
AcDb2dVertex
 10
5.525083688723396
 20
8.163404284035691
 30
0.0
 70
     8
  0
VERTEX
  5
1311
330
127F
100
AcDbEntity
  8
0
100
AcDbVertex
100
AcDb2dVertex
 10
5.514624296255321
 20
8.166014990695381
 30
0.0
 70
     8
  0
VERTEX
  5
1312
330
127F
100
AcDbEntity
  8
0
100
AcDbVertex
100
AcDb2dVertex
 10
5.504250936496131
 20
8.168625704819499
 30
0.0
 70
     8
  0
VERTEX
  5
1313
330
127F
100
AcDbEntity
  8
0
100
AcDbVertex
100
AcDb2dVertex
 10
5.494067231950532
 20
8.171326378685849
 30
0.0
 70
     8
  0
VERTEX
  5
1314
330
127F
100
AcDbEntity
  8
0
100
AcDbVertex
100
AcDb2dVertex
 10
5.484176805123233
 20
8.174206964572241
 30
0.0
 70
     8
  0
VERTEX
  5
1315
330
127F
100
AcDbEntity
  8
0
100
AcDbVertex
100
AcDb2dVertex
 10
5.474683278518941
 20
8.177357414756472
 30
0.0
 70
     8
  0
VERTEX
  5
1316
330
127F
100
AcDbEntity
  8
0
100
AcDbVertex
100
AcDb2dVertex
 10
5.46563422348139
 20
8.180862462549593
 30
0.0
 70
     8
  0
VERTEX
  5
1317
330
127F
100
AcDbEntity
  8
0
100
AcDbVertex
100
AcDb2dVertex
 10
5.456853006710418
 20
8.184785965395621
 30
0.0
 70
     8
  0
VERTEX
  5
1318
330
127F
100
AcDbEntity
  8
0
100
AcDbVertex
100
AcDb2dVertex
 10
5.448106943744882
 20
8.189186561771821
 30
0.0
 70
     8
  0
VERTEX
  5
1319
330
127F
100
AcDbEntity
  8
0
100
AcDbVertex
100
AcDb2dVertex
 10
5.439163350123649
 20
8.194122890155452
 30
0.0
 70
     8
  0
VERTEX
  5
131A
330
127F
100
AcDbEntity
  8
0
100
AcDbVertex
100
AcDb2dVertex
 10
5.429789541385577
 20
8.199653589023775
 30
0.0
 70
     8
  0
VERTEX
  5
131B
330
127F
100
AcDbEntity
  8
0
100
AcDbVertex
100
AcDb2dVertex
 10
5.419752833069528
 20
8.205837296854055
 30
0.0
 70
     8
  0
VERTEX
  5
131C
330
127F
100
AcDbEntity
  8
0
100
AcDbVertex
100
AcDb2dVertex
 10
5.408820540714365
 20
8.212732652123547
 30
0.0
 70
     8
  0
VERTEX
  5
131D
330
127F
100
AcDbEntity
  8
0
100
AcDbVertex
100
AcDb2dVertex
 10
5.39675997985895
 20
8.22039829330952
 30
0.0
 70
     8
  0
VERTEX
  5
131E
330
127F
100
AcDbEntity
  8
0
100
AcDbVertex
100
AcDb2dVertex
 10
5.383410489890918
 20
8.228846264087215
 30
0.0
 70
     8
  0
VERTEX
  5
131F
330
127F
100
AcDbEntity
  8
0
100
AcDbVertex
100
AcDb2dVertex
 10
5.368899505593009
 20
8.237902228923829
 30
0.0
 70
     8
  0
VERTEX
  5
1320
330
127F
100
AcDbEntity
  8
0
100
AcDbVertex
100
AcDb2dVertex
 10
5.353426485596739
 20
8.247345257484538
 30
0.0
 70
     8
  0
VERTEX
  5
1321
330
127F
100
AcDbEntity
  8
0
100
AcDbVertex
100
AcDb2dVertex
 10
5.33719088853362
 20
8.256954419434516
 30
0.0
 70
     8
  0
VERTEX
  5
1322
330
127F
100
AcDbEntity
  8
0
100
AcDbVertex
100
AcDb2dVertex
 10
5.320392173035168
 20
8.266508784438944
 30
0.0
 70
     8
  0
VERTEX
  5
1323
330
127F
100
AcDbEntity
  8
0
100
AcDbVertex
100
AcDb2dVertex
 10
5.303229797732897
 20
8.275787422162999
 30
0.0
 70
     8
  0
VERTEX
  5
1324
330
127F
100
AcDbEntity
  8
0
100
AcDbVertex
100
AcDb2dVertex
 10
5.285903221258322
 20
8.284569402271858
 30
0.0
 70
     8
  0
VERTEX
  5
1325
330
127F
100
AcDbEntity
  8
0
100
AcDbVertex
100
AcDb2dVertex
 10
5.268611902242957
 20
8.292633794430698
 30
0.0
 70
     8
  0
VERTEX
  5
1326
330
127F
100
AcDbEntity
  8
0
100
AcDbVertex
100
AcDb2dVertex
 10
5.251524335828288
 20
8.299814413706107
 30
0.0
 70
     8
  0
VERTEX
  5
1327
330
127F
100
AcDbEntity
  8
0
100
AcDbVertex
100
AcDb2dVertex
 10
5.234685163195676
 20
8.306164056770303
 30
0.0
 70
     8
  0
VERTEX
  5
1328
330
127F
100
AcDbEntity
  8
0
100
AcDbVertex
100
AcDb2dVertex
 10
5.218108062036452
 20
8.311790265696915
 30
0.0
 70
     8
  0
VERTEX
  5
1329
330
127F
100
AcDbEntity
  8
0
100
AcDbVertex
100
AcDb2dVertex
 10
5.20180671004195
 20
8.316800582559571
 30
0.0
 70
     8
  0
VERTEX
  5
132A
330
127F
100
AcDbEntity
  8
0
100
AcDbVertex
100
AcDb2dVertex
 10
5.185794784903501
 20
8.321302549431897
 30
0.0
 70
     8
  0
VERTEX
  5
132B
330
127F
100
AcDbEntity
  8
0
100
AcDbVertex
100
AcDb2dVertex
 10
5.170085964312437
 20
8.325403708387523
 30
0.0
 70
     8
  0
VERTEX
  5
132C
330
127F
100
AcDbEntity
  8
0
100
AcDbVertex
100
AcDb2dVertex
 10
5.154693925960092
 20
8.329211601500077
 30
0.0
 70
     8
  0
VERTEX
  5
132D
330
127F
100
AcDbEntity
  8
0
100
AcDbVertex
100
AcDb2dVertex
 10
5.139632347537795
 20
8.332833770843187
 30
0.0
 70
     8
  0
VERTEX
  5
132E
330
127F
100
AcDbEntity
  8
0
100
AcDbVertex
100
AcDb2dVertex
 10
5.124916538745485
 20
8.336347777536332
 30
0.0
 70
     8
  0
VERTEX
  5
132F
330
127F
100
AcDbEntity
  8
0
100
AcDbVertex
100
AcDb2dVertex
 10
5.110568337317521
 20
8.339711258882398
 30
0.0
 70
     8
  0
VERTEX
  5
1330
330
127F
100
AcDbEntity
  8
0
100
AcDbVertex
100
AcDb2dVertex
 10
5.096611212996869
 20
8.342851871230122
 30
0.0
 70
     8
  0
VERTEX
  5
1331
330
127F
100
AcDbEntity
  8
0
100
AcDbVertex
100
AcDb2dVertex
 10
5.083068635526495
 20
8.345697270928241
 30
0.0
 70
     8
  0
VERTEX
  5
1332
330
127F
100
AcDbEntity
  8
0
100
AcDbVertex
100
AcDb2dVertex
 10
5.069964074649363
 20
8.348175114325491
 30
0.0
 70
     8
  0
VERTEX
  5
1333
330
127F
100
AcDbEntity
  8
0
100
AcDbVertex
100
AcDb2dVertex
 10
5.057321000108439
 20
8.350213057770612
 30
0.0
 70
     8
  0
VERTEX
  5
1334
330
127F
100
AcDbEntity
  8
0
100
AcDbVertex
100
AcDb2dVertex
 10
5.045162881646689
 20
8.351738757612337
 30
0.0
 70
     8
  0
VERTEX
  5
1335
330
127F
100
AcDbEntity
  8
0
100
AcDbVertex
100
AcDb2dVertex
 10
5.033513189007077
 20
8.352679870199403
 30
0.0
 70
     8
  0
VERTEX
  5
1336
330
127F
100
AcDbEntity
  8
0
100
AcDbVertex
100
AcDb2dVertex
 10
5.022396694186115
 20
8.352978716659935
 30
0.0
 70
     8
  0
VERTEX
  5
1337
330
127F
100
AcDbEntity
  8
0
100
AcDbVertex
100
AcDb2dVertex
 10
5.0118433781945
 20
8.35263627723959
 30
0.0
 70
     8
  0
VERTEX
  5
1338
330
127F
100
AcDbEntity
  8
0
100
AcDbVertex
100
AcDb2dVertex
 10
5.001884524296477
 20
8.351668196963413
 30
0.0
 70
     8
  0
VERTEX
  5
1339
330
127F
100
AcDbEntity
  8
0
100
AcDbVertex
100
AcDb2dVertex
 10
4.992551415756289
 20
8.350090120856448
 30
0.0
 70
     8
  0
VERTEX
  5
133A
330
127F
100
AcDbEntity
  8
0
100
AcDbVertex
100
AcDb2dVertex
 10
4.983875335838179
 20
8.347917693943739
 30
0.0
 70
     8
  0
VERTEX
  5
133B
330
127F
100
AcDbEntity
  8
0
100
AcDbVertex
100
AcDb2dVertex
 10
4.97588756780639
 20
8.345166561250329
 30
0.0
 70
     8
  0
VERTEX
  5
133C
330
127F
100
AcDbEntity
  8
0
100
AcDbVertex
100
AcDb2dVertex
 10
4.968619394925168
 20
8.341852367801261
 30
0.0
 70
     8
  0
VERTEX
  5
133D
330
127F
100
AcDbEntity
  8
0
100
AcDbVertex
100
AcDb2dVertex
 10
4.962102100458753
 20
8.337990758621583
 30
0.0
 70
     8
  0
VERTEX
  5
133E
330
127F
100
AcDbEntity
  8
0
100
AcDbVertex
100
AcDb2dVertex
 10
4.956353280649524
 20
8.333597377548811
 30
0.0
 70
     8
  0
VERTEX
  5
133F
330
127F
100
AcDbEntity
  8
0
100
AcDbVertex
100
AcDb2dVertex
 10
4.951335783652383
 20
8.32868786367038
 30
0.0
 70
     8
  0
VERTEX
  5
1340
330
127F
100
AcDbEntity
  8
0
100
AcDbVertex
100
AcDb2dVertex
 10
4.946998770600366
 20
8.323277854886195
 30
0.0
 70
     8
  0
VERTEX
  5
1341
330
127F
100
AcDbEntity
  8
0
100
AcDbVertex
100
AcDb2dVertex
 10
4.943291402626511
 20
8.317382989096162
 30
0.0
 70
     8
  0
VERTEX
  5
1342
330
127F
100
AcDbEntity
  8
0
100
AcDbVertex
100
AcDb2dVertex
 10
4.940162840863851
 20
8.311018904200191
 30
0.0
 70
     8
  0
VERTEX
  5
1343
330
127F
100
AcDbEntity
  8
0
100
AcDbVertex
100
AcDb2dVertex
 10
4.937562246445423
 20
8.304201238098189
 30
0.0
 70
     8
  0
VERTEX
  5
1344
330
127F
100
AcDbEntity
  8
0
100
AcDbVertex
100
AcDb2dVertex
 10
4.935438780504263
 20
8.296945628690063
 30
0.0
 70
     8
  0
VERTEX
  5
1345
330
127F
100
AcDbEntity
  8
0
100
AcDbVertex
100
AcDb2dVertex
 10
4.933741604173409
 20
8.289267713875718
 30
0.0
 70
     8
  0
VERTEX
  5
1346
330
127F
100
AcDbEntity
  8
0
100
AcDbVertex
100
AcDb2dVertex
 10
4.932435846495328
 20
8.28118639175524
 30
0.0
 70
     8
  0
VERTEX
  5
1347
330
127F
100
AcDbEntity
  8
0
100
AcDbVertex
100
AcDb2dVertex
 10
4.931550508150239
 20
8.272733601229401
 30
0.0
 70
     8
  0
VERTEX
  5
1348
330
127F
100
AcDbEntity
  8
0
100
AcDbVertex
100
AcDb2dVertex
 10
4.93113055772779
 20
8.263944541399154
 30
0.0
 70
     8
  0
VERTEX
  5
1349
330
127F
100
AcDbEntity
  8
0
100
AcDbVertex
100
AcDb2dVertex
 10
4.931220963817633
 20
8.254854411365443
 30
0.0
 70
     8
  0
VERTEX
  5
134A
330
127F
100
AcDbEntity
  8
0
100
AcDbVertex
100
AcDb2dVertex
 10
4.931866695009416
 20
8.245498410229223
 30
0.0
 70
     8
  0
VERTEX
  5
134B
330
127F
100
AcDbEntity
  8
0
100
AcDbVertex
100
AcDb2dVertex
 10
4.933112719892792
 20
8.23591173709144
 30
0.0
 70
     8
  0
VERTEX
  5
134C
330
127F
100
AcDbEntity
  8
0
100
AcDbVertex
100
AcDb2dVertex
 10
4.935004007057411
 20
8.226129591053045
 30
0.0
 70
     8
  0
VERTEX
  5
134D
330
127F
100
AcDbEntity
  8
0
100
AcDbVertex
100
AcDb2dVertex
 10
4.937585525092923
 20
8.216187171214989
 30
0.0
 70
     8
  0
VERTEX
  5
134E
330
127F
100
AcDbEntity
  8
0
100
AcDbVertex
100
AcDb2dVertex
 10
4.940881713017505
 20
8.20610859492685
 30
0.0
 70
     8
  0
VERTEX
  5
134F
330
127F
100
AcDbEntity
  8
0
100
AcDbVertex
100
AcDb2dVertex
 10
4.944834891563436
 20
8.195873652532741
 30
0.0
 70
     8
  0
VERTEX
  5
1350
330
127F
100
AcDbEntity
  8
0
100
AcDbVertex
100
AcDb2dVertex
 10
4.949366851891525
 20
8.185451052625405
 30
0.0
 70
     8
  0
VERTEX
  5
1351
330
127F
100
AcDbEntity
  8
0
100
AcDbVertex
100
AcDb2dVertex
 10
4.954399385162577
 20
8.174809503797585
 30
0.0
 70
     8
  0
VERTEX
  5
1352
330
127F
100
AcDbEntity
  8
0
100
AcDbVertex
100
AcDb2dVertex
 10
4.959854282537398
 20
8.163917714642025
 30
0.0
 70
     8
  0
VERTEX
  5
1353
330
127F
100
AcDbEntity
  8
0
100
AcDbVertex
100
AcDb2dVertex
 10
4.965653335176796
 20
8.152744393751469
 30
0.0
 70
     8
  0
VERTEX
  5
1354
330
127F
100
AcDbEntity
  8
0
100
AcDbVertex
100
AcDb2dVertex
 10
4.971718334241578
 20
8.141258249718659
 30
0.0
 70
     8
  0
VERTEX
  5
1355
330
127F
100
AcDbEntity
  8
0
100
AcDbVertex
100
AcDb2dVertex
 10
4.977971070892549
 20
8.129427991136337
 30
0.0
 70
     8
  0
VERTEX
  5
1356
330
127F
100
AcDbEntity
  8
0
100
AcDbVertex
100
AcDb2dVertex
 10
4.984333986498373
 20
8.117240250134815
 30
0.0
 70
     8
  0
VERTEX
  5
1357
330
127F
100
AcDbEntity
  8
0
100
AcDbVertex
100
AcDb2dVertex
 10
4.99073212325914
 20
8.104753352994665
 30
0.0
 70
     8
  0
VERTEX
  5
1358
330
127F
100
AcDbEntity
  8
0
100
AcDbVertex
100
AcDb2dVertex
 10
4.997091173582798
 20
8.092043549534031
 30
0.0
 70
     8
  0
VERTEX
  5
1359
330
127F
100
AcDbEntity
  8
0
100
AcDbVertex
100
AcDb2dVertex
 10
5.003336829877294
 20
8.07918708957105
 30
0.0
 70
     8
  0
VERTEX
  5
135A
330
127F
100
AcDbEntity
  8
0
100
AcDbVertex
100
AcDb2dVertex
 10
5.009394784550575
 20
8.066260222923866
 30
0.0
 70
     8
  0
VERTEX
  5
135B
330
127F
100
AcDbEntity
  8
0
100
AcDbVertex
100
AcDb2dVertex
 10
5.015190730010589
 20
8.053339199410617
 30
0.0
 70
     8
  0
VERTEX
  5
135C
330
127F
100
AcDbEntity
  8
0
100
AcDbVertex
100
AcDb2dVertex
 10
5.020650358665281
 20
8.040500268849447
 30
0.0
 70
     8
  0
VERTEX
  5
135D
330
127F
100
AcDbEntity
  8
0
100
AcDbVertex
100
AcDb2dVertex
 10
5.025699362922602
 20
8.027819681058494
 30
0.0
 70
     8
  0
VERTEX
  5
135E
330
127F
100
AcDbEntity
  8
0
100
AcDbVertex
100
AcDb2dVertex
 10
5.030274190155612
 20
8.015363584463289
 30
0.0
 70
     8
  0
VERTEX
  5
135F
330
127F
100
AcDbEntity
  8
0
100
AcDbVertex
100
AcDb2dVertex
 10
5.034354307597835
 20
8.003157721918917
 30
0.0
 70
     8
  0
VERTEX
  5
1360
330
127F
100
AcDbEntity
  8
0
100
AcDbVertex
100
AcDb2dVertex
 10
5.037929937447911
 20
7.991217734887857
 30
0.0
 70
     8
  0
VERTEX
  5
1361
330
127F
100
AcDbEntity
  8
0
100
AcDbVertex
100
AcDb2dVertex
 10
5.040991301904481
 20
7.979559264832582
 30
0.0
 70
     8
  0
VERTEX
  5
1362
330
127F
100
AcDbEntity
  8
0
100
AcDbVertex
100
AcDb2dVertex
 10
5.043528623166185
 20
7.968197953215569
 30
0.0
 70
     8
  0
VERTEX
  5
1363
330
127F
100
AcDbEntity
  8
0
100
AcDbVertex
100
AcDb2dVertex
 10
5.04553212343166
 20
7.957149441499293
 30
0.0
 70
     8
  0
VERTEX
  5
1364
330
127F
100
AcDbEntity
  8
0
100
AcDbVertex
100
AcDb2dVertex
 10
5.046992024899549
 20
7.94642937114623
 30
0.0
 70
     8
  0
VERTEX
  5
1365
330
127F
100
AcDbEntity
  8
0
100
AcDbVertex
100
AcDb2dVertex
 10
5.047898549768489
 20
7.936053383618854
 30
0.0
 70
     8
  0
VERTEX
  5
1366
330
127F
100
AcDbEntity
  8
0
100
AcDbVertex
100
AcDb2dVertex
 10
5.048253977540607
 20
7.926040706121998
 30
0.0
 70
     8
  0
VERTEX
  5
1367
330
127F
100
AcDbEntity
  8
0
100
AcDbVertex
100
AcDb2dVertex
 10
5.048108816931966
 20
7.916424908829908
 30
0.0
 70
     8
  0
VERTEX
  5
1368
330
127F
100
AcDbEntity
  8
0
100
AcDbVertex
100
AcDb2dVertex
 10
5.047525633962113
 20
7.907243147659188
 30
0.0
 70
     8
  0
VERTEX
  5
1369
330
127F
100
AcDbEntity
  8
0
100
AcDbVertex
100
AcDb2dVertex
 10
5.0465669946506
 20
7.898532578526441
 30
0.0
 70
     8
  0
VERTEX
  5
136A
330
127F
100
AcDbEntity
  8
0
100
AcDbVertex
100
AcDb2dVertex
 10
5.045295465016975
 20
7.890330357348269
 30
0.0
 70
     8
  0
VERTEX
  5
136B
330
127F
100
AcDbEntity
  8
0
100
AcDbVertex
100
AcDb2dVertex
 10
5.043773611080785
 20
7.882673640041276
 30
0.0
 70
     8
  0
VERTEX
  5
136C
330
127F
100
AcDbEntity
  8
0
100
AcDbVertex
100
AcDb2dVertex
 10
5.042063998861581
 20
7.875599582522061
 30
0.0
 70
     8
  0
VERTEX
  5
136D
330
127F
100
AcDbEntity
  8
0
100
AcDbVertex
100
AcDb2dVertex
 10
5.04022919437891
 20
7.869145340707231
 30
0.0
 70
     8
  0
VERTEX
  5
136E
330
127F
100
AcDbEntity
  8
0
100
AcDbVertex
100
AcDb2dVertex
 10
5.038321011684289
 20
7.863323628469854
 30
0.0
 70
     8
  0
VERTEX
  5
136F
330
127F
100
AcDbEntity
  8
0
100
AcDbVertex
100
AcDb2dVertex
 10
5.036348256957095
 20
7.858049391508875
 30
0.0
 70
     8
  0
VERTEX
  5
1370
330
127F
100
AcDbEntity
  8
0
100
AcDbVertex
100
AcDb2dVertex
 10
5.03430898440867
 20
7.853213133479701
 30
0.0
 70
     8
  0
VERTEX
  5
1371
330
127F
100
AcDbEntity
  8
0
100
AcDbVertex
100
AcDb2dVertex
 10
5.03220124825036
 20
7.848705358037745
 30
0.0
 70
     8
  0
VERTEX
  5
1372
330
127F
100
AcDbEntity
  8
0
100
AcDbVertex
100
AcDb2dVertex
 10
5.030023102693508
 20
7.844416568838416
 30
0.0
 70
     8
  0
VERTEX
  5
1373
330
127F
100
AcDbEntity
  8
0
100
AcDbVertex
100
AcDb2dVertex
 10
5.027772601949457
 20
7.840237269537124
 30
0.0
 70
     8
  0
VERTEX
  5
1374
330
127F
100
AcDbEntity
  8
0
100
AcDbVertex
100
AcDb2dVertex
 10
5.025447800229552
 20
7.836057963789282
 30
0.0
 70
     8
  0
VERTEX
  5
1375
330
127F
100
AcDbEntity
  8
0
100
AcDbVertex
100
AcDb2dVertex
 10
5.023046751745135
 20
7.831769155250297
 30
0.0
 70
     8
  0
VERTEX
  5
1376
330
127F
100
AcDbEntity
  8
0
100
AcDbVertex
100
AcDb2dVertex
 10
5.020577611195384
 20
7.827282530747834
 30
0.0
 70
     8
  0
VERTEX
  5
1377
330
127F
100
AcDbEntity
  8
0
100
AcDbVertex
100
AcDb2dVertex
 10
5.018088935230798
 20
7.822594509798566
 30
0.0
 70
     8
  0
VERTEX
  5
1378
330
127F
100
AcDbEntity
  8
0
100
AcDbVertex
100
AcDb2dVertex
 10
5.015639380989713
 20
7.817722695091423
 30
0.0
 70
     8
  0
VERTEX
  5
1379
330
127F
100
AcDbEntity
  8
0
100
AcDbVertex
100
AcDb2dVertex
 10
5.013287605610461
 20
7.81268468931533
 30
0.0
 70
     8
  0
VERTEX
  5
137A
330
127F
100
AcDbEntity
  8
0
100
AcDbVertex
100
AcDb2dVertex
 10
5.011092266231375
 20
7.807498095159218
 30
0.0
 70
     8
  0
VERTEX
  5
137B
330
127F
100
AcDbEntity
  8
0
100
AcDbVertex
100
AcDb2dVertex
 10
5.009112019990789
 20
7.802180515312013
 30
0.0
 70
     8
  0
VERTEX
  5
137C
330
127F
100
AcDbEntity
  8
0
100
AcDbVertex
100
AcDb2dVertex
 10
5.007405524027036
 20
7.796749552462643
 30
0.0
 70
     8
  0
VERTEX
  5
137D
330
127F
100
AcDbEntity
  8
0
100
AcDbVertex
100
AcDb2dVertex
 10
5.006031435478449
 20
7.791222809300035
 30
0.0
 70
     8
  0
VERTEX
  5
137E
330
127F
100
AcDbEntity
  8
0
100
AcDbVertex
100
AcDb2dVertex
 10
5.00503407289647
 20
7.785615606098737
 30
0.0
 70
     8
  0
VERTEX
  5
137F
330
127F
100
AcDbEntity
  8
0
100
AcDbVertex
100
AcDb2dVertex
 10
5.004400400484961
 20
7.779934133475757
 30
0.0
 70
     8
  0
VERTEX
  5
1380
330
127F
100
AcDbEntity
  8
0
100
AcDbVertex
100
AcDb2dVertex
 10
5.004103043860897
 20
7.774182299633732
 30
0.0
 70
     8
  0
VERTEX
  5
1381
330
127F
100
AcDbEntity
  8
0
100
AcDbVertex
100
AcDb2dVertex
 10
5.004114628641248
 20
7.768364012775289
 30
0.0
 70
     8
  0
VERTEX
  5
1382
330
127F
100
AcDbEntity
  8
0
100
AcDbVertex
100
AcDb2dVertex
 10
5.004407780442986
 20
7.762483181103061
 30
0.0
 70
     8
  0
VERTEX
  5
1383
330
127F
100
AcDbEntity
  8
0
100
AcDbVertex
100
AcDb2dVertex
 10
5.004955124883085
 20
7.756543712819679
 30
0.0
 70
     8
  0
VERTEX
  5
1384
330
127F
100
AcDbEntity
  8
0
100
AcDbVertex
100
AcDb2dVertex
 10
5.005729287578514
 20
7.750549516127774
 30
0.0
 70
     8
  0
VERTEX
  5
1385
330
127F
100
AcDbEntity
  8
0
100
AcDbVertex
100
AcDb2dVertex
 10
5.006702894146248
 20
7.744504499229976
 30
0.0
 70
     8
  0
VERTEX
  5
1386
330
127F
100
AcDbEntity
  8
0
100
AcDbVertex
100
AcDb2dVertex
 10
5.007833579203106
 20
7.738417783131865
 30
0.0
 70
     8
  0
VERTEX
  5
1387
330
127F
100
AcDbEntity
  8
0
100
AcDbVertex
100
AcDb2dVertex
 10
5.009019013365312
 20
7.732319340050817
 30
0.0
 70
     8
  0
VERTEX
  5
1388
330
127F
100
AcDbEntity
  8
0
100
AcDbVertex
100
AcDb2dVertex
 10
5.01014187624894
 20
7.726244355007151
 30
0.0
 70
     8
  0
VERTEX
  5
1389
330
127F
100
AcDbEntity
  8
0
100
AcDbVertex
100
AcDb2dVertex
 10
5.011084847470064
 20
7.720228013021193
 30
0.0
 70
     8
  0
VERTEX
  5
138A
330
127F
100
AcDbEntity
  8
0
100
AcDbVertex
100
AcDb2dVertex
 10
5.011730606644756
 20
7.714305499113263
 30
0.0
 70
     8
  0
VERTEX
  5
138B
330
127F
100
AcDbEntity
  8
0
100
AcDbVertex
100
AcDb2dVertex
 10
5.01196183338909
 20
7.708511998303686
 30
0.0
 70
     8
  0
VERTEX
  5
138C
330
127F
100
AcDbEntity
  8
0
100
AcDbVertex
100
AcDb2dVertex
 10
5.011661207319139
 20
7.702882695612782
 30
0.0
 70
     8
  0
VERTEX
  5
138D
330
127F
100
AcDbEntity
  8
0
100
AcDbVertex
100
AcDb2dVertex
 10
5.010711408050978
 20
7.697452776060874
 30
0.0
 70
     8
  0
VERTEX
  5
138E
330
127F
100
AcDbEntity
  8
0
100
AcDbVertex
100
AcDb2dVertex
 10
5.00903259190937
 20
7.69225351734216
 30
0.0
 70
     8
  0
VERTEX
  5
138F
330
127F
100
AcDbEntity
  8
0
100
AcDbVertex
100
AcDb2dVertex
 10
5.006694822053853
 20
7.687300567846331
 30
0.0
 70
     8
  0
VERTEX
  5
1390
330
127F
100
AcDbEntity
  8
0
100
AcDbVertex
100
AcDb2dVertex
 10
5.003805638352655
 20
7.682605668636952
 30
0.0
 70
     8
  0
VERTEX
  5
1391
330
127F
100
AcDbEntity
  8
0
100
AcDbVertex
100
AcDb2dVertex
 10
5.000472580674004
 20
7.678180560777588
 30
0.0
 70
     8
  0
VERTEX
  5
1392
330
127F
100
AcDbEntity
  8
0
100
AcDbVertex
100
AcDb2dVertex
 10
4.996803188886132
 20
7.674036985331806
 30
0.0
 70
     8
  0
VERTEX
  5
1393
330
127F
100
AcDbEntity
  8
0
100
AcDbVertex
100
AcDb2dVertex
 10
4.992905002857263
 20
7.670186683363172
 30
0.0
 70
     8
  0
VERTEX
  5
1394
330
127F
100
AcDbEntity
  8
0
100
AcDbVertex
100
AcDb2dVertex
 10
4.988885562455629
 20
7.666641395935251
 30
0.0
 70
     8
  0
VERTEX
  5
1395
330
127F
100
AcDbEntity
  8
0
100
AcDbVertex
100
AcDb2dVertex
 10
4.984852407549457
 20
7.663412864111606
 30
0.0
 70
     8
  0
VERTEX
  5
1396
330
127F
100
AcDbEntity
  8
0
100
AcDbVertex
100
AcDb2dVertex
 10
4.980894829209974
 20
7.660506309742982
 30
0.0
 70
     8
  0
VERTEX
  5
1397
330
127F
100
AcDbEntity
  8
0
100
AcDbVertex
100
AcDb2dVertex
 10
4.977029123320389
 20
7.65790087782882
 30
0.0
 70
     8
  0
VERTEX
  5
1398
330
127F
100
AcDbEntity
  8
0
100
AcDbVertex
100
AcDb2dVertex
 10
4.973253336966908
 20
7.655569194155738
 30
0.0
 70
     8
  0
VERTEX
  5
1399
330
127F
100
AcDbEntity
  8
0
100
AcDbVertex
100
AcDb2dVertex
 10
4.969565517235743
 20
7.653483884510353
 30
0.0
 70
     8
  0
VERTEX
  5
139A
330
127F
100
AcDbEntity
  8
0
100
AcDbVertex
100
AcDb2dVertex
 10
4.965963711213096
 20
7.651617574679285
 30
0.0
 70
     8
  0
VERTEX
  5
139B
330
127F
100
AcDbEntity
  8
0
100
AcDbVertex
100
AcDb2dVertex
 10
4.962445965985177
 20
7.649942890449151
 30
0.0
 70
     8
  0
VERTEX
  5
139C
330
127F
100
AcDbEntity
  8
0
100
AcDbVertex
100
AcDb2dVertex
 10
4.959010328638192
 20
7.648432457606568
 30
0.0
 70
     8
  0
VERTEX
  5
139D
330
127F
100
AcDbEntity
  8
0
100
AcDbVertex
100
AcDb2dVertex
 10
4.955654846258351
 20
7.647058901938156
 30
0.0
 70
     8
  0
VERTEX
  5
139E
330
127F
100
AcDbEntity
  8
0
100
AcDbVertex
100
AcDb2dVertex
 10
4.952387669925709
 20
7.645775623100126
 30
0.0
 70
     8
  0
VERTEX
  5
139F
330
127F
100
AcDbEntity
  8
0
100
AcDbVertex
100
AcDb2dVertex
 10
4.949257366695729
 20
7.644459116227073
 30
0.0
 70
     8
  0
VERTEX
  5
13A0
330
127F
100
AcDbEntity
  8
0
100
AcDbVertex
100
AcDb2dVertex
 10
4.946322607617728
 20
7.642966650323186
 30
0.0
 70
     8
  0
VERTEX
  5
13A1
330
127F
100
AcDbEntity
  8
0
100
AcDbVertex
100
AcDb2dVertex
 10
4.943642063741018
 20
7.641155494392653
 30
0.0
 70
     8
  0
VERTEX
  5
13A2
330
127F
100
AcDbEntity
  8
0
100
AcDbVertex
100
AcDb2dVertex
 10
4.941274406114915
 20
7.638882917439664
 30
0.0
 70
     8
  0
VERTEX
  5
13A3
330
127F
100
AcDbEntity
  8
0
100
AcDbVertex
100
AcDb2dVertex
 10
4.939278305788731
 20
7.636006188468407
 30
0.0
 70
     8
  0
VERTEX
  5
13A4
330
127F
100
AcDbEntity
  8
0
100
AcDbVertex
100
AcDb2dVertex
 10
4.937712433811782
 20
7.632382576483072
 30
0.0
 70
     8
  0
VERTEX
  5
13A5
330
127F
100
AcDbEntity
  8
0
100
AcDbVertex
100
AcDb2dVertex
 10
4.936635461233382
 20
7.627869350487848
 30
0.0
 70
     8
  0
VERTEX
  5
13A6
330
127F
100
AcDbEntity
  8
0
100
AcDbVertex
100
AcDb2dVertex
 10
4.936098563320026
 20
7.622329644703126
 30
0.0
 70
     8
  0
VERTEX
  5
13A7
330
127F
100
AcDbEntity
  8
0
100
AcDbVertex
100
AcDb2dVertex
 10
4.936122932206936
 20
7.615650054214123
 30
0.0
 70
     8
  0
VERTEX
  5
13A8
330
127F
100
AcDbEntity
  8
0
100
AcDbVertex
100
AcDb2dVertex
 10
4.936722264246518
 20
7.607723039322252
 30
0.0
 70
     8
  0
VERTEX
  5
13A9
330
127F
100
AcDbEntity
  8
0
100
AcDbVertex
100
AcDb2dVertex
 10
4.937910255791173
 20
7.598441060328934
 30
0.0
 70
     8
  0
VERTEX
  5
13AA
330
127F
100
AcDbEntity
  8
0
100
AcDbVertex
100
AcDb2dVertex
 10
4.939700603193307
 20
7.587696577535584
 30
0.0
 70
     8
  0
VERTEX
  5
13AB
330
127F
100
AcDbEntity
  8
0
100
AcDbVertex
100
AcDb2dVertex
 10
4.942107002805323
 20
7.575382051243621
 30
0.0
 70
     8
  0
VERTEX
  5
13AC
330
127F
100
AcDbEntity
  8
0
100
AcDbVertex
100
AcDb2dVertex
 10
4.945143150979625
 20
7.561389941754462
 30
0.0
 70
     8
  0
VERTEX
  5
13AD
330
127F
100
AcDbEntity
  8
0
100
AcDbVertex
100
AcDb2dVertex
 10
4.948822744068617
 20
7.545612709369524
 30
0.0
 70
     8
  0
VERTEX
  5
13AE
330
127F
100
AcDbEntity
  8
0
100
AcDbVertex
100
AcDb2dVertex
 10
4.953149693752675
 20
7.52803764505065
 30
0.0
 70
     8
  0
VERTEX
  5
13AF
330
127F
100
AcDbEntity
  8
0
100
AcDbVertex
100
AcDb2dVertex
 10
4.958088773024065
 20
7.509031362401388
 30
0.0
 70
     8
  0
VERTEX
  5
13B0
330
127F
100
AcDbEntity
  8
0
100
AcDbVertex
100
AcDb2dVertex
 10
4.963594970203025
 20
7.489055305685713
 30
0.0
 70
     8
  0
VERTEX
  5
13B1
330
127F
100
AcDbEntity
  8
0
100
AcDbVertex
100
AcDb2dVertex
 10
4.969623273609793
 20
7.468570919167594
 30
0.0
 70
     8
  0
VERTEX
  5
13B2
330
127F
100
AcDbEntity
  8
0
100
AcDbVertex
100
AcDb2dVertex
 10
4.976128671564609
 20
7.448039647111007
 30
0.0
 70
     8
  0
VERTEX
  5
13B3
330
127F
100
AcDbEntity
  8
0
100
AcDbVertex
100
AcDb2dVertex
 10
4.983066152387708
 20
7.427922933779926
 30
0.0
 70
     8
  0
VERTEX
  5
13B4
330
127F
100
AcDbEntity
  8
0
100
AcDbVertex
100
AcDb2dVertex
 10
4.99039070439933
 20
7.408682223438322
 30
0.0
 70
     8
  0
VERTEX
  5
13B5
330
127F
100
AcDbEntity
  8
0
100
AcDbVertex
100
AcDb2dVertex
 10
4.998057315919714
 20
7.390778960350168
 30
0.0
 70
     8
  0
VERTEX
  5
13B6
330
127F
100
AcDbEntity
  8
0
100
AcDbVertex
100
AcDb2dVertex
 10
5.006022288266895
 20
7.374565418599068
 30
0.0
 70
     8
  0
VERTEX
  5
13B7
330
127F
100
AcDbEntity
  8
0
100
AcDbVertex
100
AcDb2dVertex
 10
5.014247174750115
 20
7.359957191547125
 30
0.0
 70
     8
  0
VERTEX
  5
13B8
330
127F
100
AcDbEntity
  8
0
100
AcDbVertex
100
AcDb2dVertex
 10
5.022694841676408
 20
7.346760702376076
 30
0.0
 70
     8
  0
VERTEX
  5
13B9
330
127F
100
AcDbEntity
  8
0
100
AcDbVertex
100
AcDb2dVertex
 10
5.031328155352813
 20
7.334782374267654
 30
0.0
 70
     8
  0
VERTEX
  5
13BA
330
127F
100
AcDbEntity
  8
0
100
AcDbVertex
100
AcDb2dVertex
 10
5.040109982086366
 20
7.323828630403596
 30
0.0
 70
     8
  0
VERTEX
  5
13BB
330
127F
100
AcDbEntity
  8
0
100
AcDbVertex
100
AcDb2dVertex
 10
5.049003188184106
 20
7.313705893965632
 30
0.0
 70
     8
  0
VERTEX
  5
13BC
330
127F
100
AcDbEntity
  8
0
100
AcDbVertex
100
AcDb2dVertex
 10
5.057970639953068
 20
7.3042205881355
 30
0.0
 70
     8
  0
VERTEX
  5
13BD
330
127F
100
AcDbEntity
  8
0
100
AcDbVertex
100
AcDb2dVertex
 10
5.066975203700292
 20
7.295179136094935
 30
0.0
 70
     8
  0
VERTEX
  5
13BE
330
127F
100
AcDbEntity
  8
0
100
AcDbVertex
100
AcDb2dVertex
 10
5.075976485815384
 20
7.286400670120373
 30
0.0
 70
     8
  0
VERTEX
  5
13BF
330
127F
100
AcDbEntity
  8
0
100
AcDbVertex
100
AcDb2dVertex
 10
5.08492105301823
 20
7.277755158867077
 30
0.0
 70
     8
  0
VERTEX
  5
13C0
330
127F
100
AcDbEntity
  8
0
100
AcDbVertex
100
AcDb2dVertex
 10
5.093752212111288
 20
7.269125280085013
 30
0.0
 70
     8
  0
VERTEX
  5
13C1
330
127F
100
AcDbEntity
  8
0
100
AcDbVertex
100
AcDb2dVertex
 10
5.102413269897013
 20
7.260393711524148
 30
0.0
 70
     8
  0
VERTEX
  5
13C2
330
127F
100
AcDbEntity
  8
0
100
AcDbVertex
100
AcDb2dVertex
 10
5.110847533177862
 20
7.251443130934447
 30
0.0
 70
     8
  0
VERTEX
  5
13C3
330
127F
100
AcDbEntity
  8
0
100
AcDbVertex
100
AcDb2dVertex
 10
5.11899830875629
 20
7.242156216065875
 30
0.0
 70
     8
  0
VERTEX
  5
13C4
330
127F
100
AcDbEntity
  8
0
100
AcDbVertex
100
AcDb2dVertex
 10
5.126808903434756
 20
7.2324156446684
 30
0.0
 70
     8
  0
VERTEX
  5
13C5
330
127F
100
AcDbEntity
  8
0
100
AcDbVertex
100
AcDb2dVertex
 10
5.134222624015713
 20
7.222104094491987
 30
0.0
 70
     8
  0
VERTEX
  5
13C6
330
127F
100
AcDbEntity
  8
0
100
AcDbVertex
100
AcDb2dVertex
 10
5.141254798577431
 20
7.211087303698638
 30
0.0
 70
     8
  0
VERTEX
  5
13C7
330
127F
100
AcDbEntity
  8
0
100
AcDbVertex
100
AcDb2dVertex
 10
5.14820884030141
 20
7.199163252098483
 30
0.0
 70
     8
  0
VERTEX
  5
13C8
330
127F
100
AcDbEntity
  8
0
100
AcDbVertex
100
AcDb2dVertex
 10
5.155460183644967
 20
7.186112979913688
 30
0.0
 70
     8
  0
VERTEX
  5
13C9
330
127F
100
AcDbEntity
  8
0
100
AcDbVertex
100
AcDb2dVertex
 10
5.163384263065413
 20
7.171717527366419
 30
0.0
 70
     8
  0
VERTEX
  5
13CA
330
127F
100
AcDbEntity
  8
0
100
AcDbVertex
100
AcDb2dVertex
 10
5.172356513020062
 20
7.155757934678841
 30
0.0
 70
     8
  0
VERTEX
  5
13CB
330
127F
100
AcDbEntity
  8
0
100
AcDbVertex
100
AcDb2dVertex
 10
5.182752367966228
 20
7.138015242073119
 30
0.0
 70
     8
  0
VERTEX
  5
13CC
330
127F
100
AcDbEntity
  8
0
100
AcDbVertex
100
AcDb2dVertex
 10
5.194947262361224
 20
7.118270489771419
 30
0.0
 70
     8
  0
VERTEX
  5
13CD
330
127F
100
AcDbEntity
  8
0
100
AcDbVertex
100
AcDb2dVertex
 10
5.209316630662366
 20
7.096304717995907
 30
0.0
 70
     8
  0
VERTEX
  5
13CE
330
127F
100
AcDbEntity
  8
0
100
AcDbVertex
100
AcDb2dVertex
 10
5.226146610261576
 20
7.071962831990294
 30
0.0
 70
     8
  0
VERTEX
  5
13CF
330
127F
100
AcDbEntity
  8
0
100
AcDbVertex
100
AcDb2dVertex
 10
5.245366150289232
 20
7.045345197084466
 30
0.0
 70
     8
  0
VERTEX
  5
13D0
330
127F
100
AcDbEntity
  8
0
100
AcDbVertex
100
AcDb2dVertex
 10
5.266814902810322
 20
7.016616043629862
 30
0.0
 70
     8
  0
VERTEX
  5
13D1
330
127F
100
AcDbEntity
  8
0
100
AcDbVertex
100
AcDb2dVertex
 10
5.290332519889833
 20
6.985939601977914
 30
0.0
 70
     8
  0
VERTEX
  5
13D2
330
127F
100
AcDbEntity
  8
0
100
AcDbVertex
100
AcDb2dVertex
 10
5.315758653592753
 20
6.953480102480057
 30
0.0
 70
     8
  0
VERTEX
  5
13D3
330
127F
100
AcDbEntity
  8
0
100
AcDbVertex
100
AcDb2dVertex
 10
5.342932955984073
 20
6.919401775487727
 30
0.0
 70
     8
  0
VERTEX
  5
13D4
330
127F
100
AcDbEntity
  8
0
100
AcDbVertex
100
AcDb2dVertex
 10
5.371695079128777
 20
6.883868851352356
 30
0.0
 70
     8
  0
VERTEX
  5
13D5
330
127F
100
AcDbEntity
  8
0
100
AcDbVertex
100
AcDb2dVertex
 10
5.401884675091857
 20
6.84704556042538
 30
0.0
 70
     8
  0
VERTEX
  5
13D6
330
127F
100
AcDbEntity
  8
0
100
AcDbVertex
100
AcDb2dVertex
 10
5.433313039754522
 20
6.809147945752579
 30
0.0
 70
     8
  0
VERTEX
  5
13D7
330
127F
100
AcDbEntity
  8
0
100
AcDbVertex
100
AcDb2dVertex
 10
5.465678044262877
 20
6.770599301157117
 30
0.0
 70
     8
  0
VERTEX
  5
13D8
330
127F
100
AcDbEntity
  8
0
100
AcDbVertex
100
AcDb2dVertex
 10
5.498649203579245
 20
6.731874733156505
 30
0.0
 70
     8
  0
VERTEX
  5
13D9
330
127F
100
AcDbEntity
  8
0
100
AcDbVertex
100
AcDb2dVertex
 10
5.531896032665959
 20
6.693449348268249
 30
0.0
 70
     8
  0
VERTEX
  5
13DA
330
127F
100
AcDbEntity
  8
0
100
AcDbVertex
100
AcDb2dVertex
 10
5.565088046485342
 20
6.65579825300986
 30
0.0
 70
     8
  0
VERTEX
  5
13DB
330
127F
100
AcDbEntity
  8
0
100
AcDbVertex
100
AcDb2dVertex
 10
5.597894759999721
 20
6.619396553898849
 30
0.0
 70
     8
  0
VERTEX
  5
13DC
330
127F
100
AcDbEntity
  8
0
100
AcDbVertex
100
AcDb2dVertex
 10
5.629985688171423
 20
6.584719357452723
 30
0.0
 70
     8
  0
VERTEX
  5
13DD
330
127F
100
AcDbEntity
  8
0
100
AcDbVertex
100
AcDb2dVertex
 10
5.661030345962775
 20
6.552241770188995
 30
0.0
 70
     8
  0
VERTEX
  5
13DE
330
127F
100
AcDbEntity
  8
0
100
AcDbVertex
100
AcDb2dVertex
 10
5.69073899200254
 20
6.522341137717549
 30
0.0
 70
     8
  0
VERTEX
  5
13DF
330
127F
100
AcDbEntity
  8
0
100
AcDbVertex
100
AcDb2dVertex
 10
5.718984859585226
 20
6.495003762017799
 30
0.0
 70
     8
  0
VERTEX
  5
13E0
330
127F
100
AcDbEntity
  8
0
100
AcDbVertex
100
AcDb2dVertex
 10
5.745681925671776
 20
6.470118184161532
 30
0.0
 70
     8
  0
VERTEX
  5
13E1
330
127F
100
AcDbEntity
  8
0
100
AcDbVertex
100
AcDb2dVertex
 10
5.770744167223135
 20
6.447572945220538
 30
0.0
 70
     8
  0
VERTEX
  5
13E2
330
127F
100
AcDbEntity
  8
0
100
AcDbVertex
100
AcDb2dVertex
 10
5.794085561200245
 20
6.427256586266608
 30
0.0
 70
     8
  0
VERTEX
  5
13E3
330
127F
100
AcDbEntity
  8
0
100
AcDbVertex
100
AcDb2dVertex
 10
5.815620084564052
 20
6.409057648371529
 30
0.0
 70
     8
  0
VERTEX
  5
13E4
330
127F
100
AcDbEntity
  8
0
100
AcDbVertex
100
AcDb2dVertex
 10
5.835261714275499
 20
6.39286467260709
 30
0.0
 70
     8
  0
VERTEX
  5
13E5
330
127F
100
AcDbEntity
  8
0
100
AcDbVertex
100
AcDb2dVertex
 10
5.852924427295529
 20
6.378566200045083
 30
0.0
 70
     8
  0
VERTEX
  5
13E6
330
127F
100
AcDbEntity
  8
0
100
AcDbVertex
100
AcDb2dVertex
 10
5.868565544941579
 20
6.366026334407306
 30
0.0
 70
     8
  0
VERTEX
  5
13E7
330
127F
100
AcDbEntity
  8
0
100
AcDbVertex
100
AcDb2dVertex
 10
5.88231576595705
 20
6.355011430015601
 30
0.0
 70
     8
  0
VERTEX
  5
13E8
330
127F
100
AcDbEntity
  8
0
100
AcDbVertex
100
AcDb2dVertex
 10
5.894349133441835
 20
6.345263403841817
 30
0.0
 70
     8
  0
VERTEX
  5
13E9
330
127F
100
AcDbEntity
  8
0
100
AcDbVertex
100
AcDb2dVertex
 10
5.904839690495827
 20
6.336524172857807
 30
0.0
 70
     8
  0
VERTEX
  5
13EA
330
127F
100
AcDbEntity
  8
0
100
AcDbVertex
100
AcDb2dVertex
 10
5.913961480218919
 20
6.32853565403542
 30
0.0
 70
     8
  0
VERTEX
  5
13EB
330
127F
100
AcDbEntity
  8
0
100
AcDbVertex
100
AcDb2dVertex
 10
5.921888545711003
 20
6.321039764346506
 30
0.0
 70
     8
  0
VERTEX
  5
13EC
330
127F
100
AcDbEntity
  8
0
100
AcDbVertex
100
AcDb2dVertex
 10
5.928794930071973
 20
6.313778420762919
 30
0.0
 70
     8
  0
VERTEX
  5
13ED
330
127F
100
AcDbEntity
  8
0
100
AcDbVertex
100
AcDb2dVertex
 10
5.934854676401723
 20
6.306493540256507
 30
0.0
 70
     8
  0
VERTEX
  5
13EE
330
127F
100
AcDbEntity
  8
0
100
AcDbVertex
100
AcDb2dVertex
 10
5.940224551699547
 20
6.298977549928903
 30
0.0
 70
     8
  0
VERTEX
  5
13EF
330
127F
100
AcDbEntity
  8
0
100
AcDbVertex
100
AcDb2dVertex
 10
5.944992218562361
 20
6.291224917400867
 30
0.0
 70
     8
  0
VERTEX
  5
13F0
330
127F
100
AcDbEntity
  8
0
100
AcDbVertex
100
AcDb2dVertex
 10
5.949228063486483
 20
6.283280620422938
 30
0.0
 70
     8
  0
VERTEX
  5
13F1
330
127F
100
AcDbEntity
  8
0
100
AcDbVertex
100
AcDb2dVertex
 10
5.953002472968227
 20
6.275189636745657
 30
0.0
 70
     8
  0
VERTEX
  5
13F2
330
127F
100
AcDbEntity
  8
0
100
AcDbVertex
100
AcDb2dVertex
 10
5.956385833503913
 20
6.266996944119565
 30
0.0
 70
     8
  0
VERTEX
  5
13F3
330
127F
100
AcDbEntity
  8
0
100
AcDbVertex
100
AcDb2dVertex
 10
5.95944853158986
 20
6.258747520295199
 30
0.0
 70
     8
  0
VERTEX
  5
13F4
330
127F
100
AcDbEntity
  8
0
100
AcDbVertex
100
AcDb2dVertex
 10
5.962260953722384
 20
6.250486343023103
 30
0.0
 70
     8
  0
VERTEX
  5
13F5
330
127F
100
AcDbEntity
  8
0
100
AcDbVertex
100
AcDb2dVertex
 10
5.964893486397801
 20
6.242258390053816
 30
0.0
 70
     8
  0
VERTEX
  5
13F6
330
127F
100
AcDbEntity
  8
0
100
AcDbVertex
100
AcDb2dVertex
 10
5.967418797084822
 20
6.234110920506109
 30
0.0
 70
     8
  0
VERTEX
  5
13F7
330
127F
100
AcDbEntity
  8
0
100
AcDbVertex
100
AcDb2dVertex
 10
5.969918677141718
 20
6.226100318971682
 30
0.0
 70
     8
  0
VERTEX
  5
13F8
330
127F
100
AcDbEntity
  8
0
100
AcDbVertex
100
AcDb2dVertex
 10
5.972477198899152
 20
6.218285251410467
 30
0.0
 70
     8
  0
VERTEX
  5
13F9
330
127F
100
AcDbEntity
  8
0
100
AcDbVertex
100
AcDb2dVertex
 10
5.975178434687785
 20
6.210724383782392
 30
0.0
 70
     8
  0
VERTEX
  5
13FA
330
127F
100
AcDbEntity
  8
0
100
AcDbVertex
100
AcDb2dVertex
 10
5.978106456838282
 20
6.203476382047392
 30
0.0
 70
     8
  0
VERTEX
  5
13FB
330
127F
100
AcDbEntity
  8
0
100
AcDbVertex
100
AcDb2dVertex
 10
5.981345337681304
 20
6.196599912165397
 30
0.0
 70
     8
  0
VERTEX
  5
13FC
330
127F
100
AcDbEntity
  8
0
100
AcDbVertex
100
AcDb2dVertex
 10
5.984979149547516
 20
6.190153640096335
 30
0.0
 70
     8
  0
VERTEX
  5
13FD
330
127F
100
AcDbEntity
  8
0
100
AcDbVertex
100
AcDb2dVertex
 10
5.989091964767579
 20
6.18419623180014
 30
0.0
 70
     8
  0
VERTEX
  5
13FE
330
127F
100
AcDbEntity
  8
0
100
AcDbVertex
100
AcDb2dVertex
 10
5.993740809941488
 20
6.178758325083288
 30
0.0
 70
     8
  0
VERTEX
  5
13FF
330
127F
100
AcDbEntity
  8
0
100
AcDbVertex
100
AcDb2dVertex
 10
5.998874528746559
 20
6.173758445138446
 30
0.0
 70
     8
  0
VERTEX
  5
1400
330
127F
100
AcDbEntity
  8
0
100
AcDbVertex
100
AcDb2dVertex
 10
6.004414919129449
 20
6.169087089004825
 30
0.0
 70
     8
  0
VERTEX
  5
1401
330
127F
100
AcDbEntity
  8
0
100
AcDbVertex
100
AcDb2dVertex
 10
6.010283779036804
 20
6.164634753721636
 30
0.0
 70
     8
  0
VERTEX
  5
1402
330
127F
100
AcDbEntity
  8
0
100
AcDbVertex
100
AcDb2dVertex
 10
6.016402906415277
 20
6.160291936328093
 30
0.0
 70
     8
  0
VERTEX
  5
1403
330
127F
100
AcDbEntity
  8
0
100
AcDbVertex
100
AcDb2dVertex
 10
6.022694099211519
 20
6.155949133863408
 30
0.0
 70
     8
  0
VERTEX
  5
1404
330
127F
100
AcDbEntity
  8
0
100
AcDbVertex
100
AcDb2dVertex
 10
6.02907915537218
 20
6.151496843366793
 30
0.0
 70
     8
  0
VERTEX
  5
1405
330
127F
100
AcDbEntity
  8
0
100
AcDbVertex
100
AcDb2dVertex
 10
6.035479872843911
 20
6.146825561877459
 30
0.0
 70
     8
  0
VERTEX
  5
1406
330
127F
100
AcDbEntity
  8
0
100
AcDbVertex
100
AcDb2dVertex
 10
6.041836950161586
 20
6.141831979822519
 30
0.0
 70
     8
  0
VERTEX
  5
1407
330
127F
100
AcDbEntity
  8
0
100
AcDbVertex
100
AcDb2dVertex
 10
6.048166688212979
 20
6.136437561180686
 30
0.0
 70
     8
  0
VERTEX
  5
1408
330
127F
100
AcDbEntity
  8
0
100
AcDbVertex
100
AcDb2dVertex
 10
6.054504288474083
 20
6.130569963318575
 30
0.0
 70
     8
  0
VERTEX
  5
1409
330
127F
100
AcDbEntity
  8
0
100
AcDbVertex
100
AcDb2dVertex
 10
6.060884952420893
 20
6.124156843602798
 30
0.0
 70
     8
  0
VERTEX
  5
140A
330
127F
100
AcDbEntity
  8
0
100
AcDbVertex
100
AcDb2dVertex
 10
6.067343881529403
 20
6.11712585939997
 30
0.0
 70
     8
  0
VERTEX
  5
140B
330
127F
100
AcDbEntity
  8
0
100
AcDbVertex
100
AcDb2dVertex
 10
6.073916277275611
 20
6.109404668076703
 30
0.0
 70
     8
  0
VERTEX
  5
140C
330
127F
100
AcDbEntity
  8
0
100
AcDbVertex
100
AcDb2dVertex
 10
6.08063734113551
 20
6.100920926999613
 30
0.0
 70
     8
  0
VERTEX
  5
140D
330
127F
100
AcDbEntity
  8
0
100
AcDbVertex
100
AcDb2dVertex
 10
6.087542274585094
 20
6.091602293535311
 30
0.0
 70
     8
  0
VERTEX
  5
140E
330
127F
100
AcDbEntity
  8
0
100
AcDbVertex
100
AcDb2dVertex
 10
6.094644115088687
 20
6.081423350059875
 30
0.0
 70
     8
  0
VERTEX
  5
140F
330
127F
100
AcDbEntity
  8
0
100
AcDbVertex
100
AcDb2dVertex
 10
6.101867244063912
 20
6.070546378987232
 30
0.0
 70
     8
  0
VERTEX
  5
1410
330
127F
100
AcDbEntity
  8
0
100
AcDbVertex
100
AcDb2dVertex
 10
6.109113878916723
 20
6.059180587740774
 30
0.0
 70
     8
  0
VERTEX
  5
1411
330
127F
100
AcDbEntity
  8
0
100
AcDbVertex
100
AcDb2dVertex
 10
6.116286237053075
 20
6.047535183743889
 30
0.0
 70
     8
  0
VERTEX
  5
1412
330
127F
100
AcDbEntity
  8
0
100
AcDbVertex
100
AcDb2dVertex
 10
6.123286535878916
 20
6.035819374419969
 30
0.0
 70
     8
  0
VERTEX
  5
1413
330
127F
100
AcDbEntity
  8
0
100
AcDbVertex
100
AcDb2dVertex
 10
6.130016992800202
 20
6.024242367192404
 30
0.0
 70
     8
  0
VERTEX
  5
1414
330
127F
100
AcDbEntity
  8
0
100
AcDbVertex
100
AcDb2dVertex
 10
6.136379825222885
 20
6.013013369484583
 30
0.0
 70
     8
  0
VERTEX
  5
1415
330
127F
100
AcDbEntity
  8
0
100
AcDbVertex
100
AcDb2dVertex
 10
6.142277250552915
 20
6.0023415887199
 30
0.0
 70
     8
  0
VERTEX
  5
1416
330
127F
100
AcDbEntity
  8
0
100
AcDbVertex
100
AcDb2dVertex
 10
6.147657439838199
 20
5.992386050561575
 30
0.0
 70
     8
  0
VERTEX
  5
1417
330
127F
100
AcDbEntity
  8
0
100
AcDbVertex
100
AcDb2dVertex
 10
6.152652378694433
 20
5.983105053632175
 30
0.0
 70
     8
  0
VERTEX
  5
1418
330
127F
100
AcDbEntity
  8
0
100
AcDbVertex
100
AcDb2dVertex
 10
6.157440006379271
 20
5.974406714794093
 30
0.0
 70
     8
  0
VERTEX
  5
1419
330
127F
100
AcDbEntity
  8
0
100
AcDbVertex
100
AcDb2dVertex
 10
6.162198262150361
 20
5.966199150909728
 30
0.0
 70
     8
  0
VERTEX
  5
141A
330
127F
100
AcDbEntity
  8
0
100
AcDbVertex
100
AcDb2dVertex
 10
6.167105085265354
 20
5.958390478841475
 30
0.0
 70
     8
  0
VERTEX
  5
141B
330
127F
100
AcDbEntity
  8
0
100
AcDbVertex
100
AcDb2dVertex
 10
6.1723384149819
 20
5.950888815451733
 30
0.0
 70
     8
  0
VERTEX
  5
141C
330
127F
100
AcDbEntity
  8
0
100
AcDbVertex
100
AcDb2dVertex
 10
6.178076190557651
 20
5.943602277602897
 30
0.0
 70
     8
  0
VERTEX
  5
141D
330
127F
100
AcDbEntity
  8
0
100
AcDbVertex
100
AcDb2dVertex
 10
6.184496351250256
 20
5.936438982157363
 30
0.0
 70
     8
  0
VERTEX
  5
141E
330
127F
100
AcDbEntity
  8
0
100
AcDbVertex
100
AcDb2dVertex
 10
6.191725345772277
 20
5.92932170617647
 30
0.0
 70
     8
  0
VERTEX
  5
141F
330
127F
100
AcDbEntity
  8
0
100
AcDbVertex
100
AcDb2dVertex
 10
6.199683660655933
 20
5.922231867517311
 30
0.0
 70
     8
  0
VERTEX
  5
1420
330
127F
100
AcDbEntity
  8
0
100
AcDbVertex
100
AcDb2dVertex
 10
6.208240291888348
 20
5.915165544235919
 30
0.0
 70
     8
  0
VERTEX
  5
1421
330
127F
100
AcDbEntity
  8
0
100
AcDbVertex
100
AcDb2dVertex
 10
6.217264235456651
 20
5.908118814388331
 30
0.0
 70
     8
  0
VERTEX
  5
1422
330
127F
100
AcDbEntity
  8
0
100
AcDbVertex
100
AcDb2dVertex
 10
6.226624487347968
 20
5.901087756030578
 30
0.0
 70
     8
  0
VERTEX
  5
1423
330
127F
100
AcDbEntity
  8
0
100
AcDbVertex
100
AcDb2dVertex
 10
6.236190043549428
 20
5.894068447218698
 30
0.0
 70
     8
  0
VERTEX
  5
1424
330
127F
100
AcDbEntity
  8
0
100
AcDbVertex
100
AcDb2dVertex
 10
6.245829900048157
 20
5.887056966008721
 30
0.0
 70
     8
  0
VERTEX
  5
1425
330
127F
100
AcDbEntity
  8
0
100
AcDbVertex
100
AcDb2dVertex
 10
6.255413052831287
 20
5.880049390456686
 30
0.0
 70
     8
  0
VERTEX
  5
1426
330
127F
100
AcDbEntity
  8
0
100
AcDbVertex
100
AcDb2dVertex
 10
6.264844347166473
 20
5.873015079448012
 30
0.0
 70
     8
  0
VERTEX
  5
1427
330
127F
100
AcDbEntity
  8
0
100
AcDbVertex
100
AcDb2dVertex
 10
6.274172025443502
 20
5.865816515185679
 30
0.0
 70
     8
  0
VERTEX
  5
1428
330
127F
100
AcDbEntity
  8
0
100
AcDbVertex
100
AcDb2dVertex
 10
6.283480179332694
 20
5.858289460702054
 30
0.0
 70
     8
  0
VERTEX
  5
1429
330
127F
100
AcDbEntity
  8
0
100
AcDbVertex
100
AcDb2dVertex
 10
6.292852900504369
 20
5.850269679029505
 30
0.0
 70
     8
  0
VERTEX
  5
142A
330
127F
100
AcDbEntity
  8
0
100
AcDbVertex
100
AcDb2dVertex
 10
6.302374280628846
 20
5.841592933200398
 30
0.0
 70
     8
  0
VERTEX
  5
142B
330
127F
100
AcDbEntity
  8
0
100
AcDbVertex
100
AcDb2dVertex
 10
6.312128411376442
 20
5.832094986247101
 30
0.0
 70
     8
  0
VERTEX
  5
142C
330
127F
100
AcDbEntity
  8
0
100
AcDbVertex
100
AcDb2dVertex
 10
6.322199384417478
 20
5.821611601201981
 30
0.0
 70
     8
  0
VERTEX
  5
142D
330
127F
100
AcDbEntity
  8
0
100
AcDbVertex
100
AcDb2dVertex
 10
6.332671291422272
 20
5.809978541097405
 30
0.0
 70
     8
  0
VERTEX
  5
142E
330
127F
100
AcDbEntity
  8
0
100
AcDbVertex
100
AcDb2dVertex
 10
6.343606874272489
 20
5.797084034030932
 30
0.0
 70
     8
  0
VERTEX
  5
142F
330
127F
100
AcDbEntity
  8
0
100
AcDbVertex
100
AcDb2dVertex
 10
6.35498347569517
 20
5.78302616836088
 30
0.0
 70
     8
  0
VERTEX
  5
1430
330
127F
100
AcDbEntity
  8
0
100
AcDbVertex
100
AcDb2dVertex
 10
6.366757088628707
 20
5.767955497510761
 30
0.0
 70
     8
  0
VERTEX
  5
1431
330
127F
100
AcDbEntity
  8
0
100
AcDbVertex
100
AcDb2dVertex
 10
6.378883706011487
 20
5.752022574904083
 30
0.0
 70
     8
  0
VERTEX
  5
1432
330
127F
100
AcDbEntity
  8
0
100
AcDbVertex
100
AcDb2dVertex
 10
6.391319320781897
 20
5.735377953964356
 30
0.0
 70
     8
  0
VERTEX
  5
1433
330
127F
100
AcDbEntity
  8
0
100
AcDbVertex
100
AcDb2dVertex
 10
6.404019925878328
 20
5.718172188115092
 30
0.0
 70
     8
  0
VERTEX
  5
1434
330
127F
100
AcDbEntity
  8
0
100
AcDbVertex
100
AcDb2dVertex
 10
6.416941514239166
 20
5.700555830779798
 30
0.0
 70
     8
  0
VERTEX
  5
1435
330
127F
100
AcDbEntity
  8
0
100
AcDbVertex
100
AcDb2dVertex
 10
6.430040078802802
 20
5.682679435381988
 30
0.0
 70
     8
  0
VERTEX
  5
1436
330
127F
100
AcDbEntity
  8
0
100
AcDbVertex
100
AcDb2dVertex
 10
6.443252548499845
 20
5.664754818149842
 30
0.0
 70
     8
  0
VERTEX
  5
1437
330
127F
100
AcDbEntity
  8
0
100
AcDbVertex
100
AcDb2dVertex
 10
6.456439596229795
 20
5.647238846530247
 30
0.0
 70
     8
  0
VERTEX
  5
1438
330
127F
100
AcDbEntity
  8
0
100
AcDbVertex
100
AcDb2dVertex
 10
6.469442830884375
 20
5.630649650774757
 30
0.0
 70
     8
  0
VERTEX
  5
1439
330
127F
100
AcDbEntity
  8
0
100
AcDbVertex
100
AcDb2dVertex
 10
6.482103861355308
 20
5.61550536113493
 30
0.0
 70
     8
  0
VERTEX
  5
143A
330
127F
100
AcDbEntity
  8
0
100
AcDbVertex
100
AcDb2dVertex
 10
6.494264296534317
 20
5.602324107862324
 30
0.0
 70
     8
  0
VERTEX
  5
143B
330
127F
100
AcDbEntity
  8
0
100
AcDbVertex
100
AcDb2dVertex
 10
6.505765745313124
 20
5.591624021208497
 30
0.0
 70
     8
  0
VERTEX
  5
143C
330
127F
100
AcDbEntity
  8
0
100
AcDbVertex
100
AcDb2dVertex
 10
6.516449816583454
 20
5.583923231425005
 30
0.0
 70
     8
  0
VERTEX
  5
143D
330
127F
100
AcDbEntity
  8
0
100
AcDbVertex
100
AcDb2dVertex
 10
6.526158119237027
 20
5.579739868763407
 30
0.0
 70
     8
  0
VERTEX
  5
1281
330
127F
100
AcDbEntity
  8
0
100
AcDbVertex
100
AcDb2dVertex
 10
6.342352484979073
 20
7.689058895726637
 30
0.0
 70
    16
  0
VERTEX
  5
1282
330
127F
100
AcDbEntity
  8
0
100
AcDbVertex
100
AcDb2dVertex
 10
6.279279474435703
 20
7.726094415374133
 30
0.0
 70
    16
  0
VERTEX
  5
1283
330
127F
100
AcDbEntity
  8
0
100
AcDbVertex
100
AcDb2dVertex
 10
6.247241068909907
 20
7.760129303989055
 30
0.0
 70
    16
  0
VERTEX
  5
1284
330
127F
100
AcDbEntity
  8
0
100
AcDbVertex
100
AcDb2dVertex
 10
6.213199492166837
 20
7.805176205623546
 30
0.0
 70
    16
  0
VERTEX
  5
1285
330
127F
100
AcDbEntity
  8
0
100
AcDbVertex
100
AcDb2dVertex
 10
6.150127958223187
 20
7.825192891222668
 30
0.0
 70
    16
  0
VERTEX
  5
1286
330
127F
100
AcDbEntity
  8
0
100
AcDbVertex
100
AcDb2dVertex
 10
6.09506485306709
 20
7.850215811118239
 30
0.0
 70
    16
  0
VERTEX
  5
1287
330
127F
100
AcDbEntity
  8
0
100
AcDbVertex
100
AcDb2dVertex
 10
6.053014586960045
 20
7.893259802111876
 30
0.0
 70
    16
  0
VERTEX
  5
1288
330
127F
100
AcDbEntity
  8
0
100
AcDbVertex
100
AcDb2dVertex
 10
5.995948831739516
 20
7.923288087715825
 30
0.0
 70
    16
  0
VERTEX
  5
1289
330
127F
100
AcDbEntity
  8
0
100
AcDbVertex
100
AcDb2dVertex
 10
5.900841411175477
 20
7.94830753325911
 30
0.0
 70
    16
  0
VERTEX
  5
128A
330
127F
100
AcDbEntity
  8
0
100
AcDbVertex
100
AcDb2dVertex
 10
5.732648250898748
 20
8.029382679680593
 30
0.0
 70
    16
  0
VERTEX
  5
128B
330
127F
100
AcDbEntity
  8
0
100
AcDbVertex
100
AcDb2dVertex
 10
5.628525126686653
 20
8.120474463917716
 30
0.0
 70
    16
  0
VERTEX
  5
128C
330
127F
100
AcDbEntity
  8
0
100
AcDbVertex
100
AcDb2dVertex
 10
5.559445381973283
 20
8.158510570297569
 30
0.0
 70
    16
  0
VERTEX
  5
128D
330
127F
100
AcDbEntity
  8
0
100
AcDbVertex
100
AcDb2dVertex
 10
5.46934436942331
 20
8.173519371282906
 30
0.0
 70
    16
  0
VERTEX
  5
128E
330
127F
100
AcDbEntity
  8
0
100
AcDbVertex
100
AcDb2dVertex
 10
5.411276811447125
 20
8.211556433109635
 30
0.0
 70
    16
  0
VERTEX
  5
128F
330
127F
100
AcDbEntity
  8
0
100
AcDbVertex
100
AcDb2dVertex
 10
5.26610826394189
 20
8.302644656135666
 30
0.0
 70
    16
  0
VERTEX
  5
1290
330
127F
100
AcDbEntity
  8
0
100
AcDbVertex
100
AcDb2dVertex
 10
5.135961546243061
 20
8.333667708931893
 30
0.0
 70
    16
  0
VERTEX
  5
1291
330
127F
100
AcDbEntity
  8
0
100
AcDbVertex
100
AcDb2dVertex
 10
5.027839636312635
 20
8.359687133195886
 30
0.0
 70
    16
  0
VERTEX
  5
1292
330
127F
100
AcDbEntity
  8
0
100
AcDbVertex
100
AcDb2dVertex
 10
4.953759042548859
 20
8.343662979480982
 30
0.0
 70
    16
  0
VERTEX
  5
1293
330
127F
100
AcDbEntity
  8
0
100
AcDbVertex
100
AcDb2dVertex
 10
4.92973679624445
 20
8.293605500609685
 30
0.0
 70
    16
  0
VERTEX
  5
1294
330
127F
100
AcDbEntity
  8
0
100
AcDbVertex
100
AcDb2dVertex
 10
4.929743397513792
 20
8.217521301334596
 30
0.0
 70
    16
  0
VERTEX
  5
1295
330
127F
100
AcDbEntity
  8
0
100
AcDbVertex
100
AcDb2dVertex
 10
4.976802764257922
 20
8.133432321341855
 30
0.0
 70
    16
  0
VERTEX
  5
1296
330
127F
100
AcDbEntity
  8
0
100
AcDbVertex
100
AcDb2dVertex
 10
5.030871970809812
 20
8.025317360116
 30
0.0
 70
    16
  0
VERTEX
  5
1297
330
127F
100
AcDbEntity
  8
0
100
AcDbVertex
100
AcDb2dVertex
 10
5.053905530038441
 20
7.932216324545102
 30
0.0
 70
    16
  0
VERTEX
  5
1298
330
127F
100
AcDbEntity
  8
0
100
AcDbVertex
100
AcDb2dVertex
 10
5.040897207647359
 20
7.862137643416713
 30
0.0
 70
    16
  0
VERTEX
  5
1299
330
127F
100
AcDbEntity
  8
0
100
AcDbVertex
100
AcDb2dVertex
 10
5.023880805645584
 20
7.834105146031432
 30
0.0
 70
    16
  0
VERTEX
  5
129A
330
127F
100
AcDbEntity
  8
0
100
AcDbVertex
100
AcDb2dVertex
 10
5.001860080241117
 20
7.792056703959338
 30
0.0
 70
    16
  0
VERTEX
  5
129B
330
127F
100
AcDbEntity
  8
0
100
AcDbVertex
100
AcDb2dVertex
 10
5.004867486260647
 20
7.745004893931428
 30
0.0
 70
    16
  0
VERTEX
  5
129C
330
127F
100
AcDbEntity
  8
0
100
AcDbVertex
100
AcDb2dVertex
 10
5.018887339593783
 20
7.694950715694803
 30
0.0
 70
    16
  0
VERTEX
  5
129D
330
127F
100
AcDbEntity
  8
0
100
AcDbVertex
100
AcDb2dVertex
 10
4.983851603670084
 20
7.659908899654605
 30
0.0
 70
    16
  0
VERTEX
  5
129E
330
127F
100
AcDbEntity
  8
0
100
AcDbVertex
100
AcDb2dVertex
 10
4.954820691022627
 20
7.645890870356419
 30
0.0
 70
    16
  0
VERTEX
  5
129F
330
127F
100
AcDbEntity
  8
0
100
AcDbVertex
100
AcDb2dVertex
 10
4.930794709789512
 20
7.638881030548657
 30
0.0
 70
    16
  0
VERTEX
  5
12A0
330
127F
100
AcDbEntity
  8
0
100
AcDbVertex
100
AcDb2dVertex
 10
4.941813237219617
 20
7.565801110376044
 30
0.0
 70
    16
  0
VERTEX
  5
12A1
330
127F
100
AcDbEntity
  8
0
100
AcDbVertex
100
AcDb2dVertex
 10
4.994888805743721
 20
7.371590784164308
 30
0.0
 70
    16
  0
VERTEX
  5
12A2
330
127F
100
AcDbEntity
  8
0
100
AcDbVertex
100
AcDb2dVertex
 10
5.066975435323778
 20
7.292509515067738
 30
0.0
 70
    16
  0
VERTEX
  5
12A3
330
127F
100
AcDbEntity
  8
0
100
AcDbVertex
100
AcDb2dVertex
 10
5.139060675162921
 20
7.229445972134345
 30
0.0
 70
    16
  0
VERTEX
  5
12A4
330
127F
100
AcDbEntity
  8
0
100
AcDbVertex
100
AcDb2dVertex
 10
5.182117608118821
 20
7.122331163346809
 30
0.0
 70
    16
  0
VERTEX
  5
12A5
330
127F
100
AcDbEntity
  8
0
100
AcDbVertex
100
AcDb2dVertex
 10
5.388368676335992
 20
6.859057682453867
 30
0.0
 70
    16
  0
VERTEX
  5
12A6
330
127F
100
AcDbEntity
  8
0
100
AcDbVertex
100
AcDb2dVertex
 10
5.675715737088356
 20
6.523711469390007
 30
0.0
 70
    16
  0
VERTEX
  5
12A7
330
127F
100
AcDbEntity
  8
0
100
AcDbVertex
100
AcDb2dVertex
 10
5.874950451087233
 20
6.359547061120068
 30
0.0
 70
    16
  0
VERTEX
  5
12A8
330
127F
100
AcDbEntity
  8
0
100
AcDbVertex
100
AcDb2dVertex
 10
5.94202902233589
 20
6.309497486400221
 30
0.0
 70
    16
  0
VERTEX
  5
12A9
330
127F
100
AcDbEntity
  8
0
100
AcDbVertex
100
AcDb2dVertex
 10
5.966061517979539
 20
6.241424234818092
 30
0.0
 70
    16
  0
VERTEX
  5
12AA
330
127F
100
AcDbEntity
  8
0
100
AcDbVertex
100
AcDb2dVertex
 10
5.983085824132763
 20
6.178355914650306
 30
0.0
 70
    16
  0
VERTEX
  5
12AB
330
127F
100
AcDbEntity
  8
0
100
AcDbVertex
100
AcDb2dVertex
 10
6.036146974094884
 20
6.150329497381526
 30
0.0
 70
    16
  0
VERTEX
  5
12AC
330
127F
100
AcDbEntity
  8
0
100
AcDbVertex
100
AcDb2dVertex
 10
6.085205516551162
 20
6.101279467088347
 30
0.0
 70
    16
  0
VERTEX
  5
12AD
330
127F
100
AcDbEntity
  8
0
100
AcDbVertex
100
AcDb2dVertex
 10
6.148284607211031
 20
5.994166395476954
 30
0.0
 70
    16
  0
VERTEX
  5
12AE
330
127F
100
AcDbEntity
  8
0
100
AcDbVertex
100
AcDb2dVertex
 10
6.175319557922205
 20
5.936104483323232
 30
0.0
 70
    16
  0
VERTEX
  5
12AF
330
127F
100
AcDbEntity
  8
0
100
AcDbVertex
100
AcDb2dVertex
 10
6.257415268601683
 20
5.8800495641743
 30
0.0
 70
    16
  0
VERTEX
  5
12B0
330
127F
100
AcDbEntity
  8
0
100
AcDbVertex
100
AcDb2dVertex
 10
6.32749768465878
 20
5.823993602719681
 30
0.0
 70
    16
  0
VERTEX
  5
12B1
330
127F
100
AcDbEntity
  8
0
100
AcDbVertex
100
AcDb2dVertex
 10
6.428621741296828
 20
5.683847271531409
 30
0.0
 70
    16
  0
VERTEX
  5
12B2
330
127F
100
AcDbEntity
  8
0
100
AcDbVertex
100
AcDb2dVertex
 10
6.501711129079419
 20
5.585745039474873
 30
0.0
 70
    16
  0
VERTEX
  5
12B3
330
127F
100
AcDbEntity
  8
0
100
AcDbVertex
100
AcDb2dVertex
 10
6.526158119237028
 20
5.579739868763405
 30
0.0
 70
    16
  0
SEQEND
  5
12B4
330
127F
100
AcDbEntity
  8
0
  0
LWPOLYLINE
  5
143E
330
19
100
AcDbEntity
  8
0
100
AcDbPolyline
 90
       26
 70
     0
 43
0.0
 10
6.290025409388593
 20
7.48027245115709
 10
6.21422465994161
 20
7.527869408282363
 10
6.098091802318225
 20
7.577914726920661
 10
5.96894358674038
 20
7.638971103131651
 10
5.87483822950842
 20
7.652978448796561
 10
5.806765672796748
 20
7.620937090071323
 10
5.714667916581226
 20
7.572875920571538
 10
5.649596077760936
 20
7.570868058978677
 10
5.600543702279966
 20
7.54883942942276
 10
5.583529645465982
 20
7.493777019137121
 10
5.604563247253201
 20
7.374647004833446
 10
5.562519669274304
 20
7.340605688666797
 10
5.560522838749949
 20
7.278536826066874
 10
5.528488341870476
 20
7.267521859847863
 10
5.5164763501302
 20
7.252504199264199
 10
5.547514342641255
 20
7.210460360708882
 10
5.702708561278072
 20
6.95118688155757
 10
5.922975226746829
 20
6.686913508802728
 10
6.030104627813963
 20
6.561784317045276
 10
6.091176551751429
 20
6.511734221172584
 10
6.121214999835813
 20
6.451670353824887
 10
6.139240153297814
 20
6.391605444171503
 10
6.169276082476791
 20
6.360573705494564
 10
6.246369728082561
 20
6.264474036643654
 10
6.403556608020993
 20
6.115322598581794
 10
6.526158119237027
 20
5.989193514962443
  0
LWPOLYLINE
  5
143F
330
19
100
AcDbEntity
  8
0
100
AcDbPolyline
 90
       19
 70
     0
 43
0.0
 10
6.526158119237029
 20
7.005318452732979
 10
6.499583315473911
 20
7.033346867754324
 10
6.454532592051907
 20
7.043354037959989
 10
6.391462621566785
 20
7.045350781625536
 10
6.334402425309913
 20
7.01130816257678
 10
6.266332387503647
 20
6.950234675180785
 10
6.232297325171111
 20
6.920198485425387
 10
6.215279794004844
 20
6.905180390547688
 10
6.221291479126849
 20
6.847116654359017
 10
6.240318174768084
 20
6.782046292138448
 10
6.253340742003536
 20
6.68794328009428
 10
6.241331095451052
 20
6.645895706610256
 10
6.2233126301172
 20
6.628875309103353
 10
6.207295251389253
 20
6.624869487821645
 10
6.300409750075256
 20
6.492731324844502
 10
6.384509934854116
 20
6.410647774398022
 10
6.443578166421465
 20
6.377616338856092
 10
6.498642140165633
 20
6.342582340108536
 10
6.526158119237028
 20
6.314554098804805
  0
LWPOLYLINE
  5
1440
330
19
100
AcDbEntity
  8
0
100
AcDbPolyline
 90
       10
 70
     0
 43
0.0
 10
7.228537342152944
 20
7.039415705971421
 10
7.151300032080179
 20
7.085461022868089
 10
7.070206905885621
 20
7.124497194827455
 10
7.004130658545463
 20
7.16053134601333
 10
6.951070724606641
 20
7.174542252889332
 10
6.891003296047851
 20
7.185549228098088
 10
6.813915035688122
 20
7.219580208066689
 10
6.726818997111079
 20
7.215568219809674
 10
6.606686919475328
 20
7.205546717900833
 10
6.526158119237028
 20
7.185517958927522
  0
LWPOLYLINE
  5
1441
330
19
100
AcDbEntity
  8
0
100
AcDbPolyline
 90
       13
 70
     0
 43
0.0
 10
6.526158119237028
 20
5.817005043319668
 10
6.561762662476505
 20
5.757940807257448
 10
6.59680604197523
 20
5.704885129400176
 10
6.622837800189835
 20
5.670849719632411
 10
6.725969978997165
 20
5.462628225968253
 10
6.782041140743031
 20
5.357516762115607
 10
6.821087127747602
 20
5.325484697282732
 10
6.875149733030151
 20
5.293453935331965
 10
7.027333418730382
 20
5.117272150075708
 10
7.15548799628044
 20
4.970120408878839
 10
7.314675181095511
 20
4.842993518008959
 10
7.479869186939387
 20
4.713864932521527
 10
7.572776299062184
 20
4.650802518752625
  0
LWPOLYLINE
  5
1442
330
19
100
AcDbEntity
  8
0
100
AcDbPolyline
 90
       24
 70
     0
 43
0.0
 10
7.228537342152944
 20
6.73107430361266
 10
7.067231203330693
 20
6.806144626757902
 10
6.961114114934878
 20
6.802130988183553
 10
6.87101475270224
 20
6.798118739350116
 10
6.842985903386859
 20
6.773088610173554
 10
6.820964222535513
 20
6.742052354838643
 10
6.731869963693201
 20
6.691989230144881
 10
6.660797470819412
 20
6.620904403320481
 10
6.64478443503182
 20
6.566843187778846
 10
6.655801659579818
 20
6.50877988588421
 10
6.665817255089774
 20
6.456723144441958
 10
6.652806761228514
 20
6.411672160443533
 10
6.641798743714072
 20
6.363618026507124
 10
6.652813362497856
 20
6.335587961168445
 10
6.647811384282955
 20
6.294542103581269
 10
6.638805929974139
 20
6.242483711821683
 10
6.66383883863253
 20
6.182419410179949
 10
6.777978861236689
 20
6.024254266222595
 10
6.862080522615271
 20
5.92515188172774
 10
6.895121512625985
 20
5.874098245923251
 10
6.925157354946155
 20
5.844067615131509
 10
6.983226128945641
 20
5.792015042911999
 10
7.129399084970745
 20
5.662884807107232
 10
7.228537342152944
 20
5.60783090898469
  0
LWPOLYLINE
  5
1443
330
19
100
AcDbEntity
  8
0
100
AcDbPolyline
 90
       12
 70
     0
 43
0.0
 10
7.228537342152944
 20
6.46477943243224
 10
7.183389163149339
 20
6.466779129297231
 10
7.158360597431305
 20
6.476788036679037
 10
7.106304637718317
 20
6.457762470202295
 10
7.075274288782291
 20
6.411708814860141
 10
7.04023950830547
 20
6.365654812082759
 10
7.012211961872197
 20
6.325608064628219
 10
7.016225947881775
 20
6.21548654469161
 10
7.026245886332088
 20
6.113374408989432
 10
7.052281726910628
 20
6.032286928617338
 10
7.155408520471916
 20
5.886134123835487
 10
7.228537342152945
 20
5.830077033216377
  0
ARC
  5
1445
330
19
100
AcDbEntity
  8
0
100
AcDbCircle
 10
7.968427814689342
 20
4.359515388835551
 30
0.0
 40
0.0251945441366872
100
AcDbArc
 50
90.0
 51
270.0
  0
LWPOLYLINE
  5
1446
330
19
100
AcDbEntity
  8
0
100
AcDbPolyline
 90
        5
 70
     0
 43
0.0
 10
7.968427814689342
 20
4.334320844698863
 10
7.968427814689342
 20
2.705685075628782
 10
7.937557112240822
 20
2.620588039046273
 10
7.75135669141636
 20
2.555499870770242
 10
7.69212447042115
 20
2.608554072027793
  0
ARC
  5
1447
330
19
100
AcDbEntity
  8
0
100
AcDbCircle
 10
7.69212447042115
 20
4.295420076858041
 30
0.0
 40
0.0332941686750727
100
AcDbArc
 50
270.0
 51
90.0
  0
LWPOLYLINE
  5
1448
330
19
100
AcDbEntity
  8
0
100
AcDbPolyline
 90
        2
 70
     0
 43
0.0
 10
7.69212447042115
 20
4.262125908182969
 10
7.69212447042115
 20
2.608554072027793
  0
ARC
  5
1449
330
19
100
AcDbEntity
  8
0
100
AcDbCircle
 10
7.665195499665243
 20
4.301166162506268
 30
0.0
 40
0.0332941686750727
100
AcDbArc
 50
270.0
 51
65.9098087343653
  0
LINE
  5
144A
330
19
100
AcDbEntity
  8
0
100
AcDbLine
 10
7.69212447042115
 20
4.328714245533114
 30
0.0
 11
7.665195499665243
 21
4.334460331181341
 31
0.0
  0
LINE
  5
144B
330
19
100
AcDbEntity
  8
0
100
AcDbLine
 10
7.69212447042115
 20
4.262125908182969
 30
0.0
 11
7.665195499665243
 21
4.267871993831196
 31
0.0
  0
LWPOLYLINE
  5
144C
330
19
100
AcDbEntity
  8
0
100
AcDbPolyline
 90
        3
 70
     0
 43
0.0
 10
7.665195499665243
 20
4.334460331181341
 10
7.665195499665243
 20
4.495638874415918
 42
0.13686081115626
 10
7.639152532827364
 20
4.576370301085309
  0
LWPOLYLINE
  5
144F
330
19
100
AcDbEntity
  8
0
  6
DASHED
100
AcDbPolyline
 90
        4
 70
   128
 43
0.0
 10
7.327435608451043
 20
7.770234103493934
 10
6.034035576803925
 20
7.408721935358455
 42
0.9999999999999988
 10
6.095948839328671
 20
7.187211782264873
 10
7.230903027635045
 20
7.504437496900562
  0
ELLIPSE
  5
1452
102
{ACAD_REACTORS
330
1468
102
}
330
19
100
AcDbEntity
  8
0
100
AcDbEllipse
 10
7.462613488923968
 20
7.443884658858178
 30
0.0
 11
-0.04004587886646949
 21
0.01801646758128861
 31
0.0
210
0.0
220
0.0
230
1.0
 40
0.5097796189288738
 41
0.0
 42
6.283185307179586
  0
ELLIPSE
  5
1453
102
{ACAD_REACTORS
330
1468
102
}
330
19
100
AcDbEntity
  8
0
100
AcDbEllipse
 10
7.45887550252457
 20
7.435576096156893
 30
0.0
 11
-0.04004587886646949
 21
0.01801646758128861
 31
0.0
210
0.0
220
0.0
230
1.0
 40
0.5097796189288738
 41
0.0
 42
3.141592653589793
  0
LINE
  5
1456
102
{ACAD_REACTORS
330
1468
102
}
330
19
100
AcDbEntity
  8
0
100
AcDbLine
 10
7.422567610057499
 20
7.461901126439466
 30
0.0
 11
7.418829623658101
 21
7.453592563738182
 31
0.0
  0
LINE
  5
1457
102
{ACAD_REACTORS
330
1468
102
}
330
19
100
AcDbEntity
  8
0
100
AcDbLine
 10
7.502659367790438
 20
7.425868191276889
 30
0.0
 11
7.49892138139104
 21
7.417559628575605
 31
0.0
  0
ELLIPSE
  5
1459
102
{ACAD_REACTORS
330
1462
102
}
330
19
100
AcDbEntity
  8
0
100
AcDbEllipse
 10
7.315465048361769
 20
7.235641407062834
 30
0.0
 11
0.0
 21
0.04204657460774097
 31
0.0
210
0.0
220
0.0
230
1.0
 40
0.6189560854942251
 41
0.0
 42
6.283185307179586
  0
ELLIPSE
  5
145A
102
{ACAD_REACTORS
330
1462
102
}
330
19
100
AcDbEntity
  8
0
100
AcDbEllipse
 10
7.330058213907785
 20
7.235641407062834
 30
0.0
 11
0.0
 21
0.04204657460774097
 31
0.0
210
0.0
220
0.0
230
1.0
 40
0.6189560854942251
 41
3.141592653589793
 42
6.283185307179586
  0
LINE
  5
145B
102
{ACAD_REACTORS
330
1462
102
}
330
19
100
AcDbEntity
  8
0
100
AcDbLine
 10
7.315465048361769
 20
7.277687981670575
 30
0.0
 11
7.330058213907785
 21
7.277687981670575
 31
0.0
  0
LINE
  5
145C
102
{ACAD_REACTORS
330
1462
102
}
330
19
100
AcDbEntity
  8
0
100
AcDbLine
 10
7.315465048361769
 20
7.193594832455093
 30
0.0
 11
7.330058213907785
 21
7.193594832455093
 31
0.0
  0
HATCH
  5
1462
330
19
100
AcDbEntity
  8
0
100
AcDbHatch
 10
0.0
 20
0.0
 30
0.0
210
0.0
220
0.0
230
1.0
  2
SOLID
 70
     1
 71
     1
 91
        1
 92
        5
 93
        4
 72
     3
 10
7.330058213907785
 20
7.235641407062834
 11
0.0
 21
0.04204657460774097
 40
0.6189560854942251
 50
180.0
 51
360.0
 73
     1
 72
     1
 10
7.330058213907778
 20
7.277687981670576
 11
7.315465048361737
 21
7.277687981670576
 72
     3
 10
7.315465048361769
 20
7.235641407062834
 11
0.0
 21
0.04204657460774097
 40
0.6189560854942251
 50
0.0
 51
179.9999999999928
 73
     0
 72
     1
 10
7.315465048361796
 20
7.193594832455094
 11
7.330058213907776
 21
7.193594832455093
 97
        4
330
145A
330
145B
330
1459
330
145C
 75
     0
 76
     1
 47
0.0004864363588585
 98
        1
 10
7.346437580663352
 20
7.231198017256748
  0
HATCH
  5
1468
330
19
100
AcDbEntity
  8
0
100
AcDbHatch
 10
0.0
 20
0.0
 30
0.0
210
0.0
220
0.0
230
1.0
  2
SOLID
 70
     1
 71
     1
 91
        1
 92
        5
 93
        4
 72
     3
 10
7.462613488923968
 20
7.443884658858178
 11
-0.04004587886646949
 21
0.01801646758128861
 40
0.5097796189288738
 50
179.9999999999938
 51
360.0
 73
     0
 72
     1
 10
7.4225676100575
 20
7.461901126439466
 11
7.418829623658111
 21
7.453592563738196
 72
     3
 10
7.45887550252457
 20
7.435576096156893
 11
-0.04004587886646949
 21
0.01801646758128861
 40
0.5097796189288738
 50
0.0
 51
180.0
 73
     1
 72
     1
 10
7.498921381391044
 20
7.417559628575618
 11
7.50265936779045
 21
7.425868191276916
 97
        4
330
1452
330
1456
330
1453
330
1457
 75
     0
 76
     1
 47
0.0004223128798709
 98
        1
 10
7.444585523532247
 20
7.422575662031232
  0
HATCH
  5
1469
330
19
100
AcDbEntity
  8
0
100
AcDbHatch
 10
0.0
 20
0.0
 30
0.0
210
0.0
220
0.0
230
1.0
  2
SOLID
 70
     1
 71
     1
 91
        1
 92
        5
 93
        4
 72
     3
 10
7.448259734289022
 20
6.461795304573021
 11
0.0
 21
0.04204657460774097
 40
0.6189560854942251
 50
180.0
 51
360.0
 73
     1
 72
     1
 10
7.448259734289015
 20
6.503841879180762
 11
7.433666568742973
 21
6.503841879180762
 72
     3
 10
7.433666568743005
 20
6.461795304573021
 11
0.0
 21
0.04204657460774097
 40
0.6189560854942251
 50
0.0
 51
179.9999999999928
 73
     0
 72
     1
 10
7.433666568743033
 20
6.419748729965281
 11
7.448259734289013
 21
6.419748729965279
 97
        4
330
146D
330
146A
330
146C
330
146B
 75
     0
 76
     1
 47
0.0004864363588585
 98
        1
 10
7.464639101044589
 20
6.457351914766934
  0
LINE
  5
146A
102
{ACAD_REACTORS
330
1469
102
}
330
19
100
AcDbEntity
  8
0
100
AcDbLine
 10
7.433666568743005
 20
6.503841879180762
 30
0.0
 11
7.448259734289022
 21
6.503841879180762
 31
0.0
  0
LINE
  5
146B
102
{ACAD_REACTORS
330
1469
102
}
330
19
100
AcDbEntity
  8
0
100
AcDbLine
 10
7.433666568743005
 20
6.41974872996528
 30
0.0
 11
7.448259734289022
 21
6.41974872996528
 31
0.0
  0
ELLIPSE
  5
146C
102
{ACAD_REACTORS
330
1469
102
}
330
19
100
AcDbEntity
  8
0
100
AcDbEllipse
 10
7.433666568743005
 20
6.461795304573021
 30
0.0
 11
0.0
 21
0.04204657460774097
 31
0.0
210
0.0
220
0.0
230
1.0
 40
0.6189560854942251
 41
0.0
 42
6.283185307179586
  0
ELLIPSE
  5
146D
102
{ACAD_REACTORS
330
1469
102
}
330
19
100
AcDbEntity
  8
0
100
AcDbEllipse
 10
7.448259734289022
 20
6.461795304573021
 30
0.0
 11
0.0
 21
0.04204657460774097
 31
0.0
210
0.0
220
0.0
230
1.0
 40
0.6189560854942251
 41
3.141592653589793
 42
6.283185307179586
  0
HATCH
  5
146E
330
19
100
AcDbEntity
  8
0
100
AcDbHatch
 10
0.0
 20
0.0
 30
0.0
210
0.0
220
0.0
230
1.0
  2
SOLID
 70
     1
 71
     1
 91
        1
 92
        5
 93
        4
 72
     3
 10
7.303169012274976
 20
5.655890862461176
 11
0.0
 21
0.04204657460774097
 40
0.6189560854942251
 50
180.0
 51
360.0
 73
     1
 72
     1
 10
7.303169012274969
 20
5.697937437068918
 11
7.288575846728928
 21
5.697937437068918
 72
     3
 10
7.28857584672896
 20
5.655890862461176
 11
0.0
 21
0.04204657460774097
 40
0.6189560854942251
 50
0.0
 51
179.9999999999928
 73
     0
 72
     1
 10
7.288575846728987
 20
5.613844287853436
 11
7.303169012274967
 21
5.613844287853434
 97
        4
330
1472
330
146F
330
1471
330
1470
 75
     0
 76
     1
 47
0.0004864363588585
 98
        1
 10
7.319548379030543
 20
5.651447472655089
  0
LINE
  5
146F
102
{ACAD_REACTORS
330
146E
102
}
330
19
100
AcDbEntity
  8
0
100
AcDbLine
 10
7.28857584672896
 20
5.697937437068917
 30
0.0
 11
7.303169012274976
 21
5.697937437068917
 31
0.0
  0
LINE
  5
1470
102
{ACAD_REACTORS
330
146E
102
}
330
19
100
AcDbEntity
  8
0
100
AcDbLine
 10
7.28857584672896
 20
5.613844287853435
 30
0.0
 11
7.303169012274976
 21
5.613844287853435
 31
0.0
  0
ELLIPSE
  5
1471
102
{ACAD_REACTORS
330
146E
102
}
330
19
100
AcDbEntity
  8
0
100
AcDbEllipse
 10
7.28857584672896
 20
5.655890862461176
 30
0.0
 11
0.0
 21
0.04204657460774097
 31
0.0
210
0.0
220
0.0
230
1.0
 40
0.6189560854942251
 41
0.0
 42
6.283185307179586
  0
ELLIPSE
  5
1472
102
{ACAD_REACTORS
330
146E
102
}
330
19
100
AcDbEntity
  8
0
100
AcDbEllipse
 10
7.303169012274976
 20
5.655890862461176
 30
0.0
 11
0.0
 21
0.04204657460774097
 31
0.0
210
0.0
220
0.0
230
1.0
 40
0.6189560854942251
 41
3.141592653589793
 42
6.283185307179586
  0
CIRCLE
  5
1473
102
{ACAD_REACTORS
330
147C
102
}
330
19
100
AcDbEntity
  8
0
100
AcDbCircle
 10
7.439735406960102
 20
5.74500257992372
 30
0.0
 40
0.0120964326469107
  0
HATCH
  5
147C
330
19
100
AcDbEntity
  8
0
100
AcDbHatch
 10
0.0
 20
0.0
 30
0.0
210
0.0
220
0.0
230
1.0
  2
SOLID
 70
     1
 71
     1
 91
        1
 92
        7
 72
     1
 73
     1
 93
        2
 10
7.451831839607013
 20
5.74500257992372
 42
1.0
 10
7.427638974313191
 20
5.74500257992372
 42
1.0
 97
        1
330
1473
 75
     0
 76
     1
 47
0.0027686540486385
 98
        1
 10
7.441737796448113
 20
5.743000537870937
  0
HATCH
  5
147D
330
19
100
AcDbEntity
  8
0
100
AcDbHatch
 10
0.0
 20
0.0
 30
0.0
210
0.0
220
0.0
230
1.0
  2
SOLID
 70
     1
 71
     1
 91
        1
 92
        7
 72
     1
 73
     1
 93
        2
 10
7.451831839607013
 20
5.98226514871577
 42
1.0
 10
7.427638974313191
 20
5.98226514871577
 42
1.0
 97
        1
330
147E
 75
     0
 76
     1
 47
0.0027686540486385
 98
        1
 10
7.441737796448113
 20
5.980263106662988
  0
CIRCLE
  5
147E
102
{ACAD_REACTORS
330
147D
102
}
330
19
100
AcDbEntity
  8
0
100
AcDbCircle
 10
7.439735406960102
 20
5.98226514871577
 30
0.0
 40
0.0120964326469107
  0
HATCH
  5
147F
330
19
100
AcDbEntity
  8
0
100
AcDbHatch
 10
0.0
 20
0.0
 30
0.0
210
0.0
220
0.0
230
1.0
  2
SOLID
 70
     1
 71
     1
 91
        1
 92
        7
 72
     1
 73
     1
 93
        2
 10
7.451831839607013
 20
6.197503517751067
 42
1.0
 10
7.427638974313191
 20
6.197503517751067
 42
1.0
 97
        1
330
1480
 75
     0
 76
     1
 47
0.0027686540486385
 98
        1
 10
7.441737796448113
 20
6.195501475698285
  0
CIRCLE
  5
1480
102
{ACAD_REACTORS
330
147F
102
}
330
19
100
AcDbEntity
  8
0
100
AcDbCircle
 10
7.439735406960102
 20
6.197503517751067
 30
0.0
 40
0.0120964326469107
  0
HATCH
  5
1481
330
19
100
AcDbEntity
  8
0
100
AcDbHatch
 10
0.0
 20
0.0
 30
0.0
210
0.0
220
0.0
230
1.0
  2
SOLID
 70
     1
 71
     1
 91
        1
 92
        7
 72
     1
 73
     1
 93
        2
 10
7.451831839607013
 20
6.68704570790718
 42
1.0
 10
7.427638974313191
 20
6.68704570790718
 42
1.0
 97
        1
330
1482
 75
     0
 76
     1
 47
0.0027686540486385
 98
        1
 10
7.441737796448113
 20
6.685043665854398
  0
CIRCLE
  5
1482
102
{ACAD_REACTORS
330
1481
102
}
330
19
100
AcDbEntity
  8
0
100
AcDbCircle
 10
7.439735406960102
 20
6.68704570790718
 30
0.0
 40
0.0120964326469107
  0
HATCH
  5
1483
330
19
100
AcDbEntity
  8
0
100
AcDbHatch
 10
0.0
 20
0.0
 30
0.0
210
0.0
220
0.0
230
1.0
  2
SOLID
 70
     1
 71
     1
 91
        1
 92
        7
 72
     1
 73
     1
 93
        2
 10
7.451831839607013
 20
6.920303237146786
 42
1.0
 10
7.427638974313191
 20
6.920303237146786
 42
1.0
 97
        1
330
1484
 75
     0
 76
     1
 47
0.0027686540486385
 98
        1
 10
7.441737796448113
 20
6.918301195094004
  0
CIRCLE
  5
1484
102
{ACAD_REACTORS
330
1483
102
}
330
19
100
AcDbEntity
  8
0
100
AcDbCircle
 10
7.439735406960102
 20
6.920303237146786
 30
0.0
 40
0.0120964326469107
  0
HATCH
  5
1485
330
19
100
AcDbEntity
  8
0
100
AcDbHatch
 10
0.0
 20
0.0
 30
0.0
210
0.0
220
0.0
230
1.0
  2
SOLID
 70
     1
 71
     1
 91
        1
 92
        7
 72
     1
 73
     1
 93
        2
 10
7.451831839607013
 20
7.11151527751374
 42
1.0
 10
7.427638974313191
 20
7.11151527751374
 42
1.0
 97
        1
330
1486
 75
     0
 76
     1
 47
0.0027686540486385
 98
        1
 10
7.441737796448113
 20
7.109513235460957
  0
CIRCLE
  5
1486
102
{ACAD_REACTORS
330
1485
102
}
330
19
100
AcDbEntity
  8
0
100
AcDbCircle
 10
7.439735406960102
 20
7.11151527751374
 30
0.0
 40
0.0120964326469107
  0
HATCH
  5
1487
330
19
100
AcDbEntity
  8
0
100
AcDbHatch
 10
0.0
 20
0.0
 30
0.0
210
0.0
220
0.0
230
1.0
  2
SOLID
 70
     1
 71
     1
 91
        1
 92
        7
 72
     1
 73
     1
 93
        2
 10
7.324679585965452
 20
5.878138897586618
 42
1.0
 10
7.30048672067163
 20
5.878138897586618
 42
1.0
 97
        1
330
1488
 75
     0
 76
     1
 47
0.0027686540486385
 98
        1
 10
7.314585542806552
 20
5.876136855533836
  0
CIRCLE
  5
1488
102
{ACAD_REACTORS
330
1487
102
}
330
19
100
AcDbEntity
  8
0
100
AcDbCircle
 10
7.312583153318541
 20
5.878138897586618
 30
0.0
 40
0.0120964326469107
  0
HATCH
  5
1489
330
19
100
AcDbEntity
  8
0
100
AcDbHatch
 10
0.0
 20
0.0
 30
0.0
210
0.0
220
0.0
230
1.0
  2
SOLID
 70
     1
 71
     1
 91
        1
 92
        7
 72
     1
 73
     1
 93
        2
 10
7.324679585965452
 20
6.108393450605858
 42
1.0
 10
7.30048672067163
 20
6.108393450605858
 42
1.0
 97
        1
330
148A
 75
     0
 76
     1
 47
0.0027686540486385
 98
        1
 10
7.314585542806552
 20
6.106391408553075
  0
CIRCLE
  5
148A
102
{ACAD_REACTORS
330
1489
102
}
330
19
100
AcDbEntity
  8
0
100
AcDbCircle
 10
7.312583153318541
 20
6.108393450605858
 30
0.0
 40
0.0120964326469107
  0
HATCH
  5
148B
330
19
100
AcDbEntity
  8
0
100
AcDbHatch
 10
0.0
 20
0.0
 30
0.0
210
0.0
220
0.0
230
1.0
  2
SOLID
 70
     1
 71
     1
 91
        1
 92
        7
 72
     1
 73
     1
 93
        2
 10
7.324679585965452
 20
6.353664795620689
 42
1.0
 10
7.30048672067163
 20
6.353664795620689
 42
1.0
 97
        1
330
148C
 75
     0
 76
     1
 47
0.0027686540486385
 98
        1
 10
7.314585542806552
 20
6.351662753567906
  0
CIRCLE
  5
148C
102
{ACAD_REACTORS
330
148B
102
}
330
19
100
AcDbEntity
  8
0
100
AcDbCircle
 10
7.312583153318541
 20
6.353664795620689
 30
0.0
 40
0.0120964326469107
  0
HATCH
  5
148D
330
19
100
AcDbEntity
  8
0
100
AcDbHatch
 10
0.0
 20
0.0
 30
0.0
210
0.0
220
0.0
230
1.0
  2
SOLID
 70
     1
 71
     1
 91
        1
 92
        7
 72
     1
 73
     1
 93
        2
 10
7.324679585965452
 20
6.592929406465521
 42
1.0
 10
7.30048672067163
 20
6.592929406465521
 42
1.0
 97
        1
330
148E
 75
     0
 76
     1
 47
0.0027686540486385
 98
        1
 10
7.314585542806552
 20
6.590927364412738
  0
CIRCLE
  5
148E
102
{ACAD_REACTORS
330
148D
102
}
330
19
100
AcDbEntity
  8
0
100
AcDbCircle
 10
7.312583153318541
 20
6.592929406465521
 30
0.0
 40
0.0120964326469107
  0
HATCH
  5
148F
330
19
100
AcDbEntity
  8
0
100
AcDbHatch
 10
0.0
 20
0.0
 30
0.0
210
0.0
220
0.0
230
1.0
  2
SOLID
 70
     1
 71
     1
 91
        1
 92
        7
 72
     1
 73
     1
 93
        2
 10
7.324679585965452
 20
6.837199643595153
 42
1.0
 10
7.30048672067163
 20
6.837199643595153
 42
1.0
 97
        1
330
1490
 75
     0
 76
     1
 47
0.0027686540486385
 98
        1
 10
7.314585542806552
 20
6.835197601542371
  0
CIRCLE
  5
1490
102
{ACAD_REACTORS
330
148F
102
}
330
19
100
AcDbEntity
  8
0
100
AcDbCircle
 10
7.312583153318541
 20
6.837199643595153
 30
0.0
 40
0.0120964326469107
  0
HATCH
  5
1491
330
19
100
AcDbEntity
  8
0
100
AcDbHatch
 10
0.0
 20
0.0
 30
0.0
210
0.0
220
0.0
230
1.0
  2
SOLID
 70
     1
 71
     1
 91
        1
 92
        7
 72
     1
 73
     1
 93
        2
 10
7.324679585965452
 20
7.055441944297696
 42
1.0
 10
7.30048672067163
 20
7.055441944297696
 42
1.0
 97
        1
330
1492
 75
     0
 76
     1
 47
0.0027686540486385
 98
        1
 10
7.314585542806552
 20
7.053439902244914
  0
CIRCLE
  5
1492
102
{ACAD_REACTORS
330
1491
102
}
330
19
100
AcDbEntity
  8
0
100
AcDbCircle
 10
7.312583153318541
 20
7.055441944297696
 30
0.0
 40
0.0120964326469107
  0
ELLIPSE
  5
1493
102
{ACAD_REACTORS
330
149D
102
}
330
19
100
AcDbEntity
  8
0
100
AcDbEllipse
 10
7.341471530663497
 20
7.534973316178245
 30
0.0
 11
-0.01902104981877173
 21
0.0
 31
0.0
210
0.0
220
0.0
230
1.0
 40
0.6843018554568995
 41
0.0
 42
6.283185307179586
  0
HATCH
  5
149D
330
19
100
AcDbEntity
  8
0
100
AcDbHatch
 10
0.0
 20
0.0
 30
0.0
210
0.0
220
0.0
230
1.0
  2
SOLID
 70
     1
 71
     1
 91
        1
 92
        5
 93
        1
 72
     3
 10
7.341471530663497
 20
7.534973316178245
 11
-0.01902104981877173
 21
0.0
 40
0.6843018554568995
 50
0.0
 51
360.0
 73
     1
 97
        1
330
1493
 75
     0
 76
     1
 47
0.0023685515079428
 98
        1
 10
7.33446403604353
 20
7.531971034828335
  0
ELLIPSE
  5
149F
102
{ACAD_REACTORS
330
14A4
102
}
330
19
100
AcDbEntity
  8
0
100
AcDbEllipse
 10
7.91251699430144
 20
2.731208288890532
 30
0.0
 11
0.0
 21
0.03253600626895192
 31
0.0
210
0.0
220
0.0
230
1.0
 40
0.9231383243609938
 41
0.0
 42
6.283185307179586
  0
ELLIPSE
  5
14A0
102
{ACAD_REACTORS
330
14A4
102
}
330
19
100
AcDbEntity
  8
0
100
AcDbEllipse
 10
7.904512561019015
 20
2.735709973739254
 30
0.0
 11
0.0
 21
0.03253600626895192
 31
0.0
210
0.0
220
0.0
230
1.0
 40
0.9231383243609938
 41
5.65360940618751
 42
9.096619212108202
  0
HATCH
  5
14A4
330
19
100
AcDbEntity
  8
0
100
AcDbHatch
 10
0.0
 20
0.0
 30
0.0
210
0.0
220
0.0
230
1.0
  2
SOLID
 70
     1
 71
     1
 91
        1
 92
        5
 93
        2
 72
     3
 10
7.904512561019015
 20
2.735709973739254
 11
0.0
 21
0.03253600626895192
 40
0.9231383243609938
 50
-33.91981811024049
 51
162.5520729295727
 73
     1
 72
     3
 10
7.91251699430144
 20
2.731208288890532
 11
0.0
 21
0.03253600626895192
 40
0.9231383243609938
 50
-146.0801818905539
 51
17.44792661368164
 73
     0
 97
        2
330
149F
330
14A0
 75
     0
 76
     1
 47
0.0004188261778313
 98
        1
 10
7.883138813809332
 20
2.755142518038296
  0
HATCH
  5
14A5
330
19
100
AcDbEntity
  8
0
100
AcDbHatch
 10
0.0
 20
0.0
 30
0.0
210
0.0
220
0.0
230
1.0
  2
SOLID
 70
     1
 71
     1
 91
        1
 92
        5
 93
        2
 72
     3
 10
7.91251699430144
 20
3.226255790685972
 11
0.0
 21
0.03253600626895192
 40
0.9231383243609938
 50
-146.0801818905539
 51
17.44792661368164
 73
     0
 72
     3
 10
7.904512561019015
 20
3.230757475534695
 11
0.0
 21
0.03253600626895192
 40
0.9231383243609938
 50
-33.91981811024049
 51
162.5520729295727
 73
     1
 97
        2
330
14A7
330
14A6
 75
     0
 76
     1
 47
0.0004188261778313
 98
        1
 10
7.883138813809332
 20
3.250190019833737
  0
ELLIPSE
  5
14A6
102
{ACAD_REACTORS
330
14A5
102
}
330
19
100
AcDbEntity
  8
0
100
AcDbEllipse
 10
7.904512561019015
 20
3.230757475534695
 30
0.0
 11
0.0
 21
0.03253600626895192
 31
0.0
210
0.0
220
0.0
230
1.0
 40
0.9231383243609938
 41
5.65360940618751
 42
9.096619212108202
  0
ELLIPSE
  5
14A7
102
{ACAD_REACTORS
330
14A5
102
}
330
19
100
AcDbEntity
  8
0
100
AcDbEllipse
 10
7.91251699430144
 20
3.226255790685972
 30
0.0
 11
0.0
 21
0.03253600626895192
 31
0.0
210
0.0
220
0.0
230
1.0
 40
0.9231383243609938
 41
0.0
 42
6.283185307179586
  0
HATCH
  5
14A8
330
19
100
AcDbEntity
  8
0
100
AcDbHatch
 10
0.0
 20
0.0
 30
0.0
210
0.0
220
0.0
230
1.0
  2
SOLID
 70
     1
 71
     1
 91
        1
 92
        5
 93
        2
 72
     3
 10
7.91251699430144
 20
3.462516991016403
 11
0.0
 21
0.03253600626895192
 40
0.9231383243609938
 50
-146.0801818905539
 51
17.44792661368164
 73
     0
 72
     3
 10
7.904512561019015
 20
3.467018675865125
 11
0.0
 21
0.03253600626895192
 40
0.9231383243609938
 50
-33.91981811024049
 51
162.5520729295727
 73
     1
 97
        2
330
14AA
330
14A9
 75
     0
 76
     1
 47
0.0004188261778313
 98
        1
 10
7.883138813809332
 20
3.486451220164167
  0
ELLIPSE
  5
14A9
102
{ACAD_REACTORS
330
14A8
102
}
330
19
100
AcDbEntity
  8
0
100
AcDbEllipse
 10
7.904512561019015
 20
3.467018675865125
 30
0.0
 11
0.0
 21
0.03253600626895192
 31
0.0
210
0.0
220
0.0
230
1.0
 40
0.9231383243609938
 41
5.65360940618751
 42
9.096619212108202
  0
ELLIPSE
  5
14AA
102
{ACAD_REACTORS
330
14A8
102
}
330
19
100
AcDbEntity
  8
0
100
AcDbEllipse
 10
7.91251699430144
 20
3.462516991016403
 30
0.0
 11
0.0
 21
0.03253600626895192
 31
0.0
210
0.0
220
0.0
230
1.0
 40
0.9231383243609938
 41
0.0
 42
6.283185307179586
  0
HATCH
  5
14AB
330
19
100
AcDbEntity
  8
0
100
AcDbHatch
 10
0.0
 20
0.0
 30
0.0
210
0.0
220
0.0
230
1.0
  2
SOLID
 70
     1
 71
     1
 91
        1
 92
        5
 93
        2
 72
     3
 10
7.777359351930575
 20
2.912394484408288
 11
0.0
 21
0.03253600626895192
 40
0.9231383243609938
 50
-33.91981811024049
 51
162.5520729295727
 73
     1
 72
     3
 10
7.785363785213
 20
2.907892799559565
 11
0.0
 21
0.03253600626895192
 40
0.9231383243609938
 50
-146.0801818905539
 51
17.44792661368164
 73
     0
 97
        2
330
14AD
330
14AC
 75
     0
 76
     1
 47
0.0004188261778313
 98
        1
 10
7.755985604720892
 20
2.93182702870733
  0
ELLIPSE
  5
14AC
102
{ACAD_REACTORS
330
14AB
102
}
330
19
100
AcDbEntity
  8
0
100
AcDbEllipse
 10
7.777359351930575
 20
2.912394484408288
 30
0.0
 11
0.0
 21
0.03253600626895192
 31
0.0
210
0.0
220
0.0
230
1.0
 40
0.9231383243609938
 41
5.65360940618751
 42
9.096619212108202
  0
ELLIPSE
  5
14AD
102
{ACAD_REACTORS
330
14AB
102
}
330
19
100
AcDbEntity
  8
0
100
AcDbEllipse
 10
7.785363785213
 20
2.907892799559565
 30
0.0
 11
0.0
 21
0.03253600626895192
 31
0.0
210
0.0
220
0.0
230
1.0
 40
0.9231383243609938
 41
0.0
 42
6.283185307179586
  0
HATCH
  5
14B1
330
19
100
AcDbEntity
  8
0
100
AcDbHatch
 10
0.0
 20
0.0
 30
0.0
210
0.0
220
0.0
230
1.0
  2
SOLID
 70
     1
 71
     1
 91
        1
 92
        5
 93
        2
 72
     3
 10
7.777359351930575
 20
3.07657635129846
 11
0.0
 21
0.03253600626895192
 40
0.9231383243609938
 50
-33.91981811024049
 51
162.5520729295727
 73
     1
 72
     3
 10
7.785363785213
 20
3.072074666449737
 11
0.0
 21
0.03253600626895192
 40
0.9231383243609938
 50
-146.0801818905539
 51
17.44792661368164
 73
     0
 97
        2
330
14B2
330
14B3
 75
     0
 76
     1
 47
0.0004188261778313
 98
        1
 10
7.755985604720892
 20
3.096008895597502
  0
ELLIPSE
  5
14B2
102
{ACAD_REACTORS
330
14B1
102
}
330
19
100
AcDbEntity
  8
0
100
AcDbEllipse
 10
7.785363785213
 20
3.072074666449737
 30
0.0
 11
0.0
 21
0.03253600626895192
 31
0.0
210
0.0
220
0.0
230
1.0
 40
0.9231383243609938
 41
0.0
 42
6.283185307179586
  0
ELLIPSE
  5
14B3
102
{ACAD_REACTORS
330
14B1
102
}
330
19
100
AcDbEntity
  8
0
100
AcDbEllipse
 10
7.777359351930575
 20
3.07657635129846
 30
0.0
 11
0.0
 21
0.03253600626895192
 31
0.0
210
0.0
220
0.0
230
1.0
 40
0.9231383243609938
 41
5.65360940618751
 42
9.096619212108202
  0
HATCH
  5
14B4
330
19
100
AcDbEntity
  8
0
100
AcDbHatch
 10
0.0
 20
0.0
 30
0.0
210
0.0
220
0.0
230
1.0
  2
SOLID
 70
     1
 71
     1
 91
        1
 92
        5
 93
        2
 72
     3
 10
7.777359351930575
 20
3.548098165226964
 11
0.0
 21
0.03253600626895192
 40
0.9231383243609938
 50
-33.91981811024049
 51
162.5520729295727
 73
     1
 72
     3
 10
7.785363785213
 20
3.543596480378242
 11
0.0
 21
0.03253600626895192
 40
0.9231383243609938
 50
-146.0801818905539
 51
17.44792661368164
 73
     0
 97
        2
330
14B5
330
14B6
 75
     0
 76
     1
 47
0.0004188261778313
 98
        1
 10
7.755985604720892
 20
3.567530709526006
  0
ELLIPSE
  5
14B5
102
{ACAD_REACTORS
330
14B4
102
}
330
19
100
AcDbEntity
  8
0
100
AcDbEllipse
 10
7.785363785213
 20
3.543596480378242
 30
0.0
 11
0.0
 21
0.03253600626895192
 31
0.0
210
0.0
220
0.0
230
1.0
 40
0.9231383243609938
 41
0.0
 42
6.283185307179586
  0
ELLIPSE
  5
14B6
102
{ACAD_REACTORS
330
14B4
102
}
330
19
100
AcDbEntity
  8
0
100
AcDbEllipse
 10
7.777359351930575
 20
3.548098165226964
 30
0.0
 11
0.0
 21
0.03253600626895192
 31
0.0
210
0.0
220
0.0
230
1.0
 40
0.9231383243609938
 41
5.65360940618751
 42
9.096619212108202
  0
HATCH
  5
14B7
330
19
100
AcDbEntity
  8
0
100
AcDbHatch
 10
0.0
 20
0.0
 30
0.0
210
0.0
220
0.0
230
1.0
  2
SOLID
 70
     1
 71
     1
 91
        1
 92
        5
 93
        2
 72
     3
 10
7.777359351930575
 20
3.786361494468984
 11
0.0
 21
0.03253600626895192
 40
0.9231383243609938
 50
-33.91981811024049
 51
162.5520729295727
 73
     1
 72
     3
 10
7.785363785213
 20
3.781859809620262
 11
0.0
 21
0.03253600626895192
 40
0.9231383243609938
 50
-146.0801818905539
 51
17.44792661368164
 73
     0
 97
        2
330
14B8
330
14B9
 75
     0
 76
     1
 47
0.0004188261778313
 98
        1
 10
7.755985604720892
 20
3.805794038768026
  0
ELLIPSE
  5
14B8
102
{ACAD_REACTORS
330
14B7
102
}
330
19
100
AcDbEntity
  8
0
100
AcDbEllipse
 10
7.785363785213
 20
3.781859809620262
 30
0.0
 11
0.0
 21
0.03253600626895192
 31
0.0
210
0.0
220
0.0
230
1.0
 40
0.9231383243609938
 41
0.0
 42
6.283185307179586
  0
ELLIPSE
  5
14B9
102
{ACAD_REACTORS
330
14B7
102
}
330
19
100
AcDbEntity
  8
0
100
AcDbEllipse
 10
7.777359351930575
 20
3.786361494468984
 30
0.0
 11
0.0
 21
0.03253600626895192
 31
0.0
210
0.0
220
0.0
230
1.0
 40
0.9231383243609938
 41
5.65360940618751
 42
9.096619212108202
  0
HATCH
  5
14BA
330
19
100
AcDbEntity
  8
0
100
AcDbHatch
 10
0.0
 20
0.0
 30
0.0
210
0.0
220
0.0
230
1.0
  2
SOLID
 70
     1
 71
     1
 91
        1
 92
        7
 72
     1
 73
     1
 93
        2
 10
7.907573746786264
 20
3.004008711007408
 42
1.0
 10
7.883380881492442
 20
3.004008711007408
 42
1.0
 97
        1
330
14BB
 75
     0
 76
     1
 47
0.0027686540486385
 98
        1
 10
7.897479703627364
 20
3.002006668954625
  0
CIRCLE
  5
14BB
102
{ACAD_REACTORS
330
14BA
102
}
330
19
100
AcDbEntity
  8
0
100
AcDbCircle
 10
7.895477314139353
 20
3.004008711007408
 30
0.0
 40
0.0120964326469107
  0
HATCH
  5
14BC
330
19
100
AcDbEntity
  8
0
100
AcDbHatch
 10
0.0
 20
0.0
 30
0.0
210
0.0
220
0.0
230
1.0
  2
SOLID
 70
     1
 71
     1
 91
        1
 92
        7
 72
     1
 73
     1
 93
        2
 10
7.907573746786264
 20
3.707788249172427
 42
1.0
 10
7.883380881492442
 20
3.707788249172427
 42
1.0
 97
        1
330
14BD
 75
     0
 76
     1
 47
0.0027686540486385
 98
        1
 10
7.897479703627364
 20
3.705786207119644
  0
CIRCLE
  5
14BD
102
{ACAD_REACTORS
330
14BC
102
}
330
19
100
AcDbEntity
  8
0
100
AcDbCircle
 10
7.895477314139353
 20
3.707788249172427
 30
0.0
 40
0.0120964326469107
  0
HATCH
  5
14BE
330
19
100
AcDbEntity
  8
0
100
AcDbHatch
 10
0.0
 20
0.0
 30
0.0
210
0.0
220
0.0
230
1.0
  2
SOLID
 70
     1
 71
     1
 91
        1
 92
        7
 72
     1
 73
     1
 93
        2
 10
7.907573746786264
 20
3.936040152127233
 42
1.0
 10
7.883380881492442
 20
3.936040152127233
 42
1.0
 97
        1
330
14BF
 75
     0
 76
     1
 47
0.0027686540486385
 98
        1
 10
7.897479703627364
 20
3.93403811007445
  0
CIRCLE
  5
14BF
102
{ACAD_REACTORS
330
14BE
102
}
330
19
100
AcDbEntity
  8
0
100
AcDbCircle
 10
7.895477314139353
 20
3.936040152127233
 30
0.0
 40
0.0120964326469107
  0
HATCH
  5
14C0
330
19
100
AcDbEntity
  8
0
100
AcDbHatch
 10
0.0
 20
0.0
 30
0.0
210
0.0
220
0.0
230
1.0
  2
SOLID
 70
     1
 71
     1
 91
        1
 92
        7
 72
     1
 73
     1
 93
        2
 10
7.907573746786264
 20
4.115238637295383
 42
1.0
 10
7.883380881492442
 20
4.115238637295383
 42
1.0
 97
        1
330
14C1
 75
     0
 76
     1
 47
0.0027686540486385
 98
        1
 10
7.897479703627364
 20
4.113236595242601
  0
CIRCLE
  5
14C1
102
{ACAD_REACTORS
330
14C0
102
}
330
19
100
AcDbEntity
  8
0
100
AcDbCircle
 10
7.895477314139353
 20
4.115238637295383
 30
0.0
 40
0.0120964326469107
  0
HATCH
  5
14C2
330
19
100
AcDbEntity
  8
0
100
AcDbHatch
 10
0.0
 20
0.0
 30
0.0
210
0.0
220
0.0
230
1.0
  2
SOLID
 70
     1
 71
     1
 91
        1
 92
        7
 72
     1
 73
     1
 93
        2
 10
7.907573746786264
 20
4.28242356726473
 42
1.0
 10
7.883380881492442
 20
4.28242356726473
 42
1.0
 97
        1
330
14C3
 75
     0
 76
     1
 47
0.0027686540486385
 98
        1
 10
7.897479703627364
 20
4.280421525211947
  0
CIRCLE
  5
14C3
102
{ACAD_REACTORS
330
14C2
102
}
330
19
100
AcDbEntity
  8
0
100
AcDbCircle
 10
7.895477314139353
 20
4.28242356726473
 30
0.0
 40
0.0120964326469107
  0
HATCH
  5
14C4
330
19
100
AcDbEntity
  8
0
100
AcDbHatch
 10
0.0
 20
0.0
 30
0.0
210
0.0
220
0.0
230
1.0
  2
SOLID
 70
     1
 71
     1
 91
        1
 92
        7
 72
     1
 73
     1
 93
        2
 10
7.798426408504643
 20
3.310338256268179
 42
1.0
 10
7.774233543210821
 20
3.310338256268179
 42
1.0
 97
        1
330
14C5
 75
     0
 76
     1
 47
0.0027686540486385
 98
        1
 10
7.788332365345743
 20
3.308336214215396
  0
CIRCLE
  5
14C5
102
{ACAD_REACTORS
330
14C4
102
}
330
19
100
AcDbEntity
  8
0
100
AcDbCircle
 10
7.786329975857732
 20
3.310338256268179
 30
0.0
 40
0.0120964326469107
  0
HATCH
  5
14C6
330
19
100
AcDbEntity
  8
0
100
AcDbHatch
 10
0.0
 20
0.0
 30
0.0
210
0.0
220
0.0
230
1.0
  2
SOLID
 70
     1
 71
     1
 91
        1
 92
        7
 72
     1
 73
     1
 93
        2
 10
7.798426408504643
 20
3.991091183909138
 42
1.0
 10
7.774233543210821
 20
3.991091183909138
 42
1.0
 97
        1
330
14C7
 75
     0
 76
     1
 47
0.0027686540486385
 98
        1
 10
7.788332365345743
 20
3.989089141856355
  0
CIRCLE
  5
14C7
102
{ACAD_REACTORS
330
14C6
102
}
330
19
100
AcDbEntity
  8
0
100
AcDbCircle
 10
7.786329975857732
 20
3.991091183909138
 30
0.0
 40
0.0120964326469107
  0
HATCH
  5
14C8
330
19
100
AcDbEntity
  8
0
100
AcDbHatch
 10
0.0
 20
0.0
 30
0.0
210
0.0
220
0.0
230
1.0
  2
SOLID
 70
     1
 71
     1
 91
        1
 92
        7
 72
     1
 73
     1
 93
        2
 10
7.798426408504643
 20
4.176296403247288
 42
1.0
 10
7.774233543210821
 20
4.176296403247288
 42
1.0
 97
        1
330
14C9
 75
     0
 76
     1
 47
0.0027686540486385
 98
        1
 10
7.788332365345743
 20
4.174294361194505
  0
CIRCLE
  5
14C9
102
{ACAD_REACTORS
330
14C8
102
}
330
19
100
AcDbEntity
  8
0
100
AcDbCircle
 10
7.786329975857732
 20
4.176296403247288
 30
0.0
 40
0.0120964326469107
  0
ELLIPSE
  5
14CA
330
19
100
AcDbEntity
  8
0
100
AcDbEllipse
 10
7.840432275615139
 20
2.820801190781686
 30
0.0
 11
0.0
 21
0.03253600626895192
 31
0.0
210
0.0
220
0.0
230
1.0
 40
0.9231383243609938
 41
0.0
 42
6.283185307179586
  0
ELLIPSE
  5
14CE
330
19
100
AcDbEntity
  8
0
100
AcDbEllipse
 10
7.831424128683302
 20
2.832313149732205
 30
0.0
 11
0.0
 21
0.03253600626895192
 31
0.0
210
0.0
220
0.0
230
1.0
 40
0.9231383243609938
 41
2.507975578397409
 42
5.181472644135591
  0
ENDSEC
  0
SECTION
  2
OBJECTS
  0
DICTIONARY
  5
C
330
0
100
AcDbDictionary
281
     1
  3
ACAD_COLOR
350
14DB
  3
ACAD_GROUP
350
D
  3
ACAD_LAYOUT
350
14D6
  3
ACAD_MATERIAL
350
14DD
  3
ACAD_MLINESTYLE
350
E
  3
ACDBHEADERROUNDTRIPXREC
350
14DA
  3
ACDBVARIABLEDICTIONARY
350
AC
  0
DICTIONARY
  5
14DB
102
{ACAD_REACTORS
330
C
102
}
330
C
100
AcDbDictionary
281
     1
  0
DICTIONARY
  5
D
102
{ACAD_REACTORS
330
C
102
}
330
C
100
AcDbDictionary
281
     1
  0
DICTIONARY
  5
14D6
102
{ACAD_REACTORS
330
C
102
}
330
C
100
AcDbDictionary
281
     1
  3
Layout1
350
14D8
  3
Model
350
14D7
  0
DICTIONARY
  5
14DD
102
{ACAD_REACTORS
330
C
102
}
330
C
100
AcDbDictionary
281
     1
  0
DICTIONARY
  5
E
102
{ACAD_REACTORS
330
C
102
}
330
C
100
AcDbDictionary
281
     1
  3
STANDARD
350
1C
  0
DICTIONARY
  5
14DA
102
{ACAD_REACTORS
330
C
102
}
330
C
100
AcDbDictionary
281
     1
  3
COLORDICT
350
14DC
  3
MATERIALDICT
350
14DE
  0
DICTIONARY
  5
AC
102
{ACAD_REACTORS
330
C
102
}
330
C
100
AcDbDictionary
281
     1
  3
SORTENTS
350
14D9
  0
LAYOUT
  5
14D8
102
{ACAD_REACTORS
330
14D6
102
}
102
{ACAD_XDICTIONARY
360
14DF
102
}
330
14D6
100
AcDbPlotSettings
  1

  2

  4

  6

 40
0.0
 41
0.0
 42
0.0
 43
0.0
 44
0.0
 45
0.0
 46
0.0
 47
0.0
 48
0.0
 49
0.0
140
0.0
141
0.0
142
1.0
143
1.0
 70
   688
 72
     0
 73
     0
 74
     5
  7

 75
    16
147
1.0
148
0.0
149
0.0
100
AcDbLayout
  1
Layout1
 70
     1
 71
     1
 10
0.0
 20
0.0
 11
0.0
 21
0.0
 12
0.0
 22
0.0
 32
0.0
 14
0.0
 24
0.0
 34
0.0
 15
0.0
 25
0.0
 35
0.0
146
0.0
 13
0.0
 23
0.0
 33
0.0
 16
1.0
 26
0.0
 36
0.0
 17
0.0
 27
1.0
 37
0.0
 76
     0
330
16
  0
LAYOUT
  5
14D7
102
{ACAD_REACTORS
330
14D6
102
}
102
{ACAD_XDICTIONARY
360
14E1
102
}
330
14D6
100
AcDbPlotSettings
  1

  2

  4

  6

 40
0.0
 41
0.0
 42
0.0
 43
0.0
 44
0.0
 45
0.0
 46
0.0
 47
0.0
 48
0.0
 49
0.0
140
0.0
141
0.0
142
1.0
143
1.0
 70
   688
 72
     0
 73
     0
 74
     5
  7

 75
    16
147
1.0
148
0.0
149
0.0
100
AcDbLayout
  1
Model
 70
     1
 71
     0
 10
0.0
 20
0.0
 11
0.0
 21
0.0
 12
0.0
 22
0.0
 32
0.0
 14
0.0
 24
0.0
 34
0.0
 15
0.0
 25
0.0
 35
0.0
146
0.0
 13
0.0
 23
0.0
 33
0.0
 16
1.0
 26
0.0
 36
0.0
 17
0.0
 27
1.0
 37
0.0
 76
     0
330
19
  0
MLINESTYLE
  5
1C
102
{ACAD_REACTORS
330
E
102
}
330
E
100
AcDbMlineStyle
  2
STANDARD
 70
     0
  3

 62
     0
 51
90.0
 52
90.0
 71
     2
 49
0.5
 62
   256
  6
BYLAYER
 49
-0.5
 62
   256
  6
BYLAYER
  0
XRECORD
  5
14DC
102
{ACAD_REACTORS
330
14DA
102
}
330
14DA
100
AcDbXrecord
340
14DB
  0
XRECORD
  5
14DE
102
{ACAD_REACTORS
330
14DA
102
}
330
14DA
100
AcDbXrecord
340
14DD
  0
DICTIONARYVAR
  5
14D9
102
{ACAD_REACTORS
330
AC
102
}
330
AC
100
DictionaryVariables
280
     0
  1
96
  0
DICTIONARY
  5
14DF
330
14D8
100
AcDbDictionary
280
     1
281
     1
  3
ACAD_XREC_ROUNDTRIP
360
14E0
  0
DICTIONARY
  5
14E1
330
14D7
100
AcDbDictionary
280
     1
281
     1
  3
ACAD_XREC_ROUNDTRIP
360
14E2
  0
XRECORD
  5
14E0
102
{ACAD_REACTORS
330
14DF
102
}
330
14DF
100
AcDbXrecord
102
SHADEPLOT
 70
 23504
102
SHADEPLOTRESLEVEL
 70
 23544
102
SHADEPLOTCUSTOMDPI
 70
 27632
  0
XRECORD
  5
14E2
102
{ACAD_REACTORS
330
14E1
102
}
330
14E1
100
AcDbXrecord
102
SHADEPLOT
 70
 -8048
102
SHADEPLOTRESLEVEL
 70
  6792
102
SHADEPLOTCUSTOMDPI
 70
  9040
  0
ENDSEC
  0
EOF
