  0
SECTION
  2
HEADER
  9
$ACADVER
  1
AC1015
  9
$ACADMAINTVER
 70
     6
  9
$DWGCODEPAGE
  3
ANSI_1252
  9
$INSBASE
 10
0.0
 20
0.0
 30
0.0
  9
$EXTMIN
 10
53.92558007451621
 20
83.70775240728621
 30
-0.0015258207003612
  9
$EXTMAX
 10
161.9744204294405
 20
195.6922481141504
 30
0.0000000349246008
  9
$LIMMIN
 10
53.83805745442708
 20
83.71116943359374
  9
$LIMMAX
 10
162.0619425455729
 20
195.6888305664062
  9
$ORTHOMODE
 70
     0
  9
$REGENMODE
 70
     1
  9
$FILLMODE
 70
     1
  9
$QTEXTMODE
 70
     0
  9
$MIRRTEXT
 70
     1
  9
$LTSCALE
 40
1.0
  9
$ATTMODE
 70
     1
  9
$TEXTSIZE
 40
0.2
  9
$TRACEWID
 40
0.05
  9
$TEXTSTYLE
  7
STANDARD
  9
$CLAYER
  8
0
  9
$CELTYPE
  6
CONTINUOUS
  9
$CECOLOR
 62
   256
  9
$CELTSCALE
 40
1.0
  9
$DISPSILH
 70
     0
  9
$DIMSCALE
 40
1.0
  9
$DIMASZ
 40
0.18
  9
$DIMEXO
 40
0.0625
  9
$DIMDLI
 40
0.38
  9
$DIMRND
 40
0.0
  9
$DIMDLE
 40
0.0
  9
$DIMEXE
 40
0.18
  9
$DIMTP
 40
0.0
  9
$DIMTM
 40
0.0
  9
$DIMTXT
 40
0.18
  9
$DIMCEN
 40
0.09
  9
$DIMTSZ
 40
0.0
  9
$DIMTOL
 70
     0
  9
$DIMLIM
 70
     0
  9
$DIMTIH
 70
     1
  9
$DIMTOH
 70
     1
  9
$DIMSE1
 70
     0
  9
$DIMSE2
 70
     0
  9
$DIMTAD
 70
     0
  9
$DIMZIN
 70
     0
  9
$DIMBLK
  1

  9
$DIMASO
 70
     1
  9
$DIMSHO
 70
     1
  9
$DIMPOST
  1

  9
$DIMAPOST
  1

  9
$DIMALT
 70
     0
  9
$DIMALTD
 70
     2
  9
$DIMALTF
 40
25.4
  9
$DIMLFAC
 40
1.0
  9
$DIMTOFL
 70
     0
  9
$DIMTVP
 40
0.0
  9
$DIMTIX
 70
     0
  9
$DIMSOXD
 70
     0
  9
$DIMSAH
 70
     0
  9
$DIMBLK1
  1

  9
$DIMBLK2
  1

  9
$DIMSTYLE
  2
STANDARD
  9
$DIMCLRD
 70
     0
  9
$DIMCLRE
 70
     0
  9
$DIMCLRT
 70
     0
  9
$DIMTFAC
 40
1.0
  9
$DIMGAP
 40
0.09
  9
$DIMJUST
 70
     0
  9
$DIMSD1
 70
     0
  9
$DIMSD2
 70
     0
  9
$DIMTOLJ
 70
     1
  9
$DIMTZIN
 70
     0
  9
$DIMALTZ
 70
     0
  9
$DIMALTTZ
 70
     0
  9
$DIMUPT
 70
     0
  9
$DIMDEC
 70
     4
  9
$DIMTDEC
 70
     4
  9
$DIMALTU
 70
     2
  9
$DIMALTTD
 70
     2
  9
$DIMTXSTY
  7
STANDARD
  9
$DIMAUNIT
 70
     0
  9
$DIMADEC
 70
     0
  9
$DIMALTRND
 40
0.0
  9
$DIMAZIN
 70
     0
  9
$DIMDSEP
 70
    46
  9
$DIMATFIT
 70
     3
  9
$DIMFRAC
 70
     0
  9
$DIMLDRBLK
  1

  9
$DIMLUNIT
 70
     2
  9
$DIMLWD
 70
    -2
  9
$DIMLWE
 70
    -2
  9
$DIMTMOVE
 70
     0
  9
$LUNITS
 70
     2
  9
$LUPREC
 70
     4
  9
$SKETCHINC
 40
0.1
  9
$FILLETRAD
 40
0.0
  9
$AUNITS
 70
     0
  9
$AUPREC
 70
     0
  9
$MENU
  1
acad
  9
$ELEVATION
 40
0.0
  9
$PELEVATION
 40
0.0
  9
$THICKNESS
 40
0.0
  9
$LIMCHECK
 70
     0
  9
$CHAMFERA
 40
0.0
  9
$CHAMFERB
 40
0.0
  9
$CHAMFERC
 40
0.0
  9
$CHAMFERD
 40
0.0
  9
$SKPOLY
 70
     0
  9
$TDCREATE
 40
2444971.666666667
  9
$TDUCREATE
 40
2444972.0
  9
$TDUPDATE
 40
2452219.37859294
  9
$TDUUPDATE
 40
2452219.711926273
  9
$TDINDWG
 40
0.0006090278
  9
$TDUSRTIMER
 40
0.0006090278
  9
$USRTIMER
 70
     1
  9
$ANGBASE
 50
0.0
  9
$ANGDIR
 70
     0
  9
$PDMODE
 70
     0
  9
$PDSIZE
 40
0.0
  9
$PLINEWID
 40
0.0
  9
$SPLFRAME
 70
     0
  9
$SPLINETYPE
 70
     6
  9
$SPLINESEGS
 70
     8
  9
$HANDSEED
  5
10C
  9
$SURFTAB1
 70
     6
  9
$SURFTAB2
 70
     6
  9
$SURFTYPE
 70
     6
  9
$SURFU
 70
     6
  9
$SURFV
 70
     6
  9
$UCSBASE
  2

  9
$UCSNAME
  2

  9
$UCSORG
 10
0.0
 20
0.0
 30
0.0
  9
$UCSXDIR
 10
1.0
 20
0.0
 30
0.0
  9
$UCSYDIR
 10
0.0
 20
1.0
 30
0.0
  9
$UCSORTHOREF
  2

  9
$UCSORTHOVIEW
 70
     0
  9
$UCSORGTOP
 10
0.0
 20
0.0
 30
0.0
  9
$UCSORGBOTTOM
 10
0.0
 20
0.0
 30
0.0
  9
$UCSORGLEFT
 10
0.0
 20
0.0
 30
0.0
  9
$UCSORGRIGHT
 10
0.0
 20
0.0
 30
0.0
  9
$UCSORGFRONT
 10
0.0
 20
0.0
 30
0.0
  9
$UCSORGBACK
 10
0.0
 20
0.0
 30
0.0
  9
$PUCSBASE
  2

  9
$PUCSNAME
  2

  9
$PUCSORG
 10
0.0
 20
0.0
 30
0.0
  9
$PUCSXDIR
 10
1.0
 20
0.0
 30
0.0
  9
$PUCSYDIR
 10
0.0
 20
1.0
 30
0.0
  9
$PUCSORTHOREF
  2

  9
$PUCSORTHOVIEW
 70
     0
  9
$PUCSORGTOP
 10
0.0
 20
0.0
 30
0.0
  9
$PUCSORGBOTTOM
 10
0.0
 20
0.0
 30
0.0
  9
$PUCSORGLEFT
 10
0.0
 20
0.0
 30
0.0
  9
$PUCSORGRIGHT
 10
0.0
 20
0.0
 30
0.0
  9
$PUCSORGFRONT
 10
0.0
 20
0.0
 30
0.0
  9
$PUCSORGBACK
 10
0.0
 20
0.0
 30
0.0
  9
$USERI1
 70
     0
  9
$USERI2
 70
     0
  9
$USERI3
 70
     0
  9
$USERI4
 70
     0
  9
$USERI5
 70
     0
  9
$USERR1
 40
0.0
  9
$USERR2
 40
0.0
  9
$USERR3
 40
0.0
  9
$USERR4
 40
0.0
  9
$USERR5
 40
0.0
  9
$WORLDVIEW
 70
     1
  9
$SHADEDGE
 70
     3
  9
$SHADEDIF
 70
    70
  9
$TILEMODE
 70
     1
  9
$MAXACTVP
 70
    16
  9
$PINSBASE
 10
0.0
 20
0.0
 30
0.0
  9
$PLIMCHECK
 70
     0
  9
$PEXTMIN
 10
1.000000000000000E+20
 20
1.000000000000000E+20
 30
1.000000000000000E+20
  9
$PEXTMAX
 10
-1.000000000000000E+20
 20
-1.000000000000000E+20
 30
-1.000000000000000E+20
  9
$PLIMMIN
 10
0.0
 20
0.0
  9
$PLIMMAX
 10
12.0
 20
9.0
  9
$UNITMODE
 70
     0
  9
$VISRETAIN
 70
     0
  9
$PLINEGEN
 70
     1
  9
$PSLTSCALE
 70
     0
  9
$TREEDEPTH
 70
  3020
  9
$CMLSTYLE
  2
STANDARD
  9
$CMLJUST
 70
     0
  9
$CMLSCALE
 40
1.0
  9
$PROXYGRAPHICS
 70
     0
  9
$MEASUREMENT
 70
     0
  9
$CELWEIGHT
370
    -1
  9
$ENDCAPS
280
     0
  9
$JOINSTYLE
280
     0
  9
$LWDISPLAY
290
     0
  9
$INSUNITS
 70
     0
  9
$HYPERLINKBASE
  1

  9
$STYLESHEET
  1

  9
$XEDIT
290
     1
  9
$CEPSNTYPE
380
     0
  9
$PSTYLEMODE
290
     1
  9
$FINGERPRINTGUID
  2
{0AE0CF63-D1C7-11D5-923F-00805F198AD5}
  9
$VERSIONGUID
  2
{0AE0CF65-D1C7-11D5-923F-00805F198AD5}
  9
$EXTNAMES
290
     1
  9
$PSVPSCALE
 40
0.0
  9
$OLESTARTUP
290
     0
  0
ENDSEC
  0
SECTION
  2
CLASSES
  0
CLASS
  1
LWPOLYLINE
  2
AcDbPolyline
  3
AutoCAD 2000
 90
        0
280
     0
281
     1
  0
CLASS
  1
IMAGE
  2
AcDbRasterImage
  3
ISM
 90
      127
280
     0
281
     1
  0
CLASS
  1
OLE2FRAME
  2
AcDbOle2Frame
  3
AutoCAD 2000
 90
        0
280
     0
281
     1
  0
CLASS
  1
HATCH
  2
AcDbHatch
  3
AutoCAD 2000
 90
        0
280
     0
281
     1
  0
CLASS
  1
DICTIONARYVAR
  2
AcDbDictionaryVar
  3
AutoCAD 2000
 90
        0
280
     0
281
     0
  0
CLASS
  1
RASTERVARIABLES
  2
AcDbRasterVariables
  3
ISM
 90
        0
280
     0
281
     0
  0
CLASS
  1
IMAGEDEF
  2
AcDbRasterImageDef
  3
ISM
 90
        0
280
     0
281
     0
  0
CLASS
  1
IMAGEDEF_REACTOR
  2
AcDbRasterImageDefReactor
  3
ISM
 90
        1
280
     0
281
     0
  0
CLASS
  1
IDBUFFER
  2
AcDbIdBuffer
  3
AutoCAD 2000
 90
        0
280
     0
281
     0
  0
CLASS
  1
SPATIAL_FILTER
  2
AcDbSpatialFilter
  3
AutoCAD 2000
 90
        0
280
     0
281
     0
  0
CLASS
  1
XRECORD
  2
AcDbXrecord
  3
AutoCAD 2000
 90
        0
280
     0
281
     0
  0
CLASS
  1
SORTENTSTABLE
  2
AcDbSortentsTable
  3
AutoCAD 2000
 90
        0
280
     0
281
     0
  0
CLASS
  1
LAYER_INDEX
  2
AcDbLayerIndex
  3
AutoCAD 2000
 90
        0
280
     0
281
     0
  0
CLASS
  1
SPATIAL_INDEX
  2
AcDbSpatialIndex
  3
AutoCAD 2000
 90
        0
280
     0
281
     0
  0
CLASS
  1
OBJECT_PTR
  2
CAseDLPNTableRecord
  3
ASE-LPNTableRecord
 90
        1
280
     1
281
     0
  0
CLASS
  1
LAYOUT
  2
AcDbLayout
  3
ObjectDBX Classes
 90
        0
280
     0
281
     0
  0
CLASS
  1
PLOTSETTINGS
  2
AcDbPlotSettings
  3
AutoCAD 2000
 90
        0
280
     0
281
     0
  0
CLASS
  1
ACDBDICTIONARYWDFLT
  2
AcDbDictionaryWithDefault
  3
AutoCAD 2000
 90
        0
280
     0
281
     0
  0
CLASS
  1
ACDBPLACEHOLDER
  2
AcDbPlaceHolder
  3
ObjectDBX Classes
 90
        0
280
     0
281
     0
  0
CLASS
  1
VBAPROJECT
  2
AcDbVbaProject
  3
ObjectDBX Classes
 90
        0
280
     0
281
     0
  0
CLASS
  1
WIPEOUT
  2
AcDbWipeout
  3
WipeOut|AutoCAD Express Tool|expresstools@autodesk.com
 90
      127
280
     0
281
     1
  0
CLASS
  1
WIPEOUTVARIABLES
  2
AcDbWipeoutVariables
  3
WipeOut|AutoCAD Express Tool|expresstools@autodesk.com
 90
        0
280
     0
281
     0
  0
CLASS
  1
RTEXT
  2
RText
  3
RText|AutoCAD Express Tool|expresstools@autodesk.com
 90
        0
280
     0
281
     1
  0
CLASS
  1
ARCALIGNEDTEXT
  2
AcDbArcAlignedText
  3
ATEXT|AutoCAD Express Tool|expresstools@autodesk.com
 90
        0
280
     0
281
     1
  0
CLASS
  1
LONG_TRANSACTION
  2
AcDbLongTransaction
  3
AutoCAD 2000
 90
        0
280
     1
281
     0
  0
CLASS
  1
LWPOLYLINE
  2
AcDbPolyline
  3
AutoCAD 2000
 90
        0
280
     0
281
     1
  0
CLASS
  1
HATCH
  2
AcDbHatch
  3
AutoCAD 2000
 90
        0
280
     0
281
     1
  0
CLASS
  1
XRECORD
  2
AcDbXrecord
  3
AutoCAD 2000
 90
        0
280
     0
281
     0
  0
ENDSEC
  0
SECTION
  2
TABLES
  0
TABLE
  2
VPORT
  5
7
330
0
100
AcDbSymbolTable
 70
     2
  0
VPORT
  5
D8
330
7
100
AcDbSymbolTableRecord
100
AcDbViewportTableRecord
  2
*Active
 70
     0
 10
0.0
 20
0.0
 11
1.0
 21
1.0
 12
107.9500002519783
 22
139.7000002607183
 13
0.0
 23
0.0
 14
1.0
 24
1.0
 15
0.0
 25
0.0
 16
0.0
 26
0.0
 36
1.0
 17
0.0
 27
0.0
 37
0.0
 40
113.7480310723266
 41
1.836842105263158
 42
50.0
 43
0.0
 44
0.0
 50
0.0
 51
0.0
 71
     0
 72
   100
 73
     1
 74
     1
 75
     0
 76
     0
 77
     0
 78
     0
281
     0
 65
     1
110
0.0
120
0.0
130
0.0
111
1.0
121
0.0
131
0.0
112
0.0
122
1.0
132
0.0
 79
     0
146
0.0
  0
ENDTAB
  0
TABLE
  2
LTYPE
  5
4
330
0
100
AcDbSymbolTable
 70
     1
  0
LTYPE
  5
11
330
4
100
AcDbSymbolTableRecord
100
AcDbLinetypeTableRecord
  2
BYBLOCK
 70
     0
  3

 72
    65
 73
     0
 40
0.0
  0
LTYPE
  5
12
330
4
100
AcDbSymbolTableRecord
100
AcDbLinetypeTableRecord
  2
BYLAYER
 70
     0
  3

 72
    65
 73
     0
 40
0.0
  0
LTYPE
  5
13
330
4
100
AcDbSymbolTableRecord
100
AcDbLinetypeTableRecord
  2
CONTINUOUS
 70
     0
  3
Solid line
 72
    65
 73
     0
 40
0.0
  0
ENDTAB
  0
TABLE
  2
LAYER
  5
2
330
0
100
AcDbSymbolTable
 70
     2
  0
LAYER
  5
14
330
2
100
AcDbSymbolTableRecord
100
AcDbLayerTableRecord
  2
0
 70
     0
 62
     7
  6
CONTINUOUS
370
    -3
390
0
  0
LAYER
  5
21
330
2
100
AcDbSymbolTableRecord
100
AcDbLayerTableRecord
  2
LAYER_1
 70
     0
 62
     5
  6
CONTINUOUS
370
    -3
390
0
  0
ENDTAB
  0
TABLE
  2
STYLE
  5
3
330
0
100
AcDbSymbolTable
 70
     5
  0
STYLE
  5
17
330
3
100
AcDbSymbolTableRecord
100
AcDbTextStyleTableRecord
  2
STANDARD
 70
     0
 40
0.0
 41
1.0
 50
0.0
 71
     0
 42
0.2
  3
txt
  4

  0
STYLE
  5
1D
330
3
100
AcDbSymbolTableRecord
100
AcDbTextStyleTableRecord
  2
STD
 70
     0
 40
0.0
 41
1.0
 50
0.0
 71
     0
 42
0.2
  3
txt
  4

  0
STYLE
  5
1E
330
3
100
AcDbSymbolTableRecord
100
AcDbTextStyleTableRecord
  2
TATESTD
 70
     4
 40
0.0
 41
1.0
 50
0.0
 71
     0
 42
0.2
  3
txt
  4

  0
STYLE
  5
1F
330
3
100
AcDbSymbolTableRecord
100
AcDbTextStyleTableRecord
  2
KANJISTD
 70
     0
 40
0.0
 41
1.0
 50
0.0
 71
     0
 42
0.2
  3
txt
  4
extfont
  0
STYLE
  5
20
330
3
100
AcDbSymbolTableRecord
100
AcDbTextStyleTableRecord
  2
KANJITATE
 70
     4
 40
0.0
 41
1.0
 50
0.0
 71
     0
 42
0.2
  3
txt
  4
extfont
  0
ENDTAB
  0
TABLE
  2
VIEW
  5
5
330
0
100
AcDbSymbolTable
 70
     0
  0
ENDTAB
  0
TABLE
  2
UCS
  5
6
330
0
100
AcDbSymbolTable
 70
     0
  0
ENDTAB
  0
TABLE
  2
APPID
  5
8
330
0
100
AcDbSymbolTable
 70
     1
  0
APPID
  5
16
330
8
100
AcDbSymbolTableRecord
100
AcDbRegAppTableRecord
  2
ACAD
 70
     0
  0
ENDTAB
  0
TABLE
  2
DIMSTYLE
  5
9
330
0
100
AcDbSymbolTable
 70
     1
100
AcDbDimStyleTable
  0
DIMSTYLE
105
18
330
9
100
AcDbSymbolTableRecord
100
AcDbDimStyleTableRecord
  2
STANDARD
 70
     0
  3

  4

289
     0
340
17
  0
ENDTAB
  0
TABLE
  2
BLOCK_RECORD
  5
1
330
0
100
AcDbSymbolTable
 70
     4
  0
BLOCK_RECORD
  5
A
330
1
100
AcDbSymbolTableRecord
100
AcDbBlockTableRecord
  2
*MODEL_SPACE
340
D3
  0
BLOCK_RECORD
  5
B
330
1
100
AcDbSymbolTableRecord
100
AcDbBlockTableRecord
  2
*PAPER_SPACE
340
D4
  0
BLOCK_RECORD
  5
5A
330
1
100
AcDbSymbolTableRecord
100
AcDbBlockTableRecord
  2
AI9-BLK1
340
0
102
{BLKREFS
331
5B
102
}
  0
BLOCK_RECORD
  5
82
330
1
100
AcDbSymbolTableRecord
100
AcDbBlockTableRecord
  2
AI9-BLK2
340
0
102
{BLKREFS
331
83
102
}
  0
BLOCK_RECORD
  5
99
330
1
100
AcDbSymbolTableRecord
100
AcDbBlockTableRecord
  2
AI9-BLK3
340
0
102
{BLKREFS
331
9A
102
}
  0
BLOCK_RECORD
  5
AC
330
1
100
AcDbSymbolTableRecord
100
AcDbBlockTableRecord
  2
AI9-BLK4
340
0
102
{BLKREFS
331
AD
102
}
  0
ENDTAB
  0
ENDSEC
  0
SECTION
  2
BLOCKS
  0
BLOCK
  5
D
330
A
100
AcDbEntity
  8
0
100
AcDbBlockBegin
  2
*MODEL_SPACE
 70
     0
 10
0.0
 20
0.0
 30
0.0
  3
*MODEL_SPACE
  1

  4

  0
ENDBLK
  5
E
330
A
100
AcDbEntity
  8
0
100
AcDbBlockEnd
  0
BLOCK
  5
F
330
B
100
AcDbEntity
 67
     1
  8
0
100
AcDbBlockBegin
  2
*PAPER_SPACE
 70
     0
 10
0.0
 20
0.0
 30
0.0
  3
*PAPER_SPACE
  1

  4

  0
ENDBLK
  5
10
330
B
100
AcDbEntity
 67
     1
  8
0
100
AcDbBlockEnd
  0
BLOCK
  5
5C
330
5A
100
AcDbEntity
  8
LAYER_1
 62
     7
100
AcDbBlockBegin
  2
AI9-BLK1
 70
     0
 10
0.0
 20
0.0
 30
0.0
  3
AI9-BLK1
  1

  4

  0
SPLINE
  5
80
330
5A
100
AcDbEntity
  8
LAYER_1
 62
     7
100
AcDbSpline
210
0.0
220
0.0
230
1.0
 70
    11
 71
     3
 72
   107
 73
   103
 74
     0
 42
0.0000000001
 43
0.0000000001
 40
0.0
 40
0.0
 40
0.0
 40
0.0
 40
1.0
 40
1.0
 40
1.0
 40
2.0
 40
2.0
 40
2.0
 40
3.0
 40
3.0
 40
3.0
 40
4.0
 40
4.0
 40
4.0
 40
5.0
 40
5.0
 40
5.0
 40
6.0
 40
6.0
 40
6.0
 40
7.0
 40
7.0
 40
7.0
 40
8.0
 40
8.0
 40
8.0
 40
9.0
 40
9.0
 40
9.0
 40
10.0
 40
10.0
 40
10.0
 40
11.0
 40
11.0
 40
11.0
 40
12.0
 40
12.0
 40
12.0
 40
13.0
 40
13.0
 40
13.0
 40
14.0
 40
14.0
 40
14.0
 40
15.0
 40
15.0
 40
15.0
 40
16.0
 40
16.0
 40
16.0
 40
17.0
 40
17.0
 40
17.0
 40
18.0
 40
18.0
 40
18.0
 40
19.0
 40
19.0
 40
19.0
 40
20.0
 40
20.0
 40
20.0
 40
21.0
 40
21.0
 40
21.0
 40
22.0
 40
22.0
 40
22.0
 40
23.0
 40
23.0
 40
23.0
 40
24.0
 40
24.0
 40
24.0
 40
25.0
 40
25.0
 40
25.0
 40
26.0
 40
26.0
 40
26.0
 40
27.0
 40
27.0
 40
27.0
 40
28.0
 40
28.0
 40
28.0
 40
29.0
 40
29.0
 40
29.0
 40
30.0
 40
30.0
 40
30.0
 40
31.0
 40
31.0
 40
31.0
 40
32.0
 40
32.0
 40
32.0
 40
33.0
 40
33.0
 40
33.0
 40
34.0
 40
34.0
 40
34.0
 40
34.0
 10
11.14763997395833
 20
-33.15379028320312
 30
0.0
 10
11.14763997395833
 20
-33.15379028320312
 30
0.0
 10
11.15487467447917
 20
45.44451293945312
 30
0.0
 10
11.15487467447917
 20
45.44451293945312
 30
0.0
 10
11.15487467447917
 20
45.44451293945312
 30
0.0
 10
18.54512125651042
 20
45.44451293945312
 30
0.0
 10
18.54512125651042
 20
45.44451293945312
 30
0.0
 10
18.54512125651042
 20
45.44451293945312
 30
0.0
 10
18.54512125651042
 20
-26.06171671549479
 30
0.0
 10
18.54512125651042
 20
-26.06171671549479
 30
0.0
 10
18.54512125651042
 20
-26.06171671549479
 30
0.0
 10
14.73501790364583
 20
-31.63553670247396
 30
0.0
 10
14.73501790364583
 20
-31.63553670247396
 30
0.0
 10
14.73501790364583
 20
-31.63553670247396
 30
0.0
 10
12.87725016276042
 20
-31.63553670247396
 30
0.0
 10
12.87725016276042
 20
-31.63553670247396
 30
0.0
 10
12.87725016276042
 20
-31.63553670247396
 30
0.0
 10
12.87725016276042
 20
-41.82664591471354
 30
0.0
 10
12.87725016276042
 20
-41.82664591471354
 30
0.0
 10
12.87725016276042
 20
-42.55890096028646
 30
0.0
 10
12.40337727864583
 20
-42.78369344075521
 30
0.0
 10
12.00908610026042
 20
-42.78369344075521
 30
0.0
 10
12.00908610026042
 20
-42.78369344075521
 30
0.0
 10
12.00908610026042
 20
-43.87251586914062
 30
0.0
 10
12.00908610026042
 20
-43.87251586914062
 30
0.0
 10
12.00908610026042
 20
-45.03626912434896
 30
0.0
 10
11.54916585286458
 20
-45.44451293945312
 30
0.0
 10
10.40453287760417
 20
-45.44451293945312
 30
0.0
 10
10.40453287760417
 20
-45.44451293945312
 30
0.0
 10
-10.42778727213542
 20
-45.44451293945312
 30
0.0
 10
-10.42778727213542
 20
-45.44451293945312
 30
0.0
 10
-11.57293701171875
 20
-45.44451293945312
 30
0.0
 10
-12.03285725911458
 20
-45.03626912434896
 30
0.0
 10
-12.03285725911458
 20
-43.87251586914062
 30
0.0
 10
-12.03285725911458
 20
-43.87251586914062
 30
0.0
 10
-12.03285725911458
 20
-42.78834431966146
 30
0.0
 10
-12.03285725911458
 20
-42.78834431966146
 30
0.0
 10
-12.42663167317708
 20
-42.78834431966146
 30
0.0
 10
-12.87725016276042
 20
-42.55890096028646
 30
0.0
 10
-12.87725016276042
 20
-41.82664591471354
 30
0.0
 10
-12.87725016276042
 20
-41.82664591471354
 30
0.0
 10
-12.87725016276042
 20
-31.63553670247396
 30
0.0
 10
-12.87725016276042
 20
-31.63553670247396
 30
0.0
 10
-12.87725016276042
 20
-31.63553670247396
 30
0.0
 10
-14.73553466796875
 20
-31.63553670247396
 30
0.0
 10
-14.73553466796875
 20
-31.63553670247396
 30
0.0
 10
-14.73553466796875
 20
-31.63553670247396
 30
0.0
 10
-18.54512125651042
 20
-26.06171671549479
 30
0.0
 10
-18.54512125651042
 20
-26.06171671549479
 30
0.0
 10
-18.54512125651042
 20
-26.06171671549479
 30
0.0
 10
-18.54512125651042
 20
45.44451293945312
 30
0.0
 10
-18.54512125651042
 20
45.44451293945312
 30
0.0
 10
-18.54512125651042
 20
45.44451293945312
 30
0.0
 10
-11.15539143880208
 20
45.44451293945312
 30
0.0
 10
-11.15539143880208
 20
45.44451293945312
 30
0.0
 10
-11.15539143880208
 20
45.44451293945312
 30
0.0
 10
-11.155908203125
 20
-33.18737996419271
 30
0.0
 10
-11.155908203125
 20
-33.18737996419271
 30
0.0
 10
-10.95281982421875
 20
-33.13932088216146
 30
0.0
 10
-10.71355794270833
 20
-33.11813354492188
 30
0.0
 10
-10.42778727213542
 20
-33.11813354492188
 30
0.0
 10
-10.42778727213542
 20
-33.11813354492188
 30
0.0
 10
-6.852811686197916
 20
-33.11813354492188
 30
0.0
 10
-6.852811686197916
 20
-33.11813354492188
 30
0.0
 10
-6.852811686197916
 20
-33.11813354492188
 30
0.0
 10
-6.852811686197916
 20
-33.91550089518229
 30
0.0
 10
-6.852811686197916
 20
-33.91550089518229
 30
0.0
 10
-6.852811686197916
 20
-33.91550089518229
 30
0.0
 10
-10.51253662109375
 20
-33.91550089518229
 30
0.0
 10
-10.51253662109375
 20
-33.91550089518229
 30
0.0
 10
-11.019482421875
 20
-33.91550089518229
 30
0.0
 10
-11.15539143880208
 20
-34.11290486653645
 30
0.0
 10
-11.15539143880208
 20
-34.50719604492187
 30
0.0
 10
-11.15539143880208
 20
-34.50719604492187
 30
0.0
 10
-11.15332438151042
 20
-43.90972290039062
 30
0.0
 10
-11.15332438151042
 20
-43.90972290039062
 30
0.0
 10
-11.15332438151042
 20
-44.44509073893229
 30
0.0
 10
-11.019482421875
 20
-44.67660115559895
 30
0.0
 10
-10.42778727213542
 20
-44.67660115559895
 30
0.0
 10
-10.42778727213542
 20
-44.67660115559895
 30
0.0
 10
10.43243815104167
 20
-44.67918497721354
 30
0.0
 10
10.43243815104167
 20
-44.67918497721354
 30
0.0
 10
10.883056640625
 20
-44.67918497721354
 30
0.0
 10
11.14557291666667
 20
-44.44509073893229
 30
0.0
 10
11.14557291666667
 20
-43.90972290039062
 30
0.0
 10
11.14557291666667
 20
-43.90972290039062
 30
0.0
 10
11.14557291666667
 20
-34.59142862955729
 30
0.0
 10
11.14557291666667
 20
-34.59142862955729
 30
0.0
 10
11.14557291666667
 20
-34.14132690429688
 30
0.0
 10
11.02361653645833
 20
-33.91550089518229
 30
0.0
 10
10.46086018880208
 20
-33.91550089518229
 30
0.0
 10
10.46086018880208
 20
-33.91550089518229
 30
0.0
 10
6.829040527343749
 20
-33.91550089518229
 30
0.0
 10
6.829040527343749
 20
-33.91550089518229
 30
0.0
 10
6.829040527343749
 20
-33.91550089518229
 30
0.0
 10
6.829040527343749
 20
-33.11813354492188
 30
0.0
 10
6.829040527343749
 20
-33.11813354492188
 30
0.0
 10
6.829040527343749
 20
-33.11813354492188
 30
0.0
 10
10.40453287760417
 20
-33.11813354492188
 30
0.0
 10
10.40453287760417
 20
-33.11813354492188
 30
0.0
 10
10.69288736979167
 20
-33.11813354492188
 30
0.0
 10
10.94300130208333
 20
-33.10418090820312
 30
0.0
 10
11.14763997395833
 20
-33.15379028320312
 30
0.0
  0
SPLINE
  5
7F
330
5A
100
AcDbEntity
  8
LAYER_1
 62
     7
100
AcDbSpline
210
0.0
220
0.0
230
1.0
 70
     8
 71
     3
 72
    11
 73
     7
 74
     0
 42
0.0000000001
 43
0.0000000001
 40
0.0
 40
0.0
 40
0.0
 40
0.0
 40
1.0
 40
1.0
 40
1.0
 40
2.0
 40
2.0
 40
2.0
 40
2.0
 10
10.40453287760417
 20
-33.11813354492188
 30
0.0
 10
11.55846761067708
 20
-33.11813354492188
 30
0.0
 10
12.03750813802083
 20
-33.39977010091145
 30
0.0
 10
12.03750813802083
 20
-34.6012471516927
 30
0.0
 10
12.03750813802083
 20
-34.6012471516927
 30
0.0
 10
12.03750813802083
 20
-42.78369344075521
 30
0.0
 10
12.03750813802083
 20
-42.78369344075521
 30
0.0
  0
LINE
  5
7E
330
5A
100
AcDbEntity
  8
LAYER_1
 62
     7
100
AcDbLine
 10
-12.03285725911458
 20
-34.6012471516927
 30
0.0
 11
-12.03285725911458
 21
-42.78834431966146
 31
0.0
  0
SPLINE
  5
7D
330
5A
100
AcDbEntity
  8
LAYER_1
 62
     7
100
AcDbSpline
210
0.0
220
0.0
230
1.0
 70
     8
 71
     3
 72
    11
 73
     7
 74
     0
 42
0.0000000001
 43
0.0000000001
 40
0.0
 40
0.0
 40
0.0
 40
0.0
 40
1.0
 40
1.0
 40
1.0
 40
2.0
 40
2.0
 40
2.0
 40
2.0
 10
-10.42778727213542
 20
-33.11813354492188
 30
0.0
 10
-10.71355794270833
 20
-33.11813354492188
 30
0.0
 10
-10.95592041015625
 20
-33.13932088216146
 30
0.0
 10
-11.1590087890625
 20
-33.18737996419271
 30
0.0
 10
-11.77757568359375
 20
-33.33465779622396
 30
0.0
 10
-12.03285725911458
 20
-33.7392842610677
 30
0.0
 10
-12.03285725911458
 20
-34.6012471516927
 30
0.0
  0
LINE
  5
7C
330
5A
100
AcDbEntity
  8
LAYER_1
 62
     7
100
AcDbLine
 10
-12.03285725911458
 20
45.4067891438802
 30
0.0
 11
-12.03285725911458
 21
-34.16923217773437
 31
0.0
  0
SPLINE
  5
7B
330
5A
100
AcDbEntity
  8
LAYER_1
 62
     7
100
AcDbSpline
210
0.0
220
0.0
230
1.0
 70
     8
 71
     3
 72
    11
 73
     7
 74
     0
 42
0.0000000001
 43
0.0000000001
 40
0.0
 40
0.0
 40
0.0
 40
0.0
 40
1.0
 40
1.0
 40
1.0
 40
2.0
 40
2.0
 40
2.0
 40
2.0
 10
-12.87725016276042
 20
-31.69186401367187
 30
0.0
 10
-12.87725016276042
 20
-31.69186401367187
 30
0.0
 10
-12.87725016276042
 20
-25.96198120117187
 30
0.0
 10
-12.87725016276042
 20
-25.96198120117187
 30
0.0
 10
-12.87725016276042
 20
-25.23024291992187
 30
0.0
 10
-12.42663167317708
 20
-25.00493367513021
 30
0.0
 10
-12.03285725911458
 20
-25.00493367513021
 30
0.0
  0
LWPOLYLINE
  5
75
330
5A
100
AcDbEntity
  8
LAYER_1
 62
     7
100
AcDbPolyline
 90
        4
 70
     1
 43
0.0
 10
-7.661547851562499
 20
-33.10728149414062
 10
-7.661547851562499
 20
-32.51041870117187
 10
-10.07897135416667
 20
-32.51041870117187
 10
-10.07897135416667
 20
-33.10728149414062
  0
LWPOLYLINE
  5
6F
330
5A
100
AcDbEntity
  8
LAYER_1
 62
     7
100
AcDbPolyline
 90
        4
 70
     1
 43
0.0
 10
10.18645833333333
 20
-33.10728149414062
 10
10.18645833333333
 20
-32.51041870117187
 10
7.769551595052083
 20
-32.51041870117187
 10
7.769551595052083
 20
-33.10728149414062
  0
CIRCLE
  5
6E
330
5A
100
AcDbEntity
  8
LAYER_1
 62
     7
100
AcDbCircle
 10
-15.93649495442708
 20
-24.74784342447916
 30
0.0
 40
0.9025288899739583
  0
CIRCLE
  5
6D
330
5A
100
AcDbEntity
  8
LAYER_1
 62
     7
100
AcDbCircle
 10
-15.93649495442708
 20
-13.44956665039062
 30
0.0
 40
0.9022705078125
  0
CIRCLE
  5
6C
330
5A
100
AcDbEntity
  8
LAYER_1
 62
     7
100
AcDbCircle
 10
-15.93649495442708
 20
-2.151289876302083
 30
0.0
 40
0.9025288899739583
  0
SPLINE
  5
6B
330
5A
100
AcDbEntity
  8
LAYER_1
 62
     7
100
AcDbSpline
210
0.0
220
0.0
230
1.0
 70
     8
 71
     3
 72
    11
 73
     7
 74
     0
 42
0.0000000001
 43
0.0000000001
 40
0.0
 40
0.0
 40
0.0
 40
0.0
 40
1.0
 40
1.0
 40
1.0
 40
2.0
 40
2.0
 40
2.0
 40
2.0
 10
-12.135693359375
 20
-8.596632893880207
 30
0.0
 10
-12.63437093098958
 20
-8.596632893880207
 30
0.0
 10
-13.03848063151042
 20
-9.000742594401041
 30
0.0
 10
-13.03848063151042
 20
-9.498903401692708
 30
0.0
 10
-13.03848063151042
 20
-9.997064208984375
 30
0.0
 10
-12.63437093098958
 20
-10.40117390950521
 30
0.0
 10
-12.135693359375
 20
-10.40117390950521
 30
0.0
  0
CIRCLE
  5
6A
330
5A
100
AcDbEntity
  8
LAYER_1
 62
     7
100
AcDbCircle
 10
-15.93649495442708
 20
9.147245279947915
 30
0.0
 40
0.9025288899739583
  0
CIRCLE
  5
69
330
5A
100
AcDbEntity
  8
LAYER_1
 62
     7
100
AcDbCircle
 10
-15.93649495442708
 20
20.44552205403646
 30
0.0
 40
0.9022705078125
  0
CIRCLE
  5
68
330
5A
100
AcDbEntity
  8
LAYER_1
 62
     7
100
AcDbCircle
 10
-15.93649495442708
 20
31.743798828125
 30
0.0
 40
0.9025288899739583
  0
CIRCLE
  5
67
330
5A
100
AcDbEntity
  8
LAYER_1
 62
     7
100
AcDbCircle
 10
-15.93649495442708
 20
43.04207560221354
 30
0.0
 40
0.9022705078125
  0
LINE
  5
66
330
5A
100
AcDbEntity
  8
LAYER_1
 62
     7
100
AcDbLine
 10
12.03234049479167
 20
45.4067891438802
 30
0.0
 11
12.03234049479167
 21
-34.77487996419271
 31
0.0
  0
SPLINE
  5
65
330
5A
100
AcDbEntity
  8
LAYER_1
 62
     7
100
AcDbSpline
210
0.0
220
0.0
230
1.0
 70
     8
 71
     3
 72
    11
 73
     7
 74
     0
 42
0.0000000001
 43
0.0000000001
 40
0.0
 40
0.0
 40
0.0
 40
0.0
 40
1.0
 40
1.0
 40
1.0
 40
2.0
 40
2.0
 40
2.0
 40
2.0
 10
12.87725016276042
 20
-31.69186401367187
 30
0.0
 10
12.87725016276042
 20
-31.69186401367187
 30
0.0
 10
12.87725016276042
 20
-25.96198120117187
 30
0.0
 10
12.87725016276042
 20
-25.96198120117187
 30
0.0
 10
12.87725016276042
 20
-25.23024291992187
 30
0.0
 10
12.42663167317708
 20
-25.00493367513021
 30
0.0
 10
12.03234049479167
 20
-25.00493367513021
 30
0.0
  0
CIRCLE
  5
64
330
5A
100
AcDbEntity
  8
LAYER_1
 62
     7
100
AcDbCircle
 10
15.93649495442708
 20
-24.74784342447916
 30
0.0
 40
0.9025288899739583
  0
CIRCLE
  5
63
330
5A
100
AcDbEntity
  8
LAYER_1
 62
     7
100
AcDbCircle
 10
15.93649495442708
 20
-13.44956665039062
 30
0.0
 40
0.9022705078125
  0
CIRCLE
  5
62
330
5A
100
AcDbEntity
  8
LAYER_1
 62
     7
100
AcDbCircle
 10
15.93649495442708
 20
-2.151289876302083
 30
0.0
 40
0.9025288899739583
  0
SPLINE
  5
61
330
5A
100
AcDbEntity
  8
LAYER_1
 62
     7
100
AcDbSpline
210
0.0
220
0.0
230
1.0
 70
     8
 71
     3
 72
    11
 73
     7
 74
     0
 42
0.0000000001
 43
0.0000000001
 40
0.0
 40
0.0
 40
0.0
 40
0.0
 40
1.0
 40
1.0
 40
1.0
 40
2.0
 40
2.0
 40
2.0
 40
2.0
 10
12.135693359375
 20
-8.596632893880207
 30
0.0
 10
12.63437093098958
 20
-8.596632893880207
 30
0.0
 10
13.0379638671875
 20
-9.000742594401041
 30
0.0
 10
13.0379638671875
 20
-9.498903401692708
 30
0.0
 10
13.0379638671875
 20
-9.997064208984375
 30
0.0
 10
12.63437093098958
 20
-10.40117390950521
 30
0.0
 10
12.135693359375
 20
-10.40117390950521
 30
0.0
  0
CIRCLE
  5
60
330
5A
100
AcDbEntity
  8
LAYER_1
 62
     7
100
AcDbCircle
 10
15.93649495442708
 20
9.147245279947915
 30
0.0
 40
0.9025288899739583
  0
CIRCLE
  5
5F
330
5A
100
AcDbEntity
  8
LAYER_1
 62
     7
100
AcDbCircle
 10
15.93649495442708
 20
20.44552205403646
 30
0.0
 40
0.9022705078125
  0
CIRCLE
  5
5E
330
5A
100
AcDbEntity
  8
LAYER_1
 62
     7
100
AcDbCircle
 10
15.93649495442708
 20
31.743798828125
 30
0.0
 40
0.9025288899739583
  0
CIRCLE
  5
5D
330
5A
100
AcDbEntity
  8
LAYER_1
 62
     7
100
AcDbCircle
 10
15.93649495442708
 20
43.04207560221354
 30
0.0
 40
0.9022705078125
  0
ENDBLK
  5
81
330
5A
100
AcDbEntity
  8
LAYER_1
100
AcDbBlockEnd
  0
BLOCK
  5
84
330
82
100
AcDbEntity
  8
LAYER_1
 62
     7
100
AcDbBlockBegin
  2
AI9-BLK2
 70
     0
 10
0.0
 20
0.0
 30
0.0
  3
AI9-BLK2
  1

  4

  0
SPLINE
  5
91
330
82
100
AcDbEntity
  8
LAYER_1
 62
     7
100
AcDbSpline
210
0.0
220
0.0
230
1.0
 70
     8
 71
     3
 72
    14
 73
    10
 74
     0
 42
0.0000000001
 43
0.0000000001
 40
0.0
 40
0.0
 40
0.0
 40
0.0
 40
1.0
 40
1.0
 40
1.0
 40
2.0
 40
2.0
 40
2.0
 40
3.0
 40
3.0
 40
3.0
 40
3.0
 10
2.015553114149305
 20
-1.410422092013889
 30
0.0
 10
2.614999728732639
 20
-1.296217176649305
 30
0.0
 10
3.093523491753472
 20
-1.185629611545139
 30
0.0
 10
3.355006239149305
 20
-1.087444390190972
 30
0.0
 10
4.556483289930555
 20
-0.6368259006076389
 30
0.0
 10
6.958403862847222
 20
-0.4869642469618055
 30
0.0
 10
7.934571668836805
 20
-0.2993787977430555
 30
0.0
 10
8.910739474826388
 20
-0.1117933485243055
 30
0.0
 10
11.08735080295139
 20
0.6767890082465278
 30
0.0
 10
11.08735080295139
 20
0.6767890082465278
 30
0.0
  0
SPLINE
  5
90
330
82
100
AcDbEntity
  8
LAYER_1
 62
     7
100
AcDbSpline
210
0.0
220
0.0
230
1.0
 70
     8
 71
     3
 72
    11
 73
     7
 74
     0
 42
0.0000000001
 43
0.0000000001
 40
0.0
 40
0.0
 40
0.0
 40
0.0
 40
1.0
 40
1.0
 40
1.0
 40
2.0
 40
2.0
 40
2.0
 40
2.0
 10
-11.13351508246528
 20
-3.752398003472222
 30
0.0
 10
-9.557383897569444
 20
-3.639743381076388
 30
0.0
 10
-5.653229437934027
 20
-2.476506890190972
 30
0.0
 10
-4.639854600694444
 20
-2.363852267795139
 30
0.0
 10
-4.270884874131944
 20
-2.322511121961806
 30
0.0
 10
-3.268362087673611
 20
-2.202105034722222
 30
0.0
 10
-2.084971788194444
 20
-2.042941623263889
 30
0.0
  0
SPLINE
  5
8F
330
82
100
AcDbEntity
  8
LAYER_1
 62
     7
100
AcDbSpline
210
0.0
220
0.0
230
1.0
 70
     8
 71
     3
 72
    14
 73
    10
 74
     0
 42
0.0000000001
 43
0.0000000001
 40
0.0
 40
0.0
 40
0.0
 40
0.0
 40
1.0
 40
1.0
 40
1.0
 40
2.0
 40
2.0
 40
2.0
 40
3.0
 40
3.0
 40
3.0
 40
3.0
 10
1.975762261284722
 20
-2.592262098524305
 30
0.0
 10
2.586577690972222
 20
-2.451185438368055
 30
0.0
 10
3.080604383680555
 20
-2.320960828993055
 30
0.0
 10
3.355006239149305
 20
-2.218124728732639
 30
0.0
 10
4.556483289930555
 20
-1.768023003472222
 30
0.0
 10
6.958403862847222
 20
-1.617644585503472
 30
0.0
 10
7.934571668836805
 20
-1.430059136284722
 30
0.0
 10
8.910739474826388
 20
-1.242473687065972
 30
0.0
 10
11.08735080295139
 20
-0.4538913302951388
 30
0.0
 10
11.08735080295139
 20
-0.4538913302951388
 30
0.0
  0
SPLINE
  5
8E
330
82
100
AcDbEntity
  8
LAYER_1
 62
     7
100
AcDbSpline
210
0.0
220
0.0
230
1.0
 70
     8
 71
     3
 72
    11
 73
     7
 74
     0
 42
0.0000000001
 43
0.0000000001
 40
0.0
 40
0.0
 40
0.0
 40
0.0
 40
1.0
 40
1.0
 40
1.0
 40
2.0
 40
2.0
 40
2.0
 40
2.0
 10
-9.29435085720486
 20
-5.403976779513888
 30
0.0
 10
-7.71770290798611
 20
-5.291322157118055
 30
0.0
 10
-5.278058539496527
 20
-3.865052625868055
 30
0.0
 10
-4.264683702256944
 20
-3.752398003472222
 30
0.0
 10
-3.920001898871528
 20
-3.714157443576389
 30
0.0
 10
-3.068374294704861
 20
-3.576698133680555
 30
0.0
 10
-2.046731228298611
 20
-3.394280327690972
 30
0.0
  0
SPLINE
  5
8D
330
82
100
AcDbEntity
  8
LAYER_1
 62
     7
100
AcDbSpline
210
0.0
220
0.0
230
1.0
 70
     8
 71
     3
 72
    14
 73
    10
 74
     0
 42
0.0000000001
 43
0.0000000001
 40
0.0
 40
0.0
 40
0.0
 40
0.0
 40
1.0
 40
1.0
 40
1.0
 40
2.0
 40
2.0
 40
2.0
 40
3.0
 40
3.0
 40
3.0
 40
3.0
 10
2.048109266493055
 20
-3.672299533420139
 30
0.0
 10
3.307980685763889
 20
-3.416501193576389
 30
0.0
 10
4.442278374565972
 20
-3.156568739149305
 30
0.0
 10
4.917701551649305
 20
-2.978285047743055
 30
0.0
 10
6.118661838107639
 20
-2.528183322482639
 30
0.0
 10
8.521099175347221
 20
-2.377804904513889
 30
0.0
 10
9.496750217013888
 20
-2.190219455295139
 30
0.0
 10
10.47291802300347
 20
-2.002634006076389
 30
0.0
 10
11.08735080295139
 20
-1.988164605034722
 30
0.0
 10
11.08735080295139
 20
-1.988164605034722
 30
0.0
  0
SPLINE
  5
8C
330
82
100
AcDbEntity
  8
LAYER_1
 62
     7
100
AcDbSpline
210
0.0
220
0.0
230
1.0
 70
     8
 71
     3
 72
    11
 73
     7
 74
     0
 42
0.0000000001
 43
0.0000000001
 40
0.0
 40
0.0
 40
0.0
 40
0.0
 40
1.0
 40
1.0
 40
1.0
 40
2.0
 40
2.0
 40
2.0
 40
2.0
 10
-5.127680121527777
 20
-5.366769748263889
 30
0.0
 10
-3.551548936631944
 20
-5.066529676649306
 30
0.0
 10
-3.715879991319444
 20
-4.625212944878472
 30
0.0
 10
-2.701988389756944
 20
-4.512558322482638
 30
0.0
 10
-2.560911729600694
 20
-4.497055392795138
 30
0.0
 10
-2.334052191840278
 20
-4.464499240451389
 30
0.0
 10
-2.045180935329861
 20
-4.419023980034722
 30
0.0
  0
SPLINE
  5
8B
330
82
100
AcDbEntity
  8
LAYER_1
 62
     7
100
AcDbSpline
210
0.0
220
0.0
230
1.0
 70
     8
 71
     3
 72
    11
 73
     7
 74
     0
 42
0.0000000001
 43
0.0000000001
 40
0.0
 40
0.0
 40
0.0
 40
0.0
 40
1.0
 40
1.0
 40
1.0
 40
2.0
 40
2.0
 40
2.0
 40
2.0
 10
2.003667534722222
 20
-4.953875054253472
 30
0.0
 10
3.017559136284722
 20
-4.841220431857638
 30
0.0
 10
6.390996636284721
 20
-4.212318250868055
 30
0.0
 10
7.591956922743055
 20
-3.762216525607639
 30
0.0
 10
8.471489800347221
 20
-3.432004123263889
 30
0.0
 10
9.994911024305555
 20
-3.263538953993055
 30
0.0
 10
11.13075900607639
 20
-3.122979058159722
 30
0.0
  0
SPLINE
  5
8A
330
82
100
AcDbEntity
  8
LAYER_1
 62
     7
100
AcDbSpline
210
0.0
220
0.0
230
1.0
 70
     8
 71
     3
 72
    11
 73
     7
 74
     0
 42
0.0000000001
 43
0.0000000001
 40
0.0
 40
0.0
 40
0.0
 40
0.0
 40
1.0
 40
1.0
 40
1.0
 40
2.0
 40
2.0
 40
2.0
 40
2.0
 10
6.027194552951388
 20
-5.398809136284722
 30
0.0
 10
7.164076063368055
 20
-5.163164605034722
 30
0.0
 10
8.158847384982638
 20
-4.930103895399305
 30
0.0
 10
8.596030002170139
 20
-4.765772840711805
 30
0.0
 10
9.232683648003471
 20
-4.527027723524305
 30
0.0
 10
10.20678439670139
 20
-4.373031955295138
 30
0.0
 10
11.12662489149306
 20
-4.252625868055556
 30
0.0
  0
SPLINE
  5
89
330
82
100
AcDbEntity
  8
LAYER_1
 62
     7
100
AcDbSpline
210
0.0
220
0.0
230
1.0
 70
     8
 71
     3
 72
    17
 73
    13
 74
     0
 42
0.0000000001
 43
0.0000000001
 40
0.0
 40
0.0
 40
0.0
 40
0.0
 40
1.0
 40
1.0
 40
1.0
 40
2.0
 40
2.0
 40
2.0
 40
3.0
 40
3.0
 40
3.0
 40
4.0
 40
4.0
 40
4.0
 40
4.0
 10
-11.13351508246528
 20
-2.091517469618055
 30
0.0
 10
-9.557383897569444
 20
-1.978862847222222
 30
0.0
 10
-5.653229437934027
 20
-0.8156263563368055
 30
0.0
 10
-4.639854600694444
 20
-0.7029717339409721
 30
0.0
 10
-3.626479763454861
 20
-0.5903171115451389
 30
0.0
 10
1.515842013888889
 20
0.0008612738715278
 30
0.0
 10
3.430453830295138
 20
0.4137559678819444
 30
0.0
 10
4.684124077690972
 20
0.6845404730902778
 30
0.0
 10
6.357923719618055
 20
0.9393052842881944
 30
0.0
 10
7.334091525607638
 20
1.126890733506944
 30
0.0
 10
8.310259331597221
 20
1.314992947048611
 30
0.0
 10
11.08735080295139
 20
1.877749294704861
 30
0.0
 10
11.08735080295139
 20
1.877749294704861
 30
0.0
  0
SPLINE
  5
88
330
82
100
AcDbEntity
  8
LAYER_1
 62
     7
100
AcDbSpline
210
0.0
220
0.0
230
1.0
 70
     8
 71
     3
 72
    17
 73
    13
 74
     0
 42
0.0000000001
 43
0.0000000001
 40
0.0
 40
0.0
 40
0.0
 40
0.0
 40
1.0
 40
1.0
 40
1.0
 40
2.0
 40
2.0
 40
2.0
 40
3.0
 40
3.0
 40
3.0
 40
4.0
 40
4.0
 40
4.0
 40
4.0
 10
-11.13351508246528
 20
-0.0740695529513889
 30
0.0
 10
-9.557383897569444
 20
0.0385850694444444
 30
0.0
 10
-5.653229437934027
 20
0.5501817491319444
 30
0.0
 10
-4.639854600694444
 20
0.6623196072048611
 30
0.0
 10
-3.626479763454861
 20
0.7749742296006944
 30
0.0
 10
1.515842013888889
 20
1.366152615017361
 30
0.0
 10
3.430453830295138
 20
1.779564073350694
 30
0.0
 10
4.684124077690972
 20
2.049831814236111
 30
0.0
 10
6.357923719618055
 20
2.304596625434028
 30
0.0
 10
7.334091525607638
 20
2.492698838975694
 30
0.0
 10
8.310259331597221
 20
2.680284288194444
 30
0.0
 10
11.08735080295139
 20
3.243040635850694
 30
0.0
 10
11.08735080295139
 20
3.243040635850694
 30
0.0
  0
SPLINE
  5
87
330
82
100
AcDbEntity
  8
LAYER_1
 62
     7
100
AcDbSpline
210
0.0
220
0.0
230
1.0
 70
     8
 71
     3
 72
    17
 73
    13
 74
     0
 42
0.0000000001
 43
0.0000000001
 40
0.0
 40
0.0
 40
0.0
 40
0.0
 40
1.0
 40
1.0
 40
1.0
 40
2.0
 40
2.0
 40
2.0
 40
3.0
 40
3.0
 40
3.0
 40
4.0
 40
4.0
 40
4.0
 40
4.0
 10
-11.13351508246528
 20
1.169265407986111
 30
0.0
 10
-9.557383897569444
 20
1.281920030381944
 30
0.0
 10
-5.91626247829861
 20
2.140782335069444
 30
0.0
 10
-4.902887641059027
 20
2.253436957465278
 30
0.0
 10
-3.888996039496528
 20
2.365574815538194
 30
0.0
 10
1.328256564670139
 20
2.966571723090278
 30
0.0
 10
3.242351616753472
 20
3.379466417100694
 30
0.0
 10
4.496538628472222
 20
3.649734157986111
 30
0.0
 10
6.357923719618055
 20
3.548448350694444
 30
0.0
 10
7.334091525607638
 20
3.736033799913194
 30
0.0
 10
8.310259331597221
 20
3.923619249131944
 30
0.0
 10
11.08735080295139
 20
4.486375596788194
 30
0.0
 10
11.08735080295139
 20
4.486375596788194
 30
0.0
  0
SPLINE
  5
86
330
82
100
AcDbEntity
  8
LAYER_1
 62
     7
100
AcDbSpline
210
0.0
220
0.0
230
1.0
 70
     8
 71
     3
 72
    14
 73
    10
 74
     0
 42
0.0000000001
 43
0.0000000001
 40
0.0
 40
0.0
 40
0.0
 40
0.0
 40
1.0
 40
1.0
 40
1.0
 40
2.0
 40
2.0
 40
2.0
 40
3.0
 40
3.0
 40
3.0
 40
3.0
 10
-11.13351508246528
 20
2.483397081163194
 30
0.0
 10
-9.557383897569444
 20
2.595534939236111
 30
0.0
 10
-5.91626247829861
 20
3.454397243923611
 30
0.0
 10
-4.902887641059027
 20
3.567051866319444
 30
0.0
 10
-3.888996039496528
 20
3.679706488715278
 30
0.0
 10
1.328256564670139
 20
4.280186631944444
 30
0.0
 10
3.242351616753472
 20
4.693081325954861
 30
0.0
 10
4.496538628472222
 20
4.963349066840277
 30
0.0
 10
6.320716688368055
 20
5.180906846788194
 30
0.0
 10
7.296367730034722
 20
5.368492296006944
 30
0.0
  0
SPLINE
  5
85
330
82
100
AcDbEntity
  8
LAYER_1
 62
     7
100
AcDbSpline
210
0.0
220
0.0
230
1.0
 70
     8
 71
     3
 72
    11
 73
     7
 74
     0
 42
0.0000000001
 43
0.0000000001
 40
0.0
 40
0.0
 40
0.0
 40
0.0
 40
1.0
 40
1.0
 40
1.0
 40
2.0
 40
2.0
 40
2.0
 40
2.0
 10
-11.13351508246528
 20
3.970644802517361
 30
0.0
 10
-9.557383897569444
 20
4.083299424913194
 30
0.0
 10
-7.605565049913194
 20
4.580426703559027
 30
0.0
 10
-6.591673448350694
 20
4.693081325954861
 30
0.0
 10
-5.57829861111111
 20
4.805735948350694
 30
0.0
 10
-1.712384711371528
 20
4.993321397569444
 30
0.0
 10
0.2022271050347222
 20
5.406216091579861
 30
0.0
  0
ENDBLK
  5
92
330
82
100
AcDbEntity
  8
LAYER_1
100
AcDbBlockEnd
  0
BLOCK
  5
9B
330
99
100
AcDbEntity
  8
LAYER_1
 62
     7
100
AcDbBlockBegin
  2
AI9-BLK3
 70
     0
 10
0.0
 20
0.0
 30
0.0
  3
AI9-BLK3
  1

  4

  0
SPLINE
  5
AA
330
99
100
AcDbEntity
  8
LAYER_1
 62
     7
100
AcDbSpline
210
0.0
220
0.0
230
1.0
 70
    11
 71
     3
 72
    41
 73
    37
 74
     0
 42
0.0000000001
 43
0.0000000001
 40
0.0
 40
0.0
 40
0.0
 40
0.0
 40
1.0
 40
1.0
 40
1.0
 40
2.0
 40
2.0
 40
2.0
 40
3.0
 40
3.0
 40
3.0
 40
4.0
 40
4.0
 40
4.0
 40
5.0
 40
5.0
 40
5.0
 40
6.0
 40
6.0
 40
6.0
 40
7.0
 40
7.0
 40
7.0
 40
8.0
 40
8.0
 40
8.0
 40
9.0
 40
9.0
 40
9.0
 40
10.0
 40
10.0
 40
10.0
 40
11.0
 40
11.0
 40
11.0
 40
12.0
 40
12.0
 40
12.0
 40
12.0
 10
11.15048217773437
 20
45.10930514865451
 30
0.0
 10
11.15048217773437
 20
45.10930514865451
 30
0.0
 10
11.15048217773437
 20
35.79101087782118
 30
0.0
 10
11.15048217773437
 20
35.79101087782118
 30
0.0
 10
11.15048217773437
 20
35.34039238823785
 30
0.0
 10
11.02852579752604
 20
35.11456637912326
 30
0.0
 10
10.46576944986979
 20
35.11456637912326
 30
0.0
 10
10.46576944986979
 20
35.11456637912326
 30
0.0
 10
1.940191650390625
 20
35.11456637912326
 30
0.0
 10
1.940191650390625
 20
35.11456637912326
 30
0.0
 10
1.940191650390625
 20
35.11456637912326
 30
0.0
 10
1.940191650390625
 20
39.92874281141493
 30
0.0
 10
1.940191650390625
 20
39.92874281141493
 30
0.0
 10
1.940191650390625
 20
39.92874281141493
 30
0.0
 10
-2.001169840494792
 20
39.92874281141493
 30
0.0
 10
-2.001169840494792
 20
39.92874281141493
 30
0.0
 10
-2.001169840494792
 20
39.92874281141493
 30
0.0
 10
-2.001169840494792
 20
35.11456637912326
 30
0.0
 10
-2.001169840494792
 20
35.11456637912326
 30
0.0
 10
-2.001169840494792
 20
35.11456637912326
 30
0.0
 10
-10.50762736002604
 20
35.11456637912326
 30
0.0
 10
-10.50762736002604
 20
35.11456637912326
 30
0.0
 10
-11.01457316080729
 20
35.11456637912326
 30
0.0
 10
-11.15048217773437
 20
35.31248711480034
 30
0.0
 10
-11.15048217773437
 20
35.70626152886285
 30
0.0
 10
-11.15048217773437
 20
35.70626152886285
 30
0.0
 10
-11.14841512044271
 20
45.10930514865451
 30
0.0
 10
-11.14841512044271
 20
45.10930514865451
 30
0.0
 10
-11.14841512044271
 20
45.64415622287326
 30
0.0
 10
-11.01457316080729
 20
45.87566663953993
 30
0.0
 10
-10.42287801106771
 20
45.87566663953993
 30
0.0
 10
-10.42287801106771
 20
45.87566663953993
 30
0.0
 10
10.43734741210937
 20
45.87825046115451
 30
0.0
 10
10.43734741210937
 20
45.87825046115451
 30
0.0
 10
10.88796590169271
 20
45.87825046115451
 30
0.0
 10
11.15048217773437
 20
45.64415622287326
 30
0.0
 10
11.15048217773437
 20
45.10930514865451
 30
0.0
  0
SPLINE
  5
A9
330
99
100
AcDbEntity
  8
LAYER_1
 62
     7
100
AcDbSpline
210
0.0
220
0.0
230
1.0
 70
    11
 71
     3
 72
    41
 73
    37
 74
     0
 42
0.0000000001
 43
0.0000000001
 40
0.0
 40
0.0
 40
0.0
 40
0.0
 40
1.0
 40
1.0
 40
1.0
 40
2.0
 40
2.0
 40
2.0
 40
3.0
 40
3.0
 40
3.0
 40
4.0
 40
4.0
 40
4.0
 40
5.0
 40
5.0
 40
5.0
 40
6.0
 40
6.0
 40
6.0
 40
7.0
 40
7.0
 40
7.0
 40
8.0
 40
8.0
 40
8.0
 40
9.0
 40
9.0
 40
9.0
 40
10.0
 40
10.0
 40
10.0
 40
11.0
 40
11.0
 40
11.0
 40
12.0
 40
12.0
 40
12.0
 40
12.0
 10
11.15048217773437
 20
-45.06451890733506
 30
0.0
 10
11.15048217773437
 20
-45.06451890733506
 30
0.0
 10
11.15048217773437
 20
-35.74622463650173
 30
0.0
 10
11.15048217773437
 20
-35.74622463650173
 30
0.0
 10
11.15048217773437
 20
-35.29612291124132
 30
0.0
 10
11.02852579752604
 20
-35.07029690212674
 30
0.0
 10
10.46576944986979
 20
-35.07029690212674
 30
0.0
 10
10.46576944986979
 20
-35.07029690212674
 30
0.0
 10
1.940191650390625
 20
-35.07029690212674
 30
0.0
 10
1.940191650390625
 20
-35.07029690212674
 30
0.0
 10
1.940191650390625
 20
-35.07029690212674
 30
0.0
 10
1.940191650390625
 20
-39.8844733344184
 30
0.0
 10
1.940191650390625
 20
-39.8844733344184
 30
0.0
 10
1.940191650390625
 20
-39.8844733344184
 30
0.0
 10
-2.001169840494792
 20
-39.8844733344184
 30
0.0
 10
-2.001169840494792
 20
-39.8844733344184
 30
0.0
 10
-2.001169840494792
 20
-39.8844733344184
 30
0.0
 10
-2.001169840494792
 20
-35.07029690212674
 30
0.0
 10
-2.001169840494792
 20
-35.07029690212674
 30
0.0
 10
-2.001169840494792
 20
-35.07029690212674
 30
0.0
 10
-10.50762736002604
 20
-35.07029690212674
 30
0.0
 10
-10.50762736002604
 20
-35.07029690212674
 30
0.0
 10
-11.01457316080729
 20
-35.07029690212674
 30
0.0
 10
-11.15048217773437
 20
-35.2677008734809
 30
0.0
 10
-11.15048217773437
 20
-35.66199205186631
 30
0.0
 10
-11.15048217773437
 20
-35.66199205186631
 30
0.0
 10
-11.14841512044271
 20
-45.06451890733506
 30
0.0
 10
-11.14841512044271
 20
-45.06451890733506
 30
0.0
 10
-11.14841512044271
 20
-45.59988674587673
 30
0.0
 10
-11.01457316080729
 20
-45.8313971625434
 30
0.0
 10
-10.42287801106771
 20
-45.8313971625434
 30
0.0
 10
-10.42287801106771
 20
-45.8313971625434
 30
0.0
 10
10.43734741210937
 20
-45.83398098415798
 30
0.0
 10
10.43734741210937
 20
-45.83398098415798
 30
0.0
 10
10.88796590169271
 20
-45.83398098415798
 30
0.0
 10
11.15048217773437
 20
-45.59988674587673
 30
0.0
 10
11.15048217773437
 20
-45.06451890733506
 30
0.0
  0
SPLINE
  5
A8
330
99
100
AcDbEntity
  8
LAYER_1
 62
     7
100
AcDbSpline
210
0.0
220
0.0
230
1.0
 70
     8
 71
     3
 72
    14
 73
    10
 74
     0
 42
0.0000000001
 43
0.0000000001
 40
0.0
 40
0.0
 40
0.0
 40
0.0
 40
1.0
 40
1.0
 40
1.0
 40
2.0
 40
2.0
 40
2.0
 40
3.0
 40
3.0
 40
3.0
 40
3.0
 10
2.027008056640625
 20
-39.06488511827256
 30
0.0
 10
2.626454671223958
 20
-39.17909003363715
 30
0.0
 10
3.104978434244791
 20
-39.28967759874131
 30
0.0
 10
3.366461181640625
 20
-39.38734605577257
 30
0.0
 10
4.567938232421875
 20
-39.8379645453559
 30
0.0
 10
6.969858805338541
 20
-39.98782619900173
 30
0.0
 10
7.946026611328124
 20
-40.1759284125434
 30
0.0
 10
8.922194417317707
 20
-40.36351386176215
 30
0.0
 10
11.09880574544271
 20
-41.15157945421007
 30
0.0
 10
11.09880574544271
 20
-41.15157945421007
 30
0.0
  0
SPLINE
  5
A7
330
99
100
AcDbEntity
  8
LAYER_1
 62
     7
100
AcDbSpline
210
0.0
220
0.0
230
1.0
 70
     8
 71
     3
 72
    11
 73
     7
 74
     0
 42
0.0000000001
 43
0.0000000001
 40
0.0
 40
0.0
 40
0.0
 40
0.0
 40
1.0
 40
1.0
 40
1.0
 40
2.0
 40
2.0
 40
2.0
 40
2.0
 10
-11.12206013997396
 20
-36.72239244249132
 30
0.0
 10
-9.545928955078125
 20
-36.83504706488715
 30
0.0
 10
-5.641774495442708
 20
-37.99880032009548
 30
0.0
 10
-4.628399658203125
 20
-38.11145494249131
 30
0.0
 10
-4.259429931640625
 20
-38.15227932400173
 30
0.0
 10
-3.256907145182292
 20
-38.27320217556423
 30
0.0
 10
-2.073516845703125
 20
-38.43184882269965
 30
0.0
  0
SPLINE
  5
A6
330
99
100
AcDbEntity
  8
LAYER_1
 62
     7
100
AcDbSpline
210
0.0
220
0.0
230
1.0
 70
     8
 71
     3
 72
    14
 73
    10
 74
     0
 42
0.0000000001
 43
0.0000000001
 40
0.0
 40
0.0
 40
0.0
 40
0.0
 40
1.0
 40
1.0
 40
1.0
 40
2.0
 40
2.0
 40
2.0
 40
3.0
 40
3.0
 40
3.0
 40
3.0
 10
1.987217203776041
 20
-37.88304511176215
 30
0.0
 10
2.598032633463542
 20
-38.02360500759549
 30
0.0
 10
3.092059326171875
 20
-38.15382961697048
 30
0.0
 10
3.366461181640625
 20
-38.2566657172309
 30
0.0
 10
4.567938232421875
 20
-38.70728420681423
 30
0.0
 10
6.969858805338541
 20
-38.85714586046007
 30
0.0
 10
7.946026611328124
 20
-39.04524807400173
 30
0.0
 10
8.922194417317707
 20
-39.23283352322049
 30
0.0
 10
11.09880574544271
 20
-40.0208991156684
 30
0.0
 10
11.09880574544271
 20
-40.0208991156684
 30
0.0
  0
SPLINE
  5
A5
330
99
100
AcDbEntity
  8
LAYER_1
 62
     7
100
AcDbSpline
210
0.0
220
0.0
230
1.0
 70
     8
 71
     3
 72
    11
 73
     7
 74
     0
 42
0.0000000001
 43
0.0000000001
 40
0.0
 40
0.0
 40
0.0
 40
0.0
 40
1.0
 40
1.0
 40
1.0
 40
2.0
 40
2.0
 40
2.0
 40
2.0
 10
-9.28289591471354
 20
-35.07081366644965
 30
0.0
 10
-7.706247965494791
 20
-35.18346828884548
 30
0.0
 10
-5.266603597005208
 20
-36.60973782009548
 30
0.0
 10
-4.253228759765625
 20
-36.72239244249132
 30
0.0
 10
-3.908546956380208
 20
-36.76063300238715
 30
0.0
 10
-3.056919352213542
 20
-36.89809231228298
 30
0.0
 10
-2.035276285807292
 20
-37.08051011827256
 30
0.0
  0
SPLINE
  5
A4
330
99
100
AcDbEntity
  8
LAYER_1
 62
     7
100
AcDbSpline
210
0.0
220
0.0
230
1.0
 70
     8
 71
     3
 72
    14
 73
    10
 74
     0
 42
0.0000000001
 43
0.0000000001
 40
0.0
 40
0.0
 40
0.0
 40
0.0
 40
1.0
 40
1.0
 40
1.0
 40
2.0
 40
2.0
 40
2.0
 40
3.0
 40
3.0
 40
3.0
 40
3.0
 10
2.059564208984375
 20
-36.8024909125434
 30
0.0
 10
3.319435628255208
 20
-37.05828925238715
 30
0.0
 10
4.453733317057291
 20
-37.31822170681424
 30
0.0
 10
4.929156494140624
 20
-37.49650539822049
 30
0.0
 10
6.130116780598958
 20
-37.94712388780382
 30
0.0
 10
8.53255411783854
 20
-38.09750230577257
 30
0.0
 10
9.508205159505208
 20
-38.28508775499132
 30
0.0
 10
10.48437296549479
 20
-38.47267320421007
 30
0.0
 10
11.09880574544271
 20
-38.48662584092882
 30
0.0
 10
11.09880574544271
 20
-38.48662584092882
 30
0.0
  0
SPLINE
  5
A3
330
99
100
AcDbEntity
  8
LAYER_1
 62
     7
100
AcDbSpline
210
0.0
220
0.0
230
1.0
 70
     8
 71
     3
 72
    11
 73
     7
 74
     0
 42
0.0000000001
 43
0.0000000001
 40
0.0
 40
0.0
 40
0.0
 40
0.0
 40
1.0
 40
1.0
 40
1.0
 40
2.0
 40
2.0
 40
2.0
 40
2.0
 10
-5.116225179036458
 20
-35.10853746202257
 30
0.0
 10
-3.540093994140625
 20
-35.40877753363715
 30
0.0
 10
-3.704425048828125
 20
-35.84957750108507
 30
0.0
 10
-2.690533447265625
 20
-35.9622321234809
 30
0.0
 10
-2.549456787109375
 20
-35.97825181749132
 30
0.0
 10
-2.322597249348958
 20
-36.01029120551215
 30
0.0
 10
-2.033725992838542
 20
-36.05576646592882
 30
0.0
  0
SPLINE
  5
A2
330
99
100
AcDbEntity
  8
LAYER_1
 62
     7
100
AcDbSpline
210
0.0
220
0.0
230
1.0
 70
     8
 71
     3
 72
    11
 73
     7
 74
     0
 42
0.0000000001
 43
0.0000000001
 40
0.0
 40
0.0
 40
0.0
 40
0.0
 40
1.0
 40
1.0
 40
1.0
 40
2.0
 40
2.0
 40
2.0
 40
2.0
 10
2.015122477213541
 20
-35.52143215603299
 30
0.0
 10
3.029014078776041
 20
-35.63408677842882
 30
0.0
 10
6.402451578776041
 20
-36.26247219509548
 30
0.0
 10
7.603411865234374
 20
-36.71309068467882
 30
0.0
 10
8.482944742838541
 20
-37.04278632269965
 30
0.0
 10
10.00636596679687
 20
-37.2117682562934
 30
0.0
 10
11.14221394856771
 20
-37.35232815212673
 30
0.0
  0
SPLINE
  5
A1
330
99
100
AcDbEntity
  8
LAYER_1
 62
     7
100
AcDbSpline
210
0.0
220
0.0
230
1.0
 70
     8
 71
     3
 72
    11
 73
     7
 74
     0
 42
0.0000000001
 43
0.0000000001
 40
0.0
 40
0.0
 40
0.0
 40
0.0
 40
1.0
 40
1.0
 40
1.0
 40
2.0
 40
2.0
 40
2.0
 40
2.0
 10
6.038649495442708
 20
-35.07649807400173
 30
0.0
 10
7.175531005859375
 20
-35.31214260525174
 30
0.0
 10
8.170302327473957
 20
-35.54520331488715
 30
0.0
 10
8.607484944661458
 20
-35.70901760525173
 30
0.0
 10
9.24413859049479
 20
-35.94776272243923
 30
0.0
 10
10.21823933919271
 20
-36.10227525499132
 30
0.0
 10
11.13807983398437
 20
-36.22216457790798
 30
0.0
  0
SPLINE
  5
A0
330
99
100
AcDbEntity
  8
LAYER_1
 62
     7
100
AcDbSpline
210
0.0
220
0.0
230
1.0
 70
     8
 71
     3
 72
    17
 73
    13
 74
     0
 42
0.0000000001
 43
0.0000000001
 40
0.0
 40
0.0
 40
0.0
 40
0.0
 40
1.0
 40
1.0
 40
1.0
 40
2.0
 40
2.0
 40
2.0
 40
3.0
 40
3.0
 40
3.0
 40
4.0
 40
4.0
 40
4.0
 40
4.0
 10
-11.12206013997396
 20
-38.38327297634548
 30
0.0
 10
-9.545928955078125
 20
-38.49592759874132
 30
0.0
 10
-5.641774495442708
 20
-39.65968085394965
 30
0.0
 10
-4.628399658203125
 20
-39.77233547634548
 30
0.0
 10
-3.615024820963541
 20
-39.88499009874132
 30
0.0
 10
1.527296956380208
 20
-40.47616848415798
 30
0.0
 10
3.441908772786458
 20
-40.8890631781684
 30
0.0
 10
4.695579020182291
 20
-41.15933091905382
 30
0.0
 10
6.369378662109375
 20
-41.41461249457465
 30
0.0
 10
7.345546468098958
 20
-41.6021979437934
 30
0.0
 10
8.32171427408854
 20
-41.78978339301215
 30
0.0
 10
11.09880574544271
 20
-42.3525397406684
 30
0.0
 10
11.09880574544271
 20
-42.3525397406684
 30
0.0
  0
SPLINE
  5
9F
330
99
100
AcDbEntity
  8
LAYER_1
 62
     7
100
AcDbSpline
210
0.0
220
0.0
230
1.0
 70
     8
 71
     3
 72
    17
 73
    13
 74
     0
 42
0.0000000001
 43
0.0000000001
 40
0.0
 40
0.0
 40
0.0
 40
0.0
 40
1.0
 40
1.0
 40
1.0
 40
2.0
 40
2.0
 40
2.0
 40
3.0
 40
3.0
 40
3.0
 40
4.0
 40
4.0
 40
4.0
 40
4.0
 10
-11.12206013997396
 20
-40.40123765733507
 30
0.0
 10
-9.545928955078125
 20
-40.5138922797309
 30
0.0
 10
-5.641774495442708
 20
-41.02497219509548
 30
0.0
 10
-4.628399658203125
 20
-41.13762681749132
 30
0.0
 10
-3.615024820963541
 20
-41.25028143988715
 30
0.0
 10
1.527296956380208
 20
-41.84145982530382
 30
0.0
 10
3.441908772786458
 20
-42.25435451931423
 30
0.0
 10
4.695579020182291
 20
-42.52462226019965
 30
0.0
 10
6.369378662109375
 20
-42.77990383572048
 30
0.0
 10
7.345546468098958
 20
-42.96748928493923
 30
0.0
 10
8.32171427408854
 20
-43.15507473415799
 30
0.0
 10
11.09880574544271
 20
-43.71834784613715
 30
0.0
 10
11.09880574544271
 20
-43.71834784613715
 30
0.0
  0
SPLINE
  5
9E
330
99
100
AcDbEntity
  8
LAYER_1
 62
     7
100
AcDbSpline
210
0.0
220
0.0
230
1.0
 70
     8
 71
     3
 72
    17
 73
    13
 74
     0
 42
0.0000000001
 43
0.0000000001
 40
0.0
 40
0.0
 40
0.0
 40
0.0
 40
1.0
 40
1.0
 40
1.0
 40
2.0
 40
2.0
 40
2.0
 40
3.0
 40
3.0
 40
3.0
 40
4.0
 40
4.0
 40
4.0
 40
4.0
 10
-11.12206013997396
 20
-41.64457261827256
 30
0.0
 10
-9.545928955078125
 20
-41.7572272406684
 30
0.0
 10
-5.904807535807291
 20
-42.61557278103298
 30
0.0
 10
-4.891432698567708
 20
-42.72822740342882
 30
0.0
 10
-3.877541097005208
 20
-42.84088202582465
 30
0.0
 10
1.339711507161458
 20
-43.44136216905382
 30
0.0
 10
3.253806559244791
 20
-43.85425686306423
 30
0.0
 10
4.507993570963541
 20
-44.12452460394965
 30
0.0
 10
6.369378662109375
 20
-44.02323879665799
 30
0.0
 10
7.345546468098958
 20
-44.21082424587673
 30
0.0
 10
8.32171427408854
 20
-44.39840969509548
 30
0.0
 10
11.09880574544271
 20
-44.96168280707465
 30
0.0
 10
11.09880574544271
 20
-44.96168280707465
 30
0.0
  0
SPLINE
  5
9D
330
99
100
AcDbEntity
  8
LAYER_1
 62
     7
100
AcDbSpline
210
0.0
220
0.0
230
1.0
 70
     8
 71
     3
 72
    14
 73
    10
 74
     0
 42
0.0000000001
 43
0.0000000001
 40
0.0
 40
0.0
 40
0.0
 40
0.0
 40
1.0
 40
1.0
 40
1.0
 40
2.0
 40
2.0
 40
2.0
 40
3.0
 40
3.0
 40
3.0
 40
3.0
 10
-11.12206013997396
 20
-42.95818752712673
 30
0.0
 10
-9.545928955078125
 20
-43.07084214952256
 30
0.0
 10
-5.904807535807291
 20
-43.92918768988715
 30
0.0
 10
-4.891432698567708
 20
-44.04184231228298
 30
0.0
 10
-3.877541097005208
 20
-44.15449693467882
 30
0.0
 10
1.339711507161458
 20
-44.75497707790798
 30
0.0
 10
3.253806559244791
 20
-45.1678717719184
 30
0.0
 10
4.507993570963541
 20
-45.43865627712673
 30
0.0
 10
6.332171630859374
 20
-45.65569729275173
 30
0.0
 10
7.307822672526041
 20
-45.8437995062934
 30
0.0
  0
SPLINE
  5
9C
330
99
100
AcDbEntity
  8
LAYER_1
 62
     7
100
AcDbSpline
210
0.0
220
0.0
230
1.0
 70
     8
 71
     3
 72
    11
 73
     7
 74
     0
 42
0.0000000001
 43
0.0000000001
 40
0.0
 40
0.0
 40
0.0
 40
0.0
 40
1.0
 40
1.0
 40
1.0
 40
2.0
 40
2.0
 40
2.0
 40
2.0
 10
-11.12206013997396
 20
-44.4454352484809
 30
0.0
 10
-9.545928955078125
 20
-44.55808987087674
 30
0.0
 10
-7.594110107421875
 20
-45.05521714952256
 30
0.0
 10
-6.580218505859374
 20
-45.1678717719184
 30
0.0
 10
-5.566843668619791
 20
-45.28052639431423
 30
0.0
 10
-1.700929768880208
 20
-45.46811184353298
 30
0.0
 10
0.2136820475260416
 20
-45.8810065375434
 30
0.0
  0
ENDBLK
  5
AB
330
99
100
AcDbEntity
  8
LAYER_1
100
AcDbBlockEnd
  0
BLOCK
  5
AE
330
AC
100
AcDbEntity
  8
LAYER_1
 62
     7
100
AcDbBlockBegin
  2
AI9-BLK4
 70
     0
 10
0.0
 20
0.0
 30
0.0
  3
AI9-BLK4
  1

  4

  0
LWPOLYLINE
  5
BF
330
AC
100
AcDbEntity
  8
LAYER_1
 62
     7
100
AcDbPolyline
 90
       12
 70
     1
 43
0.0
 10
52.16580810546875
 20
-52.25004069010416
 10
52.16580810546875
 20
-0.6004801432291667
 10
50.30804036458333
 20
1.651578776041667
 10
54.02409261067708
 20
4.954736328125
 10
52.16580810546875
 20
6.606315104166666
 10
52.16580810546875
 20
52.92596842447916
 10
-52.16580810546875
 20
52.92596842447916
 10
-52.16580810546875
 20
6.606315104166666
 10
-54.02409261067708
 20
4.954736328125
 10
-50.30804036458333
 20
1.651578776041667
 10
-52.16580810546875
 20
-0.6004801432291667
 10
-52.16580810546875
 20
-52.25004069010416
  0
LWPOLYLINE
  5
B7
330
AC
100
AcDbEntity
  8
LAYER_1
 62
     7
100
AcDbPolyline
 90
        6
 70
     0
 43
0.0
 10
-52.16580810546875
 20
55.98883056640624
 10
-52.16580810546875
 20
6.606315104166666
 10
-54.02409261067708
 20
4.954736328125
 10
-50.30804036458333
 20
1.651578776041667
 10
-52.16580810546875
 20
-0.6004801432291667
 10
-52.16580810546875
 20
-55.98883056640624
  0
LWPOLYLINE
  5
AF
330
AC
100
AcDbEntity
  8
LAYER_1
 62
     7
100
AcDbPolyline
 90
        6
 70
     0
 43
0.0
 10
52.16580810546875
 20
55.98883056640624
 10
52.16580810546875
 20
6.606315104166666
 10
54.02409261067708
 20
4.954736328125
 10
50.30804036458333
 20
1.651578776041667
 10
52.16580810546875
 20
-0.6004801432291667
 10
52.16580810546875
 20
-55.98883056640624
  0
ENDBLK
  5
CD
330
AC
100
AcDbEntity
  8
LAYER_1
100
AcDbBlockEnd
  0
ENDSEC
  0
SECTION
  2
ENTITIES
  0
INSERT
  5
AD
330
A
100
AcDbEntity
  8
LAYER_1
 62
     7
100
AcDbBlockReference
  2
AI9-BLK4
 10
107.95
 20
139.7
 30
0.0
  0
INSERT
  5
9A
330
A
100
AcDbEntity
  8
LAYER_1
 62
     7
100
AcDbBlockReference
  2
AI9-BLK3
 10
108.0133036295573
 20
146.7596035427517
 30
0.0
  0
LWPOLYLINE
  5
93
330
A
100
AcDbEntity
  8
LAYER_1
 62
     7
100
AcDbPolyline
 90
        4
 70
     1
 43
0.0
 10
106.0121337890625
 20
106.8751302083333
 10
109.9534952799479
 20
106.8751302083333
 10
109.9534952799479
 20
186.6578572591146
 10
106.0121337890625
 20
186.6578572591146
  0
INSERT
  5
83
330
A
100
AcDbEntity
  8
LAYER_1
 62
     7
100
AcDbBlockReference
  2
AI9-BLK2
 10
108.0247585720486
 20
187.3045016818576
 30
0.0
  0
INSERT
  5
5B
330
A
100
AcDbEntity
  8
LAYER_1
 62
     7
100
AcDbBlockReference
  2
AI9-BLK1
 10
108.018212890625
 20
145.6048075358073
 30
0.0
  0
SPLINE
  5
59
330
A
100
AcDbEntity
  8
LAYER_1
 62
     7
100
AcDbSpline
210
0.0
220
0.0
230
1.0
 70
    11
 71
     3
 72
    56
 73
    52
 74
     0
 42
0.0000000001
 43
0.0000000001
 40
0.0
 40
0.0
 40
0.0
 40
0.0
 40
1.0
 40
1.0
 40
1.0
 40
2.0
 40
2.0
 40
2.0
 40
3.0
 40
3.0
 40
3.0
 40
4.0
 40
4.0
 40
4.0
 40
5.0
 40
5.0
 40
5.0
 40
6.0
 40
6.0
 40
6.0
 40
7.0
 40
7.0
 40
7.0
 40
8.0
 40
8.0
 40
8.0
 40
9.0
 40
9.0
 40
9.0
 40
10.0
 40
10.0
 40
10.0
 40
11.0
 40
11.0
 40
11.0
 40
12.0
 40
12.0
 40
12.0
 40
13.0
 40
13.0
 40
13.0
 40
14.0
 40
14.0
 40
14.0
 40
15.0
 40
15.0
 40
15.0
 40
16.0
 40
16.0
 40
16.0
 40
17.0
 40
17.0
 40
17.0
 40
17.0
 10
124.8580118815104
 20
174.9960367838542
 30
0.0
 10
125.0574829101562
 20
174.9826009114583
 30
0.0
 10
125.207861328125
 20
175.0766520182291
 30
0.0
 10
125.207861328125
 20
175.2632039388021
 30
0.0
 10
125.207861328125
 20
175.5345052083333
 30
0.0
 10
125.0140747070312
 20
175.5639607747396
 30
0.0
 10
124.8657633463542
 20
175.5639607747396
 30
0.0
 10
124.7329549153646
 20
175.5639607747396
 30
0.0
 10
124.6513061523437
 20
175.5122843424479
 30
0.0
 10
124.6053141276042
 20
175.4042805989583
 30
0.0
 10
124.5670735677083
 20
175.3148803710937
 30
0.0
 10
124.5288330078125
 20
175.2270304361979
 30
0.0
 10
124.4905924479167
 20
175.1376302083333
 30
0.0
 10
124.3552001953125
 20
174.8187866210937
 30
0.0
 10
124.2275594075521
 20
174.7603922526042
 30
0.0
 10
123.9748616536458
 20
174.7603922526042
 30
0.0
 10
123.6120930989583
 20
174.7603922526042
 30
0.0
 10
123.4002197265625
 20
174.9603800455729
 30
0.0
 10
123.4002197265625
 20
175.2833577473958
 30
0.0
 10
123.4002197265625
 20
175.4492390950521
 30
0.0
 10
123.4534464518229
 20
175.6466430664062
 30
0.0
 10
123.7040771484375
 20
175.7432779947916
 30
0.0
 10
123.7981282552083
 20
175.7794514973958
 30
0.0
 10
123.9516072591146
 20
175.7768676757812
 30
0.0
 10
124.0539265950521
 20
175.7794514973958
 30
0.0
 10
124.0539265950521
 20
175.7794514973958
 30
0.0
 10
124.0539265950521
 20
175.5928995768229
 30
0.0
 10
124.0539265950521
 20
175.5928995768229
 30
0.0
 10
123.7702229817708
 20
175.6016845703125
 30
0.0
 10
123.5914225260417
 20
175.5546590169271
 30
0.0
 10
123.5914225260417
 20
175.2740559895833
 30
0.0
 10
123.5914225260417
 20
175.0859537760417
 30
0.0
 10
123.7014933268229
 20
174.953662109375
 30
0.0
 10
123.9262858072917
 20
174.953662109375
 30
0.0
 10
124.2172241210937
 20
174.953662109375
 30
0.0
 10
124.2198079427083
 20
175.0564982096354
 30
0.0
 10
124.2937052408854
 20
175.2270304361979
 30
0.0
 10
124.3345296223958
 20
175.3190144856771
 30
0.0
 10
124.3882731119792
 20
175.4673258463542
 30
0.0
 10
124.4420166015625
 20
175.5572428385416
 30
0.0
 10
124.5340006510417
 20
175.71640625
 30
0.0
 10
124.686962890625
 20
175.7567138671875
 30
0.0
 10
124.8760986328125
 20
175.7567138671875
 30
0.0
 10
125.1928751627604
 20
175.7567138671875
 30
0.0
 10
125.3995808919271
 20
175.561376953125
 30
0.0
 10
125.3995808919271
 20
175.2874918619792
 30
0.0
 10
125.3995808919271
 20
174.9805338541667
 30
0.0
 10
125.2181966145833
 20
174.7919148763021
 30
0.0
 10
124.8580118815104
 20
174.8100016276042
 30
0.0
 10
124.8580118815104
 20
174.8100016276042
 30
0.0
 10
124.8580118815104
 20
174.9960367838542
 30
0.0
 10
124.8580118815104
 20
174.9960367838542
 30
0.0
  0
LWPOLYLINE
  5
53
330
A
100
AcDbEntity
  8
LAYER_1
 62
     7
100
AcDbPolyline
 90
        4
 70
     1
 43
0.0
 10
123.4456949869792
 20
174.4932250976562
 10
125.3613403320312
 20
174.4932250976562
 10
125.3613403320312
 20
174.3071899414062
 10
123.4456949869792
 20
174.3071899414062
  0
SPLINE
  5
52
330
A
100
AcDbEntity
  8
LAYER_1
 62
     7
100
AcDbSpline
210
0.0
220
0.0
230
1.0
 70
    11
 71
     3
 72
    71
 73
    67
 74
     0
 42
0.0000000001
 43
0.0000000001
 40
0.0
 40
0.0
 40
0.0
 40
0.0
 40
1.0
 40
1.0
 40
1.0
 40
2.0
 40
2.0
 40
2.0
 40
3.0
 40
3.0
 40
3.0
 40
4.0
 40
4.0
 40
4.0
 40
5.0
 40
5.0
 40
5.0
 40
6.0
 40
6.0
 40
6.0
 40
7.0
 40
7.0
 40
7.0
 40
8.0
 40
8.0
 40
8.0
 40
9.0
 40
9.0
 40
9.0
 40
10.0
 40
10.0
 40
10.0
 40
11.0
 40
11.0
 40
11.0
 40
12.0
 40
12.0
 40
12.0
 40
13.0
 40
13.0
 40
13.0
 40
14.0
 40
14.0
 40
14.0
 40
15.0
 40
15.0
 40
15.0
 40
16.0
 40
16.0
 40
16.0
 40
17.0
 40
17.0
 40
17.0
 40
18.0
 40
18.0
 40
18.0
 40
19.0
 40
19.0
 40
19.0
 40
20.0
 40
20.0
 40
20.0
 40
21.0
 40
21.0
 40
21.0
 40
22.0
 40
22.0
 40
22.0
 40
22.0
 10
125.3613403320312
 20
172.9093424479167
 30
0.0
 10
125.3613403320312
 20
172.9093424479167
 30
0.0
 10
125.3613403320312
 20
172.5817138671875
 30
0.0
 10
125.3613403320312
 20
172.5817138671875
 30
0.0
 10
125.3613403320312
 20
172.5817138671875
 30
0.0
 10
123.4456949869792
 20
172.5817138671875
 30
0.0
 10
123.4456949869792
 20
172.5817138671875
 30
0.0
 10
123.4456949869792
 20
172.5817138671875
 30
0.0
 10
123.4456949869792
 20
172.7677490234375
 30
0.0
 10
123.4456949869792
 20
172.7677490234375
 30
0.0
 10
123.4456949869792
 20
172.7677490234375
 30
0.0
 10
125.0244099934896
 20
172.7677490234375
 30
0.0
 10
125.0244099934896
 20
172.7677490234375
 30
0.0
 10
125.1060587565104
 20
172.7677490234375
 30
0.0
 10
125.1851236979167
 20
172.7630981445312
 30
0.0
 10
125.2667724609375
 20
172.7677490234375
 30
0.0
 10
125.2667724609375
 20
172.7677490234375
 30
0.0
 10
125.2667724609375
 20
172.7723999023437
 30
0.0
 10
125.2667724609375
 20
172.7723999023437
 30
0.0
 10
125.1546346028646
 20
172.7925537109375
 30
0.0
 10
125.0828043619792
 20
172.808056640625
 30
0.0
 10
125.0089070638021
 20
172.8240763346354
 30
0.0
 10
125.0089070638021
 20
172.8240763346354
 30
0.0
 10
123.4456949869792
 20
173.1759928385417
 30
0.0
 10
123.4456949869792
 20
173.1759928385417
 30
0.0
 10
123.4456949869792
 20
173.1759928385417
 30
0.0
 10
123.4456949869792
 20
173.3982014973958
 30
0.0
 10
123.4456949869792
 20
173.3982014973958
 30
0.0
 10
123.4456949869792
 20
173.3982014973958
 30
0.0
 10
125.0321614583333
 20
173.750634765625
 30
0.0
 10
125.0321614583333
 20
173.750634765625
 30
0.0
 10
125.0983072916667
 20
173.7661376953125
 30
0.0
 10
125.1623860677083
 20
173.7795735677083
 30
0.0
 10
125.2667724609375
 20
173.800244140625
 30
0.0
 10
125.2667724609375
 20
173.800244140625
 30
0.0
 10
125.2667724609375
 20
173.8043782552083
 30
0.0
 10
125.2667724609375
 20
173.8043782552083
 30
0.0
 10
125.1851236979167
 20
173.8043782552083
 30
0.0
 10
125.1008911132812
 20
173.800244140625
 30
0.0
 10
125.0192423502604
 20
173.800244140625
 30
0.0
 10
125.0192423502604
 20
173.800244140625
 30
0.0
 10
123.4456949869792
 20
173.800244140625
 30
0.0
 10
123.4456949869792
 20
173.800244140625
 30
0.0
 10
123.4456949869792
 20
173.800244140625
 30
0.0
 10
123.4456949869792
 20
173.986279296875
 30
0.0
 10
123.4456949869792
 20
173.986279296875
 30
0.0
 10
123.4456949869792
 20
173.986279296875
 30
0.0
 10
125.3613403320312
 20
173.986279296875
 30
0.0
 10
125.3613403320312
 20
173.986279296875
 30
0.0
 10
125.3613403320312
 20
173.986279296875
 30
0.0
 10
125.3613403320312
 20
173.6565836588542
 30
0.0
 10
125.3613403320312
 20
173.6565836588542
 30
0.0
 10
125.3613403320312
 20
173.6565836588542
 30
0.0
 10
123.8673746744792
 20
173.3263712565104
 30
0.0
 10
123.8673746744792
 20
173.3263712565104
 30
0.0
 10
123.7857259114583
 20
173.3082845052083
 30
0.0
 10
123.7066609700521
 20
173.2994995117187
 30
0.0
 10
123.5836710611979
 20
173.2907145182292
 30
0.0
 10
123.5836710611979
 20
173.2907145182292
 30
0.0
 10
123.5836710611979
 20
173.2860636393229
 30
0.0
 10
123.5836710611979
 20
173.2860636393229
 30
0.0
 10
123.6808227539062
 20
173.2746948242187
 30
0.0
 10
123.775390625
 20
173.2638427734375
 30
0.0
 10
123.8699584960937
 20
173.2436889648437
 30
0.0
 10
123.8699584960937
 20
173.2436889648437
 30
0.0
 10
125.3613403320312
 20
172.9093424479167
 30
0.0
 10
125.3613403320312
 20
172.9093424479167
 30
0.0
  0
SPLINE
  5
51
330
A
100
AcDbEntity
  8
LAYER_1
 62
     7
100
AcDbSpline
210
0.0
220
0.0
230
1.0
 70
    11
 71
     3
 72
    32
 73
    28
 74
     0
 42
0.0000000001
 43
0.0000000001
 40
0.0
 40
0.0
 40
0.0
 40
0.0
 40
1.0
 40
1.0
 40
1.0
 40
2.0
 40
2.0
 40
2.0
 40
3.0
 40
3.0
 40
3.0
 40
4.0
 40
4.0
 40
4.0
 40
5.0
 40
5.0
 40
5.0
 40
6.0
 40
6.0
 40
6.0
 40
7.0
 40
7.0
 40
7.0
 40
8.0
 40
8.0
 40
8.0
 40
9.0
 40
9.0
 40
9.0
 40
9.0
 10
123.4456949869792
 20
172.2850911458333
 30
0.0
 10
123.4456949869792
 20
172.2850911458333
 30
0.0
 10
125.3613403320312
 20
172.2850911458333
 30
0.0
 10
125.3613403320312
 20
172.2850911458333
 30
0.0
 10
125.3613403320312
 20
172.2850911458333
 30
0.0
 10
125.3613403320312
 20
171.8432576497396
 30
0.0
 10
125.3613403320312
 20
171.8432576497396
 30
0.0
 10
125.3613403320312
 20
171.7130330403646
 30
0.0
 10
125.3432535807292
 20
171.54921875
 30
0.0
 10
125.2362833658854
 20
171.4505167643229
 30
0.0
 10
125.1287963867187
 20
171.3492309570312
 30
0.0
 10
124.9810017903646
 20
171.31357421875
 30
0.0
 10
124.8275227864583
 20
171.31357421875
 30
0.0
 10
124.6156494140625
 20
171.31357421875
 30
0.0
 10
124.4089436848958
 20
171.3699015299479
 30
0.0
 10
124.3143758138021
 20
171.5512858072917
 30
0.0
 10
124.2580485026042
 20
171.6680745442708
 30
0.0
 10
124.2580485026042
 20
171.8587605794271
 30
0.0
 10
124.2580485026042
 20
171.9869181315104
 30
0.0
 10
124.2580485026042
 20
171.9869181315104
 30
0.0
 10
124.2580485026042
 20
172.0990559895833
 30
0.0
 10
124.2580485026042
 20
172.0990559895833
 30
0.0
 10
124.2580485026042
 20
172.0990559895833
 30
0.0
 10
123.4456949869792
 20
172.0990559895833
 30
0.0
 10
123.4456949869792
 20
172.0990559895833
 30
0.0
 10
123.4456949869792
 20
172.0990559895833
 30
0.0
 10
123.4456949869792
 20
172.2850911458333
 30
0.0
 10
123.4456949869792
 20
172.2850911458333
 30
0.0
  0
SPLINE
  5
50
330
A
100
AcDbEntity
  8
LAYER_1
 62
     7
100
AcDbSpline
210
0.0
220
0.0
230
1.0
 70
    11
 71
     3
 72
    20
 73
    16
 74
     0
 42
0.0000000001
 43
0.0000000001
 40
0.0
 40
0.0
 40
0.0
 40
0.0
 40
1.0
 40
1.0
 40
1.0
 40
2.0
 40
2.0
 40
2.0
 40
3.0
 40
3.0
 40
3.0
 40
4.0
 40
4.0
 40
4.0
 40
5.0
 40
5.0
 40
5.0
 40
5.0
 10
124.4497680664062
 20
172.0990559895833
 30
0.0
 10
124.4497680664062
 20
172.0990559895833
 30
0.0
 10
124.4497680664062
 20
171.9171549479167
 30
0.0
 10
124.4497680664062
 20
171.9171549479167
 30
0.0
 10
124.4523518880208
 20
171.6613566080729
 30
0.0
 10
124.4931762695312
 20
171.5042602539062
 30
0.0
 10
124.8223551432292
 20
171.5063273111979
 30
0.0
 10
125.1313802083333
 20
171.5063273111979
 30
0.0
 10
125.1747884114583
 20
171.679443359375
 30
0.0
 10
125.1696207682292
 20
171.9057861328125
 30
0.0
 10
125.1696207682292
 20
171.9057861328125
 30
0.0
 10
125.1696207682292
 20
172.0990559895833
 30
0.0
 10
125.1696207682292
 20
172.0990559895833
 30
0.0
 10
125.1696207682292
 20
172.0990559895833
 30
0.0
 10
124.4497680664062
 20
172.0990559895833
 30
0.0
 10
124.4497680664062
 20
172.0990559895833
 30
0.0
  0
SPLINE
  5
4F
330
A
100
AcDbEntity
  8
LAYER_1
 62
     7
100
AcDbSpline
210
0.0
220
0.0
230
1.0
 70
    11
 71
     3
 72
    56
 73
    52
 74
     0
 42
0.0000000001
 43
0.0000000001
 40
0.0
 40
0.0
 40
0.0
 40
0.0
 40
1.0
 40
1.0
 40
1.0
 40
2.0
 40
2.0
 40
2.0
 40
3.0
 40
3.0
 40
3.0
 40
4.0
 40
4.0
 40
4.0
 40
5.0
 40
5.0
 40
5.0
 40
6.0
 40
6.0
 40
6.0
 40
7.0
 40
7.0
 40
7.0
 40
8.0
 40
8.0
 40
8.0
 40
9.0
 40
9.0
 40
9.0
 40
10.0
 40
10.0
 40
10.0
 40
11.0
 40
11.0
 40
11.0
 40
12.0
 40
12.0
 40
12.0
 40
13.0
 40
13.0
 40
13.0
 40
14.0
 40
14.0
 40
14.0
 40
15.0
 40
15.0
 40
15.0
 40
16.0
 40
16.0
 40
16.0
 40
17.0
 40
17.0
 40
17.0
 40
17.0
 10
124.8580118815104
 20
170.3999348958333
 30
0.0
 10
125.0574829101562
 20
170.3864990234375
 30
0.0
 10
125.207861328125
 20
170.4810668945312
 30
0.0
 10
125.207861328125
 20
170.6671020507812
 30
0.0
 10
125.207861328125
 20
170.9384033203125
 30
0.0
 10
125.0140747070312
 20
170.9678588867187
 30
0.0
 10
124.8657633463542
 20
170.9678588867187
 30
0.0
 10
124.7329549153646
 20
170.9678588867187
 30
0.0
 10
124.6513061523437
 20
170.9161824544271
 30
0.0
 10
124.6053141276042
 20
170.8081787109375
 30
0.0
 10
124.5670735677083
 20
170.7187784830729
 30
0.0
 10
124.5288330078125
 20
170.6309285481771
 30
0.0
 10
124.4905924479167
 20
170.5415283203125
 30
0.0
 10
124.3552001953125
 20
170.2226847330729
 30
0.0
 10
124.2275594075521
 20
170.1642903645833
 30
0.0
 10
123.9748616536458
 20
170.1642903645833
 30
0.0
 10
123.6120930989583
 20
170.1642903645833
 30
0.0
 10
123.4002197265625
 20
170.3642781575521
 30
0.0
 10
123.4002197265625
 20
170.687255859375
 30
0.0
 10
123.4002197265625
 20
170.8531372070312
 30
0.0
 10
123.4534464518229
 20
171.0510579427083
 30
0.0
 10
123.7040771484375
 20
171.1471761067708
 30
0.0
 10
123.7981282552083
 20
171.183349609375
 30
0.0
 10
123.9516072591146
 20
171.1807657877604
 30
0.0
 10
124.0539265950521
 20
171.183349609375
 30
0.0
 10
124.0539265950521
 20
171.183349609375
 30
0.0
 10
124.0539265950521
 20
170.9967976888021
 30
0.0
 10
124.0539265950521
 20
170.9967976888021
 30
0.0
 10
123.7702229817708
 20
171.0060994466146
 30
0.0
 10
123.5914225260417
 20
170.9590738932292
 30
0.0
 10
123.5914225260417
 20
170.6784708658854
 30
0.0
 10
123.5914225260417
 20
170.4898518880208
 30
0.0
 10
123.7014933268229
 20
170.3575602213542
 30
0.0
 10
123.9262858072917
 20
170.3575602213542
 30
0.0
 10
124.2172241210937
 20
170.3575602213542
 30
0.0
 10
124.2198079427083
 20
170.4609130859375
 30
0.0
 10
124.2937052408854
 20
170.6309285481771
 30
0.0
 10
124.3345296223958
 20
170.7234293619792
 30
0.0
 10
124.3882731119792
 20
170.8712239583333
 30
0.0
 10
124.4420166015625
 20
170.9611409505208
 30
0.0
 10
124.5340006510417
 20
171.1203043619792
 30
0.0
 10
124.686962890625
 20
171.1606119791667
 30
0.0
 10
124.8760986328125
 20
171.1606119791667
 30
0.0
 10
125.1928751627604
 20
171.1606119791667
 30
0.0
 10
125.3995808919271
 20
170.9657918294271
 30
0.0
 10
125.3995808919271
 20
170.6919067382812
 30
0.0
 10
125.3995808919271
 20
170.3844319661458
 30
0.0
 10
125.2181966145833
 20
170.1958129882812
 30
0.0
 10
124.8580118815104
 20
170.2138997395833
 30
0.0
 10
124.8580118815104
 20
170.2138997395833
 30
0.0
 10
124.8580118815104
 20
170.3999348958333
 30
0.0
 10
124.8580118815104
 20
170.3999348958333
 30
0.0
  0
SPLINE
  5
4E
330
A
100
AcDbEntity
  8
LAYER_1
 62
     7
100
AcDbSpline
210
0.0
220
0.0
230
1.0
 70
    11
 71
     3
 72
    17
 73
    13
 74
     0
 42
0.0000000001
 43
0.0000000001
 40
0.0
 40
0.0
 40
0.0
 40
0.0
 40
1.0
 40
1.0
 40
1.0
 40
2.0
 40
2.0
 40
2.0
 40
3.0
 40
3.0
 40
3.0
 40
4.0
 40
4.0
 40
4.0
 40
4.0
 10
125.3995808919271
 20
169.4258341471354
 30
0.0
 10
125.3995808919271
 20
168.9343912760417
 30
0.0
 10
124.8838500976562
 20
168.8739298502604
 30
0.0
 10
124.4446004231771
 20
168.876513671875
 30
0.0
 10
123.9133666992187
 20
168.8785807291667
 30
0.0
 10
123.4002197265625
 20
168.9390421549479
 30
0.0
 10
123.4002197265625
 20
169.4304850260417
 30
0.0
 10
123.4002197265625
 20
169.9219278971354
 30
0.0
 10
123.9133666992187
 20
169.980322265625
 30
0.0
 10
124.4446004231771
 20
169.9849731445312
 30
0.0
 10
124.8838500976562
 20
169.9849731445312
 30
0.0
 10
125.3995808919271
 20
169.9265787760417
 30
0.0
 10
125.3995808919271
 20
169.4258341471354
 30
0.0
  0
SPLINE
  5
4D
330
A
100
AcDbEntity
  8
LAYER_1
 62
     7
100
AcDbSpline
210
0.0
220
0.0
230
1.0
 70
    11
 71
     3
 72
    17
 73
    13
 74
     0
 42
0.0000000001
 43
0.0000000001
 40
0.0
 40
0.0
 40
0.0
 40
0.0
 40
1.0
 40
1.0
 40
1.0
 40
2.0
 40
2.0
 40
2.0
 40
3.0
 40
3.0
 40
3.0
 40
4.0
 40
4.0
 40
4.0
 40
4.0
 10
125.207861328125
 20
169.4351359049479
 30
0.0
 10
125.207861328125
 20
169.7224568684896
 30
0.0
 10
124.8657633463542
 20
169.794287109375
 30
0.0
 10
124.4394327799479
 20
169.7917032877604
 30
0.0
 10
123.8849446614583
 20
169.7896362304687
 30
0.0
 10
123.5914225260417
 20
169.7400268554687
 30
0.0
 10
123.5914225260417
 20
169.4304850260417
 30
0.0
 10
123.5914225260417
 20
169.1209431966146
 30
0.0
 10
123.8849446614583
 20
169.0713338216146
 30
0.0
 10
124.4394327799479
 20
169.0692667643229
 30
0.0
 10
124.8657633463542
 20
169.0666829427083
 30
0.0
 10
125.207861328125
 20
169.1390299479166
 30
0.0
 10
125.207861328125
 20
169.4351359049479
 30
0.0
  0
SPLINE
  5
4C
330
A
100
AcDbEntity
  8
LAYER_1
 62
     7
100
AcDbSpline
210
0.0
220
0.0
230
1.0
 70
    11
 71
     3
 72
    53
 73
    49
 74
     0
 42
0.0000000001
 43
0.0000000001
 40
0.0
 40
0.0
 40
0.0
 40
0.0
 40
1.0
 40
1.0
 40
1.0
 40
2.0
 40
2.0
 40
2.0
 40
3.0
 40
3.0
 40
3.0
 40
4.0
 40
4.0
 40
4.0
 40
5.0
 40
5.0
 40
5.0
 40
6.0
 40
6.0
 40
6.0
 40
7.0
 40
7.0
 40
7.0
 40
8.0
 40
8.0
 40
8.0
 40
9.0
 40
9.0
 40
9.0
 40
10.0
 40
10.0
 40
10.0
 40
11.0
 40
11.0
 40
11.0
 40
12.0
 40
12.0
 40
12.0
 40
13.0
 40
13.0
 40
13.0
 40
14.0
 40
14.0
 40
14.0
 40
15.0
 40
15.0
 40
15.0
 40
16.0
 40
16.0
 40
16.0
 40
16.0
 10
125.3613403320312
 20
167.8011271158854
 30
0.0
 10
125.3613403320312
 20
167.8011271158854
 30
0.0
 10
125.3613403320312
 20
167.6150919596354
 30
0.0
 10
125.3613403320312
 20
167.6150919596354
 30
0.0
 10
125.3613403320312
 20
167.6150919596354
 30
0.0
 10
123.4456949869792
 20
167.6150919596354
 30
0.0
 10
123.4456949869792
 20
167.6150919596354
 30
0.0
 10
123.4456949869792
 20
167.6150919596354
 30
0.0
 10
123.4456949869792
 20
167.9204996744792
 30
0.0
 10
123.4456949869792
 20
167.9204996744792
 30
0.0
 10
123.4456949869792
 20
167.9204996744792
 30
0.0
 10
124.97841796875
 20
168.3917887369792
 30
0.0
 10
124.97841796875
 20
168.3917887369792
 30
0.0
 10
125.065234375
 20
168.4186604817708
 30
0.0
 10
125.15205078125
 20
168.4388142903646
 30
0.0
 10
125.2667724609375
 20
168.4543172200521
 30
0.0
 10
125.2667724609375
 20
168.4543172200521
 30
0.0
 10
125.2667724609375
 20
168.4589680989583
 30
0.0
 10
125.2667724609375
 20
168.4589680989583
 30
0.0
 10
125.1696207682292
 20
168.4563842773437
 30
0.0
 10
125.0704020182292
 20
168.4543172200521
 30
0.0
 10
124.9732503255208
 20
168.4543172200521
 30
0.0
 10
124.9732503255208
 20
168.4543172200521
 30
0.0
 10
123.4456949869792
 20
168.4543172200521
 30
0.0
 10
123.4456949869792
 20
168.4543172200521
 30
0.0
 10
123.4456949869792
 20
168.4543172200521
 30
0.0
 10
123.4456949869792
 20
168.6403523763021
 30
0.0
 10
123.4456949869792
 20
168.6403523763021
 30
0.0
 10
123.4456949869792
 20
168.6403523763021
 30
0.0
 10
125.3613403320312
 20
168.6403523763021
 30
0.0
 10
125.3613403320312
 20
168.6403523763021
 30
0.0
 10
125.3613403320312
 20
168.6403523763021
 30
0.0
 10
125.3613403320312
 20
168.3375284830729
 30
0.0
 10
125.3613403320312
 20
168.3375284830729
 30
0.0
 10
125.3613403320312
 20
168.3375284830729
 30
0.0
 10
123.7934773763021
 20
167.859521484375
 30
0.0
 10
123.7934773763021
 20
167.859521484375
 30
0.0
 10
123.7345662434896
 20
167.8393676757812
 30
0.0
 10
123.6730712890625
 20
167.8238647460937
 30
0.0
 10
123.5836710611979
 20
167.8011271158854
 30
0.0
 10
123.5836710611979
 20
167.8011271158854
 30
0.0
 10
123.5836710611979
 20
167.7969930013021
 30
0.0
 10
123.5836710611979
 20
167.7969930013021
 30
0.0
 10
123.6529174804687
 20
167.7990600585937
 30
0.0
 10
123.7268147786458
 20
167.8011271158854
 30
0.0
 10
123.7981282552083
 20
167.8011271158854
 30
0.0
 10
123.7981282552083
 20
167.8011271158854
 30
0.0
 10
125.3613403320312
 20
167.8011271158854
 30
0.0
 10
125.3613403320312
 20
167.8011271158854
 30
0.0
  0
SPLINE
  5
4B
330
A
100
AcDbEntity
  8
LAYER_1
 62
     7
100
AcDbSpline
210
0.0
220
0.0
230
1.0
 70
    11
 71
     3
 72
    56
 73
    52
 74
     0
 42
0.0000000001
 43
0.0000000001
 40
0.0
 40
0.0
 40
0.0
 40
0.0
 40
1.0
 40
1.0
 40
1.0
 40
2.0
 40
2.0
 40
2.0
 40
3.0
 40
3.0
 40
3.0
 40
4.0
 40
4.0
 40
4.0
 40
5.0
 40
5.0
 40
5.0
 40
6.0
 40
6.0
 40
6.0
 40
7.0
 40
7.0
 40
7.0
 40
8.0
 40
8.0
 40
8.0
 40
9.0
 40
9.0
 40
9.0
 40
10.0
 40
10.0
 40
10.0
 40
11.0
 40
11.0
 40
11.0
 40
12.0
 40
12.0
 40
12.0
 40
13.0
 40
13.0
 40
13.0
 40
14.0
 40
14.0
 40
14.0
 40
15.0
 40
15.0
 40
15.0
 40
16.0
 40
16.0
 40
16.0
 40
17.0
 40
17.0
 40
17.0
 40
17.0
 10
122.5930338541667
 20
175.065283203125
 30
0.0
 10
122.7702840169271
 20
175.052880859375
 30
0.0
 10
122.9041259765625
 20
175.1371134440104
 30
0.0
 10
122.9041259765625
 20
175.3024780273437
 30
0.0
 10
122.9041259765625
 20
175.5438069661458
 30
0.0
 10
122.7315266927083
 20
175.5696451822917
 30
0.0
 10
122.5997517903646
 20
175.5696451822917
 30
0.0
 10
122.4819295247396
 20
175.5696451822917
 30
0.0
 10
122.4090657552083
 20
175.524169921875
 30
0.0
 10
122.3682413736979
 20
175.4280517578125
 30
0.0
 10
122.3341349283854
 20
175.3484700520833
 30
0.0
 10
122.3000284830729
 20
175.2704386393229
 30
0.0
 10
122.2664388020833
 20
175.1908569335937
 30
0.0
 10
122.1460327148437
 20
174.9076700846354
 30
0.0
 10
122.0323445638021
 20
174.8554768880208
 30
0.0
 10
121.8075520833333
 20
174.8554768880208
 30
0.0
 10
121.4856079101562
 20
174.8554768880208
 30
0.0
 10
121.2969889322917
 20
175.0332438151042
 30
0.0
 10
121.2969889322917
 20
175.3205647786458
 30
0.0
 10
121.2969889322917
 20
175.4678426106771
 30
0.0
 10
121.34453125
 20
175.6435424804687
 30
0.0
 10
121.5672566731771
 20
175.7293253580729
 30
0.0
 10
121.6509724934896
 20
175.7613647460937
 30
0.0
 10
121.7873982747396
 20
175.7592976888021
 30
0.0
 10
121.87783203125
 20
175.7613647460937
 30
0.0
 10
121.87783203125
 20
175.7613647460937
 30
0.0
 10
121.87783203125
 20
175.5954833984375
 30
0.0
 10
121.87783203125
 20
175.5954833984375
 30
0.0
 10
121.6261678059896
 20
175.6037516276041
 30
0.0
 10
121.4675211588542
 20
175.5618937174479
 30
0.0
 10
121.4675211588542
 20
175.3122965494792
 30
0.0
 10
121.4675211588542
 20
175.1448649088542
 30
0.0
 10
121.5646728515625
 20
175.0270426432292
 30
0.0
 10
121.7646606445312
 20
175.0270426432292
 30
0.0
 10
122.0235595703125
 20
175.0270426432292
 30
0.0
 10
122.0256266276042
 20
175.1190266927083
 30
0.0
 10
122.0912556966146
 20
175.2704386393229
 30
0.0
 10
122.1279459635417
 20
175.3526041666667
 30
0.0
 10
122.17548828125
 20
175.4838623046875
 30
0.0
 10
122.2230305989583
 20
175.5639607747396
 30
0.0
 10
122.3046793619792
 20
175.7055541992187
 30
0.0
 10
122.4411051432292
 20
175.7412109375
 30
0.0
 10
122.6090535481771
 20
175.7412109375
 30
0.0
 10
122.8901733398437
 20
175.7412109375
 30
0.0
 10
123.0741414388021
 20
175.567578125
 30
0.0
 10
123.0741414388021
 20
175.3246988932291
 30
0.0
 10
123.0741414388021
 20
175.0508138020833
 30
0.0
 10
122.9129109700521
 20
174.8833821614583
 30
0.0
 10
122.5930338541667
 20
174.8994018554687
 30
0.0
 10
122.5930338541667
 20
174.8994018554687
 30
0.0
 10
122.5930338541667
 20
175.065283203125
 30
0.0
 10
122.5930338541667
 20
175.065283203125
 30
0.0
  0
SPLINE
  5
4A
330
A
100
AcDbEntity
  8
LAYER_1
 62
     7
100
AcDbSpline
210
0.0
220
0.0
230
1.0
 70
    11
 71
     3
 72
    53
 73
    49
 74
     0
 42
0.0000000001
 43
0.0000000001
 40
0.0
 40
0.0
 40
0.0
 40
0.0
 40
1.0
 40
1.0
 40
1.0
 40
2.0
 40
2.0
 40
2.0
 40
3.0
 40
3.0
 40
3.0
 40
4.0
 40
4.0
 40
4.0
 40
5.0
 40
5.0
 40
5.0
 40
6.0
 40
6.0
 40
6.0
 40
7.0
 40
7.0
 40
7.0
 40
8.0
 40
8.0
 40
8.0
 40
9.0
 40
9.0
 40
9.0
 40
10.0
 40
10.0
 40
10.0
 40
11.0
 40
11.0
 40
11.0
 40
12.0
 40
12.0
 40
12.0
 40
13.0
 40
13.0
 40
13.0
 40
14.0
 40
14.0
 40
14.0
 40
15.0
 40
15.0
 40
15.0
 40
16.0
 40
16.0
 40
16.0
 40
16.0
 10
122.5997517903646
 20
174.4668701171875
 30
0.0
 10
122.5997517903646
 20
174.4668701171875
 30
0.0
 10
122.5997517903646
 20
174.2808349609375
 30
0.0
 10
122.5997517903646
 20
174.2808349609375
 30
0.0
 10
122.5997517903646
 20
174.2808349609375
 30
0.0
 10
122.4478230794271
 20
174.2808349609375
 30
0.0
 10
122.4478230794271
 20
174.2808349609375
 30
0.0
 10
122.4478230794271
 20
174.2808349609375
 30
0.0
 10
122.4478230794271
 20
174.4648030598958
 30
0.0
 10
122.4478230794271
 20
174.4648030598958
 30
0.0
 10
122.4478230794271
 20
174.4648030598958
 30
0.0
 10
121.5874104817708
 20
174.4648030598958
 30
0.0
 10
121.5874104817708
 20
174.4648030598958
 30
0.0
 10
121.5445190429687
 20
174.4648030598958
 30
0.0
 10
121.4902587890625
 20
174.4787556966146
 30
0.0
 10
121.4902587890625
 20
174.3909057617187
 30
0.0
 10
121.4902587890625
 20
174.3909057617187
 30
0.0
 10
121.4902587890625
 20
174.2849690755208
 30
0.0
 10
121.4902587890625
 20
174.2849690755208
 30
0.0
 10
121.4902587890625
 20
174.2849690755208
 30
0.0
 10
121.3378133138021
 20
174.2849690755208
 30
0.0
 10
121.3378133138021
 20
174.2849690755208
 30
0.0
 10
121.3378133138021
 20
174.2849690755208
 30
0.0
 10
121.3378133138021
 20
174.4586018880208
 30
0.0
 10
121.3378133138021
 20
174.4586018880208
 30
0.0
 10
121.3357462565104
 20
174.5526529947917
 30
0.0
 10
121.3538330078125
 20
174.6224161783854
 30
0.0
 10
121.5445190429687
 20
174.6224161783854
 30
0.0
 10
121.5445190429687
 20
174.6224161783854
 30
0.0
 10
122.4478230794271
 20
174.6224161783854
 30
0.0
 10
122.4478230794271
 20
174.6224161783854
 30
0.0
 10
122.4478230794271
 20
174.6224161783854
 30
0.0
 10
122.4478230794271
 20
174.7758951822917
 30
0.0
 10
122.4478230794271
 20
174.7758951822917
 30
0.0
 10
122.4478230794271
 20
174.7758951822917
 30
0.0
 10
122.5997517903646
 20
174.7758951822917
 30
0.0
 10
122.5997517903646
 20
174.7758951822917
 30
0.0
 10
122.5997517903646
 20
174.7758951822917
 30
0.0
 10
122.5997517903646
 20
174.6224161783854
 30
0.0
 10
122.5997517903646
 20
174.6224161783854
 30
0.0
 10
122.5997517903646
 20
174.6224161783854
 30
0.0
 10
122.9423665364583
 20
174.6224161783854
 30
0.0
 10
122.9423665364583
 20
174.6224161783854
 30
0.0
 10
122.9423665364583
 20
174.6224161783854
 30
0.0
 10
122.9423665364583
 20
174.4668701171875
 30
0.0
 10
122.9423665364583
 20
174.4668701171875
 30
0.0
 10
122.9423665364583
 20
174.4668701171875
 30
0.0
 10
122.5997517903646
 20
174.4668701171875
 30
0.0
 10
122.5997517903646
 20
174.4668701171875
 30
0.0
  0
SPLINE
  5
49
330
A
100
AcDbEntity
  8
LAYER_1
 62
     7
100
AcDbSpline
210
0.0
220
0.0
230
1.0
 70
    11
 71
     3
 72
    32
 73
    28
 74
     0
 42
0.0000000001
 43
0.0000000001
 40
0.0
 40
0.0
 40
0.0
 40
0.0
 40
1.0
 40
1.0
 40
1.0
 40
2.0
 40
2.0
 40
2.0
 40
3.0
 40
3.0
 40
3.0
 40
4.0
 40
4.0
 40
4.0
 40
5.0
 40
5.0
 40
5.0
 40
6.0
 40
6.0
 40
6.0
 40
7.0
 40
7.0
 40
7.0
 40
8.0
 40
8.0
 40
8.0
 40
9.0
 40
9.0
 40
9.0
 40
9.0
 10
122.3935628255208
 20
173.9661254882812
 30
0.0
 10
122.3935628255208
 20
173.9661254882812
 30
0.0
 10
122.3935628255208
 20
173.9619913736979
 30
0.0
 10
122.3935628255208
 20
173.9619913736979
 30
0.0
 10
122.5589274088542
 20
173.8963623046875
 30
0.0
 10
122.6292073567708
 20
173.8023111979167
 30
0.0
 10
122.6137044270833
 20
173.6369466145833
 30
0.0
 10
122.6137044270833
 20
173.6369466145833
 30
0.0
 10
122.4364542643229
 20
173.6369466145833
 30
0.0
 10
122.4364542643229
 20
173.6369466145833
 30
0.0
 10
122.4772786458333
 20
173.8405517578125
 30
0.0
 10
122.3320678710937
 20
173.9599243164062
 30
0.0
 10
122.1031412760417
 20
173.9599243164062
 30
0.0
 10
122.1031412760417
 20
173.9599243164062
 30
0.0
 10
121.3378133138021
 20
173.9599243164062
 30
0.0
 10
121.3378133138021
 20
173.9599243164062
 30
0.0
 10
121.3378133138021
 20
173.9599243164062
 30
0.0
 10
121.3378133138021
 20
174.1175374348958
 30
0.0
 10
121.3378133138021
 20
174.1175374348958
 30
0.0
 10
121.3378133138021
 20
174.1175374348958
 30
0.0
 10
122.5997517903646
 20
174.1175374348958
 30
0.0
 10
122.5997517903646
 20
174.1175374348958
 30
0.0
 10
122.5997517903646
 20
174.1175374348958
 30
0.0
 10
122.5997517903646
 20
173.9661254882812
 30
0.0
 10
122.5997517903646
 20
173.9661254882812
 30
0.0
 10
122.5997517903646
 20
173.9661254882812
 30
0.0
 10
122.3935628255208
 20
173.9661254882812
 30
0.0
 10
122.3935628255208
 20
173.9661254882812
 30
0.0
  0
SPLINE
  5
48
330
A
100
AcDbEntity
  8
LAYER_1
 62
     7
100
AcDbSpline
210
0.0
220
0.0
230
1.0
 70
    11
 71
     3
 72
    17
 73
    13
 74
     0
 42
0.0000000001
 43
0.0000000001
 40
0.0
 40
0.0
 40
0.0
 40
0.0
 40
1.0
 40
1.0
 40
1.0
 40
2.0
 40
2.0
 40
2.0
 40
3.0
 40
3.0
 40
3.0
 40
4.0
 40
4.0
 40
4.0
 40
4.0
 10
121.3037068684896
 20
173.1563557942708
 30
0.0
 10
121.3037068684896
 20
173.3961344401042
 30
0.0
 10
121.4675211588542
 20
173.5537475585937
 30
0.0
 10
122.0121907552083
 20
173.5537475585937
 30
0.0
 10
122.3935628255208
 20
173.5537475585937
 30
0.0
 10
122.6338582356771
 20
173.4297241210937
 30
0.0
 10
122.6338582356771
 20
173.1563557942708
 30
0.0
 10
122.6338582356771
 20
172.8829874674479
 30
0.0
 10
122.3935628255208
 20
172.7594807942708
 30
0.0
 10
122.0121907552083
 20
172.7594807942708
 30
0.0
 10
121.4649373372396
 20
172.7594807942708
 30
0.0
 10
121.3037068684896
 20
172.9129597981771
 30
0.0
 10
121.3037068684896
 20
173.1563557942708
 30
0.0
  0
SPLINE
  5
47
330
A
100
AcDbEntity
  8
LAYER_1
 62
     7
100
AcDbSpline
210
0.0
220
0.0
230
1.0
 70
    11
 71
     3
 72
    17
 73
    13
 74
     0
 42
0.0000000001
 43
0.0000000001
 40
0.0
 40
0.0
 40
0.0
 40
0.0
 40
1.0
 40
1.0
 40
1.0
 40
2.0
 40
2.0
 40
2.0
 40
3.0
 40
3.0
 40
3.0
 40
4.0
 40
4.0
 40
4.0
 40
4.0
 10
122.4819295247396
 20
173.1563557942708
 30
0.0
 10
122.4819295247396
 20
173.3181030273437
 30
0.0
 10
122.33671875
 20
173.3899332682292
 30
0.0
 10
121.9553466796875
 20
173.3899332682292
 30
0.0
 10
121.6576904296875
 20
173.3899332682292
 30
0.0
 10
121.45615234375
 20
173.3403238932291
 30
0.0
 10
121.45615234375
 20
173.1563557942708
 30
0.0
 10
121.45615234375
 20
172.969287109375
 30
0.0
 10
121.6576904296875
 20
172.9232950846354
 30
0.0
 10
121.9553466796875
 20
172.9232950846354
 30
0.0
 10
122.33671875
 20
172.9232950846354
 30
0.0
 10
122.4819295247396
 20
172.9909912109375
 30
0.0
 10
122.4819295247396
 20
173.1563557942708
 30
0.0
  0
SPLINE
  5
46
330
A
100
AcDbEntity
  8
LAYER_1
 62
     7
100
AcDbSpline
210
0.0
220
0.0
230
1.0
 70
    11
 71
     3
 72
    47
 73
    43
 74
     0
 42
0.0000000001
 43
0.0000000001
 40
0.0
 40
0.0
 40
0.0
 40
0.0
 40
1.0
 40
1.0
 40
1.0
 40
2.0
 40
2.0
 40
2.0
 40
3.0
 40
3.0
 40
3.0
 40
4.0
 40
4.0
 40
4.0
 40
5.0
 40
5.0
 40
5.0
 40
6.0
 40
6.0
 40
6.0
 40
7.0
 40
7.0
 40
7.0
 40
8.0
 40
8.0
 40
8.0
 40
9.0
 40
9.0
 40
9.0
 40
10.0
 40
10.0
 40
10.0
 40
11.0
 40
11.0
 40
11.0
 40
12.0
 40
12.0
 40
12.0
 40
13.0
 40
13.0
 40
13.0
 40
14.0
 40
14.0
 40
14.0
 40
14.0
 10
122.4612589518229
 20
172.3982625325521
 30
0.0
 10
122.4612589518229
 20
172.3982625325521
 30
0.0
 10
122.4612589518229
 20
172.3941284179687
 30
0.0
 10
122.4612589518229
 20
172.3941284179687
 30
0.0
 10
122.5702962239583
 20
172.3186808268229
 30
0.0
 10
122.6338582356771
 20
172.2365152994792
 30
0.0
 10
122.6338582356771
 20
172.1171427408854
 30
0.0
 10
122.6338582356771
 20
171.9512613932292
 30
0.0
 10
122.5341227213542
 20
171.8437744140625
 30
0.0
 10
122.3113972981771
 20
171.8437744140625
 30
0.0
 10
122.3113972981771
 20
171.8437744140625
 30
0.0
 10
121.3378133138021
 20
171.8437744140625
 30
0.0
 10
121.3378133138021
 20
171.8437744140625
 30
0.0
 10
121.3378133138021
 20
171.8437744140625
 30
0.0
 10
121.3378133138021
 20
172.0013875325521
 30
0.0
 10
121.3378133138021
 20
172.0013875325521
 30
0.0
 10
121.3378133138021
 20
172.0013875325521
 30
0.0
 10
122.2617879231771
 20
172.0013875325521
 30
0.0
 10
122.2617879231771
 20
172.0013875325521
 30
0.0
 10
122.3935628255208
 20
172.0013875325521
 30
0.0
 10
122.4819295247396
 20
172.039111328125
 30
0.0
 10
122.4819295247396
 20
172.1667521158854
 30
0.0
 10
122.4819295247396
 20
172.2246297200521
 30
0.0
 10
122.4571248372396
 20
172.2804402669271
 30
0.0
 10
122.4116495768229
 20
172.3222981770833
 30
0.0
 10
122.3455037434896
 20
172.386376953125
 30
0.0
 10
122.2731567382812
 20
172.3941284179687
 30
0.0
 10
122.1822062174479
 20
172.3941284179687
 30
0.0
 10
122.1822062174479
 20
172.3941284179687
 30
0.0
 10
121.3378133138021
 20
172.3941284179687
 30
0.0
 10
121.3378133138021
 20
172.3941284179687
 30
0.0
 10
121.3378133138021
 20
172.3941284179687
 30
0.0
 10
121.3378133138021
 20
172.5517415364583
 30
0.0
 10
121.3378133138021
 20
172.5517415364583
 30
0.0
 10
121.3378133138021
 20
172.5517415364583
 30
0.0
 10
122.5997517903646
 20
172.5517415364583
 30
0.0
 10
122.5997517903646
 20
172.5517415364583
 30
0.0
 10
122.5997517903646
 20
172.5517415364583
 30
0.0
 10
122.5997517903646
 20
172.3982625325521
 30
0.0
 10
122.5997517903646
 20
172.3982625325521
 30
0.0
 10
122.5997517903646
 20
172.3982625325521
 30
0.0
 10
122.4612589518229
 20
172.3982625325521
 30
0.0
 10
122.4612589518229
 20
172.3982625325521
 30
0.0
  0
SPLINE
  5
45
330
A
100
AcDbEntity
  8
LAYER_1
 62
     7
100
AcDbSpline
210
0.0
220
0.0
230
1.0
 70
    11
 71
     3
 72
    50
 73
    46
 74
     0
 42
0.0000000001
 43
0.0000000001
 40
0.0
 40
0.0
 40
0.0
 40
0.0
 40
1.0
 40
1.0
 40
1.0
 40
2.0
 40
2.0
 40
2.0
 40
3.0
 40
3.0
 40
3.0
 40
4.0
 40
4.0
 40
4.0
 40
5.0
 40
5.0
 40
5.0
 40
6.0
 40
6.0
 40
6.0
 40
7.0
 40
7.0
 40
7.0
 40
8.0
 40
8.0
 40
8.0
 40
9.0
 40
9.0
 40
9.0
 40
10.0
 40
10.0
 40
10.0
 40
11.0
 40
11.0
 40
11.0
 40
12.0
 40
12.0
 40
12.0
 40
13.0
 40
13.0
 40
13.0
 40
14.0
 40
14.0
 40
14.0
 40
15.0
 40
15.0
 40
15.0
 40
15.0
 10
122.5997517903646
 20
171.0474405924479
 30
0.0
 10
122.5997517903646
 20
171.0474405924479
 30
0.0
 10
122.5997517903646
 20
170.8898274739583
 30
0.0
 10
122.5997517903646
 20
170.8898274739583
 30
0.0
 10
122.5997517903646
 20
170.8898274739583
 30
0.0
 10
121.4902587890625
 20
170.8898274739583
 30
0.0
 10
121.4902587890625
 20
170.8898274739583
 30
0.0
 10
121.3357462565104
 20
170.8898274739583
 30
0.0
 10
121.2179239908854
 20
170.9001627604167
 30
0.0
 10
121.08408203125
 20
170.9735432942708
 30
0.0
 10
120.9590250651042
 20
171.0438232421875
 30
0.0
 10
120.9088989257812
 20
171.1575113932292
 30
0.0
 10
120.9088989257812
 20
171.2789510091146
 30
0.0
 10
120.9088989257812
 20
171.4567179361979
 30
0.0
 10
121.0019165039062
 20
171.5884928385416
 30
0.0
 10
121.2179239908854
 20
171.6101969401042
 30
0.0
 10
121.2179239908854
 20
171.6101969401042
 30
0.0
 10
121.2179239908854
 20
171.4567179361979
 30
0.0
 10
121.2179239908854
 20
171.4567179361979
 30
0.0
 10
121.1042358398437
 20
171.4427652994792
 30
0.0
 10
121.0608276367187
 20
171.3786865234375
 30
0.0
 10
121.0608276367187
 20
171.2830851236979
 30
0.0
 10
121.0608276367187
 20
171.0278035481771
 30
0.0
 10
121.3471150716146
 20
171.0536417643229
 30
0.0
 10
121.4856079101562
 20
171.0515747070312
 30
0.0
 10
121.4856079101562
 20
171.0515747070312
 30
0.0
 10
121.4856079101562
 20
171.0557088216146
 30
0.0
 10
121.4856079101562
 20
171.0557088216146
 30
0.0
 10
121.3559000651042
 20
171.121337890625
 30
0.0
 10
121.3037068684896
 20
171.1931681315104
 30
0.0
 10
121.3037068684896
 20
171.294970703125
 30
0.0
 10
121.3037068684896
 20
171.5042602539062
 30
0.0
 10
121.4695882161458
 20
171.6499877929687
 30
0.0
 10
121.9780843098958
 20
171.6499877929687
 30
0.0
 10
122.243701171875
 20
171.6499877929687
 30
0.0
 10
122.6338582356771
 20
171.5921101888021
 30
0.0
 10
122.6338582356771
 20
171.2991048177083
 30
0.0
 10
122.6338582356771
 20
171.1973022460937
 30
0.0
 10
122.5770141601562
 20
171.1053181966146
 30
0.0
 10
122.4571248372396
 20
171.0515747070312
 30
0.0
 10
122.4571248372396
 20
171.0515747070312
 30
0.0
 10
122.4571248372396
 20
171.0474405924479
 30
0.0
 10
122.4571248372396
 20
171.0474405924479
 30
0.0
 10
122.4571248372396
 20
171.0474405924479
 30
0.0
 10
122.5997517903646
 20
171.0474405924479
 30
0.0
 10
122.5997517903646
 20
171.0474405924479
 30
0.0
  0
SPLINE
  5
44
330
A
100
AcDbEntity
  8
LAYER_1
 62
     7
100
AcDbSpline
210
0.0
220
0.0
230
1.0
 70
    11
 71
     3
 72
    17
 73
    13
 74
     0
 42
0.0000000001
 43
0.0000000001
 40
0.0
 40
0.0
 40
0.0
 40
0.0
 40
1.0
 40
1.0
 40
1.0
 40
2.0
 40
2.0
 40
2.0
 40
3.0
 40
3.0
 40
3.0
 40
4.0
 40
4.0
 40
4.0
 40
4.0
 10
121.9687825520833
 20
171.4866902669271
 30
0.0
 10
121.6602742513021
 20
171.4866902669271
 30
0.0
 10
121.45615234375
 20
171.4406982421875
 30
0.0
 10
121.45615234375
 20
171.2851521809896
 30
0.0
 10
121.45615234375
 20
171.0453735351562
 30
0.0
 10
121.7941162109375
 20
171.0474405924479
 30
0.0
 10
121.9961710611979
 20
171.0474405924479
 30
0.0
 10
122.2457682291667
 20
171.0474405924479
 30
0.0
 10
122.4819295247396
 20
171.0934326171875
 30
0.0
 10
122.4819295247396
 20
171.2691324869792
 30
0.0
 10
122.4819295247396
 20
171.4784220377604
 30
0.0
 10
122.1393147786458
 20
171.4866902669271
 30
0.0
 10
121.9687825520833
 20
171.4866902669271
 30
0.0
  0
LWPOLYLINE
  5
3E
330
A
100
AcDbEntity
  8
LAYER_1
 62
     7
100
AcDbPolyline
 90
        4
 70
     1
 43
0.0
 10
121.9620646158854
 20
170.6924235026042
 10
122.15068359375
 20
170.6924235026042
 10
122.15068359375
 20
170.2076985677083
 10
121.9620646158854
 20
170.2076985677083
  0
LWPOLYLINE
  5
34
330
A
100
AcDbEntity
  8
LAYER_1
 62
     7
100
AcDbPolyline
 90
        8
 70
     1
 43
0.0
 10
123.0400349934896
 20
170.4474772135417
 10
123.0400349934896
 20
169.5079996744792
 10
122.87001953125
 20
169.5079996744792
 10
122.87001953125
 20
169.8945393880208
 10
121.3378133138021
 20
169.8945393880208
 10
121.3378133138021
 20
170.0604207356771
 10
122.87001953125
 20
170.0604207356771
 10
122.87001953125
 20
170.4474772135417
  0
LWPOLYLINE
  5
2E
330
A
100
AcDbEntity
  8
LAYER_1
 62
     7
100
AcDbPolyline
 90
        4
 70
     1
 43
0.0
 10
121.3378133138021
 20
169.409814453125
 10
122.5997517903646
 20
169.409814453125
 10
122.5997517903646
 20
169.2522013346354
 10
121.3378133138021
 20
169.2522013346354
  0
LWPOLYLINE
  5
28
330
A
100
AcDbEntity
  8
LAYER_1
 62
     7
100
AcDbPolyline
 90
        4
 70
     1
 43
0.0
 10
122.8131754557292
 20
169.409814453125
 10
123.0400349934896
 20
169.409814453125
 10
123.0400349934896
 20
169.2522013346354
 10
122.8131754557292
 20
169.2522013346354
  0
SPLINE
  5
27
330
A
100
AcDbEntity
  8
LAYER_1
 62
     7
100
AcDbSpline
210
0.0
220
0.0
230
1.0
 70
    11
 71
     3
 72
    29
 73
    25
 74
     0
 42
0.0000000001
 43
0.0000000001
 40
0.0
 40
0.0
 40
0.0
 40
0.0
 40
1.0
 40
1.0
 40
1.0
 40
2.0
 40
2.0
 40
2.0
 40
3.0
 40
3.0
 40
3.0
 40
4.0
 40
4.0
 40
4.0
 40
5.0
 40
5.0
 40
5.0
 40
6.0
 40
6.0
 40
6.0
 40
7.0
 40
7.0
 40
7.0
 40
8.0
 40
8.0
 40
8.0
 40
8.0
 10
121.7579427083333
 20
168.3706013997396
 30
0.0
 10
121.5104125976562
 20
168.3607828776042
 30
0.0
 10
121.3037068684896
 20
168.4724039713541
 30
0.0
 10
121.3037068684896
 20
168.7059814453125
 30
0.0
 10
121.3037068684896
 20
168.9152709960937
 30
0.0
 10
121.4628702799479
 20
169.0646158854167
 30
0.0
 10
121.9713663736979
 20
169.0646158854167
 30
0.0
 10
122.2369832356771
 20
169.0646158854167
 30
0.0
 10
122.6338582356771
 20
169.0031209309896
 30
0.0
 10
122.6338582356771
 20
168.7095987955729
 30
0.0
 10
122.6338582356771
 20
168.3504475911458
 30
0.0
 10
122.2478352864583
 20
168.3706013997396
 30
0.0
 10
121.9532796223958
 20
168.3623331705729
 30
0.0
 10
121.9532796223958
 20
168.3623331705729
 30
0.0
 10
121.9532796223958
 20
168.901318359375
 30
0.0
 10
121.9532796223958
 20
168.901318359375
 30
0.0
 10
121.7827473958333
 20
168.8971842447917
 30
0.0
 10
121.45615234375
 20
168.9230224609375
 30
0.0
 10
121.45615234375
 20
168.7018473307292
 30
0.0
 10
121.45615234375
 20
168.5499186197916
 30
0.0
 10
121.6147989908854
 20
168.5080607096354
 30
0.0
 10
121.7579427083333
 20
168.5183959960937
 30
0.0
 10
121.7579427083333
 20
168.5183959960937
 30
0.0
 10
121.7579427083333
 20
168.3706013997396
 30
0.0
 10
121.7579427083333
 20
168.3706013997396
 30
0.0
  0
SPLINE
  5
26
330
A
100
AcDbEntity
  8
LAYER_1
 62
     7
100
AcDbSpline
210
0.0
220
0.0
230
1.0
 70
    11
 71
     3
 72
    14
 73
    10
 74
     0
 42
0.0000000001
 43
0.0000000001
 40
0.0
 40
0.0
 40
0.0
 40
0.0
 40
1.0
 40
1.0
 40
1.0
 40
2.0
 40
2.0
 40
2.0
 40
3.0
 40
3.0
 40
3.0
 40
3.0
 10
122.1005574544271
 20
168.5261474609375
 30
0.0
 10
122.2478352864583
 20
168.5323486328125
 30
0.0
 10
122.4819295247396
 20
168.5240804036458
 30
0.0
 10
122.4819295247396
 20
168.7075317382812
 30
0.0
 10
122.4819295247396
 20
168.8914998372396
 30
0.0
 10
122.2504191080729
 20
168.8951171875
 30
0.0
 10
122.1005574544271
 20
168.901318359375
 30
0.0
 10
122.1005574544271
 20
168.901318359375
 30
0.0
 10
122.1005574544271
 20
168.5261474609375
 30
0.0
 10
122.1005574544271
 20
168.5261474609375
 30
0.0
  0
ELLIPSE
  5
25
330
A
100
AcDbEntity
  8
LAYER_1
 62
     7
100
AcDbEllipse
 10
122.6348917643229
 20
167.9285095214844
 30
0.0
 11
-0.5095296223958333
 21
-0.001291910807291667
 31
0.0
210
0.0
220
0.0
230
1.0
 40
0.8777862251258545
 41
0.0
 42
6.283185307179586
  0
ELLIPSE
  5
24
330
A
100
AcDbEntity
  8
LAYER_1
 62
     7
100
AcDbEllipse
 10
122.6338582356771
 20
167.9285095214844
 30
0.0
 11
-0.4330485026041667
 21
-0.001291910807291667
 31
0.0
210
0.0
220
0.0
230
1.0
 40
0.8764877463985266
 41
0.0
 42
6.283185307179586
  0
SPLINE
  5
23
330
A
100
AcDbEntity
  8
LAYER_1
 62
     7
100
AcDbSpline
210
0.0
220
0.0
230
1.0
 70
    11
 71
     3
 72
    38
 73
    34
 74
     0
 42
0.0000000001
 43
0.0000000001
 40
0.0
 40
0.0
 40
0.0
 40
0.0
 40
1.0
 40
1.0
 40
1.0
 40
2.0
 40
2.0
 40
2.0
 40
3.0
 40
3.0
 40
3.0
 40
4.0
 40
4.0
 40
4.0
 40
5.0
 40
5.0
 40
5.0
 40
6.0
 40
6.0
 40
6.0
 40
7.0
 40
7.0
 40
7.0
 40
8.0
 40
8.0
 40
8.0
 40
9.0
 40
9.0
 40
9.0
 40
10.0
 40
10.0
 40
10.0
 40
11.0
 40
11.0
 40
11.0
 40
11.0
 10
122.3496378580729
 20
167.7050089518229
 30
0.0
 10
122.3496378580729
 20
167.7050089518229
 30
0.0
 10
122.3496378580729
 20
167.77890625
 30
0.0
 10
122.3496378580729
 20
167.77890625
 30
0.0
 10
122.3496378580729
 20
167.77890625
 30
0.0
 10
122.6116373697917
 20
167.9204996744792
 30
0.0
 10
122.6116373697917
 20
167.9204996744792
 30
0.0
 10
122.6116373697917
 20
167.9204996744792
 30
0.0
 10
122.6116373697917
 20
168.0310872395833
 30
0.0
 10
122.6116373697917
 20
168.0310872395833
 30
0.0
 10
122.6116373697917
 20
168.0310872395833
 30
0.0
 10
122.3496378580729
 20
168.0310872395833
 30
0.0
 10
122.3496378580729
 20
168.0310872395833
 30
0.0
 10
122.3496378580729
 20
168.0310872395833
 30
0.0
 10
122.3496378580729
 20
168.095166015625
 30
0.0
 10
122.3496378580729
 20
168.095166015625
 30
0.0
 10
122.3496378580729
 20
168.095166015625
 30
0.0
 10
122.9206624348958
 20
168.095166015625
 30
0.0
 10
122.9206624348958
 20
168.095166015625
 30
0.0
 10
122.9206624348958
 20
168.095166015625
 30
0.0
 10
122.9206624348958
 20
167.8750244140625
 30
0.0
 10
122.9206624348958
 20
167.8750244140625
 30
0.0
 10
122.9206624348958
 20
167.8336832682292
 30
0.0
 10
122.9206624348958
 20
167.7918253580729
 30
0.0
 10
122.8891398111979
 20
167.7541015625
 30
0.0
 10
122.8658854166667
 20
167.7174112955729
 30
0.0
 10
122.814208984375
 20
167.6957071940104
 30
0.0
 10
122.7671834309896
 20
167.6972574869791
 30
0.0
 10
122.6545288085937
 20
167.6972574869791
 30
0.0
 10
122.6131876627604
 20
167.7675374348958
 30
0.0
 10
122.6116373697917
 20
167.8543538411458
 30
0.0
 10
122.6116373697917
 20
167.8543538411458
 30
0.0
 10
122.3496378580729
 20
167.7050089518229
 30
0.0
 10
122.3496378580729
 20
167.7050089518229
 30
0.0
  0
SPLINE
  5
22
330
A
100
AcDbEntity
  8
LAYER_1
 62
     7
100
AcDbSpline
210
0.0
220
0.0
230
1.0
 70
    11
 71
     3
 72
    20
 73
    16
 74
     0
 42
0.0000000001
 43
0.0000000001
 40
0.0
 40
0.0
 40
0.0
 40
0.0
 40
1.0
 40
1.0
 40
1.0
 40
2.0
 40
2.0
 40
2.0
 40
3.0
 40
3.0
 40
3.0
 40
4.0
 40
4.0
 40
4.0
 40
5.0
 40
5.0
 40
5.0
 40
5.0
 10
122.6664143880208
 20
167.9385864257812
 30
0.0
 10
122.6664143880208
 20
167.8693400065104
 30
0.0
 10
122.6545288085937
 20
167.7608194986979
 30
0.0
 10
122.7697672526042
 20
167.7608194986979
 30
0.0
 10
122.8555501302083
 20
167.7608194986979
 30
0.0
 10
122.8658854166667
 20
167.8279988606771
 30
0.0
 10
122.8658854166667
 20
167.8894938151042
 30
0.0
 10
122.8658854166667
 20
167.8894938151042
 30
0.0
 10
122.8658854166667
 20
168.0310872395833
 30
0.0
 10
122.8658854166667
 20
168.0310872395833
 30
0.0
 10
122.8658854166667
 20
168.0310872395833
 30
0.0
 10
122.6664143880208
 20
168.0310872395833
 30
0.0
 10
122.6664143880208
 20
168.0310872395833
 30
0.0
 10
122.6664143880208
 20
168.0310872395833
 30
0.0
 10
122.6664143880208
 20
167.9385864257812
 30
0.0
 10
122.6664143880208
 20
167.9385864257812
 30
0.0
  0
ENDSEC
  0
SECTION
  2
OBJECTS
  0
DICTIONARY
  5
19
330
0
100
AcDbDictionary
281
     1
  3
ACAD_COLOR
350
104
  3
ACAD_GROUP
350
1A
  3
ACAD_LAYOUT
350
D1
  3
ACAD_MATERIAL
350
106
  3
ACAD_MLINESTYLE
350
1B
  3
ACAD_PLOTSETTINGS
350
D2
  3
ACAD_PLOTSTYLENAME
350
CF
  3
ACDBHEADERROUNDTRIPXREC
350
103
  0
DICTIONARY
  5
104
102
{ACAD_REACTORS
330
19
102
}
330
19
100
AcDbDictionary
281
     1
  0
DICTIONARY
  5
1A
102
{ACAD_REACTORS
330
19
102
}
330
19
100
AcDbDictionary
281
     1
  0
DICTIONARY
  5
D1
102
{ACAD_REACTORS
330
19
102
}
330
19
100
AcDbDictionary
281
     1
  3
Layout1
350
D4
  3
Model
350
D3
  0
DICTIONARY
  5
106
102
{ACAD_REACTORS
330
19
102
}
330
19
100
AcDbDictionary
281
     1
  0
DICTIONARY
  5
1B
102
{ACAD_REACTORS
330
19
102
}
330
19
100
AcDbDictionary
281
     1
  3
STANDARD
350
1C
  0
DICTIONARY
  5
D2
102
{ACAD_REACTORS
330
19
102
}
330
19
100
AcDbDictionary
281
     1
  0
ACDBDICTIONARYWDFLT
  5
CF
102
{ACAD_REACTORS
330
19
102
}
330
19
100
AcDbDictionary
281
     1
  3
Normal
350
D0
100
AcDbDictionaryWithDefault
340
D0
  0
DICTIONARY
  5
103
102
{ACAD_REACTORS
330
19
102
}
330
19
100
AcDbDictionary
281
     1
  3
COLORDICT
350
105
  3
MATERIALDICT
350
107
  0
LAYOUT
  5
D4
102
{ACAD_REACTORS
330
D1
102
}
102
{ACAD_XDICTIONARY
360
108
102
}
330
D1
100
AcDbPlotSettings
  1

  2
Support Center HP LaserJet 4
  4

  6

 40
0.0
 41
0.0
 42
0.0
 43
0.0
 44
0.0
 45
0.0
 46
0.0
 47
0.0
 48
0.0
 49
0.0
140
0.0
141
0.0
142
1.0
143
1.0
 70
   688
 72
     0
 73
     0
 74
     5
  7

 75
    16
147
1.0
148
0.0
149
0.0
100
AcDbLayout
  1
Layout1
 70
     0
 71
     1
 10
0.0
 20
0.0
 11
12.0
 21
9.0
 12
0.0
 22
0.0
 32
0.0
 14
1.000000000000000E+20
 24
1.000000000000000E+20
 34
1.000000000000000E+20
 15
-1.000000000000000E+20
 25
-1.000000000000000E+20
 35
-1.000000000000000E+20
146
0.0
 13
0.0
 23
0.0
 33
0.0
 16
1.0
 26
0.0
 36
0.0
 17
0.0
 27
1.0
 37
0.0
 76
     0
330
B
  0
LAYOUT
  5
D3
102
{ACAD_REACTORS
330
D1
102
}
102
{ACAD_XDICTIONARY
360
10A
102
}
330
D1
100
AcDbPlotSettings
  1

  2
Support Center HP LaserJet 4
  4

  6

 40
0.0
 41
0.0
 42
0.0
 43
0.0
 44
0.0
 45
0.0
 46
0.0
 47
0.0
 48
0.0
 49
0.0
140
0.0
141
0.0
142
1.0
143
1.0
 70
  1712
 72
     0
 73
     0
 74
     0
  7

 75
     0
147
1.0
148
0.0
149
0.0
100
AcDbLayout
  1
Model
 70
     1
 71
     0
 10
0.0
 20
0.0
 11
12.0
 21
9.0
 12
0.0
 22
0.0
 32
0.0
 14
0.0
 24
0.0
 34
0.0
 15
0.0
 25
0.0
 35
0.0
146
0.0
 13
0.0
 23
0.0
 33
0.0
 16
1.0
 26
0.0
 36
0.0
 17
0.0
 27
1.0
 37
0.0
 76
     0
330
A
  0
MLINESTYLE
  5
1C
102
{ACAD_REACTORS
330
1B
102
}
330
1B
100
AcDbMlineStyle
  2
STANDARD
 70
     0
  3

 62
     0
 51
90.0000000000002
 52
90.0000000000002
 71
     2
 49
0.5
 62
   256
  6
BYLAYER
 49
-0.5
 62
   256
  6
BYLAYER
  0
ACDBPLACEHOLDER
  5
D0
102
{ACAD_REACTORS
330
CF
102
}
330
CF
  0
XRECORD
  5
105
102
{ACAD_REACTORS
330
103
102
}
330
103
100
AcDbXrecord
340
104
  0
XRECORD
  5
107
102
{ACAD_REACTORS
330
103
102
}
330
103
100
AcDbXrecord
340
106
  0
DICTIONARY
  5
108
330
D4
100
AcDbDictionary
280
     1
281
     1
  3
ACAD_XREC_ROUNDTRIP
360
109
  0
DICTIONARY
  5
10A
330
D3
100
AcDbDictionary
280
     1
281
     1
  3
ACAD_XREC_ROUNDTRIP
360
10B
  0
XRECORD
  5
109
102
{ACAD_REACTORS
330
108
102
}
330
108
100
AcDbXrecord
102
SHADEPLOT
 70
     0
102
SHADEPLOTRESLEVEL
 70
     0
102
SHADEPLOTCUSTOMDPI
 70
     0
  0
XRECORD
  5
10B
102
{ACAD_REACTORS
330
10A
102
}
330
10A
100
AcDbXrecord
102
SHADEPLOT
 70
-13640
102
SHADEPLOTRESLEVEL
 70
-19352
102
SHADEPLOTCUSTOMDPI
 70
-24864
  0
ENDSEC
  0
EOF
