  0
SECTION
  2
HEADER
  9
$ACADVER
  1
AC1015
  9
$ACADMAINTVER
 70
     6
  9
$DWGCODEPAGE
  3
ANSI_1252
  9
$INSBASE
 10
0.0
 20
0.0
 30
0.0
  9
$EXTMIN
 10
0.5429999999999999
 20
1.631312
 30
0.0
  9
$EXTMAX
 10
9.222285714285711
 20
7.794
 30
0.0
  9
$LIMMIN
 10
0.0
 20
0.0
  9
$LIMMAX
 10
17.0
 20
11.0
  9
$ORTHOMODE
 70
     0
  9
$REGENMODE
 70
     0
  9
$FILLMODE
 70
     1
  9
$QTEXTMODE
 70
     0
  9
$MIRRTEXT
 70
     1
  9
$LTSCALE
 40
0.125
  9
$ATTMODE
 70
     1
  9
$TEXTSIZE
 40
0.175
  9
$TRACEWID
 40
0.05
  9
$TEXTSTYLE
  7
STANDARD
  9
$CLAYER
  8
DIM
  9
$CELTYPE
  6
ByLayer
  9
$CECOLOR
 62
   256
  9
$CELTSCALE
 40
1.0
  9
$DISPSILH
 70
     0
  9
$DIMSCALE
 40
1.0
  9
$DIMASZ
 40
0.125
  9
$DIMEXO
 40
0.063
  9
$DIMDLI
 40
0.38
  9
$DIMRND
 40
0.0
  9
$DIMDLE
 40
0.0
  9
$DIMEXE
 40
0.18
  9
$DIMTP
 40
0.0
  9
$DIMTM
 40
0.0
  9
$DIMTXT
 40
0.125
  9
$DIMCEN
 40
0.09
  9
$DIMTSZ
 40
0.0
  9
$DIMTOL
 70
     0
  9
$DIMLIM
 70
     0
  9
$DIMTIH
 70
     1
  9
$DIMTOH
 70
     1
  9
$DIMSE1
 70
     0
  9
$DIMSE2
 70
     0
  9
$DIMTAD
 70
     0
  9
$DIMZIN
 70
     0
  9
$DIMBLK
  1

  9
$DIMASO
 70
     0
  9
$DIMSHO
 70
     0
  9
$DIMPOST
  1

  9
$DIMAPOST
  1

  9
$DIMALT
 70
     0
  9
$DIMALTD
 70
     2
  9
$DIMALTF
 40
25.4
  9
$DIMLFAC
 40
1.0
  9
$DIMTOFL
 70
     0
  9
$DIMTVP
 40
0.0
  9
$DIMTIX
 70
     0
  9
$DIMSOXD
 70
     0
  9
$DIMSAH
 70
     0
  9
$DIMBLK1
  1

  9
$DIMBLK2
  1

  9
$DIMSTYLE
  2
Standard
  9
$DIMCLRD
 70
     0
  9
$DIMCLRE
 70
     0
  9
$DIMCLRT
 70
     0
  9
$DIMTFAC
 40
1.0
  9
$DIMGAP
 40
0.09
  9
$DIMJUST
 70
     0
  9
$DIMSD1
 70
     0
  9
$DIMSD2
 70
     0
  9
$DIMTOLJ
 70
     1
  9
$DIMTZIN
 70
     0
  9
$DIMALTZ
 70
     0
  9
$DIMALTTZ
 70
     0
  9
$DIMUPT
 70
     0
  9
$DIMDEC
 70
     4
  9
$DIMTDEC
 70
     4
  9
$DIMALTU
 70
     2
  9
$DIMALTTD
 70
     2
  9
$DIMTXSTY
  7
STANDARD
  9
$DIMAUNIT
 70
     0
  9
$DIMADEC
 70
     0
  9
$DIMALTRND
 40
0.0
  9
$DIMAZIN
 70
     0
  9
$DIMDSEP
 70
    46
  9
$DIMATFIT
 70
     3
  9
$DIMFRAC
 70
     0
  9
$DIMLDRBLK
  1

  9
$DIMLUNIT
 70
     2
  9
$DIMLWD
 70
    -2
  9
$DIMLWE
 70
    -2
  9
$DIMTMOVE
 70
     0
  9
$LUNITS
 70
     2
  9
$LUPREC
 70
     4
  9
$SKETCHINC
 40
0.1
  9
$FILLETRAD
 40
0.021
  9
$AUNITS
 70
     0
  9
$AUPREC
 70
     0
  9
$MENU
  1
acad
  9
$ELEVATION
 40
0.0
  9
$PELEVATION
 40
0.0
  9
$THICKNESS
 40
0.0
  9
$LIMCHECK
 70
     0
  9
$CHAMFERA
 40
0.0
  9
$CHAMFERB
 40
0.0
  9
$CHAMFERC
 40
1.0
  9
$CHAMFERD
 40
0.0
  9
$SKPOLY
 70
     0
  9
$TDCREATE
 40
2453955.561213079
  9
$TDUCREATE
 40
2453955.894546412
  9
$TDUPDATE
 40
2453955.602879757
  9
$TDUUPDATE
 40
2453955.894546424
  9
$TDINDWG
 40
0.0000000116
  9
$TDUSRTIMER
 40
0.0000000116
  9
$USRTIMER
 70
     1
  9
$ANGBASE
 50
0.0
  9
$ANGDIR
 70
     0
  9
$PDMODE
 70
     0
  9
$PDSIZE
 40
5.0
  9
$PLINEWID
 40
0.0
  9
$SPLFRAME
 70
     0
  9
$SPLINETYPE
 70
     6
  9
$SPLINESEGS
 70
     8
  9
$HANDSEED
  5
5F6
  9
$SURFTAB1
 70
     6
  9
$SURFTAB2
 70
     6
  9
$SURFTYPE
 70
     6
  9
$SURFU
 70
     6
  9
$SURFV
 70
     6
  9
$UCSBASE
  2

  9
$UCSNAME
  2

  9
$UCSORG
 10
0.0
 20
0.0
 30
0.0
  9
$UCSXDIR
 10
1.0
 20
0.0
 30
0.0
  9
$UCSYDIR
 10
0.0
 20
1.0
 30
0.0
  9
$UCSORTHOREF
  2

  9
$UCSORTHOVIEW
 70
     0
  9
$UCSORGTOP
 10
0.0
 20
0.0
 30
0.0
  9
$UCSORGBOTTOM
 10
0.0
 20
0.0
 30
0.0
  9
$UCSORGLEFT
 10
0.0
 20
0.0
 30
0.0
  9
$UCSORGRIGHT
 10
0.0
 20
0.0
 30
0.0
  9
$UCSORGFRONT
 10
0.0
 20
0.0
 30
0.0
  9
$UCSORGBACK
 10
0.0
 20
0.0
 30
0.0
  9
$PUCSBASE
  2

  9
$PUCSNAME
  2

  9
$PUCSORG
 10
0.0
 20
0.0
 30
0.0
  9
$PUCSXDIR
 10
1.0
 20
0.0
 30
0.0
  9
$PUCSYDIR
 10
0.0
 20
1.0
 30
0.0
  9
$PUCSORTHOREF
  2

  9
$PUCSORTHOVIEW
 70
     0
  9
$PUCSORGTOP
 10
0.0
 20
0.0
 30
0.0
  9
$PUCSORGBOTTOM
 10
0.0
 20
0.0
 30
0.0
  9
$PUCSORGLEFT
 10
0.0
 20
0.0
 30
0.0
  9
$PUCSORGRIGHT
 10
0.0
 20
0.0
 30
0.0
  9
$PUCSORGFRONT
 10
0.0
 20
0.0
 30
0.0
  9
$PUCSORGBACK
 10
0.0
 20
0.0
 30
0.0
  9
$USERI1
 70
     0
  9
$USERI2
 70
     0
  9
$USERI3
 70
     0
  9
$USERI4
 70
     0
  9
$USERI5
 70
     0
  9
$USERR1
 40
0.0
  9
$USERR2
 40
0.0
  9
$USERR3
 40
0.0
  9
$USERR4
 40
0.0
  9
$USERR5
 40
0.0
  9
$WORLDVIEW
 70
     1
  9
$SHADEDGE
 70
     3
  9
$SHADEDIF
 70
    70
  9
$TILEMODE
 70
     1
  9
$MAXACTVP
 70
    16
  9
$PINSBASE
 10
0.0
 20
0.0
 30
0.0
  9
$PLIMCHECK
 70
     0
  9
$PEXTMIN
 10
1.000000000000000E+20
 20
1.000000000000000E+20
 30
1.000000000000000E+20
  9
$PEXTMAX
 10
-1.000000000000000E+20
 20
-1.000000000000000E+20
 30
-1.000000000000000E+20
  9
$PLIMMIN
 10
0.0
 20
0.0
  9
$PLIMMAX
 10
12.0
 20
9.0
  9
$UNITMODE
 70
     0
  9
$VISRETAIN
 70
     0
  9
$PLINEGEN
 70
     0
  9
$PSLTSCALE
 70
     0
  9
$TREEDEPTH
 70
  3020
  9
$CMLSTYLE
  2
Standard
  9
$CMLJUST
 70
     0
  9
$CMLSCALE
 40
1.0
  9
$PROXYGRAPHICS
 70
     1
  9
$MEASUREMENT
 70
     0
  9
$CELWEIGHT
370
    -1
  9
$ENDCAPS
280
     0
  9
$JOINSTYLE
280
     0
  9
$LWDISPLAY
290
     0
  9
$INSUNITS
 70
     1
  9
$HYPERLINKBASE
  1

  9
$STYLESHEET
  1

  9
$XEDIT
290
     1
  9
$CEPSNTYPE
380
     0
  9
$PSTYLEMODE
290
     0
  9
$FINGERPRINTGUID
  2
{FAEB1C30-E019-11D5-929B-00C0DF256EC4}
  9
$VERSIONGUID
  2
{FAEB1C32-E019-11D5-929B-00C0DF256EC4}
  9
$EXTNAMES
290
     1
  9
$PSVPSCALE
 40
0.0
  9
$OLESTARTUP
290
     0
  0
ENDSEC
  0
SECTION
  2
CLASSES
  0
CLASS
  1
ACDBDICTIONARYWDFLT
  2
AcDbDictionaryWithDefault
  3
AutoCAD 2000
 90
        0
280
     0
281
     0
  0
CLASS
  1
ACDBPLACEHOLDER
  2
AcDbPlaceHolder
  3
ObjectDBX Classes
 90
        0
280
     0
281
     0
  0
CLASS
  1
LAYOUT
  2
AcDbLayout
  3
ObjectDBX Classes
 90
        0
280
     0
281
     0
  0
ENDSEC
  0
SECTION
  2
TABLES
  0
TABLE
  2
VPORT
  5
8
330
0
100
AcDbSymbolTable
 70
     2
  0
VPORT
  5
20
330
8
100
AcDbSymbolTableRecord
100
AcDbViewportTableRecord
  2
*ACTIVE
 70
     0
 10
0.0
 20
0.0
 11
1.0
 21
1.0
 12
8.5
 22
6.12652705061082
 13
0.0
 23
0.0
 14
1.0
 24
1.0
 15
0.0
 25
0.0
 16
0.0
 26
0.0
 36
1.0
 17
0.0
 27
0.0
 37
0.0
 40
12.25305410122164
 41
0.7207678883071553
 42
50.0
 43
0.0
 44
0.0
 50
0.0
 51
0.0
 71
     0
 72
  2000
 73
     1
 74
     0
 75
     0
 76
     0
 77
     0
 78
     2
281
     0
 65
     1
110
0.0
120
0.0
130
0.0
111
1.0
121
0.0
131
0.0
112
0.0
122
1.0
132
0.0
 79
     0
146
0.0
  0
ENDTAB
  0
TABLE
  2
LTYPE
  5
5
330
0
100
AcDbSymbolTable
 70
     2
  0
LTYPE
  5
10
330
5
100
AcDbSymbolTableRecord
100
AcDbLinetypeTableRecord
  2
ByBlock
 70
     0
  3

 72
    65
 73
     0
 40
0.0
  0
LTYPE
  5
11
330
5
100
AcDbSymbolTableRecord
100
AcDbLinetypeTableRecord
  2
ByLayer
 70
     0
  3

 72
    65
 73
     0
 40
0.0
  0
LTYPE
  5
1B
330
5
100
AcDbSymbolTableRecord
100
AcDbLinetypeTableRecord
  2
CONTINUOUS
 70
     0
  3
Solid line
 72
    65
 73
     0
 40
0.0
  0
LTYPE
  5
1C
330
5
100
AcDbSymbolTableRecord
100
AcDbLinetypeTableRecord
  2
HIDDEN
 70
     0
  3
------------------
 72
    65
 73
     2
 40
0.75
 49
0.5
 74
     0
 49
-0.25
 74
     0
  0
ENDTAB
  0
TABLE
  2
LAYER
  5
2
330
0
100
AcDbSymbolTable
 70
     2
  0
LAYER
  5
1D
330
2
100
AcDbSymbolTableRecord
100
AcDbLayerTableRecord
  2
0
 70
     0
 62
     7
  6
CONTINUOUS
370
    -3
390
F
  0
LAYER
  5
1E
330
2
100
AcDbSymbolTableRecord
100
AcDbLayerTableRecord
  2
DIM
 70
     0
 62
     7
  6
CONTINUOUS
370
    -3
390
0
  0
ENDTAB
  0
TABLE
  2
STYLE
  5
3
330
0
100
AcDbSymbolTable
 70
     1
  0
STYLE
  5
22
330
3
100
AcDbSymbolTableRecord
100
AcDbTextStyleTableRecord
  2
STANDARD
 70
     0
 40
0.0
 41
1.0
 50
0.0
 71
     0
 42
0.175
  3
ROMANS
  4

  0
ENDTAB
  0
TABLE
  2
VIEW
  5
6
330
0
100
AcDbSymbolTable
 70
     0
  0
ENDTAB
  0
TABLE
  2
UCS
  5
7
330
0
100
AcDbSymbolTable
 70
     0
  0
ENDTAB
  0
TABLE
  2
APPID
  5
9
330
0
100
AcDbSymbolTable
 70
     1
  0
APPID
  5
21
330
9
100
AcDbSymbolTableRecord
100
AcDbRegAppTableRecord
  2
ACAD
 70
     0
  0
ENDTAB
  0
TABLE
  2
DIMSTYLE
  5
A
330
0
100
AcDbSymbolTable
 70
     1
100
AcDbDimStyleTable
  0
DIMSTYLE
105
23
330
A
100
AcDbSymbolTableRecord
100
AcDbDimStyleTableRecord
  2
Standard
 70
     0
  3

  4

340
22
  0
ENDTAB
  0
TABLE
  2
BLOCK_RECORD
  5
1
330
0
100
AcDbSymbolTable
 70
     0
  0
BLOCK_RECORD
  5
18
330
1
100
AcDbSymbolTableRecord
100
AcDbBlockTableRecord
  2
*Model_Space
340
19
  0
BLOCK_RECORD
  5
16
330
1
100
AcDbSymbolTableRecord
100
AcDbBlockTableRecord
  2
*Paper_Space
340
17
  0
ENDTAB
  0
ENDSEC
  0
SECTION
  2
BLOCKS
  0
BLOCK
  5
5EB
330
18
100
AcDbEntity
  8
0
100
AcDbBlockBegin
  2
*Model_Space
 70
     0
 10
0.0
 20
0.0
 30
0.0
  3
*Model_Space
  1

  4

  0
ENDBLK
  5
5EC
330
18
100
AcDbEntity
  8
0
100
AcDbBlockEnd
  0
BLOCK
  5
5E9
330
16
100
AcDbEntity
 67
     1
  8
0
100
AcDbBlockBegin
  2
*Paper_Space
 70
     0
 10
0.0
 20
0.0
 30
0.0
  3
*Paper_Space
  1

  4

  0
ENDBLK
  5
5EA
330
16
100
AcDbEntity
 67
     1
  8
0
100
AcDbBlockEnd
  0
ENDSEC
  0
SECTION
  2
ENTITIES
  0
ARC
  5
24
330
18
100
AcDbEntity
  8
0
100
AcDbCircle
 10
5.097
 20
3.516
 30
0.0
 40
0.008
100
AcDbArc
 50
199.885
 51
222.185
  0
ARC
  5
25
330
18
100
AcDbEntity
  8
0
100
AcDbCircle
 10
5.097
 20
3.516
 30
0.0
 40
0.008
100
AcDbArc
 50
177.468
 51
199.885
  0
ARC
  5
26
330
18
100
AcDbEntity
  8
0
100
AcDbCircle
 10
5.097
 20
3.516
 30
0.0
 40
0.008
100
AcDbArc
 50
154.886
 51
177.468
  0
ARC
  5
27
330
18
100
AcDbEntity
  8
0
100
AcDbCircle
 10
5.097
 20
3.516
 30
0.0
 40
0.008
100
AcDbArc
 50
132.185
 51
154.886
  0
ARC
  5
28
330
18
100
AcDbEntity
  8
0
100
AcDbCircle
 10
5.097
 20
3.516
 30
0.0
 40
0.008
100
AcDbArc
 50
109.485
 51
132.185
  0
ARC
  5
29
330
18
100
AcDbEntity
  8
0
100
AcDbCircle
 10
5.097
 20
3.516
 30
0.0
 40
0.008
100
AcDbArc
 50
86.902
 51
109.485
  0
ARC
  5
2A
330
18
100
AcDbEntity
  8
0
100
AcDbCircle
 10
5.097
 20
3.516
 30
0.0
 40
0.008
100
AcDbArc
 50
64.486
 51
86.902
  0
ARC
  5
2B
330
18
100
AcDbEntity
  8
0
100
AcDbCircle
 10
5.097
 20
3.516
 30
0.0
 40
0.008
100
AcDbArc
 50
42.185
 51
64.486
  0
ARC
  5
2C
330
18
100
AcDbEntity
  8
0
100
AcDbCircle
 10
5.097
 20
3.516
 30
0.0
 40
0.008
100
AcDbArc
 50
19.885
 51
42.185
  0
ARC
  5
2D
330
18
100
AcDbEntity
  8
0
100
AcDbCircle
 10
5.097
 20
3.516
 30
0.0
 40
0.008
100
AcDbArc
 50
357.468
 51
19.885
  0
ARC
  5
2E
330
18
100
AcDbEntity
  8
0
100
AcDbCircle
 10
5.097
 20
3.516
 30
0.0
 40
0.008
100
AcDbArc
 50
334.886
 51
357.468
  0
ARC
  5
2F
330
18
100
AcDbEntity
  8
0
100
AcDbCircle
 10
5.097
 20
3.516
 30
0.0
 40
0.008
100
AcDbArc
 50
312.185
 51
334.886
  0
ARC
  5
30
330
18
100
AcDbEntity
  8
0
100
AcDbCircle
 10
5.097
 20
3.516
 30
0.0
 40
0.008
100
AcDbArc
 50
289.485
 51
312.185
  0
ARC
  5
31
330
18
100
AcDbEntity
  8
0
100
AcDbCircle
 10
5.097
 20
3.516
 30
0.0
 40
0.008
100
AcDbArc
 50
266.902
 51
289.485
  0
ARC
  5
32
330
18
100
AcDbEntity
  8
0
100
AcDbCircle
 10
5.097
 20
3.516
 30
0.0
 40
0.008
100
AcDbArc
 50
244.486
 51
266.902
  0
ARC
  5
33
330
18
100
AcDbEntity
  8
0
100
AcDbCircle
 10
5.097
 20
3.516
 30
0.0
 40
0.008
100
AcDbArc
 50
222.185
 51
244.486
  0
ARC
  5
34
330
18
100
AcDbEntity
  8
0
100
AcDbCircle
 10
5.093
 20
3.519
 30
0.0
 40
0.008
100
AcDbArc
 50
244.486
 51
248.1
  0
ARC
  5
35
330
18
100
AcDbEntity
  8
0
100
AcDbCircle
 10
5.093
 20
3.519
 30
0.0
 40
0.008
100
AcDbArc
 50
222.185
 51
244.486
  0
ARC
  5
36
330
18
100
AcDbEntity
  8
0
100
AcDbCircle
 10
5.093
 20
3.519
 30
0.0
 40
0.008
100
AcDbArc
 50
199.885
 51
222.185
  0
ARC
  5
37
330
18
100
AcDbEntity
  8
0
100
AcDbCircle
 10
5.093
 20
3.519
 30
0.0
 40
0.008
100
AcDbArc
 50
177.468
 51
199.885
  0
ARC
  5
38
330
18
100
AcDbEntity
  8
0
100
AcDbCircle
 10
5.093
 20
3.519
 30
0.0
 40
0.008
100
AcDbArc
 50
154.886
 51
177.468
  0
ARC
  5
39
330
18
100
AcDbEntity
  8
0
100
AcDbCircle
 10
5.093
 20
3.519
 30
0.0
 40
0.008
100
AcDbArc
 50
132.185
 51
154.886
  0
ARC
  5
3A
330
18
100
AcDbEntity
  8
0
100
AcDbCircle
 10
5.093
 20
3.519
 30
0.0
 40
0.008
100
AcDbArc
 50
109.485
 51
132.185
  0
ARC
  5
3B
330
18
100
AcDbEntity
  8
0
100
AcDbCircle
 10
5.093
 20
3.519
 30
0.0
 40
0.008
100
AcDbArc
 50
86.902
 51
109.485
  0
ARC
  5
3C
330
18
100
AcDbEntity
  8
0
100
AcDbCircle
 10
5.093
 20
3.519
 30
0.0
 40
0.008
100
AcDbArc
 50
64.486
 51
86.902
  0
ARC
  5
3D
330
18
100
AcDbEntity
  8
0
100
AcDbCircle
 10
5.093
 20
3.519
 30
0.0
 40
0.008
100
AcDbArc
 50
42.185
 51
64.486
  0
ARC
  5
3E
330
18
100
AcDbEntity
  8
0
100
AcDbCircle
 10
5.093
 20
3.519
 30
0.0
 40
0.008
100
AcDbArc
 50
30.827
 51
42.185
  0
ARC
  5
3F
330
18
100
AcDbEntity
  8
0
100
AcDbCircle
 10
2.335
 20
5.022
 30
0.0
 40
0.008
100
AcDbArc
 50
199.885
 51
222.185
  0
ARC
  5
40
330
18
100
AcDbEntity
  8
0
100
AcDbCircle
 10
2.335
 20
5.022
 30
0.0
 40
0.008
100
AcDbArc
 50
177.468
 51
199.885
  0
ARC
  5
41
330
18
100
AcDbEntity
  8
0
100
AcDbCircle
 10
2.335
 20
5.022
 30
0.0
 40
0.008
100
AcDbArc
 50
154.886
 51
177.468
  0
ARC
  5
42
330
18
100
AcDbEntity
  8
0
100
AcDbCircle
 10
2.335
 20
5.022
 30
0.0
 40
0.008
100
AcDbArc
 50
132.185
 51
154.886
  0
ARC
  5
43
330
18
100
AcDbEntity
  8
0
100
AcDbCircle
 10
2.335
 20
5.022
 30
0.0
 40
0.008
100
AcDbArc
 50
109.485
 51
132.185
  0
ARC
  5
44
330
18
100
AcDbEntity
  8
0
100
AcDbCircle
 10
2.335
 20
5.021
 30
0.0
 40
0.008
100
AcDbArc
 50
86.902
 51
109.485
  0
ARC
  5
45
330
18
100
AcDbEntity
  8
0
100
AcDbCircle
 10
2.335
 20
5.021
 30
0.0
 40
0.008
100
AcDbArc
 50
64.486
 51
86.902
  0
ARC
  5
46
330
18
100
AcDbEntity
  8
0
100
AcDbCircle
 10
2.335
 20
5.021
 30
0.0
 40
0.008
100
AcDbArc
 50
42.185
 51
64.486
  0
ARC
  5
47
330
18
100
AcDbEntity
  8
0
100
AcDbCircle
 10
2.335
 20
5.021
 30
0.0
 40
0.008
100
AcDbArc
 50
19.885
 51
42.185
  0
ARC
  5
48
330
18
100
AcDbEntity
  8
0
100
AcDbCircle
 10
2.335
 20
5.021
 30
0.0
 40
0.008
100
AcDbArc
 50
357.468
 51
19.885
  0
ARC
  5
49
330
18
100
AcDbEntity
  8
0
100
AcDbCircle
 10
2.335
 20
5.021
 30
0.0
 40
0.008
100
AcDbArc
 50
334.886
 51
357.468
  0
ARC
  5
4A
330
18
100
AcDbEntity
  8
0
100
AcDbCircle
 10
2.335
 20
5.021
 30
0.0
 40
0.008
100
AcDbArc
 50
312.185
 51
334.886
  0
ARC
  5
4B
330
18
100
AcDbEntity
  8
0
100
AcDbCircle
 10
2.335
 20
5.021
 30
0.0
 40
0.008
100
AcDbArc
 50
289.485
 51
312.185
  0
ARC
  5
4C
330
18
100
AcDbEntity
  8
0
100
AcDbCircle
 10
2.335
 20
5.021
 30
0.0
 40
0.008
100
AcDbArc
 50
266.902
 51
289.485
  0
ARC
  5
4D
330
18
100
AcDbEntity
  8
0
100
AcDbCircle
 10
2.335
 20
5.021
 30
0.0
 40
0.008
100
AcDbArc
 50
244.486
 51
266.902
  0
ARC
  5
4E
330
18
100
AcDbEntity
  8
0
100
AcDbCircle
 10
2.335
 20
5.022
 30
0.0
 40
0.008
100
AcDbArc
 50
222.185
 51
244.486
  0
ARC
  5
4F
330
18
100
AcDbEntity
  8
0
100
AcDbCircle
 10
2.331
 20
5.025
 30
0.0
 40
0.008
100
AcDbArc
 50
244.486
 51
248.1
  0
ARC
  5
50
330
18
100
AcDbEntity
  8
0
100
AcDbCircle
 10
2.331
 20
5.025
 30
0.0
 40
0.008
100
AcDbArc
 50
222.185
 51
244.486
  0
ARC
  5
51
330
18
100
AcDbEntity
  8
0
100
AcDbCircle
 10
2.331
 20
5.025
 30
0.0
 40
0.008
100
AcDbArc
 50
199.885
 51
222.185
  0
ARC
  5
52
330
18
100
AcDbEntity
  8
0
100
AcDbCircle
 10
2.331
 20
5.025
 30
0.0
 40
0.008
100
AcDbArc
 50
177.468
 51
199.885
  0
ARC
  5
53
330
18
100
AcDbEntity
  8
0
100
AcDbCircle
 10
2.331
 20
5.025
 30
0.0
 40
0.008
100
AcDbArc
 50
154.886
 51
177.468
  0
ARC
  5
54
330
18
100
AcDbEntity
  8
0
100
AcDbCircle
 10
2.331
 20
5.025
 30
0.0
 40
0.008
100
AcDbArc
 50
132.185
 51
154.886
  0
ARC
  5
55
330
18
100
AcDbEntity
  8
0
100
AcDbCircle
 10
2.331
 20
5.025
 30
0.0
 40
0.008
100
AcDbArc
 50
109.485
 51
132.185
  0
ARC
  5
56
330
18
100
AcDbEntity
  8
0
100
AcDbCircle
 10
2.331
 20
5.025
 30
0.0
 40
0.008
100
AcDbArc
 50
86.902
 51
109.485
  0
ARC
  5
57
330
18
100
AcDbEntity
  8
0
100
AcDbCircle
 10
2.331
 20
5.025
 30
0.0
 40
0.008
100
AcDbArc
 50
64.486
 51
86.902
  0
ARC
  5
58
330
18
100
AcDbEntity
  8
0
100
AcDbCircle
 10
2.331
 20
5.025
 30
0.0
 40
0.008
100
AcDbArc
 50
42.185
 51
64.486
  0
ARC
  5
59
330
18
100
AcDbEntity
  8
0
100
AcDbCircle
 10
2.331
 20
5.025
 30
0.0
 40
0.008
100
AcDbArc
 50
30.827
 51
42.185
  0
ARC
  5
5A
330
18
100
AcDbEntity
  8
0
100
AcDbCircle
 10
2.454
 20
5.269
 30
0.0
 40
0.005
100
AcDbArc
 50
143.449
 51
180.048
  0
ARC
  5
5B
330
18
100
AcDbEntity
  8
0
100
AcDbCircle
 10
2.481
 20
5.269
 30
0.0
 40
0.005
100
AcDbArc
 50
0.048
 51
36.551
  0
ARC
  5
5C
330
18
100
AcDbEntity
  8
0
100
AcDbCircle
 10
2.481
 20
5.269
 30
0.0
 40
0.005
100
AcDbArc
 50
319.51
 51
0.048
  0
ARC
  5
5D
330
18
100
AcDbEntity
  8
0
100
AcDbCircle
 10
2.475
 20
5.274
 30
0.0
 40
0.013
100
AcDbArc
 50
295.89
 51
319.51
  0
ARC
  5
5E
330
18
100
AcDbEntity
  8
0
100
AcDbCircle
 10
2.47
 20
5.283
 30
0.0
 40
0.023
100
AcDbArc
 50
281.392
 51
295.89
  0
ARC
  5
5F
330
18
100
AcDbEntity
  8
0
100
AcDbCircle
 10
2.467
 20
5.297000000000001
 30
0.0
 40
0.037
100
AcDbArc
 50
270.048
 51
281.392
  0
ARC
  5
60
330
18
100
AcDbEntity
  8
0
100
AcDbCircle
 10
2.467
 20
5.297000000000001
 30
0.0
 40
0.037
100
AcDbArc
 50
258.704
 51
270.048
  0
ARC
  5
61
330
18
100
AcDbEntity
  8
0
100
AcDbCircle
 10
2.465
 20
5.283
 30
0.0
 40
0.023
100
AcDbArc
 50
244.206
 51
258.704
  0
ARC
  5
62
330
18
100
AcDbEntity
  8
0
100
AcDbCircle
 10
2.46
 20
5.274
 30
0.0
 40
0.013
100
AcDbArc
 50
220.586
 51
244.206
  0
ARC
  5
63
330
18
100
AcDbEntity
  8
0
100
AcDbCircle
 10
2.454
 20
5.269
 30
0.0
 40
0.005
100
AcDbArc
 50
180.048
 51
220.586
  0
ARC
  5
64
330
18
100
AcDbEntity
  8
0
100
AcDbCircle
 10
2.454
 20
5.274
 30
0.0
 40
0.005
100
AcDbArc
 50
139.51
 51
180.048
  0
ARC
  5
65
330
18
100
AcDbEntity
  8
0
100
AcDbCircle
 10
2.46
 20
5.268
 30
0.0
 40
0.013
100
AcDbArc
 50
115.89
 51
139.51
  0
ARC
  5
66
330
18
100
AcDbEntity
  8
0
100
AcDbCircle
 10
2.465
 20
5.26
 30
0.0
 40
0.023
100
AcDbArc
 50
101.392
 51
115.89
  0
ARC
  5
67
330
18
100
AcDbEntity
  8
0
100
AcDbCircle
 10
2.467
 20
5.246
 30
0.0
 40
0.037
100
AcDbArc
 50
90.04799999999999
 51
101.392
  0
ARC
  5
68
330
18
100
AcDbEntity
  8
0
100
AcDbCircle
 10
2.467
 20
5.246
 30
0.0
 40
0.037
100
AcDbArc
 50
78.70399999999999
 51
90.04799999999999
  0
ARC
  5
69
330
18
100
AcDbEntity
  8
0
100
AcDbCircle
 10
2.47
 20
5.26
 30
0.0
 40
0.023
100
AcDbArc
 50
64.206
 51
78.70399999999999
  0
ARC
  5
6A
330
18
100
AcDbEntity
  8
0
100
AcDbCircle
 10
2.475
 20
5.268
 30
0.0
 40
0.013
100
AcDbArc
 50
40.586
 51
64.206
  0
ARC
  5
6B
330
18
100
AcDbEntity
  8
0
100
AcDbCircle
 10
2.481
 20
5.274
 30
0.0
 40
0.005
100
AcDbArc
 50
0.048
 51
40.586
  0
ARC
  5
6C
330
18
100
AcDbEntity
  8
0
100
AcDbCircle
 10
2.481
 20
5.274
 30
0.0
 40
0.005
100
AcDbArc
 50
319.51
 51
0.048
  0
ARC
  5
6D
330
18
100
AcDbEntity
  8
0
100
AcDbCircle
 10
2.475
 20
5.279
 30
0.0
 40
0.013
100
AcDbArc
 50
295.89
 51
319.51
  0
ARC
  5
6E
330
18
100
AcDbEntity
  8
0
100
AcDbCircle
 10
2.47
 20
5.287999999999999
 30
0.0
 40
0.023
100
AcDbArc
 50
281.392
 51
295.89
  0
ARC
  5
6F
330
18
100
AcDbEntity
  8
0
100
AcDbCircle
 10
2.467
 20
5.302000000000001
 30
0.0
 40
0.037
100
AcDbArc
 50
270.048
 51
281.392
  0
ARC
  5
70
330
18
100
AcDbEntity
  8
0
100
AcDbCircle
 10
2.467
 20
5.302000000000001
 30
0.0
 40
0.037
100
AcDbArc
 50
258.704
 51
270.048
  0
ARC
  5
71
330
18
100
AcDbEntity
  8
0
100
AcDbCircle
 10
2.465
 20
5.287999999999999
 30
0.0
 40
0.023
100
AcDbArc
 50
244.206
 51
258.704
  0
ARC
  5
72
330
18
100
AcDbEntity
  8
0
100
AcDbCircle
 10
2.46
 20
5.279
 30
0.0
 40
0.013
100
AcDbArc
 50
220.586
 51
244.206
  0
ARC
  5
73
330
18
100
AcDbEntity
  8
0
100
AcDbCircle
 10
2.454
 20
5.274
 30
0.0
 40
0.005
100
AcDbArc
 50
180.048
 51
220.586
  0
ARC
  5
74
330
18
100
AcDbEntity
  8
0
100
AcDbCircle
 10
2.246
 20
5.346
 30
0.0
 40
0.005
100
AcDbArc
 50
143.449
 51
180.048
  0
ARC
  5
75
330
18
100
AcDbEntity
  8
0
100
AcDbCircle
 10
2.273
 20
5.347
 30
0.0
 40
0.005
100
AcDbArc
 50
0.048
 51
36.551
  0
ARC
  5
76
330
18
100
AcDbEntity
  8
0
100
AcDbCircle
 10
2.273
 20
5.347
 30
0.0
 40
0.005
100
AcDbArc
 50
319.51
 51
0.048
  0
ARC
  5
77
330
18
100
AcDbEntity
  8
0
100
AcDbCircle
 10
2.267
 20
5.352
 30
0.0
 40
0.013
100
AcDbArc
 50
295.89
 51
319.51
  0
ARC
  5
78
330
18
100
AcDbEntity
  8
0
100
AcDbCircle
 10
2.262
 20
5.361000000000001
 30
0.0
 40
0.023
100
AcDbArc
 50
281.392
 51
295.89
  0
ARC
  5
79
330
18
100
AcDbEntity
  8
0
100
AcDbCircle
 10
2.259
 20
5.375
 30
0.0
 40
0.037
100
AcDbArc
 50
270.048
 51
281.392
  0
ARC
  5
7A
330
18
100
AcDbEntity
  8
0
100
AcDbCircle
 10
2.259
 20
5.375
 30
0.0
 40
0.037
100
AcDbArc
 50
258.704
 51
270.048
  0
ARC
  5
7B
330
18
100
AcDbEntity
  8
0
100
AcDbCircle
 10
2.257
 20
5.361000000000001
 30
0.0
 40
0.023
100
AcDbArc
 50
244.206
 51
258.704
  0
ARC
  5
7C
330
18
100
AcDbEntity
  8
0
100
AcDbCircle
 10
2.252
 20
5.352
 30
0.0
 40
0.013
100
AcDbArc
 50
220.586
 51
244.206
  0
ARC
  5
7D
330
18
100
AcDbEntity
  8
0
100
AcDbCircle
 10
2.246
 20
5.346
 30
0.0
 40
0.005
100
AcDbArc
 50
180.048
 51
220.586
  0
ARC
  5
7E
330
18
100
AcDbEntity
  8
0
100
AcDbCircle
 10
2.246
 20
5.352
 30
0.0
 40
0.005
100
AcDbArc
 50
139.51
 51
180.048
  0
ARC
  5
7F
330
18
100
AcDbEntity
  8
0
100
AcDbCircle
 10
2.252
 20
5.346
 30
0.0
 40
0.013
100
AcDbArc
 50
115.89
 51
139.51
  0
ARC
  5
80
330
18
100
AcDbEntity
  8
0
100
AcDbCircle
 10
2.257
 20
5.337999999999999
 30
0.0
 40
0.023
100
AcDbArc
 50
101.392
 51
115.89
  0
ARC
  5
81
330
18
100
AcDbEntity
  8
0
100
AcDbCircle
 10
2.259
 20
5.324
 30
0.0
 40
0.037
100
AcDbArc
 50
90.04799999999999
 51
101.392
  0
ARC
  5
82
330
18
100
AcDbEntity
  8
0
100
AcDbCircle
 10
2.259
 20
5.324
 30
0.0
 40
0.037
100
AcDbArc
 50
78.70399999999999
 51
90.04799999999999
  0
ARC
  5
83
330
18
100
AcDbEntity
  8
0
100
AcDbCircle
 10
2.262
 20
5.337999999999999
 30
0.0
 40
0.023
100
AcDbArc
 50
64.206
 51
78.70399999999999
  0
ARC
  5
84
330
18
100
AcDbEntity
  8
0
100
AcDbCircle
 10
2.267
 20
5.346
 30
0.0
 40
0.013
100
AcDbArc
 50
40.586
 51
64.206
  0
ARC
  5
85
330
18
100
AcDbEntity
  8
0
100
AcDbCircle
 10
2.273
 20
5.352
 30
0.0
 40
0.005
100
AcDbArc
 50
0.048
 51
40.586
  0
ARC
  5
86
330
18
100
AcDbEntity
  8
0
100
AcDbCircle
 10
2.273
 20
5.352
 30
0.0
 40
0.005
100
AcDbArc
 50
319.51
 51
0.048
  0
ARC
  5
87
330
18
100
AcDbEntity
  8
0
100
AcDbCircle
 10
2.267
 20
5.357
 30
0.0
 40
0.013
100
AcDbArc
 50
295.89
 51
319.51
  0
ARC
  5
88
330
18
100
AcDbEntity
  8
0
100
AcDbCircle
 10
2.262
 20
5.366000000000001
 30
0.0
 40
0.023
100
AcDbArc
 50
281.392
 51
295.89
  0
ARC
  5
89
330
18
100
AcDbEntity
  8
0
100
AcDbCircle
 10
2.259
 20
5.38
 30
0.0
 40
0.037
100
AcDbArc
 50
270.048
 51
281.392
  0
ARC
  5
8A
330
18
100
AcDbEntity
  8
0
100
AcDbCircle
 10
2.259
 20
5.38
 30
0.0
 40
0.037
100
AcDbArc
 50
258.704
 51
270.048
  0
ARC
  5
8B
330
18
100
AcDbEntity
  8
0
100
AcDbCircle
 10
2.257
 20
5.366000000000001
 30
0.0
 40
0.023
100
AcDbArc
 50
244.206
 51
258.704
  0
ARC
  5
8C
330
18
100
AcDbEntity
  8
0
100
AcDbCircle
 10
2.252
 20
5.357
 30
0.0
 40
0.013
100
AcDbArc
 50
220.586
 51
244.206
  0
ARC
  5
8D
330
18
100
AcDbEntity
  8
0
100
AcDbCircle
 10
2.246
 20
5.352
 30
0.0
 40
0.005
100
AcDbArc
 50
180.048
 51
220.586
  0
LINE
  5
8E
330
18
100
AcDbEntity
  8
0
100
AcDbLine
 10
0.591
 20
5.589
 30
0.0
 11
0.588
 21
5.307
 31
0.0
  0
LINE
  5
8F
330
18
100
AcDbEntity
  8
0
100
AcDbLine
 10
0.653
 20
5.714
 30
0.0
 11
0.5920000000000001
 21
5.774
 31
0.0
  0
LINE
  5
90
330
18
100
AcDbEntity
  8
0
100
AcDbLine
 10
0.5429999999999999
 20
5.664
 30
0.0
 11
0.653
 21
5.714
 31
0.0
  0
LINE
  5
91
330
18
100
AcDbEntity
  8
0
100
AcDbLine
 10
0.591
 20
5.589
 30
0.0
 11
0.5429999999999999
 21
5.664
 31
0.0
  0
LINE
  5
92
330
18
100
AcDbEntity
  8
0
100
AcDbLine
 10
6.574
 20
5.919
 30
0.0
 11
6.672000000000001
 21
5.882999999999999
 31
0.0
  0
SOLID
  5
93
330
18
100
AcDbEntity
  8
0
100
AcDbTrace
 10
6.481
 20
5.847
 30
0.0
 11
6.519
 21
5.829
 31
0.0
 12
6.553
 22
5.951000000000001
 32
0.0
 13
6.553
 23
5.951000000000001
 33
0.0
  0
LINE
  5
94
330
18
100
AcDbEntity
  8
0
100
AcDbLine
 10
0.595
 20
6.089
 30
0.0
 11
0.5920000000000001
 21
5.774
 31
0.0
  0
LINE
  5
95
330
18
100
AcDbEntity
  8
0
100
AcDbLine
 10
0.588
 20
5.307
 30
0.0
 11
1.251
 21
4.987
 31
0.0
  0
LINE
  5
96
330
18
100
AcDbEntity
  8
0
100
AcDbLine
 10
6.281000000000001
 20
2.567
 30
0.0
 11
6.382000000000001
 21
2.61
 31
0.0
  0
LINE
  5
97
330
18
100
AcDbEntity
  8
0
100
AcDbLine
 10
6.483
 20
2.654
 30
0.0
 11
6.487
 21
2.771
 31
0.0
  0
LINE
  5
98
330
18
100
AcDbEntity
  8
0
100
AcDbLine
 10
0.595
 20
6.089
 30
0.0
 11
0.7559999999999999
 21
6.141
 31
0.0
  0
LINE
  5
99
330
18
100
AcDbEntity
  8
0
100
AcDbLine
 10
0.595
 20
6.089
 30
0.0
 11
2.418
 21
5.249
 31
0.0
  0
LINE
  5
9A
330
18
100
AcDbEntity
  8
0
100
AcDbLine
 10
7.247999999999999
 20
3.024
 30
0.0
 11
7.407
 21
3.124
 31
0.0
  0
LINE
  5
9B
330
18
100
AcDbEntity
  8
0
100
AcDbLine
 10
7.407
 20
3.124
 30
0.0
 11
6.99
 21
3.313
 31
0.0
  0
LINE
  5
9C
330
18
100
AcDbEntity
  8
0
100
AcDbLine
 10
3.367
 20
3.233
 30
0.0
 11
5.17
 21
3.973
 31
0.0
  0
LINE
  5
9D
330
18
100
AcDbEntity
  8
0
100
AcDbLine
 10
3.367
 20
3.233
 30
0.0
 11
3.208
 21
3.333
 31
0.0
  0
LINE
  5
9E
330
18
100
AcDbEntity
  8
0
100
AcDbLine
 10
3.208
 20
3.333
 30
0.0
 11
5.003
 21
4.048
 31
0.0
  0
LINE
  5
9F
330
18
100
AcDbEntity
  8
0
100
AcDbLine
 10
3.367
 20
3.233
 30
0.0
 11
3.367
 21
3.031
 31
0.0
  0
LINE
  5
A0
330
18
100
AcDbEntity
  8
0
100
AcDbLine
 10
3.367
 20
2.704
 30
0.0
 11
3.208
 21
2.779
 31
0.0
  0
LINE
  5
A1
330
18
100
AcDbEntity
  8
0
100
AcDbLine
 10
3.208
 20
3.333
 30
0.0
 11
3.208
 21
3.117
 31
0.0
  0
LINE
  5
A2
330
18
100
AcDbEntity
  8
0
100
AcDbLine
 10
3.367
 20
2.704
 30
0.0
 11
5.061
 21
3.454
 31
0.0
  0
LINE
  5
A3
330
18
100
AcDbEntity
  8
0
100
AcDbLine
 10
4.737
 20
3.31
 30
0.0
 11
5.289
 21
3.044
 31
0.0
  0
LINE
  5
A4
330
18
100
AcDbEntity
  8
0
100
AcDbLine
 10
0.897
 20
4.869
 30
0.0
 11
2.256
 21
5.324
 31
0.0
  0
LINE
  5
A5
330
18
100
AcDbEntity
  8
0
100
AcDbLine
 10
0.897
 20
4.869
 30
0.0
 11
1.016
 21
4.793
 31
0.0
  0
LINE
  5
A6
330
18
100
AcDbEntity
  8
0
100
AcDbLine
 10
1.016
 20
4.793
 30
0.0
 11
2.372
 21
5.271
 31
0.0
  0
LINE
  5
A7
330
18
100
AcDbEntity
  8
0
100
AcDbLine
 10
1.016
 20
4.793
 30
0.0
 11
1.016
 21
4.645
 31
0.0
  0
LINE
  5
A8
330
18
100
AcDbEntity
  8
0
100
AcDbLine
 10
0.897
 20
4.869
 30
0.0
 11
0.897
 21
4.711
 31
0.0
  0
LINE
  5
A9
330
18
100
AcDbEntity
  8
0
100
AcDbLine
 10
0.897
 20
4.448
 30
0.0
 11
1.016
 21
4.397
 31
0.0
  0
LINE
  5
AA
330
18
100
AcDbEntity
  8
0
100
AcDbLine
 10
1.016
 20
4.397
 30
0.0
 11
2.123
 21
4.763999999999999
 31
0.0
  0
LINE
  5
AB
330
18
100
AcDbEntity
  8
0
100
AcDbLine
 10
1.881
 20
4.684
 30
0.0
 11
2.421
 21
4.425
 31
0.0
  0
LINE
  5
AC
330
18
100
AcDbEntity
  8
0
100
AcDbLine
 10
0.816
 20
6.042000000000001
 30
0.0
 11
0.816
 21
6.091
 31
0.0
  0
LINE
  5
AD
330
18
100
AcDbEntity
  8
0
100
AcDbLine
 10
0.816
 20
6.091
 30
0.0
 11
1.118
 21
6.366000000000001
 31
0.0
  0
LINE
  5
AE
330
18
100
AcDbEntity
  8
0
100
AcDbLine
 10
1.118
 20
6.366000000000001
 30
0.0
 11
1.067
 21
6.846
 31
0.0
  0
LINE
  5
AF
330
18
100
AcDbEntity
  8
0
100
AcDbLine
 10
1.067
 20
6.846
 30
0.0
 11
1.54
 21
7.124
 31
0.0
  0
LINE
  5
B0
330
18
100
AcDbEntity
  8
0
100
AcDbLine
 10
1.935
 20
7.356
 30
0.0
 11
3.581
 21
7.068
 31
0.0
  0
LINE
  5
B1
330
18
100
AcDbEntity
  8
0
100
AcDbLine
 10
0.816
 20
6.042000000000001
 30
0.0
 11
2.408
 21
5.327999999999999
 31
0.0
  0
LINE
  5
B2
330
18
100
AcDbEntity
  8
0
100
AcDbLine
 10
2.408
 20
5.327999999999999
 30
0.0
 11
4.731
 21
6.097
 31
0.0
  0
LINE
  5
B3
330
18
100
AcDbEntity
  8
0
100
AcDbLine
 10
2.52
 20
5.307
 30
0.0
 11
3.216
 21
5.539
 31
0.0
  0
LINE
  5
B4
330
18
100
AcDbEntity
  8
0
100
AcDbLine
 10
0.816
 20
6.091
 30
0.0
 11
2.408
 21
5.377000000000001
 31
0.0
  0
LINE
  5
B5
330
18
100
AcDbEntity
  8
0
100
AcDbLine
 10
2.408
 20
5.327999999999999
 30
0.0
 11
2.408
 21
5.377000000000001
 31
0.0
  0
LINE
  5
B6
330
18
100
AcDbEntity
  8
0
100
AcDbLine
 10
2.408
 20
5.377000000000001
 30
0.0
 11
4.666
 21
6.125
 31
0.0
  0
LINE
  5
B7
330
18
100
AcDbEntity
  8
0
100
AcDbLine
 10
0.833
 20
6.106
 30
0.0
 11
0.7559999999999999
 21
6.141
 31
0.0
  0
LINE
  5
B8
330
18
100
AcDbEntity
  8
0
100
AcDbLine
 10
1.078
 20
6.746
 30
0.0
 11
2.823
 21
7.2
 31
0.0
  0
LINE
  5
B9
330
18
100
AcDbEntity
  8
0
100
AcDbLine
 10
2.428
 20
7.098
 30
0.0
 11
1.899
 21
7.335
 31
0.0
  0
LINE
  5
BA
330
18
100
AcDbEntity
  8
0
100
AcDbLine
 10
1.587
 20
6.879
 30
0.0
 11
3.908
 21
5.874
 31
0.0
  0
LINE
  5
BB
330
18
100
AcDbEntity
  8
0
100
AcDbLine
 10
3.908
 20
5.874
 30
0.0
 11
3.908
 21
5.825
 31
0.0
  0
LINE
  5
BC
330
18
100
AcDbEntity
  8
0
100
AcDbLine
 10
5.215
 20
4.09
 30
0.0
 11
7.865
 21
5.178999999999999
 31
0.0
  0
LINE
  5
BD
330
18
100
AcDbEntity
  8
0
100
AcDbLine
 10
5.215
 20
4.041
 30
0.0
 11
5.215
 21
4.09
 31
0.0
  0
LINE
  5
BE
330
18
100
AcDbEntity
  8
0
100
AcDbLine
 10
5.215
 20
4.09
 30
0.0
 11
6.905
 21
3.323
 31
0.0
  0
LINE
  5
BF
330
18
100
AcDbEntity
  8
0
100
AcDbLine
 10
6.905
 20
3.323
 30
0.0
 11
7.845
 21
3.756
 31
0.0
  0
LINE
  5
C0
330
18
100
AcDbEntity
  8
0
100
AcDbLine
 10
6.905
 20
3.274
 30
0.0
 11
6.905
 21
3.323
 31
0.0
  0
LINE
  5
C1
330
18
100
AcDbEntity
  8
0
100
AcDbLine
 10
8.49
 20
4.004
 30
0.0
 11
8.49
 21
4.053
 31
0.0
  0
LINE
  5
C2
330
18
100
AcDbEntity
  8
0
100
AcDbLine
 10
5.215
 20
4.041
 30
0.0
 11
6.905
 21
3.274
 31
0.0
  0
LINE
  5
C3
330
18
100
AcDbEntity
  8
0
100
AcDbLine
 10
6.905
 20
3.274
 30
0.0
 11
7.845
 21
3.707
 31
0.0
  0
LINE
  5
C4
330
18
100
AcDbEntity
  8
0
100
AcDbLine
 10
8.49
 20
4.053
 30
0.0
 11
8.327
 21
4.767
 31
0.0
  0
LINE
  5
C5
330
18
100
AcDbEntity
  8
0
100
AcDbLine
 10
8.327
 20
4.767
 30
0.0
 11
8.023999999999999
 21
4.915
 31
0.0
  0
LINE
  5
C6
330
18
100
AcDbEntity
  8
0
100
AcDbLine
 10
8.023999999999999
 20
4.915
 30
0.0
 11
7.755
 21
5.362
 31
0.0
  0
LINE
  5
C7
330
18
100
AcDbEntity
  8
0
100
AcDbLine
 10
7.467000000000001
 20
5.839
 30
0.0
 11
7.025
 21
6.159
 31
0.0
  0
LINE
  5
C8
330
18
100
AcDbEntity
  8
0
100
AcDbLine
 10
7.081
 20
4.882
 30
0.0
 11
6.077000000000001
 21
5.317
 31
0.0
  0
LINE
  5
C9
330
18
100
AcDbEntity
  8
0
100
AcDbLine
 10
7.391
 20
4.985
 30
0.0
 11
5.917999999999999
 21
5.615
 31
0.0
  0
LINE
  5
CA
330
18
100
AcDbEntity
  8
0
100
AcDbLine
 10
7.285
 20
4.971
 30
0.0
 11
5.812
 21
5.607
 31
0.0
  0
LINE
  5
CB
330
18
100
AcDbEntity
  8
0
100
AcDbLine
 10
7.362
 20
4.973
 30
0.0
 11
5.823
 21
5.631
 31
0.0
  0
LINE
  5
CC
330
18
100
AcDbEntity
  8
0
100
AcDbLine
 10
5.891
 20
5.605
 30
0.0
 11
5.891
 21
5.761
 31
0.0
  0
LINE
  5
CD
330
18
100
AcDbEntity
  8
0
100
AcDbLine
 10
5.834
 20
5.626
 30
0.0
 11
5.834
 21
5.656000000000001
 31
0.0
  0
LINE
  5
CE
330
18
100
AcDbEntity
  8
0
100
AcDbLine
 10
5.867000000000001
 20
5.642
 30
0.0
 11
5.867000000000001
 21
5.771
 31
0.0
  0
LINE
  5
CF
330
18
100
AcDbEntity
  8
0
100
AcDbLine
 10
5.891
 20
5.761
 30
0.0
 11
7.358
 21
6.287000000000001
 31
0.0
  0
LINE
  5
D0
330
18
100
AcDbEntity
  8
0
100
AcDbLine
 10
5.97
 20
5.79
 30
0.0
 11
3.215
 21
6.928
 31
0.0
  0
LINE
  5
D1
330
18
100
AcDbEntity
  8
0
100
AcDbLine
 10
5.97
 20
5.79
 30
0.0
 11
5.97
 21
5.812
 31
0.0
  0
LINE
  5
D2
330
18
100
AcDbEntity
  8
0
100
AcDbLine
 10
5.97
 20
5.812
 30
0.0
 11
3.215
 21
6.95
 31
0.0
  0
LINE
  5
D3
330
18
100
AcDbEntity
  8
0
100
AcDbLine
 10
5.97
 20
5.812
 30
0.0
 11
7.358
 21
6.309
 31
0.0
  0
LINE
  5
D4
330
18
100
AcDbEntity
  8
0
100
AcDbLine
 10
7.358
 20
6.309
 30
0.0
 11
7.358
 21
6.287000000000001
 31
0.0
  0
LINE
  5
D5
330
18
100
AcDbEntity
  8
0
100
AcDbLine
 10
5.891
 20
5.78
 30
0.0
 11
3.265
 21
6.872000000000001
 31
0.0
  0
LINE
  5
D6
330
18
100
AcDbEntity
  8
0
100
AcDbLine
 10
3.265
 20
6.872000000000001
 30
0.0
 11
3.265
 21
6.749
 31
0.0
  0
LINE
  5
D7
330
18
100
AcDbEntity
  8
0
100
AcDbLine
 10
3.265
 20
6.749
 30
0.0
 11
3.278
 21
6.742000000000001
 31
0.0
  0
LINE
  5
D8
330
18
100
AcDbEntity
  8
0
100
AcDbLine
 10
3.278
 20
6.742000000000001
 30
0.0
 11
3.278
 21
6.718
 31
0.0
  0
LINE
  5
D9
330
18
100
AcDbEntity
  8
0
100
AcDbLine
 10
3.215
 20
6.95
 30
0.0
 11
3.215
 21
6.928
 31
0.0
  0
LINE
  5
DA
330
18
100
AcDbEntity
  8
0
100
AcDbLine
 10
3.265
 20
6.872000000000001
 30
0.0
 11
3.292
 21
6.897
 31
0.0
  0
LINE
  5
DB
330
18
100
AcDbEntity
  8
0
100
AcDbLine
 10
3.237
 20
6.871
 30
0.0
 11
3.237
 21
6.736000000000001
 31
0.0
  0
LINE
  5
DC
330
18
100
AcDbEntity
  8
0
100
AcDbLine
 10
3.265
 20
6.858
 30
0.0
 11
3.191
 21
6.896
 31
0.0
  0
LINE
  5
DD
330
18
100
AcDbEntity
  8
0
100
AcDbLine
 10
3.191
 20
6.896
 30
0.0
 11
3.237
 21
6.919
 31
0.0
  0
LINE
  5
DE
330
18
100
AcDbEntity
  8
0
100
AcDbLine
 10
3.215
 20
6.95
 30
0.0
 11
4.704
 21
7.369
 31
0.0
  0
LINE
  5
DF
330
18
100
AcDbEntity
  8
0
100
AcDbLine
 10
4.704
 20
7.369
 30
0.0
 11
5.821000000000001
 21
6.922999999999999
 31
0.0
  0
LINE
  5
E0
330
18
100
AcDbEntity
  8
0
100
AcDbLine
 10
5.97
 20
5.635
 30
0.0
 11
5.97
 21
5.79
 31
0.0
  0
LINE
  5
E1
330
18
100
AcDbEntity
  8
0
100
AcDbLine
 10
5.891
 20
5.761
 30
0.0
 11
5.867000000000001
 21
5.771
 31
0.0
  0
LINE
  5
E2
330
18
100
AcDbEntity
  8
0
100
AcDbLine
 10
5.867000000000001
 20
5.771
 30
0.0
 11
5.944
 21
5.801
 31
0.0
  0
LINE
  5
E3
330
18
100
AcDbEntity
  8
0
100
AcDbLine
 10
5.891
 20
5.605
 30
0.0
 11
5.97
 21
5.635
 31
0.0
  0
LINE
  5
E4
330
18
100
AcDbEntity
  8
0
100
AcDbLine
 10
6.672000000000001
 20
5.882999999999999
 30
0.0
 11
6.751
 21
5.912999999999999
 31
0.0
  0
LINE
  5
E5
330
18
100
AcDbEntity
  8
0
100
AcDbLine
 10
6.751
 20
5.912999999999999
 30
0.0
 11
6.751
 21
6.069
 31
0.0
  0
LINE
  5
E6
330
18
100
AcDbEntity
  8
0
100
AcDbLine
 10
6.647
 20
5.92
 30
0.0
 11
6.647
 21
6.032
 31
0.0
  0
LINE
  5
E7
330
18
100
AcDbEntity
  8
0
100
AcDbLine
 10
6.615
 20
5.904
 30
0.0
 11
6.615
 21
5.931
 31
0.0
  0
LINE
  5
E8
330
18
100
AcDbEntity
  8
0
100
AcDbLine
 10
6.672000000000001
 20
5.882999999999999
 30
0.0
 11
6.672000000000001
 21
6.041
 31
0.0
  0
LINE
  5
E9
330
18
100
AcDbEntity
  8
0
100
AcDbLine
 10
6.452999999999999
 20
5.962999999999999
 30
0.0
 11
6.542000000000001
 21
5.93
 31
0.0
  0
LINE
  5
EA
330
18
100
AcDbEntity
  8
0
100
AcDbLine
 10
5.867000000000001
 20
5.642
 30
0.0
 11
5.834
 21
5.656000000000001
 31
0.0
  0
LINE
  5
EB
330
18
100
AcDbEntity
  8
0
100
AcDbLine
 10
6.615
 20
5.931
 30
0.0
 11
6.647
 21
5.92
 31
0.0
  0
LINE
  5
EC
330
18
100
AcDbEntity
  8
0
100
AcDbLine
 10
4.706
 20
6.031000000000001
 30
0.0
 11
4.706
 21
5.911000000000001
 31
0.0
  0
LINE
  5
ED
330
18
100
AcDbEntity
  8
0
100
AcDbLine
 10
4.732
 20
6.041
 30
0.0
 11
4.732
 21
5.925
 31
0.0
  0
LINE
  5
EE
330
18
100
AcDbEntity
  8
0
100
AcDbLine
 10
4.767
 20
5.91
 30
0.0
 11
4.732
 21
5.925
 31
0.0
  0
LINE
  5
EF
330
18
100
AcDbEntity
  8
0
100
AcDbLine
 10
4.767
 20
5.91
 30
0.0
 11
4.767
 21
5.884
 31
0.0
  0
LINE
  5
F0
330
18
100
AcDbEntity
  8
0
100
AcDbLine
 10
4.7
 20
6.04
 30
0.0
 11
4.678999999999999
 21
6.05
 31
0.0
  0
LINE
  5
F1
330
18
100
AcDbEntity
  8
0
100
AcDbLine
 10
4.678999999999999
 20
6.05
 30
0.0
 11
4.739
 21
6.07
 31
0.0
  0
LINE
  5
F2
330
18
100
AcDbEntity
  8
0
100
AcDbLine
 10
4.727
 20
6.049
 30
0.0
 11
4.761
 21
6.06
 31
0.0
  0
LINE
  5
F3
330
18
100
AcDbEntity
  8
0
100
AcDbLine
 10
4.731
 20
6.046
 30
0.0
 11
4.798
 21
6.069
 31
0.0
  0
ARC
  5
F4
330
18
100
AcDbEntity
  8
0
100
AcDbCircle
 10
4.722
 20
6.041
 30
0.0
 40
0.01
100
AcDbArc
 50
0.0
 51
62.63700000000001
  0
ARC
  5
F5
330
18
100
AcDbEntity
  8
0
100
AcDbCircle
 10
4.696000000000001
 20
6.031000000000001
 30
0.0
 40
0.01
100
AcDbArc
 50
0.0
 51
64.77500000000001
  0
LINE
  5
F6
330
18
100
AcDbEntity
  8
0
100
AcDbLine
 10
2.372
 20
5.271
 30
0.0
 11
2.372
 21
5.238
 31
0.0
  0
LINE
  5
F7
330
18
100
AcDbEntity
  8
0
100
AcDbLine
 10
2.361
 20
5.223
 30
0.0
 11
2.329
 21
5.216
 31
0.0
  0
LINE
  5
F8
330
18
100
AcDbEntity
  8
0
100
AcDbLine
 10
2.318
 20
5.201000000000001
 30
0.0
 11
2.318
 21
4.894
 31
0.0
  0
LINE
  5
F9
330
18
100
AcDbEntity
  8
0
100
AcDbLine
 10
2.255
 20
4.816
 30
0.0
 11
2.255
 21
4.86
 31
0.0
  0
LINE
  5
FA
330
18
100
AcDbEntity
  8
0
100
AcDbLine
 10
2.255
 20
4.86
 30
0.0
 11
2.308
 21
4.88
 31
0.0
  0
ARC
  5
FB
330
18
100
AcDbEntity
  8
0
100
AcDbCircle
 10
2.303
 20
4.894
 30
0.0
 40
0.015
100
AcDbArc
 50
291.095
 51
0.0
  0
ARC
  5
FC
330
18
100
AcDbEntity
  8
0
100
AcDbCircle
 10
2.333
 20
5.201000000000001
 30
0.0
 40
0.015
100
AcDbArc
 50
103.093
 51
180.0
  0
ARC
  5
FD
330
18
100
AcDbEntity
  8
0
100
AcDbCircle
 10
2.244
 20
4.816
 30
0.0
 40
0.011
100
AcDbArc
 50
288.373
 51
0.0
  0
LINE
  5
FE
330
18
100
AcDbEntity
  8
0
100
AcDbLine
 10
2.202
 20
5.349
 30
0.0
 11
2.261
 21
5.376
 31
0.0
  0
LINE
  5
FF
330
18
100
AcDbEntity
  8
0
100
AcDbLine
 10
2.261
 20
5.376
 30
0.0
 11
2.399
 21
5.311
 31
0.0
  0
LINE
  5
100
330
18
100
AcDbEntity
  8
0
100
AcDbLine
 10
2.399
 20
5.311
 30
0.0
 11
2.508
 21
5.285
 31
0.0
  0
LINE
  5
101
330
18
100
AcDbEntity
  8
0
100
AcDbLine
 10
2.508
 20
5.285
 30
0.0
 11
2.497
 21
5.259
 31
0.0
  0
LINE
  5
102
330
18
100
AcDbEntity
  8
0
100
AcDbLine
 10
2.497
 20
5.259
 30
0.0
 11
2.451
 21
5.245
 31
0.0
  0
LINE
  5
103
330
18
100
AcDbEntity
  8
0
100
AcDbLine
 10
2.436
 20
5.226
 30
0.0
 11
2.436
 21
5.177000000000001
 31
0.0
  0
LINE
  5
104
330
18
100
AcDbEntity
  8
0
100
AcDbLine
 10
2.424
 20
5.162000000000001
 30
0.0
 11
2.38
 21
5.153
 31
0.0
  0
LINE
  5
105
330
18
100
AcDbEntity
  8
0
100
AcDbLine
 10
2.38
 20
5.153
 30
0.0
 11
2.38
 21
4.863
 31
0.0
  0
LINE
  5
106
330
18
100
AcDbEntity
  8
0
100
AcDbLine
 10
2.371
 20
4.849
 30
0.0
 11
2.265
 21
4.806
 31
0.0
  0
ARC
  5
107
330
18
100
AcDbEntity
  8
0
100
AcDbCircle
 10
2.255
 20
4.825
 30
0.0
 40
0.021
100
AcDbArc
 50
247.934
 51
296.627
  0
ARC
  5
108
330
18
100
AcDbEntity
  8
0
100
AcDbCircle
 10
2.365
 20
4.863
 30
0.0
 40
0.015
100
AcDbArc
 50
291.892
 51
0.0
  0
ARC
  5
109
330
18
100
AcDbEntity
  8
0
100
AcDbCircle
 10
2.357
 20
5.238
 30
0.0
 40
0.015
100
AcDbArc
 50
283.093
 51
0.0
  0
ARC
  5
10A
330
18
100
AcDbEntity
  8
0
100
AcDbCircle
 10
2.421
 20
5.177000000000001
 30
0.0
 40
0.015
100
AcDbArc
 50
282.143
 51
0.0
  0
LINE
  5
10B
330
18
100
AcDbEntity
  8
0
100
AcDbLine
 10
2.347
 20
5.142
 30
0.0
 11
2.347
 21
4.903000000000001
 31
0.0
  0
ARC
  5
10C
330
18
100
AcDbEntity
  8
0
100
AcDbCircle
 10
2.365
 20
5.144
 30
0.0
 40
0.018
100
AcDbArc
 50
28.915
 51
185.257
  0
ARC
  5
10D
330
18
100
AcDbEntity
  8
0
100
AcDbCircle
 10
2.364
 20
4.903000000000001
 30
0.0
 40
0.017
100
AcDbArc
 50
180.872
 51
352.601
  0
LINE
  5
10E
330
18
100
AcDbEntity
  8
0
100
AcDbLine
 10
2.388
 20
4.44
 30
0.0
 11
2.356
 21
4.482
 31
0.0
  0
LINE
  5
10F
330
18
100
AcDbEntity
  8
0
100
AcDbLine
 10
2.356
 20
4.482
 30
0.0
 11
2.358
 21
4.515
 31
0.0
  0
LINE
  5
110
330
18
100
AcDbEntity
  8
0
100
AcDbLine
 10
2.358
 20
4.515
 30
0.0
 11
2.175
 21
4.718999999999999
 31
0.0
  0
LINE
  5
111
330
18
100
AcDbEntity
  8
0
100
AcDbLine
 10
1.918
 20
5.008
 30
0.0
 11
1.987
 21
5.061
 31
0.0
  0
LINE
  5
112
330
18
100
AcDbEntity
  8
0
100
AcDbLine
 10
1.987
 20
5.061
 30
0.0
 11
2.172
 21
4.832
 31
0.0
  0
LINE
  5
113
330
18
100
AcDbEntity
  8
0
100
AcDbLine
 10
2.178
 20
4.812
 30
0.0
 11
2.173
 21
4.654
 31
0.0
  0
LINE
  5
114
330
18
100
AcDbEntity
  8
0
100
AcDbLine
 10
2.18
 20
4.634
 30
0.0
 11
2.292
 21
4.5
 31
0.0
  0
LINE
  5
115
330
18
100
AcDbEntity
  8
0
100
AcDbLine
 10
2.292
 20
4.5
 30
0.0
 11
2.279
 21
4.493
 31
0.0
  0
ARC
  5
116
330
18
100
AcDbEntity
  8
0
100
AcDbCircle
 10
2.203
 20
4.653000000000001
 30
0.0
 40
0.03
100
AcDbArc
 50
178.173
 51
219.896
  0
LINE
  5
117
330
18
100
AcDbEntity
  8
0
100
AcDbLine
 10
2.177
 20
4.782
 30
0.0
 11
2.248
 21
4.806
 31
0.0
  0
LINE
  5
118
330
18
100
AcDbEntity
  8
0
100
AcDbLine
 10
1.899
 20
5.016
 30
0.0
 11
1.967
 21
5.069
 31
0.0
  0
LINE
  5
119
330
18
100
AcDbEntity
  8
0
100
AcDbLine
 10
1.918
 20
5.008
 30
0.0
 11
1.899
 21
5.016
 31
0.0
  0
LINE
  5
11A
330
18
100
AcDbEntity
  8
0
100
AcDbLine
 10
2.165
 20
4.717
 30
0.0
 11
1.899
 21
5.016
 31
0.0
  0
LINE
  5
11B
330
18
100
AcDbEntity
  8
0
100
AcDbLine
 10
1.987
 20
5.061
 30
0.0
 11
1.967
 21
5.069
 31
0.0
  0
LINE
  5
11C
330
18
100
AcDbEntity
  8
0
100
AcDbLine
 10
2.169
 20
4.824
 30
0.0
 11
2.163
 21
4.654
 31
0.0
  0
ARC
  5
11D
330
18
100
AcDbEntity
  8
0
100
AcDbCircle
 10
2.139
 20
4.825
 30
0.0
 40
0.03
100
AcDbArc
 50
358.173
 51
38.912
  0
ARC
  5
11E
330
18
100
AcDbEntity
  8
0
100
AcDbCircle
 10
2.139
 20
4.825
 30
0.0
 40
0.03
100
AcDbArc
 50
358.173
 51
38.912
  0
ARC
  5
11F
330
18
100
AcDbEntity
  8
0
100
AcDbCircle
 10
2.148
 20
4.813
 30
0.0
 40
0.03
100
AcDbArc
 50
358.173
 51
38.912
  0
ARC
  5
120
330
18
100
AcDbEntity
  8
0
100
AcDbCircle
 10
2.203
 20
4.653000000000001
 30
0.0
 40
0.04
100
AcDbArc
 50
178.173
 51
219.896
  0
LINE
  5
121
330
18
100
AcDbEntity
  8
0
100
AcDbLine
 10
2.173
 20
4.628
 30
0.0
 11
2.285
 21
4.493
 31
0.0
  0
LINE
  5
122
330
18
100
AcDbEntity
  8
0
100
AcDbLine
 10
2.47
 20
4.401
 30
0.0
 11
2.47
 21
4.495
 31
0.0
  0
LINE
  5
123
330
18
100
AcDbEntity
  8
0
100
AcDbLine
 10
2.47
 20
4.495
 30
0.0
 11
2.42
 21
4.52
 31
0.0
  0
LINE
  5
124
330
18
100
AcDbEntity
  8
0
100
AcDbLine
 10
2.42
 20
4.52
 30
0.0
 11
2.42
 21
4.428
 31
0.0
  0
LINE
  5
125
330
18
100
AcDbEntity
  8
0
100
AcDbLine
 10
2.483
 20
4.5
 30
0.0
 11
2.433
 21
4.525
 31
0.0
  0
LINE
  5
126
330
18
100
AcDbEntity
  8
0
100
AcDbLine
 10
2.47
 20
4.495
 30
0.0
 11
2.483
 21
4.5
 31
0.0
  0
LINE
  5
127
330
18
100
AcDbEntity
  8
0
100
AcDbLine
 10
2.483
 20
4.5
 30
0.0
 11
2.483
 21
4.407
 31
0.0
  0
LINE
  5
128
330
18
100
AcDbEntity
  8
0
100
AcDbLine
 10
2.42
 20
4.52
 30
0.0
 11
2.433
 21
4.525
 31
0.0
  0
LINE
  5
129
330
18
100
AcDbEntity
  8
0
100
AcDbLine
 10
2.494
 20
4.388999999999999
 30
0.0
 11
3.384
 21
3.961
 31
0.0
  0
ARC
  5
12A
330
18
100
AcDbEntity
  8
0
100
AcDbCircle
 10
2.503
 20
4.407
 30
0.0
 40
0.02
100
AcDbArc
 50
180.0
 51
244.303
  0
ARC
  5
12B
330
18
100
AcDbEntity
  8
0
100
AcDbCircle
 10
2.483
 20
4.401
 30
0.0
 40
0.013
100
AcDbArc
 50
178.536
 51
310.584
  0
LINE
  5
12C
330
18
100
AcDbEntity
  8
0
100
AcDbLine
 10
2.475
 20
4.39
 30
0.0
 11
2.432
 21
4.409
 31
0.0
  0
ARC
  5
12D
330
18
100
AcDbEntity
  8
0
100
AcDbCircle
 10
2.44
 20
4.428
 30
0.0
 40
0.02
100
AcDbArc
 50
180.0
 51
245.994
  0
LINE
  5
12E
330
18
100
AcDbEntity
  8
0
100
AcDbLine
 10
2.166
 20
4.73
 30
0.0
 11
1.918
 21
5.008
 31
0.0
  0
LINE
  5
12F
330
18
100
AcDbEntity
  8
0
100
AcDbLine
 10
2.832
 20
5.199
 30
0.0
 11
2.918
 21
5.376
 31
0.0
  0
LINE
  5
130
330
18
100
AcDbEntity
  8
0
100
AcDbLine
 10
2.994
 20
5.357
 30
0.0
 11
2.903
 21
5.167000000000001
 31
0.0
  0
LINE
  5
131
330
18
100
AcDbEntity
  8
0
100
AcDbLine
 10
2.918
 20
5.376
 30
0.0
 11
2.909
 21
5.38
 31
0.0
  0
LINE
  5
132
330
18
100
AcDbEntity
  8
0
100
AcDbLine
 10
2.823
 20
5.204
 30
0.0
 11
2.909
 21
5.38
 31
0.0
  0
LINE
  5
133
330
18
100
AcDbEntity
  8
0
100
AcDbLine
 10
2.918
 20
5.376
 30
0.0
 11
2.994
 21
5.357
 31
0.0
  0
LINE
  5
134
330
18
100
AcDbEntity
  8
0
100
AcDbLine
 10
2.909
 20
5.38
 30
0.0
 11
2.985
 21
5.361000000000001
 31
0.0
  0
LINE
  5
135
330
18
100
AcDbEntity
  8
0
100
AcDbLine
 10
2.994
 20
5.357
 30
0.0
 11
2.985
 21
5.361000000000001
 31
0.0
  0
LINE
  5
136
330
18
100
AcDbEntity
  8
0
100
AcDbLine
 10
3.798
 20
3.742
 30
0.0
 11
3.808
 21
3.999
 31
0.0
  0
LINE
  5
137
330
18
100
AcDbEntity
  8
0
100
AcDbLine
 10
3.383
 20
3.939
 30
0.0
 11
3.392
 21
4.18
 31
0.0
  0
LINE
  5
138
330
18
100
AcDbEntity
  8
0
100
AcDbLine
 10
3.837
 20
4.01
 30
0.0
 11
3.424
 21
4.193000000000001
 31
0.0
  0
LINE
  5
139
330
18
100
AcDbEntity
  8
0
100
AcDbLine
 10
3.808
 20
3.999
 30
0.0
 11
3.392
 21
4.18
 31
0.0
  0
LINE
  5
13A
330
18
100
AcDbEntity
  8
0
100
AcDbLine
 10
3.808
 20
3.999
 30
0.0
 11
3.837
 21
4.01
 31
0.0
  0
LINE
  5
13B
330
18
100
AcDbEntity
  8
0
100
AcDbLine
 10
3.828
 20
3.757
 30
0.0
 11
3.837
 21
4.01
 31
0.0
  0
LINE
  5
13C
330
18
100
AcDbEntity
  8
0
100
AcDbLine
 10
3.392
 20
4.18
 30
0.0
 11
3.424
 21
4.193000000000001
 31
0.0
  0
LINE
  5
13D
330
18
100
AcDbEntity
  8
0
100
AcDbLine
 10
3.837
 20
3.743
 30
0.0
 11
4.018
 21
3.656
 31
0.0
  0
ARC
  5
13E
330
18
100
AcDbEntity
  8
0
100
AcDbCircle
 10
3.843
 20
3.757
 30
0.0
 40
0.015
100
AcDbArc
 50
178.088
 51
244.303
  0
ARC
  5
13F
330
18
100
AcDbEntity
  8
0
100
AcDbCircle
 10
3.824
 20
3.758
 30
0.0
 40
0.035
100
AcDbArc
 50
235.356
 51
321.392
  0
ARC
  5
140
330
18
100
AcDbEntity
  8
0
100
AcDbCircle
 10
3.813
 20
3.742
 30
0.0
 40
0.015
100
AcDbArc
 50
177.754
 51
235.356
  0
LINE
  5
141
330
18
100
AcDbEntity
  8
0
100
AcDbLine
 10
3.801
 20
3.732
 30
0.0
 11
3.392
 21
3.924
 31
0.0
  0
ARC
  5
142
330
18
100
AcDbEntity
  8
0
100
AcDbCircle
 10
3.398
 20
3.938
 30
0.0
 40
0.015
100
AcDbArc
 50
178.088
 51
244.848
  0
LINE
  5
143
330
18
100
AcDbEntity
  8
0
100
AcDbLine
 10
3.505
 20
3.871
 30
0.0
 11
3.501
 21
3.45
 31
0.0
  0
LINE
  5
144
330
18
100
AcDbEntity
  8
0
100
AcDbLine
 10
3.706
 20
2.607
 30
0.0
 11
3.712
 21
2.856
 31
0.0
  0
LINE
  5
145
330
18
100
AcDbEntity
  8
0
100
AcDbLine
 10
3.771
 20
3.558
 30
0.0
 11
3.776
 21
3.744
 31
0.0
  0
LINE
  5
146
330
18
100
AcDbEntity
  8
0
100
AcDbLine
 10
3.858
 20
3.592
 30
0.0
 11
3.861
 21
3.731
 31
0.0
  0
LINE
  5
147
330
18
100
AcDbEntity
  8
0
100
AcDbLine
 10
3.872
 20
2.683
 30
0.0
 11
3.877
 21
2.93
 31
0.0
  0
LINE
  5
148
330
18
100
AcDbEntity
  8
0
100
AcDbLine
 10
3.493
 20
2.728
 30
0.0
 11
3.575
 21
2.681
 31
0.0
  0
LINE
  5
149
330
18
100
AcDbEntity
  8
0
100
AcDbLine
 10
3.706
 20
2.607
 30
0.0
 11
3.862
 21
2.67
 31
0.0
  0
ARC
  5
14A
330
18
100
AcDbEntity
  8
0
100
AcDbCircle
 10
3.857
 20
2.683
 30
0.0
 40
0.015
100
AcDbArc
 50
291.963
 51
358.708
  0
LINE
  5
14B
330
18
100
AcDbEntity
  8
0
100
AcDbLine
 10
3.494
 20
2.76
 30
0.0
 11
3.493
 21
2.728
 31
0.0
  0
LINE
  5
14C
330
18
100
AcDbEntity
  8
0
100
AcDbLine
 10
3.892
 20
3.606
 30
0.0
 11
3.895
 21
3.715
 31
0.0
  0
LINE
  5
14D
330
18
100
AcDbEntity
  8
0
100
AcDbLine
 10
3.727
 20
3.54
 30
0.0
 11
3.732
 21
3.765
 31
0.0
  0
LINE
  5
14E
330
18
100
AcDbEntity
  8
0
100
AcDbLine
 10
7.247999999999999
 20
3.024
 30
0.0
 11
7.249
 21
2.832
 31
0.0
  0
LINE
  5
14F
330
18
100
AcDbEntity
  8
0
100
AcDbLine
 10
7.25
 20
2.416
 30
0.0
 11
6.694
 21
2.689
 31
0.0
  0
LINE
  5
150
330
18
100
AcDbEntity
  8
0
100
AcDbLine
 10
7.407
 20
3.124
 30
0.0
 11
7.408
 21
2.901
 31
0.0
  0
LINE
  5
151
330
18
100
AcDbEntity
  8
0
100
AcDbLine
 10
7.25
 20
2.416
 30
0.0
 11
7.409
 21
2.516
 31
0.0
  0
LINE
  5
152
330
18
100
AcDbEntity
  8
0
100
AcDbLine
 10
6.375
 20
3.516
 30
0.0
 11
6.311
 21
3.476
 31
0.0
  0
ARC
  5
153
330
18
100
AcDbEntity
  8
0
100
AcDbCircle
 10
6.321000000000001
 20
3.459
 30
0.0
 40
0.02
100
AcDbArc
 50
121.544
 51
195.084
  0
ARC
  5
154
330
18
100
AcDbEntity
  8
0
100
AcDbCircle
 10
6.336
 20
3.448
 30
0.0
 40
0.02
100
AcDbArc
 50
121.544
 51
195.084
  0
LINE
  5
155
330
18
100
AcDbEntity
  8
0
100
AcDbLine
 10
6.387000000000001
 20
3.505
 30
0.0
 11
6.325
 21
3.465
 31
0.0
  0
LINE
  5
156
330
18
100
AcDbEntity
  8
0
100
AcDbLine
 10
6.388
 20
3.42
 30
0.0
 11
7.247999999999999
 21
3.024
 31
0.0
  0
ARC
  5
157
330
18
100
AcDbEntity
  8
0
100
AcDbCircle
 10
6.702000000000001
 20
2.707
 30
0.0
 40
0.02
100
AcDbArc
 50
195.084
 51
243.932
  0
ARC
  5
158
330
18
100
AcDbEntity
  8
0
100
AcDbCircle
 10
6.689
 20
2.708
 30
0.0
 40
0.03
100
AcDbArc
 50
213.836
 51
304.848
  0
LINE
  5
159
330
18
100
AcDbEntity
  8
0
100
AcDbLine
 10
6.205
 20
3.592
 30
0.0
 11
6.136
 21
3.55
 31
0.0
  0
LINE
  5
15A
330
18
100
AcDbEntity
  8
0
100
AcDbLine
 10
6.67
 20
2.684
 30
0.0
 11
6.318
 21
2.849
 31
0.0
  0
ARC
  5
15B
330
18
100
AcDbEntity
  8
0
100
AcDbCircle
 10
6.326000000000001
 20
2.867
 30
0.0
 40
0.02
100
AcDbArc
 50
195.084
 51
245.066
  0
LINE
  5
15C
330
18
100
AcDbEntity
  8
0
100
AcDbLine
 10
6.281000000000001
 20
2.567
 30
0.0
 11
6.294
 21
2.909
 31
0.0
  0
ARC
  5
15D
330
18
100
AcDbEntity
  8
0
100
AcDbCircle
 10
6.176
 20
3.515
 30
0.0
 40
0.011
100
AcDbArc
 50
94.389
 51
193.39
  0
ARC
  5
15E
330
18
100
AcDbEntity
  8
0
100
AcDbCircle
 10
6.191
 20
3.509
 30
0.0
 40
0.011
100
AcDbArc
 50
94.389
 51
193.39
  0
ARC
  5
15F
330
18
100
AcDbEntity
  8
0
100
AcDbCircle
 10
6.206
 20
3.502
 30
0.0
 40
0.011
100
AcDbArc
 50
94.389
 51
193.39
  0
ARC
  5
160
330
18
100
AcDbEntity
  8
0
100
AcDbCircle
 10
6.221
 20
3.496
 30
0.0
 40
0.011
100
AcDbArc
 50
94.389
 51
193.39
  0
ARC
  5
161
330
18
100
AcDbEntity
  8
0
100
AcDbCircle
 10
6.236000000000001
 20
3.49
 30
0.0
 40
0.011
100
AcDbArc
 50
94.389
 51
193.39
  0
ARC
  5
162
330
18
100
AcDbEntity
  8
0
100
AcDbCircle
 10
6.251
 20
3.483
 30
0.0
 40
0.011
100
AcDbArc
 50
94.389
 51
193.39
  0
ARC
  5
163
330
18
100
AcDbEntity
  8
0
100
AcDbCircle
 10
6.266
 20
3.477
 30
0.0
 40
0.011
100
AcDbArc
 50
94.389
 51
193.39
  0
ARC
  5
164
330
18
100
AcDbEntity
  8
0
100
AcDbCircle
 10
6.281000000000001
 20
3.471
 30
0.0
 40
0.011
100
AcDbArc
 50
94.389
 51
193.39
  0
ARC
  5
165
330
18
100
AcDbEntity
  8
0
100
AcDbCircle
 10
6.296
 20
3.465
 30
0.0
 40
0.011
100
AcDbArc
 50
94.389
 51
193.39
  0
ARC
  5
166
330
18
100
AcDbEntity
  8
0
100
AcDbCircle
 10
6.311
 20
3.458
 30
0.0
 40
0.011
100
AcDbArc
 50
94.389
 51
193.39
  0
LINE
  5
167
330
18
100
AcDbEntity
  8
0
100
AcDbLine
 10
6.186
 20
3.583
 30
0.0
 11
6.006
 21
3.662
 31
0.0
  0
LINE
  5
168
330
18
100
AcDbEntity
  8
0
100
AcDbLine
 10
3.445
 20
4.11
 30
0.0
 11
3.455
 21
4.113
 31
0.0
  0
LINE
  5
169
330
18
100
AcDbEntity
  8
0
100
AcDbLine
 10
3.465
 20
4.096
 30
0.0
 11
3.476
 21
4.1
 31
0.0
  0
LINE
  5
16A
330
18
100
AcDbEntity
  8
0
100
AcDbLine
 10
3.463
 20
4.071000000000001
 30
0.0
 11
3.474
 21
4.075
 31
0.0
  0
LINE
  5
16B
330
18
100
AcDbEntity
  8
0
100
AcDbLine
 10
3.441
 20
4.061
 30
0.0
 11
3.452
 21
4.064
 31
0.0
  0
LINE
  5
16C
330
18
100
AcDbEntity
  8
0
100
AcDbLine
 10
3.452
 20
4.064
 30
0.0
 11
3.474
 21
4.075
 31
0.0
  0
LINE
  5
16D
330
18
100
AcDbEntity
  8
0
100
AcDbLine
 10
3.474
 20
4.075
 30
0.0
 11
3.476
 21
4.1
 31
0.0
  0
LINE
  5
16E
330
18
100
AcDbEntity
  8
0
100
AcDbLine
 10
3.476
 20
4.1
 30
0.0
 11
3.455
 21
4.113
 31
0.0
  0
LINE
  5
16F
330
18
100
AcDbEntity
  8
0
100
AcDbLine
 10
3.765
 20
3.967
 30
0.0
 11
3.745
 21
3.98
 31
0.0
  0
LINE
  5
170
330
18
100
AcDbEntity
  8
0
100
AcDbLine
 10
3.763
 20
3.942
 30
0.0
 11
3.765
 21
3.967
 31
0.0
  0
LINE
  5
171
330
18
100
AcDbEntity
  8
0
100
AcDbLine
 10
3.741
 20
3.931
 30
0.0
 11
3.763
 21
3.942
 31
0.0
  0
LINE
  5
172
330
18
100
AcDbEntity
  8
0
100
AcDbLine
 10
3.731
 20
3.928
 30
0.0
 11
3.741
 21
3.931
 31
0.0
  0
LINE
  5
173
330
18
100
AcDbEntity
  8
0
100
AcDbLine
 10
3.753
 20
3.938
 30
0.0
 11
3.763
 21
3.942
 31
0.0
  0
LINE
  5
174
330
18
100
AcDbEntity
  8
0
100
AcDbLine
 10
3.754
 20
3.963
 30
0.0
 11
3.765
 21
3.967
 31
0.0
  0
LINE
  5
175
330
18
100
AcDbEntity
  8
0
100
AcDbLine
 10
3.734
 20
3.976
 30
0.0
 11
3.745
 21
3.98
 31
0.0
  0
LINE
  5
176
330
18
100
AcDbEntity
  8
0
100
AcDbLine
 10
3.735
 20
3.86
 30
0.0
 11
3.746
 21
3.864
 31
0.0
  0
LINE
  5
177
330
18
100
AcDbEntity
  8
0
100
AcDbLine
 10
3.756
 20
3.847
 30
0.0
 11
3.766
 21
3.85
 31
0.0
  0
LINE
  5
178
330
18
100
AcDbEntity
  8
0
100
AcDbLine
 10
3.754
 20
3.822
 30
0.0
 11
3.765
 21
3.826
 31
0.0
  0
LINE
  5
179
330
18
100
AcDbEntity
  8
0
100
AcDbLine
 10
3.732
 20
3.811
 30
0.0
 11
3.743
 21
3.815
 31
0.0
  0
LINE
  5
17A
330
18
100
AcDbEntity
  8
0
100
AcDbLine
 10
3.743
 20
3.815
 30
0.0
 11
3.765
 21
3.826
 31
0.0
  0
LINE
  5
17B
330
18
100
AcDbEntity
  8
0
100
AcDbLine
 10
3.765
 20
3.826
 30
0.0
 11
3.766
 21
3.85
 31
0.0
  0
LINE
  5
17C
330
18
100
AcDbEntity
  8
0
100
AcDbLine
 10
3.766
 20
3.85
 30
0.0
 11
3.746
 21
3.864
 31
0.0
  0
LINE
  5
17D
330
18
100
AcDbEntity
  8
0
100
AcDbLine
 10
3.468
 20
3.982
 30
0.0
 11
3.447
 21
3.996
 31
0.0
  0
LINE
  5
17E
330
18
100
AcDbEntity
  8
0
100
AcDbLine
 10
3.466
 20
3.958
 30
0.0
 11
3.468
 21
3.982
 31
0.0
  0
LINE
  5
17F
330
18
100
AcDbEntity
  8
0
100
AcDbLine
 10
3.444
 20
3.947
 30
0.0
 11
3.466
 21
3.958
 31
0.0
  0
LINE
  5
180
330
18
100
AcDbEntity
  8
0
100
AcDbLine
 10
3.433
 20
3.943
 30
0.0
 11
3.444
 21
3.947
 31
0.0
  0
LINE
  5
181
330
18
100
AcDbEntity
  8
0
100
AcDbLine
 10
3.455
 20
3.954
 30
0.0
 11
3.466
 21
3.958
 31
0.0
  0
LINE
  5
182
330
18
100
AcDbEntity
  8
0
100
AcDbLine
 10
3.457
 20
3.979
 30
0.0
 11
3.468
 21
3.982
 31
0.0
  0
LINE
  5
183
330
18
100
AcDbEntity
  8
0
100
AcDbLine
 10
3.437
 20
3.992
 30
0.0
 11
3.447
 21
3.996
 31
0.0
  0
LINE
  5
184
330
18
100
AcDbEntity
  8
0
100
AcDbLine
 10
3.802
 20
3.692
 30
0.0
 11
3.82
 21
3.681
 31
0.0
  0
LINE
  5
185
330
18
100
AcDbEntity
  8
0
100
AcDbLine
 10
3.822
 20
3.722
 30
0.0
 11
3.804
 21
3.713
 31
0.0
  0
LINE
  5
186
330
18
100
AcDbEntity
  8
0
100
AcDbLine
 10
3.804
 20
3.713
 30
0.0
 11
3.802
 21
3.692
 31
0.0
  0
LINE
  5
187
330
18
100
AcDbEntity
  8
0
100
AcDbLine
 10
3.822
 20
3.722
 30
0.0
 11
3.833
 21
3.72
 31
0.0
  0
LINE
  5
188
330
18
100
AcDbEntity
  8
0
100
AcDbLine
 10
3.804
 20
3.713
 30
0.0
 11
3.814
 21
3.711
 31
0.0
  0
LINE
  5
189
330
18
100
AcDbEntity
  8
0
100
AcDbLine
 10
3.802
 20
3.692
 30
0.0
 11
3.813
 21
3.69
 31
0.0
  0
LINE
  5
18A
330
18
100
AcDbEntity
  8
0
100
AcDbLine
 10
3.82
 20
3.681
 30
0.0
 11
3.83
 21
3.679
 31
0.0
  0
LINE
  5
18B
330
18
100
AcDbEntity
  8
0
100
AcDbLine
 10
3.8
 20
3.589
 30
0.0
 11
3.811
 21
3.586
 31
0.0
  0
LINE
  5
18C
330
18
100
AcDbEntity
  8
0
100
AcDbLine
 10
3.818
 20
3.598
 30
0.0
 11
3.829
 21
3.596
 31
0.0
  0
LINE
  5
18D
330
18
100
AcDbEntity
  8
0
100
AcDbLine
 10
3.8
 20
3.589
 30
0.0
 11
3.799
 21
3.568
 31
0.0
  0
LINE
  5
18E
330
18
100
AcDbEntity
  8
0
100
AcDbLine
 10
3.818
 20
3.598
 30
0.0
 11
3.8
 21
3.589
 31
0.0
  0
LINE
  5
18F
330
18
100
AcDbEntity
  8
0
100
AcDbLine
 10
7.653
 20
3.619
 30
0.0
 11
7.653
 21
3.485
 31
0.0
  0
LINE
  5
190
330
18
100
AcDbEntity
  8
0
100
AcDbLine
 10
7.653
 20
3.485
 30
0.0
 11
7.522
 21
3.558
 31
0.0
  0
LINE
  5
191
330
18
100
AcDbEntity
  8
0
100
AcDbLine
 10
7.653
 20
3.485
 30
0.0
 11
7.723
 21
3.512
 31
0.0
  0
LINE
  5
192
330
18
100
AcDbEntity
  8
0
100
AcDbLine
 10
7.723
 20
3.512
 30
0.0
 11
7.723
 21
3.651
 31
0.0
  0
LINE
  5
193
330
18
100
AcDbEntity
  8
0
100
AcDbLine
 10
8.295
 20
3.775
 30
0.0
 11
8.295
 21
3.914
 31
0.0
  0
LINE
  5
194
330
18
100
AcDbEntity
  8
0
100
AcDbLine
 10
8.225
 20
3.748
 30
0.0
 11
8.295
 21
3.775
 31
0.0
  0
LINE
  5
195
330
18
100
AcDbEntity
  8
0
100
AcDbLine
 10
8.225
 20
3.748
 30
0.0
 11
8.093
 21
3.822
 31
0.0
  0
LINE
  5
196
330
18
100
AcDbEntity
  8
0
100
AcDbLine
 10
8.225
 20
3.882
 30
0.0
 11
8.225
 21
3.748
 31
0.0
  0
LINE
  5
197
330
18
100
AcDbEntity
  8
0
100
AcDbLine
 10
8.295
 20
3.914
 30
0.0
 11
8.295
 21
3.963
 31
0.0
  0
LINE
  5
198
330
18
100
AcDbEntity
  8
0
100
AcDbLine
 10
8.295
 20
3.963
 30
0.0
 11
6.636
 21
4.674
 31
0.0
  0
LINE
  5
199
330
18
100
AcDbEntity
  8
0
100
AcDbLine
 10
7.845
 20
3.707
 30
0.0
 11
7.845
 21
3.756
 31
0.0
  0
LINE
  5
19A
330
18
100
AcDbEntity
  8
0
100
AcDbLine
 10
7.977
 20
3.768
 30
0.0
 11
7.977
 21
3.817
 31
0.0
  0
LINE
  5
19B
330
18
100
AcDbEntity
  8
0
100
AcDbLine
 10
7.904
 20
3.71
 30
0.0
 11
7.904
 21
3.759
 31
0.0
  0
LINE
  5
19C
330
18
100
AcDbEntity
  8
0
100
AcDbLine
 10
7.933
 20
3.767
 30
0.0
 11
7.933
 21
3.816
 31
0.0
  0
LINE
  5
19D
330
18
100
AcDbEntity
  8
0
100
AcDbLine
 10
7.845
 20
3.756
 30
0.0
 11
7.904
 21
3.759
 31
0.0
  0
LINE
  5
19E
330
18
100
AcDbEntity
  8
0
100
AcDbLine
 10
7.904
 20
3.759
 30
0.0
 11
7.933
 21
3.816
 31
0.0
  0
LINE
  5
19F
330
18
100
AcDbEntity
  8
0
100
AcDbLine
 10
7.933
 20
3.816
 30
0.0
 11
7.977
 21
3.817
 31
0.0
  0
LINE
  5
1A0
330
18
100
AcDbEntity
  8
0
100
AcDbLine
 10
7.845
 20
3.707
 30
0.0
 11
7.904
 21
3.71
 31
0.0
  0
LINE
  5
1A1
330
18
100
AcDbEntity
  8
0
100
AcDbLine
 10
7.904
 20
3.71
 30
0.0
 11
7.933
 21
3.767
 31
0.0
  0
LINE
  5
1A2
330
18
100
AcDbEntity
  8
0
100
AcDbLine
 10
7.933
 20
3.767
 30
0.0
 11
7.977
 21
3.768
 31
0.0
  0
LINE
  5
1A3
330
18
100
AcDbEntity
  8
0
100
AcDbLine
 10
7.977
 20
3.817
 30
0.0
 11
8.49
 21
4.053
 31
0.0
  0
LINE
  5
1A4
330
18
100
AcDbEntity
  8
0
100
AcDbLine
 10
7.977
 20
3.768
 30
0.0
 11
8.49
 21
4.004
 31
0.0
  0
LINE
  5
1A5
330
18
100
AcDbEntity
  8
0
100
AcDbLine
 10
3.216
 20
5.539
 30
0.0
 11
3.216
 21
5.4
 31
0.0
  0
LINE
  5
1A6
330
18
100
AcDbEntity
  8
0
100
AcDbLine
 10
3.216
 20
5.4
 30
0.0
 11
3.247
 21
5.41
 31
0.0
  0
LINE
  5
1A7
330
18
100
AcDbEntity
  8
0
100
AcDbLine
 10
3.298
 20
5.567
 30
0.0
 11
3.298
 21
5.427000000000001
 31
0.0
  0
LINE
  5
1A8
330
18
100
AcDbEntity
  8
0
100
AcDbLine
 10
3.247
 20
5.521
 30
0.0
 11
3.247
 21
5.41
 31
0.0
  0
LINE
  5
1A9
330
18
100
AcDbEntity
  8
0
100
AcDbLine
 10
3.272
 20
5.529
 30
0.0
 11
3.272
 21
5.417999999999999
 31
0.0
  0
LINE
  5
1AA
330
18
100
AcDbEntity
  8
0
100
AcDbLine
 10
3.247
 20
5.521
 30
0.0
 11
3.272
 21
5.529
 31
0.0
  0
LINE
  5
1AB
330
18
100
AcDbEntity
  8
0
100
AcDbLine
 10
3.272
 20
5.417999999999999
 30
0.0
 11
3.298
 21
5.427000000000001
 31
0.0
  0
LINE
  5
1AC
330
18
100
AcDbEntity
  8
0
100
AcDbLine
 10
3.955
 20
5.647
 30
0.0
 11
4.037
 21
5.674
 31
0.0
  0
LINE
  5
1AD
330
18
100
AcDbEntity
  8
0
100
AcDbLine
 10
4.037
 20
5.814
 30
0.0
 11
4.037
 21
5.674
 31
0.0
  0
LINE
  5
1AE
330
18
100
AcDbEntity
  8
0
100
AcDbLine
 10
3.955
 20
5.787000000000001
 30
0.0
 11
3.955
 21
5.647
 31
0.0
  0
LINE
  5
1AF
330
18
100
AcDbEntity
  8
0
100
AcDbLine
 10
3.955
 20
5.787000000000001
 30
0.0
 11
4.037
 21
5.814
 31
0.0
  0
LINE
  5
1B0
330
18
100
AcDbEntity
  8
0
100
AcDbLine
 10
4.037
 20
5.814
 30
0.0
 11
4.704
 21
6.037000000000001
 31
0.0
  0
LINE
  5
1B1
330
18
100
AcDbEntity
  8
0
100
AcDbLine
 10
3.216
 20
5.539
 30
0.0
 11
3.298
 21
5.567
 31
0.0
  0
LINE
  5
1B2
330
18
100
AcDbEntity
  8
0
100
AcDbLine
 10
3.298
 20
5.567
 30
0.0
 11
3.955
 21
5.787000000000001
 31
0.0
  0
LINE
  5
1B3
330
18
100
AcDbEntity
  8
0
100
AcDbLine
 10
2.451
 20
5.342000000000001
 30
0.0
 11
2.52
 21
5.307
 31
0.0
  0
LINE
  5
1B4
330
18
100
AcDbEntity
  8
0
100
AcDbLine
 10
2.52
 20
5.307
 30
0.0
 11
2.539
 21
5.281000000000001
 31
0.0
  0
LINE
  5
1B5
330
18
100
AcDbEntity
  8
0
100
AcDbLine
 10
2.539
 20
5.281000000000001
 30
0.0
 11
2.599
 21
5.305
 31
0.0
  0
ARC
  5
1B6
330
18
100
AcDbEntity
  8
0
100
AcDbCircle
 10
2.456
 20
5.226
 30
0.0
 40
0.02
100
AcDbArc
 50
106.173
 51
180.0
  0
LINE
  5
1B7
330
18
100
AcDbEntity
  8
0
100
AcDbLine
 10
2.441
 20
5.239
 30
0.0
 11
4.941
 21
4.087
 31
0.0
  0
POINT
  5
1B8
330
18
100
AcDbEntity
  8
0
100
AcDbPoint
 10
2.812
 20
5.823
 30
0.0
  0
POINT
  5
1B9
330
18
100
AcDbEntity
  8
0
100
AcDbPoint
 10
2.45
 20
5.975
 30
0.0
  0
POINT
  5
1BA
330
18
100
AcDbEntity
  8
0
100
AcDbPoint
 10
2.119
 20
6.116000000000001
 30
0.0
  0
POINT
  5
1BB
330
18
100
AcDbEntity
  8
0
100
AcDbPoint
 10
1.804
 20
6.257000000000001
 30
0.0
  0
POINT
  5
1BC
330
18
100
AcDbEntity
  8
0
100
AcDbPoint
 10
1.469
 20
6.417000000000001
 30
0.0
  0
POINT
  5
1BD
330
18
100
AcDbEntity
  8
0
100
AcDbPoint
 10
1.159
 20
6.552000000000001
 30
0.0
  0
POINT
  5
1BE
330
18
100
AcDbEntity
  8
0
100
AcDbPoint
 10
3.139
 20
5.672999999999999
 30
0.0
  0
POINT
  5
1BF
330
18
100
AcDbEntity
  8
0
100
AcDbPoint
 10
2.331
 20
5.715
 30
0.0
  0
POINT
  5
1C0
330
18
100
AcDbEntity
  8
0
100
AcDbPoint
 10
1.341
 20
6.989
 30
0.0
  0
POINT
  5
1C1
330
18
100
AcDbEntity
  8
0
100
AcDbPoint
 10
1.512
 20
6.917999999999999
 30
0.0
  0
POINT
  5
1C2
330
18
100
AcDbEntity
  8
0
100
AcDbPoint
 10
2.501
 20
7.053999999999999
 30
0.0
  0
POINT
  5
1C3
330
18
100
AcDbEntity
  8
0
100
AcDbPoint
 10
2.815
 20
6.919
 30
0.0
  0
POINT
  5
1C4
330
18
100
AcDbEntity
  8
0
100
AcDbPoint
 10
4.103
 20
7.155
 30
0.0
  0
POINT
  5
1C5
330
18
100
AcDbEntity
  8
0
100
AcDbPoint
 10
4.402
 20
7.019
 30
0.0
  0
POINT
  5
1C6
330
18
100
AcDbEntity
  8
0
100
AcDbPoint
 10
4.745
 20
6.866000000000001
 30
0.0
  0
POINT
  5
1C7
330
18
100
AcDbEntity
  8
0
100
AcDbPoint
 10
5.114
 20
6.718
 30
0.0
  0
POINT
  5
1C8
330
18
100
AcDbEntity
  8
0
100
AcDbPoint
 10
5.486000000000001
 20
6.567
 30
0.0
  0
POINT
  5
1C9
330
18
100
AcDbEntity
  8
0
100
AcDbPoint
 10
5.827999999999999
 20
6.422000000000001
 30
0.0
  0
POINT
  5
1CA
330
18
100
AcDbEntity
  8
0
100
AcDbPoint
 10
6.235
 20
6.267
 30
0.0
  0
POINT
  5
1CB
330
18
100
AcDbEntity
  8
0
100
AcDbPoint
 10
6.579
 20
6.117999999999999
 30
0.0
  0
POINT
  5
1CC
330
18
100
AcDbEntity
  8
0
100
AcDbPoint
 10
8.221
 20
4.648
 30
0.0
  0
POINT
  5
1CD
330
18
100
AcDbEntity
  8
0
100
AcDbPoint
 10
1.706
 20
6.858
 30
0.0
  0
POINT
  5
1CE
330
18
100
AcDbEntity
  8
0
100
AcDbPoint
 10
1.814
 20
6.811
 30
0.0
  0
POINT
  5
1CF
330
18
100
AcDbEntity
  8
0
100
AcDbPoint
 10
1.922
 20
6.765
 30
0.0
  0
POINT
  5
1D0
330
18
100
AcDbEntity
  8
0
100
AcDbPoint
 10
2.029
 20
6.718
 30
0.0
  0
POINT
  5
1D1
330
18
100
AcDbEntity
  8
0
100
AcDbPoint
 10
2.137
 20
6.672000000000001
 30
0.0
  0
POINT
  5
1D2
330
18
100
AcDbEntity
  8
0
100
AcDbPoint
 10
2.245
 20
6.625
 30
0.0
  0
POINT
  5
1D3
330
18
100
AcDbEntity
  8
0
100
AcDbPoint
 10
2.352
 20
6.577999999999999
 30
0.0
  0
POINT
  5
1D4
330
18
100
AcDbEntity
  8
0
100
AcDbPoint
 10
2.46
 20
6.532
 30
0.0
  0
POINT
  5
1D5
330
18
100
AcDbEntity
  8
0
100
AcDbPoint
 10
2.568
 20
6.485
 30
0.0
  0
POINT
  5
1D6
330
18
100
AcDbEntity
  8
0
100
AcDbPoint
 10
2.676
 20
6.438
 30
0.0
  0
POINT
  5
1D7
330
18
100
AcDbEntity
  8
0
100
AcDbPoint
 10
2.783
 20
6.392
 30
0.0
  0
POINT
  5
1D8
330
18
100
AcDbEntity
  8
0
100
AcDbPoint
 10
2.891
 20
6.345
 30
0.0
  0
POINT
  5
1D9
330
18
100
AcDbEntity
  8
0
100
AcDbPoint
 10
2.999
 20
6.299
 30
0.0
  0
POINT
  5
1DA
330
18
100
AcDbEntity
  8
0
100
AcDbPoint
 10
3.106
 20
6.252000000000001
 30
0.0
  0
POINT
  5
1DB
330
18
100
AcDbEntity
  8
0
100
AcDbPoint
 10
3.214
 20
6.205
 30
0.0
  0
POINT
  5
1DC
330
18
100
AcDbEntity
  8
0
100
AcDbPoint
 10
3.322
 20
6.159
 30
0.0
  0
POINT
  5
1DD
330
18
100
AcDbEntity
  8
0
100
AcDbPoint
 10
3.429
 20
6.112
 30
0.0
  0
POINT
  5
1DE
330
18
100
AcDbEntity
  8
0
100
AcDbPoint
 10
3.537
 20
6.065
 30
0.0
  0
POINT
  5
1DF
330
18
100
AcDbEntity
  8
0
100
AcDbPoint
 10
3.645
 20
6.019
 30
0.0
  0
POINT
  5
1E0
330
18
100
AcDbEntity
  8
0
100
AcDbPoint
 10
3.753
 20
5.972
 30
0.0
  0
POINT
  5
1E1
330
18
100
AcDbEntity
  8
0
100
AcDbPoint
 10
3.86
 20
5.926
 30
0.0
  0
POINT
  5
1E2
330
18
100
AcDbEntity
  8
0
100
AcDbPoint
 10
2.445
 20
7.119
 30
0.0
  0
POINT
  5
1E3
330
18
100
AcDbEntity
  8
0
100
AcDbPoint
 10
2.338
 20
7.167999999999999
 30
0.0
  0
POINT
  5
1E4
330
18
100
AcDbEntity
  8
0
100
AcDbPoint
 10
2.231
 20
7.217000000000001
 30
0.0
  0
POINT
  5
1E5
330
18
100
AcDbEntity
  8
0
100
AcDbPoint
 10
2.125
 20
7.266
 30
0.0
  0
POINT
  5
1E6
330
18
100
AcDbEntity
  8
0
100
AcDbPoint
 10
2.018
 20
7.314
 30
0.0
  0
POINT
  5
1E7
330
18
100
AcDbEntity
  8
0
100
AcDbPoint
 10
3.155
 20
6.772
 30
0.0
  0
POINT
  5
1E8
330
18
100
AcDbEntity
  8
0
100
AcDbPoint
 10
6.98
 20
5.176
 30
0.0
  0
POINT
  5
1E9
330
18
100
AcDbEntity
  8
0
100
AcDbPoint
 10
6.872999999999999
 20
5.223
 30
0.0
  0
POINT
  5
1EA
330
18
100
AcDbEntity
  8
0
100
AcDbPoint
 10
6.765
 20
5.27
 30
0.0
  0
POINT
  5
1EB
330
18
100
AcDbEntity
  8
0
100
AcDbPoint
 10
6.657
 20
5.316
 30
0.0
  0
POINT
  5
1EC
330
18
100
AcDbEntity
  8
0
100
AcDbPoint
 10
6.549
 20
5.363
 30
0.0
  0
POINT
  5
1ED
330
18
100
AcDbEntity
  8
0
100
AcDbPoint
 10
6.442
 20
5.41
 30
0.0
  0
POINT
  5
1EE
330
18
100
AcDbEntity
  8
0
100
AcDbPoint
 10
6.334
 20
5.456
 30
0.0
  0
POINT
  5
1EF
330
18
100
AcDbEntity
  8
0
100
AcDbPoint
 10
6.226
 20
5.502999999999999
 30
0.0
  0
POINT
  5
1F0
330
18
100
AcDbEntity
  8
0
100
AcDbPoint
 10
6.119
 20
5.549
 30
0.0
  0
POINT
  5
1F1
330
18
100
AcDbEntity
  8
0
100
AcDbPoint
 10
6.011
 20
5.596
 30
0.0
  0
POINT
  5
1F2
330
18
100
AcDbEntity
  8
0
100
AcDbPoint
 10
7.092000000000001
 20
5.127999999999999
 30
0.0
  0
POINT
  5
1F3
330
18
100
AcDbEntity
  8
0
100
AcDbPoint
 10
7.205
 20
5.079
 30
0.0
  0
POINT
  5
1F4
330
18
100
AcDbEntity
  8
0
100
AcDbPoint
 10
7.317
 20
5.031000000000001
 30
0.0
  0
POINT
  5
1F5
330
18
100
AcDbEntity
  8
0
100
AcDbPoint
 10
7.843
 20
4.807
 30
0.0
  0
POINT
  5
1F6
330
18
100
AcDbEntity
  8
0
100
AcDbPoint
 10
7.524
 20
4.943000000000001
 30
0.0
  0
POINT
  5
1F7
330
18
100
AcDbEntity
  8
0
100
AcDbPoint
 10
7.942
 20
4.144
 30
0.0
  0
POINT
  5
1F8
330
18
100
AcDbEntity
  8
0
100
AcDbPoint
 10
7.83
 20
4.192
 30
0.0
  0
POINT
  5
1F9
330
18
100
AcDbEntity
  8
0
100
AcDbPoint
 10
6.747999999999999
 20
4.661000000000001
 30
0.0
  0
POINT
  5
1FA
330
18
100
AcDbEntity
  8
0
100
AcDbPoint
 10
6.856
 20
4.614
 30
0.0
  0
POINT
  5
1FB
330
18
100
AcDbEntity
  8
0
100
AcDbPoint
 10
6.964
 20
4.567
 30
0.0
  0
POINT
  5
1FC
330
18
100
AcDbEntity
  8
0
100
AcDbPoint
 10
7.071000000000001
 20
4.521
 30
0.0
  0
POINT
  5
1FD
330
18
100
AcDbEntity
  8
0
100
AcDbPoint
 10
7.178999999999999
 20
4.474
 30
0.0
  0
POINT
  5
1FE
330
18
100
AcDbEntity
  8
0
100
AcDbPoint
 10
7.287000000000001
 20
4.427
 30
0.0
  0
POINT
  5
1FF
330
18
100
AcDbEntity
  8
0
100
AcDbPoint
 10
7.395
 20
4.381
 30
0.0
  0
POINT
  5
200
330
18
100
AcDbEntity
  8
0
100
AcDbPoint
 10
7.502000000000001
 20
4.334
 30
0.0
  0
POINT
  5
201
330
18
100
AcDbEntity
  8
0
100
AcDbPoint
 10
7.61
 20
4.288
 30
0.0
  0
POINT
  5
202
330
18
100
AcDbEntity
  8
0
100
AcDbPoint
 10
7.718
 20
4.241000000000001
 30
0.0
  0
POINT
  5
203
330
18
100
AcDbEntity
  8
0
100
AcDbPoint
 10
8.174
 20
4.045
 30
0.0
  0
POINT
  5
204
330
18
100
AcDbEntity
  8
0
100
AcDbPoint
 10
8.067
 20
4.092
 30
0.0
  0
POINT
  5
205
330
18
100
AcDbEntity
  8
0
100
AcDbPoint
 10
8.286
 20
3.997
 30
0.0
  0
POINT
  5
206
330
18
100
AcDbEntity
  8
0
100
AcDbPoint
 10
6.079
 20
4.383
 30
0.0
  0
POINT
  5
207
330
18
100
AcDbEntity
  8
0
100
AcDbPoint
 10
6.428
 20
4.248
 30
0.0
  0
POINT
  5
208
330
18
100
AcDbEntity
  8
0
100
AcDbPoint
 10
6.789
 20
4.082
 30
0.0
  0
POINT
  5
209
330
18
100
AcDbEntity
  8
0
100
AcDbPoint
 10
7.152
 20
3.918
 30
0.0
  0
POINT
  5
20A
330
18
100
AcDbEntity
  8
0
100
AcDbPoint
 10
7.509
 20
3.756
 30
0.0
  0
LINE
  5
20B
330
18
100
AcDbEntity
  8
0
100
AcDbLine
 10
7.653
 20
3.567
 30
0.0
 11
7.688
 21
3.635
 31
0.0
  0
LINE
  5
20C
330
18
100
AcDbEntity
  8
0
100
AcDbLine
 10
7.652
 20
3.511
 30
0.0
 11
7.726
 21
3.655
 31
0.0
  0
LINE
  5
20D
330
18
100
AcDbEntity
  8
0
100
AcDbLine
 10
7.672999999999999
 20
3.493
 30
0.0
 11
7.723
 21
3.59
 31
0.0
  0
LINE
  5
20E
330
18
100
AcDbEntity
  8
0
100
AcDbLine
 10
7.702000000000001
 20
3.504
 30
0.0
 11
7.723
 21
3.545
 31
0.0
  0
LINE
  5
20F
330
18
100
AcDbEntity
  8
0
100
AcDbLine
 10
8.225
 20
3.83
 30
0.0
 11
8.26
 21
3.898
 31
0.0
  0
LINE
  5
210
330
18
100
AcDbEntity
  8
0
100
AcDbLine
 10
8.224
 20
3.774
 30
0.0
 11
8.298
 21
3.918
 31
0.0
  0
LINE
  5
211
330
18
100
AcDbEntity
  8
0
100
AcDbLine
 10
8.244999999999999
 20
3.756
 30
0.0
 11
8.295
 21
3.853
 31
0.0
  0
LINE
  5
212
330
18
100
AcDbEntity
  8
0
100
AcDbLine
 10
8.273
 20
3.767
 30
0.0
 11
8.295
 21
3.809
 31
0.0
  0
LINE
  5
213
330
18
100
AcDbEntity
  8
0
100
AcDbLine
 10
3.208
 20
3.117
 30
0.0
 11
3.367
 21
3.031
 31
0.0
  0
LINE
  5
214
330
18
100
AcDbEntity
  8
0
100
AcDbLine
 10
3.367
 20
2.901
 30
0.0
 11
3.208
 21
2.978
 31
0.0
  0
LINE
  5
215
330
18
100
AcDbEntity
  8
0
100
AcDbLine
 10
3.196
 20
3.065
 30
0.0
 11
3.345
 21
2.991
 31
0.0
  0
LINE
  5
216
330
18
100
AcDbEntity
  8
0
100
AcDbLine
 10
3.376
 20
2.932
 30
0.0
 11
3.23
 21
3.01
 31
0.0
  0
LINE
  5
217
330
18
100
AcDbEntity
  8
0
100
AcDbLine
 10
3.208
 20
3.117
 30
0.0
 11
3.196
 21
3.065
 31
0.0
  0
LINE
  5
218
330
18
100
AcDbEntity
  8
0
100
AcDbLine
 10
3.196
 20
3.065
 30
0.0
 11
3.23
 21
3.01
 31
0.0
  0
LINE
  5
219
330
18
100
AcDbEntity
  8
0
100
AcDbLine
 10
3.23
 20
3.01
 30
0.0
 11
3.208
 21
2.978
 31
0.0
  0
LINE
  5
21A
330
18
100
AcDbEntity
  8
0
100
AcDbLine
 10
3.367
 20
3.031
 30
0.0
 11
3.345
 21
2.991
 31
0.0
  0
LINE
  5
21B
330
18
100
AcDbEntity
  8
0
100
AcDbLine
 10
3.345
 20
2.991
 30
0.0
 11
3.376
 21
2.932
 31
0.0
  0
LINE
  5
21C
330
18
100
AcDbEntity
  8
0
100
AcDbLine
 10
3.376
 20
2.932
 30
0.0
 11
3.367
 21
2.901
 31
0.0
  0
LINE
  5
21D
330
18
100
AcDbEntity
  8
0
100
AcDbLine
 10
3.208
 20
2.978
 30
0.0
 11
3.208
 21
2.779
 31
0.0
  0
LINE
  5
21E
330
18
100
AcDbEntity
  8
0
100
AcDbLine
 10
3.367
 20
2.901
 30
0.0
 11
3.367
 21
2.704
 31
0.0
  0
LINE
  5
21F
330
18
100
AcDbEntity
  8
0
100
AcDbLine
 10
3.367
 20
2.728
 30
0.0
 11
3.353
 21
2.71
 31
0.0
  0
LINE
  5
220
330
18
100
AcDbEntity
  8
0
100
AcDbLine
 10
0.897
 20
4.711
 30
0.0
 11
1.016
 21
4.645
 31
0.0
  0
LINE
  5
221
330
18
100
AcDbEntity
  8
0
100
AcDbLine
 10
0.897
 20
4.593999999999999
 30
0.0
 11
1.016
 21
4.535
 31
0.0
  0
LINE
  5
222
330
18
100
AcDbEntity
  8
0
100
AcDbLine
 10
0.9059999999999999
 20
4.668
 30
0.0
 11
1.013
 21
4.616000000000001
 31
0.0
  0
LINE
  5
223
330
18
100
AcDbEntity
  8
0
100
AcDbLine
 10
0.873
 20
4.634
 30
0.0
 11
0.991
 21
4.576000000000001
 31
0.0
  0
LINE
  5
224
330
18
100
AcDbEntity
  8
0
100
AcDbLine
 10
0.897
 20
4.711
 30
0.0
 11
0.9059999999999999
 21
4.668
 31
0.0
  0
LINE
  5
225
330
18
100
AcDbEntity
  8
0
100
AcDbLine
 10
0.9059999999999999
 20
4.668
 30
0.0
 11
0.873
 21
4.634
 31
0.0
  0
LINE
  5
226
330
18
100
AcDbEntity
  8
0
100
AcDbLine
 10
0.873
 20
4.634
 30
0.0
 11
0.897
 21
4.593999999999999
 31
0.0
  0
LINE
  5
227
330
18
100
AcDbEntity
  8
0
100
AcDbLine
 10
1.016
 20
4.645
 30
0.0
 11
1.013
 21
4.616000000000001
 31
0.0
  0
LINE
  5
228
330
18
100
AcDbEntity
  8
0
100
AcDbLine
 10
1.013
 20
4.616000000000001
 30
0.0
 11
0.991
 21
4.576000000000001
 31
0.0
  0
LINE
  5
229
330
18
100
AcDbEntity
  8
0
100
AcDbLine
 10
0.991
 20
4.576000000000001
 30
0.0
 11
1.016
 21
4.535
 31
0.0
  0
LINE
  5
22A
330
18
100
AcDbEntity
  8
0
100
AcDbLine
 10
0.897
 20
4.593999999999999
 30
0.0
 11
0.897
 21
4.448
 31
0.0
  0
LINE
  5
22B
330
18
100
AcDbEntity
  8
0
100
AcDbLine
 10
1.016
 20
4.535
 30
0.0
 11
1.016
 21
4.397
 31
0.0
  0
LINE
  5
22C
330
18
100
AcDbEntity
  8
0
  6
HIDDEN
100
AcDbLine
 10
3.237
 20
6.736000000000001
 30
0.0
 11
3.237
 21
5.665
 31
0.0
  0
LINE
  5
22D
330
18
100
AcDbEntity
  8
0
  6
HIDDEN
100
AcDbLine
 10
5.968
 20
5.51
 30
0.0
 11
5.968
 21
4.502
 31
0.0
  0
LINE
  5
22E
330
18
100
AcDbEntity
  8
0
  6
HIDDEN
100
AcDbLine
 10
7.358
 20
6.287000000000001
 30
0.0
 11
7.358
 21
5.052
 31
0.0
  0
LINE
  5
22F
330
18
100
AcDbEntity
  8
0
100
AcDbLine
 10
7.707000000000001
 20
5.44
 30
0.0
 11
7.69
 21
5.407
 31
0.0
  0
LINE
  5
230
330
18
100
AcDbEntity
  8
0
100
AcDbLine
 10
7.69
 20
5.407
 30
0.0
 11
7.784
 21
5.4
 31
0.0
  0
LINE
  5
231
330
18
100
AcDbEntity
  8
0
100
AcDbLine
 10
7.784
 20
5.4
 30
0.0
 11
7.755
 21
5.362
 31
0.0
  0
LINE
  5
232
330
18
100
AcDbEntity
  8
0
100
AcDbLine
 10
7.707000000000001
 20
5.44
 30
0.0
 11
7.537999999999999
 21
5.721
 31
0.0
  0
LINE
  5
233
330
18
100
AcDbEntity
  8
0
100
AcDbLine
 10
1.54
 20
7.124
 30
0.0
 11
1.635
 21
7.121
 31
0.0
  0
LINE
  5
234
330
18
100
AcDbEntity
  8
0
100
AcDbLine
 10
1.635
 20
7.121
 30
0.0
 11
1.575
 21
7.167999999999999
 31
0.0
  0
LINE
  5
235
330
18
100
AcDbEntity
  8
0
100
AcDbLine
 10
1.575
 20
7.167999999999999
 30
0.0
 11
1.62
 21
7.171
 31
0.0
  0
LINE
  5
236
330
18
100
AcDbEntity
  8
0
100
AcDbLine
 10
1.62
 20
7.171
 30
0.0
 11
1.935
 21
7.356
 31
0.0
  0
LINE
  5
237
330
18
100
AcDbEntity
  8
0
100
AcDbLine
 10
1.575
 20
7.167999999999999
 30
0.0
 11
1.577
 21
7.122999999999999
 31
0.0
  0
TEXT
  5
238
330
18
100
AcDbEntity
  8
0
100
AcDbText
 10
0.9562857142857143
 20
4.084
 30
0.0
 40
0.15
  1
VB
 41
0.8
 72
     1
 11
1.062
 21
4.084
 31
0.0
100
AcDbText
  0
ARC
  5
239
330
18
100
AcDbEntity
  8
0
100
AcDbCircle
 10
1.558
 20
5.073
 30
0.0
 40
0.961
100
AcDbArc
 50
254.914
 51
320.707
  0
SOLID
  5
23A
330
18
100
AcDbEntity
  8
0
100
AcDbTrace
 10
2.201
 20
4.387
 30
0.0
 11
2.232
 21
4.359
 31
0.0
 12
2.301
 22
4.465
 32
0.0
 13
2.301
 23
4.465
 33
0.0
  0
TEXT
  5
23B
330
18
100
AcDbEntity
  8
0
100
AcDbText
 10
1.879
 20
3.217
 30
0.0
 40
0.15
  1
CC
 41
0.8
 72
     1
 11
1.999
 21
3.217
 31
0.0
100
AcDbText
  0
ARC
  5
23C
330
18
100
AcDbEntity
  8
0
100
AcDbCircle
 10
2.582
 20
4.096
 30
0.0
 40
0.922
100
AcDbArc
 50
245.92
 51
344.284
  0
SOLID
  5
23D
330
18
100
AcDbEntity
  8
0
100
AcDbTrace
 10
3.406
 20
3.736
 30
0.0
 11
3.445
 21
3.722
 31
0.0
 12
3.469
 22
3.847
 32
0.0
 13
3.469
 23
3.847
 33
0.0
  0
TEXT
  5
23E
330
18
100
AcDbEntity
  8
0
100
AcDbText
 10
4.569857142857143
 20
2.638
 30
0.0
 40
0.15
  1
HW
 41
0.8
 72
     1
 11
4.707
 21
2.638
 31
0.0
100
AcDbText
  0
LINE
  5
23F
330
18
100
AcDbEntity
  8
0
100
AcDbLine
 10
4.941
 20
4.024
 30
0.0
 11
4.941
 21
4.072
 31
0.0
  0
LINE
  5
240
330
18
100
AcDbEntity
  8
0
100
AcDbLine
 10
4.955
 20
4.091
 30
0.0
 11
5.036000000000001
 21
4.118
 31
0.0
  0
LINE
  5
241
330
18
100
AcDbEntity
  8
0
100
AcDbLine
 10
5.327000000000001
 20
3.979
 30
0.0
 11
5.267
 21
3.947
 31
0.0
  0
LINE
  5
242
330
18
100
AcDbEntity
  8
0
100
AcDbLine
 10
5.256
 20
3.929
 30
0.0
 11
5.256
 21
3.884
 31
0.0
  0
LINE
  5
243
330
18
100
AcDbEntity
  8
0
100
AcDbLine
 10
5.256
 20
3.884
 30
0.0
 11
5.23
 21
3.869
 31
0.0
  0
LINE
  5
244
330
18
100
AcDbEntity
  8
0
100
AcDbLine
 10
5.23
 20
3.869
 30
0.0
 11
5.2
 21
3.874
 31
0.0
  0
LINE
  5
245
330
18
100
AcDbEntity
  8
0
100
AcDbLine
 10
5.194
 20
3.869
 30
0.0
 11
5.194
 21
3.486
 31
0.0
  0
LINE
  5
246
330
18
100
AcDbEntity
  8
0
100
AcDbLine
 10
5.184
 20
3.472
 30
0.0
 11
5.074
 21
3.433
 31
0.0
  0
ARC
  5
247
330
18
100
AcDbEntity
  8
0
100
AcDbCircle
 10
5.178999999999999
 20
3.486
 30
0.0
 40
0.015
100
AcDbArc
 50
289.63
 51
0.0
  0
LINE
  5
248
330
18
100
AcDbEntity
  8
0
100
AcDbLine
 10
5.053999999999999
 20
3.451
 30
0.0
 11
5.053999999999999
 21
3.447
 31
0.0
  0
ARC
  5
249
330
18
100
AcDbEntity
  8
0
100
AcDbCircle
 10
5.069
 20
3.447
 30
0.0
 40
0.015
100
AcDbArc
 50
180.0
 51
289.63
  0
LINE
  5
24A
330
18
100
AcDbEntity
  8
0
100
AcDbLine
 10
5.003
 20
4.048
 30
0.0
 11
5.17
 21
3.973
 31
0.0
  0
ARC
  5
24B
330
18
100
AcDbEntity
  8
0
100
AcDbCircle
 10
4.961
 20
4.072
 30
0.0
 40
0.02
100
AcDbArc
 50
108.067
 51
180.0
  0
ARC
  5
24C
330
18
100
AcDbEntity
  8
0
100
AcDbCircle
 10
5.276
 20
3.929
 30
0.0
 40
0.02
100
AcDbArc
 50
115.414
 51
180.0
  0
LINE
  5
24D
330
18
100
AcDbEntity
  8
0
100
AcDbLine
 10
5.17
 20
3.973
 30
0.0
 11
5.172999999999999
 21
3.957
 31
0.0
  0
ARC
  5
24E
330
18
100
AcDbEntity
  8
0
100
AcDbCircle
 10
5.199
 20
3.869
 30
0.0
 40
0.005
100
AcDbArc
 50
81.559
 51
180.0
  0
LINE
  5
24F
330
18
100
AcDbEntity
  8
0
100
AcDbLine
 10
5.259
 20
3.94
 30
0.0
 11
5.935
 21
3.629
 31
0.0
  0
LINE
  5
250
330
18
100
AcDbEntity
  8
0
100
AcDbLine
 10
5.002
 20
4.064
 30
0.0
 11
5.193
 21
3.979
 31
0.0
  0
ARC
  5
251
330
18
100
AcDbEntity
  8
0
100
AcDbCircle
 10
5.193
 20
3.909
 30
0.0
 40
0.027
100
AcDbArc
 50
65.584
 51
115.177
  0
ARC
  5
252
330
18
100
AcDbEntity
  8
0
100
AcDbCircle
 10
5.193
 20
3.899
 30
0.0
 40
0.027
100
AcDbArc
 50
65.584
 51
115.177
  0
ARC
  5
253
330
18
100
AcDbEntity
  8
0
100
AcDbCircle
 10
5.195
 20
3.888
 30
0.0
 40
0.027
100
AcDbArc
 50
65.584
 51
115.177
  0
ARC
  5
254
330
18
100
AcDbEntity
  8
0
100
AcDbCircle
 10
5.196000000000001
 20
3.878
 30
0.0
 40
0.027
100
AcDbArc
 50
65.584
 51
115.177
  0
ARC
  5
255
330
18
100
AcDbEntity
  8
0
100
AcDbCircle
 10
5.197
 20
3.866
 30
0.0
 40
0.027
100
AcDbArc
 50
65.584
 51
115.177
  0
ARC
  5
256
330
18
100
AcDbEntity
  8
0
100
AcDbCircle
 10
5.198
 20
3.856
 30
0.0
 40
0.027
100
AcDbArc
 50
65.584
 51
115.177
  0
LINE
  5
257
330
18
100
AcDbEntity
  8
0
100
AcDbLine
 10
5.257999999999999
 20
4.108000000000001
 30
0.0
 11
5.153
 21
4.157
 31
0.0
  0
LINE
  5
258
330
18
100
AcDbEntity
  8
0
100
AcDbLine
 10
5.047
 20
4.122
 30
0.0
 11
5.153
 21
4.157
 31
0.0
  0
LINE
  5
259
330
18
100
AcDbEntity
  8
0
100
AcDbLine
 10
5.223
 20
4.124
 30
0.0
 11
7.334
 21
4.985
 31
0.0
  0
LINE
  5
25A
330
18
100
AcDbEntity
  8
0
100
AcDbLine
 10
5.14
 20
4.152
 30
0.0
 11
2.489
 21
5.355
 31
0.0
  0
SOLID
  5
25B
330
18
100
AcDbEntity
  8
0
100
AcDbTrace
 10
5.206
 20
3.31
 30
0.0
 11
5.242999999999999
 21
3.329
 31
0.0
 12
5.166
 22
3.43
 32
0.0
 13
5.166
 23
3.43
 33
0.0
  0
ARC
  5
25C
330
18
100
AcDbEntity
  8
0
100
AcDbCircle
 10
4.867
 20
3.138
 30
0.0
 40
0.418
100
AcDbArc
 50
289.885
 51
44.235
  0
TEXT
  5
25D
330
18
100
AcDbEntity
  8
0
100
AcDbText
 10
4.818142857142858
 20
1.942
 30
0.0
 40
0.15
  1
HCA HINGE
 41
0.8
 72
     1
 11
5.321000000000001
 21
1.942
 31
0.0
100
AcDbText
  0
ARC
  5
25E
330
18
100
AcDbEntity
  8
0
100
AcDbCircle
 10
5.512000000000001
 20
2.873
 30
0.0
 40
0.9420000000000001
100
AcDbArc
 50
295.525
 51
356.835
  0
SOLID
  5
25F
330
18
100
AcDbEntity
  8
0
100
AcDbTrace
 10
6.42
 20
2.699
 30
0.0
 11
6.462000000000001
 21
2.695
 31
0.0
 12
6.452000000000001
 22
2.821
 32
0.0
 13
6.452000000000001
 23
2.821
 33
0.0
  0
TEXT
  5
260
330
18
100
AcDbEntity
  8
0
100
AcDbText
 10
7.908
 20
5.867000000000001
 30
0.0
 40
0.15
  1
F24N or F26N
 41
0.8
100
AcDbText
  0
ARC
  5
261
330
18
100
AcDbEntity
  8
0
100
AcDbCircle
 10
6.702000000000001
 20
7.875
 30
0.0
 40
2.276
100
AcDbArc
 50
251.706
 51
261.343
  0
ARC
  5
262
330
18
100
AcDbEntity
  8
0
100
AcDbCircle
 10
7.297999999999999
 20
6.711
 30
0.0
 40
0.971
100
AcDbArc
 50
237.042
 51
302.049
  0
SOLID
  5
263
330
18
100
AcDbEntity
  8
0
100
AcDbTrace
 10
6.1
 20
5.656000000000001
 30
0.0
 11
6.113
 21
5.696000000000001
 31
0.0
 12
5.987
 22
5.712999999999999
 32
0.0
 13
5.987
 23
5.712999999999999
 33
0.0
  0
SOLID
  5
264
330
18
100
AcDbEntity
  8
0
100
AcDbTrace
 10
6.869
 20
5.817
 30
0.0
 11
6.888999999999999
 21
5.853
 31
0.0
 12
6.77
 22
5.896
 32
0.0
 13
6.77
 23
5.896
 33
0.0
  0
TEXT
  5
265
330
18
100
AcDbEntity
  8
0
100
AcDbText
 10
4.345
 20
5.079
 30
0.0
 40
0.15
  1
STIFFENER
 41
0.8
100
AcDbText
  0
ARC
  5
266
330
18
100
AcDbEntity
  8
0
100
AcDbCircle
 10
5.241000000000001
 20
5.69
 30
0.0
 40
0.5489999999999999
100
AcDbArc
 50
276.967
 51
5.908999999999999
  0
ARC
  5
267
330
18
100
AcDbEntity
  8
0
100
AcDbCircle
 10
5.352
 20
6.443
 30
0.0
 40
1.297
100
AcDbArc
 50
268.037
 51
337.737
  0
SOLID
  5
268
330
18
100
AcDbEntity
  8
0
100
AcDbTrace
 10
5.763
 20
5.622999999999999
 30
0.0
 11
5.803999999999999
 21
5.621
 31
0.0
 12
5.787000000000001
 22
5.747000000000001
 32
0.0
 13
5.787000000000001
 23
5.747000000000001
 33
0.0
  0
ARC
  5
269
330
18
100
AcDbEntity
  8
0
100
AcDbCircle
 10
6.564
 20
6.349
 30
0.0
 40
0.9379999999999999
100
AcDbArc
 50
100.196
 51
157.476
  0
TEXT
  5
26A
330
18
100
AcDbEntity
  8
0
100
AcDbText
 10
6.446000000000001
 20
7.224
 30
0.0
 40
0.15
  1
PLYWOOD PANEL
 41
0.8
100
AcDbText
  0
SOLID
  5
26B
330
18
100
AcDbEntity
  8
0
100
AcDbTrace
 10
5.775
 20
6.809
 30
0.0
 11
5.738
 21
6.827999999999999
 31
0.0
 12
5.698
 22
6.707999999999999
 32
0.0
 13
5.698
 23
6.707999999999999
 33
0.0
  0
LINE
  5
26C
330
18
100
AcDbEntity
  8
DIM
100
AcDbLine
 10
3.335
 20
7.244
 30
0.0
 11
3.792
 21
7.372000000000001
 31
0.0
  0
LINE
  5
26D
330
18
100
AcDbEntity
  8
DIM
100
AcDbLine
 10
4.583
 20
7.595
 30
0.0
 11
4.127
 21
7.466
 31
0.0
  0
SOLID
  5
26E
330
18
100
AcDbEntity
  8
DIM
100
AcDbTrace
 10
3.341
 20
7.224
 30
0.0
 11
3.33
 21
7.263999999999999
 31
0.0
 12
3.215
 22
7.21
 32
0.0
 13
3.215
 23
7.21
 33
0.0
  0
SOLID
  5
26F
330
18
100
AcDbEntity
  8
DIM
100
AcDbTrace
 10
4.589
 20
7.575
 30
0.0
 11
4.578
 21
7.615
 31
0.0
 12
4.704
 22
7.629
 32
0.0
 13
4.704
 23
7.629
 33
0.0
  0
TEXT
  5
270
330
18
100
AcDbEntity
  8
DIM
100
AcDbText
 10
3.896
 20
7.332999999999999
 30
0.0
 40
0.15
  1
4'
 50
13.172
 51
14.0
100
AcDbText
  0
LINE
  5
271
330
18
100
AcDbEntity
  8
DIM
100
AcDbLine
 10
3.215
 20
6.95
 30
0.0
 11
3.215
 21
7.376
 31
0.0
  0
LINE
  5
272
330
18
100
AcDbEntity
  8
DIM
100
AcDbLine
 10
4.704
 20
7.369
 30
0.0
 11
4.704
 21
7.794
 31
0.0
  0
LINE
  5
273
330
18
100
AcDbEntity
  8
DIM
100
AcDbLine
 10
7.358
 20
6.309
 30
0.0
 11
7.358
 21
6.734
 31
0.0
  0
SOLID
  5
274
330
18
100
AcDbEntity
  8
DIM
100
AcDbTrace
 10
4.813
 20
7.565
 30
0.0
 11
4.828
 21
7.604
 31
0.0
 12
4.704
 22
7.629
 32
0.0
 13
4.704
 23
7.629
 33
0.0
  0
SOLID
  5
275
330
18
100
AcDbEntity
  8
DIM
100
AcDbTrace
 10
7.249
 20
6.684
 30
0.0
 11
7.234
 21
6.645
 31
0.0
 12
7.358
 22
6.62
 32
0.0
 13
7.358
 23
6.62
 33
0.0
  0
LINE
  5
276
330
18
100
AcDbEntity
  8
DIM
100
AcDbLine
 10
7.241000000000001
 20
6.665
 30
0.0
 11
6.091
 21
7.102
 31
0.0
  0
TEXT
  5
277
330
18
100
AcDbEntity
  8
DIM
100
AcDbText
 10
5.467000000000001
 20
7.27
 30
0.0
 40
0.15
  1
8'
 50
340.371
100
AcDbText
  0
LINE
  5
278
330
18
100
AcDbEntity
  8
DIM
100
AcDbLine
 10
5.414
 20
7.359
 30
0.0
 11
4.704
 21
7.629
 31
0.0
  0
LINE
  5
279
330
18
100
AcDbEntity
  8
DIM
100
AcDbLine
 10
6.034
 20
7.122999999999999
 30
0.0
 11
5.701000000000001
 21
7.25
 31
0.0
  0
LINE
  5
27A
330
18
100
AcDbEntity
  8
0
100
AcDbLine
 10
5.86
 20
6.907
 30
0.0
 11
7.358
 21
6.309
 31
0.0
  0
LINE
  5
27B
330
18
100
AcDbEntity
  8
0
100
AcDbLine
 10
5.74
 20
5.462000000000001
 30
0.0
 11
4.706
 21
5.911000000000001
 31
0.0
  0
LINE
  5
27C
330
18
100
AcDbEntity
  8
0
100
AcDbLine
 10
6.031000000000001
 20
5.337000000000001
 30
0.0
 11
5.776
 21
5.447
 31
0.0
  0
LINE
  5
27D
330
18
100
AcDbEntity
  8
0
100
AcDbLine
 10
7.512000000000001
 20
5.763999999999999
 30
0.0
 11
7.467000000000001
 21
5.839
 31
0.0
  0
ARC
  5
27E
330
18
100
AcDbEntity
  8
0
100
AcDbCircle
 10
6.702000000000001
 20
7.875
 30
0.0
 40
2.276
100
AcDbArc
 50
262.434
 51
299.222
  0
LINE
  5
27F
330
18
100
AcDbEntity
  8
0
100
AcDbLine
 10
5.782
 20
5.62
 30
0.0
 11
4.739
 21
6.07
 31
0.0
  0
LINE
  5
280
330
18
100
AcDbEntity
  8
0
100
AcDbLine
 10
5.789
 20
5.645
 30
0.0
 11
3.237
 21
6.736000000000001
 31
0.0
  0
LINE
  5
281
330
18
100
AcDbEntity
  8
0
100
AcDbLine
 10
5.337999999999999
 20
3.021
 30
0.0
 11
6.281000000000001
 21
2.567
 31
0.0
  0
LINE
  5
282
330
18
100
AcDbEntity
  8
0
100
AcDbLine
 10
6.421
 20
2.628
 30
0.0
 11
6.483
 21
2.654
 31
0.0
  0
LINE
  5
283
330
18
100
AcDbEntity
  8
0
100
AcDbLine
 10
3.575
 20
2.681
 30
0.0
 11
3.604
 21
2.704
 31
0.0
  0
LINE
  5
284
330
18
100
AcDbEntity
  8
0
100
AcDbLine
 10
3.604
 20
2.704
 30
0.0
 11
3.633
 21
2.605
 31
0.0
  0
LINE
  5
285
330
18
100
AcDbEntity
  8
0
100
AcDbLine
 10
3.633
 20
2.605
 30
0.0
 11
3.662
 21
2.632
 31
0.0
  0
LINE
  5
286
330
18
100
AcDbEntity
  8
0
100
AcDbLine
 10
3.633
 20
2.605
 30
0.0
 11
3.68
 21
2.622
 31
0.0
  0
LINE
  5
287
330
18
100
AcDbEntity
  8
0
100
AcDbLine
 10
3.662
 20
2.632
 30
0.0
 11
3.706
 21
2.607
 31
0.0
  0
LINE
  5
288
330
18
100
AcDbEntity
  8
0
100
AcDbLine
 10
1.914
 20
5.388999999999999
 30
0.0
 11
2.133
 21
5.283
 31
0.0
  0
LINE
  5
289
330
18
100
AcDbEntity
  8
0
100
AcDbLine
 10
1.445
 20
5.542000000000001
 30
0.0
 11
2.053
 21
5.256
 31
0.0
  0
LINE
  5
28A
330
18
100
AcDbEntity
  8
0
100
AcDbLine
 10
1.695
 20
5.366000000000001
 30
0.0
 11
1.984
 21
5.233
 31
0.0
  0
LINE
  5
28B
330
18
100
AcDbEntity
  8
0
100
AcDbLine
 10
2.405
 20
4.977
 30
0.0
 11
2.829
 21
4.778000000000001
 31
0.0
  0
LINE
  5
28C
330
18
100
AcDbEntity
  8
0
100
AcDbLine
 10
2.632
 20
4.838
 30
0.0
 11
3.217
 21
4.543
 31
0.0
  0
LINE
  5
28D
330
18
100
AcDbEntity
  8
0
100
AcDbLine
 10
2.884
 20
4.664
 30
0.0
 11
3.467
 21
4.373
 31
0.0
  0
LINE
  5
28E
330
18
100
AcDbEntity
  8
0
100
AcDbLine
 10
2.38
 20
5.05
 30
0.0
 11
3.159
 21
4.691
 31
0.0
  0
LINE
  5
28F
330
18
100
AcDbEntity
  8
0
100
AcDbLine
 10
2.38
 20
5.102
 30
0.0
 11
3.038
 21
4.793
 31
0.0
  0
LINE
  5
290
330
18
100
AcDbEntity
  8
0
100
AcDbLine
 10
2.395
 20
5.156000000000001
 30
0.0
 11
2.864
 21
4.928
 31
0.0
  0
LINE
  5
291
330
18
100
AcDbEntity
  8
0
100
AcDbLine
 10
3.322
 20
4.769
 30
0.0
 11
4.948
 21
4.026
 31
0.0
  0
LINE
  5
292
330
18
100
AcDbEntity
  8
0
100
AcDbLine
 10
3.605
 20
4.577
 30
0.0
 11
4.875
 21
3.997
 31
0.0
  0
LINE
  5
293
330
18
100
AcDbEntity
  8
0
100
AcDbLine
 10
3.467
 20
4.585
 30
0.0
 11
4.81
 21
3.971
 31
0.0
  0
LINE
  5
294
330
18
100
AcDbEntity
  8
0
100
AcDbLine
 10
3.83
 20
4.341
 30
0.0
 11
4.718999999999999
 21
3.935
 31
0.0
  0
LINE
  5
295
330
18
100
AcDbEntity
  8
0
100
AcDbLine
 10
4.157
 20
4.143
 30
0.0
 11
4.662
 21
3.913
 31
0.0
  0
LINE
  5
296
330
18
100
AcDbEntity
  8
0
100
AcDbLine
 10
4.262
 20
4.028000000000001
 30
0.0
 11
4.584
 21
3.881
 31
0.0
  0
LINE
  5
297
330
18
100
AcDbEntity
  8
0
100
AcDbLine
 10
4.355
 20
3.923
 30
0.0
 11
4.511
 21
3.852
 31
0.0
  0
LINE
  5
298
330
18
100
AcDbEntity
  8
0
100
AcDbLine
 10
5.194
 20
3.54
 30
0.0
 11
6.097
 21
3.128
 31
0.0
  0
LINE
  5
299
330
18
100
AcDbEntity
  8
0
100
AcDbLine
 10
5.194
 20
3.602
 30
0.0
 11
5.935
 21
3.264
 31
0.0
  0
LINE
  5
29A
330
18
100
AcDbEntity
  8
0
100
AcDbLine
 10
5.194
 20
3.67
 30
0.0
 11
5.935
 21
3.331
 31
0.0
  0
LINE
  5
29B
330
18
100
AcDbEntity
  8
0
100
AcDbLine
 10
5.194
 20
3.718
 30
0.0
 11
5.935
 21
3.38
 31
0.0
  0
LINE
  5
29C
330
18
100
AcDbEntity
  8
0
100
AcDbLine
 10
5.194
 20
3.796
 30
0.0
 11
5.935
 21
3.457
 31
0.0
  0
LINE
  5
29D
330
18
100
AcDbEntity
  8
0
100
AcDbLine
 10
5.194
 20
3.852
 30
0.0
 11
5.935
 21
3.513
 31
0.0
  0
LINE
  5
29E
330
18
100
AcDbEntity
  8
0
100
AcDbLine
 10
5.256
 20
3.886
 30
0.0
 11
5.935
 21
3.576
 31
0.0
  0
LINE
  5
29F
330
18
100
AcDbEntity
  8
0
100
AcDbLine
 10
5.979
 20
2.758
 30
0.0
 11
6.283
 21
2.619
 31
0.0
  0
LINE
  5
2A0
330
18
100
AcDbEntity
  8
0
100
AcDbLine
 10
5.83
 20
2.876
 30
0.0
 11
6.285
 21
2.668
 31
0.0
  0
LINE
  5
2A1
330
18
100
AcDbEntity
  8
0
100
AcDbLine
 10
5.499
 20
3.093
 30
0.0
 11
6.287999999999999
 21
2.732
 31
0.0
  0
LINE
  5
2A2
330
18
100
AcDbEntity
  8
0
100
AcDbLine
 10
5.381
 20
3.206
 30
0.0
 11
6.29
 21
2.791
 31
0.0
  0
LINE
  5
2A3
330
18
100
AcDbEntity
  8
0
100
AcDbLine
 10
5.281000000000001
 20
3.309
 30
0.0
 11
6.292000000000001
 21
2.847
 31
0.0
  0
LINE
  5
2A4
330
18
100
AcDbEntity
  8
0
100
AcDbLine
 10
5.247000000000001
 20
3.385
 30
0.0
 11
6.295
 21
2.906
 31
0.0
  0
LINE
  5
2A5
330
18
100
AcDbEntity
  8
0
100
AcDbLine
 10
5.223
 20
3.454
 30
0.0
 11
6.277
 21
2.973
 31
0.0
  0
LINE
  5
2A6
330
18
100
AcDbEntity
  8
0
100
AcDbLine
 10
6.283
 20
2.619
 30
0.0
 11
6.412000000000001
 21
2.669
 31
0.0
  0
LINE
  5
2A7
330
18
100
AcDbEntity
  8
0
100
AcDbLine
 10
6.285
 20
2.668
 30
0.0
 11
6.391
 21
2.714
 31
0.0
  0
LINE
  5
2A8
330
18
100
AcDbEntity
  8
0
100
AcDbLine
 10
6.287999999999999
 20
2.732
 30
0.0
 11
6.412000000000001
 21
2.786
 31
0.0
  0
LINE
  5
2A9
330
18
100
AcDbEntity
  8
0
100
AcDbLine
 10
6.29
 20
2.791
 30
0.0
 11
6.369
 21
2.825
 31
0.0
  0
LINE
  5
2AA
330
18
100
AcDbEntity
  8
0
100
AcDbLine
 10
6.292000000000001
 20
2.847
 30
0.0
 11
6.312
 21
2.854
 31
0.0
  0
LINE
  5
2AB
330
18
100
AcDbEntity
  8
0
100
AcDbLine
 10
7.249
 20
2.832
 30
0.0
 11
7.408
 21
2.901
 31
0.0
  0
LINE
  5
2AC
330
18
100
AcDbEntity
  8
0
100
AcDbLine
 10
7.249
 20
2.691
 30
0.0
 11
7.408
 21
2.751
 31
0.0
  0
LINE
  5
2AD
330
18
100
AcDbEntity
  8
0
100
AcDbLine
 10
7.252000000000001
 20
2.768
 30
0.0
 11
7.424
 21
2.836
 31
0.0
  0
LINE
  5
2AE
330
18
100
AcDbEntity
  8
0
100
AcDbLine
 10
7.222
 20
2.727
 30
0.0
 11
7.387000000000001
 21
2.79
 31
0.0
  0
LINE
  5
2AF
330
18
100
AcDbEntity
  8
0
100
AcDbLine
 10
7.408
 20
2.751
 30
0.0
 11
7.409
 21
2.516
 31
0.0
  0
LINE
  5
2B0
330
18
100
AcDbEntity
  8
0
100
AcDbLine
 10
7.249
 20
2.691
 30
0.0
 11
7.25
 21
2.416
 31
0.0
  0
LINE
  5
2B1
330
18
100
AcDbEntity
  8
0
100
AcDbLine
 10
7.408
 20
2.901
 30
0.0
 11
7.424
 21
2.836
 31
0.0
  0
LINE
  5
2B2
330
18
100
AcDbEntity
  8
0
100
AcDbLine
 10
7.424
 20
2.836
 30
0.0
 11
7.387000000000001
 21
2.79
 31
0.0
  0
LINE
  5
2B3
330
18
100
AcDbEntity
  8
0
100
AcDbLine
 10
7.387000000000001
 20
2.79
 30
0.0
 11
7.408
 21
2.751
 31
0.0
  0
LINE
  5
2B4
330
18
100
AcDbEntity
  8
0
100
AcDbLine
 10
7.249
 20
2.832
 30
0.0
 11
7.252000000000001
 21
2.768
 31
0.0
  0
LINE
  5
2B5
330
18
100
AcDbEntity
  8
0
100
AcDbLine
 10
7.252000000000001
 20
2.768
 30
0.0
 11
7.222
 21
2.727
 31
0.0
  0
LINE
  5
2B6
330
18
100
AcDbEntity
  8
0
100
AcDbLine
 10
7.222
 20
2.727
 30
0.0
 11
7.249
 21
2.691
 31
0.0
  0
LINE
  5
2B7
330
18
100
AcDbEntity
  8
0
100
AcDbLine
 10
3.465
 20
4.096
 30
0.0
 11
3.445
 21
4.11
 31
0.0
  0
LINE
  5
2B8
330
18
100
AcDbEntity
  8
0
100
AcDbLine
 10
3.445
 20
4.11
 30
0.0
 11
3.423
 21
4.099
 31
0.0
  0
LINE
  5
2B9
330
18
100
AcDbEntity
  8
0
100
AcDbLine
 10
3.423
 20
4.099
 30
0.0
 11
3.421
 21
4.074
 31
0.0
  0
LINE
  5
2BA
330
18
100
AcDbEntity
  8
0
100
AcDbLine
 10
3.421
 20
4.074
 30
0.0
 11
3.441
 21
4.061
 31
0.0
  0
LINE
  5
2BB
330
18
100
AcDbEntity
  8
0
100
AcDbLine
 10
3.441
 20
4.061
 30
0.0
 11
3.463
 21
4.071000000000001
 31
0.0
  0
LINE
  5
2BC
330
18
100
AcDbEntity
  8
0
100
AcDbLine
 10
3.463
 20
4.071000000000001
 30
0.0
 11
3.465
 21
4.096
 31
0.0
  0
LINE
  5
2BD
330
18
100
AcDbEntity
  8
0
100
AcDbLine
 10
3.754
 20
3.963
 30
0.0
 11
3.734
 21
3.976
 31
0.0
  0
LINE
  5
2BE
330
18
100
AcDbEntity
  8
0
100
AcDbLine
 10
3.734
 20
3.976
 30
0.0
 11
3.712
 21
3.966
 31
0.0
  0
LINE
  5
2BF
330
18
100
AcDbEntity
  8
0
100
AcDbLine
 10
3.712
 20
3.966
 30
0.0
 11
3.71
 21
3.941
 31
0.0
  0
LINE
  5
2C0
330
18
100
AcDbEntity
  8
0
100
AcDbLine
 10
3.71
 20
3.941
 30
0.0
 11
3.731
 21
3.928
 31
0.0
  0
LINE
  5
2C1
330
18
100
AcDbEntity
  8
0
100
AcDbLine
 10
3.731
 20
3.928
 30
0.0
 11
3.753
 21
3.938
 31
0.0
  0
LINE
  5
2C2
330
18
100
AcDbEntity
  8
0
100
AcDbLine
 10
3.753
 20
3.938
 30
0.0
 11
3.754
 21
3.963
 31
0.0
  0
LINE
  5
2C3
330
18
100
AcDbEntity
  8
0
100
AcDbLine
 10
3.756
 20
3.847
 30
0.0
 11
3.735
 21
3.86
 31
0.0
  0
LINE
  5
2C4
330
18
100
AcDbEntity
  8
0
100
AcDbLine
 10
3.735
 20
3.86
 30
0.0
 11
3.713
 21
3.85
 31
0.0
  0
LINE
  5
2C5
330
18
100
AcDbEntity
  8
0
100
AcDbLine
 10
3.713
 20
3.85
 30
0.0
 11
3.712
 21
3.825
 31
0.0
  0
LINE
  5
2C6
330
18
100
AcDbEntity
  8
0
100
AcDbLine
 10
3.712
 20
3.825
 30
0.0
 11
3.732
 21
3.811
 31
0.0
  0
LINE
  5
2C7
330
18
100
AcDbEntity
  8
0
100
AcDbLine
 10
3.732
 20
3.811
 30
0.0
 11
3.754
 21
3.822
 31
0.0
  0
LINE
  5
2C8
330
18
100
AcDbEntity
  8
0
100
AcDbLine
 10
3.754
 20
3.822
 30
0.0
 11
3.756
 21
3.847
 31
0.0
  0
LINE
  5
2C9
330
18
100
AcDbEntity
  8
0
100
AcDbLine
 10
3.457
 20
3.979
 30
0.0
 11
3.437
 21
3.992
 31
0.0
  0
LINE
  5
2CA
330
18
100
AcDbEntity
  8
0
100
AcDbLine
 10
3.437
 20
3.992
 30
0.0
 11
3.415
 21
3.982
 31
0.0
  0
LINE
  5
2CB
330
18
100
AcDbEntity
  8
0
100
AcDbLine
 10
3.415
 20
3.982
 30
0.0
 11
3.413
 21
3.957
 31
0.0
  0
LINE
  5
2CC
330
18
100
AcDbEntity
  8
0
100
AcDbLine
 10
3.413
 20
3.957
 30
0.0
 11
3.433
 21
3.943
 31
0.0
  0
LINE
  5
2CD
330
18
100
AcDbEntity
  8
0
100
AcDbLine
 10
3.433
 20
3.943
 30
0.0
 11
3.455
 21
3.954
 31
0.0
  0
LINE
  5
2CE
330
18
100
AcDbEntity
  8
0
100
AcDbLine
 10
3.455
 20
3.954
 30
0.0
 11
3.457
 21
3.979
 31
0.0
  0
LINE
  5
2CF
330
18
100
AcDbEntity
  8
0
100
AcDbLine
 10
3.813
 20
3.69
 30
0.0
 11
3.83
 21
3.679
 31
0.0
  0
LINE
  5
2D0
330
18
100
AcDbEntity
  8
0
100
AcDbLine
 10
3.83
 20
3.679
 30
0.0
 11
3.849
 21
3.688
 31
0.0
  0
LINE
  5
2D1
330
18
100
AcDbEntity
  8
0
100
AcDbLine
 10
3.849
 20
3.688
 30
0.0
 11
3.85
 21
3.709
 31
0.0
  0
LINE
  5
2D2
330
18
100
AcDbEntity
  8
0
100
AcDbLine
 10
3.85
 20
3.709
 30
0.0
 11
3.833
 21
3.72
 31
0.0
  0
LINE
  5
2D3
330
18
100
AcDbEntity
  8
0
100
AcDbLine
 10
3.833
 20
3.72
 30
0.0
 11
3.814
 21
3.711
 31
0.0
  0
LINE
  5
2D4
330
18
100
AcDbEntity
  8
0
100
AcDbLine
 10
3.814
 20
3.711
 30
0.0
 11
3.813
 21
3.69
 31
0.0
  0
LINE
  5
2D5
330
18
100
AcDbEntity
  8
0
100
AcDbLine
 10
3.843
 20
3.586
 30
0.0
 11
3.829
 21
3.596
 31
0.0
  0
LINE
  5
2D6
330
18
100
AcDbEntity
  8
0
100
AcDbLine
 10
3.829
 20
3.596
 30
0.0
 11
3.811
 21
3.586
 31
0.0
  0
LINE
  5
2D7
330
18
100
AcDbEntity
  8
0
100
AcDbLine
 10
3.811
 20
3.586
 30
0.0
 11
3.81
 21
3.573
 31
0.0
  0
ARC
  5
2D8
330
18
100
AcDbEntity
  8
0
100
AcDbCircle
 10
1.952
 20
4.997
 30
0.0
 40
0.008
100
AcDbArc
 50
222.185
 51
244.486
  0
ARC
  5
2D9
330
18
100
AcDbEntity
  8
0
100
AcDbCircle
 10
1.952
 20
4.997
 30
0.0
 40
0.008
100
AcDbArc
 50
244.486
 51
266.902
  0
ARC
  5
2DA
330
18
100
AcDbEntity
  8
0
100
AcDbCircle
 10
1.952
 20
4.997
 30
0.0
 40
0.008
100
AcDbArc
 50
266.902
 51
289.485
  0
ARC
  5
2DB
330
18
100
AcDbEntity
  8
0
100
AcDbCircle
 10
1.952
 20
4.997
 30
0.0
 40
0.008
100
AcDbArc
 50
289.485
 51
312.185
  0
ARC
  5
2DC
330
18
100
AcDbEntity
  8
0
100
AcDbCircle
 10
1.952
 20
4.997
 30
0.0
 40
0.008
100
AcDbArc
 50
312.185
 51
334.886
  0
ARC
  5
2DD
330
18
100
AcDbEntity
  8
0
100
AcDbCircle
 10
1.952
 20
4.997
 30
0.0
 40
0.008
100
AcDbArc
 50
334.886
 51
357.468
  0
ARC
  5
2DE
330
18
100
AcDbEntity
  8
0
100
AcDbCircle
 10
1.952
 20
4.997
 30
0.0
 40
0.008
100
AcDbArc
 50
357.468
 51
19.885
  0
ARC
  5
2DF
330
18
100
AcDbEntity
  8
0
100
AcDbCircle
 10
1.952
 20
4.997
 30
0.0
 40
0.008
100
AcDbArc
 50
19.885
 51
42.185
  0
ARC
  5
2E0
330
18
100
AcDbEntity
  8
0
100
AcDbCircle
 10
1.952
 20
4.997
 30
0.0
 40
0.008
100
AcDbArc
 50
42.185
 51
64.486
  0
ARC
  5
2E1
330
18
100
AcDbEntity
  8
0
100
AcDbCircle
 10
1.952
 20
4.997
 30
0.0
 40
0.008
100
AcDbArc
 50
64.486
 51
86.902
  0
ARC
  5
2E2
330
18
100
AcDbEntity
  8
0
100
AcDbCircle
 10
1.952
 20
4.997
 30
0.0
 40
0.008
100
AcDbArc
 50
86.902
 51
109.485
  0
ARC
  5
2E3
330
18
100
AcDbEntity
  8
0
100
AcDbCircle
 10
1.952
 20
4.997
 30
0.0
 40
0.008
100
AcDbArc
 50
109.485
 51
132.185
  0
ARC
  5
2E4
330
18
100
AcDbEntity
  8
0
100
AcDbCircle
 10
1.952
 20
4.997
 30
0.0
 40
0.008
100
AcDbArc
 50
132.185
 51
154.886
  0
ARC
  5
2E5
330
18
100
AcDbEntity
  8
0
100
AcDbCircle
 10
1.952
 20
4.997
 30
0.0
 40
0.008
100
AcDbArc
 50
154.886
 51
177.468
  0
ARC
  5
2E6
330
18
100
AcDbEntity
  8
0
100
AcDbCircle
 10
1.952
 20
4.997
 30
0.0
 40
0.008
100
AcDbArc
 50
177.468
 51
199.885
  0
ARC
  5
2E7
330
18
100
AcDbEntity
  8
0
100
AcDbCircle
 10
1.952
 20
4.997
 30
0.0
 40
0.008
100
AcDbArc
 50
199.885
 51
222.185
  0
ARC
  5
2E8
330
18
100
AcDbEntity
  8
0
100
AcDbCircle
 10
1.948
 20
5.0
 30
0.0
 40
0.008
100
AcDbArc
 50
222.185
 51
244.486
  0
ARC
  5
2E9
330
18
100
AcDbEntity
  8
0
100
AcDbCircle
 10
1.948
 20
5.0
 30
0.0
 40
0.008
100
AcDbArc
 50
244.486
 51
248.1
  0
ARC
  5
2EA
330
18
100
AcDbEntity
  8
0
100
AcDbCircle
 10
1.948
 20
5.0
 30
0.0
 40
0.008
100
AcDbArc
 50
30.827
 51
42.185
  0
ARC
  5
2EB
330
18
100
AcDbEntity
  8
0
100
AcDbCircle
 10
1.948
 20
5.0
 30
0.0
 40
0.008
100
AcDbArc
 50
42.185
 51
64.486
  0
ARC
  5
2EC
330
18
100
AcDbEntity
  8
0
100
AcDbCircle
 10
1.948
 20
5.0
 30
0.0
 40
0.008
100
AcDbArc
 50
64.486
 51
86.902
  0
ARC
  5
2ED
330
18
100
AcDbEntity
  8
0
100
AcDbCircle
 10
1.948
 20
5.0
 30
0.0
 40
0.008
100
AcDbArc
 50
86.902
 51
109.485
  0
ARC
  5
2EE
330
18
100
AcDbEntity
  8
0
100
AcDbCircle
 10
1.948
 20
5.001
 30
0.0
 40
0.008
100
AcDbArc
 50
109.485
 51
132.185
  0
ARC
  5
2EF
330
18
100
AcDbEntity
  8
0
100
AcDbCircle
 10
1.948
 20
5.001
 30
0.0
 40
0.008
100
AcDbArc
 50
132.185
 51
154.886
  0
ARC
  5
2F0
330
18
100
AcDbEntity
  8
0
100
AcDbCircle
 10
1.948
 20
5.0
 30
0.0
 40
0.008
100
AcDbArc
 50
154.886
 51
177.468
  0
ARC
  5
2F1
330
18
100
AcDbEntity
  8
0
100
AcDbCircle
 10
1.948
 20
5.0
 30
0.0
 40
0.008
100
AcDbArc
 50
177.468
 51
199.885
  0
ARC
  5
2F2
330
18
100
AcDbEntity
  8
0
100
AcDbCircle
 10
1.948
 20
5.0
 30
0.0
 40
0.008
100
AcDbArc
 50
199.885
 51
222.185
  0
ARC
  5
2F3
330
18
100
AcDbEntity
  8
0
100
AcDbCircle
 10
2.022
 20
4.991000000000001
 30
0.0
 40
0.008
100
AcDbArc
 50
30.827
 51
42.185
  0
ARC
  5
2F4
330
18
100
AcDbEntity
  8
0
100
AcDbCircle
 10
2.022
 20
4.991000000000001
 30
0.0
 40
0.008
100
AcDbArc
 50
42.185
 51
64.486
  0
ARC
  5
2F5
330
18
100
AcDbEntity
  8
0
100
AcDbCircle
 10
2.022
 20
4.991000000000001
 30
0.0
 40
0.008
100
AcDbArc
 50
64.486
 51
86.902
  0
ARC
  5
2F6
330
18
100
AcDbEntity
  8
0
100
AcDbCircle
 10
2.022
 20
4.991000000000001
 30
0.0
 40
0.008
100
AcDbArc
 50
86.902
 51
109.485
  0
ARC
  5
2F7
330
18
100
AcDbEntity
  8
0
100
AcDbCircle
 10
2.022
 20
4.991000000000001
 30
0.0
 40
0.008
100
AcDbArc
 50
109.485
 51
132.185
  0
ARC
  5
2F8
330
18
100
AcDbEntity
  8
0
100
AcDbCircle
 10
2.022
 20
4.991000000000001
 30
0.0
 40
0.008
100
AcDbArc
 50
132.185
 51
154.886
  0
ARC
  5
2F9
330
18
100
AcDbEntity
  8
0
100
AcDbCircle
 10
2.022
 20
4.991000000000001
 30
0.0
 40
0.008
100
AcDbArc
 50
154.886
 51
177.468
  0
ARC
  5
2FA
330
18
100
AcDbEntity
  8
0
100
AcDbCircle
 10
2.022
 20
4.991000000000001
 30
0.0
 40
0.008
100
AcDbArc
 50
177.468
 51
199.885
  0
ARC
  5
2FB
330
18
100
AcDbEntity
  8
0
100
AcDbCircle
 10
2.022
 20
4.991000000000001
 30
0.0
 40
0.008
100
AcDbArc
 50
199.885
 51
222.185
  0
ARC
  5
2FC
330
18
100
AcDbEntity
  8
0
100
AcDbCircle
 10
2.022
 20
4.991000000000001
 30
0.0
 40
0.008
100
AcDbArc
 50
222.185
 51
244.486
  0
ARC
  5
2FD
330
18
100
AcDbEntity
  8
0
100
AcDbCircle
 10
2.022
 20
4.991000000000001
 30
0.0
 40
0.008
100
AcDbArc
 50
244.486
 51
248.1
  0
ARC
  5
2FE
330
18
100
AcDbEntity
  8
0
100
AcDbCircle
 10
2.026
 20
4.988
 30
0.0
 40
0.008
100
AcDbArc
 50
222.185
 51
244.486
  0
ARC
  5
2FF
330
18
100
AcDbEntity
  8
0
100
AcDbCircle
 10
2.026
 20
4.988
 30
0.0
 40
0.008
100
AcDbArc
 50
244.486
 51
266.902
  0
ARC
  5
300
330
18
100
AcDbEntity
  8
0
100
AcDbCircle
 10
2.026
 20
4.988
 30
0.0
 40
0.008
100
AcDbArc
 50
266.902
 51
289.485
  0
ARC
  5
301
330
18
100
AcDbEntity
  8
0
100
AcDbCircle
 10
2.026
 20
4.987
 30
0.0
 40
0.008
100
AcDbArc
 50
289.485
 51
312.185
  0
ARC
  5
302
330
18
100
AcDbEntity
  8
0
100
AcDbCircle
 10
2.026
 20
4.987
 30
0.0
 40
0.008
100
AcDbArc
 50
312.185
 51
334.886
  0
ARC
  5
303
330
18
100
AcDbEntity
  8
0
100
AcDbCircle
 10
2.026
 20
4.987
 30
0.0
 40
0.008
100
AcDbArc
 50
334.886
 51
357.468
  0
ARC
  5
304
330
18
100
AcDbEntity
  8
0
100
AcDbCircle
 10
2.026
 20
4.987
 30
0.0
 40
0.008
100
AcDbArc
 50
357.468
 51
19.885
  0
ARC
  5
305
330
18
100
AcDbEntity
  8
0
100
AcDbCircle
 10
2.026
 20
4.987
 30
0.0
 40
0.008
100
AcDbArc
 50
19.885
 51
42.185
  0
ARC
  5
306
330
18
100
AcDbEntity
  8
0
100
AcDbCircle
 10
2.026
 20
4.987
 30
0.0
 40
0.008
100
AcDbArc
 50
42.185
 51
64.486
  0
ARC
  5
307
330
18
100
AcDbEntity
  8
0
100
AcDbCircle
 10
2.026
 20
4.988
 30
0.0
 40
0.008
100
AcDbArc
 50
64.486
 51
86.902
  0
ARC
  5
308
330
18
100
AcDbEntity
  8
0
100
AcDbCircle
 10
2.026
 20
4.988
 30
0.0
 40
0.008
100
AcDbArc
 50
86.902
 51
109.485
  0
ARC
  5
309
330
18
100
AcDbEntity
  8
0
100
AcDbCircle
 10
2.026
 20
4.988
 30
0.0
 40
0.008
100
AcDbArc
 50
109.485
 51
132.185
  0
ARC
  5
30A
330
18
100
AcDbEntity
  8
0
100
AcDbCircle
 10
2.026
 20
4.988
 30
0.0
 40
0.008
100
AcDbArc
 50
132.185
 51
154.886
  0
ARC
  5
30B
330
18
100
AcDbEntity
  8
0
100
AcDbCircle
 10
2.026
 20
4.988
 30
0.0
 40
0.008
100
AcDbArc
 50
154.886
 51
177.468
  0
ARC
  5
30C
330
18
100
AcDbEntity
  8
0
100
AcDbCircle
 10
2.026
 20
4.988
 30
0.0
 40
0.008
100
AcDbArc
 50
177.468
 51
199.885
  0
ARC
  5
30D
330
18
100
AcDbEntity
  8
0
100
AcDbCircle
 10
2.026
 20
4.988
 30
0.0
 40
0.008
100
AcDbArc
 50
199.885
 51
222.185
  0
ARC
  5
30E
330
18
100
AcDbEntity
  8
0
100
AcDbCircle
 10
2.028
 20
4.905
 30
0.0
 40
0.008
100
AcDbArc
 50
30.827
 51
42.185
  0
ARC
  5
30F
330
18
100
AcDbEntity
  8
0
100
AcDbCircle
 10
2.028
 20
4.905
 30
0.0
 40
0.008
100
AcDbArc
 50
42.185
 51
64.486
  0
ARC
  5
310
330
18
100
AcDbEntity
  8
0
100
AcDbCircle
 10
2.028
 20
4.905
 30
0.0
 40
0.008
100
AcDbArc
 50
64.486
 51
86.902
  0
ARC
  5
311
330
18
100
AcDbEntity
  8
0
100
AcDbCircle
 10
2.028
 20
4.905
 30
0.0
 40
0.008
100
AcDbArc
 50
86.902
 51
109.485
  0
ARC
  5
312
330
18
100
AcDbEntity
  8
0
100
AcDbCircle
 10
2.028
 20
4.905
 30
0.0
 40
0.008
100
AcDbArc
 50
109.485
 51
132.185
  0
ARC
  5
313
330
18
100
AcDbEntity
  8
0
100
AcDbCircle
 10
2.028
 20
4.905
 30
0.0
 40
0.008
100
AcDbArc
 50
132.185
 51
154.886
  0
ARC
  5
314
330
18
100
AcDbEntity
  8
0
100
AcDbCircle
 10
2.028
 20
4.905
 30
0.0
 40
0.008
100
AcDbArc
 50
154.886
 51
177.468
  0
ARC
  5
315
330
18
100
AcDbEntity
  8
0
100
AcDbCircle
 10
2.028
 20
4.905
 30
0.0
 40
0.008
100
AcDbArc
 50
177.468
 51
199.885
  0
ARC
  5
316
330
18
100
AcDbEntity
  8
0
100
AcDbCircle
 10
2.029
 20
4.905
 30
0.0
 40
0.008
100
AcDbArc
 50
199.885
 51
222.185
  0
ARC
  5
317
330
18
100
AcDbEntity
  8
0
100
AcDbCircle
 10
2.029
 20
4.905
 30
0.0
 40
0.008
100
AcDbArc
 50
222.185
 51
244.486
  0
ARC
  5
318
330
18
100
AcDbEntity
  8
0
100
AcDbCircle
 10
2.028
 20
4.905
 30
0.0
 40
0.008
100
AcDbArc
 50
244.486
 51
248.1
  0
ARC
  5
319
330
18
100
AcDbEntity
  8
0
100
AcDbCircle
 10
2.032
 20
4.902
 30
0.0
 40
0.008
100
AcDbArc
 50
222.185
 51
244.486
  0
ARC
  5
31A
330
18
100
AcDbEntity
  8
0
100
AcDbCircle
 10
2.032
 20
4.902
 30
0.0
 40
0.008
100
AcDbArc
 50
244.486
 51
266.902
  0
ARC
  5
31B
330
18
100
AcDbEntity
  8
0
100
AcDbCircle
 10
2.032
 20
4.901
 30
0.0
 40
0.008
100
AcDbArc
 50
266.902
 51
289.485
  0
ARC
  5
31C
330
18
100
AcDbEntity
  8
0
100
AcDbCircle
 10
2.032
 20
4.901
 30
0.0
 40
0.008
100
AcDbArc
 50
289.485
 51
312.185
  0
ARC
  5
31D
330
18
100
AcDbEntity
  8
0
100
AcDbCircle
 10
2.032
 20
4.901
 30
0.0
 40
0.008
100
AcDbArc
 50
312.185
 51
334.886
  0
ARC
  5
31E
330
18
100
AcDbEntity
  8
0
100
AcDbCircle
 10
2.032
 20
4.901
 30
0.0
 40
0.008
100
AcDbArc
 50
334.886
 51
357.468
  0
ARC
  5
31F
330
18
100
AcDbEntity
  8
0
100
AcDbCircle
 10
2.032
 20
4.901
 30
0.0
 40
0.008
100
AcDbArc
 50
357.468
 51
19.885
  0
ARC
  5
320
330
18
100
AcDbEntity
  8
0
100
AcDbCircle
 10
2.032
 20
4.901
 30
0.0
 40
0.008
100
AcDbArc
 50
19.885
 51
42.185
  0
ARC
  5
321
330
18
100
AcDbEntity
  8
0
100
AcDbCircle
 10
2.032
 20
4.901
 30
0.0
 40
0.008
100
AcDbArc
 50
42.185
 51
64.486
  0
ARC
  5
322
330
18
100
AcDbEntity
  8
0
100
AcDbCircle
 10
2.032
 20
4.901
 30
0.0
 40
0.008
100
AcDbArc
 50
64.486
 51
86.902
  0
ARC
  5
323
330
18
100
AcDbEntity
  8
0
100
AcDbCircle
 10
2.032
 20
4.902
 30
0.0
 40
0.008
100
AcDbArc
 50
86.902
 51
109.485
  0
ARC
  5
324
330
18
100
AcDbEntity
  8
0
100
AcDbCircle
 10
2.032
 20
4.902
 30
0.0
 40
0.008
100
AcDbArc
 50
109.485
 51
132.185
  0
ARC
  5
325
330
18
100
AcDbEntity
  8
0
100
AcDbCircle
 10
2.032
 20
4.902
 30
0.0
 40
0.008
100
AcDbArc
 50
132.185
 51
154.886
  0
ARC
  5
326
330
18
100
AcDbEntity
  8
0
100
AcDbCircle
 10
2.032
 20
4.902
 30
0.0
 40
0.008
100
AcDbArc
 50
154.886
 51
177.468
  0
ARC
  5
327
330
18
100
AcDbEntity
  8
0
100
AcDbCircle
 10
2.032
 20
4.902
 30
0.0
 40
0.008
100
AcDbArc
 50
177.468
 51
199.885
  0
ARC
  5
328
330
18
100
AcDbEntity
  8
0
100
AcDbCircle
 10
2.032
 20
4.902
 30
0.0
 40
0.008
100
AcDbArc
 50
199.885
 51
222.185
  0
ARC
  5
329
330
18
100
AcDbEntity
  8
0
100
AcDbCircle
 10
2.096
 20
4.901
 30
0.0
 40
0.008
100
AcDbArc
 50
30.827
 51
42.185
  0
ARC
  5
32A
330
18
100
AcDbEntity
  8
0
100
AcDbCircle
 10
2.096
 20
4.901
 30
0.0
 40
0.008
100
AcDbArc
 50
42.185
 51
64.486
  0
ARC
  5
32B
330
18
100
AcDbEntity
  8
0
100
AcDbCircle
 10
2.096
 20
4.902
 30
0.0
 40
0.008
100
AcDbArc
 50
64.486
 51
86.902
  0
ARC
  5
32C
330
18
100
AcDbEntity
  8
0
100
AcDbCircle
 10
2.096
 20
4.902
 30
0.0
 40
0.008
100
AcDbArc
 50
86.902
 51
109.485
  0
ARC
  5
32D
330
18
100
AcDbEntity
  8
0
100
AcDbCircle
 10
2.096
 20
4.902
 30
0.0
 40
0.008
100
AcDbArc
 50
109.485
 51
132.185
  0
ARC
  5
32E
330
18
100
AcDbEntity
  8
0
100
AcDbCircle
 10
2.096
 20
4.902
 30
0.0
 40
0.008
100
AcDbArc
 50
132.185
 51
154.886
  0
ARC
  5
32F
330
18
100
AcDbEntity
  8
0
100
AcDbCircle
 10
2.096
 20
4.902
 30
0.0
 40
0.008
100
AcDbArc
 50
154.886
 51
177.468
  0
ARC
  5
330
330
18
100
AcDbEntity
  8
0
100
AcDbCircle
 10
2.096
 20
4.902
 30
0.0
 40
0.008
100
AcDbArc
 50
177.468
 51
199.885
  0
ARC
  5
331
330
18
100
AcDbEntity
  8
0
100
AcDbCircle
 10
2.096
 20
4.902
 30
0.0
 40
0.008
100
AcDbArc
 50
199.885
 51
222.185
  0
ARC
  5
332
330
18
100
AcDbEntity
  8
0
100
AcDbCircle
 10
2.096
 20
4.902
 30
0.0
 40
0.008
100
AcDbArc
 50
222.185
 51
244.486
  0
ARC
  5
333
330
18
100
AcDbEntity
  8
0
100
AcDbCircle
 10
2.096
 20
4.902
 30
0.0
 40
0.008
100
AcDbArc
 50
244.486
 51
248.1
  0
ARC
  5
334
330
18
100
AcDbEntity
  8
0
100
AcDbCircle
 10
2.1
 20
4.898
 30
0.0
 40
0.008
100
AcDbArc
 50
222.185
 51
244.486
  0
ARC
  5
335
330
18
100
AcDbEntity
  8
0
100
AcDbCircle
 10
2.1
 20
4.898
 30
0.0
 40
0.008
100
AcDbArc
 50
244.486
 51
266.902
  0
ARC
  5
336
330
18
100
AcDbEntity
  8
0
100
AcDbCircle
 10
2.1
 20
4.898
 30
0.0
 40
0.008
100
AcDbArc
 50
266.902
 51
289.485
  0
ARC
  5
337
330
18
100
AcDbEntity
  8
0
100
AcDbCircle
 10
2.1
 20
4.898
 30
0.0
 40
0.008
100
AcDbArc
 50
289.485
 51
312.185
  0
ARC
  5
338
330
18
100
AcDbEntity
  8
0
100
AcDbCircle
 10
2.1
 20
4.898
 30
0.0
 40
0.008
100
AcDbArc
 50
312.185
 51
334.886
  0
ARC
  5
339
330
18
100
AcDbEntity
  8
0
100
AcDbCircle
 10
2.1
 20
4.898
 30
0.0
 40
0.008
100
AcDbArc
 50
334.886
 51
357.468
  0
ARC
  5
33A
330
18
100
AcDbEntity
  8
0
100
AcDbCircle
 10
2.1
 20
4.898
 30
0.0
 40
0.008
100
AcDbArc
 50
357.468
 51
19.885
  0
ARC
  5
33B
330
18
100
AcDbEntity
  8
0
100
AcDbCircle
 10
2.1
 20
4.898
 30
0.0
 40
0.008
100
AcDbArc
 50
19.885
 51
42.185
  0
ARC
  5
33C
330
18
100
AcDbEntity
  8
0
100
AcDbCircle
 10
2.1
 20
4.898
 30
0.0
 40
0.008
100
AcDbArc
 50
42.185
 51
64.486
  0
ARC
  5
33D
330
18
100
AcDbEntity
  8
0
100
AcDbCircle
 10
2.1
 20
4.898
 30
0.0
 40
0.008
100
AcDbArc
 50
64.486
 51
86.902
  0
ARC
  5
33E
330
18
100
AcDbEntity
  8
0
100
AcDbCircle
 10
2.1
 20
4.898
 30
0.0
 40
0.008
100
AcDbArc
 50
86.902
 51
109.485
  0
ARC
  5
33F
330
18
100
AcDbEntity
  8
0
100
AcDbCircle
 10
2.1
 20
4.898
 30
0.0
 40
0.008
100
AcDbArc
 50
109.485
 51
132.185
  0
ARC
  5
340
330
18
100
AcDbEntity
  8
0
100
AcDbCircle
 10
2.1
 20
4.898
 30
0.0
 40
0.008
100
AcDbArc
 50
132.185
 51
154.886
  0
ARC
  5
341
330
18
100
AcDbEntity
  8
0
100
AcDbCircle
 10
2.1
 20
4.898
 30
0.0
 40
0.008
100
AcDbArc
 50
154.886
 51
177.468
  0
ARC
  5
342
330
18
100
AcDbEntity
  8
0
100
AcDbCircle
 10
2.1
 20
4.898
 30
0.0
 40
0.008
100
AcDbArc
 50
177.468
 51
199.885
  0
ARC
  5
343
330
18
100
AcDbEntity
  8
0
100
AcDbCircle
 10
2.1
 20
4.898
 30
0.0
 40
0.008
100
AcDbArc
 50
199.885
 51
222.185
  0
ARC
  5
344
330
18
100
AcDbEntity
  8
0
100
AcDbCircle
 10
2.104
 20
4.819
 30
0.0
 40
0.008
100
AcDbArc
 50
30.827
 51
42.185
  0
ARC
  5
345
330
18
100
AcDbEntity
  8
0
100
AcDbCircle
 10
2.104
 20
4.819
 30
0.0
 40
0.008
100
AcDbArc
 50
42.185
 51
64.486
  0
ARC
  5
346
330
18
100
AcDbEntity
  8
0
100
AcDbCircle
 10
2.104
 20
4.819
 30
0.0
 40
0.008
100
AcDbArc
 50
64.486
 51
86.902
  0
ARC
  5
347
330
18
100
AcDbEntity
  8
0
100
AcDbCircle
 10
2.104
 20
4.819
 30
0.0
 40
0.008
100
AcDbArc
 50
86.902
 51
109.485
  0
ARC
  5
348
330
18
100
AcDbEntity
  8
0
100
AcDbCircle
 10
2.104
 20
4.819
 30
0.0
 40
0.008
100
AcDbArc
 50
109.485
 51
132.185
  0
ARC
  5
349
330
18
100
AcDbEntity
  8
0
100
AcDbCircle
 10
2.104
 20
4.819
 30
0.0
 40
0.008
100
AcDbArc
 50
132.185
 51
154.886
  0
ARC
  5
34A
330
18
100
AcDbEntity
  8
0
100
AcDbCircle
 10
2.104
 20
4.819
 30
0.0
 40
0.008
100
AcDbArc
 50
154.886
 51
177.468
  0
ARC
  5
34B
330
18
100
AcDbEntity
  8
0
100
AcDbCircle
 10
2.104
 20
4.819
 30
0.0
 40
0.008
100
AcDbArc
 50
177.468
 51
199.885
  0
ARC
  5
34C
330
18
100
AcDbEntity
  8
0
100
AcDbCircle
 10
2.104
 20
4.819
 30
0.0
 40
0.008
100
AcDbArc
 50
199.885
 51
222.185
  0
ARC
  5
34D
330
18
100
AcDbEntity
  8
0
100
AcDbCircle
 10
2.104
 20
4.819
 30
0.0
 40
0.008
100
AcDbArc
 50
222.185
 51
244.486
  0
ARC
  5
34E
330
18
100
AcDbEntity
  8
0
100
AcDbCircle
 10
2.104
 20
4.819
 30
0.0
 40
0.008
100
AcDbArc
 50
244.486
 51
248.1
  0
ARC
  5
34F
330
18
100
AcDbEntity
  8
0
100
AcDbCircle
 10
2.108
 20
4.816
 30
0.0
 40
0.008
100
AcDbArc
 50
222.185
 51
244.486
  0
ARC
  5
350
330
18
100
AcDbEntity
  8
0
100
AcDbCircle
 10
2.108
 20
4.816
 30
0.0
 40
0.008
100
AcDbArc
 50
244.486
 51
266.902
  0
ARC
  5
351
330
18
100
AcDbEntity
  8
0
100
AcDbCircle
 10
2.108
 20
4.816
 30
0.0
 40
0.008
100
AcDbArc
 50
266.902
 51
289.485
  0
ARC
  5
352
330
18
100
AcDbEntity
  8
0
100
AcDbCircle
 10
2.108
 20
4.816
 30
0.0
 40
0.008
100
AcDbArc
 50
289.485
 51
312.185
  0
ARC
  5
353
330
18
100
AcDbEntity
  8
0
100
AcDbCircle
 10
2.108
 20
4.816
 30
0.0
 40
0.008
100
AcDbArc
 50
312.185
 51
334.886
  0
ARC
  5
354
330
18
100
AcDbEntity
  8
0
100
AcDbCircle
 10
2.108
 20
4.816
 30
0.0
 40
0.008
100
AcDbArc
 50
334.886
 51
357.468
  0
ARC
  5
355
330
18
100
AcDbEntity
  8
0
100
AcDbCircle
 10
2.108
 20
4.816
 30
0.0
 40
0.008
100
AcDbArc
 50
357.468
 51
19.885
  0
ARC
  5
356
330
18
100
AcDbEntity
  8
0
100
AcDbCircle
 10
2.108
 20
4.816
 30
0.0
 40
0.008
100
AcDbArc
 50
19.885
 51
42.185
  0
ARC
  5
357
330
18
100
AcDbEntity
  8
0
100
AcDbCircle
 10
2.108
 20
4.816
 30
0.0
 40
0.008
100
AcDbArc
 50
42.185
 51
64.486
  0
ARC
  5
358
330
18
100
AcDbEntity
  8
0
100
AcDbCircle
 10
2.108
 20
4.816
 30
0.0
 40
0.008
100
AcDbArc
 50
64.486
 51
86.902
  0
ARC
  5
359
330
18
100
AcDbEntity
  8
0
100
AcDbCircle
 10
2.108
 20
4.816
 30
0.0
 40
0.008
100
AcDbArc
 50
86.902
 51
109.485
  0
ARC
  5
35A
330
18
100
AcDbEntity
  8
0
100
AcDbCircle
 10
2.108
 20
4.816
 30
0.0
 40
0.008
100
AcDbArc
 50
109.485
 51
132.185
  0
ARC
  5
35B
330
18
100
AcDbEntity
  8
0
100
AcDbCircle
 10
2.108
 20
4.816
 30
0.0
 40
0.008
100
AcDbArc
 50
132.185
 51
154.886
  0
ARC
  5
35C
330
18
100
AcDbEntity
  8
0
100
AcDbCircle
 10
2.108
 20
4.816
 30
0.0
 40
0.008
100
AcDbArc
 50
154.886
 51
177.468
  0
ARC
  5
35D
330
18
100
AcDbEntity
  8
0
100
AcDbCircle
 10
2.108
 20
4.816
 30
0.0
 40
0.008
100
AcDbArc
 50
177.468
 51
199.885
  0
ARC
  5
35E
330
18
100
AcDbEntity
  8
0
100
AcDbCircle
 10
2.108
 20
4.816
 30
0.0
 40
0.008
100
AcDbArc
 50
199.885
 51
222.185
  0
ARC
  5
35F
330
18
100
AcDbEntity
  8
0
100
AcDbCircle
 10
2.152
 20
4.828
 30
0.0
 40
0.008
100
AcDbArc
 50
30.827
 51
42.185
  0
ARC
  5
360
330
18
100
AcDbEntity
  8
0
100
AcDbCircle
 10
2.152
 20
4.828
 30
0.0
 40
0.008
100
AcDbArc
 50
42.185
 51
64.486
  0
ARC
  5
361
330
18
100
AcDbEntity
  8
0
100
AcDbCircle
 10
2.152
 20
4.828
 30
0.0
 40
0.008
100
AcDbArc
 50
64.486
 51
86.902
  0
ARC
  5
362
330
18
100
AcDbEntity
  8
0
100
AcDbCircle
 10
2.152
 20
4.829
 30
0.0
 40
0.008
100
AcDbArc
 50
86.902
 51
109.485
  0
ARC
  5
363
330
18
100
AcDbEntity
  8
0
100
AcDbCircle
 10
2.152
 20
4.829
 30
0.0
 40
0.008
100
AcDbArc
 50
109.485
 51
132.185
  0
ARC
  5
364
330
18
100
AcDbEntity
  8
0
100
AcDbCircle
 10
2.152
 20
4.829
 30
0.0
 40
0.008
100
AcDbArc
 50
132.185
 51
154.886
  0
ARC
  5
365
330
18
100
AcDbEntity
  8
0
100
AcDbCircle
 10
2.152
 20
4.829
 30
0.0
 40
0.008
100
AcDbArc
 50
154.886
 51
177.468
  0
ARC
  5
366
330
18
100
AcDbEntity
  8
0
100
AcDbCircle
 10
2.152
 20
4.829
 30
0.0
 40
0.008
100
AcDbArc
 50
177.468
 51
199.885
  0
ARC
  5
367
330
18
100
AcDbEntity
  8
0
100
AcDbCircle
 10
2.152
 20
4.829
 30
0.0
 40
0.008
100
AcDbArc
 50
199.885
 51
222.185
  0
ARC
  5
368
330
18
100
AcDbEntity
  8
0
100
AcDbCircle
 10
2.152
 20
4.829
 30
0.0
 40
0.008
100
AcDbArc
 50
222.185
 51
244.486
  0
ARC
  5
369
330
18
100
AcDbEntity
  8
0
100
AcDbCircle
 10
2.152
 20
4.829
 30
0.0
 40
0.008
100
AcDbArc
 50
244.486
 51
248.1
  0
ARC
  5
36A
330
18
100
AcDbEntity
  8
0
100
AcDbCircle
 10
2.156
 20
4.825
 30
0.0
 40
0.008
100
AcDbArc
 50
222.185
 51
244.486
  0
ARC
  5
36B
330
18
100
AcDbEntity
  8
0
100
AcDbCircle
 10
2.156
 20
4.825
 30
0.0
 40
0.008
100
AcDbArc
 50
244.486
 51
266.902
  0
ARC
  5
36C
330
18
100
AcDbEntity
  8
0
100
AcDbCircle
 10
2.156
 20
4.825
 30
0.0
 40
0.008
100
AcDbArc
 50
266.902
 51
289.485
  0
ARC
  5
36D
330
18
100
AcDbEntity
  8
0
100
AcDbCircle
 10
2.156
 20
4.825
 30
0.0
 40
0.008
100
AcDbArc
 50
289.485
 51
312.185
  0
ARC
  5
36E
330
18
100
AcDbEntity
  8
0
100
AcDbCircle
 10
2.156
 20
4.825
 30
0.0
 40
0.008
100
AcDbArc
 50
312.185
 51
334.886
  0
ARC
  5
36F
330
18
100
AcDbEntity
  8
0
100
AcDbCircle
 10
2.156
 20
4.825
 30
0.0
 40
0.008
100
AcDbArc
 50
334.886
 51
357.468
  0
ARC
  5
370
330
18
100
AcDbEntity
  8
0
100
AcDbCircle
 10
2.156
 20
4.825
 30
0.0
 40
0.008
100
AcDbArc
 50
357.468
 51
19.885
  0
ARC
  5
371
330
18
100
AcDbEntity
  8
0
100
AcDbCircle
 10
2.156
 20
4.825
 30
0.0
 40
0.008
100
AcDbArc
 50
19.885
 51
42.185
  0
ARC
  5
372
330
18
100
AcDbEntity
  8
0
100
AcDbCircle
 10
2.156
 20
4.825
 30
0.0
 40
0.008
100
AcDbArc
 50
42.185
 51
64.486
  0
ARC
  5
373
330
18
100
AcDbEntity
  8
0
100
AcDbCircle
 10
2.156
 20
4.825
 30
0.0
 40
0.008
100
AcDbArc
 50
64.486
 51
86.902
  0
ARC
  5
374
330
18
100
AcDbEntity
  8
0
100
AcDbCircle
 10
2.156
 20
4.825
 30
0.0
 40
0.008
100
AcDbArc
 50
86.902
 51
109.485
  0
ARC
  5
375
330
18
100
AcDbEntity
  8
0
100
AcDbCircle
 10
2.156
 20
4.825
 30
0.0
 40
0.008
100
AcDbArc
 50
109.485
 51
132.185
  0
ARC
  5
376
330
18
100
AcDbEntity
  8
0
100
AcDbCircle
 10
2.156
 20
4.825
 30
0.0
 40
0.008
100
AcDbArc
 50
132.185
 51
154.886
  0
ARC
  5
377
330
18
100
AcDbEntity
  8
0
100
AcDbCircle
 10
2.156
 20
4.825
 30
0.0
 40
0.008
100
AcDbArc
 50
154.886
 51
177.468
  0
ARC
  5
378
330
18
100
AcDbEntity
  8
0
100
AcDbCircle
 10
2.156
 20
4.825
 30
0.0
 40
0.008
100
AcDbArc
 50
177.468
 51
199.885
  0
ARC
  5
379
330
18
100
AcDbEntity
  8
0
100
AcDbCircle
 10
2.156
 20
4.825
 30
0.0
 40
0.008
100
AcDbArc
 50
199.885
 51
222.185
  0
ARC
  5
37A
330
18
100
AcDbEntity
  8
0
100
AcDbCircle
 10
2.958
 20
5.326000000000001
 30
0.0
 40
0.01
100
AcDbArc
 50
168.456
 51
191.908
  0
ARC
  5
37B
330
18
100
AcDbEntity
  8
0
100
AcDbCircle
 10
2.958
 20
5.327000000000001
 30
0.0
 40
0.01
100
AcDbArc
 50
191.908
 51
214.78
  0
ARC
  5
37C
330
18
100
AcDbEntity
  8
0
100
AcDbCircle
 10
2.959
 20
5.327000000000001
 30
0.0
 40
0.011
100
AcDbArc
 50
214.78
 51
236.877
  0
ARC
  5
37D
330
18
100
AcDbEntity
  8
0
100
AcDbCircle
 10
2.959
 20
5.327000000000001
 30
0.0
 40
0.011
100
AcDbArc
 50
236.877
 51
258.456
  0
ARC
  5
37E
330
18
100
AcDbEntity
  8
0
100
AcDbCircle
 10
2.959
 20
5.327000000000001
 30
0.0
 40
0.011
100
AcDbArc
 50
258.456
 51
280.034
  0
ARC
  5
37F
330
18
100
AcDbEntity
  8
0
100
AcDbCircle
 10
2.959
 20
5.327000000000001
 30
0.0
 40
0.011
100
AcDbArc
 50
280.034
 51
302.131
  0
ARC
  5
380
330
18
100
AcDbEntity
  8
0
100
AcDbCircle
 10
2.959
 20
5.326000000000001
 30
0.0
 40
0.01
100
AcDbArc
 50
302.131
 51
325.004
  0
ARC
  5
381
330
18
100
AcDbEntity
  8
0
100
AcDbCircle
 10
2.96
 20
5.326000000000001
 30
0.0
 40
0.01
100
AcDbArc
 50
325.004
 51
348.456
  0
ARC
  5
382
330
18
100
AcDbEntity
  8
0
100
AcDbCircle
 10
2.96
 20
5.326000000000001
 30
0.0
 40
0.01
100
AcDbArc
 50
348.456
 51
11.908
  0
ARC
  5
383
330
18
100
AcDbEntity
  8
0
100
AcDbCircle
 10
2.959
 20
5.326000000000001
 30
0.0
 40
0.01
100
AcDbArc
 50
11.908
 51
34.78
  0
ARC
  5
384
330
18
100
AcDbEntity
  8
0
100
AcDbCircle
 10
2.959
 20
5.326000000000001
 30
0.0
 40
0.011
100
AcDbArc
 50
34.78
 51
56.877
  0
ARC
  5
385
330
18
100
AcDbEntity
  8
0
100
AcDbCircle
 10
2.959
 20
5.325
 30
0.0
 40
0.011
100
AcDbArc
 50
56.877
 51
78.456
  0
ARC
  5
386
330
18
100
AcDbEntity
  8
0
100
AcDbCircle
 10
2.959
 20
5.325
 30
0.0
 40
0.011
100
AcDbArc
 50
78.456
 51
100.034
  0
ARC
  5
387
330
18
100
AcDbEntity
  8
0
100
AcDbCircle
 10
2.959
 20
5.326000000000001
 30
0.0
 40
0.011
100
AcDbArc
 50
100.034
 51
122.131
  0
ARC
  5
388
330
18
100
AcDbEntity
  8
0
100
AcDbCircle
 10
2.958
 20
5.326000000000001
 30
0.0
 40
0.01
100
AcDbArc
 50
122.131
 51
145.004
  0
ARC
  5
389
330
18
100
AcDbEntity
  8
0
100
AcDbCircle
 10
2.958
 20
5.326000000000001
 30
0.0
 40
0.01
100
AcDbArc
 50
145.004
 51
168.456
  0
ARC
  5
38A
330
18
100
AcDbEntity
  8
0
100
AcDbCircle
 10
2.954
 20
5.33
 30
0.0
 40
0.01
100
AcDbArc
 50
168.456
 51
191.908
  0
ARC
  5
38B
330
18
100
AcDbEntity
  8
0
100
AcDbCircle
 10
2.955
 20
5.33
 30
0.0
 40
0.01
100
AcDbArc
 50
191.908
 51
214.78
  0
ARC
  5
38C
330
18
100
AcDbEntity
  8
0
100
AcDbCircle
 10
2.955
 20
5.33
 30
0.0
 40
0.011
100
AcDbArc
 50
214.78
 51
236.877
  0
ARC
  5
38D
330
18
100
AcDbEntity
  8
0
100
AcDbCircle
 10
2.955
 20
5.33
 30
0.0
 40
0.011
100
AcDbArc
 50
236.877
 51
242.612
  0
ARC
  5
38E
330
18
100
AcDbEntity
  8
0
100
AcDbCircle
 10
2.955
 20
5.329
 30
0.0
 40
0.011
100
AcDbArc
 50
36.067
 51
56.877
  0
ARC
  5
38F
330
18
100
AcDbEntity
  8
0
100
AcDbCircle
 10
2.955
 20
5.329
 30
0.0
 40
0.011
100
AcDbArc
 50
56.877
 51
78.456
  0
ARC
  5
390
330
18
100
AcDbEntity
  8
0
100
AcDbCircle
 10
2.955
 20
5.329
 30
0.0
 40
0.011
100
AcDbArc
 50
78.456
 51
100.034
  0
ARC
  5
391
330
18
100
AcDbEntity
  8
0
100
AcDbCircle
 10
2.955
 20
5.329
 30
0.0
 40
0.011
100
AcDbArc
 50
100.034
 51
122.131
  0
ARC
  5
392
330
18
100
AcDbEntity
  8
0
100
AcDbCircle
 10
2.955
 20
5.329
 30
0.0
 40
0.01
100
AcDbArc
 50
122.131
 51
145.004
  0
ARC
  5
393
330
18
100
AcDbEntity
  8
0
100
AcDbCircle
 10
2.954
 20
5.33
 30
0.0
 40
0.01
100
AcDbArc
 50
145.004
 51
168.456
  0
ARC
  5
394
330
18
100
AcDbEntity
  8
0
100
AcDbCircle
 10
2.898
 20
5.294
 30
0.0
 40
0.011
100
AcDbArc
 50
36.067
 51
56.877
  0
ARC
  5
395
330
18
100
AcDbEntity
  8
0
100
AcDbCircle
 10
2.898
 20
5.294
 30
0.0
 40
0.011
100
AcDbArc
 50
56.877
 51
78.456
  0
ARC
  5
396
330
18
100
AcDbEntity
  8
0
100
AcDbCircle
 10
2.898
 20
5.294
 30
0.0
 40
0.011
100
AcDbArc
 50
78.456
 51
100.034
  0
ARC
  5
397
330
18
100
AcDbEntity
  8
0
100
AcDbCircle
 10
2.898
 20
5.294
 30
0.0
 40
0.011
100
AcDbArc
 50
100.034
 51
122.131
  0
ARC
  5
398
330
18
100
AcDbEntity
  8
0
100
AcDbCircle
 10
2.898
 20
5.294
 30
0.0
 40
0.01
100
AcDbArc
 50
122.131
 51
145.004
  0
ARC
  5
399
330
18
100
AcDbEntity
  8
0
100
AcDbCircle
 10
2.897
 20
5.295
 30
0.0
 40
0.01
100
AcDbArc
 50
145.004
 51
168.456
  0
ARC
  5
39A
330
18
100
AcDbEntity
  8
0
100
AcDbCircle
 10
2.897
 20
5.295
 30
0.0
 40
0.01
100
AcDbArc
 50
168.456
 51
191.908
  0
ARC
  5
39B
330
18
100
AcDbEntity
  8
0
100
AcDbCircle
 10
2.898
 20
5.295
 30
0.0
 40
0.01
100
AcDbArc
 50
191.908
 51
214.78
  0
ARC
  5
39C
330
18
100
AcDbEntity
  8
0
100
AcDbCircle
 10
2.898
 20
5.295
 30
0.0
 40
0.011
100
AcDbArc
 50
214.78
 51
236.877
  0
ARC
  5
39D
330
18
100
AcDbEntity
  8
0
100
AcDbCircle
 10
2.898
 20
5.295
 30
0.0
 40
0.011
100
AcDbArc
 50
236.877
 51
242.612
  0
ARC
  5
39E
330
18
100
AcDbEntity
  8
0
100
AcDbCircle
 10
2.901
 20
5.291
 30
0.0
 40
0.01
100
AcDbArc
 50
168.456
 51
191.908
  0
ARC
  5
39F
330
18
100
AcDbEntity
  8
0
100
AcDbCircle
 10
2.901
 20
5.292000000000001
 30
0.0
 40
0.01
100
AcDbArc
 50
191.908
 51
214.78
  0
ARC
  5
3A0
330
18
100
AcDbEntity
  8
0
100
AcDbCircle
 10
2.902
 20
5.292000000000001
 30
0.0
 40
0.011
100
AcDbArc
 50
214.78
 51
236.877
  0
ARC
  5
3A1
330
18
100
AcDbEntity
  8
0
100
AcDbCircle
 10
2.902
 20
5.292000000000001
 30
0.0
 40
0.011
100
AcDbArc
 50
236.877
 51
258.456
  0
ARC
  5
3A2
330
18
100
AcDbEntity
  8
0
100
AcDbCircle
 10
2.902
 20
5.292000000000001
 30
0.0
 40
0.011
100
AcDbArc
 50
258.456
 51
280.034
  0
ARC
  5
3A3
330
18
100
AcDbEntity
  8
0
100
AcDbCircle
 10
2.902
 20
5.292000000000001
 30
0.0
 40
0.011
100
AcDbArc
 50
280.034
 51
302.131
  0
ARC
  5
3A4
330
18
100
AcDbEntity
  8
0
100
AcDbCircle
 10
2.902
 20
5.291
 30
0.0
 40
0.01
100
AcDbArc
 50
302.131
 51
325.004
  0
ARC
  5
3A5
330
18
100
AcDbEntity
  8
0
100
AcDbCircle
 10
2.903
 20
5.291
 30
0.0
 40
0.01
100
AcDbArc
 50
325.004
 51
348.456
  0
ARC
  5
3A6
330
18
100
AcDbEntity
  8
0
100
AcDbCircle
 10
2.903
 20
5.291
 30
0.0
 40
0.01
100
AcDbArc
 50
348.456
 51
11.908
  0
ARC
  5
3A7
330
18
100
AcDbEntity
  8
0
100
AcDbCircle
 10
2.902
 20
5.291
 30
0.0
 40
0.01
100
AcDbArc
 50
11.908
 51
34.78
  0
ARC
  5
3A8
330
18
100
AcDbEntity
  8
0
100
AcDbCircle
 10
2.902
 20
5.291
 30
0.0
 40
0.011
100
AcDbArc
 50
34.78
 51
56.877
  0
ARC
  5
3A9
330
18
100
AcDbEntity
  8
0
100
AcDbCircle
 10
2.902
 20
5.29
 30
0.0
 40
0.011
100
AcDbArc
 50
56.877
 51
78.456
  0
ARC
  5
3AA
330
18
100
AcDbEntity
  8
0
100
AcDbCircle
 10
2.902
 20
5.29
 30
0.0
 40
0.011
100
AcDbArc
 50
78.456
 51
100.034
  0
ARC
  5
3AB
330
18
100
AcDbEntity
  8
0
100
AcDbCircle
 10
2.902
 20
5.291
 30
0.0
 40
0.011
100
AcDbArc
 50
100.034
 51
122.131
  0
ARC
  5
3AC
330
18
100
AcDbEntity
  8
0
100
AcDbCircle
 10
2.901
 20
5.291
 30
0.0
 40
0.01
100
AcDbArc
 50
122.131
 51
145.004
  0
ARC
  5
3AD
330
18
100
AcDbEntity
  8
0
100
AcDbCircle
 10
2.901
 20
5.291
 30
0.0
 40
0.01
100
AcDbArc
 50
145.004
 51
168.456
  0
ARC
  5
3AE
330
18
100
AcDbEntity
  8
0
100
AcDbCircle
 10
2.911
 20
5.225
 30
0.0
 40
0.011
100
AcDbArc
 50
36.067
 51
56.877
  0
ARC
  5
3AF
330
18
100
AcDbEntity
  8
0
100
AcDbCircle
 10
2.911
 20
5.225
 30
0.0
 40
0.011
100
AcDbArc
 50
56.877
 51
78.456
  0
ARC
  5
3B0
330
18
100
AcDbEntity
  8
0
100
AcDbCircle
 10
2.911
 20
5.225
 30
0.0
 40
0.011
100
AcDbArc
 50
78.456
 51
100.034
  0
ARC
  5
3B1
330
18
100
AcDbEntity
  8
0
100
AcDbCircle
 10
2.911
 20
5.225
 30
0.0
 40
0.011
100
AcDbArc
 50
100.034
 51
122.131
  0
ARC
  5
3B2
330
18
100
AcDbEntity
  8
0
100
AcDbCircle
 10
2.911
 20
5.226
 30
0.0
 40
0.01
100
AcDbArc
 50
122.131
 51
145.004
  0
ARC
  5
3B3
330
18
100
AcDbEntity
  8
0
100
AcDbCircle
 10
2.91
 20
5.226
 30
0.0
 40
0.01
100
AcDbArc
 50
145.004
 51
168.456
  0
ARC
  5
3B4
330
18
100
AcDbEntity
  8
0
100
AcDbCircle
 10
2.91
 20
5.226
 30
0.0
 40
0.01
100
AcDbArc
 50
168.456
 51
191.908
  0
ARC
  5
3B5
330
18
100
AcDbEntity
  8
0
100
AcDbCircle
 10
2.911
 20
5.226
 30
0.0
 40
0.01
100
AcDbArc
 50
191.908
 51
214.78
  0
ARC
  5
3B6
330
18
100
AcDbEntity
  8
0
100
AcDbCircle
 10
2.911
 20
5.226
 30
0.0
 40
0.011
100
AcDbArc
 50
214.78
 51
236.877
  0
ARC
  5
3B7
330
18
100
AcDbEntity
  8
0
100
AcDbCircle
 10
2.911
 20
5.227
 30
0.0
 40
0.011
100
AcDbArc
 50
236.877
 51
242.612
  0
ARC
  5
3B8
330
18
100
AcDbEntity
  8
0
100
AcDbCircle
 10
2.914
 20
5.223
 30
0.0
 40
0.01
100
AcDbArc
 50
168.456
 51
191.908
  0
ARC
  5
3B9
330
18
100
AcDbEntity
  8
0
100
AcDbCircle
 10
2.914
 20
5.223
 30
0.0
 40
0.01
100
AcDbArc
 50
191.908
 51
214.78
  0
ARC
  5
3BA
330
18
100
AcDbEntity
  8
0
100
AcDbCircle
 10
2.915
 20
5.223
 30
0.0
 40
0.011
100
AcDbArc
 50
214.78
 51
236.877
  0
ARC
  5
3BB
330
18
100
AcDbEntity
  8
0
100
AcDbCircle
 10
2.915
 20
5.223
 30
0.0
 40
0.011
100
AcDbArc
 50
236.877
 51
258.456
  0
ARC
  5
3BC
330
18
100
AcDbEntity
  8
0
100
AcDbCircle
 10
2.915
 20
5.223
 30
0.0
 40
0.011
100
AcDbArc
 50
258.456
 51
280.034
  0
ARC
  5
3BD
330
18
100
AcDbEntity
  8
0
100
AcDbCircle
 10
2.915
 20
5.223
 30
0.0
 40
0.011
100
AcDbArc
 50
280.034
 51
302.131
  0
ARC
  5
3BE
330
18
100
AcDbEntity
  8
0
100
AcDbCircle
 10
2.915
 20
5.223
 30
0.0
 40
0.01
100
AcDbArc
 50
302.131
 51
325.004
  0
ARC
  5
3BF
330
18
100
AcDbEntity
  8
0
100
AcDbCircle
 10
2.916
 20
5.222
 30
0.0
 40
0.01
100
AcDbArc
 50
325.004
 51
348.456
  0
ARC
  5
3C0
330
18
100
AcDbEntity
  8
0
100
AcDbCircle
 10
2.916
 20
5.222
 30
0.0
 40
0.01
100
AcDbArc
 50
348.456
 51
11.908
  0
ARC
  5
3C1
330
18
100
AcDbEntity
  8
0
100
AcDbCircle
 10
2.915
 20
5.222
 30
0.0
 40
0.01
100
AcDbArc
 50
11.908
 51
34.78
  0
ARC
  5
3C2
330
18
100
AcDbEntity
  8
0
100
AcDbCircle
 10
2.915
 20
5.222
 30
0.0
 40
0.011
100
AcDbArc
 50
34.78
 51
56.877
  0
ARC
  5
3C3
330
18
100
AcDbEntity
  8
0
100
AcDbCircle
 10
2.915
 20
5.222
 30
0.0
 40
0.011
100
AcDbArc
 50
56.877
 51
78.456
  0
ARC
  5
3C4
330
18
100
AcDbEntity
  8
0
100
AcDbCircle
 10
2.915
 20
5.222
 30
0.0
 40
0.011
100
AcDbArc
 50
78.456
 51
100.034
  0
ARC
  5
3C5
330
18
100
AcDbEntity
  8
0
100
AcDbCircle
 10
2.915
 20
5.222
 30
0.0
 40
0.011
100
AcDbArc
 50
100.034
 51
122.131
  0
ARC
  5
3C6
330
18
100
AcDbEntity
  8
0
100
AcDbCircle
 10
2.914
 20
5.222
 30
0.0
 40
0.01
100
AcDbArc
 50
122.131
 51
145.004
  0
ARC
  5
3C7
330
18
100
AcDbEntity
  8
0
100
AcDbCircle
 10
2.914
 20
5.223
 30
0.0
 40
0.01
100
AcDbArc
 50
145.004
 51
168.456
  0
ARC
  5
3C8
330
18
100
AcDbEntity
  8
0
100
AcDbCircle
 10
2.85
 20
5.207999999999999
 30
0.0
 40
0.011
100
AcDbArc
 50
36.067
 51
56.877
  0
ARC
  5
3C9
330
18
100
AcDbEntity
  8
0
100
AcDbCircle
 10
2.85
 20
5.207000000000001
 30
0.0
 40
0.011
100
AcDbArc
 50
56.877
 51
78.456
  0
ARC
  5
3CA
330
18
100
AcDbEntity
  8
0
100
AcDbCircle
 10
2.85
 20
5.207000000000001
 30
0.0
 40
0.011
100
AcDbArc
 50
78.456
 51
100.034
  0
ARC
  5
3CB
330
18
100
AcDbEntity
  8
0
100
AcDbCircle
 10
2.849
 20
5.207999999999999
 30
0.0
 40
0.011
100
AcDbArc
 50
100.034
 51
122.131
  0
ARC
  5
3CC
330
18
100
AcDbEntity
  8
0
100
AcDbCircle
 10
2.849
 20
5.207999999999999
 30
0.0
 40
0.01
100
AcDbArc
 50
122.131
 51
145.004
  0
ARC
  5
3CD
330
18
100
AcDbEntity
  8
0
100
AcDbCircle
 10
2.849
 20
5.209
 30
0.0
 40
0.01
100
AcDbArc
 50
145.004
 51
168.456
  0
ARC
  5
3CE
330
18
100
AcDbEntity
  8
0
100
AcDbCircle
 10
2.849
 20
5.209
 30
0.0
 40
0.01
100
AcDbArc
 50
168.456
 51
191.908
  0
ARC
  5
3CF
330
18
100
AcDbEntity
  8
0
100
AcDbCircle
 10
2.849
 20
5.209
 30
0.0
 40
0.01
100
AcDbArc
 50
191.908
 51
214.78
  0
ARC
  5
3D0
330
18
100
AcDbEntity
  8
0
100
AcDbCircle
 10
2.85
 20
5.209
 30
0.0
 40
0.011
100
AcDbArc
 50
214.78
 51
236.877
  0
ARC
  5
3D1
330
18
100
AcDbEntity
  8
0
100
AcDbCircle
 10
2.85
 20
5.209
 30
0.0
 40
0.011
100
AcDbArc
 50
236.877
 51
242.612
  0
ARC
  5
3D2
330
18
100
AcDbEntity
  8
0
100
AcDbCircle
 10
2.853
 20
5.205
 30
0.0
 40
0.01
100
AcDbArc
 50
168.456
 51
191.908
  0
ARC
  5
3D3
330
18
100
AcDbEntity
  8
0
100
AcDbCircle
 10
2.853
 20
5.205
 30
0.0
 40
0.01
100
AcDbArc
 50
191.908
 51
214.78
  0
ARC
  5
3D4
330
18
100
AcDbEntity
  8
0
100
AcDbCircle
 10
2.853
 20
5.206
 30
0.0
 40
0.011
100
AcDbArc
 50
214.78
 51
236.877
  0
ARC
  5
3D5
330
18
100
AcDbEntity
  8
0
100
AcDbCircle
 10
2.854
 20
5.206
 30
0.0
 40
0.011
100
AcDbArc
 50
236.877
 51
258.456
  0
ARC
  5
3D6
330
18
100
AcDbEntity
  8
0
100
AcDbCircle
 10
2.854
 20
5.206
 30
0.0
 40
0.011
100
AcDbArc
 50
258.456
 51
280.034
  0
ARC
  5
3D7
330
18
100
AcDbEntity
  8
0
100
AcDbCircle
 10
2.854
 20
5.206
 30
0.0
 40
0.011
100
AcDbArc
 50
280.034
 51
302.131
  0
ARC
  5
3D8
330
18
100
AcDbEntity
  8
0
100
AcDbCircle
 10
2.854
 20
5.205
 30
0.0
 40
0.01
100
AcDbArc
 50
302.131
 51
325.004
  0
ARC
  5
3D9
330
18
100
AcDbEntity
  8
0
100
AcDbCircle
 10
2.854
 20
5.205
 30
0.0
 40
0.01
100
AcDbArc
 50
325.004
 51
348.456
  0
ARC
  5
3DA
330
18
100
AcDbEntity
  8
0
100
AcDbCircle
 10
2.854
 20
5.205
 30
0.0
 40
0.01
100
AcDbArc
 50
348.456
 51
11.908
  0
ARC
  5
3DB
330
18
100
AcDbEntity
  8
0
100
AcDbCircle
 10
2.854
 20
5.205
 30
0.0
 40
0.01
100
AcDbArc
 50
11.908
 51
34.78
  0
ARC
  5
3DC
330
18
100
AcDbEntity
  8
0
100
AcDbCircle
 10
2.854
 20
5.205
 30
0.0
 40
0.011
100
AcDbArc
 50
34.78
 51
56.877
  0
ARC
  5
3DD
330
18
100
AcDbEntity
  8
0
100
AcDbCircle
 10
2.853
 20
5.204
 30
0.0
 40
0.011
100
AcDbArc
 50
56.877
 51
78.456
  0
ARC
  5
3DE
330
18
100
AcDbEntity
  8
0
100
AcDbCircle
 10
2.853
 20
5.204
 30
0.0
 40
0.011
100
AcDbArc
 50
78.456
 51
100.034
  0
ARC
  5
3DF
330
18
100
AcDbEntity
  8
0
100
AcDbCircle
 10
2.853
 20
5.205
 30
0.0
 40
0.011
100
AcDbArc
 50
100.034
 51
122.131
  0
ARC
  5
3E0
330
18
100
AcDbEntity
  8
0
100
AcDbCircle
 10
2.853
 20
5.205
 30
0.0
 40
0.01
100
AcDbArc
 50
122.131
 51
145.004
  0
ARC
  5
3E1
330
18
100
AcDbEntity
  8
0
100
AcDbCircle
 10
2.853
 20
5.205
 30
0.0
 40
0.01
100
AcDbArc
 50
145.004
 51
168.456
  0
LINE
  5
3E2
330
18
100
AcDbEntity
  8
0
100
AcDbLine
 10
3.298
 20
3.276
 30
0.0
 11
3.285
 21
3.254
 31
0.0
  0
LINE
  5
3E3
330
18
100
AcDbEntity
  8
0
100
AcDbLine
 10
3.285
 20
3.254
 30
0.0
 11
3.237
 21
3.159
 31
0.0
  0
LINE
  5
3E4
330
18
100
AcDbEntity
  8
0
100
AcDbLine
 10
3.237
 20
3.159
 30
0.0
 11
3.224
 21
3.108
 31
0.0
  0
LINE
  5
3E5
330
18
100
AcDbEntity
  8
0
100
AcDbLine
 10
3.224
 20
3.108
 30
0.0
 11
3.196
 21
3.065
 31
0.0
  0
LINE
  5
3E6
330
18
100
AcDbEntity
  8
0
100
AcDbLine
 10
3.224
 20
3.323
 30
0.0
 11
3.21
 21
3.291
 31
0.0
  0
LINE
  5
3E7
330
18
100
AcDbEntity
  8
0
100
AcDbLine
 10
3.21
 20
3.291
 30
0.0
 11
3.208
 21
3.287
 31
0.0
  0
LINE
  5
3E8
330
18
100
AcDbEntity
  8
0
100
AcDbLine
 10
3.246
 20
3.309
 30
0.0
 11
3.232
 21
3.274
 31
0.0
  0
LINE
  5
3E9
330
18
100
AcDbEntity
  8
0
100
AcDbLine
 10
3.232
 20
3.274
 30
0.0
 11
3.21
 21
3.241
 31
0.0
  0
LINE
  5
3EA
330
18
100
AcDbEntity
  8
0
100
AcDbLine
 10
3.21
 20
3.241
 30
0.0
 11
3.208
 21
3.237
 31
0.0
  0
LINE
  5
3EB
330
18
100
AcDbEntity
  8
0
100
AcDbLine
 10
3.273
 20
3.292
 30
0.0
 11
3.25
 21
3.245
 31
0.0
  0
LINE
  5
3EC
330
18
100
AcDbEntity
  8
0
100
AcDbLine
 10
3.25
 20
3.245
 30
0.0
 11
3.23
 21
3.207
 31
0.0
  0
LINE
  5
3ED
330
18
100
AcDbEntity
  8
0
100
AcDbLine
 10
3.23
 20
3.207
 30
0.0
 11
3.208
 21
3.171
 31
0.0
  0
LINE
  5
3EE
330
18
100
AcDbEntity
  8
0
100
AcDbLine
 10
3.317
 20
3.264
 30
0.0
 11
3.301
 21
3.233
 31
0.0
  0
LINE
  5
3EF
330
18
100
AcDbEntity
  8
0
100
AcDbLine
 10
3.301
 20
3.233
 30
0.0
 11
3.282
 21
3.189
 31
0.0
  0
LINE
  5
3F0
330
18
100
AcDbEntity
  8
0
100
AcDbLine
 10
3.282
 20
3.189
 30
0.0
 11
3.257
 21
3.118
 31
0.0
  0
LINE
  5
3F1
330
18
100
AcDbEntity
  8
0
100
AcDbLine
 10
3.257
 20
3.118
 30
0.0
 11
3.251
 21
3.093
 31
0.0
  0
LINE
  5
3F2
330
18
100
AcDbEntity
  8
0
100
AcDbLine
 10
3.251
 20
3.093
 30
0.0
 11
3.227
 21
3.05
 31
0.0
  0
LINE
  5
3F3
330
18
100
AcDbEntity
  8
0
100
AcDbLine
 10
3.227
 20
3.05
 30
0.0
 11
3.245
 21
3.002
 31
0.0
  0
LINE
  5
3F4
330
18
100
AcDbEntity
  8
0
100
AcDbLine
 10
3.245
 20
3.002
 30
0.0
 11
3.222
 21
2.971
 31
0.0
  0
LINE
  5
3F5
330
18
100
AcDbEntity
  8
0
100
AcDbLine
 10
3.222
 20
2.971
 30
0.0
 11
3.208
 21
2.956
 31
0.0
  0
LINE
  5
3F6
330
18
100
AcDbEntity
  8
0
100
AcDbLine
 10
3.34
 20
3.25
 30
0.0
 11
3.324
 21
3.223
 31
0.0
  0
LINE
  5
3F7
330
18
100
AcDbEntity
  8
0
100
AcDbLine
 10
3.324
 20
3.223
 30
0.0
 11
3.302
 21
3.173
 31
0.0
  0
LINE
  5
3F8
330
18
100
AcDbEntity
  8
0
100
AcDbLine
 10
3.302
 20
3.173
 30
0.0
 11
3.288
 21
3.136
 31
0.0
  0
LINE
  5
3F9
330
18
100
AcDbEntity
  8
0
100
AcDbLine
 10
3.288
 20
3.136
 30
0.0
 11
3.285
 21
3.113
 31
0.0
  0
LINE
  5
3FA
330
18
100
AcDbEntity
  8
0
100
AcDbLine
 10
3.285
 20
3.113
 30
0.0
 11
3.271
 21
3.083
 31
0.0
  0
LINE
  5
3FB
330
18
100
AcDbEntity
  8
0
100
AcDbLine
 10
3.271
 20
3.083
 30
0.0
 11
3.245
 21
3.041
 31
0.0
  0
LINE
  5
3FC
330
18
100
AcDbEntity
  8
0
100
AcDbLine
 10
3.245
 20
3.041
 30
0.0
 11
3.261
 21
2.993
 31
0.0
  0
LINE
  5
3FD
330
18
100
AcDbEntity
  8
0
100
AcDbLine
 10
3.261
 20
2.993
 30
0.0
 11
3.239
 21
2.963
 31
0.0
  0
LINE
  5
3FE
330
18
100
AcDbEntity
  8
0
100
AcDbLine
 10
3.239
 20
2.963
 30
0.0
 11
3.227
 21
2.936
 31
0.0
  0
LINE
  5
3FF
330
18
100
AcDbEntity
  8
0
100
AcDbLine
 10
3.227
 20
2.936
 30
0.0
 11
3.208
 21
2.914
 31
0.0
  0
LINE
  5
400
330
18
100
AcDbEntity
  8
0
100
AcDbLine
 10
3.208
 20
2.914
 30
0.0
 11
3.208
 21
2.913
 31
0.0
  0
LINE
  5
401
330
18
100
AcDbEntity
  8
0
100
AcDbLine
 10
3.362
 20
3.236
 30
0.0
 11
3.351
 21
3.215
 31
0.0
  0
LINE
  5
402
330
18
100
AcDbEntity
  8
0
100
AcDbLine
 10
3.351
 20
3.215
 30
0.0
 11
3.334
 21
3.176
 31
0.0
  0
LINE
  5
403
330
18
100
AcDbEntity
  8
0
100
AcDbLine
 10
3.334
 20
3.176
 30
0.0
 11
3.318
 21
3.141
 31
0.0
  0
LINE
  5
404
330
18
100
AcDbEntity
  8
0
100
AcDbLine
 10
3.318
 20
3.141
 30
0.0
 11
3.315
 21
3.119
 31
0.0
  0
LINE
  5
405
330
18
100
AcDbEntity
  8
0
100
AcDbLine
 10
3.315
 20
3.119
 30
0.0
 11
3.309
 21
3.096
 31
0.0
  0
LINE
  5
406
330
18
100
AcDbEntity
  8
0
100
AcDbLine
 10
3.309
 20
3.096
 30
0.0
 11
3.3
 21
3.067
 31
0.0
  0
LINE
  5
407
330
18
100
AcDbEntity
  8
0
100
AcDbLine
 10
3.3
 20
3.067
 30
0.0
 11
3.268
 21
3.029
 31
0.0
  0
LINE
  5
408
330
18
100
AcDbEntity
  8
0
100
AcDbLine
 10
3.268
 20
3.029
 30
0.0
 11
3.286
 21
2.981
 31
0.0
  0
LINE
  5
409
330
18
100
AcDbEntity
  8
0
100
AcDbLine
 10
3.286
 20
2.981
 30
0.0
 11
3.264
 21
2.951
 31
0.0
  0
LINE
  5
40A
330
18
100
AcDbEntity
  8
0
100
AcDbLine
 10
3.264
 20
2.951
 30
0.0
 11
3.254
 21
2.926
 31
0.0
  0
LINE
  5
40B
330
18
100
AcDbEntity
  8
0
100
AcDbLine
 10
3.254
 20
2.926
 30
0.0
 11
3.231
 21
2.891
 31
0.0
  0
LINE
  5
40C
330
18
100
AcDbEntity
  8
0
100
AcDbLine
 10
3.231
 20
2.891
 30
0.0
 11
3.208
 21
2.859
 31
0.0
  0
LINE
  5
40D
330
18
100
AcDbEntity
  8
0
100
AcDbLine
 10
3.367
 20
3.173
 30
0.0
 11
3.348
 21
3.137
 31
0.0
  0
LINE
  5
40E
330
18
100
AcDbEntity
  8
0
100
AcDbLine
 10
3.348
 20
3.137
 30
0.0
 11
3.329
 21
3.091
 31
0.0
  0
LINE
  5
40F
330
18
100
AcDbEntity
  8
0
100
AcDbLine
 10
3.329
 20
3.091
 30
0.0
 11
3.323
 21
3.055
 31
0.0
  0
LINE
  5
410
330
18
100
AcDbEntity
  8
0
100
AcDbLine
 10
3.323
 20
3.055
 30
0.0
 11
3.29
 21
3.018
 31
0.0
  0
LINE
  5
411
330
18
100
AcDbEntity
  8
0
100
AcDbLine
 10
3.29
 20
3.018
 30
0.0
 11
3.308
 21
2.969
 31
0.0
  0
LINE
  5
412
330
18
100
AcDbEntity
  8
0
100
AcDbLine
 10
3.308
 20
2.969
 30
0.0
 11
3.288
 21
2.939
 31
0.0
  0
LINE
  5
413
330
18
100
AcDbEntity
  8
0
100
AcDbLine
 10
3.288
 20
2.939
 30
0.0
 11
3.272
 21
2.911
 31
0.0
  0
LINE
  5
414
330
18
100
AcDbEntity
  8
0
100
AcDbLine
 10
3.272
 20
2.911
 30
0.0
 11
3.261
 21
2.888
 31
0.0
  0
LINE
  5
415
330
18
100
AcDbEntity
  8
0
100
AcDbLine
 10
3.261
 20
2.888
 30
0.0
 11
3.246
 21
2.86
 31
0.0
  0
LINE
  5
416
330
18
100
AcDbEntity
  8
0
100
AcDbLine
 10
3.246
 20
2.86
 30
0.0
 11
3.211
 21
2.812
 31
0.0
  0
LINE
  5
417
330
18
100
AcDbEntity
  8
0
100
AcDbLine
 10
3.211
 20
2.812
 30
0.0
 11
3.208
 21
2.807
 31
0.0
  0
LINE
  5
418
330
18
100
AcDbEntity
  8
0
100
AcDbLine
 10
3.367
 20
3.124
 30
0.0
 11
3.364
 21
3.119
 31
0.0
  0
LINE
  5
419
330
18
100
AcDbEntity
  8
0
100
AcDbLine
 10
3.364
 20
3.119
 30
0.0
 11
3.349
 21
3.084
 31
0.0
  0
LINE
  5
41A
330
18
100
AcDbEntity
  8
0
100
AcDbLine
 10
3.349
 20
3.084
 30
0.0
 11
3.342
 21
3.044
 31
0.0
  0
LINE
  5
41B
330
18
100
AcDbEntity
  8
0
100
AcDbLine
 10
3.342
 20
3.044
 30
0.0
 11
3.313
 21
3.007
 31
0.0
  0
LINE
  5
41C
330
18
100
AcDbEntity
  8
0
100
AcDbLine
 10
3.313
 20
3.007
 30
0.0
 11
3.329
 21
2.957
 31
0.0
  0
LINE
  5
41D
330
18
100
AcDbEntity
  8
0
100
AcDbLine
 10
3.329
 20
2.957
 30
0.0
 11
3.309
 21
2.929
 31
0.0
  0
LINE
  5
41E
330
18
100
AcDbEntity
  8
0
100
AcDbLine
 10
3.309
 20
2.929
 30
0.0
 11
3.301
 21
2.9
 31
0.0
  0
LINE
  5
41F
330
18
100
AcDbEntity
  8
0
100
AcDbLine
 10
3.301
 20
2.9
 30
0.0
 11
3.282
 21
2.856
 31
0.0
  0
LINE
  5
420
330
18
100
AcDbEntity
  8
0
100
AcDbLine
 10
3.282
 20
2.856
 30
0.0
 11
3.268
 21
2.827
 31
0.0
  0
LINE
  5
421
330
18
100
AcDbEntity
  8
0
100
AcDbLine
 10
3.268
 20
2.827
 30
0.0
 11
3.242
 21
2.783
 31
0.0
  0
LINE
  5
422
330
18
100
AcDbEntity
  8
0
100
AcDbLine
 10
3.242
 20
2.783
 30
0.0
 11
3.23
 21
2.768
 31
0.0
  0
LINE
  5
423
330
18
100
AcDbEntity
  8
0
100
AcDbLine
 10
3.367
 20
3.053
 30
0.0
 11
3.362
 21
3.044
 31
0.0
  0
LINE
  5
424
330
18
100
AcDbEntity
  8
0
100
AcDbLine
 10
3.362
 20
3.044
 30
0.0
 11
3.333
 21
2.998
 31
0.0
  0
LINE
  5
425
330
18
100
AcDbEntity
  8
0
100
AcDbLine
 10
3.333
 20
2.998
 30
0.0
 11
3.359
 21
2.938
 31
0.0
  0
LINE
  5
426
330
18
100
AcDbEntity
  8
0
100
AcDbLine
 10
3.359
 20
2.938
 30
0.0
 11
3.341
 21
2.912
 31
0.0
  0
LINE
  5
427
330
18
100
AcDbEntity
  8
0
100
AcDbLine
 10
3.341
 20
2.912
 30
0.0
 11
3.335
 21
2.889
 31
0.0
  0
LINE
  5
428
330
18
100
AcDbEntity
  8
0
100
AcDbLine
 10
3.335
 20
2.889
 30
0.0
 11
3.322
 21
2.844
 31
0.0
  0
LINE
  5
429
330
18
100
AcDbEntity
  8
0
100
AcDbLine
 10
3.322
 20
2.844
 30
0.0
 11
3.311
 21
2.804
 31
0.0
  0
LINE
  5
42A
330
18
100
AcDbEntity
  8
0
100
AcDbLine
 10
3.311
 20
2.804
 30
0.0
 11
3.287
 21
2.762
 31
0.0
  0
LINE
  5
42B
330
18
100
AcDbEntity
  8
0
100
AcDbLine
 10
3.287
 20
2.762
 30
0.0
 11
3.277
 21
2.746
 31
0.0
  0
LINE
  5
42C
330
18
100
AcDbEntity
  8
0
100
AcDbLine
 10
3.303
 20
2.734
 30
0.0
 11
3.326
 21
2.767
 31
0.0
  0
LINE
  5
42D
330
18
100
AcDbEntity
  8
0
100
AcDbLine
 10
3.326
 20
2.767
 30
0.0
 11
3.358
 21
2.828
 31
0.0
  0
LINE
  5
42E
330
18
100
AcDbEntity
  8
0
100
AcDbLine
 10
3.358
 20
2.828
 30
0.0
 11
3.367
 21
2.854
 31
0.0
  0
LINE
  5
42F
330
18
100
AcDbEntity
  8
0
100
AcDbLine
 10
3.333
 20
2.72
 30
0.0
 11
3.36
 21
2.767
 31
0.0
  0
LINE
  5
430
330
18
100
AcDbEntity
  8
0
100
AcDbLine
 10
3.36
 20
2.767
 30
0.0
 11
3.367
 21
2.788
 31
0.0
  0
LINE
  5
431
330
18
100
AcDbEntity
  8
0
100
AcDbLine
 10
0.997
 20
4.405
 30
0.0
 11
1.002
 21
4.418
 31
0.0
  0
LINE
  5
432
330
18
100
AcDbEntity
  8
0
100
AcDbLine
 10
1.002
 20
4.418
 30
0.0
 11
1.008
 21
4.442
 31
0.0
  0
LINE
  5
433
330
18
100
AcDbEntity
  8
0
100
AcDbLine
 10
1.008
 20
4.442
 30
0.0
 11
1.016
 21
4.452
 31
0.0
  0
LINE
  5
434
330
18
100
AcDbEntity
  8
0
100
AcDbLine
 10
0.983
 20
4.411000000000001
 30
0.0
 11
0.9840000000000001
 21
4.413
 31
0.0
  0
LINE
  5
435
330
18
100
AcDbEntity
  8
0
100
AcDbLine
 10
0.9840000000000001
 20
4.413
 30
0.0
 11
0.9890000000000001
 21
4.438
 31
0.0
  0
LINE
  5
436
330
18
100
AcDbEntity
  8
0
100
AcDbLine
 10
0.9890000000000001
 20
4.438
 30
0.0
 11
0.997
 21
4.468999999999999
 31
0.0
  0
LINE
  5
437
330
18
100
AcDbEntity
  8
0
100
AcDbLine
 10
0.997
 20
4.468999999999999
 30
0.0
 11
1.016
 21
4.502
 31
0.0
  0
LINE
  5
438
330
18
100
AcDbEntity
  8
0
100
AcDbLine
 10
0.966
 20
4.418
 30
0.0
 11
0.966
 21
4.418
 31
0.0
  0
LINE
  5
439
330
18
100
AcDbEntity
  8
0
100
AcDbLine
 10
0.966
 20
4.418
 30
0.0
 11
0.972
 21
4.439
 31
0.0
  0
LINE
  5
43A
330
18
100
AcDbEntity
  8
0
100
AcDbLine
 10
0.972
 20
4.439
 30
0.0
 11
0.9790000000000001
 21
4.472
 31
0.0
  0
LINE
  5
43B
330
18
100
AcDbEntity
  8
0
100
AcDbLine
 10
0.9790000000000001
 20
4.472
 30
0.0
 11
0.985
 21
4.498
 31
0.0
  0
LINE
  5
43C
330
18
100
AcDbEntity
  8
0
100
AcDbLine
 10
0.985
 20
4.498
 30
0.0
 11
0.9940000000000001
 21
4.526
 31
0.0
  0
LINE
  5
43D
330
18
100
AcDbEntity
  8
0
100
AcDbLine
 10
0.9940000000000001
 20
4.526
 30
0.0
 11
1.004
 21
4.547
 31
0.0
  0
LINE
  5
43E
330
18
100
AcDbEntity
  8
0
100
AcDbLine
 10
1.004
 20
4.547
 30
0.0
 11
1.006
 21
4.55
 31
0.0
  0
LINE
  5
43F
330
18
100
AcDbEntity
  8
0
100
AcDbLine
 10
0.9490000000000001
 20
4.425
 30
0.0
 11
0.95
 21
4.427
 31
0.0
  0
LINE
  5
440
330
18
100
AcDbEntity
  8
0
100
AcDbLine
 10
0.95
 20
4.427
 30
0.0
 11
0.961
 21
4.46
 31
0.0
  0
LINE
  5
441
330
18
100
AcDbEntity
  8
0
100
AcDbLine
 10
0.961
 20
4.46
 30
0.0
 11
0.966
 21
4.488
 31
0.0
  0
LINE
  5
442
330
18
100
AcDbEntity
  8
0
100
AcDbLine
 10
0.966
 20
4.488
 30
0.0
 11
0.968
 21
4.506
 31
0.0
  0
LINE
  5
443
330
18
100
AcDbEntity
  8
0
100
AcDbLine
 10
0.968
 20
4.506
 30
0.0
 11
0.975
 21
4.53
 31
0.0
  0
LINE
  5
444
330
18
100
AcDbEntity
  8
0
100
AcDbLine
 10
0.975
 20
4.53
 30
0.0
 11
0.98
 21
4.548
 31
0.0
  0
LINE
  5
445
330
18
100
AcDbEntity
  8
0
100
AcDbLine
 10
0.98
 20
4.548
 30
0.0
 11
0.9940000000000001
 21
4.571000000000001
 31
0.0
  0
LINE
  5
446
330
18
100
AcDbEntity
  8
0
100
AcDbLine
 10
0.9320000000000001
 20
4.433
 30
0.0
 11
0.9350000000000001
 21
4.439
 31
0.0
  0
LINE
  5
447
330
18
100
AcDbEntity
  8
0
100
AcDbLine
 10
0.9350000000000001
 20
4.439
 30
0.0
 11
0.948
 21
4.477
 31
0.0
  0
LINE
  5
448
330
18
100
AcDbEntity
  8
0
100
AcDbLine
 10
0.948
 20
4.477
 30
0.0
 11
0.9540000000000001
 21
4.515
 31
0.0
  0
LINE
  5
449
330
18
100
AcDbEntity
  8
0
100
AcDbLine
 10
0.9540000000000001
 20
4.515
 30
0.0
 11
0.956
 21
4.544
 31
0.0
  0
LINE
  5
44A
330
18
100
AcDbEntity
  8
0
100
AcDbLine
 10
0.956
 20
4.544
 30
0.0
 11
0.958
 21
4.562
 31
0.0
  0
LINE
  5
44B
330
18
100
AcDbEntity
  8
0
100
AcDbLine
 10
0.958
 20
4.562
 30
0.0
 11
0.977
 21
4.583
 31
0.0
  0
LINE
  5
44C
330
18
100
AcDbEntity
  8
0
100
AcDbLine
 10
0.977
 20
4.583
 30
0.0
 11
1.008
 21
4.616000000000001
 31
0.0
  0
LINE
  5
44D
330
18
100
AcDbEntity
  8
0
100
AcDbLine
 10
1.008
 20
4.616000000000001
 30
0.0
 11
1.009
 21
4.647
 31
0.0
  0
LINE
  5
44E
330
18
100
AcDbEntity
  8
0
100
AcDbLine
 10
1.009
 20
4.647
 30
0.0
 11
1.009
 21
4.687
 31
0.0
  0
LINE
  5
44F
330
18
100
AcDbEntity
  8
0
100
AcDbLine
 10
1.009
 20
4.687
 30
0.0
 11
1.006
 21
4.738
 31
0.0
  0
LINE
  5
450
330
18
100
AcDbEntity
  8
0
100
AcDbLine
 10
1.006
 20
4.738
 30
0.0
 11
1.002
 21
4.771
 31
0.0
  0
LINE
  5
451
330
18
100
AcDbEntity
  8
0
100
AcDbLine
 10
1.002
 20
4.771
 30
0.0
 11
1.002
 21
4.788
 31
0.0
  0
LINE
  5
452
330
18
100
AcDbEntity
  8
0
100
AcDbLine
 10
1.002
 20
4.788
 30
0.0
 11
1.005
 21
4.801
 31
0.0
  0
LINE
  5
453
330
18
100
AcDbEntity
  8
0
100
AcDbLine
 10
0.91
 20
4.442
 30
0.0
 11
0.915
 21
4.45
 31
0.0
  0
LINE
  5
454
330
18
100
AcDbEntity
  8
0
100
AcDbLine
 10
0.915
 20
4.45
 30
0.0
 11
0.9259999999999999
 21
4.481
 31
0.0
  0
LINE
  5
455
330
18
100
AcDbEntity
  8
0
100
AcDbLine
 10
0.9259999999999999
 20
4.481
 30
0.0
 11
0.9340000000000001
 21
4.513
 31
0.0
  0
LINE
  5
456
330
18
100
AcDbEntity
  8
0
100
AcDbLine
 10
0.9340000000000001
 20
4.513
 30
0.0
 11
0.9379999999999999
 21
4.542
 31
0.0
  0
LINE
  5
457
330
18
100
AcDbEntity
  8
0
100
AcDbLine
 10
0.9379999999999999
 20
4.542
 30
0.0
 11
0.94
 21
4.572
 31
0.0
  0
LINE
  5
458
330
18
100
AcDbEntity
  8
0
100
AcDbLine
 10
0.94
 20
4.572
 30
0.0
 11
0.9570000000000001
 21
4.592
 31
0.0
  0
LINE
  5
459
330
18
100
AcDbEntity
  8
0
100
AcDbLine
 10
0.9570000000000001
 20
4.592
 30
0.0
 11
0.9890000000000001
 21
4.624
 31
0.0
  0
LINE
  5
45A
330
18
100
AcDbEntity
  8
0
100
AcDbLine
 10
0.9890000000000001
 20
4.624
 30
0.0
 11
0.9940000000000001
 21
4.66
 31
0.0
  0
LINE
  5
45B
330
18
100
AcDbEntity
  8
0
100
AcDbLine
 10
0.9940000000000001
 20
4.66
 30
0.0
 11
0.993
 21
4.693000000000001
 31
0.0
  0
LINE
  5
45C
330
18
100
AcDbEntity
  8
0
100
AcDbLine
 10
0.993
 20
4.693000000000001
 30
0.0
 11
0.9890000000000001
 21
4.725
 31
0.0
  0
LINE
  5
45D
330
18
100
AcDbEntity
  8
0
100
AcDbLine
 10
0.9890000000000001
 20
4.725
 30
0.0
 11
0.9840000000000001
 21
4.751
 31
0.0
  0
LINE
  5
45E
330
18
100
AcDbEntity
  8
0
100
AcDbLine
 10
0.9840000000000001
 20
4.751
 30
0.0
 11
0.977
 21
4.771
 31
0.0
  0
LINE
  5
45F
330
18
100
AcDbEntity
  8
0
100
AcDbLine
 10
0.977
 20
4.771
 30
0.0
 11
0.973
 21
4.788
 31
0.0
  0
LINE
  5
460
330
18
100
AcDbEntity
  8
0
100
AcDbLine
 10
0.973
 20
4.788
 30
0.0
 11
0.972
 21
4.801
 31
0.0
  0
LINE
  5
461
330
18
100
AcDbEntity
  8
0
100
AcDbLine
 10
0.972
 20
4.801
 30
0.0
 11
0.972
 21
4.821000000000001
 31
0.0
  0
LINE
  5
462
330
18
100
AcDbEntity
  8
0
100
AcDbLine
 10
0.897
 20
4.472
 30
0.0
 11
0.9059999999999999
 21
4.492
 31
0.0
  0
LINE
  5
463
330
18
100
AcDbEntity
  8
0
100
AcDbLine
 10
0.9059999999999999
 20
4.492
 30
0.0
 11
0.912
 21
4.515
 31
0.0
  0
LINE
  5
464
330
18
100
AcDbEntity
  8
0
100
AcDbLine
 10
0.912
 20
4.515
 30
0.0
 11
0.917
 21
4.54
 31
0.0
  0
LINE
  5
465
330
18
100
AcDbEntity
  8
0
100
AcDbLine
 10
0.917
 20
4.54
 30
0.0
 11
0.92
 21
4.562
 31
0.0
  0
LINE
  5
466
330
18
100
AcDbEntity
  8
0
100
AcDbLine
 10
0.92
 20
4.562
 30
0.0
 11
0.9209999999999999
 21
4.576000000000001
 31
0.0
  0
LINE
  5
467
330
18
100
AcDbEntity
  8
0
100
AcDbLine
 10
0.9209999999999999
 20
4.576000000000001
 30
0.0
 11
0.9309999999999999
 21
4.601
 31
0.0
  0
LINE
  5
468
330
18
100
AcDbEntity
  8
0
100
AcDbLine
 10
0.9309999999999999
 20
4.601
 30
0.0
 11
0.973
 21
4.634
 31
0.0
  0
LINE
  5
469
330
18
100
AcDbEntity
  8
0
100
AcDbLine
 10
0.973
 20
4.634
 30
0.0
 11
0.971
 21
4.669
 31
0.0
  0
LINE
  5
46A
330
18
100
AcDbEntity
  8
0
100
AcDbLine
 10
0.971
 20
4.669
 30
0.0
 11
0.972
 21
4.697
 31
0.0
  0
LINE
  5
46B
330
18
100
AcDbEntity
  8
0
100
AcDbLine
 10
0.972
 20
4.697
 30
0.0
 11
0.9670000000000001
 21
4.722
 31
0.0
  0
LINE
  5
46C
330
18
100
AcDbEntity
  8
0
100
AcDbLine
 10
0.9670000000000001
 20
4.722
 30
0.0
 11
0.963
 21
4.743
 31
0.0
  0
LINE
  5
46D
330
18
100
AcDbEntity
  8
0
100
AcDbLine
 10
0.963
 20
4.743
 30
0.0
 11
0.9570000000000001
 21
4.771
 31
0.0
  0
LINE
  5
46E
330
18
100
AcDbEntity
  8
0
100
AcDbLine
 10
0.9570000000000001
 20
4.771
 30
0.0
 11
0.9490000000000001
 21
4.794
 31
0.0
  0
LINE
  5
46F
330
18
100
AcDbEntity
  8
0
100
AcDbLine
 10
0.9490000000000001
 20
4.794
 30
0.0
 11
0.943
 21
4.823
 31
0.0
  0
LINE
  5
470
330
18
100
AcDbEntity
  8
0
100
AcDbLine
 10
0.943
 20
4.823
 30
0.0
 11
0.94
 21
4.838
 31
0.0
  0
LINE
  5
471
330
18
100
AcDbEntity
  8
0
100
AcDbLine
 10
0.94
 20
4.838
 30
0.0
 11
0.941
 21
4.841
 31
0.0
  0
LINE
  5
472
330
18
100
AcDbEntity
  8
0
100
AcDbLine
 10
0.897
 20
4.523
 30
0.0
 11
0.899
 21
4.526
 31
0.0
  0
LINE
  5
473
330
18
100
AcDbEntity
  8
0
100
AcDbLine
 10
0.899
 20
4.526
 30
0.0
 11
0.909
 21
4.565
 31
0.0
  0
LINE
  5
474
330
18
100
AcDbEntity
  8
0
100
AcDbLine
 10
0.909
 20
4.565
 30
0.0
 11
0.909
 21
4.586
 31
0.0
  0
LINE
  5
475
330
18
100
AcDbEntity
  8
0
100
AcDbLine
 10
0.909
 20
4.586
 30
0.0
 11
0.9179999999999999
 21
4.611000000000001
 31
0.0
  0
LINE
  5
476
330
18
100
AcDbEntity
  8
0
100
AcDbLine
 10
0.9179999999999999
 20
4.611000000000001
 30
0.0
 11
0.95
 21
4.644
 31
0.0
  0
LINE
  5
477
330
18
100
AcDbEntity
  8
0
100
AcDbLine
 10
0.95
 20
4.644
 30
0.0
 11
0.9540000000000001
 21
4.678999999999999
 31
0.0
  0
LINE
  5
478
330
18
100
AcDbEntity
  8
0
100
AcDbLine
 10
0.9540000000000001
 20
4.678999999999999
 30
0.0
 11
0.953
 21
4.694
 31
0.0
  0
LINE
  5
479
330
18
100
AcDbEntity
  8
0
100
AcDbLine
 10
0.953
 20
4.694
 30
0.0
 11
0.9520000000000001
 21
4.718999999999999
 31
0.0
  0
LINE
  5
47A
330
18
100
AcDbEntity
  8
0
100
AcDbLine
 10
0.9520000000000001
 20
4.718999999999999
 30
0.0
 11
0.9470000000000001
 21
4.738
 31
0.0
  0
LINE
  5
47B
330
18
100
AcDbEntity
  8
0
100
AcDbLine
 10
0.9470000000000001
 20
4.738
 30
0.0
 11
0.941
 21
4.753
 31
0.0
  0
LINE
  5
47C
330
18
100
AcDbEntity
  8
0
100
AcDbLine
 10
0.941
 20
4.753
 30
0.0
 11
0.9350000000000001
 21
4.772
 31
0.0
  0
LINE
  5
47D
330
18
100
AcDbEntity
  8
0
100
AcDbLine
 10
0.9350000000000001
 20
4.772
 30
0.0
 11
0.9309999999999999
 21
4.792
 31
0.0
  0
LINE
  5
47E
330
18
100
AcDbEntity
  8
0
100
AcDbLine
 10
0.9309999999999999
 20
4.792
 30
0.0
 11
0.9290000000000001
 21
4.815
 31
0.0
  0
LINE
  5
47F
330
18
100
AcDbEntity
  8
0
100
AcDbLine
 10
0.9290000000000001
 20
4.815
 30
0.0
 11
0.9320000000000001
 21
4.847
 31
0.0
  0
LINE
  5
480
330
18
100
AcDbEntity
  8
0
100
AcDbLine
 10
0.897
 20
4.584
 30
0.0
 11
0.902
 21
4.593
 31
0.0
  0
LINE
  5
481
330
18
100
AcDbEntity
  8
0
100
AcDbLine
 10
0.902
 20
4.593
 30
0.0
 11
0.907
 21
4.619
 31
0.0
  0
LINE
  5
482
330
18
100
AcDbEntity
  8
0
100
AcDbLine
 10
0.907
 20
4.619
 30
0.0
 11
0.9300000000000001
 21
4.653000000000001
 31
0.0
  0
LINE
  5
483
330
18
100
AcDbEntity
  8
0
100
AcDbLine
 10
0.9300000000000001
 20
4.653000000000001
 30
0.0
 11
0.9350000000000001
 21
4.69
 31
0.0
  0
LINE
  5
484
330
18
100
AcDbEntity
  8
0
100
AcDbLine
 10
0.9350000000000001
 20
4.69
 30
0.0
 11
0.9309999999999999
 21
4.715
 31
0.0
  0
LINE
  5
485
330
18
100
AcDbEntity
  8
0
100
AcDbLine
 10
0.9309999999999999
 20
4.715
 30
0.0
 11
0.9270000000000001
 21
4.737
 31
0.0
  0
LINE
  5
486
330
18
100
AcDbEntity
  8
0
100
AcDbLine
 10
0.9270000000000001
 20
4.737
 30
0.0
 11
0.922
 21
4.762
 31
0.0
  0
LINE
  5
487
330
18
100
AcDbEntity
  8
0
100
AcDbLine
 10
0.922
 20
4.762
 30
0.0
 11
0.9179999999999999
 21
4.789
 31
0.0
  0
LINE
  5
488
330
18
100
AcDbEntity
  8
0
100
AcDbLine
 10
0.9179999999999999
 20
4.789
 30
0.0
 11
0.917
 21
4.811
 31
0.0
  0
LINE
  5
489
330
18
100
AcDbEntity
  8
0
100
AcDbLine
 10
0.917
 20
4.811
 30
0.0
 11
0.912
 21
4.838
 31
0.0
  0
LINE
  5
48A
330
18
100
AcDbEntity
  8
0
100
AcDbLine
 10
0.912
 20
4.838
 30
0.0
 11
0.909
 21
4.853
 31
0.0
  0
LINE
  5
48B
330
18
100
AcDbEntity
  8
0
100
AcDbLine
 10
0.909
 20
4.853
 30
0.0
 11
0.9079999999999999
 21
4.862
 31
0.0
  0
LINE
  5
48C
330
18
100
AcDbEntity
  8
0
100
AcDbLine
 10
0.883
 20
4.618
 30
0.0
 11
0.8909999999999999
 21
4.629
 31
0.0
  0
LINE
  5
48D
330
18
100
AcDbEntity
  8
0
100
AcDbLine
 10
0.8909999999999999
 20
4.629
 30
0.0
 11
0.915
 21
4.662
 31
0.0
  0
LINE
  5
48E
330
18
100
AcDbEntity
  8
0
100
AcDbLine
 10
0.915
 20
4.662
 30
0.0
 11
0.9159999999999999
 21
4.699
 31
0.0
  0
LINE
  5
48F
330
18
100
AcDbEntity
  8
0
100
AcDbLine
 10
0.9159999999999999
 20
4.699
 30
0.0
 11
0.9129999999999999
 21
4.737
 31
0.0
  0
LINE
  5
490
330
18
100
AcDbEntity
  8
0
100
AcDbLine
 10
0.9129999999999999
 20
4.737
 30
0.0
 11
0.909
 21
4.755
 31
0.0
  0
LINE
  5
491
330
18
100
AcDbEntity
  8
0
100
AcDbLine
 10
0.909
 20
4.755
 30
0.0
 11
0.9
 21
4.783
 31
0.0
  0
LINE
  5
492
330
18
100
AcDbEntity
  8
0
100
AcDbLine
 10
0.9
 20
4.783
 30
0.0
 11
0.897
 21
4.792
 31
0.0
  0
ARC
  5
493
330
18
100
AcDbEntity
  8
0
100
AcDbCircle
 10
2.437
 20
4.472
 30
0.0
 40
0.011
100
AcDbArc
 50
159.01
 51
185.249
  0
ARC
  5
494
330
18
100
AcDbEntity
  8
0
100
AcDbCircle
 10
2.44
 20
4.472
 30
0.0
 40
0.013
100
AcDbArc
 50
185.249
 51
208.968
  0
ARC
  5
495
330
18
100
AcDbEntity
  8
0
100
AcDbCircle
 10
2.442
 20
4.473
 30
0.0
 40
0.015
100
AcDbArc
 50
208.968
 51
229.818
  0
ARC
  5
496
330
18
100
AcDbEntity
  8
0
100
AcDbCircle
 10
2.443
 20
4.475
 30
0.0
 40
0.018
100
AcDbArc
 50
229.818
 51
249.01
  0
ARC
  5
497
330
18
100
AcDbEntity
  8
0
100
AcDbCircle
 10
2.443
 20
4.475
 30
0.0
 40
0.018
100
AcDbArc
 50
249.01
 51
268.202
  0
ARC
  5
498
330
18
100
AcDbEntity
  8
0
100
AcDbCircle
 10
2.443
 20
4.473
 30
0.0
 40
0.015
100
AcDbArc
 50
268.202
 51
289.052
  0
ARC
  5
499
330
18
100
AcDbEntity
  8
0
100
AcDbCircle
 10
2.444
 20
4.471
 30
0.0
 40
0.013
100
AcDbArc
 50
289.052
 51
312.771
  0
ARC
  5
49A
330
18
100
AcDbEntity
  8
0
100
AcDbCircle
 10
2.446
 20
4.468999999999999
 30
0.0
 40
0.011
100
AcDbArc
 50
312.771
 51
339.01
  0
ARC
  5
49B
330
18
100
AcDbEntity
  8
0
100
AcDbCircle
 10
2.446
 20
4.468999999999999
 30
0.0
 40
0.011
100
AcDbArc
 50
339.01
 51
5.249
  0
ARC
  5
49C
330
18
100
AcDbEntity
  8
0
100
AcDbCircle
 10
2.443
 20
4.468999999999999
 30
0.0
 40
0.013
100
AcDbArc
 50
5.249
 51
28.968
  0
ARC
  5
49D
330
18
100
AcDbEntity
  8
0
100
AcDbCircle
 10
2.441
 20
4.468
 30
0.0
 40
0.015
100
AcDbArc
 50
28.968
 51
49.81800000000001
  0
ARC
  5
49E
330
18
100
AcDbEntity
  8
0
100
AcDbCircle
 10
2.44
 20
4.466
 30
0.0
 40
0.018
100
AcDbArc
 50
49.81800000000001
 51
69.01000000000001
  0
ARC
  5
49F
330
18
100
AcDbEntity
  8
0
100
AcDbCircle
 10
2.44
 20
4.466
 30
0.0
 40
0.018
100
AcDbArc
 50
69.01000000000001
 51
88.20200000000001
  0
ARC
  5
4A0
330
18
100
AcDbEntity
  8
0
100
AcDbCircle
 10
2.44
 20
4.468
 30
0.0
 40
0.015
100
AcDbArc
 50
88.20200000000001
 51
109.052
  0
ARC
  5
4A1
330
18
100
AcDbEntity
  8
0
100
AcDbCircle
 10
2.439
 20
4.47
 30
0.0
 40
0.013
100
AcDbArc
 50
109.052
 51
132.771
  0
ARC
  5
4A2
330
18
100
AcDbEntity
  8
0
100
AcDbCircle
 10
2.437
 20
4.472
 30
0.0
 40
0.011
100
AcDbArc
 50
132.771
 51
159.01
  0
ARC
  5
4A3
330
18
100
AcDbEntity
  8
0
100
AcDbCircle
 10
2.45
 20
4.475
 30
0.0
 40
0.015
100
AcDbArc
 50
274.992
 51
289.052
  0
ARC
  5
4A4
330
18
100
AcDbEntity
  8
0
100
AcDbCircle
 10
2.45
 20
4.473
 30
0.0
 40
0.013
100
AcDbArc
 50
289.052
 51
312.771
  0
ARC
  5
4A5
330
18
100
AcDbEntity
  8
0
100
AcDbCircle
 10
2.452
 20
4.471
 30
0.0
 40
0.011
100
AcDbArc
 50
312.771
 51
339.01
  0
ARC
  5
4A6
330
18
100
AcDbEntity
  8
0
100
AcDbCircle
 10
2.452
 20
4.471
 30
0.0
 40
0.011
100
AcDbArc
 50
339.01
 51
5.249
  0
ARC
  5
4A7
330
18
100
AcDbEntity
  8
0
100
AcDbCircle
 10
2.45
 20
4.471
 30
0.0
 40
0.013
100
AcDbArc
 50
5.249
 51
28.968
  0
ARC
  5
4A8
330
18
100
AcDbEntity
  8
0
100
AcDbCircle
 10
2.448
 20
4.47
 30
0.0
 40
0.015
100
AcDbArc
 50
28.968
 51
49.81800000000001
  0
ARC
  5
4A9
330
18
100
AcDbEntity
  8
0
100
AcDbCircle
 10
2.446
 20
4.468
 30
0.0
 40
0.018
100
AcDbArc
 50
49.81800000000001
 51
69.01000000000001
  0
ARC
  5
4AA
330
18
100
AcDbEntity
  8
0
100
AcDbCircle
 10
2.446
 20
4.468
 30
0.0
 40
0.018
100
AcDbArc
 50
69.01000000000001
 51
88.20200000000001
  0
ARC
  5
4AB
330
18
100
AcDbEntity
  8
0
100
AcDbCircle
 10
2.446
 20
4.47
 30
0.0
 40
0.015
100
AcDbArc
 50
88.20200000000001
 51
109.052
  0
ARC
  5
4AC
330
18
100
AcDbEntity
  8
0
100
AcDbCircle
 10
2.445
 20
4.472
 30
0.0
 40
0.013
100
AcDbArc
 50
109.052
 51
123.034
  0
ARC
  5
4AD
330
18
100
AcDbEntity
  8
0
100
AcDbCircle
 10
5.269
 20
3.981
 30
0.0
 40
0.003
100
AcDbArc
 50
180.048
 51
220.586
  0
ARC
  5
4AE
330
18
100
AcDbEntity
  8
0
100
AcDbCircle
 10
5.274
 20
3.986
 30
0.0
 40
0.01
100
AcDbArc
 50
220.586
 51
244.206
  0
ARC
  5
4AF
330
18
100
AcDbEntity
  8
0
100
AcDbCircle
 10
5.277
 20
3.992
 30
0.0
 40
0.017
100
AcDbArc
 50
244.206
 51
258.704
  0
ARC
  5
4B0
330
18
100
AcDbEntity
  8
0
100
AcDbCircle
 10
5.279
 20
4.003
 30
0.0
 40
0.028
100
AcDbArc
 50
258.704
 51
270.048
  0
ARC
  5
4B1
330
18
100
AcDbEntity
  8
0
100
AcDbCircle
 10
5.279
 20
4.003
 30
0.0
 40
0.028
100
AcDbArc
 50
270.048
 51
281.392
  0
ARC
  5
4B2
330
18
100
AcDbEntity
  8
0
100
AcDbCircle
 10
5.281000000000001
 20
3.992
 30
0.0
 40
0.017
100
AcDbArc
 50
281.392
 51
295.89
  0
ARC
  5
4B3
330
18
100
AcDbEntity
  8
0
100
AcDbCircle
 10
5.285
 20
3.986
 30
0.0
 40
0.01
100
AcDbArc
 50
295.89
 51
319.51
  0
ARC
  5
4B4
330
18
100
AcDbEntity
  8
0
100
AcDbCircle
 10
5.289
 20
3.981
 30
0.0
 40
0.003
100
AcDbArc
 50
319.51
 51
0.048
  0
ARC
  5
4B5
330
18
100
AcDbEntity
  8
0
100
AcDbCircle
 10
5.289
 20
3.981
 30
0.0
 40
0.003
100
AcDbArc
 50
0.048
 51
40.586
  0
ARC
  5
4B6
330
18
100
AcDbEntity
  8
0
100
AcDbCircle
 10
5.285
 20
3.977
 30
0.0
 40
0.01
100
AcDbArc
 50
40.586
 51
64.206
  0
ARC
  5
4B7
330
18
100
AcDbEntity
  8
0
100
AcDbCircle
 10
5.281000000000001
 20
3.97
 30
0.0
 40
0.017
100
AcDbArc
 50
64.206
 51
78.70399999999999
  0
ARC
  5
4B8
330
18
100
AcDbEntity
  8
0
100
AcDbCircle
 10
5.279
 20
3.96
 30
0.0
 40
0.028
100
AcDbArc
 50
78.70399999999999
 51
90.04799999999999
  0
ARC
  5
4B9
330
18
100
AcDbEntity
  8
0
100
AcDbCircle
 10
5.279
 20
3.96
 30
0.0
 40
0.028
100
AcDbArc
 50
90.04799999999999
 51
101.392
  0
ARC
  5
4BA
330
18
100
AcDbEntity
  8
0
100
AcDbCircle
 10
5.277
 20
3.97
 30
0.0
 40
0.017
100
AcDbArc
 50
101.392
 51
115.89
  0
ARC
  5
4BB
330
18
100
AcDbEntity
  8
0
100
AcDbCircle
 10
5.274
 20
3.977
 30
0.0
 40
0.01
100
AcDbArc
 50
115.89
 51
139.51
  0
ARC
  5
4BC
330
18
100
AcDbEntity
  8
0
100
AcDbCircle
 10
5.269
 20
3.981
 30
0.0
 40
0.003
100
AcDbArc
 50
139.51
 51
180.048
  0
ARC
  5
4BD
330
18
100
AcDbEntity
  8
0
100
AcDbCircle
 10
5.269
 20
3.977
 30
0.0
 40
0.003
100
AcDbArc
 50
180.048
 51
220.586
  0
ARC
  5
4BE
330
18
100
AcDbEntity
  8
0
100
AcDbCircle
 10
5.274
 20
3.981
 30
0.0
 40
0.01
100
AcDbArc
 50
220.586
 51
244.206
  0
ARC
  5
4BF
330
18
100
AcDbEntity
  8
0
100
AcDbCircle
 10
5.277
 20
3.988
 30
0.0
 40
0.017
100
AcDbArc
 50
244.206
 51
258.704
  0
ARC
  5
4C0
330
18
100
AcDbEntity
  8
0
100
AcDbCircle
 10
5.279
 20
3.999
 30
0.0
 40
0.028
100
AcDbArc
 50
258.704
 51
270.048
  0
ARC
  5
4C1
330
18
100
AcDbEntity
  8
0
100
AcDbCircle
 10
5.279
 20
3.999
 30
0.0
 40
0.028
100
AcDbArc
 50
270.048
 51
281.392
  0
ARC
  5
4C2
330
18
100
AcDbEntity
  8
0
100
AcDbCircle
 10
5.281000000000001
 20
3.988
 30
0.0
 40
0.017
100
AcDbArc
 50
281.392
 51
295.89
  0
ARC
  5
4C3
330
18
100
AcDbEntity
  8
0
100
AcDbCircle
 10
5.285
 20
3.981
 30
0.0
 40
0.01
100
AcDbArc
 50
295.89
 51
319.51
  0
ARC
  5
4C4
330
18
100
AcDbEntity
  8
0
100
AcDbCircle
 10
5.289
 20
3.977
 30
0.0
 40
0.003
100
AcDbArc
 50
319.51
 51
0.048
  0
ARC
  5
4C5
330
18
100
AcDbEntity
  8
0
100
AcDbCircle
 10
5.289
 20
3.977
 30
0.0
 40
0.003
100
AcDbArc
 50
0.048
 51
36.551
  0
ARC
  5
4C6
330
18
100
AcDbEntity
  8
0
100
AcDbCircle
 10
5.269
 20
3.977
 30
0.0
 40
0.003
100
AcDbArc
 50
143.449
 51
180.048
  0
LINE
  5
4C7
330
18
100
AcDbEntity
  8
0
100
AcDbLine
 10
7.411000000000001
 20
2.892
 30
0.0
 11
7.39
 21
2.828
 31
0.0
  0
LINE
  5
4C8
330
18
100
AcDbEntity
  8
0
100
AcDbLine
 10
7.39
 20
2.828
 30
0.0
 11
7.376
 21
2.786
 31
0.0
  0
LINE
  5
4C9
330
18
100
AcDbEntity
  8
0
100
AcDbLine
 10
7.376
 20
2.786
 30
0.0
 11
7.408
 21
2.751
 31
0.0
  0
LINE
  5
4CA
330
18
100
AcDbEntity
  8
0
100
AcDbLine
 10
7.408
 20
2.986
 30
0.0
 11
7.39
 21
2.939
 31
0.0
  0
LINE
  5
4CB
330
18
100
AcDbEntity
  8
0
100
AcDbLine
 10
7.39
 20
2.939
 30
0.0
 11
7.372000000000001
 21
2.886
 31
0.0
  0
LINE
  5
4CC
330
18
100
AcDbEntity
  8
0
100
AcDbLine
 10
7.372000000000001
 20
2.886
 30
0.0
 11
7.364
 21
2.816
 31
0.0
  0
LINE
  5
4CD
330
18
100
AcDbEntity
  8
0
100
AcDbLine
 10
7.364
 20
2.816
 30
0.0
 11
7.345
 21
2.774
 31
0.0
  0
LINE
  5
4CE
330
18
100
AcDbEntity
  8
0
100
AcDbLine
 10
7.345
 20
2.774
 30
0.0
 11
7.369
 21
2.738
 31
0.0
  0
LINE
  5
4CF
330
18
100
AcDbEntity
  8
0
100
AcDbLine
 10
7.369
 20
2.738
 30
0.0
 11
7.408
 21
2.734
 31
0.0
  0
LINE
  5
4D0
330
18
100
AcDbEntity
  8
0
100
AcDbLine
 10
7.406000000000001
 20
3.123
 30
0.0
 11
7.371
 21
3.009
 31
0.0
  0
LINE
  5
4D1
330
18
100
AcDbEntity
  8
0
100
AcDbLine
 10
7.371
 20
3.009
 30
0.0
 11
7.345
 21
2.873
 31
0.0
  0
LINE
  5
4D2
330
18
100
AcDbEntity
  8
0
100
AcDbLine
 10
7.345
 20
2.873
 30
0.0
 11
7.33
 21
2.797
 31
0.0
  0
LINE
  5
4D3
330
18
100
AcDbEntity
  8
0
100
AcDbLine
 10
7.33
 20
2.797
 30
0.0
 11
7.311
 21
2.763
 31
0.0
  0
LINE
  5
4D4
330
18
100
AcDbEntity
  8
0
100
AcDbLine
 10
7.311
 20
2.763
 30
0.0
 11
7.345
 21
2.722
 31
0.0
  0
LINE
  5
4D5
330
18
100
AcDbEntity
  8
0
100
AcDbLine
 10
7.345
 20
2.722
 30
0.0
 11
7.37
 21
2.706
 31
0.0
  0
LINE
  5
4D6
330
18
100
AcDbEntity
  8
0
100
AcDbLine
 10
7.37
 20
2.706
 30
0.0
 11
7.39
 21
2.694
 31
0.0
  0
LINE
  5
4D7
330
18
100
AcDbEntity
  8
0
100
AcDbLine
 10
7.39
 20
2.694
 30
0.0
 11
7.408
 21
2.689
 31
0.0
  0
LINE
  5
4D8
330
18
100
AcDbEntity
  8
0
100
AcDbLine
 10
7.355
 20
3.091
 30
0.0
 11
7.337000000000001
 21
2.977
 31
0.0
  0
LINE
  5
4D9
330
18
100
AcDbEntity
  8
0
100
AcDbLine
 10
7.337000000000001
 20
2.977
 30
0.0
 11
7.316
 21
2.865
 31
0.0
  0
LINE
  5
4DA
330
18
100
AcDbEntity
  8
0
100
AcDbLine
 10
7.316
 20
2.865
 30
0.0
 11
7.305
 21
2.789
 31
0.0
  0
LINE
  5
4DB
330
18
100
AcDbEntity
  8
0
100
AcDbLine
 10
7.305
 20
2.789
 30
0.0
 11
7.276
 21
2.75
 31
0.0
  0
LINE
  5
4DC
330
18
100
AcDbEntity
  8
0
100
AcDbLine
 10
7.276
 20
2.75
 30
0.0
 11
7.305
 21
2.709
 31
0.0
  0
LINE
  5
4DD
330
18
100
AcDbEntity
  8
0
100
AcDbLine
 10
7.305
 20
2.709
 30
0.0
 11
7.347
 21
2.658
 31
0.0
  0
LINE
  5
4DE
330
18
100
AcDbEntity
  8
0
100
AcDbLine
 10
7.347
 20
2.658
 30
0.0
 11
7.391
 21
2.627
 31
0.0
  0
LINE
  5
4DF
330
18
100
AcDbEntity
  8
0
100
AcDbLine
 10
7.391
 20
2.627
 30
0.0
 11
7.409
 21
2.622
 31
0.0
  0
LINE
  5
4E0
330
18
100
AcDbEntity
  8
0
100
AcDbLine
 10
7.312
 20
3.064
 30
0.0
 11
7.305
 21
2.976
 31
0.0
  0
LINE
  5
4E1
330
18
100
AcDbEntity
  8
0
100
AcDbLine
 10
7.305
 20
2.976
 30
0.0
 11
7.289
 21
2.896
 31
0.0
  0
LINE
  5
4E2
330
18
100
AcDbEntity
  8
0
100
AcDbLine
 10
7.289
 20
2.896
 30
0.0
 11
7.28
 21
2.841
 31
0.0
  0
LINE
  5
4E3
330
18
100
AcDbEntity
  8
0
100
AcDbLine
 10
7.28
 20
2.841
 30
0.0
 11
7.262000000000001
 21
2.772
 31
0.0
  0
LINE
  5
4E4
330
18
100
AcDbEntity
  8
0
100
AcDbLine
 10
7.262000000000001
 20
2.772
 30
0.0
 11
7.244
 21
2.735
 31
0.0
  0
LINE
  5
4E5
330
18
100
AcDbEntity
  8
0
100
AcDbLine
 10
7.244
 20
2.735
 30
0.0
 11
7.269
 21
2.698
 31
0.0
  0
LINE
  5
4E6
330
18
100
AcDbEntity
  8
0
100
AcDbLine
 10
7.269
 20
2.698
 30
0.0
 11
7.316
 21
2.622
 31
0.0
  0
LINE
  5
4E7
330
18
100
AcDbEntity
  8
0
100
AcDbLine
 10
7.316
 20
2.622
 30
0.0
 11
7.381
 21
2.564
 31
0.0
  0
LINE
  5
4E8
330
18
100
AcDbEntity
  8
0
100
AcDbLine
 10
7.381
 20
2.564
 30
0.0
 11
7.409
 21
2.546
 31
0.0
  0
LINE
  5
4E9
330
18
100
AcDbEntity
  8
0
100
AcDbLine
 10
7.25
 20
2.468
 30
0.0
 11
7.273
 21
2.449
 31
0.0
  0
LINE
  5
4EA
330
18
100
AcDbEntity
  8
0
100
AcDbLine
 10
7.273
 20
2.449
 30
0.0
 11
7.283
 21
2.436
 31
0.0
  0
LINE
  5
4EB
330
18
100
AcDbEntity
  8
0
100
AcDbLine
 10
7.249
 20
2.551
 30
0.0
 11
7.281000000000001
 21
2.513
 31
0.0
  0
LINE
  5
4EC
330
18
100
AcDbEntity
  8
0
100
AcDbLine
 10
7.281000000000001
 20
2.513
 30
0.0
 11
7.318
 21
2.459
 31
0.0
  0
LINE
  5
4ED
330
18
100
AcDbEntity
  8
0
100
AcDbLine
 10
7.249
 20
2.645
 30
0.0
 11
7.272
 21
2.607
 31
0.0
  0
LINE
  5
4EE
330
18
100
AcDbEntity
  8
0
100
AcDbLine
 10
7.272
 20
2.607
 30
0.0
 11
7.316
 21
2.551
 31
0.0
  0
LINE
  5
4EF
330
18
100
AcDbEntity
  8
0
100
AcDbLine
 10
7.316
 20
2.551
 30
0.0
 11
7.377999999999999
 21
2.496
 31
0.0
  0
LINE
  5
4F0
330
18
100
AcDbEntity
  8
0
100
AcDbLine
 10
7.271
 20
3.038
 30
0.0
 11
7.268
 21
2.975
 31
0.0
  0
LINE
  5
4F1
330
18
100
AcDbEntity
  8
0
100
AcDbLine
 10
7.268
 20
2.975
 30
0.0
 11
7.25
 21
2.88
 31
0.0
  0
LINE
  5
4F2
330
18
100
AcDbEntity
  8
0
100
AcDbLine
 10
7.25
 20
2.88
 30
0.0
 11
7.249
 21
2.875
 31
0.0
  0
LINE
  5
4F3
330
18
100
AcDbEntity
  8
0
100
AcDbLine
 10
3.047
 20
5.102
 30
0.0
 11
4.941
 21
5.808
 31
0.0
  0
LINE
  5
4F4
330
18
100
AcDbEntity
  8
0
100
AcDbLine
 10
5.19
 20
3.963
 30
0.0
 11
5.065
 21
3.913
 31
0.0
  0
LINE
  5
4F5
330
18
100
AcDbEntity
  8
0
100
AcDbLine
 10
5.065
 20
3.913
 30
0.0
 11
5.064
 21
3.443
 31
0.0
  0
ARC
  5
4F6
330
18
100
AcDbEntity
  8
0
100
AcDbCircle
 10
5.195
 20
3.923
 30
0.0
 40
0.027
100
AcDbArc
 50
65.584
 51
115.177
  0
LINE
  5
4F7
330
18
100
AcDbEntity
  8
0
100
AcDbLine
 10
5.327000000000001
 20
3.979
 30
0.0
 11
5.036000000000001
 21
4.118
 31
0.0
  0
LINE
  5
4F8
330
18
100
AcDbEntity
  8
0
100
AcDbLine
 10
5.047
 20
4.122
 30
0.0
 11
5.218999999999999
 21
4.041
 31
0.0
  0
ARC
  5
4F9
330
18
100
AcDbEntity
  8
0
100
AcDbCircle
 10
5.038
 20
4.074
 30
0.0
 40
0.028
100
AcDbArc
 50
78.70399999999999
 51
90.04799999999999
  0
ARC
  5
4FA
330
18
100
AcDbEntity
  8
0
100
AcDbCircle
 10
5.038
 20
4.074
 30
0.0
 40
0.028
100
AcDbArc
 50
90.04799999999999
 51
101.392
  0
ARC
  5
4FB
330
18
100
AcDbEntity
  8
0
100
AcDbCircle
 10
5.036000000000001
 20
4.084
 30
0.0
 40
0.017
100
AcDbArc
 50
101.392
 51
115.89
  0
ARC
  5
4FC
330
18
100
AcDbEntity
  8
0
100
AcDbCircle
 10
5.033
 20
4.091
 30
0.0
 40
0.01
100
AcDbArc
 50
115.89
 51
139.51
  0
ARC
  5
4FD
330
18
100
AcDbEntity
  8
0
100
AcDbCircle
 10
5.028000000000001
 20
4.095
 30
0.0
 40
0.003
100
AcDbArc
 50
180.048
 51
220.586
  0
ARC
  5
4FE
330
18
100
AcDbEntity
  8
0
100
AcDbCircle
 10
5.033
 20
4.1
 30
0.0
 40
0.01
100
AcDbArc
 50
220.586
 51
244.206
  0
ARC
  5
4FF
330
18
100
AcDbEntity
  8
0
100
AcDbCircle
 10
5.036000000000001
 20
4.106
 30
0.0
 40
0.017
100
AcDbArc
 50
244.206
 51
258.704
  0
ARC
  5
500
330
18
100
AcDbEntity
  8
0
100
AcDbCircle
 10
5.038
 20
4.117
 30
0.0
 40
0.028
100
AcDbArc
 50
258.704
 51
270.048
  0
ARC
  5
501
330
18
100
AcDbEntity
  8
0
100
AcDbCircle
 10
5.038
 20
4.117
 30
0.0
 40
0.028
100
AcDbArc
 50
270.048
 51
281.392
  0
ARC
  5
502
330
18
100
AcDbEntity
  8
0
100
AcDbCircle
 10
5.041
 20
4.106
 30
0.0
 40
0.017
100
AcDbArc
 50
281.392
 51
295.89
  0
ARC
  5
503
330
18
100
AcDbEntity
  8
0
100
AcDbCircle
 10
5.044
 20
4.1
 30
0.0
 40
0.01
100
AcDbArc
 50
295.89
 51
319.51
  0
ARC
  5
504
330
18
100
AcDbEntity
  8
0
100
AcDbCircle
 10
5.049
 20
4.095
 30
0.0
 40
0.003
100
AcDbArc
 50
319.51
 51
0.048
  0
ARC
  5
505
330
18
100
AcDbEntity
  8
0
100
AcDbCircle
 10
5.049
 20
4.095
 30
0.0
 40
0.003
100
AcDbArc
 50
0.048
 51
40.586
  0
ARC
  5
506
330
18
100
AcDbEntity
  8
0
100
AcDbCircle
 10
5.044
 20
4.091
 30
0.0
 40
0.01
100
AcDbArc
 50
40.586
 51
64.206
  0
ARC
  5
507
330
18
100
AcDbEntity
  8
0
100
AcDbCircle
 10
5.041
 20
4.084
 30
0.0
 40
0.017
100
AcDbArc
 50
64.206
 51
78.70399999999999
  0
ARC
  5
508
330
18
100
AcDbEntity
  8
0
100
AcDbCircle
 10
5.028000000000001
 20
4.095
 30
0.0
 40
0.003
100
AcDbArc
 50
139.51
 51
180.048
  0
ARC
  5
509
330
18
100
AcDbEntity
  8
0
100
AcDbCircle
 10
5.028000000000001
 20
4.091
 30
0.0
 40
0.003
100
AcDbArc
 50
180.048
 51
220.586
  0
ARC
  5
50A
330
18
100
AcDbEntity
  8
0
100
AcDbCircle
 10
5.033
 20
4.095
 30
0.0
 40
0.01
100
AcDbArc
 50
220.586
 51
244.206
  0
ARC
  5
50B
330
18
100
AcDbEntity
  8
0
100
AcDbCircle
 10
5.036000000000001
 20
4.102
 30
0.0
 40
0.017
100
AcDbArc
 50
244.206
 51
258.704
  0
ARC
  5
50C
330
18
100
AcDbEntity
  8
0
100
AcDbCircle
 10
5.038
 20
4.113
 30
0.0
 40
0.028
100
AcDbArc
 50
258.704
 51
270.048
  0
ARC
  5
50D
330
18
100
AcDbEntity
  8
0
100
AcDbCircle
 10
5.038
 20
4.113
 30
0.0
 40
0.028
100
AcDbArc
 50
270.048
 51
281.392
  0
ARC
  5
50E
330
18
100
AcDbEntity
  8
0
100
AcDbCircle
 10
5.041
 20
4.102
 30
0.0
 40
0.017
100
AcDbArc
 50
281.392
 51
295.89
  0
ARC
  5
50F
330
18
100
AcDbEntity
  8
0
100
AcDbCircle
 10
5.044
 20
4.095
 30
0.0
 40
0.01
100
AcDbArc
 50
295.89
 51
319.51
  0
ARC
  5
510
330
18
100
AcDbEntity
  8
0
100
AcDbCircle
 10
5.049
 20
4.091
 30
0.0
 40
0.003
100
AcDbArc
 50
319.51
 51
0.048
  0
ARC
  5
511
330
18
100
AcDbEntity
  8
0
100
AcDbCircle
 10
5.049
 20
4.091
 30
0.0
 40
0.003
100
AcDbArc
 50
0.048
 51
36.551
  0
ARC
  5
512
330
18
100
AcDbEntity
  8
0
100
AcDbCircle
 10
5.028000000000001
 20
4.091
 30
0.0
 40
0.003
100
AcDbArc
 50
143.449
 51
180.048
  0
ARC
  5
513
330
18
100
AcDbEntity
  8
0
100
AcDbCircle
 10
5.09
 20
4.031000000000001
 30
0.0
 40
0.028
100
AcDbArc
 50
78.70399999999999
 51
90.04799999999999
  0
ARC
  5
514
330
18
100
AcDbEntity
  8
0
100
AcDbCircle
 10
5.09
 20
4.031000000000001
 30
0.0
 40
0.028
100
AcDbArc
 50
90.04799999999999
 51
101.392
  0
ARC
  5
515
330
18
100
AcDbEntity
  8
0
100
AcDbCircle
 10
5.088
 20
4.042
 30
0.0
 40
0.017
100
AcDbArc
 50
101.392
 51
115.89
  0
ARC
  5
516
330
18
100
AcDbEntity
  8
0
100
AcDbCircle
 10
5.085
 20
4.049
 30
0.0
 40
0.01
100
AcDbArc
 50
115.89
 51
139.51
  0
ARC
  5
517
330
18
100
AcDbEntity
  8
0
100
AcDbCircle
 10
5.08
 20
4.053
 30
0.0
 40
0.003
100
AcDbArc
 50
180.048
 51
220.586
  0
ARC
  5
518
330
18
100
AcDbEntity
  8
0
100
AcDbCircle
 10
5.085
 20
4.057
 30
0.0
 40
0.01
100
AcDbArc
 50
220.586
 51
244.206
  0
ARC
  5
519
330
18
100
AcDbEntity
  8
0
100
AcDbCircle
 10
5.088
 20
4.064
 30
0.0
 40
0.017
100
AcDbArc
 50
244.206
 51
258.704
  0
ARC
  5
51A
330
18
100
AcDbEntity
  8
0
100
AcDbCircle
 10
5.09
 20
4.075
 30
0.0
 40
0.028
100
AcDbArc
 50
258.704
 51
270.048
  0
ARC
  5
51B
330
18
100
AcDbEntity
  8
0
100
AcDbCircle
 10
5.09
 20
4.075
 30
0.0
 40
0.028
100
AcDbArc
 50
270.048
 51
281.392
  0
ARC
  5
51C
330
18
100
AcDbEntity
  8
0
100
AcDbCircle
 10
5.092
 20
4.064
 30
0.0
 40
0.017
100
AcDbArc
 50
281.392
 51
295.89
  0
ARC
  5
51D
330
18
100
AcDbEntity
  8
0
100
AcDbCircle
 10
5.095
 20
4.057
 30
0.0
 40
0.01
100
AcDbArc
 50
295.89
 51
319.51
  0
ARC
  5
51E
330
18
100
AcDbEntity
  8
0
100
AcDbCircle
 10
5.1
 20
4.053
 30
0.0
 40
0.003
100
AcDbArc
 50
319.51
 51
0.048
  0
ARC
  5
51F
330
18
100
AcDbEntity
  8
0
100
AcDbCircle
 10
5.1
 20
4.053
 30
0.0
 40
0.003
100
AcDbArc
 50
0.048
 51
40.586
  0
ARC
  5
520
330
18
100
AcDbEntity
  8
0
100
AcDbCircle
 10
5.095
 20
4.049
 30
0.0
 40
0.01
100
AcDbArc
 50
40.586
 51
64.206
  0
ARC
  5
521
330
18
100
AcDbEntity
  8
0
100
AcDbCircle
 10
5.092
 20
4.042
 30
0.0
 40
0.017
100
AcDbArc
 50
64.206
 51
78.70399999999999
  0
ARC
  5
522
330
18
100
AcDbEntity
  8
0
100
AcDbCircle
 10
5.08
 20
4.053
 30
0.0
 40
0.003
100
AcDbArc
 50
139.51
 51
180.048
  0
ARC
  5
523
330
18
100
AcDbEntity
  8
0
100
AcDbCircle
 10
5.08
 20
4.049
 30
0.0
 40
0.003
100
AcDbArc
 50
180.048
 51
220.586
  0
ARC
  5
524
330
18
100
AcDbEntity
  8
0
100
AcDbCircle
 10
5.085
 20
4.053
 30
0.0
 40
0.01
100
AcDbArc
 50
220.586
 51
244.206
  0
ARC
  5
525
330
18
100
AcDbEntity
  8
0
100
AcDbCircle
 10
5.088
 20
4.06
 30
0.0
 40
0.017
100
AcDbArc
 50
244.206
 51
258.704
  0
ARC
  5
526
330
18
100
AcDbEntity
  8
0
100
AcDbCircle
 10
5.09
 20
4.071000000000001
 30
0.0
 40
0.028
100
AcDbArc
 50
258.704
 51
270.048
  0
ARC
  5
527
330
18
100
AcDbEntity
  8
0
100
AcDbCircle
 10
5.09
 20
4.071000000000001
 30
0.0
 40
0.028
100
AcDbArc
 50
270.048
 51
281.392
  0
ARC
  5
528
330
18
100
AcDbEntity
  8
0
100
AcDbCircle
 10
5.092
 20
4.06
 30
0.0
 40
0.017
100
AcDbArc
 50
281.392
 51
295.89
  0
ARC
  5
529
330
18
100
AcDbEntity
  8
0
100
AcDbCircle
 10
5.095
 20
4.053
 30
0.0
 40
0.01
100
AcDbArc
 50
295.89
 51
319.51
  0
ARC
  5
52A
330
18
100
AcDbEntity
  8
0
100
AcDbCircle
 10
5.1
 20
4.049
 30
0.0
 40
0.003
100
AcDbArc
 50
319.51
 51
0.048
  0
ARC
  5
52B
330
18
100
AcDbEntity
  8
0
100
AcDbCircle
 10
5.1
 20
4.049
 30
0.0
 40
0.003
100
AcDbArc
 50
0.048
 51
36.551
  0
ARC
  5
52C
330
18
100
AcDbEntity
  8
0
100
AcDbCircle
 10
5.08
 20
4.049
 30
0.0
 40
0.003
100
AcDbArc
 50
143.449
 51
180.048
  0
ARC
  5
52D
330
18
100
AcDbEntity
  8
0
100
AcDbCircle
 10
5.174
 20
3.996
 30
0.0
 40
0.028
100
AcDbArc
 50
78.70399999999999
 51
90.04799999999999
  0
ARC
  5
52E
330
18
100
AcDbEntity
  8
0
100
AcDbCircle
 10
5.174
 20
3.996
 30
0.0
 40
0.028
100
AcDbArc
 50
90.04799999999999
 51
101.392
  0
ARC
  5
52F
330
18
100
AcDbEntity
  8
0
100
AcDbCircle
 10
5.172000000000001
 20
4.006
 30
0.0
 40
0.017
100
AcDbArc
 50
101.392
 51
115.89
  0
ARC
  5
530
330
18
100
AcDbEntity
  8
0
100
AcDbCircle
 10
5.169
 20
4.013
 30
0.0
 40
0.01
100
AcDbArc
 50
115.89
 51
139.51
  0
ARC
  5
531
330
18
100
AcDbEntity
  8
0
100
AcDbCircle
 10
5.164
 20
4.017
 30
0.0
 40
0.003
100
AcDbArc
 50
180.048
 51
220.586
  0
ARC
  5
532
330
18
100
AcDbEntity
  8
0
100
AcDbCircle
 10
5.169
 20
4.021
 30
0.0
 40
0.01
100
AcDbArc
 50
220.586
 51
244.206
  0
ARC
  5
533
330
18
100
AcDbEntity
  8
0
100
AcDbCircle
 10
5.172000000000001
 20
4.028000000000001
 30
0.0
 40
0.017
100
AcDbArc
 50
244.206
 51
258.704
  0
ARC
  5
534
330
18
100
AcDbEntity
  8
0
100
AcDbCircle
 10
5.174
 20
4.039
 30
0.0
 40
0.028
100
AcDbArc
 50
258.704
 51
270.048
  0
ARC
  5
535
330
18
100
AcDbEntity
  8
0
100
AcDbCircle
 10
5.174
 20
4.039
 30
0.0
 40
0.028
100
AcDbArc
 50
270.048
 51
281.392
  0
ARC
  5
536
330
18
100
AcDbEntity
  8
0
100
AcDbCircle
 10
5.177000000000001
 20
4.028000000000001
 30
0.0
 40
0.017
100
AcDbArc
 50
281.392
 51
295.89
  0
ARC
  5
537
330
18
100
AcDbEntity
  8
0
100
AcDbCircle
 10
5.18
 20
4.022
 30
0.0
 40
0.01
100
AcDbArc
 50
295.89
 51
319.51
  0
ARC
  5
538
330
18
100
AcDbEntity
  8
0
100
AcDbCircle
 10
5.185
 20
4.017
 30
0.0
 40
0.003
100
AcDbArc
 50
319.51
 51
0.048
  0
ARC
  5
539
330
18
100
AcDbEntity
  8
0
100
AcDbCircle
 10
5.185
 20
4.017
 30
0.0
 40
0.003
100
AcDbArc
 50
0.048
 51
40.586
  0
ARC
  5
53A
330
18
100
AcDbEntity
  8
0
100
AcDbCircle
 10
5.18
 20
4.013
 30
0.0
 40
0.01
100
AcDbArc
 50
40.586
 51
64.206
  0
ARC
  5
53B
330
18
100
AcDbEntity
  8
0
100
AcDbCircle
 10
5.177000000000001
 20
4.006
 30
0.0
 40
0.017
100
AcDbArc
 50
64.206
 51
78.70399999999999
  0
ARC
  5
53C
330
18
100
AcDbEntity
  8
0
100
AcDbCircle
 10
5.164
 20
4.017
 30
0.0
 40
0.003
100
AcDbArc
 50
139.51
 51
180.048
  0
ARC
  5
53D
330
18
100
AcDbEntity
  8
0
100
AcDbCircle
 10
5.164
 20
4.013
 30
0.0
 40
0.003
100
AcDbArc
 50
180.048
 51
220.586
  0
ARC
  5
53E
330
18
100
AcDbEntity
  8
0
100
AcDbCircle
 10
5.169
 20
4.017
 30
0.0
 40
0.01
100
AcDbArc
 50
220.586
 51
244.206
  0
ARC
  5
53F
330
18
100
AcDbEntity
  8
0
100
AcDbCircle
 10
5.172000000000001
 20
4.024
 30
0.0
 40
0.017
100
AcDbArc
 50
244.206
 51
258.704
  0
ARC
  5
540
330
18
100
AcDbEntity
  8
0
100
AcDbCircle
 10
5.174
 20
4.035
 30
0.0
 40
0.028
100
AcDbArc
 50
258.704
 51
270.048
  0
ARC
  5
541
330
18
100
AcDbEntity
  8
0
100
AcDbCircle
 10
5.174
 20
4.035
 30
0.0
 40
0.028
100
AcDbArc
 50
270.048
 51
281.392
  0
ARC
  5
542
330
18
100
AcDbEntity
  8
0
100
AcDbCircle
 10
5.177000000000001
 20
4.024
 30
0.0
 40
0.017
100
AcDbArc
 50
281.392
 51
295.89
  0
ARC
  5
543
330
18
100
AcDbEntity
  8
0
100
AcDbCircle
 10
5.18
 20
4.017
 30
0.0
 40
0.01
100
AcDbArc
 50
295.89
 51
319.51
  0
ARC
  5
544
330
18
100
AcDbEntity
  8
0
100
AcDbCircle
 10
5.185
 20
4.013
 30
0.0
 40
0.003
100
AcDbArc
 50
319.51
 51
0.048
  0
ARC
  5
545
330
18
100
AcDbEntity
  8
0
100
AcDbCircle
 10
5.185
 20
4.013
 30
0.0
 40
0.003
100
AcDbArc
 50
0.048
 51
36.551
  0
ARC
  5
546
330
18
100
AcDbEntity
  8
0
100
AcDbCircle
 10
5.164
 20
4.013
 30
0.0
 40
0.003
100
AcDbArc
 50
143.449
 51
180.048
  0
ARC
  5
547
330
18
100
AcDbEntity
  8
0
100
AcDbCircle
 10
5.11
 20
4.099
 30
0.0
 40
0.028
100
AcDbArc
 50
78.70399999999999
 51
90.04799999999999
  0
ARC
  5
548
330
18
100
AcDbEntity
  8
0
100
AcDbCircle
 10
5.11
 20
4.099
 30
0.0
 40
0.028
100
AcDbArc
 50
90.04799999999999
 51
101.392
  0
ARC
  5
549
330
18
100
AcDbEntity
  8
0
100
AcDbCircle
 10
5.108000000000001
 20
4.109
 30
0.0
 40
0.017
100
AcDbArc
 50
101.392
 51
115.89
  0
ARC
  5
54A
330
18
100
AcDbEntity
  8
0
100
AcDbCircle
 10
5.105
 20
4.116000000000001
 30
0.0
 40
0.01
100
AcDbArc
 50
115.89
 51
139.51
  0
ARC
  5
54B
330
18
100
AcDbEntity
  8
0
100
AcDbCircle
 10
5.1
 20
4.12
 30
0.0
 40
0.003
100
AcDbArc
 50
180.048
 51
220.586
  0
ARC
  5
54C
330
18
100
AcDbEntity
  8
0
100
AcDbCircle
 10
5.105
 20
4.125
 30
0.0
 40
0.01
100
AcDbArc
 50
220.586
 51
244.206
  0
ARC
  5
54D
330
18
100
AcDbEntity
  8
0
100
AcDbCircle
 10
5.108000000000001
 20
4.131
 30
0.0
 40
0.017
100
AcDbArc
 50
244.206
 51
258.704
  0
ARC
  5
54E
330
18
100
AcDbEntity
  8
0
100
AcDbCircle
 10
5.11
 20
4.142
 30
0.0
 40
0.028
100
AcDbArc
 50
258.704
 51
270.048
  0
ARC
  5
54F
330
18
100
AcDbEntity
  8
0
100
AcDbCircle
 10
5.11
 20
4.142
 30
0.0
 40
0.028
100
AcDbArc
 50
270.048
 51
281.392
  0
ARC
  5
550
330
18
100
AcDbEntity
  8
0
100
AcDbCircle
 10
5.112
 20
4.131
 30
0.0
 40
0.017
100
AcDbArc
 50
281.392
 51
295.89
  0
ARC
  5
551
330
18
100
AcDbEntity
  8
0
100
AcDbCircle
 10
5.116000000000001
 20
4.125
 30
0.0
 40
0.01
100
AcDbArc
 50
295.89
 51
319.51
  0
ARC
  5
552
330
18
100
AcDbEntity
  8
0
100
AcDbCircle
 10
5.121
 20
4.12
 30
0.0
 40
0.003
100
AcDbArc
 50
319.51
 51
0.048
  0
ARC
  5
553
330
18
100
AcDbEntity
  8
0
100
AcDbCircle
 10
5.121
 20
4.12
 30
0.0
 40
0.003
100
AcDbArc
 50
0.048
 51
40.586
  0
ARC
  5
554
330
18
100
AcDbEntity
  8
0
100
AcDbCircle
 10
5.116000000000001
 20
4.116000000000001
 30
0.0
 40
0.01
100
AcDbArc
 50
40.586
 51
64.206
  0
ARC
  5
555
330
18
100
AcDbEntity
  8
0
100
AcDbCircle
 10
5.113
 20
4.109
 30
0.0
 40
0.017
100
AcDbArc
 50
64.206
 51
78.70399999999999
  0
ARC
  5
556
330
18
100
AcDbEntity
  8
0
100
AcDbCircle
 10
5.1
 20
4.12
 30
0.0
 40
0.003
100
AcDbArc
 50
139.51
 51
180.048
  0
ARC
  5
557
330
18
100
AcDbEntity
  8
0
100
AcDbCircle
 10
5.1
 20
4.116000000000001
 30
0.0
 40
0.003
100
AcDbArc
 50
180.048
 51
220.586
  0
ARC
  5
558
330
18
100
AcDbEntity
  8
0
100
AcDbCircle
 10
5.105
 20
4.12
 30
0.0
 40
0.01
100
AcDbArc
 50
220.586
 51
244.206
  0
ARC
  5
559
330
18
100
AcDbEntity
  8
0
100
AcDbCircle
 10
5.108000000000001
 20
4.127
 30
0.0
 40
0.017
100
AcDbArc
 50
244.206
 51
258.704
  0
ARC
  5
55A
330
18
100
AcDbEntity
  8
0
100
AcDbCircle
 10
5.11
 20
4.138
 30
0.0
 40
0.028
100
AcDbArc
 50
258.704
 51
270.048
  0
ARC
  5
55B
330
18
100
AcDbEntity
  8
0
100
AcDbCircle
 10
5.11
 20
4.138
 30
0.0
 40
0.028
100
AcDbArc
 50
270.048
 51
281.392
  0
ARC
  5
55C
330
18
100
AcDbEntity
  8
0
100
AcDbCircle
 10
5.112
 20
4.127
 30
0.0
 40
0.017
100
AcDbArc
 50
281.392
 51
295.89
  0
ARC
  5
55D
330
18
100
AcDbEntity
  8
0
100
AcDbCircle
 10
5.116000000000001
 20
4.12
 30
0.0
 40
0.01
100
AcDbArc
 50
295.89
 51
319.51
  0
ARC
  5
55E
330
18
100
AcDbEntity
  8
0
100
AcDbCircle
 10
5.121
 20
4.116000000000001
 30
0.0
 40
0.003
100
AcDbArc
 50
319.51
 51
0.048
  0
ARC
  5
55F
330
18
100
AcDbEntity
  8
0
100
AcDbCircle
 10
5.121
 20
4.116000000000001
 30
0.0
 40
0.003
100
AcDbArc
 50
0.048
 51
36.551
  0
ARC
  5
560
330
18
100
AcDbEntity
  8
0
100
AcDbCircle
 10
5.1
 20
4.116000000000001
 30
0.0
 40
0.003
100
AcDbArc
 50
143.449
 51
180.048
  0
ARC
  5
561
330
18
100
AcDbEntity
  8
0
100
AcDbCircle
 10
5.185
 20
4.078
 30
0.0
 40
0.028
100
AcDbArc
 50
78.70399999999999
 51
90.04799999999999
  0
ARC
  5
562
330
18
100
AcDbEntity
  8
0
100
AcDbCircle
 10
5.185
 20
4.078
 30
0.0
 40
0.028
100
AcDbArc
 50
90.04799999999999
 51
101.392
  0
ARC
  5
563
330
18
100
AcDbEntity
  8
0
100
AcDbCircle
 10
5.183
 20
4.089
 30
0.0
 40
0.017
100
AcDbArc
 50
101.392
 51
115.89
  0
ARC
  5
564
330
18
100
AcDbEntity
  8
0
100
AcDbCircle
 10
5.18
 20
4.096
 30
0.0
 40
0.01
100
AcDbArc
 50
115.89
 51
139.51
  0
ARC
  5
565
330
18
100
AcDbEntity
  8
0
100
AcDbCircle
 10
5.175
 20
4.1
 30
0.0
 40
0.003
100
AcDbArc
 50
180.048
 51
220.586
  0
ARC
  5
566
330
18
100
AcDbEntity
  8
0
100
AcDbCircle
 10
5.18
 20
4.104
 30
0.0
 40
0.01
100
AcDbArc
 50
220.586
 51
244.206
  0
ARC
  5
567
330
18
100
AcDbEntity
  8
0
100
AcDbCircle
 10
5.183
 20
4.111000000000001
 30
0.0
 40
0.017
100
AcDbArc
 50
244.206
 51
258.704
  0
ARC
  5
568
330
18
100
AcDbEntity
  8
0
100
AcDbCircle
 10
5.185
 20
4.122
 30
0.0
 40
0.028
100
AcDbArc
 50
258.704
 51
270.048
  0
ARC
  5
569
330
18
100
AcDbEntity
  8
0
100
AcDbCircle
 10
5.185
 20
4.122
 30
0.0
 40
0.028
100
AcDbArc
 50
270.048
 51
281.392
  0
ARC
  5
56A
330
18
100
AcDbEntity
  8
0
100
AcDbCircle
 10
5.188
 20
4.111000000000001
 30
0.0
 40
0.017
100
AcDbArc
 50
281.392
 51
295.89
  0
ARC
  5
56B
330
18
100
AcDbEntity
  8
0
100
AcDbCircle
 10
5.191
 20
4.104
 30
0.0
 40
0.01
100
AcDbArc
 50
295.89
 51
319.51
  0
ARC
  5
56C
330
18
100
AcDbEntity
  8
0
100
AcDbCircle
 10
5.196000000000001
 20
4.1
 30
0.0
 40
0.003
100
AcDbArc
 50
319.51
 51
0.048
  0
ARC
  5
56D
330
18
100
AcDbEntity
  8
0
100
AcDbCircle
 10
5.196000000000001
 20
4.1
 30
0.0
 40
0.003
100
AcDbArc
 50
0.048
 51
40.586
  0
ARC
  5
56E
330
18
100
AcDbEntity
  8
0
100
AcDbCircle
 10
5.191
 20
4.096
 30
0.0
 40
0.01
100
AcDbArc
 50
40.586
 51
64.206
  0
ARC
  5
56F
330
18
100
AcDbEntity
  8
0
100
AcDbCircle
 10
5.188
 20
4.089
 30
0.0
 40
0.017
100
AcDbArc
 50
64.206
 51
78.70399999999999
  0
ARC
  5
570
330
18
100
AcDbEntity
  8
0
100
AcDbCircle
 10
5.175
 20
4.1
 30
0.0
 40
0.003
100
AcDbArc
 50
139.51
 51
180.048
  0
ARC
  5
571
330
18
100
AcDbEntity
  8
0
100
AcDbCircle
 10
5.175
 20
4.096
 30
0.0
 40
0.003
100
AcDbArc
 50
180.048
 51
220.586
  0
ARC
  5
572
330
18
100
AcDbEntity
  8
0
100
AcDbCircle
 10
5.18
 20
4.1
 30
0.0
 40
0.01
100
AcDbArc
 50
220.586
 51
244.206
  0
ARC
  5
573
330
18
100
AcDbEntity
  8
0
100
AcDbCircle
 10
5.183
 20
4.107
 30
0.0
 40
0.017
100
AcDbArc
 50
244.206
 51
258.704
  0
ARC
  5
574
330
18
100
AcDbEntity
  8
0
100
AcDbCircle
 10
5.185
 20
4.118
 30
0.0
 40
0.028
100
AcDbArc
 50
258.704
 51
270.048
  0
ARC
  5
575
330
18
100
AcDbEntity
  8
0
100
AcDbCircle
 10
5.185
 20
4.118
 30
0.0
 40
0.028
100
AcDbArc
 50
270.048
 51
281.392
  0
ARC
  5
576
330
18
100
AcDbEntity
  8
0
100
AcDbCircle
 10
5.188
 20
4.107
 30
0.0
 40
0.017
100
AcDbArc
 50
281.392
 51
295.89
  0
ARC
  5
577
330
18
100
AcDbEntity
  8
0
100
AcDbCircle
 10
5.191
 20
4.1
 30
0.0
 40
0.01
100
AcDbArc
 50
295.89
 51
319.51
  0
ARC
  5
578
330
18
100
AcDbEntity
  8
0
100
AcDbCircle
 10
5.196000000000001
 20
4.096
 30
0.0
 40
0.003
100
AcDbArc
 50
319.51
 51
0.048
  0
ARC
  5
579
330
18
100
AcDbEntity
  8
0
100
AcDbCircle
 10
5.196000000000001
 20
4.096
 30
0.0
 40
0.003
100
AcDbArc
 50
0.048
 51
36.551
  0
ARC
  5
57A
330
18
100
AcDbEntity
  8
0
100
AcDbCircle
 10
5.175
 20
4.096
 30
0.0
 40
0.003
100
AcDbArc
 50
143.449
 51
180.048
  0
LINE
  5
57B
330
18
100
AcDbEntity
  8
0
100
AcDbLine
 10
6.664
 20
2.691
 30
0.0
 11
6.664
 21
3.092
 31
0.0
  0
LINE
  5
57C
330
18
100
AcDbEntity
  8
0
100
AcDbLine
 10
6.656000000000001
 20
3.108
 30
0.0
 11
6.303999999999999
 21
3.38
 31
0.0
  0
LINE
  5
57D
330
18
100
AcDbEntity
  8
0
100
AcDbLine
 10
6.303999999999999
 20
3.38
 30
0.0
 11
6.303999999999999
 21
3.451
 31
0.0
  0
LINE
  5
57E
330
18
100
AcDbEntity
  8
0
100
AcDbLine
 10
6.683
 20
2.702
 30
0.0
 11
6.683
 21
3.104
 31
0.0
  0
LINE
  5
57F
330
18
100
AcDbEntity
  8
0
100
AcDbLine
 10
6.675
 20
3.12
 30
0.0
 11
6.323
 21
3.387
 31
0.0
  0
LINE
  5
580
330
18
100
AcDbEntity
  8
0
100
AcDbLine
 10
6.323
 20
3.387
 30
0.0
 11
6.316
 21
3.443
 31
0.0
  0
LINE
  5
581
330
18
100
AcDbEntity
  8
0
100
AcDbLine
 10
6.617999999999999
 20
2.85
 30
0.0
 11
6.598
 21
2.852
 31
0.0
  0
LINE
  5
582
330
18
100
AcDbEntity
  8
0
100
AcDbLine
 10
6.614
 20
2.814
 30
0.0
 11
6.626
 21
2.831
 31
0.0
  0
LINE
  5
583
330
18
100
AcDbEntity
  8
0
100
AcDbLine
 10
6.626
 20
2.831
 30
0.0
 11
6.617999999999999
 21
2.85
 31
0.0
  0
LINE
  5
584
330
18
100
AcDbEntity
  8
0
100
AcDbLine
 10
6.591
 20
2.847
 30
0.0
 11
6.598
 21
2.852
 31
0.0
  0
LINE
  5
585
330
18
100
AcDbEntity
  8
0
100
AcDbLine
 10
6.611000000000001
 20
2.844
 30
0.0
 11
6.617999999999999
 21
2.85
 31
0.0
  0
LINE
  5
586
330
18
100
AcDbEntity
  8
0
100
AcDbLine
 10
6.619
 20
2.825
 30
0.0
 11
6.619
 21
2.825
 31
0.0
  0
LINE
  5
587
330
18
100
AcDbEntity
  8
0
100
AcDbLine
 10
6.607
 20
2.809
 30
0.0
 11
6.614
 21
2.814
 31
0.0
  0
LINE
  5
588
330
18
100
AcDbEntity
  8
0
100
AcDbLine
 10
6.611000000000001
 20
2.844
 30
0.0
 11
6.591
 21
2.847
 31
0.0
  0
LINE
  5
589
330
18
100
AcDbEntity
  8
0
100
AcDbLine
 10
6.591
 20
2.847
 30
0.0
 11
6.577999999999999
 21
2.83
 31
0.0
  0
LINE
  5
58A
330
18
100
AcDbEntity
  8
0
100
AcDbLine
 10
6.577999999999999
 20
2.83
 30
0.0
 11
6.586
 21
2.811
 31
0.0
  0
LINE
  5
58B
330
18
100
AcDbEntity
  8
0
100
AcDbLine
 10
6.586
 20
2.811
 30
0.0
 11
6.607
 21
2.809
 31
0.0
  0
LINE
  5
58C
330
18
100
AcDbEntity
  8
0
100
AcDbLine
 10
6.607
 20
2.809
 30
0.0
 11
6.619
 21
2.825
 31
0.0
  0
LINE
  5
58D
330
18
100
AcDbEntity
  8
0
100
AcDbLine
 10
6.619
 20
2.825
 30
0.0
 11
6.611000000000001
 21
2.844
 31
0.0
  0
LINE
  5
58E
330
18
100
AcDbEntity
  8
0
100
AcDbLine
 10
6.501
 20
2.904
 30
0.0
 11
6.48
 21
2.906
 31
0.0
  0
LINE
  5
58F
330
18
100
AcDbEntity
  8
0
100
AcDbLine
 10
6.496
 20
2.868
 30
0.0
 11
6.509
 21
2.884
 31
0.0
  0
LINE
  5
590
330
18
100
AcDbEntity
  8
0
100
AcDbLine
 10
6.509
 20
2.884
 30
0.0
 11
6.501
 21
2.904
 31
0.0
  0
LINE
  5
591
330
18
100
AcDbEntity
  8
0
100
AcDbLine
 10
6.473
 20
2.901
 30
0.0
 11
6.48
 21
2.906
 31
0.0
  0
LINE
  5
592
330
18
100
AcDbEntity
  8
0
100
AcDbLine
 10
6.494
 20
2.898
 30
0.0
 11
6.501
 21
2.904
 31
0.0
  0
LINE
  5
593
330
18
100
AcDbEntity
  8
0
100
AcDbLine
 10
6.502000000000001
 20
2.879
 30
0.0
 11
6.502000000000001
 21
2.879
 31
0.0
  0
LINE
  5
594
330
18
100
AcDbEntity
  8
0
100
AcDbLine
 10
6.489
 20
2.862
 30
0.0
 11
6.496
 21
2.868
 31
0.0
  0
LINE
  5
595
330
18
100
AcDbEntity
  8
0
100
AcDbLine
 10
6.494
 20
2.898
 30
0.0
 11
6.473
 21
2.901
 31
0.0
  0
LINE
  5
596
330
18
100
AcDbEntity
  8
0
100
AcDbLine
 10
6.473
 20
2.901
 30
0.0
 11
6.46
 21
2.884
 31
0.0
  0
LINE
  5
597
330
18
100
AcDbEntity
  8
0
100
AcDbLine
 10
6.46
 20
2.884
 30
0.0
 11
6.468
 21
2.865
 31
0.0
  0
LINE
  5
598
330
18
100
AcDbEntity
  8
0
100
AcDbLine
 10
6.468
 20
2.865
 30
0.0
 11
6.489
 21
2.862
 31
0.0
  0
LINE
  5
599
330
18
100
AcDbEntity
  8
0
100
AcDbLine
 10
6.489
 20
2.862
 30
0.0
 11
6.502000000000001
 21
2.879
 31
0.0
  0
LINE
  5
59A
330
18
100
AcDbEntity
  8
0
100
AcDbLine
 10
6.502000000000001
 20
2.879
 30
0.0
 11
6.494
 21
2.898
 31
0.0
  0
ARC
  5
59B
330
18
100
AcDbEntity
  8
0
100
AcDbCircle
 10
6.644
 20
3.092
 30
0.0
 40
0.021
100
AcDbArc
 50
0.0
 51
52.28
  0
ARC
  5
59C
330
18
100
AcDbEntity
  8
0
100
AcDbCircle
 10
6.662000000000001
 20
3.104
 30
0.0
 40
0.021
100
AcDbArc
 50
0.0
 51
52.90900000000001
  0
LINE
  5
59D
330
18
100
AcDbEntity
  8
0
100
AcDbLine
 10
6.294
 20
2.966
 30
0.0
 11
5.935
 21
3.261
 31
0.0
  0
LINE
  5
59E
330
18
100
AcDbEntity
  8
0
100
AcDbLine
 10
5.935
 20
3.261
 30
0.0
 11
5.935
 21
3.63
 31
0.0
  0
LINE
  5
59F
330
18
100
AcDbEntity
  8
0
100
AcDbLine
 10
5.935
 20
3.63
 30
0.0
 11
6.302000000000001
 21
3.467
 31
0.0
  0
LINE
  5
5A0
330
18
100
AcDbEntity
  8
0
100
AcDbLine
 10
6.013
 20
3.504
 30
0.0
 11
5.992999999999999
 21
3.507
 31
0.0
  0
LINE
  5
5A1
330
18
100
AcDbEntity
  8
0
100
AcDbLine
 10
6.009
 20
3.468
 30
0.0
 11
6.021
 21
3.485
 31
0.0
  0
LINE
  5
5A2
330
18
100
AcDbEntity
  8
0
100
AcDbLine
 10
6.021
 20
3.485
 30
0.0
 11
6.013
 21
3.504
 31
0.0
  0
LINE
  5
5A3
330
18
100
AcDbEntity
  8
0
100
AcDbLine
 10
5.986000000000001
 20
3.501
 30
0.0
 11
5.992999999999999
 21
3.507
 31
0.0
  0
LINE
  5
5A4
330
18
100
AcDbEntity
  8
0
100
AcDbLine
 10
6.006
 20
3.499
 30
0.0
 11
6.013
 21
3.504
 31
0.0
  0
LINE
  5
5A5
330
18
100
AcDbEntity
  8
0
100
AcDbLine
 10
6.013999999999999
 20
3.479
 30
0.0
 11
6.013999999999999
 21
3.479
 31
0.0
  0
LINE
  5
5A6
330
18
100
AcDbEntity
  8
0
100
AcDbLine
 10
6.002000000000001
 20
3.463
 30
0.0
 11
6.009
 21
3.468
 31
0.0
  0
LINE
  5
5A7
330
18
100
AcDbEntity
  8
0
100
AcDbLine
 10
6.006
 20
3.499
 30
0.0
 11
5.986000000000001
 21
3.501
 31
0.0
  0
LINE
  5
5A8
330
18
100
AcDbEntity
  8
0
100
AcDbLine
 10
5.986000000000001
 20
3.501
 30
0.0
 11
5.973
 21
3.485
 31
0.0
  0
LINE
  5
5A9
330
18
100
AcDbEntity
  8
0
100
AcDbLine
 10
5.973
 20
3.485
 30
0.0
 11
5.981
 21
3.465
 31
0.0
  0
LINE
  5
5AA
330
18
100
AcDbEntity
  8
0
100
AcDbLine
 10
5.981
 20
3.465
 30
0.0
 11
6.002000000000001
 21
3.463
 31
0.0
  0
LINE
  5
5AB
330
18
100
AcDbEntity
  8
0
100
AcDbLine
 10
6.002000000000001
 20
3.463
 30
0.0
 11
6.013999999999999
 21
3.479
 31
0.0
  0
LINE
  5
5AC
330
18
100
AcDbEntity
  8
0
100
AcDbLine
 10
6.013999999999999
 20
3.479
 30
0.0
 11
6.006
 21
3.499
 31
0.0
  0
LINE
  5
5AD
330
18
100
AcDbEntity
  8
0
100
AcDbLine
 10
6.125
 20
3.461
 30
0.0
 11
6.104
 21
3.463
 31
0.0
  0
LINE
  5
5AE
330
18
100
AcDbEntity
  8
0
100
AcDbLine
 10
6.12
 20
3.425
 30
0.0
 11
6.132999999999999
 21
3.441
 31
0.0
  0
LINE
  5
5AF
330
18
100
AcDbEntity
  8
0
100
AcDbLine
 10
6.132999999999999
 20
3.441
 30
0.0
 11
6.125
 21
3.461
 31
0.0
  0
LINE
  5
5B0
330
18
100
AcDbEntity
  8
0
100
AcDbLine
 10
6.097
 20
3.458
 30
0.0
 11
6.104
 21
3.463
 31
0.0
  0
LINE
  5
5B1
330
18
100
AcDbEntity
  8
0
100
AcDbLine
 10
6.117999999999999
 20
3.455
 30
0.0
 11
6.125
 21
3.461
 31
0.0
  0
LINE
  5
5B2
330
18
100
AcDbEntity
  8
0
100
AcDbLine
 10
6.126
 20
3.436
 30
0.0
 11
6.126
 21
3.436
 31
0.0
  0
LINE
  5
5B3
330
18
100
AcDbEntity
  8
0
100
AcDbLine
 10
6.113
 20
3.419
 30
0.0
 11
6.12
 21
3.425
 31
0.0
  0
LINE
  5
5B4
330
18
100
AcDbEntity
  8
0
100
AcDbLine
 10
6.117999999999999
 20
3.455
 30
0.0
 11
6.097
 21
3.458
 31
0.0
  0
LINE
  5
5B5
330
18
100
AcDbEntity
  8
0
100
AcDbLine
 10
6.097
 20
3.458
 30
0.0
 11
6.084
 21
3.441
 31
0.0
  0
LINE
  5
5B6
330
18
100
AcDbEntity
  8
0
100
AcDbLine
 10
6.084
 20
3.441
 30
0.0
 11
6.093
 21
3.422
 31
0.0
  0
LINE
  5
5B7
330
18
100
AcDbEntity
  8
0
100
AcDbLine
 10
6.093
 20
3.422
 30
0.0
 11
6.113
 21
3.419
 31
0.0
  0
LINE
  5
5B8
330
18
100
AcDbEntity
  8
0
100
AcDbLine
 10
6.113
 20
3.419
 30
0.0
 11
6.126
 21
3.436
 31
0.0
  0
LINE
  5
5B9
330
18
100
AcDbEntity
  8
0
100
AcDbLine
 10
6.126
 20
3.436
 30
0.0
 11
6.117999999999999
 21
3.455
 31
0.0
  0
LINE
  5
5BA
330
18
100
AcDbEntity
  8
0
100
AcDbLine
 10
6.297999999999999
 20
3.457
 30
0.0
 11
5.937
 21
3.614
 31
0.0
  0
TEXT
  5
5BB
330
18
100
AcDbEntity
  8
DIM
100
AcDbText
 10
0.7921199999999999
 20
1.914645
 30
0.0
 40
0.175
  1
Simpson Strong-Tie
100
AcDbText
  0
TEXT
  5
5BC
330
18
100
AcDbEntity
  8
DIM
100
AcDbText
 10
0.7921199999999999
 20
1.631312
 30
0.0
 40
0.175
  1
Panelize
100
AcDbText
  0
LINE
  5
5BD
330
18
100
AcDbEntity
  8
0
100
AcDbLine
 10
3.956
 20
5.73
 30
0.0
 11
4.037
 21
5.73
 31
0.0
  0
LINE
  5
5BE
330
18
100
AcDbEntity
  8
0
100
AcDbLine
 10
3.956
 20
5.74
 30
0.0
 11
4.037
 21
5.74
 31
0.0
  0
LINE
  5
5BF
330
18
100
AcDbEntity
  8
0
100
AcDbLine
 10
3.956
 20
5.75
 30
0.0
 11
4.037
 21
5.75
 31
0.0
  0
LINE
  5
5C0
330
18
100
AcDbEntity
  8
0
100
AcDbLine
 10
3.956
 20
5.76
 30
0.0
 11
4.037
 21
5.76
 31
0.0
  0
LINE
  5
5C1
330
18
100
AcDbEntity
  8
0
100
AcDbLine
 10
3.956
 20
5.77
 30
0.0
 11
4.037
 21
5.77
 31
0.0
  0
LINE
  5
5C2
330
18
100
AcDbEntity
  8
0
100
AcDbLine
 10
3.956
 20
5.78
 30
0.0
 11
4.037
 21
5.78
 31
0.0
  0
LINE
  5
5C3
330
18
100
AcDbEntity
  8
0
100
AcDbLine
 10
3.964
 20
5.79
 30
0.0
 11
4.037
 21
5.79
 31
0.0
  0
LINE
  5
5C4
330
18
100
AcDbEntity
  8
0
100
AcDbLine
 10
3.994
 20
5.8
 30
0.0
 11
4.037
 21
5.8
 31
0.0
  0
LINE
  5
5C5
330
18
100
AcDbEntity
  8
0
100
AcDbLine
 10
4.024
 20
5.81
 30
0.0
 11
4.037
 21
5.81
 31
0.0
  0
LINE
  5
5C6
330
18
100
AcDbEntity
  8
0
100
AcDbLine
 10
3.956
 20
5.72
 30
0.0
 11
4.037
 21
5.72
 31
0.0
  0
LINE
  5
5C7
330
18
100
AcDbEntity
  8
0
100
AcDbLine
 10
3.956
 20
5.71
 30
0.0
 11
4.037
 21
5.71
 31
0.0
  0
LINE
  5
5C8
330
18
100
AcDbEntity
  8
0
100
AcDbLine
 10
3.956
 20
5.7
 30
0.0
 11
4.037
 21
5.7
 31
0.0
  0
LINE
  5
5C9
330
18
100
AcDbEntity
  8
0
100
AcDbLine
 10
3.956
 20
5.69
 30
0.0
 11
4.037
 21
5.69
 31
0.0
  0
LINE
  5
5CA
330
18
100
AcDbEntity
  8
0
100
AcDbLine
 10
3.956
 20
5.68
 30
0.0
 11
4.037
 21
5.68
 31
0.0
  0
LINE
  5
5CB
330
18
100
AcDbEntity
  8
0
100
AcDbLine
 10
3.956
 20
5.67
 30
0.0
 11
4.023
 21
5.67
 31
0.0
  0
LINE
  5
5CC
330
18
100
AcDbEntity
  8
0
100
AcDbLine
 10
3.956
 20
5.66
 30
0.0
 11
3.993
 21
5.66
 31
0.0
  0
LINE
  5
5CD
330
18
100
AcDbEntity
  8
0
100
AcDbLine
 10
3.956
 20
5.65
 30
0.0
 11
3.963
 21
5.65
 31
0.0
  0
LINE
  5
5CE
330
18
100
AcDbEntity
  8
0
100
AcDbLine
 10
3.216
 20
5.48
 30
0.0
 11
3.248
 21
5.48
 31
0.0
  0
LINE
  5
5CF
330
18
100
AcDbEntity
  8
0
100
AcDbLine
 10
3.272
 20
5.48
 30
0.0
 11
3.298
 21
5.48
 31
0.0
  0
LINE
  5
5D0
330
18
100
AcDbEntity
  8
0
100
AcDbLine
 10
3.216
 20
5.49
 30
0.0
 11
3.248
 21
5.49
 31
0.0
  0
LINE
  5
5D1
330
18
100
AcDbEntity
  8
0
100
AcDbLine
 10
3.272
 20
5.49
 30
0.0
 11
3.298
 21
5.49
 31
0.0
  0
LINE
  5
5D2
330
18
100
AcDbEntity
  8
0
100
AcDbLine
 10
3.216
 20
5.5
 30
0.0
 11
3.248
 21
5.5
 31
0.0
  0
LINE
  5
5D3
330
18
100
AcDbEntity
  8
0
100
AcDbLine
 10
3.272
 20
5.5
 30
0.0
 11
3.298
 21
5.5
 31
0.0
  0
LINE
  5
5D4
330
18
100
AcDbEntity
  8
0
100
AcDbLine
 10
3.216
 20
5.51
 30
0.0
 11
3.248
 21
5.51
 31
0.0
  0
LINE
  5
5D5
330
18
100
AcDbEntity
  8
0
100
AcDbLine
 10
3.272
 20
5.51
 30
0.0
 11
3.298
 21
5.51
 31
0.0
  0
LINE
  5
5D6
330
18
100
AcDbEntity
  8
0
100
AcDbLine
 10
3.216
 20
5.52
 30
0.0
 11
3.248
 21
5.52
 31
0.0
  0
LINE
  5
5D7
330
18
100
AcDbEntity
  8
0
100
AcDbLine
 10
3.272
 20
5.52
 30
0.0
 11
3.298
 21
5.52
 31
0.0
  0
LINE
  5
5D8
330
18
100
AcDbEntity
  8
0
100
AcDbLine
 10
3.216
 20
5.53
 30
0.0
 11
3.298
 21
5.53
 31
0.0
  0
LINE
  5
5D9
330
18
100
AcDbEntity
  8
0
100
AcDbLine
 10
3.217
 20
5.54
 30
0.0
 11
3.298
 21
5.54
 31
0.0
  0
LINE
  5
5DA
330
18
100
AcDbEntity
  8
0
100
AcDbLine
 10
3.247
 20
5.55
 30
0.0
 11
3.298
 21
5.55
 31
0.0
  0
LINE
  5
5DB
330
18
100
AcDbEntity
  8
0
100
AcDbLine
 10
3.277
 20
5.56
 30
0.0
 11
3.298
 21
5.56
 31
0.0
  0
LINE
  5
5DC
330
18
100
AcDbEntity
  8
0
100
AcDbLine
 10
3.216
 20
5.47
 30
0.0
 11
3.248
 21
5.47
 31
0.0
  0
LINE
  5
5DD
330
18
100
AcDbEntity
  8
0
100
AcDbLine
 10
3.272
 20
5.47
 30
0.0
 11
3.298
 21
5.47
 31
0.0
  0
LINE
  5
5DE
330
18
100
AcDbEntity
  8
0
100
AcDbLine
 10
3.216
 20
5.46
 30
0.0
 11
3.248
 21
5.46
 31
0.0
  0
LINE
  5
5DF
330
18
100
AcDbEntity
  8
0
100
AcDbLine
 10
3.272
 20
5.46
 30
0.0
 11
3.298
 21
5.46
 31
0.0
  0
LINE
  5
5E0
330
18
100
AcDbEntity
  8
0
100
AcDbLine
 10
3.216
 20
5.45
 30
0.0
 11
3.248
 21
5.45
 31
0.0
  0
LINE
  5
5E1
330
18
100
AcDbEntity
  8
0
100
AcDbLine
 10
3.272
 20
5.45
 30
0.0
 11
3.298
 21
5.45
 31
0.0
  0
LINE
  5
5E2
330
18
100
AcDbEntity
  8
0
100
AcDbLine
 10
3.216
 20
5.44
 30
0.0
 11
3.248
 21
5.44
 31
0.0
  0
LINE
  5
5E3
330
18
100
AcDbEntity
  8
0
100
AcDbLine
 10
3.272
 20
5.44
 30
0.0
 11
3.298
 21
5.44
 31
0.0
  0
LINE
  5
5E4
330
18
100
AcDbEntity
  8
0
100
AcDbLine
 10
3.216
 20
5.43
 30
0.0
 11
3.248
 21
5.43
 31
0.0
  0
LINE
  5
5E5
330
18
100
AcDbEntity
  8
0
100
AcDbLine
 10
3.272
 20
5.43
 30
0.0
 11
3.298
 21
5.43
 31
0.0
  0
LINE
  5
5E6
330
18
100
AcDbEntity
  8
0
100
AcDbLine
 10
3.216
 20
5.42
 30
0.0
 11
3.248
 21
5.42
 31
0.0
  0
LINE
  5
5E7
330
18
100
AcDbEntity
  8
0
100
AcDbLine
 10
3.272
 20
5.42
 30
0.0
 11
3.276
 21
5.42
 31
0.0
  0
LINE
  5
5E8
330
18
100
AcDbEntity
  8
0
100
AcDbLine
 10
3.216
 20
5.41
 30
0.0
 11
3.246
 21
5.41
 31
0.0
  0
ENDSEC
  0
SECTION
  2
OBJECTS
  0
DICTIONARY
  5
C
330
0
100
AcDbDictionary
281
     1
  3
ACAD_COLOR
350
5EE
  3
ACAD_GROUP
350
D
  3
ACAD_LAYOUT
350
15
  3
ACAD_MATERIAL
350
5F0
  3
ACAD_MLINESTYLE
350
12
  3
ACAD_PLOTSETTINGS
350
14
  3
ACAD_PLOTSTYLENAME
350
E
  3
ACDBHEADERROUNDTRIPXREC
350
5ED
  0
DICTIONARY
  5
5EE
102
{ACAD_REACTORS
330
C
102
}
330
C
100
AcDbDictionary
281
     1
  0
DICTIONARY
  5
D
102
{ACAD_REACTORS
330
C
102
}
330
C
100
AcDbDictionary
281
     1
  0
DICTIONARY
  5
15
102
{ACAD_REACTORS
330
C
102
}
330
C
100
AcDbDictionary
281
     1
  3
Layout1
350
17
  3
Model
350
19
  0
DICTIONARY
  5
5F0
102
{ACAD_REACTORS
330
C
102
}
330
C
100
AcDbDictionary
281
     1
  0
DICTIONARY
  5
12
102
{ACAD_REACTORS
330
C
102
}
330
C
100
AcDbDictionary
281
     1
  3
Standard
350
13
  0
DICTIONARY
  5
14
102
{ACAD_REACTORS
330
C
102
}
330
C
100
AcDbDictionary
281
     1
  0
ACDBDICTIONARYWDFLT
  5
E
102
{ACAD_REACTORS
330
C
102
}
330
C
100
AcDbDictionary
281
     1
  3
Normal
350
F
100
AcDbDictionaryWithDefault
340
F
  0
DICTIONARY
  5
5ED
102
{ACAD_REACTORS
330
C
102
}
330
C
100
AcDbDictionary
281
     1
  3
COLORDICT
350
5EF
  3
MATERIALDICT
350
5F1
  0
LAYOUT
  5
17
102
{ACAD_REACTORS
330
15
102
}
102
{ACAD_XDICTIONARY
360
5F2
102
}
330
15
100
AcDbPlotSettings
  1

  2

  4

  6

 40
0.0
 41
0.0
 42
0.0
 43
0.0
 44
0.0
 45
0.0
 46
0.0
 47
0.0
 48
0.0
 49
0.0
140
0.0
141
0.0
142
1.0
143
1.0
 70
   688
 72
     0
 73
     0
 74
     5
  7

 75
    16
147
1.0
148
0.0
149
0.0
100
AcDbLayout
  1
Layout1
 70
     1
 71
     1
 10
0.0
 20
0.0
 11
12.0
 21
9.0
 12
0.0
 22
0.0
 32
0.0
 14
1.000000000000000E+20
 24
1.000000000000000E+20
 34
1.000000000000000E+20
 15
-1.000000000000000E+20
 25
-1.000000000000000E+20
 35
-1.000000000000000E+20
146
0.0
 13
0.0
 23
0.0
 33
0.0
 16
1.0
 26
0.0
 36
0.0
 17
0.0
 27
1.0
 37
0.0
 76
     0
330
16
  0
LAYOUT
  5
19
102
{ACAD_REACTORS
330
15
102
}
102
{ACAD_XDICTIONARY
360
5F4
102
}
330
15
100
AcDbPlotSettings
  1

  2

  4

  6

 40
0.0
 41
0.0
 42
0.0
 43
0.0
 44
0.0
 45
0.0
 46
0.0
 47
0.0
 48
0.0
 49
0.0
140
0.0
141
0.0
142
1.0
143
1.0
 70
  1712
 72
     0
 73
     0
 74
     0
  7

 75
     0
147
1.0
148
0.0
149
0.0
100
AcDbLayout
  1
Model
 70
     1
 71
     0
 10
0.0
 20
0.0
 11
0.0
 21
0.0
 12
0.0
 22
0.0
 32
0.0
 14
0.0
 24
0.0
 34
0.0
 15
0.0
 25
0.0
 35
0.0
146
0.0
 13
0.0
 23
0.0
 33
0.0
 16
1.0
 26
0.0
 36
0.0
 17
0.0
 27
1.0
 37
0.0
 76
     0
330
18
  0
MLINESTYLE
  5
13
102
{ACAD_REACTORS
330
12
102
}
330
12
100
AcDbMlineStyle
  2
Standard
 70
     0
  3

 62
   256
 51
90.0
 52
90.0
 71
     2
 49
0.5
 62
   256
  6
BYLAYER
 49
-0.5
 62
   256
  6
BYLAYER
  0
ACDBPLACEHOLDER
  5
F
102
{ACAD_REACTORS
330
E
102
}
330
E
  0
XRECORD
  5
5EF
102
{ACAD_REACTORS
330
5ED
102
}
330
5ED
100
AcDbXrecord
340
5EE
  0
XRECORD
  5
5F1
102
{ACAD_REACTORS
330
5ED
102
}
330
5ED
100
AcDbXrecord
340
5F0
  0
DICTIONARY
  5
5F2
330
17
100
AcDbDictionary
280
     1
281
     1
  3
ACAD_XREC_ROUNDTRIP
360
5F3
  0
DICTIONARY
  5
5F4
330
19
100
AcDbDictionary
280
     1
281
     1
  3
ACAD_XREC_ROUNDTRIP
360
5F5
  0
XRECORD
  5
5F3
102
{ACAD_REACTORS
330
5F2
102
}
330
5F2
100
AcDbXrecord
102
SHADEPLOT
 70
     0
102
SHADEPLOTRESLEVEL
 70
     0
102
SHADEPLOTCUSTOMDPI
 70
     0
  0
XRECORD
  5
5F5
102
{ACAD_REACTORS
330
5F4
102
}
330
5F4
100
AcDbXrecord
102
SHADEPLOT
 70
     0
102
SHADEPLOTRESLEVEL
 70
     0
102
SHADEPLOTCUSTOMDPI
 70
     0
  0
ENDSEC
  0
EOF
