  0
SECTION
  2
HEADER
  9
$ACADVER
  1
AC1015
  9
$ACADMAINTVER
 70
     6
  9
$DWGCODEPAGE
  3
ANSI_1252
  9
$INSBASE
 10
0.0
 20
0.0
 30
0.0
  9
$EXTMIN
 10
0.506
 20
0.008195
 30
0.0
  9
$EXTMAX
 10
4.446913904761903
 20
7.2
 30
0.0
  9
$LIMMIN
 10
0.0
 20
0.0
  9
$LIMMAX
 10
12.0
 20
17.0
  9
$ORTHOMODE
 70
     1
  9
$REGENMODE
 70
     0
  9
$FILLMODE
 70
     1
  9
$QTEXTMODE
 70
     0
  9
$MIRRTEXT
 70
     1
  9
$LTSCALE
 40
0.25
  9
$ATTMODE
 70
     1
  9
$TEXTSIZE
 40
0.125
  9
$TRACEWID
 40
0.05
  9
$TEXTSTYLE
  7
STANDARD
  9
$CLAYER
  8
0
  9
$CELTYPE
  6
ByLayer
  9
$CECOLOR
 62
   256
  9
$CELTSCALE
 40
1.0
  9
$DISPSILH
 70
     0
  9
$DIMSCALE
 40
1.0
  9
$DIMASZ
 40
0.125
  9
$DIMEXO
 40
0.063
  9
$DIMDLI
 40
0.38
  9
$DIMRND
 40
0.0
  9
$DIMDLE
 40
0.0
  9
$DIMEXE
 40
0.18
  9
$DIMTP
 40
0.0
  9
$DIMTM
 40
0.0
  9
$DIMTXT
 40
0.1
  9
$DIMCEN
 40
0.09
  9
$DIMTSZ
 40
0.0
  9
$DIMTOL
 70
     0
  9
$DIMLIM
 70
     0
  9
$DIMTIH
 70
     1
  9
$DIMTOH
 70
     1
  9
$DIMSE1
 70
     0
  9
$DIMSE2
 70
     0
  9
$DIMTAD
 70
     0
  9
$DIMZIN
 70
     0
  9
$DIMBLK
  1

  9
$DIMASO
 70
     0
  9
$DIMSHO
 70
     0
  9
$DIMPOST
  1

  9
$DIMAPOST
  1

  9
$DIMALT
 70
     0
  9
$DIMALTD
 70
     2
  9
$DIMALTF
 40
25.4
  9
$DIMLFAC
 40
1.0
  9
$DIMTOFL
 70
     0
  9
$DIMTVP
 40
0.0
  9
$DIMTIX
 70
     0
  9
$DIMSOXD
 70
     0
  9
$DIMSAH
 70
     0
  9
$DIMBLK1
  1

  9
$DIMBLK2
  1

  9
$DIMSTYLE
  2
Standard
  9
$DIMCLRD
 70
     0
  9
$DIMCLRE
 70
     0
  9
$DIMCLRT
 70
     0
  9
$DIMTFAC
 40
1.0
  9
$DIMGAP
 40
0.09
  9
$DIMJUST
 70
     0
  9
$DIMSD1
 70
     0
  9
$DIMSD2
 70
     0
  9
$DIMTOLJ
 70
     1
  9
$DIMTZIN
 70
     0
  9
$DIMALTZ
 70
     0
  9
$DIMALTTZ
 70
     0
  9
$DIMUPT
 70
     0
  9
$DIMDEC
 70
     4
  9
$DIMTDEC
 70
     4
  9
$DIMALTU
 70
     2
  9
$DIMALTTD
 70
     2
  9
$DIMTXSTY
  7
STANDARD
  9
$DIMAUNIT
 70
     0
  9
$DIMADEC
 70
     0
  9
$DIMALTRND
 40
0.0
  9
$DIMAZIN
 70
     0
  9
$DIMDSEP
 70
    46
  9
$DIMATFIT
 70
     3
  9
$DIMFRAC
 70
     0
  9
$DIMLDRBLK
  1

  9
$DIMLUNIT
 70
     2
  9
$DIMLWD
 70
    -2
  9
$DIMLWE
 70
    -2
  9
$DIMTMOVE
 70
     0
  9
$LUNITS
 70
     2
  9
$LUPREC
 70
     4
  9
$SKETCHINC
 40
0.1
  9
$FILLETRAD
 40
0.3
  9
$AUNITS
 70
     0
  9
$AUPREC
 70
     0
  9
$MENU
  1
acad
  9
$ELEVATION
 40
0.0
  9
$PELEVATION
 40
0.0
  9
$THICKNESS
 40
0.0
  9
$LIMCHECK
 70
     0
  9
$CHAMFERA
 40
0.0
  9
$CHAMFERB
 40
0.0
  9
$CHAMFERC
 40
1.0
  9
$CHAMFERD
 40
0.0
  9
$SKPOLY
 70
     0
  9
$TDCREATE
 40
2453955.561210359
  9
$TDUCREATE
 40
2453955.894543692
  9
$TDUPDATE
 40
2453955.602877037
  9
$TDUUPDATE
 40
2453955.894543704
  9
$TDINDWG
 40
0.0000000116
  9
$TDUSRTIMER
 40
0.0000000116
  9
$USRTIMER
 70
     1
  9
$ANGBASE
 50
0.0
  9
$ANGDIR
 70
     0
  9
$PDMODE
 70
     0
  9
$PDSIZE
 40
0.0
  9
$PLINEWID
 40
0.0
  9
$SPLFRAME
 70
     0
  9
$SPLINETYPE
 70
     6
  9
$SPLINESEGS
 70
     8
  9
$HANDSEED
  5
4D9
  9
$SURFTAB1
 70
     6
  9
$SURFTAB2
 70
     6
  9
$SURFTYPE
 70
     6
  9
$SURFU
 70
     6
  9
$SURFV
 70
     6
  9
$UCSBASE
  2

  9
$UCSNAME
  2

  9
$UCSORG
 10
0.0
 20
0.0
 30
0.0
  9
$UCSXDIR
 10
1.0
 20
0.0
 30
0.0
  9
$UCSYDIR
 10
0.0
 20
1.0
 30
0.0
  9
$UCSORTHOREF
  2

  9
$UCSORTHOVIEW
 70
     0
  9
$UCSORGTOP
 10
0.0
 20
0.0
 30
0.0
  9
$UCSORGBOTTOM
 10
0.0
 20
0.0
 30
0.0
  9
$UCSORGLEFT
 10
0.0
 20
0.0
 30
0.0
  9
$UCSORGRIGHT
 10
0.0
 20
0.0
 30
0.0
  9
$UCSORGFRONT
 10
0.0
 20
0.0
 30
0.0
  9
$UCSORGBACK
 10
0.0
 20
0.0
 30
0.0
  9
$PUCSBASE
  2

  9
$PUCSNAME
  2

  9
$PUCSORG
 10
0.0
 20
0.0
 30
0.0
  9
$PUCSXDIR
 10
1.0
 20
0.0
 30
0.0
  9
$PUCSYDIR
 10
0.0
 20
1.0
 30
0.0
  9
$PUCSORTHOREF
  2

  9
$PUCSORTHOVIEW
 70
     0
  9
$PUCSORGTOP
 10
0.0
 20
0.0
 30
0.0
  9
$PUCSORGBOTTOM
 10
0.0
 20
0.0
 30
0.0
  9
$PUCSORGLEFT
 10
0.0
 20
0.0
 30
0.0
  9
$PUCSORGRIGHT
 10
0.0
 20
0.0
 30
0.0
  9
$PUCSORGFRONT
 10
0.0
 20
0.0
 30
0.0
  9
$PUCSORGBACK
 10
0.0
 20
0.0
 30
0.0
  9
$USERI1
 70
     0
  9
$USERI2
 70
     0
  9
$USERI3
 70
     0
  9
$USERI4
 70
     0
  9
$USERI5
 70
     0
  9
$USERR1
 40
0.0
  9
$USERR2
 40
0.0
  9
$USERR3
 40
0.0
  9
$USERR4
 40
0.0
  9
$USERR5
 40
0.0
  9
$WORLDVIEW
 70
     1
  9
$SHADEDGE
 70
     3
  9
$SHADEDIF
 70
    70
  9
$TILEMODE
 70
     1
  9
$MAXACTVP
 70
    16
  9
$PINSBASE
 10
0.0
 20
0.0
 30
0.0
  9
$PLIMCHECK
 70
     0
  9
$PEXTMIN
 10
1.000000000000000E+20
 20
1.000000000000000E+20
 30
1.000000000000000E+20
  9
$PEXTMAX
 10
-1.000000000000000E+20
 20
-1.000000000000000E+20
 30
-1.000000000000000E+20
  9
$PLIMMIN
 10
0.0
 20
0.0
  9
$PLIMMAX
 10
12.0
 20
9.0
  9
$UNITMODE
 70
     0
  9
$VISRETAIN
 70
     0
  9
$PLINEGEN
 70
     0
  9
$PSLTSCALE
 70
     0
  9
$TREEDEPTH
 70
  3020
  9
$CMLSTYLE
  2
Standard
  9
$CMLJUST
 70
     0
  9
$CMLSCALE
 40
1.0
  9
$PROXYGRAPHICS
 70
     1
  9
$MEASUREMENT
 70
     0
  9
$CELWEIGHT
370
    -1
  9
$ENDCAPS
280
     0
  9
$JOINSTYLE
280
     0
  9
$LWDISPLAY
290
     0
  9
$INSUNITS
 70
     1
  9
$HYPERLINKBASE
  1

  9
$STYLESHEET
  1

  9
$XEDIT
290
     1
  9
$CEPSNTYPE
380
     0
  9
$PSTYLEMODE
290
     0
  9
$FINGERPRINTGUID
  2
{FAEB1C30-E019-11D5-929B-00C0DF256EC4}
  9
$VERSIONGUID
  2
{FAEB1C32-E019-11D5-929B-00C0DF256EC4}
  9
$EXTNAMES
290
     1
  9
$PSVPSCALE
 40
0.0
  9
$OLESTARTUP
290
     0
  0
ENDSEC
  0
SECTION
  2
CLASSES
  0
CLASS
  1
ACDBDICTIONARYWDFLT
  2
AcDbDictionaryWithDefault
  3
AutoCAD 2000
 90
        0
280
     0
281
     0
  0
CLASS
  1
ACDBPLACEHOLDER
  2
AcDbPlaceHolder
  3
ObjectDBX Classes
 90
        0
280
     0
281
     0
  0
CLASS
  1
LAYOUT
  2
AcDbLayout
  3
ObjectDBX Classes
 90
        0
280
     0
281
     0
  0
ENDSEC
  0
SECTION
  2
TABLES
  0
TABLE
  2
VPORT
  5
8
330
0
100
AcDbSymbolTable
 70
     2
  0
VPORT
  5
1F
330
8
100
AcDbSymbolTableRecord
100
AcDbViewportTableRecord
  2
*ACTIVE
 70
     0
 10
0.0
 20
0.0
 11
1.0
 21
1.0
 12
11.79297820823245
 22
8.5
 13
0.0
 23
0.0
 14
0.025
 24
0.025
 15
0.0
 25
0.0
 16
0.0
 26
0.0
 36
1.0
 17
0.0
 27
0.0
 37
0.0
 40
17.0
 41
0.7207678883071553
 42
50.0
 43
0.0
 44
0.0
 50
0.0
 51
0.0
 71
     0
 72
  2000
 73
     1
 74
     0
 75
     0
 76
     0
 77
     0
 78
     0
281
     0
 65
     1
110
0.0
120
0.0
130
0.0
111
1.0
121
0.0
131
0.0
112
0.0
122
1.0
132
0.0
 79
     0
146
0.0
  0
ENDTAB
  0
TABLE
  2
LTYPE
  5
5
330
0
100
AcDbSymbolTable
 70
     2
  0
LTYPE
  5
10
330
5
100
AcDbSymbolTableRecord
100
AcDbLinetypeTableRecord
  2
ByBlock
 70
     0
  3

 72
    65
 73
     0
 40
0.0
  0
LTYPE
  5
11
330
5
100
AcDbSymbolTableRecord
100
AcDbLinetypeTableRecord
  2
ByLayer
 70
     0
  3

 72
    65
 73
     0
 40
0.0
  0
LTYPE
  5
1B
330
5
100
AcDbSymbolTableRecord
100
AcDbLinetypeTableRecord
  2
CONTINUOUS
 70
     0
  3
Solid line
 72
    65
 73
     0
 40
0.0
  0
LTYPE
  5
1C
330
5
100
AcDbSymbolTableRecord
100
AcDbLinetypeTableRecord
  2
HIDDEN
 70
     0
  3
__ __ __ __ __ __ __ __ __ __ __ __ __ __ __ __
 72
    65
 73
     2
 40
0.375
 49
0.25
 74
     0
 49
-0.125
 74
     0
  0
ENDTAB
  0
TABLE
  2
LAYER
  5
2
330
0
100
AcDbSymbolTable
 70
     1
  0
LAYER
  5
1D
330
2
100
AcDbSymbolTableRecord
100
AcDbLayerTableRecord
  2
0
 70
     0
 62
     7
  6
CONTINUOUS
370
    -3
390
F
  0
ENDTAB
  0
TABLE
  2
STYLE
  5
3
330
0
100
AcDbSymbolTable
 70
     1
  0
STYLE
  5
21
330
3
100
AcDbSymbolTableRecord
100
AcDbTextStyleTableRecord
  2
STANDARD
 70
     0
 40
0.0
 41
1.0
 50
0.0
 71
     0
 42
0.125
  3
romans
  4

  0
ENDTAB
  0
TABLE
  2
VIEW
  5
6
330
0
100
AcDbSymbolTable
 70
     0
  0
ENDTAB
  0
TABLE
  2
UCS
  5
7
330
0
100
AcDbSymbolTable
 70
     0
  0
ENDTAB
  0
TABLE
  2
APPID
  5
9
330
0
100
AcDbSymbolTable
 70
     1
  0
APPID
  5
20
330
9
100
AcDbSymbolTableRecord
100
AcDbRegAppTableRecord
  2
ACAD
 70
     0
  0
ENDTAB
  0
TABLE
  2
DIMSTYLE
  5
A
330
0
100
AcDbSymbolTable
 70
     1
100
AcDbDimStyleTable
  0
DIMSTYLE
105
22
330
A
100
AcDbSymbolTableRecord
100
AcDbDimStyleTableRecord
  2
Standard
 70
     0
  3

  4

340
21
  0
ENDTAB
  0
TABLE
  2
BLOCK_RECORD
  5
1
330
0
100
AcDbSymbolTable
 70
     0
  0
BLOCK_RECORD
  5
18
330
1
100
AcDbSymbolTableRecord
100
AcDbBlockTableRecord
  2
*Model_Space
340
19
  0
BLOCK_RECORD
  5
16
330
1
100
AcDbSymbolTableRecord
100
AcDbBlockTableRecord
  2
*Paper_Space
340
17
  0
ENDTAB
  0
ENDSEC
  0
SECTION
  2
BLOCKS
  0
BLOCK
  5
4CE
330
18
100
AcDbEntity
  8
0
100
AcDbBlockBegin
  2
*Model_Space
 70
     0
 10
0.0
 20
0.0
 30
0.0
  3
*Model_Space
  1

  4

  0
ENDBLK
  5
4CF
330
18
100
AcDbEntity
  8
0
100
AcDbBlockEnd
  0
BLOCK
  5
4CC
330
16
100
AcDbEntity
 67
     1
  8
0
100
AcDbBlockBegin
  2
*Paper_Space
 70
     0
 10
0.0
 20
0.0
 30
0.0
  3
*Paper_Space
  1

  4

  0
ENDBLK
  5
4CD
330
16
100
AcDbEntity
 67
     1
  8
0
100
AcDbBlockEnd
  0
ENDSEC
  0
SECTION
  2
ENTITIES
  0
ARC
  5
23
330
18
100
AcDbEntity
  8
0
100
AcDbCircle
 10
2.974
 20
4.625
 30
0.0
 40
0.021
100
AcDbArc
 50
47.536
 51
79.824
  0
ARC
  5
24
330
18
100
AcDbEntity
  8
0
100
AcDbCircle
 10
2.964
 20
4.614
 30
0.0
 40
0.037
100
AcDbArc
 50
23.07
 51
47.536
  0
ARC
  5
25
330
18
100
AcDbEntity
  8
0
100
AcDbCircle
 10
2.949
 20
4.608000000000001
 30
0.0
 40
0.053
100
AcDbArc
 50
5.015
 51
23.07
  0
ARC
  5
26
330
18
100
AcDbEntity
  8
0
100
AcDbCircle
 10
2.928
 20
4.606
 30
0.0
 40
0.074
100
AcDbArc
 50
349.824
 51
5.015
  0
ARC
  5
27
330
18
100
AcDbEntity
  8
0
100
AcDbCircle
 10
2.928
 20
4.606
 30
0.0
 40
0.074
100
AcDbArc
 50
334.633
 51
349.824
  0
ARC
  5
28
330
18
100
AcDbEntity
  8
0
100
AcDbCircle
 10
2.947
 20
4.596
 30
0.0
 40
0.053
100
AcDbArc
 50
316.578
 51
334.633
  0
ARC
  5
29
330
18
100
AcDbEntity
  8
0
100
AcDbCircle
 10
2.959
 20
4.586
 30
0.0
 40
0.037
100
AcDbArc
 50
292.112
 51
316.578
  0
ARC
  5
2A
330
18
100
AcDbEntity
  8
0
100
AcDbCircle
 10
2.964
 20
4.571000000000001
 30
0.0
 40
0.021
100
AcDbArc
 50
259.824
 51
292.112
  0
ARC
  5
2B
330
18
100
AcDbEntity
  8
0
100
AcDbCircle
 10
2.964
 20
4.571000000000001
 30
0.0
 40
0.021
100
AcDbArc
 50
227.536
 51
259.824
  0
ARC
  5
2C
330
18
100
AcDbEntity
  8
0
100
AcDbCircle
 10
2.975
 20
4.583
 30
0.0
 40
0.037
100
AcDbArc
 50
203.07
 51
227.536
  0
ARC
  5
2D
330
18
100
AcDbEntity
  8
0
100
AcDbCircle
 10
2.989
 20
4.589
 30
0.0
 40
0.053
100
AcDbArc
 50
185.015
 51
203.07
  0
ARC
  5
2E
330
18
100
AcDbEntity
  8
0
100
AcDbCircle
 10
3.011
 20
4.591
 30
0.0
 40
0.074
100
AcDbArc
 50
169.824
 51
185.015
  0
ARC
  5
2F
330
18
100
AcDbEntity
  8
0
100
AcDbCircle
 10
3.011
 20
4.591
 30
0.0
 40
0.074
100
AcDbArc
 50
154.633
 51
169.824
  0
ARC
  5
30
330
18
100
AcDbEntity
  8
0
100
AcDbCircle
 10
2.991
 20
4.6
 30
0.0
 40
0.053
100
AcDbArc
 50
136.578
 51
154.633
  0
ARC
  5
31
330
18
100
AcDbEntity
  8
0
100
AcDbCircle
 10
2.98
 20
4.611000000000001
 30
0.0
 40
0.037
100
AcDbArc
 50
112.112
 51
136.578
  0
ARC
  5
32
330
18
100
AcDbEntity
  8
0
100
AcDbCircle
 10
2.974
 20
4.625
 30
0.0
 40
0.021
100
AcDbArc
 50
79.824
 51
112.112
  0
ARC
  5
33
330
18
100
AcDbEntity
  8
0
100
AcDbCircle
 10
2.943
 20
4.575
 30
0.0
 40
0.021
100
AcDbArc
 50
259.824
 51
290.033
  0
ARC
  5
34
330
18
100
AcDbEntity
  8
0
100
AcDbCircle
 10
2.943
 20
4.575
 30
0.0
 40
0.021
100
AcDbArc
 50
227.536
 51
259.824
  0
ARC
  5
35
330
18
100
AcDbEntity
  8
0
100
AcDbCircle
 10
2.954
 20
4.586
 30
0.0
 40
0.037
100
AcDbArc
 50
203.07
 51
227.536
  0
ARC
  5
36
330
18
100
AcDbEntity
  8
0
100
AcDbCircle
 10
2.968
 20
4.592
 30
0.0
 40
0.053
100
AcDbArc
 50
185.015
 51
203.07
  0
ARC
  5
37
330
18
100
AcDbEntity
  8
0
100
AcDbCircle
 10
2.99
 20
4.593999999999999
 30
0.0
 40
0.074
100
AcDbArc
 50
169.824
 51
185.015
  0
ARC
  5
38
330
18
100
AcDbEntity
  8
0
100
AcDbCircle
 10
2.99
 20
4.593999999999999
 30
0.0
 40
0.074
100
AcDbArc
 50
154.633
 51
169.824
  0
ARC
  5
39
330
18
100
AcDbEntity
  8
0
100
AcDbCircle
 10
2.97
 20
4.604
 30
0.0
 40
0.053
100
AcDbArc
 50
136.578
 51
154.633
  0
ARC
  5
3A
330
18
100
AcDbEntity
  8
0
100
AcDbCircle
 10
2.959
 20
4.614
 30
0.0
 40
0.037
100
AcDbArc
 50
112.112
 51
136.578
  0
ARC
  5
3B
330
18
100
AcDbEntity
  8
0
100
AcDbCircle
 10
2.953
 20
4.629
 30
0.0
 40
0.021
100
AcDbArc
 50
79.824
 51
112.112
  0
ARC
  5
3C
330
18
100
AcDbEntity
  8
0
100
AcDbCircle
 10
2.953
 20
4.629
 30
0.0
 40
0.021
100
AcDbArc
 50
50.458
 51
79.824
  0
ARC
  5
3D
330
18
100
AcDbEntity
  8
0
100
AcDbCircle
 10
3.238
 20
4.763
 30
0.0
 40
0.021
100
AcDbArc
 50
47.536
 51
79.824
  0
ARC
  5
3E
330
18
100
AcDbEntity
  8
0
100
AcDbCircle
 10
3.228
 20
4.752
 30
0.0
 40
0.037
100
AcDbArc
 50
23.07
 51
47.536
  0
ARC
  5
3F
330
18
100
AcDbEntity
  8
0
100
AcDbCircle
 10
3.213
 20
4.746
 30
0.0
 40
0.053
100
AcDbArc
 50
5.015
 51
23.07
  0
ARC
  5
40
330
18
100
AcDbEntity
  8
0
100
AcDbCircle
 10
3.192
 20
4.744
 30
0.0
 40
0.074
100
AcDbArc
 50
349.824
 51
5.015
  0
ARC
  5
41
330
18
100
AcDbEntity
  8
0
100
AcDbCircle
 10
3.192
 20
4.744
 30
0.0
 40
0.074
100
AcDbArc
 50
334.633
 51
349.824
  0
ARC
  5
42
330
18
100
AcDbEntity
  8
0
100
AcDbCircle
 10
3.211
 20
4.735
 30
0.0
 40
0.053
100
AcDbArc
 50
316.578
 51
334.633
  0
ARC
  5
43
330
18
100
AcDbEntity
  8
0
100
AcDbCircle
 10
3.223
 20
4.724
 30
0.0
 40
0.037
100
AcDbArc
 50
292.112
 51
316.578
  0
ARC
  5
44
330
18
100
AcDbEntity
  8
0
100
AcDbCircle
 10
3.229
 20
4.709
 30
0.0
 40
0.021
100
AcDbArc
 50
259.824
 51
292.112
  0
ARC
  5
45
330
18
100
AcDbEntity
  8
0
100
AcDbCircle
 10
3.229
 20
4.709
 30
0.0
 40
0.021
100
AcDbArc
 50
227.536
 51
259.824
  0
ARC
  5
46
330
18
100
AcDbEntity
  8
0
100
AcDbCircle
 10
3.239
 20
4.721
 30
0.0
 40
0.037
100
AcDbArc
 50
203.07
 51
227.536
  0
ARC
  5
47
330
18
100
AcDbEntity
  8
0
100
AcDbCircle
 10
3.253
 20
4.727
 30
0.0
 40
0.053
100
AcDbArc
 50
185.015
 51
203.07
  0
ARC
  5
48
330
18
100
AcDbEntity
  8
0
100
AcDbCircle
 10
3.275
 20
4.729
 30
0.0
 40
0.074
100
AcDbArc
 50
169.824
 51
185.015
  0
ARC
  5
49
330
18
100
AcDbEntity
  8
0
100
AcDbCircle
 10
3.275
 20
4.729
 30
0.0
 40
0.074
100
AcDbArc
 50
154.633
 51
169.824
  0
ARC
  5
4A
330
18
100
AcDbEntity
  8
0
100
AcDbCircle
 10
3.255
 20
4.738
 30
0.0
 40
0.053
100
AcDbArc
 50
136.578
 51
154.633
  0
ARC
  5
4B
330
18
100
AcDbEntity
  8
0
100
AcDbCircle
 10
3.244
 20
4.749
 30
0.0
 40
0.037
100
AcDbArc
 50
112.112
 51
136.578
  0
ARC
  5
4C
330
18
100
AcDbEntity
  8
0
100
AcDbCircle
 10
3.238
 20
4.763
 30
0.0
 40
0.021
100
AcDbArc
 50
79.824
 51
112.112
  0
ARC
  5
4D
330
18
100
AcDbEntity
  8
0
100
AcDbCircle
 10
3.208
 20
4.713
 30
0.0
 40
0.021
100
AcDbArc
 50
259.824
 51
290.033
  0
ARC
  5
4E
330
18
100
AcDbEntity
  8
0
100
AcDbCircle
 10
3.208
 20
4.713
 30
0.0
 40
0.021
100
AcDbArc
 50
227.536
 51
259.824
  0
ARC
  5
4F
330
18
100
AcDbEntity
  8
0
100
AcDbCircle
 10
3.218
 20
4.724
 30
0.0
 40
0.037
100
AcDbArc
 50
203.07
 51
227.536
  0
ARC
  5
50
330
18
100
AcDbEntity
  8
0
100
AcDbCircle
 10
3.232
 20
4.731
 30
0.0
 40
0.053
100
AcDbArc
 50
185.015
 51
203.07
  0
ARC
  5
51
330
18
100
AcDbEntity
  8
0
100
AcDbCircle
 10
3.254
 20
4.732
 30
0.0
 40
0.074
100
AcDbArc
 50
169.824
 51
185.015
  0
ARC
  5
52
330
18
100
AcDbEntity
  8
0
100
AcDbCircle
 10
3.254
 20
4.732
 30
0.0
 40
0.074
100
AcDbArc
 50
154.633
 51
169.824
  0
ARC
  5
53
330
18
100
AcDbEntity
  8
0
100
AcDbCircle
 10
3.234
 20
4.742
 30
0.0
 40
0.053
100
AcDbArc
 50
136.578
 51
154.633
  0
ARC
  5
54
330
18
100
AcDbEntity
  8
0
100
AcDbCircle
 10
3.223
 20
4.752
 30
0.0
 40
0.037
100
AcDbArc
 50
112.112
 51
136.578
  0
ARC
  5
55
330
18
100
AcDbEntity
  8
0
100
AcDbCircle
 10
3.217
 20
4.767
 30
0.0
 40
0.021
100
AcDbArc
 50
79.824
 51
112.112
  0
ARC
  5
56
330
18
100
AcDbEntity
  8
0
100
AcDbCircle
 10
3.217
 20
4.767
 30
0.0
 40
0.021
100
AcDbArc
 50
50.458
 51
79.824
  0
ARC
  5
57
330
18
100
AcDbEntity
  8
0
100
AcDbCircle
 10
3.4
 20
4.251
 30
0.0
 40
0.021
100
AcDbArc
 50
47.536
 51
79.824
  0
ARC
  5
58
330
18
100
AcDbEntity
  8
0
100
AcDbCircle
 10
3.389
 20
4.24
 30
0.0
 40
0.037
100
AcDbArc
 50
23.07
 51
47.536
  0
ARC
  5
59
330
18
100
AcDbEntity
  8
0
100
AcDbCircle
 10
3.375
 20
4.234
 30
0.0
 40
0.053
100
AcDbArc
 50
5.015
 51
23.07
  0
ARC
  5
5A
330
18
100
AcDbEntity
  8
0
100
AcDbCircle
 10
3.353
 20
4.232
 30
0.0
 40
0.074
100
AcDbArc
 50
349.824
 51
5.015
  0
ARC
  5
5B
330
18
100
AcDbEntity
  8
0
100
AcDbCircle
 10
3.353
 20
4.232
 30
0.0
 40
0.074
100
AcDbArc
 50
334.633
 51
349.824
  0
ARC
  5
5C
330
18
100
AcDbEntity
  8
0
100
AcDbCircle
 10
3.373
 20
4.222
 30
0.0
 40
0.053
100
AcDbArc
 50
316.578
 51
334.633
  0
ARC
  5
5D
330
18
100
AcDbEntity
  8
0
100
AcDbCircle
 10
3.384
 20
4.212
 30
0.0
 40
0.037
100
AcDbArc
 50
292.112
 51
316.578
  0
ARC
  5
5E
330
18
100
AcDbEntity
  8
0
100
AcDbCircle
 10
3.39
 20
4.197
 30
0.0
 40
0.021
100
AcDbArc
 50
259.824
 51
292.112
  0
ARC
  5
5F
330
18
100
AcDbEntity
  8
0
100
AcDbCircle
 10
3.39
 20
4.197
 30
0.0
 40
0.021
100
AcDbArc
 50
227.536
 51
259.824
  0
ARC
  5
60
330
18
100
AcDbEntity
  8
0
100
AcDbCircle
 10
3.401
 20
4.209
 30
0.0
 40
0.037
100
AcDbArc
 50
203.07
 51
227.536
  0
ARC
  5
61
330
18
100
AcDbEntity
  8
0
100
AcDbCircle
 10
3.415
 20
4.215
 30
0.0
 40
0.053
100
AcDbArc
 50
185.015
 51
203.07
  0
ARC
  5
62
330
18
100
AcDbEntity
  8
0
100
AcDbCircle
 10
3.437
 20
4.217
 30
0.0
 40
0.074
100
AcDbArc
 50
169.824
 51
185.015
  0
ARC
  5
63
330
18
100
AcDbEntity
  8
0
100
AcDbCircle
 10
3.437
 20
4.217
 30
0.0
 40
0.074
100
AcDbArc
 50
154.633
 51
169.824
  0
ARC
  5
64
330
18
100
AcDbEntity
  8
0
100
AcDbCircle
 10
3.417
 20
4.226
 30
0.0
 40
0.053
100
AcDbArc
 50
136.578
 51
154.633
  0
ARC
  5
65
330
18
100
AcDbEntity
  8
0
100
AcDbCircle
 10
3.406
 20
4.237
 30
0.0
 40
0.037
100
AcDbArc
 50
112.112
 51
136.578
  0
ARC
  5
66
330
18
100
AcDbEntity
  8
0
100
AcDbCircle
 10
3.4
 20
4.251
 30
0.0
 40
0.021
100
AcDbArc
 50
79.824
 51
112.112
  0
ARC
  5
67
330
18
100
AcDbEntity
  8
0
100
AcDbCircle
 10
3.369
 20
4.201000000000001
 30
0.0
 40
0.021
100
AcDbArc
 50
259.824
 51
290.033
  0
ARC
  5
68
330
18
100
AcDbEntity
  8
0
100
AcDbCircle
 10
3.369
 20
4.201000000000001
 30
0.0
 40
0.021
100
AcDbArc
 50
227.536
 51
259.824
  0
ARC
  5
69
330
18
100
AcDbEntity
  8
0
100
AcDbCircle
 10
3.38
 20
4.212
 30
0.0
 40
0.037
100
AcDbArc
 50
203.07
 51
227.536
  0
ARC
  5
6A
330
18
100
AcDbEntity
  8
0
100
AcDbCircle
 10
3.394
 20
4.218
 30
0.0
 40
0.053
100
AcDbArc
 50
185.015
 51
203.07
  0
ARC
  5
6B
330
18
100
AcDbEntity
  8
0
100
AcDbCircle
 10
3.416
 20
4.22
 30
0.0
 40
0.074
100
AcDbArc
 50
169.824
 51
185.015
  0
ARC
  5
6C
330
18
100
AcDbEntity
  8
0
100
AcDbCircle
 10
3.416
 20
4.22
 30
0.0
 40
0.074
100
AcDbArc
 50
154.633
 51
169.824
  0
ARC
  5
6D
330
18
100
AcDbEntity
  8
0
100
AcDbCircle
 10
3.396
 20
4.23
 30
0.0
 40
0.053
100
AcDbArc
 50
136.578
 51
154.633
  0
ARC
  5
6E
330
18
100
AcDbEntity
  8
0
100
AcDbCircle
 10
3.385
 20
4.24
 30
0.0
 40
0.037
100
AcDbArc
 50
112.112
 51
136.578
  0
ARC
  5
6F
330
18
100
AcDbEntity
  8
0
100
AcDbCircle
 10
3.379
 20
4.255
 30
0.0
 40
0.021
100
AcDbArc
 50
79.824
 51
112.112
  0
ARC
  5
70
330
18
100
AcDbEntity
  8
0
100
AcDbCircle
 10
3.379
 20
4.255
 30
0.0
 40
0.021
100
AcDbArc
 50
50.458
 51
79.824
  0
ARC
  5
71
330
18
100
AcDbEntity
  8
0
100
AcDbCircle
 10
3.44
 20
3.749
 30
0.0
 40
0.021
100
AcDbArc
 50
47.536
 51
79.824
  0
ARC
  5
72
330
18
100
AcDbEntity
  8
0
100
AcDbCircle
 10
3.429
 20
3.737
 30
0.0
 40
0.037
100
AcDbArc
 50
23.07
 51
47.536
  0
ARC
  5
73
330
18
100
AcDbEntity
  8
0
100
AcDbCircle
 10
3.415
 20
3.731
 30
0.0
 40
0.053
100
AcDbArc
 50
5.015
 51
23.07
  0
ARC
  5
74
330
18
100
AcDbEntity
  8
0
100
AcDbCircle
 10
3.393
 20
3.729
 30
0.0
 40
0.074
100
AcDbArc
 50
349.824
 51
5.015
  0
ARC
  5
75
330
18
100
AcDbEntity
  8
0
100
AcDbCircle
 10
3.393
 20
3.729
 30
0.0
 40
0.074
100
AcDbArc
 50
334.633
 51
349.824
  0
ARC
  5
76
330
18
100
AcDbEntity
  8
0
100
AcDbCircle
 10
3.413
 20
3.72
 30
0.0
 40
0.053
100
AcDbArc
 50
316.578
 51
334.633
  0
ARC
  5
77
330
18
100
AcDbEntity
  8
0
100
AcDbCircle
 10
3.424
 20
3.709
 30
0.0
 40
0.037
100
AcDbArc
 50
292.112
 51
316.578
  0
ARC
  5
78
330
18
100
AcDbEntity
  8
0
100
AcDbCircle
 10
3.43
 20
3.695
 30
0.0
 40
0.021
100
AcDbArc
 50
259.824
 51
292.112
  0
ARC
  5
79
330
18
100
AcDbEntity
  8
0
100
AcDbCircle
 10
3.43
 20
3.695
 30
0.0
 40
0.021
100
AcDbArc
 50
227.536
 51
259.824
  0
ARC
  5
7A
330
18
100
AcDbEntity
  8
0
100
AcDbCircle
 10
3.441
 20
3.706
 30
0.0
 40
0.037
100
AcDbArc
 50
203.07
 51
227.536
  0
ARC
  5
7B
330
18
100
AcDbEntity
  8
0
100
AcDbCircle
 10
3.455
 20
3.712
 30
0.0
 40
0.053
100
AcDbArc
 50
185.015
 51
203.07
  0
ARC
  5
7C
330
18
100
AcDbEntity
  8
0
100
AcDbCircle
 10
3.477
 20
3.714
 30
0.0
 40
0.074
100
AcDbArc
 50
169.824
 51
185.015
  0
ARC
  5
7D
330
18
100
AcDbEntity
  8
0
100
AcDbCircle
 10
3.477
 20
3.714
 30
0.0
 40
0.074
100
AcDbArc
 50
154.633
 51
169.824
  0
ARC
  5
7E
330
18
100
AcDbEntity
  8
0
100
AcDbCircle
 10
3.457
 20
3.724
 30
0.0
 40
0.053
100
AcDbArc
 50
136.578
 51
154.633
  0
ARC
  5
7F
330
18
100
AcDbEntity
  8
0
100
AcDbCircle
 10
3.446
 20
3.734
 30
0.0
 40
0.037
100
AcDbArc
 50
112.112
 51
136.578
  0
ARC
  5
80
330
18
100
AcDbEntity
  8
0
100
AcDbCircle
 10
3.44
 20
3.749
 30
0.0
 40
0.021
100
AcDbArc
 50
79.824
 51
112.112
  0
ARC
  5
81
330
18
100
AcDbEntity
  8
0
100
AcDbCircle
 10
3.409
 20
3.698
 30
0.0
 40
0.021
100
AcDbArc
 50
259.824
 51
290.033
  0
ARC
  5
82
330
18
100
AcDbEntity
  8
0
100
AcDbCircle
 10
3.409
 20
3.698
 30
0.0
 40
0.021
100
AcDbArc
 50
227.536
 51
259.824
  0
ARC
  5
83
330
18
100
AcDbEntity
  8
0
100
AcDbCircle
 10
3.42
 20
3.71
 30
0.0
 40
0.037
100
AcDbArc
 50
203.07
 51
227.536
  0
ARC
  5
84
330
18
100
AcDbEntity
  8
0
100
AcDbCircle
 10
3.434
 20
3.716
 30
0.0
 40
0.053
100
AcDbArc
 50
185.015
 51
203.07
  0
ARC
  5
85
330
18
100
AcDbEntity
  8
0
100
AcDbCircle
 10
3.456
 20
3.718
 30
0.0
 40
0.074
100
AcDbArc
 50
169.824
 51
185.015
  0
ARC
  5
86
330
18
100
AcDbEntity
  8
0
100
AcDbCircle
 10
3.456
 20
3.718
 30
0.0
 40
0.074
100
AcDbArc
 50
154.633
 51
169.824
  0
ARC
  5
87
330
18
100
AcDbEntity
  8
0
100
AcDbCircle
 10
3.436
 20
3.727
 30
0.0
 40
0.053
100
AcDbArc
 50
136.578
 51
154.633
  0
ARC
  5
88
330
18
100
AcDbEntity
  8
0
100
AcDbCircle
 10
3.425
 20
3.738
 30
0.0
 40
0.037
100
AcDbArc
 50
112.112
 51
136.578
  0
ARC
  5
89
330
18
100
AcDbEntity
  8
0
100
AcDbCircle
 10
3.419
 20
3.752
 30
0.0
 40
0.021
100
AcDbArc
 50
79.824
 51
112.112
  0
ARC
  5
8A
330
18
100
AcDbEntity
  8
0
100
AcDbCircle
 10
3.419
 20
3.752
 30
0.0
 40
0.021
100
AcDbArc
 50
50.458
 51
79.824
  0
ARC
  5
8B
330
18
100
AcDbEntity
  8
0
100
AcDbCircle
 10
2.823
 20
3.42
 30
0.0
 40
0.021
100
AcDbArc
 50
47.536
 51
79.824
  0
ARC
  5
8C
330
18
100
AcDbEntity
  8
0
100
AcDbCircle
 10
2.812
 20
3.408
 30
0.0
 40
0.037
100
AcDbArc
 50
23.07
 51
47.536
  0
ARC
  5
8D
330
18
100
AcDbEntity
  8
0
100
AcDbCircle
 10
2.798
 20
3.402
 30
0.0
 40
0.053
100
AcDbArc
 50
5.015
 51
23.07
  0
ARC
  5
8E
330
18
100
AcDbEntity
  8
0
100
AcDbCircle
 10
2.776
 20
3.4
 30
0.0
 40
0.074
100
AcDbArc
 50
349.824
 51
5.015
  0
ARC
  5
8F
330
18
100
AcDbEntity
  8
0
100
AcDbCircle
 10
2.776
 20
3.4
 30
0.0
 40
0.074
100
AcDbArc
 50
334.633
 51
349.824
  0
ARC
  5
90
330
18
100
AcDbEntity
  8
0
100
AcDbCircle
 10
2.796
 20
3.391
 30
0.0
 40
0.053
100
AcDbArc
 50
316.578
 51
334.633
  0
ARC
  5
91
330
18
100
AcDbEntity
  8
0
100
AcDbCircle
 10
2.807
 20
3.38
 30
0.0
 40
0.037
100
AcDbArc
 50
292.112
 51
316.578
  0
ARC
  5
92
330
18
100
AcDbEntity
  8
0
100
AcDbCircle
 10
2.813
 20
3.366
 30
0.0
 40
0.021
100
AcDbArc
 50
259.824
 51
292.112
  0
ARC
  5
93
330
18
100
AcDbEntity
  8
0
100
AcDbCircle
 10
2.813
 20
3.366
 30
0.0
 40
0.021
100
AcDbArc
 50
227.536
 51
259.824
  0
ARC
  5
94
330
18
100
AcDbEntity
  8
0
100
AcDbCircle
 10
2.824
 20
3.377
 30
0.0
 40
0.037
100
AcDbArc
 50
203.07
 51
227.536
  0
ARC
  5
95
330
18
100
AcDbEntity
  8
0
100
AcDbCircle
 10
2.838
 20
3.383
 30
0.0
 40
0.053
100
AcDbArc
 50
185.015
 51
203.07
  0
ARC
  5
96
330
18
100
AcDbEntity
  8
0
100
AcDbCircle
 10
2.86
 20
3.385
 30
0.0
 40
0.074
100
AcDbArc
 50
169.824
 51
185.015
  0
ARC
  5
97
330
18
100
AcDbEntity
  8
0
100
AcDbCircle
 10
2.86
 20
3.385
 30
0.0
 40
0.074
100
AcDbArc
 50
154.633
 51
169.824
  0
ARC
  5
98
330
18
100
AcDbEntity
  8
0
100
AcDbCircle
 10
2.84
 20
3.395
 30
0.0
 40
0.053
100
AcDbArc
 50
136.578
 51
154.633
  0
ARC
  5
99
330
18
100
AcDbEntity
  8
0
100
AcDbCircle
 10
2.829
 20
3.405
 30
0.0
 40
0.037
100
AcDbArc
 50
112.112
 51
136.578
  0
ARC
  5
9A
330
18
100
AcDbEntity
  8
0
100
AcDbCircle
 10
2.823
 20
3.42
 30
0.0
 40
0.021
100
AcDbArc
 50
79.824
 51
112.112
  0
ARC
  5
9B
330
18
100
AcDbEntity
  8
0
100
AcDbCircle
 10
2.792
 20
3.369
 30
0.0
 40
0.021
100
AcDbArc
 50
259.824
 51
290.033
  0
ARC
  5
9C
330
18
100
AcDbEntity
  8
0
100
AcDbCircle
 10
2.792
 20
3.369
 30
0.0
 40
0.021
100
AcDbArc
 50
227.536
 51
259.824
  0
ARC
  5
9D
330
18
100
AcDbEntity
  8
0
100
AcDbCircle
 10
2.803
 20
3.381
 30
0.0
 40
0.037
100
AcDbArc
 50
203.07
 51
227.536
  0
ARC
  5
9E
330
18
100
AcDbEntity
  8
0
100
AcDbCircle
 10
2.817
 20
3.387
 30
0.0
 40
0.053
100
AcDbArc
 50
185.015
 51
203.07
  0
ARC
  5
9F
330
18
100
AcDbEntity
  8
0
100
AcDbCircle
 10
2.839
 20
3.389
 30
0.0
 40
0.074
100
AcDbArc
 50
169.824
 51
185.015
  0
ARC
  5
A0
330
18
100
AcDbEntity
  8
0
100
AcDbCircle
 10
2.839
 20
3.389
 30
0.0
 40
0.074
100
AcDbArc
 50
154.633
 51
169.824
  0
ARC
  5
A1
330
18
100
AcDbEntity
  8
0
100
AcDbCircle
 10
2.819
 20
3.398
 30
0.0
 40
0.053
100
AcDbArc
 50
136.578
 51
154.633
  0
ARC
  5
A2
330
18
100
AcDbEntity
  8
0
100
AcDbCircle
 10
2.808
 20
3.409
 30
0.0
 40
0.037
100
AcDbArc
 50
112.112
 51
136.578
  0
ARC
  5
A3
330
18
100
AcDbEntity
  8
0
100
AcDbCircle
 10
2.802
 20
3.423
 30
0.0
 40
0.021
100
AcDbArc
 50
79.824
 51
112.112
  0
ARC
  5
A4
330
18
100
AcDbEntity
  8
0
100
AcDbCircle
 10
2.802
 20
3.423
 30
0.0
 40
0.021
100
AcDbArc
 50
50.458
 51
79.824
  0
ARC
  5
A5
330
18
100
AcDbEntity
  8
0
100
AcDbCircle
 10
2.779
 20
3.909
 30
0.0
 40
0.021
100
AcDbArc
 50
50.458
 51
79.824
  0
ARC
  5
A6
330
18
100
AcDbEntity
  8
0
100
AcDbCircle
 10
2.769
 20
3.855
 30
0.0
 40
0.021
100
AcDbArc
 50
259.824
 51
290.033
  0
ARC
  5
A7
330
18
100
AcDbEntity
  8
0
100
AcDbCircle
 10
2.769
 20
3.855
 30
0.0
 40
0.021
100
AcDbArc
 50
227.536
 51
259.824
  0
ARC
  5
A8
330
18
100
AcDbEntity
  8
0
100
AcDbCircle
 10
2.779
 20
3.866
 30
0.0
 40
0.037
100
AcDbArc
 50
203.07
 51
227.536
  0
ARC
  5
A9
330
18
100
AcDbEntity
  8
0
100
AcDbCircle
 10
2.794
 20
3.873
 30
0.0
 40
0.053
100
AcDbArc
 50
185.015
 51
203.07
  0
ARC
  5
AA
330
18
100
AcDbEntity
  8
0
100
AcDbCircle
 10
2.815
 20
3.875
 30
0.0
 40
0.074
100
AcDbArc
 50
169.824
 51
185.015
  0
ARC
  5
AB
330
18
100
AcDbEntity
  8
0
100
AcDbCircle
 10
2.815
 20
3.875
 30
0.0
 40
0.074
100
AcDbArc
 50
154.633
 51
169.824
  0
ARC
  5
AC
330
18
100
AcDbEntity
  8
0
100
AcDbCircle
 10
2.796
 20
3.884
 30
0.0
 40
0.053
100
AcDbArc
 50
136.578
 51
154.633
  0
ARC
  5
AD
330
18
100
AcDbEntity
  8
0
100
AcDbCircle
 10
2.784
 20
3.895
 30
0.0
 40
0.037
100
AcDbArc
 50
112.112
 51
136.578
  0
ARC
  5
AE
330
18
100
AcDbEntity
  8
0
100
AcDbCircle
 10
2.779
 20
3.909
 30
0.0
 40
0.021
100
AcDbArc
 50
79.824
 51
112.112
  0
ARC
  5
AF
330
18
100
AcDbEntity
  8
0
100
AcDbCircle
 10
2.8
 20
3.905
 30
0.0
 40
0.021
100
AcDbArc
 50
47.536
 51
79.824
  0
ARC
  5
B0
330
18
100
AcDbEntity
  8
0
100
AcDbCircle
 10
2.789
 20
3.894
 30
0.0
 40
0.037
100
AcDbArc
 50
23.07
 51
47.536
  0
ARC
  5
B1
330
18
100
AcDbEntity
  8
0
100
AcDbCircle
 10
2.775
 20
3.888
 30
0.0
 40
0.053
100
AcDbArc
 50
5.015
 51
23.07
  0
ARC
  5
B2
330
18
100
AcDbEntity
  8
0
100
AcDbCircle
 10
2.753
 20
3.886
 30
0.0
 40
0.074
100
AcDbArc
 50
349.824
 51
5.015
  0
ARC
  5
B3
330
18
100
AcDbEntity
  8
0
100
AcDbCircle
 10
2.753
 20
3.886
 30
0.0
 40
0.074
100
AcDbArc
 50
334.633
 51
349.824
  0
ARC
  5
B4
330
18
100
AcDbEntity
  8
0
100
AcDbCircle
 10
2.773
 20
3.877
 30
0.0
 40
0.053
100
AcDbArc
 50
316.578
 51
334.633
  0
ARC
  5
B5
330
18
100
AcDbEntity
  8
0
100
AcDbCircle
 10
2.784
 20
3.866
 30
0.0
 40
0.037
100
AcDbArc
 50
292.112
 51
316.578
  0
ARC
  5
B6
330
18
100
AcDbEntity
  8
0
100
AcDbCircle
 10
2.79
 20
3.851
 30
0.0
 40
0.021
100
AcDbArc
 50
259.824
 51
292.112
  0
ARC
  5
B7
330
18
100
AcDbEntity
  8
0
100
AcDbCircle
 10
2.79
 20
3.851
 30
0.0
 40
0.021
100
AcDbArc
 50
227.536
 51
259.824
  0
ARC
  5
B8
330
18
100
AcDbEntity
  8
0
100
AcDbCircle
 10
2.8
 20
3.863
 30
0.0
 40
0.037
100
AcDbArc
 50
203.07
 51
227.536
  0
ARC
  5
B9
330
18
100
AcDbEntity
  8
0
100
AcDbCircle
 10
2.815
 20
3.869
 30
0.0
 40
0.053
100
AcDbArc
 50
185.015
 51
203.07
  0
ARC
  5
BA
330
18
100
AcDbEntity
  8
0
100
AcDbCircle
 10
2.836
 20
3.871
 30
0.0
 40
0.074
100
AcDbArc
 50
169.824
 51
185.015
  0
ARC
  5
BB
330
18
100
AcDbEntity
  8
0
100
AcDbCircle
 10
2.836
 20
3.871
 30
0.0
 40
0.074
100
AcDbArc
 50
154.633
 51
169.824
  0
ARC
  5
BC
330
18
100
AcDbEntity
  8
0
100
AcDbCircle
 10
2.817
 20
3.88
 30
0.0
 40
0.053
100
AcDbArc
 50
136.578
 51
154.633
  0
ARC
  5
BD
330
18
100
AcDbEntity
  8
0
100
AcDbCircle
 10
2.805
 20
3.891
 30
0.0
 40
0.037
100
AcDbArc
 50
112.112
 51
136.578
  0
ARC
  5
BE
330
18
100
AcDbEntity
  8
0
100
AcDbCircle
 10
2.8
 20
3.905
 30
0.0
 40
0.021
100
AcDbArc
 50
79.824
 51
112.112
  0
ARC
  5
BF
330
18
100
AcDbEntity
  8
0
100
AcDbCircle
 10
2.832
 20
4.465
 30
0.0
 40
0.059
100
AcDbArc
 50
46.25199999999999
 51
75.892
  0
ARC
  5
C0
330
18
100
AcDbEntity
  8
0
100
AcDbCircle
 10
2.813
 20
4.444
 30
0.0
 40
0.087
100
AcDbArc
 50
21.945
 51
46.25199999999999
  0
ARC
  5
C1
330
18
100
AcDbEntity
  8
0
100
AcDbCircle
 10
2.788
 20
4.434
 30
0.0
 40
0.115
100
AcDbArc
 50
2.672
 51
21.945
  0
ARC
  5
C2
330
18
100
AcDbEntity
  8
0
100
AcDbCircle
 10
2.751
 20
4.432
 30
0.0
 40
0.151
100
AcDbArc
 50
345.892
 51
2.672
  0
ARC
  5
C3
330
18
100
AcDbEntity
  8
0
100
AcDbCircle
 10
2.751
 20
4.432
 30
0.0
 40
0.151
100
AcDbArc
 50
329.1130000000001
 51
345.892
  0
ARC
  5
C4
330
18
100
AcDbEntity
  8
0
100
AcDbCircle
 10
2.782
 20
4.414
 30
0.0
 40
0.115
100
AcDbArc
 50
309.839
 51
329.1130000000001
  0
ARC
  5
C5
330
18
100
AcDbEntity
  8
0
100
AcDbCircle
 10
2.8
 20
4.393
 30
0.0
 40
0.087
100
AcDbArc
 50
285.533
 51
309.839
  0
ARC
  5
C6
330
18
100
AcDbEntity
  8
0
100
AcDbCircle
 10
2.807
 20
4.366000000000001
 30
0.0
 40
0.059
100
AcDbArc
 50
255.892
 51
285.533
  0
ARC
  5
C7
330
18
100
AcDbEntity
  8
0
100
AcDbCircle
 10
2.807
 20
4.366000000000001
 30
0.0
 40
0.059
100
AcDbArc
 50
226.252
 51
255.892
  0
ARC
  5
C8
330
18
100
AcDbEntity
  8
0
100
AcDbCircle
 10
2.827
 20
4.386
 30
0.0
 40
0.087
100
AcDbArc
 50
201.945
 51
226.252
  0
ARC
  5
C9
330
18
100
AcDbEntity
  8
0
100
AcDbCircle
 10
2.852
 20
4.396
 30
0.0
 40
0.115
100
AcDbArc
 50
182.672
 51
201.945
  0
ARC
  5
CA
330
18
100
AcDbEntity
  8
0
100
AcDbCircle
 10
2.888
 20
4.398
 30
0.0
 40
0.151
100
AcDbArc
 50
165.892
 51
182.672
  0
ARC
  5
CB
330
18
100
AcDbEntity
  8
0
100
AcDbCircle
 10
2.888
 20
4.398
 30
0.0
 40
0.151
100
AcDbArc
 50
149.113
 51
165.892
  0
ARC
  5
CC
330
18
100
AcDbEntity
  8
0
100
AcDbCircle
 10
2.857
 20
4.417
 30
0.0
 40
0.115
100
AcDbArc
 50
129.839
 51
149.113
  0
ARC
  5
CD
330
18
100
AcDbEntity
  8
0
100
AcDbCircle
 10
2.84
 20
4.437
 30
0.0
 40
0.087
100
AcDbArc
 50
105.533
 51
129.839
  0
ARC
  5
CE
330
18
100
AcDbEntity
  8
0
100
AcDbCircle
 10
2.832
 20
4.465
 30
0.0
 40
0.059
100
AcDbArc
 50
75.892
 51
105.533
  0
ARC
  5
CF
330
18
100
AcDbEntity
  8
0
100
AcDbCircle
 10
2.789
 20
4.472
 30
0.0
 40
0.059
100
AcDbArc
 50
46.25199999999999
 51
58.29
  0
ARC
  5
D0
330
18
100
AcDbEntity
  8
0
100
AcDbCircle
 10
2.77
 20
4.452
 30
0.0
 40
0.087
100
AcDbArc
 50
21.945
 51
46.25199999999999
  0
ARC
  5
D1
330
18
100
AcDbEntity
  8
0
100
AcDbCircle
 10
2.745
 20
4.442
 30
0.0
 40
0.115
100
AcDbArc
 50
2.672
 51
21.945
  0
ARC
  5
D2
330
18
100
AcDbEntity
  8
0
100
AcDbCircle
 10
2.708
 20
4.44
 30
0.0
 40
0.151
100
AcDbArc
 50
345.892
 51
2.672
  0
ARC
  5
D3
330
18
100
AcDbEntity
  8
0
100
AcDbCircle
 10
2.708
 20
4.44
 30
0.0
 40
0.151
100
AcDbArc
 50
329.1130000000001
 51
345.892
  0
ARC
  5
D4
330
18
100
AcDbEntity
  8
0
100
AcDbCircle
 10
2.739
 20
4.421
 30
0.0
 40
0.115
100
AcDbArc
 50
309.839
 51
329.1130000000001
  0
ARC
  5
D5
330
18
100
AcDbEntity
  8
0
100
AcDbCircle
 10
2.757
 20
4.4
 30
0.0
 40
0.087
100
AcDbArc
 50
285.533
 51
309.839
  0
ARC
  5
D6
330
18
100
AcDbEntity
  8
0
100
AcDbCircle
 10
2.764
 20
4.373
 30
0.0
 40
0.059
100
AcDbArc
 50
281.535
 51
285.533
  0
ARC
  5
D7
330
18
100
AcDbEntity
  8
0
100
AcDbCircle
 10
3.329
 20
4.747
 30
0.0
 40
0.059
100
AcDbArc
 50
46.25199999999999
 51
58.29
  0
ARC
  5
D8
330
18
100
AcDbEntity
  8
0
100
AcDbCircle
 10
3.31
 20
4.726
 30
0.0
 40
0.087
100
AcDbArc
 50
21.945
 51
46.25199999999999
  0
ARC
  5
D9
330
18
100
AcDbEntity
  8
0
100
AcDbCircle
 10
3.285
 20
4.716
 30
0.0
 40
0.115
100
AcDbArc
 50
2.672
 51
21.945
  0
ARC
  5
DA
330
18
100
AcDbEntity
  8
0
100
AcDbCircle
 10
3.248
 20
4.714
 30
0.0
 40
0.151
100
AcDbArc
 50
345.892
 51
2.672
  0
ARC
  5
DB
330
18
100
AcDbEntity
  8
0
100
AcDbCircle
 10
3.248
 20
4.714
 30
0.0
 40
0.151
100
AcDbArc
 50
329.1130000000001
 51
345.892
  0
ARC
  5
DC
330
18
100
AcDbEntity
  8
0
100
AcDbCircle
 10
3.279
 20
4.696000000000001
 30
0.0
 40
0.115
100
AcDbArc
 50
309.839
 51
329.1130000000001
  0
ARC
  5
DD
330
18
100
AcDbEntity
  8
0
100
AcDbCircle
 10
3.297
 20
4.675
 30
0.0
 40
0.087
100
AcDbArc
 50
285.533
 51
309.839
  0
ARC
  5
DE
330
18
100
AcDbEntity
  8
0
100
AcDbCircle
 10
3.304
 20
4.648
 30
0.0
 40
0.059
100
AcDbArc
 50
281.535
 51
285.533
  0
ARC
  5
DF
330
18
100
AcDbEntity
  8
0
100
AcDbCircle
 10
3.372
 20
4.739
 30
0.0
 40
0.059
100
AcDbArc
 50
46.25199999999999
 51
75.892
  0
ARC
  5
E0
330
18
100
AcDbEntity
  8
0
100
AcDbCircle
 10
3.353
 20
4.718
 30
0.0
 40
0.087
100
AcDbArc
 50
21.945
 51
46.25199999999999
  0
ARC
  5
E1
330
18
100
AcDbEntity
  8
0
100
AcDbCircle
 10
3.328
 20
4.708
 30
0.0
 40
0.115
100
AcDbArc
 50
2.672
 51
21.945
  0
ARC
  5
E2
330
18
100
AcDbEntity
  8
0
100
AcDbCircle
 10
3.291
 20
4.707
 30
0.0
 40
0.151
100
AcDbArc
 50
345.892
 51
2.672
  0
ARC
  5
E3
330
18
100
AcDbEntity
  8
0
100
AcDbCircle
 10
3.291
 20
4.707
 30
0.0
 40
0.151
100
AcDbArc
 50
329.1130000000001
 51
345.892
  0
ARC
  5
E4
330
18
100
AcDbEntity
  8
0
100
AcDbCircle
 10
3.322
 20
4.688
 30
0.0
 40
0.115
100
AcDbArc
 50
309.839
 51
329.1130000000001
  0
ARC
  5
E5
330
18
100
AcDbEntity
  8
0
100
AcDbCircle
 10
3.34
 20
4.667
 30
0.0
 40
0.087
100
AcDbArc
 50
285.533
 51
309.839
  0
ARC
  5
E6
330
18
100
AcDbEntity
  8
0
100
AcDbCircle
 10
3.347
 20
4.64
 30
0.0
 40
0.059
100
AcDbArc
 50
255.892
 51
285.533
  0
ARC
  5
E7
330
18
100
AcDbEntity
  8
0
100
AcDbCircle
 10
3.347
 20
4.64
 30
0.0
 40
0.059
100
AcDbArc
 50
226.252
 51
255.892
  0
ARC
  5
E8
330
18
100
AcDbEntity
  8
0
100
AcDbCircle
 10
3.367
 20
4.66
 30
0.0
 40
0.087
100
AcDbArc
 50
201.945
 51
226.252
  0
ARC
  5
E9
330
18
100
AcDbEntity
  8
0
100
AcDbCircle
 10
3.392
 20
4.67
 30
0.0
 40
0.115
100
AcDbArc
 50
182.672
 51
201.945
  0
ARC
  5
EA
330
18
100
AcDbEntity
  8
0
100
AcDbCircle
 10
3.428
 20
4.672
 30
0.0
 40
0.151
100
AcDbArc
 50
165.892
 51
182.672
  0
ARC
  5
EB
330
18
100
AcDbEntity
  8
0
100
AcDbCircle
 10
3.428
 20
4.672
 30
0.0
 40
0.151
100
AcDbArc
 50
149.113
 51
165.892
  0
ARC
  5
EC
330
18
100
AcDbEntity
  8
0
100
AcDbCircle
 10
3.397
 20
4.691
 30
0.0
 40
0.115
100
AcDbArc
 50
129.839
 51
149.113
  0
ARC
  5
ED
330
18
100
AcDbEntity
  8
0
100
AcDbCircle
 10
3.38
 20
4.712
 30
0.0
 40
0.087
100
AcDbArc
 50
105.533
 51
129.839
  0
ARC
  5
EE
330
18
100
AcDbEntity
  8
0
100
AcDbCircle
 10
3.372
 20
4.739
 30
0.0
 40
0.059
100
AcDbArc
 50
75.892
 51
105.533
  0
ARC
  5
EF
330
18
100
AcDbEntity
  8
0
  6
HIDDEN
100
AcDbCircle
 10
1.839
 20
2.538
 30
0.0
 40
0.104
100
AcDbArc
 50
232.127
 51
343.74
  0
LINE
  5
F0
330
18
100
AcDbEntity
  8
0
  6
HIDDEN
100
AcDbLine
 10
1.69
 20
2.589
 30
0.0
 11
1.775
 21
2.456
 31
0.0
  0
ARC
  5
F1
330
18
100
AcDbEntity
  8
0
  6
HIDDEN
100
AcDbCircle
 10
1.754
 20
2.63
 30
0.0
 40
0.075
100
AcDbArc
 50
141.052
 51
212.427
  0
LINE
  5
F2
330
18
100
AcDbEntity
  8
0
  6
HIDDEN
100
AcDbLine
 10
1.775
 20
2.776
 30
0.0
 11
1.695
 21
2.677
 31
0.0
  0
ARC
  5
F3
330
18
100
AcDbEntity
  8
0
  6
HIDDEN
100
AcDbCircle
 10
1.717
 20
2.823
 30
0.0
 40
0.075
100
AcDbArc
 50
321.052
 51
32.635
  0
LINE
  5
F4
330
18
100
AcDbEntity
  8
0
  6
HIDDEN
100
AcDbLine
 10
1.663
 20
3.047
 30
0.0
 11
1.78
 21
2.863
 31
0.0
  0
ARC
  5
F5
330
18
100
AcDbEntity
  8
0
  6
HIDDEN
100
AcDbCircle
 10
1.726
 20
3.087
 30
0.0
 40
0.075
100
AcDbArc
 50
176.402
 51
212.635
  0
LINE
  5
F6
330
18
100
AcDbEntity
  8
0
  6
HIDDEN
100
AcDbLine
 10
1.67
 20
3.394
 30
0.0
 11
1.651
 21
3.092
 31
0.0
  0
LINE
  5
F7
330
18
100
AcDbEntity
  8
0
100
AcDbLine
 10
0.955
 20
2.498
 30
0.0
 11
0.975
 21
2.484
 31
0.0
  0
LINE
  5
F8
330
18
100
AcDbEntity
  8
0
100
AcDbLine
 10
0.897
 20
2.566
 30
0.0
 11
0.955
 21
2.498
 31
0.0
  0
LINE
  5
F9
330
18
100
AcDbEntity
  8
0
100
AcDbLine
 10
0.852
 20
2.633
 30
0.0
 11
0.897
 21
2.566
 31
0.0
  0
LINE
  5
FA
330
18
100
AcDbEntity
  8
0
100
AcDbLine
 10
0.8079999999999999
 20
2.749
 30
0.0
 11
0.852
 21
2.633
 31
0.0
  0
LINE
  5
FB
330
18
100
AcDbEntity
  8
0
100
AcDbLine
 10
0.747
 20
2.872
 30
0.0
 11
0.8079999999999999
 21
2.749
 31
0.0
  0
LINE
  5
FC
330
18
100
AcDbEntity
  8
0
100
AcDbLine
 10
0.6970000000000001
 20
2.997
 30
0.0
 11
0.747
 21
2.872
 31
0.0
  0
LINE
  5
FD
330
18
100
AcDbEntity
  8
0
100
AcDbLine
 10
0.6790000000000001
 20
3.103
 30
0.0
 11
0.6970000000000001
 21
2.997
 31
0.0
  0
LINE
  5
FE
330
18
100
AcDbEntity
  8
0
100
AcDbLine
 10
0.693
 20
3.259
 30
0.0
 11
0.6790000000000001
 21
3.103
 31
0.0
  0
LINE
  5
FF
330
18
100
AcDbEntity
  8
0
100
AcDbLine
 10
0.6870000000000001
 20
3.434
 30
0.0
 11
0.693
 21
3.259
 31
0.0
  0
LINE
  5
100
330
18
100
AcDbEntity
  8
0
100
AcDbLine
 10
0.6559999999999999
 20
3.559
 30
0.0
 11
0.6870000000000001
 21
3.434
 31
0.0
  0
LINE
  5
101
330
18
100
AcDbEntity
  8
0
100
AcDbLine
 10
0.637
 20
3.636
 30
0.0
 11
0.6559999999999999
 21
3.559
 31
0.0
  0
LINE
  5
102
330
18
100
AcDbEntity
  8
0
100
AcDbLine
 10
0.636
 20
3.657
 30
0.0
 11
0.637
 21
3.636
 31
0.0
  0
LINE
  5
103
330
18
100
AcDbEntity
  8
0
100
AcDbLine
 10
0.607
 20
3.932
 30
0.0
 11
0.609
 21
3.921
 31
0.0
  0
LINE
  5
104
330
18
100
AcDbEntity
  8
0
100
AcDbLine
 10
0.581
 20
3.993
 30
0.0
 11
0.607
 21
3.932
 31
0.0
  0
LINE
  5
105
330
18
100
AcDbEntity
  8
0
100
AcDbLine
 10
0.5479999999999999
 20
4.083
 30
0.0
 11
0.581
 21
3.993
 31
0.0
  0
LINE
  5
106
330
18
100
AcDbEntity
  8
0
100
AcDbLine
 10
0.517
 20
4.164
 30
0.0
 11
0.5479999999999999
 21
4.083
 31
0.0
  0
LINE
  5
107
330
18
100
AcDbEntity
  8
0
100
AcDbLine
 10
0.521
 20
4.27
 30
0.0
 11
0.517
 21
4.164
 31
0.0
  0
LINE
  5
108
330
18
100
AcDbEntity
  8
0
100
AcDbLine
 10
0.54
 20
4.325
 30
0.0
 11
0.521
 21
4.27
 31
0.0
  0
LINE
  5
109
330
18
100
AcDbEntity
  8
0
100
AcDbLine
 10
0.9990000000000001
 20
2.202
 30
0.0
 11
0.958
 21
2.287
 31
0.0
  0
LINE
  5
10A
330
18
100
AcDbEntity
  8
0
100
AcDbLine
 10
1.031
 20
2.163
 30
0.0
 11
0.9990000000000001
 21
2.202
 31
0.0
  0
LINE
  5
10B
330
18
100
AcDbEntity
  8
0
100
AcDbLine
 10
1.117
 20
2.083
 30
0.0
 11
1.031
 21
2.163
 31
0.0
  0
LINE
  5
10C
330
18
100
AcDbEntity
  8
0
100
AcDbLine
 10
1.211
 20
1.996
 30
0.0
 11
1.162
 21
2.042
 31
0.0
  0
LINE
  5
10D
330
18
100
AcDbEntity
  8
0
100
AcDbLine
 10
1.296
 20
1.877
 30
0.0
 11
1.211
 21
1.996
 31
0.0
  0
LINE
  5
10E
330
18
100
AcDbEntity
  8
0
100
AcDbLine
 10
1.368
 20
1.703
 30
0.0
 11
1.296
 21
1.877
 31
0.0
  0
LINE
  5
10F
330
18
100
AcDbEntity
  8
0
100
AcDbLine
 10
1.381
 20
1.603
 30
0.0
 11
1.368
 21
1.703
 31
0.0
  0
LINE
  5
110
330
18
100
AcDbEntity
  8
0
100
AcDbLine
 10
1.44
 20
1.568
 30
0.0
 11
1.381
 21
1.603
 31
0.0
  0
LINE
  5
111
330
18
100
AcDbEntity
  8
0
100
AcDbLine
 10
1.552
 20
1.528
 30
0.0
 11
1.44
 21
1.568
 31
0.0
  0
LINE
  5
112
330
18
100
AcDbEntity
  8
0
100
AcDbLine
 10
1.664
 20
1.442
 30
0.0
 11
1.552
 21
1.528
 31
0.0
  0
LINE
  5
113
330
18
100
AcDbEntity
  8
0
100
AcDbLine
 10
1.769
 20
1.377
 30
0.0
 11
1.664
 21
1.442
 31
0.0
  0
LINE
  5
114
330
18
100
AcDbEntity
  8
0
100
AcDbLine
 10
1.898
 20
1.298
 30
0.0
 11
1.827
 21
1.341
 31
0.0
  0
LINE
  5
115
330
18
100
AcDbEntity
  8
0
100
AcDbLine
 10
1.988
 20
1.231
 30
0.0
 11
1.898
 21
1.298
 31
0.0
  0
LINE
  5
116
330
18
100
AcDbEntity
  8
0
100
AcDbLine
 10
2.106
 20
1.119
 30
0.0
 11
1.988
 21
1.231
 31
0.0
  0
LINE
  5
117
330
18
100
AcDbEntity
  8
0
100
AcDbLine
 10
2.206
 20
1.025
 30
0.0
 11
2.106
 21
1.119
 31
0.0
  0
LINE
  5
118
330
18
100
AcDbEntity
  8
0
100
AcDbLine
 10
2.328
 20
1.005
 30
0.0
 11
2.206
 21
1.025
 31
0.0
  0
LINE
  5
119
330
18
100
AcDbEntity
  8
0
100
AcDbLine
 10
2.466
 20
0.981
 30
0.0
 11
2.328
 21
1.005
 31
0.0
  0
LINE
  5
11A
330
18
100
AcDbEntity
  8
0
100
AcDbLine
 10
2.654
 20
0.941
 30
0.0
 11
2.466
 21
0.981
 31
0.0
  0
LINE
  5
11B
330
18
100
AcDbEntity
  8
0
100
AcDbLine
 10
2.868
 20
0.98
 30
0.0
 11
2.654
 21
0.941
 31
0.0
  0
LINE
  5
11C
330
18
100
AcDbEntity
  8
0
100
AcDbLine
 10
2.99
 20
0.99
 30
0.0
 11
2.868
 21
0.98
 31
0.0
  0
LINE
  5
11D
330
18
100
AcDbEntity
  8
0
100
AcDbLine
 10
3.126
 20
0.98
 30
0.0
 11
2.99
 21
0.99
 31
0.0
  0
LINE
  5
11E
330
18
100
AcDbEntity
  8
0
100
AcDbLine
 10
3.31
 20
1.067
 30
0.0
 11
3.126
 21
0.98
 31
0.0
  0
LINE
  5
11F
330
18
100
AcDbEntity
  8
0
100
AcDbLine
 10
3.413
 20
1.2
 30
0.0
 11
3.31
 21
1.067
 31
0.0
  0
LINE
  5
120
330
18
100
AcDbEntity
  8
0
100
AcDbLine
 10
3.593
 20
1.409
 30
0.0
 11
3.413
 21
1.2
 31
0.0
  0
LINE
  5
121
330
18
100
AcDbEntity
  8
0
100
AcDbLine
 10
3.683
 20
1.557
 30
0.0
 11
3.593
 21
1.409
 31
0.0
  0
LINE
  5
122
330
18
100
AcDbEntity
  8
0
100
AcDbLine
 10
3.796
 20
1.72
 30
0.0
 11
3.683
 21
1.557
 31
0.0
  0
LINE
  5
123
330
18
100
AcDbEntity
  8
0
100
AcDbLine
 10
3.838
 20
1.853
 30
0.0
 11
3.796
 21
1.72
 31
0.0
  0
LINE
  5
124
330
18
100
AcDbEntity
  8
0
100
AcDbLine
 10
3.839
 20
1.959
 30
0.0
 11
3.838
 21
1.853
 31
0.0
  0
LINE
  5
125
330
18
100
AcDbEntity
  8
0
100
AcDbLine
 10
3.853
 20
2.063
 30
0.0
 11
3.839
 21
1.959
 31
0.0
  0
LINE
  5
126
330
18
100
AcDbEntity
  8
0
100
AcDbLine
 10
3.905
 20
2.161
 30
0.0
 11
3.853
 21
2.063
 31
0.0
  0
LINE
  5
127
330
18
100
AcDbEntity
  8
0
100
AcDbLine
 10
3.96
 20
2.302
 30
0.0
 11
3.905
 21
2.161
 31
0.0
  0
LINE
  5
128
330
18
100
AcDbEntity
  8
0
100
AcDbLine
 10
4.034
 20
2.47
 30
0.0
 11
3.96
 21
2.302
 31
0.0
  0
LINE
  5
129
330
18
100
AcDbEntity
  8
0
100
AcDbLine
 10
4.069
 20
2.63
 30
0.0
 11
4.034
 21
2.47
 31
0.0
  0
LINE
  5
12A
330
18
100
AcDbEntity
  8
0
100
AcDbLine
 10
4.063
 20
2.762
 30
0.0
 11
4.069
 21
2.63
 31
0.0
  0
LINE
  5
12B
330
18
100
AcDbEntity
  8
0
100
AcDbLine
 10
4.052
 20
2.871
 30
0.0
 11
4.063
 21
2.762
 31
0.0
  0
LINE
  5
12C
330
18
100
AcDbEntity
  8
0
100
AcDbLine
 10
4.07
 20
3.038
 30
0.0
 11
4.052
 21
2.871
 31
0.0
  0
LINE
  5
12D
330
18
100
AcDbEntity
  8
0
100
AcDbLine
 10
4.114
 20
3.192
 30
0.0
 11
4.07
 21
3.038
 31
0.0
  0
LINE
  5
12E
330
18
100
AcDbEntity
  8
0
100
AcDbLine
 10
4.16
 20
3.372
 30
0.0
 11
4.114
 21
3.192
 31
0.0
  0
LINE
  5
12F
330
18
100
AcDbEntity
  8
0
100
AcDbLine
 10
4.169
 20
3.5
 30
0.0
 11
4.16
 21
3.372
 31
0.0
  0
LINE
  5
130
330
18
100
AcDbEntity
  8
0
100
AcDbLine
 10
4.173
 20
3.636
 30
0.0
 11
4.169
 21
3.5
 31
0.0
  0
LINE
  5
131
330
18
100
AcDbEntity
  8
0
100
AcDbLine
 10
4.182
 20
3.804
 30
0.0
 11
4.173
 21
3.636
 31
0.0
  0
LINE
  5
132
330
18
100
AcDbEntity
  8
0
100
AcDbLine
 10
4.195
 20
3.942
 30
0.0
 11
4.182
 21
3.804
 31
0.0
  0
LINE
  5
133
330
18
100
AcDbEntity
  8
0
100
AcDbLine
 10
4.161000000000001
 20
4.132
 30
0.0
 11
4.195
 21
3.942
 31
0.0
  0
LINE
  5
134
330
18
100
AcDbEntity
  8
0
100
AcDbLine
 10
4.13
 20
4.057
 30
0.0
 11
4.161000000000001
 21
4.132
 31
0.0
  0
LINE
  5
135
330
18
100
AcDbEntity
  8
0
100
AcDbLine
 10
4.11
 20
4.022
 30
0.0
 11
4.13
 21
4.057
 31
0.0
  0
LINE
  5
136
330
18
100
AcDbEntity
  8
0
100
AcDbLine
 10
4.078
 20
3.945
 30
0.0
 11
4.11
 21
4.022
 31
0.0
  0
LINE
  5
137
330
18
100
AcDbEntity
  8
0
100
AcDbLine
 10
4.02
 20
3.831
 30
0.0
 11
4.078
 21
3.945
 31
0.0
  0
LINE
  5
138
330
18
100
AcDbEntity
  8
0
100
AcDbLine
 10
4.013
 20
3.755
 30
0.0
 11
4.02
 21
3.831
 31
0.0
  0
LINE
  5
139
330
18
100
AcDbEntity
  8
0
100
AcDbLine
 10
4.044
 20
3.679
 30
0.0
 11
4.013
 21
3.755
 31
0.0
  0
LINE
  5
13A
330
18
100
AcDbEntity
  8
0
100
AcDbLine
 10
4.089
 20
3.583
 30
0.0
 11
4.044
 21
3.679
 31
0.0
  0
LINE
  5
13B
330
18
100
AcDbEntity
  8
0
100
AcDbLine
 10
4.122
 20
3.504
 30
0.0
 11
4.089
 21
3.583
 31
0.0
  0
LINE
  5
13C
330
18
100
AcDbEntity
  8
0
100
AcDbLine
 10
4.114
 20
3.431
 30
0.0
 11
4.122
 21
3.504
 31
0.0
  0
LINE
  5
13D
330
18
100
AcDbEntity
  8
0
100
AcDbLine
 10
4.038
 20
3.263
 30
0.0
 11
4.114
 21
3.431
 31
0.0
  0
LINE
  5
13E
330
18
100
AcDbEntity
  8
0
100
AcDbLine
 10
3.997
 20
3.082
 30
0.0
 11
4.038
 21
3.263
 31
0.0
  0
LINE
  5
13F
330
18
100
AcDbEntity
  8
0
100
AcDbLine
 10
3.991
 20
2.869
 30
0.0
 11
3.997
 21
3.082
 31
0.0
  0
LINE
  5
140
330
18
100
AcDbEntity
  8
0
100
AcDbLine
 10
3.964
 20
2.687
 30
0.0
 11
3.991
 21
2.869
 31
0.0
  0
LINE
  5
141
330
18
100
AcDbEntity
  8
0
100
AcDbLine
 10
2.609
 20
1.895
 30
0.0
 11
2.704
 21
1.921
 31
0.0
  0
LINE
  5
142
330
18
100
AcDbEntity
  8
0
100
AcDbLine
 10
2.483
 20
1.904
 30
0.0
 11
2.609
 21
1.895
 31
0.0
  0
LINE
  5
143
330
18
100
AcDbEntity
  8
0
100
AcDbLine
 10
2.284
 20
1.956
 30
0.0
 11
2.483
 21
1.904
 31
0.0
  0
LINE
  5
144
330
18
100
AcDbEntity
  8
0
100
AcDbLine
 10
2.099
 20
1.988
 30
0.0
 11
2.284
 21
1.956
 31
0.0
  0
LINE
  5
145
330
18
100
AcDbEntity
  8
0
100
AcDbLine
 10
1.943
 20
2.014
 30
0.0
 11
2.099
 21
1.988
 31
0.0
  0
LINE
  5
146
330
18
100
AcDbEntity
  8
0
100
AcDbLine
 10
1.659
 20
2.065
 30
0.0
 11
1.943
 21
2.014
 31
0.0
  0
LINE
  5
147
330
18
100
AcDbEntity
  8
0
100
AcDbLine
 10
1.463
 20
2.095
 30
0.0
 11
1.659
 21
2.065
 31
0.0
  0
LINE
  5
148
330
18
100
AcDbEntity
  8
0
100
AcDbLine
 10
1.192
 20
2.173
 30
0.0
 11
1.26
 21
2.153
 31
0.0
  0
LINE
  5
149
330
18
100
AcDbEntity
  8
0
100
AcDbLine
 10
1.1
 20
2.209
 30
0.0
 11
1.192
 21
2.173
 31
0.0
  0
LINE
  5
14A
330
18
100
AcDbEntity
  8
0
100
AcDbLine
 10
1.02
 20
2.242
 30
0.0
 11
1.1
 21
2.209
 31
0.0
  0
LINE
  5
14B
330
18
100
AcDbEntity
  8
0
100
AcDbLine
 10
0.958
 20
2.287
 30
0.0
 11
1.02
 21
2.242
 31
0.0
  0
LINE
  5
14C
330
18
100
AcDbEntity
  8
0
100
AcDbLine
 10
0.956
 20
2.347
 30
0.0
 11
0.958
 21
2.287
 31
0.0
  0
LINE
  5
14D
330
18
100
AcDbEntity
  8
0
100
AcDbLine
 10
0.975
 20
2.468
 30
0.0
 11
0.956
 21
2.347
 31
0.0
  0
LINE
  5
14E
330
18
100
AcDbEntity
  8
0
100
AcDbLine
 10
0.975
 20
2.723
 30
0.0
 11
0.975
 21
2.468
 31
0.0
  0
LINE
  5
14F
330
18
100
AcDbEntity
  8
0
100
AcDbLine
 10
1.0
 20
2.837
 30
0.0
 11
0.975
 21
2.723
 31
0.0
  0
LINE
  5
150
330
18
100
AcDbEntity
  8
0
100
AcDbLine
 10
0.96
 20
2.9
 30
0.0
 11
1.0
 21
2.837
 31
0.0
  0
LINE
  5
151
330
18
100
AcDbEntity
  8
0
100
AcDbLine
 10
0.897
 20
2.99
 30
0.0
 11
0.96
 21
2.9
 31
0.0
  0
LINE
  5
152
330
18
100
AcDbEntity
  8
0
100
AcDbLine
 10
0.862
 20
3.139
 30
0.0
 11
0.897
 21
2.99
 31
0.0
  0
LINE
  5
153
330
18
100
AcDbEntity
  8
0
100
AcDbLine
 10
0.8050000000000001
 20
3.327
 30
0.0
 11
0.862
 21
3.139
 31
0.0
  0
LINE
  5
154
330
18
100
AcDbEntity
  8
0
100
AcDbLine
 10
0.7759999999999999
 20
3.465
 30
0.0
 11
0.8050000000000001
 21
3.327
 31
0.0
  0
LINE
  5
155
330
18
100
AcDbEntity
  8
0
100
AcDbLine
 10
0.718
 20
3.574
 30
0.0
 11
0.7759999999999999
 21
3.465
 31
0.0
  0
LINE
  5
156
330
18
100
AcDbEntity
  8
0
100
AcDbLine
 10
0.638
 20
3.656
 30
0.0
 11
0.718
 21
3.574
 31
0.0
  0
LINE
  5
157
330
18
100
AcDbEntity
  8
0
100
AcDbLine
 10
0.5670000000000001
 20
3.707
 30
0.0
 11
0.638
 21
3.656
 31
0.0
  0
LINE
  5
158
330
18
100
AcDbEntity
  8
0
100
AcDbLine
 10
0.5560000000000001
 20
3.793
 30
0.0
 11
0.5670000000000001
 21
3.707
 31
0.0
  0
LINE
  5
159
330
18
100
AcDbEntity
  8
0
100
AcDbLine
 10
0.588
 20
3.882
 30
0.0
 11
0.5560000000000001
 21
3.793
 31
0.0
  0
LINE
  5
15A
330
18
100
AcDbEntity
  8
0
100
AcDbLine
 10
0.62
 20
3.942
 30
0.0
 11
0.588
 21
3.882
 31
0.0
  0
LINE
  5
15B
330
18
100
AcDbEntity
  8
0
100
AcDbLine
 10
0.654
 20
4.061
 30
0.0
 11
0.62
 21
3.942
 31
0.0
  0
LINE
  5
15C
330
18
100
AcDbEntity
  8
0
100
AcDbLine
 10
0.649
 20
4.173
 30
0.0
 11
0.654
 21
4.061
 31
0.0
  0
LINE
  5
15D
330
18
100
AcDbEntity
  8
0
100
AcDbLine
 10
0.624
 20
4.255
 30
0.0
 11
0.649
 21
4.173
 31
0.0
  0
LINE
  5
15E
330
18
100
AcDbEntity
  8
0
100
AcDbLine
 10
0.54
 20
4.325
 30
0.0
 11
0.624
 21
4.255
 31
0.0
  0
LINE
  5
15F
330
18
100
AcDbEntity
  8
0
100
AcDbLine
 10
2.804
 20
7.145
 30
0.0
 11
2.948
 21
7.032
 31
0.0
  0
LINE
  5
160
330
18
100
AcDbEntity
  8
0
100
AcDbLine
 10
2.858
 20
6.968
 30
0.0
 11
2.97
 21
6.851
 31
0.0
  0
LINE
  5
161
330
18
100
AcDbEntity
  8
0
100
AcDbLine
 10
2.711
 20
7.102
 30
0.0
 11
2.858
 21
6.968
 31
0.0
  0
LINE
  5
162
330
18
100
AcDbEntity
  8
0
100
AcDbLine
 10
2.762
 20
6.928999999999999
 30
0.0
 11
2.874
 21
6.808
 31
0.0
  0
LINE
  5
163
330
18
100
AcDbEntity
  8
0
100
AcDbLine
 10
2.62
 20
7.061
 30
0.0
 11
2.762
 21
6.928999999999999
 31
0.0
  0
LINE
  5
164
330
18
100
AcDbEntity
  8
0
100
AcDbLine
 10
2.685
 20
6.895
 30
0.0
 11
2.803
 21
6.776
 31
0.0
  0
LINE
  5
165
330
18
100
AcDbEntity
  8
0
100
AcDbLine
 10
2.538
 20
7.024
 30
0.0
 11
2.685
 21
6.895
 31
0.0
  0
LINE
  5
166
330
18
100
AcDbEntity
  8
0
100
AcDbLine
 10
2.556
 20
6.841
 30
0.0
 11
2.678
 21
6.718999999999999
 31
0.0
  0
LINE
  5
167
330
18
100
AcDbEntity
  8
0
100
AcDbLine
 10
2.431
 20
6.976
 30
0.0
 11
2.556
 21
6.841
 31
0.0
  0
LINE
  5
168
330
18
100
AcDbEntity
  8
0
100
AcDbLine
 10
2.482
 20
6.775
 30
0.0
 11
2.573
 21
6.671
 31
0.0
  0
LINE
  5
169
330
18
100
AcDbEntity
  8
0
100
AcDbLine
 10
2.347
 20
6.938
 30
0.0
 11
2.482
 21
6.775
 31
0.0
  0
LINE
  5
16A
330
18
100
AcDbEntity
  8
0
100
AcDbLine
 10
2.371
 20
6.757000000000001
 30
0.0
 11
2.47
 21
6.625
 31
0.0
  0
LINE
  5
16B
330
18
100
AcDbEntity
  8
0
100
AcDbLine
 10
2.272
 20
6.904
 30
0.0
 11
2.371
 21
6.757000000000001
 31
0.0
  0
LINE
  5
16C
330
18
100
AcDbEntity
  8
0
100
AcDbLine
 10
2.278
 20
6.7
 30
0.0
 11
2.375
 21
6.582000000000001
 31
0.0
  0
LINE
  5
16D
330
18
100
AcDbEntity
  8
0
100
AcDbLine
 10
2.15
 20
6.849
 30
0.0
 11
2.278
 21
6.7
 31
0.0
  0
LINE
  5
16E
330
18
100
AcDbEntity
  8
0
100
AcDbLine
 10
2.203
 20
6.658
 30
0.0
 11
2.298
 21
6.547000000000001
 31
0.0
  0
LINE
  5
16F
330
18
100
AcDbEntity
  8
0
100
AcDbLine
 10
2.064
 20
6.81
 30
0.0
 11
2.203
 21
6.658
 31
0.0
  0
LINE
  5
170
330
18
100
AcDbEntity
  8
0
100
AcDbLine
 10
2.102
 20
6.651
 30
0.0
 11
2.193
 21
6.5
 31
0.0
  0
LINE
  5
171
330
18
100
AcDbEntity
  8
0
100
AcDbLine
 10
1.992
 20
6.777
 30
0.0
 11
2.102
 21
6.651
 31
0.0
  0
LINE
  5
172
330
18
100
AcDbEntity
  8
0
100
AcDbLine
 10
2.062
 20
6.54
 30
0.0
 11
2.131
 21
6.455
 31
0.0
  0
LINE
  5
173
330
18
100
AcDbEntity
  8
0
100
AcDbLine
 10
1.96
 20
6.686
 30
0.0
 11
2.062
 21
6.54
 31
0.0
  0
LINE
  5
174
330
18
100
AcDbEntity
  8
0
100
AcDbLine
 10
2.386
 20
7.182
 30
0.0
 11
2.542
 21
7.155
 31
0.0
  0
LINE
  5
175
330
18
100
AcDbEntity
  8
0
100
AcDbLine
 10
1.976
 20
6.816
 30
0.0
 11
2.07
 21
6.812
 31
0.0
  0
LINE
  5
176
330
18
100
AcDbEntity
  8
0
100
AcDbLine
 10
1.774
 20
6.84
 30
0.0
 11
1.976
 21
6.816
 31
0.0
  0
LINE
  5
177
330
18
100
AcDbEntity
  8
0
100
AcDbLine
 10
1.614
 20
6.874
 30
0.0
 11
1.774
 21
6.84
 31
0.0
  0
LINE
  5
178
330
18
100
AcDbEntity
  8
0
100
AcDbLine
 10
1.593
 20
6.877000000000001
 30
0.0
 11
1.614
 21
6.874
 31
0.0
  0
LINE
  5
179
330
18
100
AcDbEntity
  8
0
100
AcDbLine
 10
2.148
 20
6.876
 30
0.0
 11
2.19
 21
6.867000000000001
 31
0.0
  0
LINE
  5
17A
330
18
100
AcDbEntity
  8
0
100
AcDbLine
 10
1.996
 20
6.893
 30
0.0
 11
2.148
 21
6.876
 31
0.0
  0
LINE
  5
17B
330
18
100
AcDbEntity
  8
0
100
AcDbLine
 10
1.815
 20
6.908
 30
0.0
 11
1.996
 21
6.893
 31
0.0
  0
LINE
  5
17C
330
18
100
AcDbEntity
  8
0
100
AcDbLine
 10
1.713
 20
6.922999999999999
 30
0.0
 11
1.815
 21
6.908
 31
0.0
  0
LINE
  5
17D
330
18
100
AcDbEntity
  8
0
100
AcDbLine
 10
2.336
 20
6.978
 30
0.0
 11
2.407
 21
6.965
 31
0.0
  0
LINE
  5
17E
330
18
100
AcDbEntity
  8
0
100
AcDbLine
 10
2.159
 20
6.981
 30
0.0
 11
2.336
 21
6.978
 31
0.0
  0
LINE
  5
17F
330
18
100
AcDbEntity
  8
0
100
AcDbLine
 10
2.015
 20
6.997999999999999
 30
0.0
 11
2.159
 21
6.981
 31
0.0
  0
LINE
  5
180
330
18
100
AcDbEntity
  8
0
100
AcDbLine
 10
1.92
 20
7.002999999999999
 30
0.0
 11
2.015
 21
6.997999999999999
 31
0.0
  0
LINE
  5
181
330
18
100
AcDbEntity
  8
0
100
AcDbLine
 10
2.461
 20
7.013999999999999
 30
0.0
 11
2.504
 21
7.009
 31
0.0
  0
LINE
  5
182
330
18
100
AcDbEntity
  8
0
100
AcDbLine
 10
2.309
 20
7.041
 30
0.0
 11
2.461
 21
7.013999999999999
 31
0.0
  0
LINE
  5
183
330
18
100
AcDbEntity
  8
0
100
AcDbLine
 10
2.133
 20
7.046
 30
0.0
 11
2.309
 21
7.041
 31
0.0
  0
LINE
  5
184
330
18
100
AcDbEntity
  8
0
100
AcDbLine
 10
2.066
 20
7.059
 30
0.0
 11
2.133
 21
7.046
 31
0.0
  0
LINE
  5
185
330
18
100
AcDbEntity
  8
0
100
AcDbLine
 10
2.507
 20
7.075
 30
0.0
 11
2.618
 21
7.06
 31
0.0
  0
LINE
  5
186
330
18
100
AcDbEntity
  8
0
100
AcDbLine
 10
2.427
 20
7.085
 30
0.0
 11
2.507
 21
7.075
 31
0.0
  0
LINE
  5
187
330
18
100
AcDbEntity
  8
0
100
AcDbLine
 10
2.29
 20
7.1
 30
0.0
 11
2.427
 21
7.085
 31
0.0
  0
LINE
  5
188
330
18
100
AcDbEntity
  8
0
100
AcDbLine
 10
2.207
 20
7.113
 30
0.0
 11
2.29
 21
7.1
 31
0.0
  0
LINE
  5
189
330
18
100
AcDbEntity
  8
0
100
AcDbLine
 10
1.853
 20
6.773
 30
0.0
 11
1.942
 21
6.754
 31
0.0
  0
LINE
  5
18A
330
18
100
AcDbEntity
  8
0
100
AcDbLine
 10
1.665
 20
6.763999999999999
 30
0.0
 11
1.853
 21
6.773
 31
0.0
  0
LINE
  5
18B
330
18
100
AcDbEntity
  8
0
100
AcDbLine
 10
1.544
 20
6.747999999999999
 30
0.0
 11
1.665
 21
6.763999999999999
 31
0.0
  0
LINE
  5
18C
330
18
100
AcDbEntity
  8
0
100
AcDbLine
 10
1.509
 20
6.747000000000001
 30
0.0
 11
1.544
 21
6.747999999999999
 31
0.0
  0
LINE
  5
18D
330
18
100
AcDbEntity
  8
0
100
AcDbLine
 10
1.85
 20
6.688
 30
0.0
 11
1.895
 21
6.686
 31
0.0
  0
LINE
  5
18E
330
18
100
AcDbEntity
  8
0
100
AcDbLine
 10
1.753
 20
6.68
 30
0.0
 11
1.85
 21
6.688
 31
0.0
  0
LINE
  5
18F
330
18
100
AcDbEntity
  8
0
100
AcDbLine
 10
1.682
 20
6.678
 30
0.0
 11
1.753
 21
6.68
 31
0.0
  0
LINE
  5
190
330
18
100
AcDbEntity
  8
0
100
AcDbLine
 10
2.576
 20
6.403
 30
0.0
 11
2.687
 21
6.386
 31
0.0
  0
LINE
  5
191
330
18
100
AcDbEntity
  8
0
100
AcDbLine
 10
2.443
 20
6.407
 30
0.0
 11
2.576
 21
6.403
 31
0.0
  0
LINE
  5
192
330
18
100
AcDbEntity
  8
0
100
AcDbLine
 10
2.385
 20
6.397
 30
0.0
 11
2.443
 21
6.407
 31
0.0
  0
LINE
  5
193
330
18
100
AcDbEntity
  8
0
100
AcDbLine
 10
2.711
 20
6.442
 30
0.0
 11
2.787
 21
6.431
 31
0.0
  0
LINE
  5
194
330
18
100
AcDbEntity
  8
0
100
AcDbLine
 10
2.619
 20
6.452000000000001
 30
0.0
 11
2.711
 21
6.442
 31
0.0
  0
LINE
  5
195
330
18
100
AcDbEntity
  8
0
100
AcDbLine
 10
2.43
 20
6.467000000000001
 30
0.0
 11
2.619
 21
6.452000000000001
 31
0.0
  0
LINE
  5
196
330
18
100
AcDbEntity
  8
0
100
AcDbLine
 10
2.336
 20
6.472
 30
0.0
 11
2.43
 21
6.467000000000001
 31
0.0
  0
LINE
  5
197
330
18
100
AcDbEntity
  8
0
100
AcDbLine
 10
2.228
 20
6.46
 30
0.0
 11
2.336
 21
6.472
 31
0.0
  0
LINE
  5
198
330
18
100
AcDbEntity
  8
0
100
AcDbLine
 10
2.856
 20
6.473
 30
0.0
 11
2.873
 21
6.47
 31
0.0
  0
LINE
  5
199
330
18
100
AcDbEntity
  8
0
100
AcDbLine
 10
2.709
 20
6.496
 30
0.0
 11
2.856
 21
6.473
 31
0.0
  0
LINE
  5
19A
330
18
100
AcDbEntity
  8
0
100
AcDbLine
 10
2.549
 20
6.512000000000001
 30
0.0
 11
2.709
 21
6.496
 31
0.0
  0
LINE
  5
19B
330
18
100
AcDbEntity
  8
0
100
AcDbLine
 10
2.365
 20
6.542999999999999
 30
0.0
 11
2.549
 21
6.512000000000001
 31
0.0
  0
LINE
  5
19C
330
18
100
AcDbEntity
  8
0
100
AcDbLine
 10
2.283
 20
6.541
 30
0.0
 11
2.365
 21
6.542999999999999
 31
0.0
  0
LINE
  5
19D
330
18
100
AcDbEntity
  8
0
100
AcDbLine
 10
2.9
 20
6.558
 30
0.0
 11
3.017
 21
6.535
 31
0.0
  0
LINE
  5
19E
330
18
100
AcDbEntity
  8
0
100
AcDbLine
 10
2.654
 20
6.569
 30
0.0
 11
2.9
 21
6.558
 31
0.0
  0
LINE
  5
19F
330
18
100
AcDbEntity
  8
0
100
AcDbLine
 10
2.459
 20
6.601
 30
0.0
 11
2.654
 21
6.569
 31
0.0
  0
LINE
  5
1A0
330
18
100
AcDbEntity
  8
0
100
AcDbLine
 10
2.428
 20
6.606
 30
0.0
 11
2.459
 21
6.601
 31
0.0
  0
LINE
  5
1A1
330
18
100
AcDbEntity
  8
0
100
AcDbLine
 10
3.095
 20
6.621
 30
0.0
 11
3.165
 21
6.603
 31
0.0
  0
LINE
  5
1A2
330
18
100
AcDbEntity
  8
0
100
AcDbLine
 10
2.967
 20
6.656000000000001
 30
0.0
 11
3.095
 21
6.621
 31
0.0
  0
LINE
  5
1A3
330
18
100
AcDbEntity
  8
0
100
AcDbLine
 10
2.795
 20
6.669
 30
0.0
 11
2.967
 21
6.656000000000001
 31
0.0
  0
LINE
  5
1A4
330
18
100
AcDbEntity
  8
0
100
AcDbLine
 10
2.652
 20
6.68
 30
0.0
 11
2.795
 21
6.669
 31
0.0
  0
LINE
  5
1A5
330
18
100
AcDbEntity
  8
0
100
AcDbLine
 10
2.607
 20
6.687
 30
0.0
 11
2.652
 21
6.68
 31
0.0
  0
LINE
  5
1A6
330
18
100
AcDbEntity
  8
0
100
AcDbLine
 10
3.252
 20
6.683
 30
0.0
 11
3.314
 21
6.67
 31
0.0
  0
LINE
  5
1A7
330
18
100
AcDbEntity
  8
0
100
AcDbLine
 10
3.147
 20
6.698
 30
0.0
 11
3.252
 21
6.683
 31
0.0
  0
LINE
  5
1A8
330
18
100
AcDbEntity
  8
0
100
AcDbLine
 10
2.97
 20
6.723
 30
0.0
 11
3.147
 21
6.698
 31
0.0
  0
LINE
  5
1A9
330
18
100
AcDbEntity
  8
0
100
AcDbLine
 10
2.84
 20
6.733
 30
0.0
 11
2.97
 21
6.723
 31
0.0
  0
LINE
  5
1AA
330
18
100
AcDbEntity
  8
0
100
AcDbLine
 10
2.736
 20
6.745
 30
0.0
 11
2.84
 21
6.733
 31
0.0
  0
LINE
  5
1AB
330
18
100
AcDbEntity
  8
0
100
AcDbLine
 10
3.364
 20
6.756
 30
0.0
 11
3.468
 21
6.739
 31
0.0
  0
LINE
  5
1AC
330
18
100
AcDbEntity
  8
0
100
AcDbLine
 10
3.151
 20
6.762000000000001
 30
0.0
 11
3.364
 21
6.756
 31
0.0
  0
LINE
  5
1AD
330
18
100
AcDbEntity
  8
0
100
AcDbLine
 10
2.959
 20
6.792999999999999
 30
0.0
 11
3.151
 21
6.762000000000001
 31
0.0
  0
LINE
  5
1AE
330
18
100
AcDbEntity
  8
0
100
AcDbLine
 10
2.879
 20
6.81
 30
0.0
 11
2.959
 21
6.792999999999999
 31
0.0
  0
LINE
  5
1AF
330
18
100
AcDbEntity
  8
0
100
AcDbLine
 10
3.243
 20
6.851
 30
0.0
 11
3.317
 21
6.846
 31
0.0
  0
LINE
  5
1B0
330
18
100
AcDbEntity
  8
0
100
AcDbLine
 10
3.118
 20
6.866000000000001
 30
0.0
 11
3.243
 21
6.851
 31
0.0
  0
LINE
  5
1B1
330
18
100
AcDbEntity
  8
0
100
AcDbLine
 10
3.02
 20
6.874
 30
0.0
 11
3.118
 21
6.866000000000001
 31
0.0
  0
TEXT
  5
1B2
330
18
100
AcDbEntity
  8
0
100
AcDbText
 10
2.542152
 20
0.008195
 30
0.0
 40
0.125
  1
PB44
100
AcDbText
  0
ARC
  5
1B3
330
18
100
AcDbEntity
  8
0
100
AcDbCircle
 10
0.95
 20
0.987
 30
0.0
 40
0.3
100
AcDbArc
 50
130.536
 51
206.549
  0
LINE
  5
1B4
330
18
100
AcDbEntity
  8
0
100
AcDbLine
 10
0.6809999999999999
 20
0.853
 30
0.0
 11
0.722
 21
0.7709999999999999
 31
0.0
  0
LINE
  5
1B5
330
18
100
AcDbEntity
  8
0
100
AcDbLine
 10
1.093
 20
1.504
 30
0.0
 11
0.755
 21
1.215
 31
0.0
  0
LINE
  5
1B6
330
18
100
AcDbEntity
  8
0
100
AcDbLine
 10
1.087
 20
1.48
 30
0.0
 11
1.098
 21
1.48
 31
0.0
  0
LINE
  5
1B7
330
18
100
AcDbEntity
  8
0
100
AcDbLine
 10
1.072
 20
1.49
 30
0.0
 11
1.113
 21
1.49
 31
0.0
  0
LINE
  5
1B8
330
18
100
AcDbEntity
  8
0
100
AcDbLine
 10
1.073
 20
1.52
 30
0.0
 11
1.112
 21
1.52
 31
0.0
  0
LINE
  5
1B9
330
18
100
AcDbEntity
  8
0
100
AcDbLine
 10
1.068
 20
1.51
 30
0.0
 11
1.117
 21
1.51
 31
0.0
  0
LINE
  5
1BA
330
18
100
AcDbEntity
  8
0
100
AcDbLine
 10
1.068
 20
1.5
 30
0.0
 11
1.117
 21
1.5
 31
0.0
  0
CIRCLE
  5
1BB
330
18
100
AcDbEntity
  8
0
100
AcDbCircle
 10
1.093
 20
1.504
 30
0.0
 40
0.025
  0
TEXT
  5
1BC
330
18
100
AcDbEntity
  8
0
100
AcDbText
 10
0.795
 20
0.595
 30
0.0
 40
0.25
  1
2" MINIMUM SIDECOVER
 41
0.8
100
AcDbText
  0
SOLID
  5
1BD
330
18
100
AcDbEntity
  8
0
100
AcDbTrace
 10
0.738
 20
1.695
 30
0.0
 11
0.76
 21
1.731
 31
0.0
 12
0.642
 22
1.778
 32
0.0
 13
0.642
 23
1.778
 33
0.0
  0
SOLID
  5
1BE
330
18
100
AcDbEntity
  8
0
100
AcDbTrace
 10
1.447
 20
1.313
 30
0.0
 11
1.426
 21
1.277
 31
0.0
 12
1.543
 22
1.23
 32
0.0
 13
1.543
 23
1.23
 33
0.0
  0
LINE
  5
1BF
330
18
100
AcDbEntity
  8
0
100
AcDbLine
 10
0.759
 20
3.299
 30
0.0
 11
0.778
 21
3.322
 31
0.0
  0
LINE
  5
1C0
330
18
100
AcDbEntity
  8
0
100
AcDbLine
 10
0.778
 20
3.322
 30
0.0
 11
0.779
 21
3.342
 31
0.0
  0
LINE
  5
1C1
330
18
100
AcDbEntity
  8
0
100
AcDbLine
 10
0.779
 20
3.342
 30
0.0
 11
0.753
 21
3.345
 31
0.0
  0
LINE
  5
1C2
330
18
100
AcDbEntity
  8
0
100
AcDbLine
 10
0.753
 20
3.345
 30
0.0
 11
0.738
 21
3.319
 31
0.0
  0
LINE
  5
1C3
330
18
100
AcDbEntity
  8
0
100
AcDbLine
 10
0.738
 20
3.319
 30
0.0
 11
0.745
 21
3.299
 31
0.0
  0
LINE
  5
1C4
330
18
100
AcDbEntity
  8
0
100
AcDbLine
 10
0.745
 20
3.299
 30
0.0
 11
0.759
 21
3.299
 31
0.0
  0
LINE
  5
1C5
330
18
100
AcDbEntity
  8
0
100
AcDbLine
 10
0.86
 20
2.798
 30
0.0
 11
0.8740000000000001
 21
2.798
 31
0.0
  0
LINE
  5
1C6
330
18
100
AcDbEntity
  8
0
100
AcDbLine
 10
0.853
 20
2.818
 30
0.0
 11
0.86
 21
2.798
 31
0.0
  0
LINE
  5
1C7
330
18
100
AcDbEntity
  8
0
100
AcDbLine
 10
0.868
 20
2.844
 30
0.0
 11
0.853
 21
2.818
 31
0.0
  0
LINE
  5
1C8
330
18
100
AcDbEntity
  8
0
100
AcDbLine
 10
0.894
 20
2.841
 30
0.0
 11
0.868
 21
2.844
 31
0.0
  0
LINE
  5
1C9
330
18
100
AcDbEntity
  8
0
100
AcDbLine
 10
0.893
 20
2.821
 30
0.0
 11
0.894
 21
2.841
 31
0.0
  0
LINE
  5
1CA
330
18
100
AcDbEntity
  8
0
100
AcDbLine
 10
0.8740000000000001
 20
2.798
 30
0.0
 11
0.893
 21
2.821
 31
0.0
  0
POINT
  5
1CB
330
18
100
AcDbEntity
  8
0
100
AcDbPoint
 10
0.8370000000000001
 20
2.883
 30
0.0
  0
POINT
  5
1CC
330
18
100
AcDbEntity
  8
0
100
AcDbPoint
 10
0.711
 20
3.059
 30
0.0
  0
POINT
  5
1CD
330
18
100
AcDbEntity
  8
0
100
AcDbPoint
 10
0.74
 20
3.032
 30
0.0
  0
POINT
  5
1CE
330
18
100
AcDbEntity
  8
0
100
AcDbPoint
 10
0.8
 20
3.029
 30
0.0
  0
POINT
  5
1CF
330
18
100
AcDbEntity
  8
0
100
AcDbPoint
 10
0.789
 20
3.152
 30
0.0
  0
LINE
  5
1D0
330
18
100
AcDbEntity
  8
0
100
AcDbLine
 10
0.816
 20
3.063
 30
0.0
 11
0.83
 21
3.102
 31
0.0
  0
LINE
  5
1D1
330
18
100
AcDbEntity
  8
0
100
AcDbLine
 10
0.83
 20
3.102
 30
0.0
 11
0.8140000000000001
 21
3.128
 31
0.0
  0
LINE
  5
1D2
330
18
100
AcDbEntity
  8
0
100
AcDbLine
 10
0.8140000000000001
 20
3.128
 30
0.0
 11
0.7809999999999999
 21
3.119
 31
0.0
  0
LINE
  5
1D3
330
18
100
AcDbEntity
  8
0
100
AcDbLine
 10
0.7809999999999999
 20
3.119
 30
0.0
 11
0.752
 21
3.096
 31
0.0
  0
LINE
  5
1D4
330
18
100
AcDbEntity
  8
0
100
AcDbLine
 10
0.752
 20
3.096
 30
0.0
 11
0.7709999999999999
 21
3.073
 31
0.0
  0
LINE
  5
1D5
330
18
100
AcDbEntity
  8
0
100
AcDbLine
 10
0.7709999999999999
 20
3.073
 30
0.0
 11
0.8029999999999999
 21
3.058
 31
0.0
  0
LINE
  5
1D6
330
18
100
AcDbEntity
  8
0
100
AcDbLine
 10
0.8029999999999999
 20
3.058
 30
0.0
 11
0.816
 21
3.063
 31
0.0
  0
POINT
  5
1D7
330
18
100
AcDbEntity
  8
0
100
AcDbPoint
 10
3.95
 20
2.591
 30
0.0
  0
POINT
  5
1D8
330
18
100
AcDbEntity
  8
0
100
AcDbPoint
 10
4.035
 20
3.013
 30
0.0
  0
POINT
  5
1D9
330
18
100
AcDbEntity
  8
0
100
AcDbPoint
 10
4.04
 20
3.141
 30
0.0
  0
POINT
  5
1DA
330
18
100
AcDbEntity
  8
0
100
AcDbPoint
 10
4.099
 20
3.229
 30
0.0
  0
POINT
  5
1DB
330
18
100
AcDbEntity
  8
0
100
AcDbPoint
 10
4.131
 20
3.88
 30
0.0
  0
POINT
  5
1DC
330
18
100
AcDbEntity
  8
0
100
AcDbPoint
 10
4.06
 20
3.763
 30
0.0
  0
POINT
  5
1DD
330
18
100
AcDbEntity
  8
0
100
AcDbPoint
 10
4.11
 20
3.703
 30
0.0
  0
POINT
  5
1DE
330
18
100
AcDbEntity
  8
0
100
AcDbPoint
 10
3.659
 20
3.765
 30
0.0
  0
POINT
  5
1DF
330
18
100
AcDbEntity
  8
0
100
AcDbPoint
 10
3.606
 20
3.83
 30
0.0
  0
POINT
  5
1E0
330
18
100
AcDbEntity
  8
0
100
AcDbPoint
 10
3.673
 20
3.887
 30
0.0
  0
POINT
  5
1E1
330
18
100
AcDbEntity
  8
0
100
AcDbPoint
 10
3.643
 20
3.952
 30
0.0
  0
POINT
  5
1E2
330
18
100
AcDbEntity
  8
0
100
AcDbPoint
 10
3.686
 20
4.149
 30
0.0
  0
POINT
  5
1E3
330
18
100
AcDbEntity
  8
0
100
AcDbPoint
 10
3.778
 20
3.994
 30
0.0
  0
POINT
  5
1E4
330
18
100
AcDbEntity
  8
0
100
AcDbPoint
 10
3.958
 20
4.024
 30
0.0
  0
POINT
  5
1E5
330
18
100
AcDbEntity
  8
0
100
AcDbPoint
 10
3.88
 20
3.817
 30
0.0
  0
POINT
  5
1E6
330
18
100
AcDbEntity
  8
0
100
AcDbPoint
 10
3.793
 20
3.657
 30
0.0
  0
POINT
  5
1E7
330
18
100
AcDbEntity
  8
0
100
AcDbPoint
 10
3.443
 20
3.231
 30
0.0
  0
POINT
  5
1E8
330
18
100
AcDbEntity
  8
0
100
AcDbPoint
 10
3.636
 20
3.309
 30
0.0
  0
POINT
  5
1E9
330
18
100
AcDbEntity
  8
0
100
AcDbPoint
 10
3.958
 20
3.334
 30
0.0
  0
POINT
  5
1EA
330
18
100
AcDbEntity
  8
0
100
AcDbPoint
 10
3.896
 20
3.321
 30
0.0
  0
POINT
  5
1EB
330
18
100
AcDbEntity
  8
0
100
AcDbPoint
 10
3.828
 20
3.088
 30
0.0
  0
POINT
  5
1EC
330
18
100
AcDbEntity
  8
0
100
AcDbPoint
 10
3.685
 20
2.672
 30
0.0
  0
POINT
  5
1ED
330
18
100
AcDbEntity
  8
0
100
AcDbPoint
 10
3.537
 20
2.586
 30
0.0
  0
POINT
  5
1EE
330
18
100
AcDbEntity
  8
0
100
AcDbPoint
 10
3.403
 20
2.717
 30
0.0
  0
POINT
  5
1EF
330
18
100
AcDbEntity
  8
0
100
AcDbPoint
 10
3.356
 20
2.611
 30
0.0
  0
POINT
  5
1F0
330
18
100
AcDbEntity
  8
0
100
AcDbPoint
 10
3.399
 20
2.515
 30
0.0
  0
POINT
  5
1F1
330
18
100
AcDbEntity
  8
0
100
AcDbPoint
 10
3.281
 20
2.536
 30
0.0
  0
POINT
  5
1F2
330
18
100
AcDbEntity
  8
0
100
AcDbPoint
 10
2.523
 20
2.784
 30
0.0
  0
POINT
  5
1F3
330
18
100
AcDbEntity
  8
0
100
AcDbPoint
 10
2.555
 20
2.591
 30
0.0
  0
POINT
  5
1F4
330
18
100
AcDbEntity
  8
0
100
AcDbPoint
 10
2.602
 20
2.476
 30
0.0
  0
POINT
  5
1F5
330
18
100
AcDbEntity
  8
0
100
AcDbPoint
 10
2.765
 20
2.569
 30
0.0
  0
POINT
  5
1F6
330
18
100
AcDbEntity
  8
0
100
AcDbPoint
 10
2.655
 20
2.616
 30
0.0
  0
POINT
  5
1F7
330
18
100
AcDbEntity
  8
0
100
AcDbPoint
 10
2.668
 20
2.699
 30
0.0
  0
POINT
  5
1F8
330
18
100
AcDbEntity
  8
0
100
AcDbPoint
 10
2.669
 20
2.807
 30
0.0
  0
POINT
  5
1F9
330
18
100
AcDbEntity
  8
0
100
AcDbPoint
 10
2.785
 20
2.813
 30
0.0
  0
POINT
  5
1FA
330
18
100
AcDbEntity
  8
0
100
AcDbPoint
 10
2.685
 20
2.879
 30
0.0
  0
POINT
  5
1FB
330
18
100
AcDbEntity
  8
0
100
AcDbPoint
 10
2.414
 20
2.972
 30
0.0
  0
POINT
  5
1FC
330
18
100
AcDbEntity
  8
0
100
AcDbPoint
 10
2.304
 20
3.007
 30
0.0
  0
POINT
  5
1FD
330
18
100
AcDbEntity
  8
0
100
AcDbPoint
 10
2.299
 20
2.934
 30
0.0
  0
POINT
  5
1FE
330
18
100
AcDbEntity
  8
0
100
AcDbPoint
 10
2.16
 20
2.8
 30
0.0
  0
POINT
  5
1FF
330
18
100
AcDbEntity
  8
0
100
AcDbPoint
 10
2.201
 20
2.908
 30
0.0
  0
POINT
  5
200
330
18
100
AcDbEntity
  8
0
100
AcDbPoint
 10
2.22
 20
3.013
 30
0.0
  0
POINT
  5
201
330
18
100
AcDbEntity
  8
0
100
AcDbPoint
 10
1.429
 20
2.925
 30
0.0
  0
POINT
  5
202
330
18
100
AcDbEntity
  8
0
100
AcDbPoint
 10
1.573
 20
2.821
 30
0.0
  0
POINT
  5
203
330
18
100
AcDbEntity
  8
0
100
AcDbPoint
 10
1.621
 20
2.732
 30
0.0
  0
POINT
  5
204
330
18
100
AcDbEntity
  8
0
100
AcDbPoint
 10
1.553
 20
2.669
 30
0.0
  0
POINT
  5
205
330
18
100
AcDbEntity
  8
0
100
AcDbPoint
 10
1.422
 20
2.661
 30
0.0
  0
POINT
  5
206
330
18
100
AcDbEntity
  8
0
100
AcDbPoint
 10
1.339
 20
2.746
 30
0.0
  0
POINT
  5
207
330
18
100
AcDbEntity
  8
0
100
AcDbPoint
 10
1.202
 20
2.776
 30
0.0
  0
POINT
  5
208
330
18
100
AcDbEntity
  8
0
100
AcDbPoint
 10
1.245
 20
2.565
 30
0.0
  0
POINT
  5
209
330
18
100
AcDbEntity
  8
0
100
AcDbPoint
 10
0.8490000000000001
 20
2.93
 30
0.0
  0
POINT
  5
20A
330
18
100
AcDbEntity
  8
0
100
AcDbPoint
 10
0.92
 20
2.752
 30
0.0
  0
POINT
  5
20B
330
18
100
AcDbEntity
  8
0
100
AcDbPoint
 10
0.789
 20
2.899
 30
0.0
  0
POINT
  5
20C
330
18
100
AcDbEntity
  8
0
100
AcDbPoint
 10
0.705
 20
3.237
 30
0.0
  0
POINT
  5
20D
330
18
100
AcDbEntity
  8
0
100
AcDbPoint
 10
0.8040000000000001
 20
3.199
 30
0.0
  0
POINT
  5
20E
330
18
100
AcDbEntity
  8
0
100
AcDbPoint
 10
0.77
 20
3.278
 30
0.0
  0
POINT
  5
20F
330
18
100
AcDbEntity
  8
0
100
AcDbPoint
 10
0.711
 20
3.431
 30
0.0
  0
POINT
  5
210
330
18
100
AcDbEntity
  8
0
100
AcDbPoint
 10
0.5570000000000001
 20
4.225
 30
0.0
  0
POINT
  5
211
330
18
100
AcDbEntity
  8
0
100
AcDbPoint
 10
0.603
 20
4.134
 30
0.0
  0
POINT
  5
212
330
18
100
AcDbEntity
  8
0
100
AcDbPoint
 10
0.596
 20
4.06
 30
0.0
  0
POINT
  5
213
330
18
100
AcDbEntity
  8
0
100
AcDbPoint
 10
0.778
 20
3.908
 30
0.0
  0
POINT
  5
214
330
18
100
AcDbEntity
  8
0
100
AcDbPoint
 10
0.924
 20
3.741
 30
0.0
  0
POINT
  5
215
330
18
100
AcDbEntity
  8
0
100
AcDbPoint
 10
1.064
 20
3.908
 30
0.0
  0
POINT
  5
216
330
18
100
AcDbEntity
  8
0
100
AcDbPoint
 10
1.171
 20
3.787
 30
0.0
  0
POINT
  5
217
330
18
100
AcDbEntity
  8
0
100
AcDbPoint
 10
1.174
 20
3.952
 30
0.0
  0
POINT
  5
218
330
18
100
AcDbEntity
  8
0
100
AcDbPoint
 10
1.259
 20
3.89
 30
0.0
  0
POINT
  5
219
330
18
100
AcDbEntity
  8
0
100
AcDbPoint
 10
1.269
 20
3.982
 30
0.0
  0
POINT
  5
21A
330
18
100
AcDbEntity
  8
0
100
AcDbPoint
 10
1.302
 20
4.034
 30
0.0
  0
POINT
  5
21B
330
18
100
AcDbEntity
  8
0
100
AcDbPoint
 10
1.269
 20
4.122
 30
0.0
  0
POINT
  5
21C
330
18
100
AcDbEntity
  8
0
100
AcDbPoint
 10
1.017
 20
4.214
 30
0.0
  0
POINT
  5
21D
330
18
100
AcDbEntity
  8
0
100
AcDbPoint
 10
2.436
 20
1.06
 30
0.0
  0
POINT
  5
21E
330
18
100
AcDbEntity
  8
0
100
AcDbPoint
 10
2.499
 20
1.206
 30
0.0
  0
POINT
  5
21F
330
18
100
AcDbEntity
  8
0
100
AcDbPoint
 10
2.343
 20
1.144
 30
0.0
  0
POINT
  5
220
330
18
100
AcDbEntity
  8
0
100
AcDbPoint
 10
2.372
 20
1.118
 30
0.0
  0
POINT
  5
221
330
18
100
AcDbEntity
  8
0
100
AcDbPoint
 10
2.432
 20
1.114
 30
0.0
  0
POINT
  5
222
330
18
100
AcDbEntity
  8
0
100
AcDbPoint
 10
2.421
 20
1.237
 30
0.0
  0
POINT
  5
223
330
18
100
AcDbEntity
  8
0
100
AcDbPoint
 10
2.391
 20
1.032
 30
0.0
  0
LINE
  5
224
330
18
100
AcDbEntity
  8
0
100
AcDbLine
 10
2.448
 20
1.148
 30
0.0
 11
2.462
 21
1.187
 31
0.0
  0
LINE
  5
225
330
18
100
AcDbEntity
  8
0
100
AcDbLine
 10
2.462
 20
1.187
 30
0.0
 11
2.446
 21
1.213
 31
0.0
  0
LINE
  5
226
330
18
100
AcDbEntity
  8
0
100
AcDbLine
 10
2.446
 20
1.213
 30
0.0
 11
2.413
 21
1.204
 31
0.0
  0
LINE
  5
227
330
18
100
AcDbEntity
  8
0
100
AcDbLine
 10
2.413
 20
1.204
 30
0.0
 11
2.384
 21
1.182
 31
0.0
  0
LINE
  5
228
330
18
100
AcDbEntity
  8
0
100
AcDbLine
 10
2.384
 20
1.182
 30
0.0
 11
2.403
 21
1.158
 31
0.0
  0
LINE
  5
229
330
18
100
AcDbEntity
  8
0
100
AcDbLine
 10
2.403
 20
1.158
 30
0.0
 11
2.435
 21
1.143
 31
0.0
  0
LINE
  5
22A
330
18
100
AcDbEntity
  8
0
100
AcDbLine
 10
2.435
 20
1.143
 30
0.0
 11
2.448
 21
1.148
 31
0.0
  0
LINE
  5
22B
330
18
100
AcDbEntity
  8
0
100
AcDbLine
 10
2.054
 20
1.204
 30
0.0
 11
2.068
 21
1.204
 31
0.0
  0
LINE
  5
22C
330
18
100
AcDbEntity
  8
0
100
AcDbLine
 10
2.047
 20
1.224
 30
0.0
 11
2.054
 21
1.204
 31
0.0
  0
LINE
  5
22D
330
18
100
AcDbEntity
  8
0
100
AcDbLine
 10
2.062
 20
1.25
 30
0.0
 11
2.047
 21
1.224
 31
0.0
  0
LINE
  5
22E
330
18
100
AcDbEntity
  8
0
100
AcDbLine
 10
2.089
 20
1.247
 30
0.0
 11
2.062
 21
1.25
 31
0.0
  0
LINE
  5
22F
330
18
100
AcDbEntity
  8
0
100
AcDbLine
 10
2.087
 20
1.227
 30
0.0
 11
2.089
 21
1.247
 31
0.0
  0
LINE
  5
230
330
18
100
AcDbEntity
  8
0
100
AcDbLine
 10
2.068
 20
1.204
 30
0.0
 11
2.087
 21
1.227
 31
0.0
  0
LINE
  5
231
330
18
100
AcDbEntity
  8
0
100
AcDbLine
 10
2.214
 20
1.167
 30
0.0
 11
2.234
 21
1.187
 31
0.0
  0
LINE
  5
232
330
18
100
AcDbEntity
  8
0
100
AcDbLine
 10
2.183
 20
1.183
 30
0.0
 11
2.214
 21
1.167
 31
0.0
  0
LINE
  5
233
330
18
100
AcDbEntity
  8
0
100
AcDbLine
 10
2.176
 20
1.223
 30
0.0
 11
2.183
 21
1.183
 31
0.0
  0
LINE
  5
234
330
18
100
AcDbEntity
  8
0
100
AcDbLine
 10
2.174
 20
1.261
 30
0.0
 11
2.176
 21
1.223
 31
0.0
  0
LINE
  5
235
330
18
100
AcDbEntity
  8
0
100
AcDbLine
 10
2.216
 20
1.273
 30
0.0
 11
2.174
 21
1.261
 31
0.0
  0
LINE
  5
236
330
18
100
AcDbEntity
  8
0
100
AcDbLine
 10
2.258
 20
1.263
 30
0.0
 11
2.216
 21
1.273
 31
0.0
  0
LINE
  5
237
330
18
100
AcDbEntity
  8
0
100
AcDbLine
 10
2.258
 20
1.24
 30
0.0
 11
2.258
 21
1.263
 31
0.0
  0
LINE
  5
238
330
18
100
AcDbEntity
  8
0
100
AcDbLine
 10
2.234
 20
1.187
 30
0.0
 11
2.258
 21
1.24
 31
0.0
  0
LINE
  5
239
330
18
100
AcDbEntity
  8
0
100
AcDbLine
 10
2.183
 20
1.302
 30
0.0
 11
2.208
 21
1.315
 31
0.0
  0
LINE
  5
23A
330
18
100
AcDbEntity
  8
0
100
AcDbLine
 10
2.158
 20
1.315
 30
0.0
 11
2.183
 21
1.302
 31
0.0
  0
LINE
  5
23B
330
18
100
AcDbEntity
  8
0
100
AcDbLine
 10
2.158
 20
1.359
 30
0.0
 11
2.158
 21
1.315
 31
0.0
  0
LINE
  5
23C
330
18
100
AcDbEntity
  8
0
100
AcDbLine
 10
2.184
 20
1.379
 30
0.0
 11
2.158
 21
1.359
 31
0.0
  0
LINE
  5
23D
330
18
100
AcDbEntity
  8
0
100
AcDbLine
 10
2.221
 20
1.382
 30
0.0
 11
2.184
 21
1.379
 31
0.0
  0
LINE
  5
23E
330
18
100
AcDbEntity
  8
0
100
AcDbLine
 10
2.239
 20
1.36
 30
0.0
 11
2.221
 21
1.382
 31
0.0
  0
LINE
  5
23F
330
18
100
AcDbEntity
  8
0
100
AcDbLine
 10
2.208
 20
1.315
 30
0.0
 11
2.239
 21
1.36
 31
0.0
  0
LINE
  5
240
330
18
100
AcDbEntity
  8
0
100
AcDbLine
 10
2.076
 20
1.4
 30
0.0
 11
2.088
 21
1.405
 31
0.0
  0
LINE
  5
241
330
18
100
AcDbEntity
  8
0
100
AcDbLine
 10
2.044
 20
1.414
 30
0.0
 11
2.076
 21
1.4
 31
0.0
  0
LINE
  5
242
330
18
100
AcDbEntity
  8
0
100
AcDbLine
 10
2.024
 20
1.438
 30
0.0
 11
2.044
 21
1.414
 31
0.0
  0
LINE
  5
243
330
18
100
AcDbEntity
  8
0
100
AcDbLine
 10
2.054
 20
1.461
 30
0.0
 11
2.024
 21
1.438
 31
0.0
  0
LINE
  5
244
330
18
100
AcDbEntity
  8
0
100
AcDbLine
 10
2.086
 20
1.47
 30
0.0
 11
2.054
 21
1.461
 31
0.0
  0
LINE
  5
245
330
18
100
AcDbEntity
  8
0
100
AcDbLine
 10
2.102
 20
1.443
 30
0.0
 11
2.086
 21
1.47
 31
0.0
  0
LINE
  5
246
330
18
100
AcDbEntity
  8
0
100
AcDbLine
 10
2.088
 20
1.405
 30
0.0
 11
2.102
 21
1.443
 31
0.0
  0
POINT
  5
247
330
18
100
AcDbEntity
  8
0
100
AcDbPoint
 10
2.296
 20
1.179
 30
0.0
  0
POINT
  5
248
330
18
100
AcDbEntity
  8
0
100
AcDbPoint
 10
2.305
 20
1.296
 30
0.0
  0
POINT
  5
249
330
18
100
AcDbEntity
  8
0
100
AcDbPoint
 10
2.324
 20
1.434
 30
0.0
  0
POINT
  5
24A
330
18
100
AcDbEntity
  8
0
100
AcDbPoint
 10
2.031
 20
1.289
 30
0.0
  0
POINT
  5
24B
330
18
100
AcDbEntity
  8
0
100
AcDbPoint
 10
2.163
 20
1.156
 30
0.0
  0
POINT
  5
24C
330
18
100
AcDbEntity
  8
0
100
AcDbPoint
 10
2.061
 20
1.494
 30
0.0
  0
POINT
  5
24D
330
18
100
AcDbEntity
  8
0
100
AcDbPoint
 10
2.168
 20
1.396
 30
0.0
  0
POINT
  5
24E
330
18
100
AcDbEntity
  8
0
100
AcDbPoint
 10
2.072
 20
1.371
 30
0.0
  0
POINT
  5
24F
330
18
100
AcDbEntity
  8
0
100
AcDbPoint
 10
2.012
 20
1.374
 30
0.0
  0
POINT
  5
250
330
18
100
AcDbEntity
  8
0
100
AcDbPoint
 10
1.983
 20
1.401
 30
0.0
  0
POINT
  5
251
330
18
100
AcDbEntity
  8
0
100
AcDbPoint
 10
2.243
 20
1.415
 30
0.0
  0
POINT
  5
252
330
18
100
AcDbEntity
  8
0
100
AcDbPoint
 10
2.139
 20
1.463
 30
0.0
  0
POINT
  5
253
330
18
100
AcDbEntity
  8
0
100
AcDbPoint
 10
2.136
 20
1.266
 30
0.0
  0
POINT
  5
254
330
18
100
AcDbEntity
  8
0
100
AcDbPoint
 10
2.076
 20
1.316
 30
0.0
  0
POINT
  5
255
330
18
100
AcDbEntity
  8
0
100
AcDbPoint
 10
2.401
 20
1.411
 30
0.0
  0
POINT
  5
256
330
18
100
AcDbEntity
  8
0
100
AcDbPoint
 10
2.38
 20
1.379
 30
0.0
  0
POINT
  5
257
330
18
100
AcDbEntity
  8
0
100
AcDbPoint
 10
2.692
 20
1.052
 30
0.0
  0
POINT
  5
258
330
18
100
AcDbEntity
  8
0
100
AcDbPoint
 10
2.728
 20
1.095
 30
0.0
  0
POINT
  5
259
330
18
100
AcDbEntity
  8
0
100
AcDbPoint
 10
2.809
 20
1.053
 30
0.0
  0
POINT
  5
25A
330
18
100
AcDbEntity
  8
0
100
AcDbPoint
 10
2.941
 20
1.176
 30
0.0
  0
POINT
  5
25B
330
18
100
AcDbEntity
  8
0
100
AcDbPoint
 10
2.853
 20
1.071
 30
0.0
  0
POINT
  5
25C
330
18
100
AcDbEntity
  8
0
100
AcDbPoint
 10
2.642
 20
1.51
 30
0.0
  0
POINT
  5
25D
330
18
100
AcDbEntity
  8
0
100
AcDbPoint
 10
2.812
 20
1.401
 30
0.0
  0
POINT
  5
25E
330
18
100
AcDbEntity
  8
0
100
AcDbPoint
 10
2.716
 20
1.375
 30
0.0
  0
POINT
  5
25F
330
18
100
AcDbEntity
  8
0
100
AcDbPoint
 10
2.656
 20
1.379
 30
0.0
  0
POINT
  5
260
330
18
100
AcDbEntity
  8
0
100
AcDbPoint
 10
2.677
 20
1.3
 30
0.0
  0
POINT
  5
261
330
18
100
AcDbEntity
  8
0
100
AcDbPoint
 10
2.644
 20
1.262
 30
0.0
  0
POINT
  5
262
330
18
100
AcDbEntity
  8
0
100
AcDbPoint
 10
2.724
 20
1.179
 30
0.0
  0
POINT
  5
263
330
18
100
AcDbEntity
  8
0
100
AcDbPoint
 10
2.938
 20
1.197
 30
0.0
  0
POINT
  5
264
330
18
100
AcDbEntity
  8
0
100
AcDbPoint
 10
2.815
 20
1.017
 30
0.0
  0
POINT
  5
265
330
18
100
AcDbEntity
  8
0
100
AcDbPoint
 10
2.716
 20
1.119
 30
0.0
  0
POINT
  5
266
330
18
100
AcDbEntity
  8
0
100
AcDbPoint
 10
2.622
 20
1.293
 30
0.0
  0
POINT
  5
267
330
18
100
AcDbEntity
  8
0
100
AcDbPoint
 10
2.627
 20
1.405
 30
0.0
  0
POINT
  5
268
330
18
100
AcDbEntity
  8
0
100
AcDbPoint
 10
2.663
 20
1.542
 30
0.0
  0
POINT
  5
269
330
18
100
AcDbEntity
  8
0
100
AcDbPoint
 10
2.966
 20
1.308
 30
0.0
  0
POINT
  5
26A
330
18
100
AcDbEntity
  8
0
100
AcDbPoint
 10
2.973
 20
1.337
 30
0.0
  0
POINT
  5
26B
330
18
100
AcDbEntity
  8
0
100
AcDbPoint
 10
2.887
 20
1.42
 30
0.0
  0
POINT
  5
26C
330
18
100
AcDbEntity
  8
0
100
AcDbPoint
 10
2.783
 20
1.468
 30
0.0
  0
POINT
  5
26D
330
18
100
AcDbEntity
  8
0
100
AcDbPoint
 10
2.78
 20
1.27
 30
0.0
  0
POINT
  5
26E
330
18
100
AcDbEntity
  8
0
100
AcDbPoint
 10
2.768
 20
1.162
 30
0.0
  0
POINT
  5
26F
330
18
100
AcDbEntity
  8
0
100
AcDbPoint
 10
2.72
 20
1.321
 30
0.0
  0
POINT
  5
270
330
18
100
AcDbEntity
  8
0
100
AcDbPoint
 10
2.338
 20
1.447
 30
0.0
  0
POINT
  5
271
330
18
100
AcDbEntity
  8
0
100
AcDbPoint
 10
2.398
 20
1.396
 30
0.0
  0
POINT
  5
272
330
18
100
AcDbEntity
  8
0
100
AcDbPoint
 10
2.401
 20
1.594
 30
0.0
  0
POINT
  5
273
330
18
100
AcDbEntity
  8
0
100
AcDbPoint
 10
2.505
 20
1.545
 30
0.0
  0
POINT
  5
274
330
18
100
AcDbEntity
  8
0
100
AcDbPoint
 10
2.246
 20
1.531
 30
0.0
  0
POINT
  5
275
330
18
100
AcDbEntity
  8
0
100
AcDbPoint
 10
2.275
 20
1.505
 30
0.0
  0
POINT
  5
276
330
18
100
AcDbEntity
  8
0
100
AcDbPoint
 10
2.335
 20
1.501
 30
0.0
  0
POINT
  5
277
330
18
100
AcDbEntity
  8
0
100
AcDbPoint
 10
2.43
 20
1.527
 30
0.0
  0
POINT
  5
278
330
18
100
AcDbEntity
  8
0
100
AcDbPoint
 10
2.324
 20
1.624
 30
0.0
  0
POINT
  5
279
330
18
100
AcDbEntity
  8
0
100
AcDbPoint
 10
2.531
 20
1.211
 30
0.0
  0
POINT
  5
27A
330
18
100
AcDbEntity
  8
0
100
AcDbPoint
 10
2.425
 20
1.286
 30
0.0
  0
POINT
  5
27B
330
18
100
AcDbEntity
  8
0
100
AcDbPoint
 10
2.293
 20
1.419
 30
0.0
  0
POINT
  5
27C
330
18
100
AcDbEntity
  8
0
100
AcDbPoint
 10
2.587
 20
1.565
 30
0.0
  0
POINT
  5
27D
330
18
100
AcDbEntity
  8
0
100
AcDbPoint
 10
2.567
 20
1.426
 30
0.0
  0
POINT
  5
27E
330
18
100
AcDbEntity
  8
0
100
AcDbPoint
 10
2.559
 20
1.309
 30
0.0
  0
LINE
  5
27F
330
18
100
AcDbEntity
  8
0
100
AcDbLine
 10
2.962
 20
1.236
 30
0.0
 11
2.975
 21
1.251
 31
0.0
  0
LINE
  5
280
330
18
100
AcDbEntity
  8
0
100
AcDbLine
 10
2.975
 20
1.251
 30
0.0
 11
2.976
 21
1.264
 31
0.0
  0
LINE
  5
281
330
18
100
AcDbEntity
  8
0
100
AcDbLine
 10
2.976
 20
1.264
 30
0.0
 11
2.958
 21
1.266
 31
0.0
  0
LINE
  5
282
330
18
100
AcDbEntity
  8
0
100
AcDbLine
 10
2.958
 20
1.266
 30
0.0
 11
2.948
 21
1.249
 31
0.0
  0
LINE
  5
283
330
18
100
AcDbEntity
  8
0
100
AcDbLine
 10
2.948
 20
1.249
 30
0.0
 11
2.953
 21
1.235
 31
0.0
  0
LINE
  5
284
330
18
100
AcDbEntity
  8
0
100
AcDbLine
 10
2.953
 20
1.235
 30
0.0
 11
2.962
 21
1.236
 31
0.0
  0
LINE
  5
285
330
18
100
AcDbEntity
  8
0
100
AcDbLine
 10
2.712
 20
1.209
 30
0.0
 11
2.731
 21
1.231
 31
0.0
  0
LINE
  5
286
330
18
100
AcDbEntity
  8
0
100
AcDbLine
 10
2.731
 20
1.231
 30
0.0
 11
2.733
 21
1.251
 31
0.0
  0
LINE
  5
287
330
18
100
AcDbEntity
  8
0
100
AcDbLine
 10
2.733
 20
1.251
 30
0.0
 11
2.706
 21
1.255
 31
0.0
  0
LINE
  5
288
330
18
100
AcDbEntity
  8
0
100
AcDbLine
 10
2.706
 20
1.255
 30
0.0
 11
2.691
 21
1.228
 31
0.0
  0
LINE
  5
289
330
18
100
AcDbEntity
  8
0
100
AcDbLine
 10
2.691
 20
1.228
 30
0.0
 11
2.698
 21
1.208
 31
0.0
  0
LINE
  5
28A
330
18
100
AcDbEntity
  8
0
100
AcDbLine
 10
2.698
 20
1.208
 30
0.0
 11
2.712
 21
1.209
 31
0.0
  0
LINE
  5
28B
330
18
100
AcDbEntity
  8
0
100
AcDbLine
 10
2.841
 20
1.082
 30
0.0
 11
2.867
 21
1.112
 31
0.0
  0
LINE
  5
28C
330
18
100
AcDbEntity
  8
0
100
AcDbLine
 10
2.867
 20
1.112
 30
0.0
 11
2.869
 21
1.139
 31
0.0
  0
LINE
  5
28D
330
18
100
AcDbEntity
  8
0
100
AcDbLine
 10
2.869
 20
1.139
 30
0.0
 11
2.833
 21
1.143
 31
0.0
  0
LINE
  5
28E
330
18
100
AcDbEntity
  8
0
100
AcDbLine
 10
2.833
 20
1.143
 30
0.0
 11
2.813
 21
1.108
 31
0.0
  0
LINE
  5
28F
330
18
100
AcDbEntity
  8
0
100
AcDbLine
 10
2.813
 20
1.108
 30
0.0
 11
2.823
 21
1.081
 31
0.0
  0
LINE
  5
290
330
18
100
AcDbEntity
  8
0
100
AcDbLine
 10
2.823
 20
1.081
 30
0.0
 11
2.841
 21
1.082
 31
0.0
  0
LINE
  5
291
330
18
100
AcDbEntity
  8
0
100
AcDbLine
 10
2.732
 20
1.41
 30
0.0
 11
2.746
 21
1.448
 31
0.0
  0
LINE
  5
292
330
18
100
AcDbEntity
  8
0
100
AcDbLine
 10
2.746
 20
1.448
 30
0.0
 11
2.73
 21
1.474
 31
0.0
  0
LINE
  5
293
330
18
100
AcDbEntity
  8
0
100
AcDbLine
 10
2.73
 20
1.474
 30
0.0
 11
2.698
 21
1.465
 31
0.0
  0
LINE
  5
294
330
18
100
AcDbEntity
  8
0
100
AcDbLine
 10
2.698
 20
1.465
 30
0.0
 11
2.668
 21
1.443
 31
0.0
  0
LINE
  5
295
330
18
100
AcDbEntity
  8
0
100
AcDbLine
 10
2.668
 20
1.443
 30
0.0
 11
2.688
 21
1.419
 31
0.0
  0
LINE
  5
296
330
18
100
AcDbEntity
  8
0
100
AcDbLine
 10
2.688
 20
1.419
 30
0.0
 11
2.72
 21
1.404
 31
0.0
  0
LINE
  5
297
330
18
100
AcDbEntity
  8
0
100
AcDbLine
 10
2.72
 20
1.404
 30
0.0
 11
2.732
 21
1.41
 31
0.0
  0
LINE
  5
298
330
18
100
AcDbEntity
  8
0
100
AcDbLine
 10
2.852
 20
1.32
 30
0.0
 11
2.883
 21
1.365
 31
0.0
  0
LINE
  5
299
330
18
100
AcDbEntity
  8
0
100
AcDbLine
 10
2.883
 20
1.365
 30
0.0
 11
2.865
 21
1.386
 31
0.0
  0
LINE
  5
29A
330
18
100
AcDbEntity
  8
0
100
AcDbLine
 10
2.865
 20
1.386
 30
0.0
 11
2.828
 21
1.384
 31
0.0
  0
LINE
  5
29B
330
18
100
AcDbEntity
  8
0
100
AcDbLine
 10
2.828
 20
1.384
 30
0.0
 11
2.802
 21
1.364
 31
0.0
  0
LINE
  5
29C
330
18
100
AcDbEntity
  8
0
100
AcDbLine
 10
2.802
 20
1.364
 30
0.0
 11
2.802
 21
1.32
 31
0.0
  0
LINE
  5
29D
330
18
100
AcDbEntity
  8
0
100
AcDbLine
 10
2.802
 20
1.32
 30
0.0
 11
2.827
 21
1.307
 31
0.0
  0
LINE
  5
29E
330
18
100
AcDbEntity
  8
0
100
AcDbLine
 10
2.827
 20
1.307
 30
0.0
 11
2.852
 21
1.32
 31
0.0
  0
LINE
  5
29F
330
18
100
AcDbEntity
  8
0
100
AcDbLine
 10
2.878
 20
1.191
 30
0.0
 11
2.902
 21
1.244
 31
0.0
  0
LINE
  5
2A0
330
18
100
AcDbEntity
  8
0
100
AcDbLine
 10
2.902
 20
1.244
 30
0.0
 11
2.902
 21
1.268
 31
0.0
  0
LINE
  5
2A1
330
18
100
AcDbEntity
  8
0
100
AcDbLine
 10
2.902
 20
1.268
 30
0.0
 11
2.86
 21
1.278
 31
0.0
  0
LINE
  5
2A2
330
18
100
AcDbEntity
  8
0
100
AcDbLine
 10
2.86
 20
1.278
 30
0.0
 11
2.818
 21
1.266
 31
0.0
  0
LINE
  5
2A3
330
18
100
AcDbEntity
  8
0
100
AcDbLine
 10
2.818
 20
1.266
 30
0.0
 11
2.82
 21
1.227
 31
0.0
  0
LINE
  5
2A4
330
18
100
AcDbEntity
  8
0
100
AcDbLine
 10
2.82
 20
1.227
 30
0.0
 11
2.827
 21
1.188
 31
0.0
  0
LINE
  5
2A5
330
18
100
AcDbEntity
  8
0
100
AcDbLine
 10
2.827
 20
1.188
 30
0.0
 11
2.858
 21
1.172
 31
0.0
  0
LINE
  5
2A6
330
18
100
AcDbEntity
  8
0
100
AcDbLine
 10
2.858
 20
1.172
 30
0.0
 11
2.878
 21
1.191
 31
0.0
  0
LINE
  5
2A7
330
18
100
AcDbEntity
  8
0
100
AcDbLine
 10
2.351
 20
1.536
 30
0.0
 11
2.365
 21
1.574
 31
0.0
  0
LINE
  5
2A8
330
18
100
AcDbEntity
  8
0
100
AcDbLine
 10
2.365
 20
1.574
 30
0.0
 11
2.348
 21
1.6
 31
0.0
  0
LINE
  5
2A9
330
18
100
AcDbEntity
  8
0
100
AcDbLine
 10
2.348
 20
1.6
 30
0.0
 11
2.316
 21
1.591
 31
0.0
  0
LINE
  5
2AA
330
18
100
AcDbEntity
  8
0
100
AcDbLine
 10
2.316
 20
1.591
 30
0.0
 11
2.287
 21
1.569
 31
0.0
  0
LINE
  5
2AB
330
18
100
AcDbEntity
  8
0
100
AcDbLine
 10
2.287
 20
1.569
 30
0.0
 11
2.306
 21
1.545
 31
0.0
  0
LINE
  5
2AC
330
18
100
AcDbEntity
  8
0
100
AcDbLine
 10
2.306
 20
1.545
 30
0.0
 11
2.338
 21
1.53
 31
0.0
  0
LINE
  5
2AD
330
18
100
AcDbEntity
  8
0
100
AcDbLine
 10
2.338
 20
1.53
 30
0.0
 11
2.351
 21
1.536
 31
0.0
  0
LINE
  5
2AE
330
18
100
AcDbEntity
  8
0
100
AcDbLine
 10
2.47
 20
1.446
 30
0.0
 11
2.502
 21
1.491
 31
0.0
  0
LINE
  5
2AF
330
18
100
AcDbEntity
  8
0
100
AcDbLine
 10
2.502
 20
1.491
 30
0.0
 11
2.483
 21
1.512
 31
0.0
  0
LINE
  5
2B0
330
18
100
AcDbEntity
  8
0
100
AcDbLine
 10
2.483
 20
1.512
 30
0.0
 11
2.446
 21
1.51
 31
0.0
  0
LINE
  5
2B1
330
18
100
AcDbEntity
  8
0
100
AcDbLine
 10
2.446
 20
1.51
 30
0.0
 11
2.42
 21
1.49
 31
0.0
  0
LINE
  5
2B2
330
18
100
AcDbEntity
  8
0
100
AcDbLine
 10
2.42
 20
1.49
 30
0.0
 11
2.421
 21
1.446
 31
0.0
  0
LINE
  5
2B3
330
18
100
AcDbEntity
  8
0
100
AcDbLine
 10
2.421
 20
1.446
 30
0.0
 11
2.446
 21
1.433
 31
0.0
  0
LINE
  5
2B4
330
18
100
AcDbEntity
  8
0
100
AcDbLine
 10
2.446
 20
1.433
 30
0.0
 11
2.47
 21
1.446
 31
0.0
  0
LINE
  5
2B5
330
18
100
AcDbEntity
  8
0
100
AcDbLine
 10
2.497
 20
1.317
 30
0.0
 11
2.52
 21
1.37
 31
0.0
  0
LINE
  5
2B6
330
18
100
AcDbEntity
  8
0
100
AcDbLine
 10
2.52
 20
1.37
 30
0.0
 11
2.521
 21
1.394
 31
0.0
  0
LINE
  5
2B7
330
18
100
AcDbEntity
  8
0
100
AcDbLine
 10
2.521
 20
1.394
 30
0.0
 11
2.478
 21
1.404
 31
0.0
  0
LINE
  5
2B8
330
18
100
AcDbEntity
  8
0
100
AcDbLine
 10
2.478
 20
1.404
 30
0.0
 11
2.436
 21
1.392
 31
0.0
  0
LINE
  5
2B9
330
18
100
AcDbEntity
  8
0
100
AcDbLine
 10
2.436
 20
1.392
 30
0.0
 11
2.438
 21
1.353
 31
0.0
  0
LINE
  5
2BA
330
18
100
AcDbEntity
  8
0
100
AcDbLine
 10
2.438
 20
1.353
 30
0.0
 11
2.445
 21
1.314
 31
0.0
  0
LINE
  5
2BB
330
18
100
AcDbEntity
  8
0
100
AcDbLine
 10
2.445
 20
1.314
 30
0.0
 11
2.477
 21
1.298
 31
0.0
  0
LINE
  5
2BC
330
18
100
AcDbEntity
  8
0
100
AcDbLine
 10
2.477
 20
1.298
 30
0.0
 11
2.497
 21
1.317
 31
0.0
  0
LINE
  5
2BD
330
18
100
AcDbEntity
  8
0
100
AcDbLine
 10
2.33
 20
1.335
 30
0.0
 11
2.35
 21
1.357
 31
0.0
  0
LINE
  5
2BE
330
18
100
AcDbEntity
  8
0
100
AcDbLine
 10
2.35
 20
1.357
 30
0.0
 11
2.351
 21
1.377
 31
0.0
  0
LINE
  5
2BF
330
18
100
AcDbEntity
  8
0
100
AcDbLine
 10
2.351
 20
1.377
 30
0.0
 11
2.325
 21
1.381
 31
0.0
  0
LINE
  5
2C0
330
18
100
AcDbEntity
  8
0
100
AcDbLine
 10
2.325
 20
1.381
 30
0.0
 11
2.309
 21
1.354
 31
0.0
  0
LINE
  5
2C1
330
18
100
AcDbEntity
  8
0
100
AcDbLine
 10
2.309
 20
1.354
 30
0.0
 11
2.317
 21
1.334
 31
0.0
  0
LINE
  5
2C2
330
18
100
AcDbEntity
  8
0
100
AcDbLine
 10
2.317
 20
1.334
 30
0.0
 11
2.33
 21
1.335
 31
0.0
  0
POINT
  5
2C3
330
18
100
AcDbEntity
  8
0
100
AcDbPoint
 10
2.258
 20
1.757
 30
0.0
  0
POINT
  5
2C4
330
18
100
AcDbEntity
  8
0
100
AcDbPoint
 10
2.103
 20
1.695
 30
0.0
  0
POINT
  5
2C5
330
18
100
AcDbEntity
  8
0
100
AcDbPoint
 10
2.132
 20
1.668
 30
0.0
  0
POINT
  5
2C6
330
18
100
AcDbEntity
  8
0
100
AcDbPoint
 10
2.191
 20
1.665
 30
0.0
  0
POINT
  5
2C7
330
18
100
AcDbEntity
  8
0
100
AcDbPoint
 10
2.181
 20
1.788
 30
0.0
  0
LINE
  5
2C8
330
18
100
AcDbEntity
  8
0
100
AcDbLine
 10
2.208
 20
1.699
 30
0.0
 11
2.222
 21
1.737
 31
0.0
  0
LINE
  5
2C9
330
18
100
AcDbEntity
  8
0
100
AcDbLine
 10
2.222
 20
1.737
 30
0.0
 11
2.205
 21
1.764
 31
0.0
  0
LINE
  5
2CA
330
18
100
AcDbEntity
  8
0
100
AcDbLine
 10
2.205
 20
1.764
 30
0.0
 11
2.173
 21
1.755
 31
0.0
  0
LINE
  5
2CB
330
18
100
AcDbEntity
  8
0
100
AcDbLine
 10
2.173
 20
1.755
 30
0.0
 11
2.144
 21
1.732
 31
0.0
  0
LINE
  5
2CC
330
18
100
AcDbEntity
  8
0
100
AcDbLine
 10
2.144
 20
1.732
 30
0.0
 11
2.163
 21
1.708
 31
0.0
  0
LINE
  5
2CD
330
18
100
AcDbEntity
  8
0
100
AcDbLine
 10
2.163
 20
1.708
 30
0.0
 11
2.195
 21
1.694
 31
0.0
  0
LINE
  5
2CE
330
18
100
AcDbEntity
  8
0
100
AcDbLine
 10
2.195
 20
1.694
 30
0.0
 11
2.208
 21
1.699
 31
0.0
  0
POINT
  5
2CF
330
18
100
AcDbEntity
  8
0
100
AcDbPoint
 10
2.188
 20
1.87
 30
0.0
  0
POINT
  5
2D0
330
18
100
AcDbEntity
  8
0
100
AcDbPoint
 10
2.033
 20
1.808
 30
0.0
  0
POINT
  5
2D1
330
18
100
AcDbEntity
  8
0
100
AcDbPoint
 10
2.062
 20
1.781
 30
0.0
  0
POINT
  5
2D2
330
18
100
AcDbEntity
  8
0
100
AcDbPoint
 10
2.121
 20
1.778
 30
0.0
  0
POINT
  5
2D3
330
18
100
AcDbEntity
  8
0
100
AcDbPoint
 10
2.11
 20
1.901
 30
0.0
  0
POINT
  5
2D4
330
18
100
AcDbEntity
  8
0
100
AcDbPoint
 10
2.08
 20
1.696
 30
0.0
  0
LINE
  5
2D5
330
18
100
AcDbEntity
  8
0
100
AcDbLine
 10
2.137
 20
1.812
 30
0.0
 11
2.151
 21
1.851
 31
0.0
  0
LINE
  5
2D6
330
18
100
AcDbEntity
  8
0
100
AcDbLine
 10
2.151
 20
1.851
 30
0.0
 11
2.135
 21
1.877
 31
0.0
  0
LINE
  5
2D7
330
18
100
AcDbEntity
  8
0
100
AcDbLine
 10
2.135
 20
1.877
 30
0.0
 11
2.103
 21
1.868
 31
0.0
  0
LINE
  5
2D8
330
18
100
AcDbEntity
  8
0
100
AcDbLine
 10
2.103
 20
1.868
 30
0.0
 11
2.073
 21
1.846
 31
0.0
  0
LINE
  5
2D9
330
18
100
AcDbEntity
  8
0
100
AcDbLine
 10
2.073
 20
1.846
 30
0.0
 11
2.093
 21
1.822
 31
0.0
  0
LINE
  5
2DA
330
18
100
AcDbEntity
  8
0
100
AcDbLine
 10
2.093
 20
1.822
 30
0.0
 11
2.125
 21
1.807
 31
0.0
  0
LINE
  5
2DB
330
18
100
AcDbEntity
  8
0
100
AcDbLine
 10
2.125
 20
1.807
 30
0.0
 11
2.137
 21
1.812
 31
0.0
  0
LINE
  5
2DC
330
18
100
AcDbEntity
  8
0
100
AcDbLine
 10
1.729
 20
1.906
 30
0.0
 11
1.743
 21
1.906
 31
0.0
  0
LINE
  5
2DD
330
18
100
AcDbEntity
  8
0
100
AcDbLine
 10
1.722
 20
1.926
 30
0.0
 11
1.729
 21
1.906
 31
0.0
  0
LINE
  5
2DE
330
18
100
AcDbEntity
  8
0
100
AcDbLine
 10
1.737
 20
1.952
 30
0.0
 11
1.722
 21
1.926
 31
0.0
  0
LINE
  5
2DF
330
18
100
AcDbEntity
  8
0
100
AcDbLine
 10
1.763
 20
1.949
 30
0.0
 11
1.737
 21
1.952
 31
0.0
  0
LINE
  5
2E0
330
18
100
AcDbEntity
  8
0
100
AcDbLine
 10
1.762
 20
1.929
 30
0.0
 11
1.763
 21
1.949
 31
0.0
  0
LINE
  5
2E1
330
18
100
AcDbEntity
  8
0
100
AcDbLine
 10
1.743
 20
1.906
 30
0.0
 11
1.762
 21
1.929
 31
0.0
  0
POINT
  5
2E2
330
18
100
AcDbEntity
  8
0
100
AcDbPoint
 10
1.706
 20
1.991
 30
0.0
  0
POINT
  5
2E3
330
18
100
AcDbEntity
  8
0
100
AcDbPoint
 10
1.81
 20
1.967
 30
0.0
  0
POINT
  5
2E4
330
18
100
AcDbEntity
  8
0
100
AcDbPoint
 10
1.75
 20
2.018
 30
0.0
  0
LINE
  5
2E5
330
18
100
AcDbEntity
  8
0
100
AcDbLine
 10
1.564
 20
1.961
 30
0.0
 11
1.577
 21
1.967
 31
0.0
  0
LINE
  5
2E6
330
18
100
AcDbEntity
  8
0
100
AcDbLine
 10
1.532
 20
1.976
 30
0.0
 11
1.564
 21
1.961
 31
0.0
  0
LINE
  5
2E7
330
18
100
AcDbEntity
  8
0
100
AcDbLine
 10
1.513
 20
2.0
 30
0.0
 11
1.532
 21
1.976
 31
0.0
  0
LINE
  5
2E8
330
18
100
AcDbEntity
  8
0
100
AcDbLine
 10
1.542
 20
2.022
 30
0.0
 11
1.513
 21
2.0
 31
0.0
  0
LINE
  5
2E9
330
18
100
AcDbEntity
  8
0
100
AcDbLine
 10
1.575
 20
2.031
 30
0.0
 11
1.542
 21
2.022
 31
0.0
  0
LINE
  5
2EA
330
18
100
AcDbEntity
  8
0
100
AcDbLine
 10
1.591
 20
2.005
 30
0.0
 11
1.575
 21
2.031
 31
0.0
  0
LINE
  5
2EB
330
18
100
AcDbEntity
  8
0
100
AcDbLine
 10
1.577
 20
1.967
 30
0.0
 11
1.591
 21
2.005
 31
0.0
  0
POINT
  5
2EC
330
18
100
AcDbEntity
  8
0
100
AcDbPoint
 10
1.55
 20
2.055
 30
0.0
  0
POINT
  5
2ED
330
18
100
AcDbEntity
  8
0
100
AcDbPoint
 10
1.656
 20
1.958
 30
0.0
  0
POINT
  5
2EE
330
18
100
AcDbEntity
  8
0
100
AcDbPoint
 10
1.561
 20
1.932
 30
0.0
  0
POINT
  5
2EF
330
18
100
AcDbEntity
  8
0
100
AcDbPoint
 10
1.501
 20
1.936
 30
0.0
  0
POINT
  5
2F0
330
18
100
AcDbEntity
  8
0
100
AcDbPoint
 10
1.472
 20
1.962
 30
0.0
  0
POINT
  5
2F1
330
18
100
AcDbEntity
  8
0
100
AcDbPoint
 10
1.628
 20
2.025
 30
0.0
  0
POINT
  5
2F2
330
18
100
AcDbEntity
  8
0
100
AcDbPoint
 10
1.565
 20
1.878
 30
0.0
  0
LINE
  5
2F3
330
18
100
AcDbEntity
  8
0
100
AcDbLine
 10
1.388
 20
1.972
 30
0.0
 11
1.401
 21
1.977
 31
0.0
  0
LINE
  5
2F4
330
18
100
AcDbEntity
  8
0
100
AcDbLine
 10
1.356
 20
1.987
 30
0.0
 11
1.388
 21
1.972
 31
0.0
  0
LINE
  5
2F5
330
18
100
AcDbEntity
  8
0
100
AcDbLine
 10
1.337
 20
2.011
 30
0.0
 11
1.356
 21
1.987
 31
0.0
  0
LINE
  5
2F6
330
18
100
AcDbEntity
  8
0
100
AcDbLine
 10
1.367
 20
2.033
 30
0.0
 11
1.337
 21
2.011
 31
0.0
  0
LINE
  5
2F7
330
18
100
AcDbEntity
  8
0
100
AcDbLine
 10
1.399
 20
2.042
 30
0.0
 11
1.367
 21
2.033
 31
0.0
  0
LINE
  5
2F8
330
18
100
AcDbEntity
  8
0
100
AcDbLine
 10
1.415
 20
2.016
 30
0.0
 11
1.399
 21
2.042
 31
0.0
  0
LINE
  5
2F9
330
18
100
AcDbEntity
  8
0
100
AcDbLine
 10
1.401
 20
1.977
 30
0.0
 11
1.415
 21
2.016
 31
0.0
  0
POINT
  5
2FA
330
18
100
AcDbEntity
  8
0
100
AcDbPoint
 10
1.344
 20
1.861
 30
0.0
  0
POINT
  5
2FB
330
18
100
AcDbEntity
  8
0
100
AcDbPoint
 10
1.374
 20
2.066
 30
0.0
  0
POINT
  5
2FC
330
18
100
AcDbEntity
  8
0
100
AcDbPoint
 10
1.385
 20
1.943
 30
0.0
  0
POINT
  5
2FD
330
18
100
AcDbEntity
  8
0
100
AcDbPoint
 10
1.325
 20
1.947
 30
0.0
  0
POINT
  5
2FE
330
18
100
AcDbEntity
  8
0
100
AcDbPoint
 10
1.296
 20
1.973
 30
0.0
  0
POINT
  5
2FF
330
18
100
AcDbEntity
  8
0
100
AcDbPoint
 10
1.452
 20
2.035
 30
0.0
  0
POINT
  5
300
330
18
100
AcDbEntity
  8
0
100
AcDbPoint
 10
1.811
 20
1.733
 30
0.0
  0
POINT
  5
301
330
18
100
AcDbEntity
  8
0
100
AcDbPoint
 10
1.871
 20
1.682
 30
0.0
  0
POINT
  5
302
330
18
100
AcDbEntity
  8
0
100
AcDbPoint
 10
1.875
 20
1.879
 30
0.0
  0
POINT
  5
303
330
18
100
AcDbEntity
  8
0
100
AcDbPoint
 10
1.978
 20
1.831
 30
0.0
  0
POINT
  5
304
330
18
100
AcDbEntity
  8
0
100
AcDbPoint
 10
1.719
 20
1.817
 30
0.0
  0
POINT
  5
305
330
18
100
AcDbEntity
  8
0
100
AcDbPoint
 10
1.748
 20
1.79
 30
0.0
  0
POINT
  5
306
330
18
100
AcDbEntity
  8
0
100
AcDbPoint
 10
1.808
 20
1.787
 30
0.0
  0
POINT
  5
307
330
18
100
AcDbEntity
  8
0
100
AcDbPoint
 10
1.903
 20
1.812
 30
0.0
  0
POINT
  5
308
330
18
100
AcDbEntity
  8
0
100
AcDbPoint
 10
1.797
 20
1.91
 30
0.0
  0
POINT
  5
309
330
18
100
AcDbEntity
  8
0
100
AcDbPoint
 10
1.899
 20
1.572
 30
0.0
  0
POINT
  5
30A
330
18
100
AcDbEntity
  8
0
100
AcDbPoint
 10
1.767
 20
1.705
 30
0.0
  0
POINT
  5
30B
330
18
100
AcDbEntity
  8
0
100
AcDbPoint
 10
2.04
 20
1.712
 30
0.0
  0
POINT
  5
30C
330
18
100
AcDbEntity
  8
0
100
AcDbPoint
 10
2.032
 20
1.595
 30
0.0
  0
LINE
  5
30D
330
18
100
AcDbEntity
  8
0
100
AcDbLine
 10
1.824
 20
1.821
 30
0.0
 11
1.838
 21
1.859
 31
0.0
  0
LINE
  5
30E
330
18
100
AcDbEntity
  8
0
100
AcDbLine
 10
1.838
 20
1.859
 30
0.0
 11
1.822
 21
1.886
 31
0.0
  0
LINE
  5
30F
330
18
100
AcDbEntity
  8
0
100
AcDbLine
 10
1.822
 20
1.886
 30
0.0
 11
1.789
 21
1.877
 31
0.0
  0
LINE
  5
310
330
18
100
AcDbEntity
  8
0
100
AcDbLine
 10
1.789
 20
1.877
 30
0.0
 11
1.76
 21
1.854
 31
0.0
  0
LINE
  5
311
330
18
100
AcDbEntity
  8
0
100
AcDbLine
 10
1.76
 20
1.854
 30
0.0
 11
1.779
 21
1.831
 31
0.0
  0
LINE
  5
312
330
18
100
AcDbEntity
  8
0
100
AcDbLine
 10
1.779
 20
1.831
 30
0.0
 11
1.811
 21
1.816
 31
0.0
  0
LINE
  5
313
330
18
100
AcDbEntity
  8
0
100
AcDbLine
 10
1.811
 20
1.816
 30
0.0
 11
1.824
 21
1.821
 31
0.0
  0
LINE
  5
314
330
18
100
AcDbEntity
  8
0
100
AcDbLine
 10
1.944
 20
1.731
 30
0.0
 11
1.975
 21
1.776
 31
0.0
  0
LINE
  5
315
330
18
100
AcDbEntity
  8
0
100
AcDbLine
 10
1.975
 20
1.776
 30
0.0
 11
1.956
 21
1.798
 31
0.0
  0
LINE
  5
316
330
18
100
AcDbEntity
  8
0
100
AcDbLine
 10
1.956
 20
1.798
 30
0.0
 11
1.919
 21
1.795
 31
0.0
  0
LINE
  5
317
330
18
100
AcDbEntity
  8
0
100
AcDbLine
 10
1.919
 20
1.795
 30
0.0
 11
1.893
 21
1.775
 31
0.0
  0
LINE
  5
318
330
18
100
AcDbEntity
  8
0
100
AcDbLine
 10
1.893
 20
1.775
 30
0.0
 11
1.894
 21
1.731
 31
0.0
  0
LINE
  5
319
330
18
100
AcDbEntity
  8
0
100
AcDbLine
 10
1.894
 20
1.731
 30
0.0
 11
1.919
 21
1.718
 31
0.0
  0
LINE
  5
31A
330
18
100
AcDbEntity
  8
0
100
AcDbLine
 10
1.919
 20
1.718
 30
0.0
 11
1.944
 21
1.731
 31
0.0
  0
LINE
  5
31B
330
18
100
AcDbEntity
  8
0
100
AcDbLine
 10
1.97
 20
1.603
 30
0.0
 11
1.993
 21
1.656
 31
0.0
  0
LINE
  5
31C
330
18
100
AcDbEntity
  8
0
100
AcDbLine
 10
1.993
 20
1.656
 30
0.0
 11
1.994
 21
1.679
 31
0.0
  0
LINE
  5
31D
330
18
100
AcDbEntity
  8
0
100
AcDbLine
 10
1.994
 20
1.679
 30
0.0
 11
1.951
 21
1.689
 31
0.0
  0
LINE
  5
31E
330
18
100
AcDbEntity
  8
0
100
AcDbLine
 10
1.951
 20
1.689
 30
0.0
 11
1.91
 21
1.677
 31
0.0
  0
LINE
  5
31F
330
18
100
AcDbEntity
  8
0
100
AcDbLine
 10
1.91
 20
1.677
 30
0.0
 11
1.911
 21
1.639
 31
0.0
  0
LINE
  5
320
330
18
100
AcDbEntity
  8
0
100
AcDbLine
 10
1.911
 20
1.639
 30
0.0
 11
1.919
 21
1.599
 31
0.0
  0
LINE
  5
321
330
18
100
AcDbEntity
  8
0
100
AcDbLine
 10
1.919
 20
1.599
 30
0.0
 11
1.95
 21
1.583
 31
0.0
  0
LINE
  5
322
330
18
100
AcDbEntity
  8
0
100
AcDbLine
 10
1.95
 20
1.583
 30
0.0
 11
1.97
 21
1.603
 31
0.0
  0
LINE
  5
323
330
18
100
AcDbEntity
  8
0
100
AcDbLine
 10
1.804
 20
1.62
 30
0.0
 11
1.823
 21
1.643
 31
0.0
  0
LINE
  5
324
330
18
100
AcDbEntity
  8
0
100
AcDbLine
 10
1.823
 20
1.643
 30
0.0
 11
1.824
 21
1.663
 31
0.0
  0
LINE
  5
325
330
18
100
AcDbEntity
  8
0
100
AcDbLine
 10
1.824
 20
1.663
 30
0.0
 11
1.798
 21
1.666
 31
0.0
  0
LINE
  5
326
330
18
100
AcDbEntity
  8
0
100
AcDbLine
 10
1.798
 20
1.666
 30
0.0
 11
1.783
 21
1.64
 31
0.0
  0
LINE
  5
327
330
18
100
AcDbEntity
  8
0
100
AcDbLine
 10
1.783
 20
1.64
 30
0.0
 11
1.79
 21
1.62
 31
0.0
  0
LINE
  5
328
330
18
100
AcDbEntity
  8
0
100
AcDbLine
 10
1.79
 20
1.62
 30
0.0
 11
1.804
 21
1.62
 31
0.0
  0
POINT
  5
329
330
18
100
AcDbEntity
  8
0
100
AcDbPoint
 10
1.468
 20
1.747
 30
0.0
  0
POINT
  5
32A
330
18
100
AcDbEntity
  8
0
100
AcDbPoint
 10
1.528
 20
1.696
 30
0.0
  0
POINT
  5
32B
330
18
100
AcDbEntity
  8
0
100
AcDbPoint
 10
1.531
 20
1.893
 30
0.0
  0
POINT
  5
32C
330
18
100
AcDbEntity
  8
0
100
AcDbPoint
 10
1.635
 20
1.845
 30
0.0
  0
POINT
  5
32D
330
18
100
AcDbEntity
  8
0
100
AcDbPoint
 10
1.376
 20
1.831
 30
0.0
  0
POINT
  5
32E
330
18
100
AcDbEntity
  8
0
100
AcDbPoint
 10
1.405
 20
1.805
 30
0.0
  0
POINT
  5
32F
330
18
100
AcDbEntity
  8
0
100
AcDbPoint
 10
1.464
 20
1.801
 30
0.0
  0
POINT
  5
330
330
18
100
AcDbEntity
  8
0
100
AcDbPoint
 10
1.56
 20
1.827
 30
0.0
  0
POINT
  5
331
330
18
100
AcDbEntity
  8
0
100
AcDbPoint
 10
1.453
 20
1.924
 30
0.0
  0
POINT
  5
332
330
18
100
AcDbEntity
  8
0
100
AcDbPoint
 10
1.555
 20
1.586
 30
0.0
  0
POINT
  5
333
330
18
100
AcDbEntity
  8
0
100
AcDbPoint
 10
1.423
 20
1.719
 30
0.0
  0
POINT
  5
334
330
18
100
AcDbEntity
  8
0
100
AcDbPoint
 10
1.697
 20
1.726
 30
0.0
  0
POINT
  5
335
330
18
100
AcDbEntity
  8
0
100
AcDbPoint
 10
1.688
 20
1.609
 30
0.0
  0
LINE
  5
336
330
18
100
AcDbEntity
  8
0
100
AcDbLine
 10
1.48
 20
1.835
 30
0.0
 11
1.494
 21
1.874
 31
0.0
  0
LINE
  5
337
330
18
100
AcDbEntity
  8
0
100
AcDbLine
 10
1.494
 20
1.874
 30
0.0
 11
1.478
 21
1.9
 31
0.0
  0
LINE
  5
338
330
18
100
AcDbEntity
  8
0
100
AcDbLine
 10
1.478
 20
1.9
 30
0.0
 11
1.446
 21
1.891
 31
0.0
  0
LINE
  5
339
330
18
100
AcDbEntity
  8
0
100
AcDbLine
 10
1.446
 20
1.891
 30
0.0
 11
1.416
 21
1.869
 31
0.0
  0
LINE
  5
33A
330
18
100
AcDbEntity
  8
0
100
AcDbLine
 10
1.416
 20
1.869
 30
0.0
 11
1.436
 21
1.845
 31
0.0
  0
LINE
  5
33B
330
18
100
AcDbEntity
  8
0
100
AcDbLine
 10
1.436
 20
1.845
 30
0.0
 11
1.468
 21
1.83
 31
0.0
  0
LINE
  5
33C
330
18
100
AcDbEntity
  8
0
100
AcDbLine
 10
1.468
 20
1.83
 30
0.0
 11
1.48
 21
1.835
 31
0.0
  0
LINE
  5
33D
330
18
100
AcDbEntity
  8
0
100
AcDbLine
 10
1.6
 20
1.745
 30
0.0
 11
1.631
 21
1.79
 31
0.0
  0
LINE
  5
33E
330
18
100
AcDbEntity
  8
0
100
AcDbLine
 10
1.631
 20
1.79
 30
0.0
 11
1.613
 21
1.812
 31
0.0
  0
LINE
  5
33F
330
18
100
AcDbEntity
  8
0
100
AcDbLine
 10
1.613
 20
1.812
 30
0.0
 11
1.576
 21
1.809
 31
0.0
  0
LINE
  5
340
330
18
100
AcDbEntity
  8
0
100
AcDbLine
 10
1.576
 20
1.809
 30
0.0
 11
1.55
 21
1.789
 31
0.0
  0
LINE
  5
341
330
18
100
AcDbEntity
  8
0
100
AcDbLine
 10
1.55
 20
1.789
 30
0.0
 11
1.551
 21
1.745
 31
0.0
  0
LINE
  5
342
330
18
100
AcDbEntity
  8
0
100
AcDbLine
 10
1.551
 20
1.745
 30
0.0
 11
1.576
 21
1.732
 31
0.0
  0
LINE
  5
343
330
18
100
AcDbEntity
  8
0
100
AcDbLine
 10
1.576
 20
1.732
 30
0.0
 11
1.6
 21
1.745
 31
0.0
  0
LINE
  5
344
330
18
100
AcDbEntity
  8
0
100
AcDbLine
 10
1.626
 20
1.617
 30
0.0
 11
1.65
 21
1.67
 31
0.0
  0
LINE
  5
345
330
18
100
AcDbEntity
  8
0
100
AcDbLine
 10
1.65
 20
1.67
 30
0.0
 11
1.65
 21
1.693
 31
0.0
  0
LINE
  5
346
330
18
100
AcDbEntity
  8
0
100
AcDbLine
 10
1.65
 20
1.693
 30
0.0
 11
1.608
 21
1.704
 31
0.0
  0
LINE
  5
347
330
18
100
AcDbEntity
  8
0
100
AcDbLine
 10
1.608
 20
1.704
 30
0.0
 11
1.566
 21
1.692
 31
0.0
  0
LINE
  5
348
330
18
100
AcDbEntity
  8
0
100
AcDbLine
 10
1.566
 20
1.692
 30
0.0
 11
1.568
 21
1.653
 31
0.0
  0
LINE
  5
349
330
18
100
AcDbEntity
  8
0
100
AcDbLine
 10
1.568
 20
1.653
 30
0.0
 11
1.575
 21
1.614
 31
0.0
  0
LINE
  5
34A
330
18
100
AcDbEntity
  8
0
100
AcDbLine
 10
1.575
 20
1.614
 30
0.0
 11
1.606
 21
1.597
 31
0.0
  0
LINE
  5
34B
330
18
100
AcDbEntity
  8
0
100
AcDbLine
 10
1.606
 20
1.597
 30
0.0
 11
1.626
 21
1.617
 31
0.0
  0
LINE
  5
34C
330
18
100
AcDbEntity
  8
0
100
AcDbLine
 10
1.46
 20
1.634
 30
0.0
 11
1.479
 21
1.657
 31
0.0
  0
LINE
  5
34D
330
18
100
AcDbEntity
  8
0
100
AcDbLine
 10
1.479
 20
1.657
 30
0.0
 11
1.481
 21
1.677
 31
0.0
  0
LINE
  5
34E
330
18
100
AcDbEntity
  8
0
100
AcDbLine
 10
1.481
 20
1.677
 30
0.0
 11
1.454
 21
1.68
 31
0.0
  0
LINE
  5
34F
330
18
100
AcDbEntity
  8
0
100
AcDbLine
 10
1.454
 20
1.68
 30
0.0
 11
1.439
 21
1.654
 31
0.0
  0
LINE
  5
350
330
18
100
AcDbEntity
  8
0
100
AcDbLine
 10
1.439
 20
1.654
 30
0.0
 11
1.447
 21
1.634
 31
0.0
  0
LINE
  5
351
330
18
100
AcDbEntity
  8
0
100
AcDbLine
 10
1.447
 20
1.634
 30
0.0
 11
1.46
 21
1.634
 31
0.0
  0
LINE
  5
352
330
18
100
AcDbEntity
  8
0
100
AcDbLine
 10
1.543
 20
1.23
 30
0.0
 11
0.642
 21
1.778
 31
0.0
  0
LINE
  5
353
330
18
100
AcDbEntity
  8
0
100
AcDbLine
 10
0.506
 20
1.695
 30
0.0
 11
2.423
 21
2.86
 31
0.0
  0
LINE
  5
354
330
18
100
AcDbEntity
  8
0
100
AcDbLine
 10
1.406
 20
1.147
 30
0.0
 11
2.541
 21
1.836
 31
0.0
  0
POINT
  5
355
330
18
100
AcDbEntity
  8
0
100
AcDbPoint
 10
3.677
 20
1.795
 30
0.0
  0
POINT
  5
356
330
18
100
AcDbEntity
  8
0
100
AcDbPoint
 10
3.537
 20
1.868
 30
0.0
  0
POINT
  5
357
330
18
100
AcDbEntity
  8
0
100
AcDbPoint
 10
3.573
 20
1.911
 30
0.0
  0
POINT
  5
358
330
18
100
AcDbEntity
  8
0
100
AcDbPoint
 10
3.654
 20
1.869
 30
0.0
  0
POINT
  5
359
330
18
100
AcDbEntity
  8
0
100
AcDbPoint
 10
3.787
 20
1.992
 30
0.0
  0
POINT
  5
35A
330
18
100
AcDbEntity
  8
0
100
AcDbPoint
 10
3.698
 20
1.887
 30
0.0
  0
POINT
  5
35B
330
18
100
AcDbEntity
  8
0
100
AcDbPoint
 10
3.564
 20
2.355
 30
0.0
  0
POINT
  5
35C
330
18
100
AcDbEntity
  8
0
100
AcDbPoint
 10
3.637
 20
2.31
 30
0.0
  0
POINT
  5
35D
330
18
100
AcDbEntity
  8
0
100
AcDbPoint
 10
3.657
 20
2.217
 30
0.0
  0
POINT
  5
35E
330
18
100
AcDbEntity
  8
0
100
AcDbPoint
 10
3.561
 20
2.192
 30
0.0
  0
POINT
  5
35F
330
18
100
AcDbEntity
  8
0
100
AcDbPoint
 10
3.502
 20
2.195
 30
0.0
  0
POINT
  5
360
330
18
100
AcDbEntity
  8
0
100
AcDbPoint
 10
3.522
 20
2.116
 30
0.0
  0
POINT
  5
361
330
18
100
AcDbEntity
  8
0
100
AcDbPoint
 10
3.489
 20
2.079
 30
0.0
  0
POINT
  5
362
330
18
100
AcDbEntity
  8
0
100
AcDbPoint
 10
3.569
 20
1.996
 30
0.0
  0
POINT
  5
363
330
18
100
AcDbEntity
  8
0
100
AcDbPoint
 10
3.783
 20
2.013
 30
0.0
  0
POINT
  5
364
330
18
100
AcDbEntity
  8
0
100
AcDbPoint
 10
3.66
 20
1.834
 30
0.0
  0
POINT
  5
365
330
18
100
AcDbEntity
  8
0
100
AcDbPoint
 10
3.561
 20
1.935
 30
0.0
  0
POINT
  5
366
330
18
100
AcDbEntity
  8
0
100
AcDbPoint
 10
3.467
 20
2.11
 30
0.0
  0
POINT
  5
367
330
18
100
AcDbEntity
  8
0
100
AcDbPoint
 10
3.473
 20
2.222
 30
0.0
  0
POINT
  5
368
330
18
100
AcDbEntity
  8
0
100
AcDbPoint
 10
3.722
 20
2.318
 30
0.0
  0
POINT
  5
369
330
18
100
AcDbEntity
  8
0
100
AcDbPoint
 10
3.812
 20
2.124
 30
0.0
  0
POINT
  5
36A
330
18
100
AcDbEntity
  8
0
100
AcDbPoint
 10
3.818
 20
2.153
 30
0.0
  0
POINT
  5
36B
330
18
100
AcDbEntity
  8
0
100
AcDbPoint
 10
3.732
 20
2.236
 30
0.0
  0
POINT
  5
36C
330
18
100
AcDbEntity
  8
0
100
AcDbPoint
 10
3.628
 20
2.284
 30
0.0
  0
POINT
  5
36D
330
18
100
AcDbEntity
  8
0
100
AcDbPoint
 10
3.625
 20
2.087
 30
0.0
  0
POINT
  5
36E
330
18
100
AcDbEntity
  8
0
100
AcDbPoint
 10
3.613
 20
1.979
 30
0.0
  0
POINT
  5
36F
330
18
100
AcDbEntity
  8
0
100
AcDbPoint
 10
3.565
 20
2.138
 30
0.0
  0
POINT
  5
370
330
18
100
AcDbEntity
  8
0
100
AcDbPoint
 10
3.377
 20
2.027
 30
0.0
  0
LINE
  5
371
330
18
100
AcDbEntity
  8
0
100
AcDbLine
 10
3.807
 20
2.052
 30
0.0
 11
3.82
 21
2.067
 31
0.0
  0
LINE
  5
372
330
18
100
AcDbEntity
  8
0
100
AcDbLine
 10
3.82
 20
2.067
 30
0.0
 11
3.821
 21
2.081
 31
0.0
  0
LINE
  5
373
330
18
100
AcDbEntity
  8
0
100
AcDbLine
 10
3.821
 20
2.081
 30
0.0
 11
3.803
 21
2.083
 31
0.0
  0
LINE
  5
374
330
18
100
AcDbEntity
  8
0
100
AcDbLine
 10
3.803
 20
2.083
 30
0.0
 11
3.793
 21
2.065
 31
0.0
  0
LINE
  5
375
330
18
100
AcDbEntity
  8
0
100
AcDbLine
 10
3.793
 20
2.065
 30
0.0
 11
3.798
 21
2.052
 31
0.0
  0
LINE
  5
376
330
18
100
AcDbEntity
  8
0
100
AcDbLine
 10
3.798
 20
2.052
 30
0.0
 11
3.807
 21
2.052
 31
0.0
  0
LINE
  5
377
330
18
100
AcDbEntity
  8
0
100
AcDbLine
 10
3.557
 20
2.025
 30
0.0
 11
3.576
 21
2.048
 31
0.0
  0
LINE
  5
378
330
18
100
AcDbEntity
  8
0
100
AcDbLine
 10
3.576
 20
2.048
 30
0.0
 11
3.578
 21
2.068
 31
0.0
  0
LINE
  5
379
330
18
100
AcDbEntity
  8
0
100
AcDbLine
 10
3.578
 20
2.068
 30
0.0
 11
3.551
 21
2.071
 31
0.0
  0
LINE
  5
37A
330
18
100
AcDbEntity
  8
0
100
AcDbLine
 10
3.551
 20
2.071
 30
0.0
 11
3.536
 21
2.045
 31
0.0
  0
LINE
  5
37B
330
18
100
AcDbEntity
  8
0
100
AcDbLine
 10
3.536
 20
2.045
 30
0.0
 11
3.544
 21
2.025
 31
0.0
  0
LINE
  5
37C
330
18
100
AcDbEntity
  8
0
100
AcDbLine
 10
3.544
 20
2.025
 30
0.0
 11
3.557
 21
2.025
 31
0.0
  0
LINE
  5
37D
330
18
100
AcDbEntity
  8
0
100
AcDbLine
 10
3.686
 20
1.898
 30
0.0
 11
3.712
 21
1.928
 31
0.0
  0
LINE
  5
37E
330
18
100
AcDbEntity
  8
0
100
AcDbLine
 10
3.712
 20
1.928
 30
0.0
 11
3.714
 21
1.955
 31
0.0
  0
LINE
  5
37F
330
18
100
AcDbEntity
  8
0
100
AcDbLine
 10
3.714
 20
1.955
 30
0.0
 11
3.679
 21
1.96
 31
0.0
  0
LINE
  5
380
330
18
100
AcDbEntity
  8
0
100
AcDbLine
 10
3.679
 20
1.96
 30
0.0
 11
3.658
 21
1.924
 31
0.0
  0
LINE
  5
381
330
18
100
AcDbEntity
  8
0
100
AcDbLine
 10
3.658
 20
1.924
 30
0.0
 11
3.668
 21
1.898
 31
0.0
  0
LINE
  5
382
330
18
100
AcDbEntity
  8
0
100
AcDbLine
 10
3.668
 20
1.898
 30
0.0
 11
3.686
 21
1.898
 31
0.0
  0
LINE
  5
383
330
18
100
AcDbEntity
  8
0
100
AcDbLine
 10
3.577
 20
2.226
 30
0.0
 11
3.591
 21
2.264
 31
0.0
  0
LINE
  5
384
330
18
100
AcDbEntity
  8
0
100
AcDbLine
 10
3.591
 20
2.264
 30
0.0
 11
3.575
 21
2.291
 31
0.0
  0
LINE
  5
385
330
18
100
AcDbEntity
  8
0
100
AcDbLine
 10
3.575
 20
2.291
 30
0.0
 11
3.543
 21
2.282
 31
0.0
  0
LINE
  5
386
330
18
100
AcDbEntity
  8
0
100
AcDbLine
 10
3.543
 20
2.282
 30
0.0
 11
3.513
 21
2.259
 31
0.0
  0
LINE
  5
387
330
18
100
AcDbEntity
  8
0
100
AcDbLine
 10
3.513
 20
2.259
 30
0.0
 11
3.533
 21
2.236
 31
0.0
  0
LINE
  5
388
330
18
100
AcDbEntity
  8
0
100
AcDbLine
 10
3.533
 20
2.236
 30
0.0
 11
3.565
 21
2.221
 31
0.0
  0
LINE
  5
389
330
18
100
AcDbEntity
  8
0
100
AcDbLine
 10
3.565
 20
2.221
 30
0.0
 11
3.577
 21
2.226
 31
0.0
  0
LINE
  5
38A
330
18
100
AcDbEntity
  8
0
100
AcDbLine
 10
3.697
 20
2.136
 30
0.0
 11
3.729
 21
2.181
 31
0.0
  0
LINE
  5
38B
330
18
100
AcDbEntity
  8
0
100
AcDbLine
 10
3.729
 20
2.181
 30
0.0
 11
3.71
 21
2.203
 31
0.0
  0
LINE
  5
38C
330
18
100
AcDbEntity
  8
0
100
AcDbLine
 10
3.71
 20
2.203
 30
0.0
 11
3.673
 21
2.2
 31
0.0
  0
LINE
  5
38D
330
18
100
AcDbEntity
  8
0
100
AcDbLine
 10
3.673
 20
2.2
 30
0.0
 11
3.647
 21
2.18
 31
0.0
  0
LINE
  5
38E
330
18
100
AcDbEntity
  8
0
100
AcDbLine
 10
3.647
 20
2.18
 30
0.0
 11
3.648
 21
2.136
 31
0.0
  0
LINE
  5
38F
330
18
100
AcDbEntity
  8
0
100
AcDbLine
 10
3.648
 20
2.136
 30
0.0
 11
3.673
 21
2.123
 31
0.0
  0
LINE
  5
390
330
18
100
AcDbEntity
  8
0
100
AcDbLine
 10
3.673
 20
2.123
 30
0.0
 11
3.697
 21
2.136
 31
0.0
  0
LINE
  5
391
330
18
100
AcDbEntity
  8
0
100
AcDbLine
 10
3.723
 20
2.008
 30
0.0
 11
3.747
 21
2.061
 31
0.0
  0
LINE
  5
392
330
18
100
AcDbEntity
  8
0
100
AcDbLine
 10
3.747
 20
2.061
 30
0.0
 11
3.747
 21
2.084
 31
0.0
  0
LINE
  5
393
330
18
100
AcDbEntity
  8
0
100
AcDbLine
 10
3.747
 20
2.084
 30
0.0
 11
3.705
 21
2.094
 31
0.0
  0
LINE
  5
394
330
18
100
AcDbEntity
  8
0
100
AcDbLine
 10
3.705
 20
2.094
 30
0.0
 11
3.663
 21
2.082
 31
0.0
  0
LINE
  5
395
330
18
100
AcDbEntity
  8
0
100
AcDbLine
 10
3.663
 20
2.082
 30
0.0
 11
3.665
 21
2.044
 31
0.0
  0
LINE
  5
396
330
18
100
AcDbEntity
  8
0
100
AcDbLine
 10
3.665
 20
2.044
 30
0.0
 11
3.672
 21
2.004
 31
0.0
  0
LINE
  5
397
330
18
100
AcDbEntity
  8
0
100
AcDbLine
 10
3.672
 20
2.004
 30
0.0
 11
3.703
 21
1.988
 31
0.0
  0
LINE
  5
398
330
18
100
AcDbEntity
  8
0
100
AcDbLine
 10
3.703
 20
1.988
 30
0.0
 11
3.723
 21
2.008
 31
0.0
  0
LINE
  5
399
330
18
100
AcDbEntity
  8
0
100
AcDbLine
 10
3.896
 20
2.205
 30
0.0
 11
3.91
 21
2.244
 31
0.0
  0
LINE
  5
39A
330
18
100
AcDbEntity
  8
0
100
AcDbLine
 10
3.91
 20
2.244
 30
0.0
 11
3.893
 21
2.27
 31
0.0
  0
LINE
  5
39B
330
18
100
AcDbEntity
  8
0
100
AcDbLine
 10
3.893
 20
2.27
 30
0.0
 11
3.861
 21
2.261
 31
0.0
  0
LINE
  5
39C
330
18
100
AcDbEntity
  8
0
100
AcDbLine
 10
3.861
 20
2.261
 30
0.0
 11
3.832
 21
2.239
 31
0.0
  0
LINE
  5
39D
330
18
100
AcDbEntity
  8
0
100
AcDbLine
 10
3.832
 20
2.239
 30
0.0
 11
3.851
 21
2.215
 31
0.0
  0
LINE
  5
39E
330
18
100
AcDbEntity
  8
0
100
AcDbLine
 10
3.851
 20
2.215
 30
0.0
 11
3.883
 21
2.2
 31
0.0
  0
LINE
  5
39F
330
18
100
AcDbEntity
  8
0
100
AcDbLine
 10
3.883
 20
2.2
 30
0.0
 11
3.896
 21
2.205
 31
0.0
  0
LINE
  5
3A0
330
18
100
AcDbEntity
  8
0
100
AcDbLine
 10
3.655
 20
2.42
 30
0.0
 11
3.668
 21
2.42
 31
0.0
  0
LINE
  5
3A1
330
18
100
AcDbEntity
  8
0
100
AcDbLine
 10
3.647
 20
2.44
 30
0.0
 11
3.655
 21
2.42
 31
0.0
  0
LINE
  5
3A2
330
18
100
AcDbEntity
  8
0
100
AcDbLine
 10
3.662
 20
2.466
 30
0.0
 11
3.647
 21
2.44
 31
0.0
  0
LINE
  5
3A3
330
18
100
AcDbEntity
  8
0
100
AcDbLine
 10
3.689
 20
2.463
 30
0.0
 11
3.662
 21
2.466
 31
0.0
  0
LINE
  5
3A4
330
18
100
AcDbEntity
  8
0
100
AcDbLine
 10
3.687
 20
2.443
 30
0.0
 11
3.689
 21
2.463
 31
0.0
  0
LINE
  5
3A5
330
18
100
AcDbEntity
  8
0
100
AcDbLine
 10
3.668
 20
2.42
 30
0.0
 11
3.687
 21
2.443
 31
0.0
  0
POINT
  5
3A6
330
18
100
AcDbEntity
  8
0
100
AcDbPoint
 10
3.763
 20
2.371
 30
0.0
  0
LINE
  5
3A7
330
18
100
AcDbEntity
  8
0
100
AcDbLine
 10
3.799
 20
2.267
 30
0.0
 11
3.812
 21
2.273
 31
0.0
  0
LINE
  5
3A8
330
18
100
AcDbEntity
  8
0
100
AcDbLine
 10
3.767
 20
2.282
 30
0.0
 11
3.799
 21
2.267
 31
0.0
  0
LINE
  5
3A9
330
18
100
AcDbEntity
  8
0
100
AcDbLine
 10
3.748
 20
2.306
 30
0.0
 11
3.767
 21
2.282
 31
0.0
  0
LINE
  5
3AA
330
18
100
AcDbEntity
  8
0
100
AcDbLine
 10
3.777
 20
2.328
 30
0.0
 11
3.748
 21
2.306
 31
0.0
  0
LINE
  5
3AB
330
18
100
AcDbEntity
  8
0
100
AcDbLine
 10
3.81
 20
2.337
 30
0.0
 11
3.777
 21
2.328
 31
0.0
  0
LINE
  5
3AC
330
18
100
AcDbEntity
  8
0
100
AcDbLine
 10
3.826
 20
2.311
 30
0.0
 11
3.81
 21
2.337
 31
0.0
  0
LINE
  5
3AD
330
18
100
AcDbEntity
  8
0
100
AcDbLine
 10
3.812
 20
2.273
 30
0.0
 11
3.826
 21
2.311
 31
0.0
  0
LINE
  5
3AE
330
18
100
AcDbEntity
  8
0
100
AcDbLine
 10
3.429
 20
1.685
 30
0.0
 11
3.443
 21
1.724
 31
0.0
  0
LINE
  5
3AF
330
18
100
AcDbEntity
  8
0
100
AcDbLine
 10
3.443
 20
1.724
 30
0.0
 11
3.427
 21
1.75
 31
0.0
  0
LINE
  5
3B0
330
18
100
AcDbEntity
  8
0
100
AcDbLine
 10
3.427
 20
1.75
 30
0.0
 11
3.394
 21
1.741
 31
0.0
  0
LINE
  5
3B1
330
18
100
AcDbEntity
  8
0
100
AcDbLine
 10
3.394
 20
1.741
 30
0.0
 11
3.365
 21
1.718
 31
0.0
  0
LINE
  5
3B2
330
18
100
AcDbEntity
  8
0
100
AcDbLine
 10
3.365
 20
1.718
 30
0.0
 11
3.384
 21
1.695
 31
0.0
  0
LINE
  5
3B3
330
18
100
AcDbEntity
  8
0
100
AcDbLine
 10
3.384
 20
1.695
 30
0.0
 11
3.416
 21
1.68
 31
0.0
  0
LINE
  5
3B4
330
18
100
AcDbEntity
  8
0
100
AcDbLine
 10
3.416
 20
1.68
 30
0.0
 11
3.429
 21
1.685
 31
0.0
  0
POINT
  5
3B5
330
18
100
AcDbEntity
  8
0
100
AcDbPoint
 10
3.148
 20
1.981
 30
0.0
  0
POINT
  5
3B6
330
18
100
AcDbEntity
  8
0
100
AcDbPoint
 10
3.22
 20
1.936
 30
0.0
  0
POINT
  5
3B7
330
18
100
AcDbEntity
  8
0
100
AcDbPoint
 10
3.145
 20
1.818
 30
0.0
  0
POINT
  5
3B8
330
18
100
AcDbEntity
  8
0
100
AcDbPoint
 10
3.085
 20
1.821
 30
0.0
  0
POINT
  5
3B9
330
18
100
AcDbEntity
  8
0
100
AcDbPoint
 10
3.056
 20
1.848
 30
0.0
  0
POINT
  5
3BA
330
18
100
AcDbEntity
  8
0
100
AcDbPoint
 10
3.212
 20
1.91
 30
0.0
  0
LINE
  5
3BB
330
18
100
AcDbEntity
  8
0
100
AcDbLine
 10
3.161
 20
1.852
 30
0.0
 11
3.175
 21
1.891
 31
0.0
  0
LINE
  5
3BC
330
18
100
AcDbEntity
  8
0
100
AcDbLine
 10
3.175
 20
1.891
 30
0.0
 11
3.159
 21
1.917
 31
0.0
  0
LINE
  5
3BD
330
18
100
AcDbEntity
  8
0
100
AcDbLine
 10
3.159
 20
1.917
 30
0.0
 11
3.127
 21
1.908
 31
0.0
  0
LINE
  5
3BE
330
18
100
AcDbEntity
  8
0
100
AcDbLine
 10
3.127
 20
1.908
 30
0.0
 11
3.097
 21
1.885
 31
0.0
  0
LINE
  5
3BF
330
18
100
AcDbEntity
  8
0
100
AcDbLine
 10
3.097
 20
1.885
 30
0.0
 11
3.116
 21
1.862
 31
0.0
  0
LINE
  5
3C0
330
18
100
AcDbEntity
  8
0
100
AcDbLine
 10
3.116
 20
1.862
 30
0.0
 11
3.148
 21
1.847
 31
0.0
  0
LINE
  5
3C1
330
18
100
AcDbEntity
  8
0
100
AcDbLine
 10
3.148
 20
1.847
 30
0.0
 11
3.161
 21
1.852
 31
0.0
  0
POINT
  5
3C2
330
18
100
AcDbEntity
  8
0
100
AcDbPoint
 10
3.293
 20
1.945
 30
0.0
  0
POINT
  5
3C3
330
18
100
AcDbEntity
  8
0
100
AcDbPoint
 10
3.353
 20
1.894
 30
0.0
  0
POINT
  5
3C4
330
18
100
AcDbEntity
  8
0
100
AcDbPoint
 10
3.356
 20
2.092
 30
0.0
  0
POINT
  5
3C5
330
18
100
AcDbEntity
  8
0
100
AcDbPoint
 10
3.46
 20
2.043
 30
0.0
  0
POINT
  5
3C6
330
18
100
AcDbEntity
  8
0
100
AcDbPoint
 10
3.201
 20
2.029
 30
0.0
  0
POINT
  5
3C7
330
18
100
AcDbEntity
  8
0
100
AcDbPoint
 10
3.23
 20
2.003
 30
0.0
  0
POINT
  5
3C8
330
18
100
AcDbEntity
  8
0
100
AcDbPoint
 10
3.289
 20
1.999
 30
0.0
  0
POINT
  5
3C9
330
18
100
AcDbEntity
  8
0
100
AcDbPoint
 10
3.385
 20
2.025
 30
0.0
  0
POINT
  5
3CA
330
18
100
AcDbEntity
  8
0
100
AcDbPoint
 10
3.279
 20
2.122
 30
0.0
  0
POINT
  5
3CB
330
18
100
AcDbEntity
  8
0
100
AcDbPoint
 10
3.38
 20
1.784
 30
0.0
  0
POINT
  5
3CC
330
18
100
AcDbEntity
  8
0
100
AcDbPoint
 10
3.248
 20
1.917
 30
0.0
  0
POINT
  5
3CD
330
18
100
AcDbEntity
  8
0
100
AcDbPoint
 10
3.522
 20
1.924
 30
0.0
  0
LINE
  5
3CE
330
18
100
AcDbEntity
  8
0
100
AcDbLine
 10
3.306
 20
2.033
 30
0.0
 11
3.32
 21
2.072
 31
0.0
  0
LINE
  5
3CF
330
18
100
AcDbEntity
  8
0
100
AcDbLine
 10
3.32
 20
2.072
 30
0.0
 11
3.303
 21
2.098
 31
0.0
  0
LINE
  5
3D0
330
18
100
AcDbEntity
  8
0
100
AcDbLine
 10
3.303
 20
2.098
 30
0.0
 11
3.271
 21
2.089
 31
0.0
  0
LINE
  5
3D1
330
18
100
AcDbEntity
  8
0
100
AcDbLine
 10
3.271
 20
2.089
 30
0.0
 11
3.242
 21
2.067
 31
0.0
  0
LINE
  5
3D2
330
18
100
AcDbEntity
  8
0
100
AcDbLine
 10
3.242
 20
2.067
 30
0.0
 11
3.261
 21
2.043
 31
0.0
  0
LINE
  5
3D3
330
18
100
AcDbEntity
  8
0
100
AcDbLine
 10
3.261
 20
2.043
 30
0.0
 11
3.293
 21
2.028
 31
0.0
  0
LINE
  5
3D4
330
18
100
AcDbEntity
  8
0
100
AcDbLine
 10
3.293
 20
2.028
 30
0.0
 11
3.306
 21
2.033
 31
0.0
  0
LINE
  5
3D5
330
18
100
AcDbEntity
  8
0
100
AcDbLine
 10
3.425
 20
1.943
 30
0.0
 11
3.457
 21
1.989
 31
0.0
  0
LINE
  5
3D6
330
18
100
AcDbEntity
  8
0
100
AcDbLine
 10
3.457
 20
1.989
 30
0.0
 11
3.438
 21
2.01
 31
0.0
  0
LINE
  5
3D7
330
18
100
AcDbEntity
  8
0
100
AcDbLine
 10
3.438
 20
2.01
 30
0.0
 11
3.401
 21
2.008
 31
0.0
  0
LINE
  5
3D8
330
18
100
AcDbEntity
  8
0
100
AcDbLine
 10
3.401
 20
2.008
 30
0.0
 11
3.375
 21
1.988
 31
0.0
  0
LINE
  5
3D9
330
18
100
AcDbEntity
  8
0
100
AcDbLine
 10
3.375
 20
1.988
 30
0.0
 11
3.376
 21
1.943
 31
0.0
  0
LINE
  5
3DA
330
18
100
AcDbEntity
  8
0
100
AcDbLine
 10
3.376
 20
1.943
 30
0.0
 11
3.401
 21
1.93
 31
0.0
  0
LINE
  5
3DB
330
18
100
AcDbEntity
  8
0
100
AcDbLine
 10
3.401
 20
1.93
 30
0.0
 11
3.425
 21
1.943
 31
0.0
  0
LINE
  5
3DC
330
18
100
AcDbEntity
  8
0
100
AcDbLine
 10
3.451
 20
1.815
 30
0.0
 11
3.475
 21
1.868
 31
0.0
  0
LINE
  5
3DD
330
18
100
AcDbEntity
  8
0
100
AcDbLine
 10
3.475
 20
1.868
 30
0.0
 11
3.476
 21
1.892
 31
0.0
  0
LINE
  5
3DE
330
18
100
AcDbEntity
  8
0
100
AcDbLine
 10
3.476
 20
1.892
 30
0.0
 11
3.433
 21
1.902
 31
0.0
  0
LINE
  5
3DF
330
18
100
AcDbEntity
  8
0
100
AcDbLine
 10
3.433
 20
1.902
 30
0.0
 11
3.391
 21
1.89
 31
0.0
  0
LINE
  5
3E0
330
18
100
AcDbEntity
  8
0
100
AcDbLine
 10
3.391
 20
1.89
 30
0.0
 11
3.393
 21
1.851
 31
0.0
  0
LINE
  5
3E1
330
18
100
AcDbEntity
  8
0
100
AcDbLine
 10
3.393
 20
1.851
 30
0.0
 11
3.4
 21
1.812
 31
0.0
  0
LINE
  5
3E2
330
18
100
AcDbEntity
  8
0
100
AcDbLine
 10
3.4
 20
1.812
 30
0.0
 11
3.432
 21
1.796
 31
0.0
  0
LINE
  5
3E3
330
18
100
AcDbEntity
  8
0
100
AcDbLine
 10
3.432
 20
1.796
 30
0.0
 11
3.451
 21
1.815
 31
0.0
  0
LINE
  5
3E4
330
18
100
AcDbEntity
  8
0
100
AcDbLine
 10
3.285
 20
1.832
 30
0.0
 11
3.304
 21
1.855
 31
0.0
  0
LINE
  5
3E5
330
18
100
AcDbEntity
  8
0
100
AcDbLine
 10
3.304
 20
1.855
 30
0.0
 11
3.306
 21
1.875
 31
0.0
  0
LINE
  5
3E6
330
18
100
AcDbEntity
  8
0
100
AcDbLine
 10
3.306
 20
1.875
 30
0.0
 11
3.279
 21
1.879
 31
0.0
  0
LINE
  5
3E7
330
18
100
AcDbEntity
  8
0
100
AcDbLine
 10
3.279
 20
1.879
 30
0.0
 11
3.264
 21
1.852
 31
0.0
  0
LINE
  5
3E8
330
18
100
AcDbEntity
  8
0
100
AcDbLine
 10
3.264
 20
1.852
 30
0.0
 11
3.272
 21
1.832
 31
0.0
  0
LINE
  5
3E9
330
18
100
AcDbEntity
  8
0
100
AcDbLine
 10
3.272
 20
1.832
 30
0.0
 11
3.285
 21
1.832
 31
0.0
  0
LINE
  5
3EA
330
18
100
AcDbEntity
  8
0
100
AcDbLine
 10
2.779
 20
1.563
 30
0.0
 11
2.793
 21
1.564
 31
0.0
  0
LINE
  5
3EB
330
18
100
AcDbEntity
  8
0
100
AcDbLine
 10
2.772
 20
1.583
 30
0.0
 11
2.779
 21
1.563
 31
0.0
  0
LINE
  5
3EC
330
18
100
AcDbEntity
  8
0
100
AcDbLine
 10
2.787
 20
1.61
 30
0.0
 11
2.772
 21
1.583
 31
0.0
  0
LINE
  5
3ED
330
18
100
AcDbEntity
  8
0
100
AcDbLine
 10
2.813
 20
1.606
 30
0.0
 11
2.787
 21
1.61
 31
0.0
  0
LINE
  5
3EE
330
18
100
AcDbEntity
  8
0
100
AcDbLine
 10
2.812
 20
1.586
 30
0.0
 11
2.813
 21
1.606
 31
0.0
  0
LINE
  5
3EF
330
18
100
AcDbEntity
  8
0
100
AcDbLine
 10
2.793
 20
1.564
 30
0.0
 11
2.812
 21
1.586
 31
0.0
  0
LINE
  5
3F0
330
18
100
AcDbEntity
  8
0
100
AcDbLine
 10
2.939
 20
1.527
 30
0.0
 11
2.959
 21
1.546
 31
0.0
  0
LINE
  5
3F1
330
18
100
AcDbEntity
  8
0
100
AcDbLine
 10
2.908
 20
1.543
 30
0.0
 11
2.939
 21
1.527
 31
0.0
  0
LINE
  5
3F2
330
18
100
AcDbEntity
  8
0
100
AcDbLine
 10
2.9
 20
1.582
 30
0.0
 11
2.908
 21
1.543
 31
0.0
  0
LINE
  5
3F3
330
18
100
AcDbEntity
  8
0
100
AcDbLine
 10
2.899
 20
1.621
 30
0.0
 11
2.9
 21
1.582
 31
0.0
  0
LINE
  5
3F4
330
18
100
AcDbEntity
  8
0
100
AcDbLine
 10
2.941
 20
1.633
 30
0.0
 11
2.899
 21
1.621
 31
0.0
  0
LINE
  5
3F5
330
18
100
AcDbEntity
  8
0
100
AcDbLine
 10
2.983
 20
1.623
 30
0.0
 11
2.941
 21
1.633
 31
0.0
  0
LINE
  5
3F6
330
18
100
AcDbEntity
  8
0
100
AcDbLine
 10
2.983
 20
1.599
 30
0.0
 11
2.983
 21
1.623
 31
0.0
  0
LINE
  5
3F7
330
18
100
AcDbEntity
  8
0
100
AcDbLine
 10
2.959
 20
1.546
 30
0.0
 11
2.983
 21
1.599
 31
0.0
  0
LINE
  5
3F8
330
18
100
AcDbEntity
  8
0
100
AcDbLine
 10
2.908
 20
1.662
 30
0.0
 11
2.933
 21
1.675
 31
0.0
  0
LINE
  5
3F9
330
18
100
AcDbEntity
  8
0
100
AcDbLine
 10
2.883
 20
1.675
 30
0.0
 11
2.908
 21
1.662
 31
0.0
  0
LINE
  5
3FA
330
18
100
AcDbEntity
  8
0
100
AcDbLine
 10
2.882
 20
1.719
 30
0.0
 11
2.883
 21
1.675
 31
0.0
  0
LINE
  5
3FB
330
18
100
AcDbEntity
  8
0
100
AcDbLine
 10
2.908
 20
1.739
 30
0.0
 11
2.882
 21
1.719
 31
0.0
  0
LINE
  5
3FC
330
18
100
AcDbEntity
  8
0
100
AcDbLine
 10
2.945
 20
1.741
 30
0.0
 11
2.908
 21
1.739
 31
0.0
  0
LINE
  5
3FD
330
18
100
AcDbEntity
  8
0
100
AcDbLine
 10
2.964
 20
1.72
 30
0.0
 11
2.945
 21
1.741
 31
0.0
  0
LINE
  5
3FE
330
18
100
AcDbEntity
  8
0
100
AcDbLine
 10
2.933
 20
1.675
 30
0.0
 11
2.964
 21
1.72
 31
0.0
  0
LINE
  5
3FF
330
18
100
AcDbEntity
  8
0
100
AcDbLine
 10
2.8
 20
1.759
 30
0.0
 11
2.813
 21
1.765
 31
0.0
  0
LINE
  5
400
330
18
100
AcDbEntity
  8
0
100
AcDbLine
 10
2.768
 20
1.774
 30
0.0
 11
2.8
 21
1.759
 31
0.0
  0
LINE
  5
401
330
18
100
AcDbEntity
  8
0
100
AcDbLine
 10
2.749
 20
1.798
 30
0.0
 11
2.768
 21
1.774
 31
0.0
  0
LINE
  5
402
330
18
100
AcDbEntity
  8
0
100
AcDbLine
 10
2.778
 20
1.82
 30
0.0
 11
2.749
 21
1.798
 31
0.0
  0
LINE
  5
403
330
18
100
AcDbEntity
  8
0
100
AcDbLine
 10
2.811
 20
1.829
 30
0.0
 11
2.778
 21
1.82
 31
0.0
  0
LINE
  5
404
330
18
100
AcDbEntity
  8
0
100
AcDbLine
 10
2.827
 20
1.803
 30
0.0
 11
2.811
 21
1.829
 31
0.0
  0
LINE
  5
405
330
18
100
AcDbEntity
  8
0
100
AcDbLine
 10
2.813
 20
1.765
 30
0.0
 11
2.827
 21
1.803
 31
0.0
  0
LINE
  5
406
330
18
100
AcDbEntity
  8
0
100
AcDbLine
 10
3.5
 20
1.613
 30
0.0
 11
3.513
 21
1.618
 31
0.0
  0
LINE
  5
407
330
18
100
AcDbEntity
  8
0
100
AcDbLine
 10
3.468
 20
1.627
 30
0.0
 11
3.5
 21
1.613
 31
0.0
  0
LINE
  5
408
330
18
100
AcDbEntity
  8
0
100
AcDbLine
 10
3.449
 20
1.651
 30
0.0
 11
3.468
 21
1.627
 31
0.0
  0
LINE
  5
409
330
18
100
AcDbEntity
  8
0
100
AcDbLine
 10
3.478
 20
1.673
 30
0.0
 11
3.449
 21
1.651
 31
0.0
  0
LINE
  5
40A
330
18
100
AcDbEntity
  8
0
100
AcDbLine
 10
3.511
 20
1.682
 30
0.0
 11
3.478
 21
1.673
 31
0.0
  0
LINE
  5
40B
330
18
100
AcDbEntity
  8
0
100
AcDbLine
 10
3.527
 20
1.656
 30
0.0
 11
3.511
 21
1.682
 31
0.0
  0
LINE
  5
40C
330
18
100
AcDbEntity
  8
0
100
AcDbLine
 10
3.513
 20
1.618
 30
0.0
 11
3.527
 21
1.656
 31
0.0
  0
LINE
  5
40D
330
18
100
AcDbEntity
  8
0
100
AcDbLine
 10
3.321
 20
1.401
 30
0.0
 11
3.341
 21
1.42
 31
0.0
  0
LINE
  5
40E
330
18
100
AcDbEntity
  8
0
100
AcDbLine
 10
3.289
 20
1.417
 30
0.0
 11
3.321
 21
1.401
 31
0.0
  0
LINE
  5
40F
330
18
100
AcDbEntity
  8
0
100
AcDbLine
 10
3.282
 20
1.456
 30
0.0
 11
3.289
 21
1.417
 31
0.0
  0
LINE
  5
410
330
18
100
AcDbEntity
  8
0
100
AcDbLine
 10
3.28
 20
1.495
 30
0.0
 11
3.282
 21
1.456
 31
0.0
  0
LINE
  5
411
330
18
100
AcDbEntity
  8
0
100
AcDbLine
 10
3.322
 20
1.507
 30
0.0
 11
3.28
 21
1.495
 31
0.0
  0
LINE
  5
412
330
18
100
AcDbEntity
  8
0
100
AcDbLine
 10
3.365
 20
1.497
 30
0.0
 11
3.322
 21
1.507
 31
0.0
  0
LINE
  5
413
330
18
100
AcDbEntity
  8
0
100
AcDbLine
 10
3.364
 20
1.473
 30
0.0
 11
3.365
 21
1.497
 31
0.0
  0
LINE
  5
414
330
18
100
AcDbEntity
  8
0
100
AcDbLine
 10
3.341
 20
1.42
 30
0.0
 11
3.364
 21
1.473
 31
0.0
  0
LINE
  5
415
330
18
100
AcDbEntity
  8
0
100
AcDbLine
 10
3.29
 20
1.536
 30
0.0
 11
3.314
 21
1.549
 31
0.0
  0
LINE
  5
416
330
18
100
AcDbEntity
  8
0
100
AcDbLine
 10
3.265
 20
1.549
 30
0.0
 11
3.29
 21
1.536
 31
0.0
  0
LINE
  5
417
330
18
100
AcDbEntity
  8
0
100
AcDbLine
 10
3.264
 20
1.593
 30
0.0
 11
3.265
 21
1.549
 31
0.0
  0
LINE
  5
418
330
18
100
AcDbEntity
  8
0
100
AcDbLine
 10
3.29
 20
1.613
 30
0.0
 11
3.264
 21
1.593
 31
0.0
  0
LINE
  5
419
330
18
100
AcDbEntity
  8
0
100
AcDbLine
 10
3.327
 20
1.615
 30
0.0
 11
3.29
 21
1.613
 31
0.0
  0
LINE
  5
41A
330
18
100
AcDbEntity
  8
0
100
AcDbLine
 10
3.346
 20
1.594
 30
0.0
 11
3.327
 21
1.615
 31
0.0
  0
LINE
  5
41B
330
18
100
AcDbEntity
  8
0
100
AcDbLine
 10
3.314
 20
1.549
 30
0.0
 11
3.346
 21
1.594
 31
0.0
  0
LINE
  5
41C
330
18
100
AcDbEntity
  8
0
100
AcDbLine
 10
3.182
 20
1.633
 30
0.0
 11
3.195
 21
1.639
 31
0.0
  0
LINE
  5
41D
330
18
100
AcDbEntity
  8
0
100
AcDbLine
 10
3.15
 20
1.648
 30
0.0
 11
3.182
 21
1.633
 31
0.0
  0
LINE
  5
41E
330
18
100
AcDbEntity
  8
0
100
AcDbLine
 10
3.131
 20
1.672
 30
0.0
 11
3.15
 21
1.648
 31
0.0
  0
LINE
  5
41F
330
18
100
AcDbEntity
  8
0
100
AcDbLine
 10
3.16
 20
1.694
 30
0.0
 11
3.131
 21
1.672
 31
0.0
  0
LINE
  5
420
330
18
100
AcDbEntity
  8
0
100
AcDbLine
 10
3.192
 20
1.703
 30
0.0
 11
3.16
 21
1.694
 31
0.0
  0
LINE
  5
421
330
18
100
AcDbEntity
  8
0
100
AcDbLine
 10
3.209
 20
1.677
 30
0.0
 11
3.192
 21
1.703
 31
0.0
  0
LINE
  5
422
330
18
100
AcDbEntity
  8
0
100
AcDbLine
 10
3.195
 20
1.639
 30
0.0
 11
3.209
 21
1.677
 31
0.0
  0
LINE
  5
423
330
18
100
AcDbEntity
  8
0
100
AcDbLine
 10
3.285
 20
1.31
 30
0.0
 11
3.303
 21
1.311
 31
0.0
  0
LINE
  5
424
330
18
100
AcDbEntity
  8
0
100
AcDbLine
 10
3.275
 20
1.337
 30
0.0
 11
3.285
 21
1.31
 31
0.0
  0
LINE
  5
425
330
18
100
AcDbEntity
  8
0
100
AcDbLine
 10
3.296
 20
1.372
 30
0.0
 11
3.275
 21
1.337
 31
0.0
  0
LINE
  5
426
330
18
100
AcDbEntity
  8
0
100
AcDbLine
 10
3.331
 20
1.367
 30
0.0
 11
3.296
 21
1.372
 31
0.0
  0
LINE
  5
427
330
18
100
AcDbEntity
  8
0
100
AcDbLine
 10
3.329
 20
1.341
 30
0.0
 11
3.331
 21
1.367
 31
0.0
  0
LINE
  5
428
330
18
100
AcDbEntity
  8
0
100
AcDbLine
 10
3.303
 20
1.311
 30
0.0
 11
3.329
 21
1.341
 31
0.0
  0
LINE
  5
429
330
18
100
AcDbEntity
  8
0
100
AcDbLine
 10
3.161
 20
1.437
 30
0.0
 11
3.174
 21
1.438
 31
0.0
  0
LINE
  5
42A
330
18
100
AcDbEntity
  8
0
100
AcDbLine
 10
3.153
 20
1.457
 30
0.0
 11
3.161
 21
1.437
 31
0.0
  0
LINE
  5
42B
330
18
100
AcDbEntity
  8
0
100
AcDbLine
 10
3.169
 20
1.484
 30
0.0
 11
3.153
 21
1.457
 31
0.0
  0
LINE
  5
42C
330
18
100
AcDbEntity
  8
0
100
AcDbLine
 10
3.195
 20
1.48
 30
0.0
 11
3.169
 21
1.484
 31
0.0
  0
LINE
  5
42D
330
18
100
AcDbEntity
  8
0
100
AcDbLine
 10
3.194
 20
1.46
 30
0.0
 11
3.195
 21
1.48
 31
0.0
  0
LINE
  5
42E
330
18
100
AcDbEntity
  8
0
100
AcDbLine
 10
3.174
 20
1.438
 30
0.0
 11
3.194
 21
1.46
 31
0.0
  0
LINE
  5
42F
330
18
100
AcDbEntity
  8
0
100
AcDbLine
 10
3.415
 20
1.464
 30
0.0
 11
3.424
 21
1.465
 31
0.0
  0
LINE
  5
430
330
18
100
AcDbEntity
  8
0
100
AcDbLine
 10
3.41
 20
1.478
 30
0.0
 11
3.415
 21
1.464
 31
0.0
  0
LINE
  5
431
330
18
100
AcDbEntity
  8
0
100
AcDbLine
 10
3.42
 20
1.495
 30
0.0
 11
3.41
 21
1.478
 31
0.0
  0
LINE
  5
432
330
18
100
AcDbEntity
  8
0
100
AcDbLine
 10
3.438
 20
1.493
 30
0.0
 11
3.42
 21
1.495
 31
0.0
  0
LINE
  5
433
330
18
100
AcDbEntity
  8
0
100
AcDbLine
 10
3.437
 20
1.48
 30
0.0
 11
3.438
 21
1.493
 31
0.0
  0
LINE
  5
434
330
18
100
AcDbEntity
  8
0
100
AcDbLine
 10
3.424
 20
1.465
 30
0.0
 11
3.437
 21
1.48
 31
0.0
  0
POINT
  5
435
330
18
100
AcDbEntity
  8
0
100
AcDbPoint
 10
3.021
 20
1.538
 30
0.0
  0
POINT
  5
436
330
18
100
AcDbEntity
  8
0
100
AcDbPoint
 10
3.029
 20
1.655
 30
0.0
  0
POINT
  5
437
330
18
100
AcDbEntity
  8
0
100
AcDbPoint
 10
3.049
 20
1.794
 30
0.0
  0
POINT
  5
438
330
18
100
AcDbEntity
  8
0
100
AcDbPoint
 10
2.756
 20
1.648
 30
0.0
  0
POINT
  5
439
330
18
100
AcDbEntity
  8
0
100
AcDbPoint
 10
2.888
 20
1.515
 30
0.0
  0
POINT
  5
43A
330
18
100
AcDbEntity
  8
0
100
AcDbPoint
 10
2.994
 20
1.44
 30
0.0
  0
POINT
  5
43B
330
18
100
AcDbEntity
  8
0
100
AcDbPoint
 10
2.786
 20
1.853
 30
0.0
  0
POINT
  5
43C
330
18
100
AcDbEntity
  8
0
100
AcDbPoint
 10
2.892
 20
1.756
 30
0.0
  0
POINT
  5
43D
330
18
100
AcDbEntity
  8
0
100
AcDbPoint
 10
2.797
 20
1.73
 30
0.0
  0
POINT
  5
43E
330
18
100
AcDbEntity
  8
0
100
AcDbPoint
 10
2.737
 20
1.734
 30
0.0
  0
POINT
  5
43F
330
18
100
AcDbEntity
  8
0
100
AcDbPoint
 10
2.708
 20
1.76
 30
0.0
  0
POINT
  5
440
330
18
100
AcDbEntity
  8
0
100
AcDbPoint
 10
2.967
 20
1.774
 30
0.0
  0
POINT
  5
441
330
18
100
AcDbEntity
  8
0
100
AcDbPoint
 10
2.864
 20
1.823
 30
0.0
  0
POINT
  5
442
330
18
100
AcDbEntity
  8
0
100
AcDbPoint
 10
2.86
 20
1.625
 30
0.0
  0
POINT
  5
443
330
18
100
AcDbEntity
  8
0
100
AcDbPoint
 10
2.801
 20
1.676
 30
0.0
  0
POINT
  5
444
330
18
100
AcDbEntity
  8
0
100
AcDbPoint
 10
3.182
 20
1.55
 30
0.0
  0
POINT
  5
445
330
18
100
AcDbEntity
  8
0
100
AcDbPoint
 10
3.23
 20
1.391
 30
0.0
  0
POINT
  5
446
330
18
100
AcDbEntity
  8
0
100
AcDbPoint
 10
3.242
 20
1.499
 30
0.0
  0
POINT
  5
447
330
18
100
AcDbEntity
  8
0
100
AcDbPoint
 10
3.245
 20
1.697
 30
0.0
  0
POINT
  5
448
330
18
100
AcDbEntity
  8
0
100
AcDbPoint
 10
3.349
 20
1.649
 30
0.0
  0
POINT
  5
449
330
18
100
AcDbEntity
  8
0
100
AcDbPoint
 10
3.435
 20
1.566
 30
0.0
  0
POINT
  5
44A
330
18
100
AcDbEntity
  8
0
100
AcDbPoint
 10
3.429
 20
1.537
 30
0.0
  0
POINT
  5
44B
330
18
100
AcDbEntity
  8
0
100
AcDbPoint
 10
3.339
 20
1.73
 30
0.0
  0
POINT
  5
44C
330
18
100
AcDbEntity
  8
0
100
AcDbPoint
 10
3.189
 20
1.837
 30
0.0
  0
POINT
  5
44D
330
18
100
AcDbEntity
  8
0
100
AcDbPoint
 10
3.126
 20
1.771
 30
0.0
  0
POINT
  5
44E
330
18
100
AcDbEntity
  8
0
100
AcDbPoint
 10
3.09
 20
1.634
 30
0.0
  0
POINT
  5
44F
330
18
100
AcDbEntity
  8
0
100
AcDbPoint
 10
3.084
 20
1.522
 30
0.0
  0
POINT
  5
450
330
18
100
AcDbEntity
  8
0
100
AcDbPoint
 10
3.178
 20
1.348
 30
0.0
  0
POINT
  5
451
330
18
100
AcDbEntity
  8
0
100
AcDbPoint
 10
3.277
 20
1.246
 30
0.0
  0
POINT
  5
452
330
18
100
AcDbEntity
  8
0
100
AcDbPoint
 10
3.4
 20
1.426
 30
0.0
  0
POINT
  5
453
330
18
100
AcDbEntity
  8
0
100
AcDbPoint
 10
3.186
 20
1.408
 30
0.0
  0
POINT
  5
454
330
18
100
AcDbEntity
  8
0
100
AcDbPoint
 10
3.106
 20
1.491
 30
0.0
  0
POINT
  5
455
330
18
100
AcDbEntity
  8
0
100
AcDbPoint
 10
3.139
 20
1.529
 30
0.0
  0
POINT
  5
456
330
18
100
AcDbEntity
  8
0
100
AcDbPoint
 10
3.119
 20
1.608
 30
0.0
  0
POINT
  5
457
330
18
100
AcDbEntity
  8
0
100
AcDbPoint
 10
3.178
 20
1.604
 30
0.0
  0
POINT
  5
458
330
18
100
AcDbEntity
  8
0
100
AcDbPoint
 10
3.274
 20
1.63
 30
0.0
  0
POINT
  5
459
330
18
100
AcDbEntity
  8
0
100
AcDbPoint
 10
3.254
 20
1.723
 30
0.0
  0
POINT
  5
45A
330
18
100
AcDbEntity
  8
0
100
AcDbPoint
 10
3.181
 20
1.767
 30
0.0
  0
POINT
  5
45B
330
18
100
AcDbEntity
  8
0
100
AcDbPoint
 10
3.104
 20
1.739
 30
0.0
  0
POINT
  5
45C
330
18
100
AcDbEntity
  8
0
100
AcDbPoint
 10
3.315
 20
1.3
 30
0.0
  0
POINT
  5
45D
330
18
100
AcDbEntity
  8
0
100
AcDbPoint
 10
3.404
 20
1.405
 30
0.0
  0
POINT
  5
45E
330
18
100
AcDbEntity
  8
0
100
AcDbPoint
 10
3.271
 20
1.282
 30
0.0
  0
POINT
  5
45F
330
18
100
AcDbEntity
  8
0
100
AcDbPoint
 10
3.19
 20
1.324
 30
0.0
  0
POINT
  5
460
330
18
100
AcDbEntity
  8
0
100
AcDbPoint
 10
3.154
 20
1.281
 30
0.0
  0
POINT
  5
461
330
18
100
AcDbEntity
  8
0
100
AcDbPoint
 10
3.294
 20
1.208
 30
0.0
  0
ARC
  5
462
330
18
100
AcDbEntity
  8
0
100
AcDbCircle
 10
3.206
 20
3.407
 30
0.0
 40
0.07
100
AcDbArc
 50
313.675
 51
337.914
  0
ARC
  5
463
330
18
100
AcDbEntity
  8
0
100
AcDbCircle
 10
3.206
 20
3.407
 30
0.0
 40
0.12
100
AcDbArc
 50
304.324
 51
343.191
  0
ARC
  5
464
330
18
100
AcDbEntity
  8
0
100
AcDbCircle
 10
3.122
 20
3.276
 30
0.0
 40
0.155
100
AcDbArc
 50
0.8290000000000002
 51
49.38
  0
LINE
  5
465
330
18
100
AcDbEntity
  8
0
100
AcDbLine
 10
3.495
 20
3.453
 30
0.0
 11
3.552
 21
3.485
 31
0.0
  0
ARC
  5
466
330
18
100
AcDbEntity
  8
0
100
AcDbCircle
 10
3.444
 20
3.408
 30
0.0
 40
0.048
100
AcDbArc
 50
201.636
 51
351.13
  0
LINE
  5
467
330
18
100
AcDbEntity
  8
0
100
AcDbLine
 10
3.504
 20
3.599
 30
0.0
 11
3.492
 21
3.401
 31
0.0
  0
ARC
  5
468
330
18
100
AcDbEntity
  8
0
100
AcDbCircle
 10
3.463
 20
3.579
 30
0.0
 40
0.052
100
AcDbArc
 50
53.119
 51
175.827
  0
ARC
  5
469
330
18
100
AcDbEntity
  8
0
100
AcDbCircle
 10
3.479
 20
3.6
 30
0.0
 40
0.025
100
AcDbArc
 50
356.288
 51
53.119
  0
LINE
  5
46A
330
18
100
AcDbEntity
  8
0
  6
HIDDEN
100
AcDbLine
 10
3.412
 20
3.583
 30
0.0
 11
3.399
 21
3.39
 31
0.0
  0
ARC
  5
46B
330
18
100
AcDbEntity
  8
0
100
AcDbCircle
 10
2.861
 20
3.052
 30
0.0
 40
0.025
100
AcDbArc
 50
1.581
 51
34.48
  0
ARC
  5
46C
330
18
100
AcDbEntity
  8
0
100
AcDbCircle
 10
2.812
 20
3.037
 30
0.0
 40
0.025
100
AcDbArc
 50
1.581
 51
39.261
  0
LINE
  5
46D
330
18
100
AcDbEntity
  8
0
  6
HIDDEN
100
AcDbLine
 10
2.764
 20
2.271
 30
0.0
 11
2.892
 21
1.96
 31
0.0
  0
ARC
  5
46E
330
18
100
AcDbEntity
  8
0
  6
HIDDEN
100
AcDbCircle
 10
2.88
 20
2.317
 30
0.0
 40
0.125
100
AcDbArc
 50
134.642
 51
201.512
  0
LINE
  5
46F
330
18
100
AcDbEntity
  8
0
  6
HIDDEN
100
AcDbLine
 10
2.864
 20
2.476
 30
0.0
 11
2.792
 21
2.406
 31
0.0
  0
ARC
  5
470
330
18
100
AcDbEntity
  8
0
  6
HIDDEN
100
AcDbCircle
 10
2.803
 20
2.552
 30
0.0
 40
0.097
100
AcDbArc
 50
308.437
 51
7.185
  0
LINE
  5
471
330
18
100
AcDbEntity
  8
0
  6
HIDDEN
100
AcDbLine
 10
2.886
 20
3.052
 30
0.0
 11
2.9
 21
2.565
 31
0.0
  0
LINE
  5
472
330
18
100
AcDbEntity
  8
0
  6
HIDDEN
100
AcDbLine
 10
2.717
 20
2.252
 30
0.0
 11
2.821
 21
2.002
 31
0.0
  0
ARC
  5
473
330
18
100
AcDbEntity
  8
0
  6
HIDDEN
100
AcDbCircle
 10
2.88
 20
2.317
 30
0.0
 40
0.175
100
AcDbArc
 50
134.642
 51
201.661
  0
LINE
  5
474
330
18
100
AcDbEntity
  8
0
  6
HIDDEN
100
AcDbLine
 10
2.831
 20
2.514
 30
0.0
 11
2.757
 21
2.441
 31
0.0
  0
ARC
  5
475
330
18
100
AcDbEntity
  8
0
  6
HIDDEN
100
AcDbCircle
 10
2.803
 20
2.552
 30
0.0
 40
0.047
100
AcDbArc
 50
305.732
 51
9.627000000000001
  0
LINE
  5
476
330
18
100
AcDbEntity
  8
0
  6
HIDDEN
100
AcDbLine
 10
2.837
 20
3.037
 30
0.0
 11
2.85
 21
2.56
 31
0.0
  0
ARC
  5
477
330
18
100
AcDbEntity
  8
0
100
AcDbCircle
 10
2.748
 20
2.985
 30
0.0
 40
0.107
100
AcDbArc
 50
39.261
 51
56.757
  0
LINE
  5
478
330
18
100
AcDbEntity
  8
0
100
AcDbLine
 10
2.807
 20
3.074
 30
0.0
 11
2.891
 21
3.121
 31
0.0
  0
ARC
  5
479
330
18
100
AcDbEntity
  8
0
100
AcDbCircle
 10
2.757
 20
3.04
 30
0.0
 40
0.048
100
AcDbArc
 50
201.636
 51
351.13
  0
ARC
  5
47A
330
18
100
AcDbEntity
  8
0
100
AcDbCircle
 10
2.792
 20
3.232
 30
0.0
 40
0.025
100
AcDbArc
 50
356.288
 51
53.119
  0
ARC
  5
47B
330
18
100
AcDbEntity
  8
0
100
AcDbCircle
 10
2.776
 20
3.211
 30
0.0
 40
0.052
100
AcDbArc
 50
53.119
 51
175.827
  0
LINE
  5
47C
330
18
100
AcDbEntity
  8
0
  6
HIDDEN
100
AcDbLine
 10
2.725
 20
3.215
 30
0.0
 11
2.712
 21
3.022
 31
0.0
  0
LINE
  5
47D
330
18
100
AcDbEntity
  8
0
100
AcDbLine
 10
2.817
 20
3.23
 30
0.0
 11
2.804
 21
3.032
 31
0.0
  0
ARC
  5
47E
330
18
100
AcDbEntity
  8
0
  6
HIDDEN
100
AcDbCircle
 10
3.012
 20
2.11
 30
0.0
 40
0.219
100
AcDbArc
 50
209.511
 51
250.172
  0
LINE
  5
47F
330
18
100
AcDbEntity
  8
0
  6
HIDDEN
100
AcDbLine
 10
3.248
 20
2.626
 30
0.0
 11
2.756
 21
2.327
 31
0.0
  0
ARC
  5
480
330
18
100
AcDbEntity
  8
0
  6
HIDDEN
100
AcDbCircle
 10
3.13
 20
2.743
 30
0.0
 40
0.166
100
AcDbArc
 50
300.077
 51
350.715
  0
ARC
  5
481
330
18
100
AcDbEntity
  8
0
  6
HIDDEN
100
AcDbCircle
 10
3.249
 20
2.51
 30
0.0
 40
0.097
100
AcDbArc
 50
111.673
 51
200.8
  0
ARC
  5
482
330
18
100
AcDbEntity
  8
0
  6
HIDDEN
100
AcDbCircle
 10
3.154
 20
2.284
 30
0.0
 40
0.1
100
AcDbArc
 50
331.4980000000001
 51
30.174
  0
LINE
  5
483
330
18
100
AcDbEntity
  8
0
  6
HIDDEN
100
AcDbLine
 10
3.241
 20
2.335
 30
0.0
 11
3.159
 21
2.476
 31
0.0
  0
LINE
  5
484
330
18
100
AcDbEntity
  8
0
  6
HIDDEN
100
AcDbLine
 10
3.277
 20
3.278
 30
0.0
 11
3.294
 21
2.716
 31
0.0
  0
ARC
  5
485
330
18
100
AcDbEntity
  8
0
  6
HIDDEN
100
AcDbCircle
 10
2.969
 20
2.011
 30
0.0
 40
0.133
100
AcDbArc
 50
296.444
 51
335.906
  0
LINE
  5
486
330
18
100
AcDbEntity
  8
0
  6
HIDDEN
100
AcDbLine
 10
3.09
 20
1.956
 30
0.0
 11
3.242
 21
2.237
 31
0.0
  0
ARC
  5
487
330
18
100
AcDbEntity
  8
0
  6
HIDDEN
100
AcDbCircle
 10
2.995
 20
1.996
 30
0.0
 40
0.109
100
AcDbArc
 50
199.081
 51
287.336
  0
LINE
  5
488
330
18
100
AcDbEntity
  8
0
100
AcDbLine
 10
3.313
 20
3.353
 30
0.0
 11
3.4
 21
3.401
 31
0.0
  0
ARC
  5
489
330
18
100
AcDbEntity
  8
0
100
AcDbCircle
 10
2.841
 20
3.156
 30
0.0
 40
0.062
100
AcDbArc
 50
273.154
 51
352.129
  0
ARC
  5
48A
330
18
100
AcDbEntity
  8
0
100
AcDbCircle
 10
2.818
 20
3.022
 30
0.0
 40
0.078
100
AcDbArc
 50
34.48
 51
69.961
  0
LINE
  5
48B
330
18
100
AcDbEntity
  8
0
100
AcDbLine
 10
2.902
 20
3.214
 30
0.0
 11
3.271
 21
3.42
 31
0.0
  0
LINE
  5
48C
330
18
100
AcDbEntity
  8
0
100
AcDbLine
 10
2.885
 20
3.059
 30
0.0
 11
3.277
 21
3.278
 31
0.0
  0
ARC
  5
48D
330
18
100
AcDbEntity
  8
0
100
AcDbCircle
 10
3.085
 20
4.283
 30
0.0
 40
0.186
100
AcDbArc
 50
44.565
 51
81.679
  0
LINE
  5
48E
330
18
100
AcDbEntity
  8
0
100
AcDbLine
 10
3.217
 20
4.413
 30
0.0
 11
3.287
 21
4.356
 31
0.0
  0
ARC
  5
48F
330
18
100
AcDbEntity
  8
0
100
AcDbCircle
 10
3.195
 20
4.272
 30
0.0
 40
0.125
100
AcDbArc
 50
0.062
 51
42.29600000000001
  0
LINE
  5
490
330
18
100
AcDbEntity
  8
0
100
AcDbLine
 10
3.32
 20
4.272
 30
0.0
 11
3.321
 21
3.373
 31
0.0
  0
ARC
  5
491
330
18
100
AcDbEntity
  8
0
100
AcDbCircle
 10
3.101
 20
4.431
 30
0.0
 40
0.038
100
AcDbArc
 50
42.29600000000001
 51
148.985
  0
ARC
  5
492
330
18
100
AcDbEntity
  8
0
100
AcDbCircle
 10
3.195
 20
4.272
 30
0.0
 40
0.075
100
AcDbArc
 50
0.062
 51
42.29600000000001
  0
LINE
  5
493
330
18
100
AcDbEntity
  8
0
100
AcDbLine
 10
3.128
 20
4.456
 30
0.0
 11
3.25
 21
4.322
 31
0.0
  0
LINE
  5
494
330
18
100
AcDbEntity
  8
0
100
AcDbLine
 10
3.27
 20
4.272
 30
0.0
 11
3.271
 21
3.381
 31
0.0
  0
ARC
  5
495
330
18
100
AcDbEntity
  8
0
100
AcDbCircle
 10
2.976
 20
4.15
 30
0.0
 40
0.075
100
AcDbArc
 50
148.985
 51
180.062
  0
LINE
  5
496
330
18
100
AcDbEntity
  8
0
100
AcDbLine
 10
2.901
 20
4.15
 30
0.0
 11
2.902
 21
3.148
 31
0.0
  0
LINE
  5
497
330
18
100
AcDbEntity
  8
0
100
AcDbLine
 10
3.069
 20
4.45
 30
0.0
 11
2.912
 21
4.189
 31
0.0
  0
ARC
  5
498
330
18
100
AcDbEntity
  8
0
  6
HIDDEN
100
AcDbCircle
 10
1.765
 20
2.565
 30
0.0
 40
0.1
100
AcDbArc
 50
212.427
 51
237.822
  0
ARC
  5
499
330
18
100
AcDbEntity
  8
0
  6
HIDDEN
100
AcDbCircle
 10
1.89
 20
2.763
 30
0.0
 40
0.334
100
AcDbArc
 50
237.822
 51
255.188
  0
LINE
  5
49A
330
18
100
AcDbEntity
  8
0
  6
HIDDEN
100
AcDbLine
 10
1.648
 20
2.563
 30
0.0
 11
1.681
 21
2.511
 31
0.0
  0
ARC
  5
49B
330
18
100
AcDbEntity
  8
0
  6
HIDDEN
100
AcDbCircle
 10
1.754
 20
2.63
 30
0.0
 40
0.125
100
AcDbArc
 50
141.052
 51
212.427
  0
LINE
  5
49C
330
18
100
AcDbEntity
  8
0
  6
HIDDEN
100
AcDbLine
 10
1.736
 20
2.807
 30
0.0
 11
1.656
 21
2.708
 31
0.0
  0
ARC
  5
49D
330
18
100
AcDbEntity
  8
0
  6
HIDDEN
100
AcDbCircle
 10
1.717
 20
2.823
 30
0.0
 40
0.025
100
AcDbArc
 50
321.052
 51
32.635
  0
LINE
  5
49E
330
18
100
AcDbEntity
  8
0
  6
HIDDEN
100
AcDbLine
 10
1.621
 20
3.02
 30
0.0
 11
1.738
 21
2.836
 31
0.0
  0
ARC
  5
49F
330
18
100
AcDbEntity
  8
0
  6
HIDDEN
100
AcDbCircle
 10
1.726
 20
3.087
 30
0.0
 40
0.125
100
AcDbArc
 50
176.402
 51
212.635
  0
LINE
  5
4A0
330
18
100
AcDbEntity
  8
0
  6
HIDDEN
100
AcDbLine
 10
1.622
 20
3.419
 30
0.0
 11
1.601
 21
3.095
 31
0.0
  0
LINE
  5
4A1
330
18
100
AcDbEntity
  8
0
  6
HIDDEN
100
AcDbLine
 10
1.712
 20
2.697
 30
0.0
 11
2.103
 21
2.905
 31
0.0
  0
ARC
  5
4A2
330
18
100
AcDbEntity
  8
0
  6
HIDDEN
100
AcDbCircle
 10
2.056
 20
2.989
 30
0.0
 40
0.075
100
AcDbArc
 50
337.6230000000001
 51
34.927
  0
ARC
  5
4A3
330
18
100
AcDbEntity
  8
0
  6
HIDDEN
100
AcDbCircle
 10
2.667
 20
3.415
 30
0.0
 40
0.67
100
AcDbArc
 50
197.962
 51
214.927
  0
LINE
  5
4A4
330
18
100
AcDbEntity
  8
0
  6
HIDDEN
100
AcDbLine
 10
2.125
 20
2.96
 30
0.0
 11
1.94
 21
2.509
 31
0.0
  0
LINE
  5
4A5
330
18
100
AcDbEntity
  8
0
100
AcDbLine
 10
4.161000000000001
 20
4.132
 30
0.0
 11
3.577
 21
4.37
 31
0.0
  0
LINE
  5
4A6
330
18
100
AcDbEntity
  8
0
100
AcDbLine
 10
2.704
 20
1.921
 30
0.0
 11
3.964
 21
2.687
 31
0.0
  0
LINE
  5
4A7
330
18
100
AcDbEntity
  8
0
100
AcDbLine
 10
1.336
 20
4.712
 30
0.0
 11
0.54
 21
4.325
 31
0.0
  0
LINE
  5
4A8
330
18
100
AcDbEntity
  8
0
100
AcDbLine
 10
3.126
 20
6.922000000000001
 30
0.0
 11
3.522
 21
6.763999999999999
 31
0.0
  0
LINE
  5
4A9
330
18
100
AcDbEntity
  8
0
100
AcDbLine
 10
2.43
 20
7.2
 30
0.0
 11
2.694
 21
7.095
 31
0.0
  0
LINE
  5
4AA
330
18
100
AcDbEntity
  8
0
100
AcDbLine
 10
2.906
 20
7.191
 30
0.0
 11
2.993
 21
6.861000000000001
 31
0.0
  0
LINE
  5
4AB
330
18
100
AcDbEntity
  8
0
100
AcDbLine
 10
1.942
 20
6.755
 30
0.0
 11
2.906
 21
7.191
 31
0.0
  0
LINE
  5
4AC
330
18
100
AcDbEntity
  8
0
100
AcDbLine
 10
2.162
 20
6.486000000000001
 30
0.0
 11
3.126
 21
6.922000000000001
 31
0.0
  0
LINE
  5
4AD
330
18
100
AcDbEntity
  8
0
100
AcDbLine
 10
2.162
 20
6.486000000000001
 30
0.0
 11
2.558
 21
6.327999999999999
 31
0.0
  0
LINE
  5
4AE
330
18
100
AcDbEntity
  8
0
100
AcDbLine
 10
2.044
 20
6.371
 30
0.0
 11
2.162
 21
6.486000000000001
 31
0.0
  0
LINE
  5
4AF
330
18
100
AcDbEntity
  8
0
100
AcDbLine
 10
1.942
 20
6.755
 30
0.0
 11
2.044
 21
6.371
 31
0.0
  0
LINE
  5
4B0
330
18
100
AcDbEntity
  8
0
100
AcDbLine
 10
1.846
 20
6.612
 30
0.0
 11
1.942
 21
6.755
 31
0.0
  0
LINE
  5
4B1
330
18
100
AcDbEntity
  8
0
100
AcDbLine
 10
1.385
 20
6.796
 30
0.0
 11
2.43
 21
7.2
 31
0.0
  0
LINE
  5
4B2
330
18
100
AcDbEntity
  8
0
100
AcDbLine
 10
1.336
 20
5.136
 30
0.0
 11
1.386
 21
5.16
 31
0.0
  0
LINE
  5
4B3
330
18
100
AcDbEntity
  8
0
100
AcDbLine
 10
3.526
 20
5.075
 30
0.0
 11
3.522
 21
6.763999999999999
 31
0.0
  0
LINE
  5
4B4
330
18
100
AcDbEntity
  8
0
100
AcDbLine
 10
3.526
 20
5.075
 30
0.0
 11
3.576
 21
5.049
 31
0.0
  0
LINE
  5
4B5
330
18
100
AcDbEntity
  8
0
100
AcDbLine
 10
2.558
 20
4.605
 30
0.0
 11
3.526
 21
5.075
 31
0.0
  0
LINE
  5
4B6
330
18
100
AcDbEntity
  8
0
100
AcDbLine
 10
2.558
 20
4.605
 30
0.0
 11
2.608
 21
4.579
 31
0.0
  0
LINE
  5
4B7
330
18
100
AcDbEntity
  8
0
100
AcDbLine
 10
1.336
 20
5.136
 30
0.0
 11
1.386
 21
5.11
 31
0.0
  0
LINE
  5
4B8
330
18
100
AcDbEntity
  8
0
100
AcDbLine
 10
2.558
 20
6.327999999999999
 30
0.0
 11
3.522
 21
6.763999999999999
 31
0.0
  0
LINE
  5
4B9
330
18
100
AcDbEntity
  8
0
100
AcDbLine
 10
1.385
 20
6.796
 30
0.0
 11
1.846
 21
6.612
 31
0.0
  0
ARC
  5
4BA
330
18
100
AcDbEntity
  8
0
100
AcDbCircle
 10
1.399
 20
3.604
 30
0.0
 40
0.013
100
AcDbArc
 50
180.032
 51
242.751
  0
LINE
  5
4BB
330
18
100
AcDbEntity
  8
0
100
AcDbLine
 10
1.385
 20
6.796
 30
0.0
 11
1.387
 21
3.604
 31
0.0
  0
ARC
  5
4BC
330
18
100
AcDbEntity
  8
0
100
AcDbCircle
 10
2.545
 20
3.013
 30
0.0
 40
0.013
100
AcDbArc
 50
242.751
 51
0.0
  0
LINE
  5
4BD
330
18
100
AcDbEntity
  8
0
100
AcDbLine
 10
1.393
 20
3.593
 30
0.0
 11
2.54
 21
3.002
 31
0.0
  0
LINE
  5
4BE
330
18
100
AcDbEntity
  8
0
100
AcDbLine
 10
2.558
 20
6.327999999999999
 30
0.0
 11
2.558
 21
3.013
 31
0.0
  0
ARC
  5
4BF
330
18
100
AcDbEntity
  8
0
100
AcDbCircle
 10
3.528
 20
3.529
 30
0.0
 40
0.05
100
AcDbArc
 50
298.843
 51
0.1
  0
LINE
  5
4C0
330
18
100
AcDbEntity
  8
0
100
AcDbLine
 10
2.591
 20
2.956
 30
0.0
 11
2.712
 21
3.022
 31
0.0
  0
LINE
  5
4C1
330
18
100
AcDbEntity
  8
0
100
AcDbLine
 10
3.576
 20
5.049
 30
0.0
 11
3.578
 21
3.529
 31
0.0
  0
LINE
  5
4C2
330
18
100
AcDbEntity
  8
0
100
AcDbLine
 10
2.608
 20
4.579
 30
0.0
 11
3.576
 21
5.049
 31
0.0
  0
ARC
  5
4C3
330
18
100
AcDbEntity
  8
0
100
AcDbCircle
 10
2.558
 20
2.993
 30
0.0
 40
0.05
100
AcDbArc
 50
242.751
 51
0.0
  0
ARC
  5
4C4
330
18
100
AcDbEntity
  8
0
100
AcDbCircle
 10
1.387
 20
3.596
 30
0.0
 40
0.05
100
AcDbArc
 50
180.032
 51
242.751
  0
LINE
  5
4C5
330
18
100
AcDbEntity
  8
0
100
AcDbLine
 10
2.608
 20
4.579
 30
0.0
 11
2.608
 21
2.993
 31
0.0
  0
LINE
  5
4C6
330
18
100
AcDbEntity
  8
0
100
AcDbLine
 10
1.364
 20
3.552
 30
0.0
 11
2.535
 21
2.948
 31
0.0
  0
LINE
  5
4C7
330
18
100
AcDbEntity
  8
0
100
AcDbLine
 10
1.336
 20
5.136
 30
0.0
 11
1.337
 21
3.596
 31
0.0
  0
LINE
  5
4C8
330
18
100
AcDbEntity
  8
0
100
AcDbLine
 10
1.777
 20
1.372
 30
0.0
 11
1.769
 21
1.377
 31
0.0
  0
LINE
  5
4C9
330
18
100
AcDbEntity
  8
0
100
AcDbLine
 10
1.128
 20
2.073
 30
0.0
 11
1.117
 21
2.083
 31
0.0
  0
LINE
  5
4CA
330
18
100
AcDbEntity
  8
0
100
AcDbLine
 10
1.306
 20
2.14
 30
0.0
 11
1.463
 21
2.095
 31
0.0
  0
TEXT
  5
4CB
330
18
100
AcDbEntity
  8
0
100
AcDbText
 10
2.542152
 20
0.195195
 30
0.0
 40
0.125
  1
Simpson Strong-Tie
100
AcDbText
  0
ENDSEC
  0
SECTION
  2
OBJECTS
  0
DICTIONARY
  5
C
330
0
100
AcDbDictionary
281
     1
  3
ACAD_COLOR
350
4D1
  3
ACAD_GROUP
350
D
  3
ACAD_LAYOUT
350
15
  3
ACAD_MATERIAL
350
4D3
  3
ACAD_MLINESTYLE
350
12
  3
ACAD_PLOTSETTINGS
350
14
  3
ACAD_PLOTSTYLENAME
350
E
  3
ACDBHEADERROUNDTRIPXREC
350
4D0
  0
DICTIONARY
  5
4D1
102
{ACAD_REACTORS
330
C
102
}
330
C
100
AcDbDictionary
281
     1
  0
DICTIONARY
  5
D
102
{ACAD_REACTORS
330
C
102
}
330
C
100
AcDbDictionary
281
     1
  0
DICTIONARY
  5
15
102
{ACAD_REACTORS
330
C
102
}
330
C
100
AcDbDictionary
281
     1
  3
Layout1
350
17
  3
Model
350
19
  0
DICTIONARY
  5
4D3
102
{ACAD_REACTORS
330
C
102
}
330
C
100
AcDbDictionary
281
     1
  0
DICTIONARY
  5
12
102
{ACAD_REACTORS
330
C
102
}
330
C
100
AcDbDictionary
281
     1
  3
Standard
350
13
  0
DICTIONARY
  5
14
102
{ACAD_REACTORS
330
C
102
}
330
C
100
AcDbDictionary
281
     1
  0
ACDBDICTIONARYWDFLT
  5
E
102
{ACAD_REACTORS
330
C
102
}
330
C
100
AcDbDictionary
281
     1
  3
Normal
350
F
100
AcDbDictionaryWithDefault
340
F
  0
DICTIONARY
  5
4D0
102
{ACAD_REACTORS
330
C
102
}
330
C
100
AcDbDictionary
281
     1
  3
COLORDICT
350
4D2
  3
MATERIALDICT
350
4D4
  0
LAYOUT
  5
17
102
{ACAD_REACTORS
330
15
102
}
102
{ACAD_XDICTIONARY
360
4D5
102
}
330
15
100
AcDbPlotSettings
  1

  2

  4

  6

 40
0.0
 41
0.0
 42
0.0
 43
0.0
 44
0.0
 45
0.0
 46
0.0
 47
0.0
 48
0.0
 49
0.0
140
0.0
141
0.0
142
1.0
143
1.0
 70
   688
 72
     0
 73
     0
 74
     5
  7

 75
    16
147
1.0
148
0.0
149
0.0
100
AcDbLayout
  1
Layout1
 70
     1
 71
     1
 10
0.0
 20
0.0
 11
12.0
 21
9.0
 12
0.0
 22
0.0
 32
0.0
 14
1.000000000000000E+20
 24
1.000000000000000E+20
 34
1.000000000000000E+20
 15
-1.000000000000000E+20
 25
-1.000000000000000E+20
 35
-1.000000000000000E+20
146
0.0
 13
0.0
 23
0.0
 33
0.0
 16
1.0
 26
0.0
 36
0.0
 17
0.0
 27
1.0
 37
0.0
 76
     0
330
16
  0
LAYOUT
  5
19
102
{ACAD_REACTORS
330
15
102
}
102
{ACAD_XDICTIONARY
360
4D7
102
}
330
15
100
AcDbPlotSettings
  1

  2

  4

  6

 40
0.0
 41
0.0
 42
0.0
 43
0.0
 44
0.0
 45
0.0
 46
0.0
 47
0.0
 48
0.0
 49
0.0
140
0.0
141
0.0
142
1.0
143
1.0
 70
  1712
 72
     0
 73
     0
 74
     0
  7

 75
     0
147
1.0
148
0.0
149
0.0
100
AcDbLayout
  1
Model
 70
     1
 71
     0
 10
0.0
 20
0.0
 11
0.0
 21
0.0
 12
0.0
 22
0.0
 32
0.0
 14
0.0
 24
0.0
 34
0.0
 15
0.0
 25
0.0
 35
0.0
146
0.0
 13
0.0
 23
0.0
 33
0.0
 16
1.0
 26
0.0
 36
0.0
 17
0.0
 27
1.0
 37
0.0
 76
     0
330
18
  0
MLINESTYLE
  5
13
102
{ACAD_REACTORS
330
12
102
}
330
12
100
AcDbMlineStyle
  2
Standard
 70
     0
  3

 62
   256
 51
90.0
 52
90.0
 71
     2
 49
0.5
 62
   256
  6
BYLAYER
 49
-0.5
 62
   256
  6
BYLAYER
  0
ACDBPLACEHOLDER
  5
F
102
{ACAD_REACTORS
330
E
102
}
330
E
  0
XRECORD
  5
4D2
102
{ACAD_REACTORS
330
4D0
102
}
330
4D0
100
AcDbXrecord
340
4D1
  0
XRECORD
  5
4D4
102
{ACAD_REACTORS
330
4D0
102
}
330
4D0
100
AcDbXrecord
340
4D3
  0
DICTIONARY
  5
4D5
330
17
100
AcDbDictionary
280
     1
281
     1
  3
ACAD_XREC_ROUNDTRIP
360
4D6
  0
DICTIONARY
  5
4D7
330
19
100
AcDbDictionary
280
     1
281
     1
  3
ACAD_XREC_ROUNDTRIP
360
4D8
  0
XRECORD
  5
4D6
102
{ACAD_REACTORS
330
4D5
102
}
330
4D5
100
AcDbXrecord
102
SHADEPLOT
 70
     0
102
SHADEPLOTRESLEVEL
 70
     0
102
SHADEPLOTCUSTOMDPI
 70
     0
  0
XRECORD
  5
4D8
102
{ACAD_REACTORS
330
4D7
102
}
330
4D7
100
AcDbXrecord
102
SHADEPLOT
 70
     0
102
SHADEPLOTRESLEVEL
 70
     0
102
SHADEPLOTCUSTOMDPI
 70
     0
  0
ENDSEC
  0
EOF
