  0
SECTION
  2
HEADER
  9
$ACADVER
  1
AC1015
  9
$ACADMAINTVER
 70
     6
  9
$DWGCODEPAGE
  3
ANSI_1252
  9
$INSBASE
 10
0.0
 20
0.0
 30
0.0
  9
$EXTMIN
 10
62.4270921268521
 20
81.18399230993749
 30
-0.0015258207003612
  9
$EXTMAX
 10
149.0848494586317
 20
202.4008426080424
 30
0.0000000349246008
  9
$LIMMIN
 10
62.2973171657986
 20
81.05190022786458
  9
$LIMMAX
 10
149.0822007921007
 20
199.6377712673611
  9
$ORTHOMODE
 70
     0
  9
$REGENMODE
 70
     1
  9
$FILLMODE
 70
     1
  9
$QTEXTMODE
 70
     0
  9
$MIRRTEXT
 70
     1
  9
$LTSCALE
 40
1.0
  9
$ATTMODE
 70
     1
  9
$TEXTSIZE
 40
0.2
  9
$TRACEWID
 40
0.05
  9
$TEXTSTYLE
  7
STANDARD
  9
$CLAYER
  8
0
  9
$CELTYPE
  6
CONTINUOUS
  9
$CECOLOR
 62
   256
  9
$CELTSCALE
 40
1.0
  9
$DISPSILH
 70
     0
  9
$DIMSCALE
 40
1.0
  9
$DIMASZ
 40
0.18
  9
$DIMEXO
 40
0.0625
  9
$DIMDLI
 40
0.38
  9
$DIMRND
 40
0.0
  9
$DIMDLE
 40
0.0
  9
$DIMEXE
 40
0.18
  9
$DIMTP
 40
0.0
  9
$DIMTM
 40
0.0
  9
$DIMTXT
 40
0.18
  9
$DIMCEN
 40
0.09
  9
$DIMTSZ
 40
0.0
  9
$DIMTOL
 70
     0
  9
$DIMLIM
 70
     0
  9
$DIMTIH
 70
     1
  9
$DIMTOH
 70
     1
  9
$DIMSE1
 70
     0
  9
$DIMSE2
 70
     0
  9
$DIMTAD
 70
     0
  9
$DIMZIN
 70
     0
  9
$DIMBLK
  1

  9
$DIMASO
 70
     1
  9
$DIMSHO
 70
     1
  9
$DIMPOST
  1

  9
$DIMAPOST
  1

  9
$DIMALT
 70
     0
  9
$DIMALTD
 70
     2
  9
$DIMALTF
 40
25.4
  9
$DIMLFAC
 40
1.0
  9
$DIMTOFL
 70
     0
  9
$DIMTVP
 40
0.0
  9
$DIMTIX
 70
     0
  9
$DIMSOXD
 70
     0
  9
$DIMSAH
 70
     0
  9
$DIMBLK1
  1

  9
$DIMBLK2
  1

  9
$DIMSTYLE
  2
STANDARD
  9
$DIMCLRD
 70
     0
  9
$DIMCLRE
 70
     0
  9
$DIMCLRT
 70
     0
  9
$DIMTFAC
 40
1.0
  9
$DIMGAP
 40
0.09
  9
$DIMJUST
 70
     0
  9
$DIMSD1
 70
     0
  9
$DIMSD2
 70
     0
  9
$DIMTOLJ
 70
     1
  9
$DIMTZIN
 70
     0
  9
$DIMALTZ
 70
     0
  9
$DIMALTTZ
 70
     0
  9
$DIMUPT
 70
     0
  9
$DIMDEC
 70
     4
  9
$DIMTDEC
 70
     4
  9
$DIMALTU
 70
     2
  9
$DIMALTTD
 70
     2
  9
$DIMTXSTY
  7
STANDARD
  9
$DIMAUNIT
 70
     0
  9
$DIMADEC
 70
     0
  9
$DIMALTRND
 40
0.0
  9
$DIMAZIN
 70
     0
  9
$DIMDSEP
 70
    46
  9
$DIMATFIT
 70
     3
  9
$DIMFRAC
 70
     0
  9
$DIMLDRBLK
  1

  9
$DIMLUNIT
 70
     2
  9
$DIMLWD
 70
    -2
  9
$DIMLWE
 70
    -2
  9
$DIMTMOVE
 70
     0
  9
$LUNITS
 70
     2
  9
$LUPREC
 70
     4
  9
$SKETCHINC
 40
0.1
  9
$FILLETRAD
 40
0.0
  9
$AUNITS
 70
     0
  9
$AUPREC
 70
     0
  9
$MENU
  1
acad
  9
$ELEVATION
 40
0.0
  9
$PELEVATION
 40
0.0
  9
$THICKNESS
 40
0.0
  9
$LIMCHECK
 70
     0
  9
$CHAMFERA
 40
0.0
  9
$CHAMFERB
 40
0.0
  9
$CHAMFERC
 40
0.0
  9
$CHAMFERD
 40
0.0
  9
$SKPOLY
 70
     0
  9
$TDCREATE
 40
2444971.666666667
  9
$TDUCREATE
 40
2444972.0
  9
$TDUPDATE
 40
2452219.386164352
  9
$TDUUPDATE
 40
2452219.719497685
  9
$TDINDWG
 40
0.002066088
  9
$TDUSRTIMER
 40
0.002066088
  9
$USRTIMER
 70
     1
  9
$ANGBASE
 50
0.0
  9
$ANGDIR
 70
     0
  9
$PDMODE
 70
     0
  9
$PDSIZE
 40
0.0
  9
$PLINEWID
 40
0.0
  9
$SPLFRAME
 70
     0
  9
$SPLINETYPE
 70
     6
  9
$SPLINESEGS
 70
     8
  9
$HANDSEED
  5
207
  9
$SURFTAB1
 70
     6
  9
$SURFTAB2
 70
     6
  9
$SURFTYPE
 70
     6
  9
$SURFU
 70
     6
  9
$SURFV
 70
     6
  9
$UCSBASE
  2

  9
$UCSNAME
  2

  9
$UCSORG
 10
0.0
 20
0.0
 30
0.0
  9
$UCSXDIR
 10
1.0
 20
0.0
 30
0.0
  9
$UCSYDIR
 10
0.0
 20
1.0
 30
0.0
  9
$UCSORTHOREF
  2

  9
$UCSORTHOVIEW
 70
     0
  9
$UCSORGTOP
 10
0.0
 20
0.0
 30
0.0
  9
$UCSORGBOTTOM
 10
0.0
 20
0.0
 30
0.0
  9
$UCSORGLEFT
 10
0.0
 20
0.0
 30
0.0
  9
$UCSORGRIGHT
 10
0.0
 20
0.0
 30
0.0
  9
$UCSORGFRONT
 10
0.0
 20
0.0
 30
0.0
  9
$UCSORGBACK
 10
0.0
 20
0.0
 30
0.0
  9
$PUCSBASE
  2

  9
$PUCSNAME
  2

  9
$PUCSORG
 10
0.0
 20
0.0
 30
0.0
  9
$PUCSXDIR
 10
1.0
 20
0.0
 30
0.0
  9
$PUCSYDIR
 10
0.0
 20
1.0
 30
0.0
  9
$PUCSORTHOREF
  2

  9
$PUCSORTHOVIEW
 70
     0
  9
$PUCSORGTOP
 10
0.0
 20
0.0
 30
0.0
  9
$PUCSORGBOTTOM
 10
0.0
 20
0.0
 30
0.0
  9
$PUCSORGLEFT
 10
0.0
 20
0.0
 30
0.0
  9
$PUCSORGRIGHT
 10
0.0
 20
0.0
 30
0.0
  9
$PUCSORGFRONT
 10
0.0
 20
0.0
 30
0.0
  9
$PUCSORGBACK
 10
0.0
 20
0.0
 30
0.0
  9
$USERI1
 70
     0
  9
$USERI2
 70
     0
  9
$USERI3
 70
     0
  9
$USERI4
 70
     0
  9
$USERI5
 70
     0
  9
$USERR1
 40
0.0
  9
$USERR2
 40
0.0
  9
$USERR3
 40
0.0
  9
$USERR4
 40
0.0
  9
$USERR5
 40
0.0
  9
$WORLDVIEW
 70
     1
  9
$SHADEDGE
 70
     3
  9
$SHADEDIF
 70
    70
  9
$TILEMODE
 70
     1
  9
$MAXACTVP
 70
    16
  9
$PINSBASE
 10
0.0
 20
0.0
 30
0.0
  9
$PLIMCHECK
 70
     0
  9
$PEXTMIN
 10
1.000000000000000E+20
 20
1.000000000000000E+20
 30
1.000000000000000E+20
  9
$PEXTMAX
 10
-1.000000000000000E+20
 20
-1.000000000000000E+20
 30
-1.000000000000000E+20
  9
$PLIMMIN
 10
0.0
 20
0.0
  9
$PLIMMAX
 10
12.0
 20
9.0
  9
$UNITMODE
 70
     0
  9
$VISRETAIN
 70
     0
  9
$PLINEGEN
 70
     1
  9
$PSLTSCALE
 70
     0
  9
$TREEDEPTH
 70
  3020
  9
$CMLSTYLE
  2
STANDARD
  9
$CMLJUST
 70
     0
  9
$CMLSCALE
 40
1.0
  9
$PROXYGRAPHICS
 70
     0
  9
$MEASUREMENT
 70
     0
  9
$CELWEIGHT
370
    -1
  9
$ENDCAPS
280
     0
  9
$JOINSTYLE
280
     0
  9
$LWDISPLAY
290
     0
  9
$INSUNITS
 70
     0
  9
$HYPERLINKBASE
  1

  9
$STYLESHEET
  1

  9
$XEDIT
290
     1
  9
$CEPSNTYPE
380
     0
  9
$PSTYLEMODE
290
     1
  9
$FINGERPRINTGUID
  2
{0AE0CF7E-D1C7-11D5-923F-00805F198AD5}
  9
$VERSIONGUID
  2
{0AE0CF80-D1C7-11D5-923F-00805F198AD5}
  9
$EXTNAMES
290
     1
  9
$PSVPSCALE
 40
0.0
  9
$OLESTARTUP
290
     0
  0
ENDSEC
  0
SECTION
  2
CLASSES
  0
CLASS
  1
LWPOLYLINE
  2
AcDbPolyline
  3
AutoCAD 2000
 90
        0
280
     0
281
     1
  0
CLASS
  1
IMAGE
  2
AcDbRasterImage
  3
ISM
 90
      127
280
     0
281
     1
  0
CLASS
  1
OLE2FRAME
  2
AcDbOle2Frame
  3
AutoCAD 2000
 90
        0
280
     0
281
     1
  0
CLASS
  1
HATCH
  2
AcDbHatch
  3
AutoCAD 2000
 90
        0
280
     0
281
     1
  0
CLASS
  1
DICTIONARYVAR
  2
AcDbDictionaryVar
  3
AutoCAD 2000
 90
        0
280
     0
281
     0
  0
CLASS
  1
RASTERVARIABLES
  2
AcDbRasterVariables
  3
ISM
 90
        0
280
     0
281
     0
  0
CLASS
  1
IMAGEDEF
  2
AcDbRasterImageDef
  3
ISM
 90
        0
280
     0
281
     0
  0
CLASS
  1
IMAGEDEF_REACTOR
  2
AcDbRasterImageDefReactor
  3
ISM
 90
        1
280
     0
281
     0
  0
CLASS
  1
IDBUFFER
  2
AcDbIdBuffer
  3
AutoCAD 2000
 90
        0
280
     0
281
     0
  0
CLASS
  1
SPATIAL_FILTER
  2
AcDbSpatialFilter
  3
AutoCAD 2000
 90
        0
280
     0
281
     0
  0
CLASS
  1
XRECORD
  2
AcDbXrecord
  3
AutoCAD 2000
 90
        0
280
     0
281
     0
  0
CLASS
  1
SORTENTSTABLE
  2
AcDbSortentsTable
  3
AutoCAD 2000
 90
        0
280
     0
281
     0
  0
CLASS
  1
LAYER_INDEX
  2
AcDbLayerIndex
  3
AutoCAD 2000
 90
        0
280
     0
281
     0
  0
CLASS
  1
SPATIAL_INDEX
  2
AcDbSpatialIndex
  3
AutoCAD 2000
 90
        0
280
     0
281
     0
  0
CLASS
  1
OBJECT_PTR
  2
CAseDLPNTableRecord
  3
ASE-LPNTableRecord
 90
        1
280
     1
281
     0
  0
CLASS
  1
LAYOUT
  2
AcDbLayout
  3
ObjectDBX Classes
 90
        0
280
     0
281
     0
  0
CLASS
  1
PLOTSETTINGS
  2
AcDbPlotSettings
  3
AutoCAD 2000
 90
        0
280
     0
281
     0
  0
CLASS
  1
ACDBDICTIONARYWDFLT
  2
AcDbDictionaryWithDefault
  3
AutoCAD 2000
 90
        0
280
     0
281
     0
  0
CLASS
  1
ACDBPLACEHOLDER
  2
AcDbPlaceHolder
  3
ObjectDBX Classes
 90
        0
280
     0
281
     0
  0
CLASS
  1
VBAPROJECT
  2
AcDbVbaProject
  3
ObjectDBX Classes
 90
        0
280
     0
281
     0
  0
CLASS
  1
WIPEOUT
  2
AcDbWipeout
  3
WipeOut|AutoCAD Express Tool|expresstools@autodesk.com
 90
      127
280
     0
281
     1
  0
CLASS
  1
WIPEOUTVARIABLES
  2
AcDbWipeoutVariables
  3
WipeOut|AutoCAD Express Tool|expresstools@autodesk.com
 90
        0
280
     0
281
     0
  0
CLASS
  1
RTEXT
  2
RText
  3
RText|AutoCAD Express Tool|expresstools@autodesk.com
 90
        0
280
     0
281
     1
  0
CLASS
  1
ARCALIGNEDTEXT
  2
AcDbArcAlignedText
  3
ATEXT|AutoCAD Express Tool|expresstools@autodesk.com
 90
        0
280
     0
281
     1
  0
CLASS
  1
LONG_TRANSACTION
  2
AcDbLongTransaction
  3
AutoCAD 2000
 90
        0
280
     1
281
     0
  0
CLASS
  1
LWPOLYLINE
  2
AcDbPolyline
  3
AutoCAD 2000
 90
        0
280
     0
281
     1
  0
CLASS
  1
HATCH
  2
AcDbHatch
  3
AutoCAD 2000
 90
        0
280
     0
281
     1
  0
CLASS
  1
XRECORD
  2
AcDbXrecord
  3
AutoCAD 2000
 90
        0
280
     0
281
     0
  0
ENDSEC
  0
SECTION
  2
TABLES
  0
TABLE
  2
VPORT
  5
7
330
0
100
AcDbSymbolTable
 70
     2
  0
VPORT
  5
1D3
330
7
100
AcDbSymbolTableRecord
100
AcDbViewportTableRecord
  2
*Active
 70
     0
 10
0.0
 20
0.0
 11
1.0
 21
1.0
 12
105.7559707927419
 22
141.7924174589899
 13
0.0
 23
0.0
 14
1.0
 24
1.0
 15
0.0
 25
0.0
 16
0.0
 26
0.0
 36
1.0
 17
0.0
 27
0.0
 37
0.0
 40
123.125777074453
 41
1.836842105263158
 42
50.0
 43
0.0
 44
0.0
 50
0.0
 51
0.0
 71
     0
 72
   100
 73
     1
 74
     1
 75
     0
 76
     0
 77
     0
 78
     0
281
     0
 65
     1
110
0.0
120
0.0
130
0.0
111
1.0
121
0.0
131
0.0
112
0.0
122
1.0
132
0.0
 79
     0
146
0.0
  0
ENDTAB
  0
TABLE
  2
LTYPE
  5
4
330
0
100
AcDbSymbolTable
 70
     4
  0
LTYPE
  5
11
330
4
100
AcDbSymbolTableRecord
100
AcDbLinetypeTableRecord
  2
BYBLOCK
 70
     0
  3

 72
    65
 73
     0
 40
0.0
  0
LTYPE
  5
12
330
4
100
AcDbSymbolTableRecord
100
AcDbLinetypeTableRecord
  2
BYLAYER
 70
     0
  3

 72
    65
 73
     0
 40
0.0
  0
LTYPE
  5
13
330
4
100
AcDbSymbolTableRecord
100
AcDbLinetypeTableRecord
  2
CONTINUOUS
 70
     0
  3
Solid line
 72
    65
 73
     0
 40
0.0
  0
LTYPE
  5
5A
330
4
100
AcDbSymbolTableRecord
100
AcDbLinetypeTableRecord
  2
AI9-LTYPE1
 70
     0
  3
Illustrator Dash Style No.1
 72
    65
 73
     6
 40
4.444999924302101
 49
0.9877777609560224
 74
     0
 49
-0.4938888804780112
 74
     0
 49
0.9877777609560224
 74
     0
 49
-0.4938888804780112
 74
     0
 49
0.9877777609560224
 74
     0
 49
-0.4938888804780112
 74
     0
  0
LTYPE
  5
150
330
4
100
AcDbSymbolTableRecord
100
AcDbLinetypeTableRecord
  2
AI9-LTYPE2
 70
     0
  3
Illustrator Dash Style No.2
 72
    65
 73
     6
 40
3.704166540503501
 49
0.7408332996898227
 74
     0
 49
-0.4938888804780112
 74
     0
 49
0.7408332996898227
 74
     0
 49
-0.4938888804780112
 74
     0
 49
0.7408332996898227
 74
     0
 49
-0.4938888804780112
 74
     0
  0
LTYPE
  5
18C
330
4
100
AcDbSymbolTableRecord
100
AcDbLinetypeTableRecord
  2
AI9-LTYPE3
 70
     0
  3
Illustrator Dash Style No.3
 72
    65
 73
     6
 40
8.889999848604202
 49
1.975555521912045
 74
     0
 49
-0.9877777609560224
 74
     0
 49
1.975555521912045
 74
     0
 49
-0.9877777609560224
 74
     0
 49
1.975555521912045
 74
     0
 49
-0.9877777609560224
 74
     0
  0
ENDTAB
  0
TABLE
  2
LAYER
  5
2
330
0
100
AcDbSymbolTable
 70
     2
  0
LAYER
  5
14
330
2
100
AcDbSymbolTableRecord
100
AcDbLayerTableRecord
  2
0
 70
     0
 62
     7
  6
CONTINUOUS
370
    -3
390
0
  0
LAYER
  5
21
330
2
100
AcDbSymbolTableRecord
100
AcDbLayerTableRecord
  2
LAYER_1
 70
     0
 62
     5
  6
CONTINUOUS
370
    -3
390
0
  0
ENDTAB
  0
TABLE
  2
STYLE
  5
3
330
0
100
AcDbSymbolTable
 70
     5
  0
STYLE
  5
17
330
3
100
AcDbSymbolTableRecord
100
AcDbTextStyleTableRecord
  2
STANDARD
 70
     0
 40
0.0
 41
1.0
 50
0.0
 71
     0
 42
0.2
  3
txt
  4

  0
STYLE
  5
1D
330
3
100
AcDbSymbolTableRecord
100
AcDbTextStyleTableRecord
  2
STD
 70
     0
 40
0.0
 41
1.0
 50
0.0
 71
     0
 42
0.2
  3
txt
  4

  0
STYLE
  5
1E
330
3
100
AcDbSymbolTableRecord
100
AcDbTextStyleTableRecord
  2
TATESTD
 70
     4
 40
0.0
 41
1.0
 50
0.0
 71
     0
 42
0.2
  3
txt
  4

  0
STYLE
  5
1F
330
3
100
AcDbSymbolTableRecord
100
AcDbTextStyleTableRecord
  2
KANJISTD
 70
     0
 40
0.0
 41
1.0
 50
0.0
 71
     0
 42
0.2
  3
txt
  4
extfont
  0
STYLE
  5
20
330
3
100
AcDbSymbolTableRecord
100
AcDbTextStyleTableRecord
  2
KANJITATE
 70
     4
 40
0.0
 41
1.0
 50
0.0
 71
     0
 42
0.2
  3
txt
  4
extfont
  0
ENDTAB
  0
TABLE
  2
VIEW
  5
5
330
0
100
AcDbSymbolTable
 70
     0
  0
ENDTAB
  0
TABLE
  2
UCS
  5
6
330
0
100
AcDbSymbolTable
 70
     0
  0
ENDTAB
  0
TABLE
  2
APPID
  5
8
330
0
100
AcDbSymbolTable
 70
     1
  0
APPID
  5
16
330
8
100
AcDbSymbolTableRecord
100
AcDbRegAppTableRecord
  2
ACAD
 70
     0
  0
ENDTAB
  0
TABLE
  2
DIMSTYLE
  5
9
330
0
100
AcDbSymbolTable
 70
     1
100
AcDbDimStyleTable
  0
DIMSTYLE
105
18
330
9
100
AcDbSymbolTableRecord
100
AcDbDimStyleTableRecord
  2
STANDARD
 70
     0
  3

  4

289
     0
340
17
  0
ENDTAB
  0
TABLE
  2
BLOCK_RECORD
  5
1
330
0
100
AcDbSymbolTable
 70
    10
  0
BLOCK_RECORD
  5
A
330
1
100
AcDbSymbolTableRecord
100
AcDbBlockTableRecord
  2
*MODEL_SPACE
340
1CE
  0
BLOCK_RECORD
  5
B
330
1
100
AcDbSymbolTableRecord
100
AcDbBlockTableRecord
  2
*PAPER_SPACE
340
1CF
  0
BLOCK_RECORD
  5
22
330
1
100
AcDbSymbolTableRecord
100
AcDbBlockTableRecord
  2
AI9-BLK1
340
0
102
{BLKREFS
331
23
102
}
  0
BLOCK_RECORD
  5
31
330
1
100
AcDbSymbolTableRecord
100
AcDbBlockTableRecord
  2
AI9-BLK2
340
0
102
{BLKREFS
331
32
102
}
  0
BLOCK_RECORD
  5
3A
330
1
100
AcDbSymbolTableRecord
100
AcDbBlockTableRecord
  2
AI9-BLK3
340
0
102
{BLKREFS
331
3B
102
}
  0
BLOCK_RECORD
  5
3D
330
1
100
AcDbSymbolTableRecord
100
AcDbBlockTableRecord
  2
AI9-BLK4
340
0
102
{BLKREFS
331
3E
102
}
  0
BLOCK_RECORD
  5
4B
330
1
100
AcDbSymbolTableRecord
100
AcDbBlockTableRecord
  2
AI9-BLK5
340
0
102
{BLKREFS
331
4C
102
}
  0
BLOCK_RECORD
  5
5D
330
1
100
AcDbSymbolTableRecord
100
AcDbBlockTableRecord
  2
AI9-BLK6
340
0
102
{BLKREFS
331
5E
102
}
  0
BLOCK_RECORD
  5
6E
330
1
100
AcDbSymbolTableRecord
100
AcDbBlockTableRecord
  2
AI9-BLK7
340
0
102
{BLKREFS
331
6F
102
}
  0
BLOCK_RECORD
  5
7F
330
1
100
AcDbSymbolTableRecord
100
AcDbBlockTableRecord
  2
AI9-BLK8
340
0
102
{BLKREFS
331
80
102
}
  0
BLOCK_RECORD
  5
14D
330
1
100
AcDbSymbolTableRecord
100
AcDbBlockTableRecord
  2
AI9-BLK9
340
0
102
{BLKREFS
331
14E
102
}
  0
BLOCK_RECORD
  5
152
330
1
100
AcDbSymbolTableRecord
100
AcDbBlockTableRecord
  2
AI9-BLK10
340
0
102
{BLKREFS
331
153
102
}
  0
ENDTAB
  0
ENDSEC
  0
SECTION
  2
BLOCKS
  0
BLOCK
  5
D
330
A
100
AcDbEntity
  8
0
100
AcDbBlockBegin
  2
*MODEL_SPACE
 70
     0
 10
0.0
 20
0.0
 30
0.0
  3
*MODEL_SPACE
  1

  4

  0
ENDBLK
  5
E
330
A
100
AcDbEntity
  8
0
100
AcDbBlockEnd
  0
BLOCK
  5
F
330
B
100
AcDbEntity
 67
     1
  8
0
100
AcDbBlockBegin
  2
*PAPER_SPACE
 70
     0
 10
0.0
 20
0.0
 30
0.0
  3
*PAPER_SPACE
  1

  4

  0
ENDBLK
  5
10
330
B
100
AcDbEntity
 67
     1
  8
0
100
AcDbBlockEnd
  0
BLOCK
  5
24
330
22
100
AcDbEntity
  8
LAYER_1
 62
     7
100
AcDbBlockBegin
  2
AI9-BLK1
 70
     0
 10
0.0
 20
0.0
 30
0.0
  3
AI9-BLK1
  1

  4

  0
HATCH
  5
2D
330
22
100
AcDbEntity
  8
LAYER_1
 62
     7
100
AcDbHatch
 10
0.0
 20
0.0
 30
0.0
210
0.0
220
0.0
230
1.0
  2
SOLID
 70
     1
 71
     0
 91
        2
 92
       16
 93
        1
 72
     4
 94
        3
 73
     0
 74
     0
 95
       17
 96
       13
 40
0.0
 40
0.0
 40
0.0
 40
0.0
 40
1.0
 40
1.0
 40
1.0
 40
2.0
 40
2.0
 40
2.0
 40
3.0
 40
3.0
 40
3.0
 40
4.0
 40
4.0
 40
4.0
 40
4.0
 10
-11.06590508355035
 20
-0.6450941297743055
 10
-11.06590508355035
 20
-0.6450941297743055
 10
-9.690622965494791
 20
-0.6450941297743055
 10
-9.690622965494791
 20
-0.6450941297743055
 10
-9.690622965494791
 20
-0.6450941297743055
 10
-9.690622965494791
 20
1.295872667100694
 10
-9.690622965494791
 20
1.295872667100694
 10
-9.690622965494791
 20
1.295872667100694
 10
-9.702508544921875
 20
1.295872667100694
 10
-9.702508544921875
 20
1.295872667100694
 10
-9.702508544921875
 20
1.295872667100694
 10
-11.06590508355035
 20
-0.6450941297743055
 10
-11.06590508355035
 20
-0.6450941297743055
 97
        0
 92
        1
 93
        1
 72
     4
 94
        3
 73
     0
 74
     0
 95
       38
 96
       34
 40
0.0
 40
0.0
 40
0.0
 40
0.0
 40
1.0
 40
1.0
 40
1.0
 40
2.0
 40
2.0
 40
2.0
 40
3.0
 40
3.0
 40
3.0
 40
4.0
 40
4.0
 40
4.0
 40
5.0
 40
5.0
 40
5.0
 40
6.0
 40
6.0
 40
6.0
 40
7.0
 40
7.0
 40
7.0
 40
8.0
 40
8.0
 40
8.0
 40
9.0
 40
9.0
 40
9.0
 40
10.0
 40
10.0
 40
10.0
 40
11.0
 40
11.0
 40
11.0
 40
11.0
 10
-9.155082872178818
 20
-1.107770453559028
 10
-9.155082872178818
 20
-1.107770453559028
 10
-9.155082872178818
 20
-2.148189290364583
 10
-9.155082872178818
 20
-2.148189290364583
 10
-9.155082872178818
 20
-2.148189290364583
 10
-9.690622965494791
 20
-2.148189290364583
 10
-9.690622965494791
 20
-2.148189290364583
 10
-9.690622965494791
 20
-2.148189290364583
 10
-9.690622965494791
 20
-1.107770453559028
 10
-9.690622965494791
 20
-1.107770453559028
 10
-9.690622965494791
 20
-1.107770453559028
 10
-11.55872599283854
 20
-1.107770453559028
 10
-11.55872599283854
 20
-1.107770453559028
 10
-11.55872599283854
 20
-1.107770453559028
 10
-11.55872599283854
 20
-0.58446044921875
 10
-11.55872599283854
 20
-0.58446044921875
 10
-11.55872599283854
 20
-0.58446044921875
 10
-9.599155680338541
 20
2.129930284288194
 10
-9.599155680338541
 20
2.129930284288194
 10
-9.599155680338541
 20
2.129930284288194
 10
-9.155082872178818
 20
2.129930284288194
 10
-9.155082872178818
 20
2.129930284288194
 10
-9.155082872178818
 20
2.129930284288194
 10
-9.155082872178818
 20
-0.6450941297743055
 10
-9.155082872178818
 20
-0.6450941297743055
 10
-9.155082872178818
 20
-0.6450941297743055
 10
-8.528247748480903
 20
-0.6450941297743055
 10
-8.528247748480903
 20
-0.6450941297743055
 10
-8.528247748480903
 20
-0.6450941297743055
 10
-8.528247748480903
 20
-1.107770453559028
 10
-8.528247748480903
 20
-1.107770453559028
 10
-8.528247748480903
 20
-1.107770453559028
 10
-9.155082872178818
 20
-1.107770453559028
 10
-9.155082872178818
 20
-1.107770453559028
 97
        0
 75
     0
 76
     1
 98
        1
 10
0.0
 20
0.0
  0
HATCH
  5
2C
330
22
100
AcDbEntity
  8
LAYER_1
 62
     7
100
AcDbHatch
 10
0.0
 20
0.0
 30
0.0
210
0.0
220
0.0
230
1.0
  2
SOLID
 70
     1
 71
     0
 91
        1
 92
        1
 93
        1
 72
     4
 94
        3
 73
     0
 74
     0
 95
       59
 96
       55
 40
0.0
 40
0.0
 40
0.0
 40
0.0
 40
1.0
 40
1.0
 40
1.0
 40
2.0
 40
2.0
 40
2.0
 40
3.0
 40
3.0
 40
3.0
 40
4.0
 40
4.0
 40
4.0
 40
5.0
 40
5.0
 40
5.0
 40
6.0
 40
6.0
 40
6.0
 40
7.0
 40
7.0
 40
7.0
 40
8.0
 40
8.0
 40
8.0
 40
9.0
 40
9.0
 40
9.0
 40
10.0
 40
10.0
 40
10.0
 40
11.0
 40
11.0
 40
11.0
 40
12.0
 40
12.0
 40
12.0
 40
13.0
 40
13.0
 40
13.0
 40
14.0
 40
14.0
 40
14.0
 40
15.0
 40
15.0
 40
15.0
 40
16.0
 40
16.0
 40
16.0
 40
17.0
 40
17.0
 40
17.0
 40
18.0
 40
18.0
 40
18.0
 40
18.0
 10
-7.524346923828125
 20
1.088994683159722
 10
-7.475598822699652
 20
1.083138020833333
 10
-7.42685072157118
 20
1.083138020833333
 10
-7.378102620442708
 20
1.083138020833333
 10
-7.067871771918402
 20
1.083138020833333
 10
-6.885281711154513
 20
1.247469075520833
 10
-6.885281711154513
 20
1.472606065538194
 10
-6.885281711154513
 20
1.691714138454861
 10
-7.01292249891493
 20
1.837441677517361
 10
-7.317124430338541
 20
1.837441677517361
 10
-7.67644788953993
 20
1.837441677517361
 10
-7.840434434678818
 20
1.636937120225694
 10
-7.840434434678818
 20
1.332735188802083
 10
-7.840434434678818
 20
1.332735188802083
 10
-8.218016899956597
 20
1.332735188802083
 10
-8.218016899956597
 20
1.332735188802083
 10
-8.199757893880207
 20
1.825556098090278
 10
-7.90744154188368
 20
2.166276041666666
 10
-7.323497856987847
 20
2.166276041666666
 10
-6.842562527126735
 20
2.166276041666666
 10
-6.471697998046874
 20
1.940794542100694
 10
-6.471697998046874
 20
1.496721733940972
 10
-6.471697998046874
 20
1.259354654947917
 10
-6.60519544813368
 20
1.064879014756944
 10
-6.867022705078124
 20
0.961526150173611
 10
-6.867022705078124
 20
0.961526150173611
 10
-6.867022705078124
 20
0.9492960611979165
 10
-6.867022705078124
 20
0.9492960611979165
 10
-6.51992933485243
 20
0.8822889539930555
 10
-6.349569363064235
 20
0.6326917860243055
 10
-6.349569363064235
 20
0.3224609375
 10
-6.349569363064235
 20
-0.1949924045138889
 10
-6.800187852647569
 20
-0.4623318142361111
 10
-7.329354519314236
 20
-0.4623318142361111
 10
-7.90744154188368
 20
-0.4623318142361111
 10
-8.290880669487846
 20
-0.1521009657118055
 10
-8.278650580512153
 20
0.3770657009548611
 10
-8.278650580512153
 20
0.3770657009548611
 10
-7.901584879557291
 20
0.3770657009548611
 10
-7.901584879557291
 20
0.3770657009548611
 10
-7.877296956380207
 20
0.0423746744791667
 10
-7.682476806640624
 20
-0.1340142144097222
 10
-7.329354519314236
 20
-0.1340142144097222
 10
-6.92765638563368
 20
-0.1340142144097222
 10
-6.763669840494791
 20
0.0850938585069444
 10
-6.763669840494791
 20
0.3224609375
 10
-6.763669840494791
 20
0.6085761176215278
 10
-6.976404486762152
 20
0.7789360894097221
 10
-7.317124430338541
 20
0.7789360894097221
 10
-7.390504964192708
 20
0.7789360894097221
 10
-7.463368733723958
 20
0.7729071723090277
 10
-7.524346923828125
 20
0.7665337456597221
 10
-7.524346923828125
 20
0.7665337456597221
 10
-7.524346923828125
 20
1.088994683159722
 10
-7.524346923828125
 20
1.088994683159722
 97
        0
 75
     0
 76
     1
 98
        1
 10
0.0
 20
0.0
  0
HATCH
  5
2B
330
22
100
AcDbEntity
  8
LAYER_1
 62
     7
100
AcDbHatch
 10
0.0
 20
0.0
 30
0.0
210
0.0
220
0.0
230
1.0
  2
SOLID
 70
     1
 71
     0
 91
        1
 92
        1
 93
        1
 72
     4
 94
        3
 73
     0
 74
     0
 95
       17
 96
       13
 40
0.0
 40
0.0
 40
0.0
 40
0.0
 40
1.0
 40
1.0
 40
1.0
 40
2.0
 40
2.0
 40
2.0
 40
3.0
 40
3.0
 40
3.0
 40
4.0
 40
4.0
 40
4.0
 40
4.0
 10
-4.633739556206597
 20
2.166276041666666
 10
-4.633739556206597
 20
2.166276041666666
 10
-4.268559434678819
 20
2.166276041666666
 10
-4.268559434678819
 20
2.166276041666666
 10
-4.268559434678819
 20
2.166276041666666
 10
-6.952288818359374
 20
-2.221053059895833
 10
-6.952288818359374
 20
-2.221053059895833
 10
-6.952288818359374
 20
-2.221053059895833
 10
-7.317124430338541
 20
-2.221053059895833
 10
-7.317124430338541
 20
-2.221053059895833
 10
-7.317124430338541
 20
-2.221053059895833
 10
-4.633739556206597
 20
2.166276041666666
 10
-4.633739556206597
 20
2.166276041666666
 97
        0
 75
     0
 76
     1
 98
        1
 10
0.0
 20
0.0
  0
HATCH
  5
2A
330
22
100
AcDbEntity
  8
LAYER_1
 62
     7
100
AcDbHatch
 10
0.0
 20
0.0
 30
0.0
210
0.0
220
0.0
230
1.0
  2
SOLID
 70
     1
 71
     0
 91
        2
 92
       16
 93
        1
 72
     4
 94
        3
 73
     0
 74
     0
 95
       17
 96
       13
 40
0.0
 40
0.0
 40
0.0
 40
0.0
 40
1.0
 40
1.0
 40
1.0
 40
2.0
 40
2.0
 40
2.0
 40
3.0
 40
3.0
 40
3.0
 40
4.0
 40
4.0
 40
4.0
 40
4.0
 10
-4.031192355685763
 20
-1.22938232421875
 10
-4.031192355685763
 20
-1.22938232421875
 10
-4.031192355685763
 20
-0.1521009657118055
 10
-4.031192355685763
 20
-0.1521009657118055
 10
-4.031192355685763
 20
-0.1521009657118055
 10
-4.043422444661458
 20
-0.1521009657118055
 10
-4.043422444661458
 20
-0.1521009657118055
 10
-4.043422444661458
 20
-0.1521009657118055
 10
-4.852847629123263
 20
-1.22938232421875
 10
-4.852847629123263
 20
-1.22938232421875
 10
-4.852847629123263
 20
-1.22938232421875
 10
-4.031192355685763
 20
-1.22938232421875
 10
-4.031192355685763
 20
-1.22938232421875
 97
        0
 92
        1
 93
        1
 72
     4
 94
        3
 73
     0
 74
     0
 95
       38
 96
       34
 40
0.0
 40
0.0
 40
0.0
 40
0.0
 40
1.0
 40
1.0
 40
1.0
 40
2.0
 40
2.0
 40
2.0
 40
3.0
 40
3.0
 40
3.0
 40
4.0
 40
4.0
 40
4.0
 40
5.0
 40
5.0
 40
5.0
 40
6.0
 40
6.0
 40
6.0
 40
7.0
 40
7.0
 40
7.0
 40
8.0
 40
8.0
 40
8.0
 40
9.0
 40
9.0
 40
9.0
 40
10.0
 40
10.0
 40
10.0
 40
11.0
 40
11.0
 40
11.0
 40
11.0
 10
-3.678586832682291
 20
-1.22938232421875
 10
-3.678586832682291
 20
-1.22938232421875
 10
-3.294975450303819
 20
-1.22938232421875
 10
-3.294975450303819
 20
-1.22938232421875
 10
-3.294975450303819
 20
-1.22938232421875
 10
-3.294975450303819
 20
-1.557872178819444
 10
-3.294975450303819
 20
-1.557872178819444
 10
-3.294975450303819
 20
-1.557872178819444
 10
-3.678586832682291
 20
-1.557872178819444
 10
-3.678586832682291
 20
-1.557872178819444
 10
-3.678586832682291
 20
-1.557872178819444
 10
-3.678586832682291
 20
-2.148189290364583
 10
-3.678586832682291
 20
-2.148189290364583
 10
-3.678586832682291
 20
-2.148189290364583
 10
-4.031192355685763
 20
-2.148189290364583
 10
-4.031192355685763
 20
-2.148189290364583
 10
-4.031192355685763
 20
-2.148189290364583
 10
-4.031192355685763
 20
-1.557872178819444
 10
-4.031192355685763
 20
-1.557872178819444
 10
-4.031192355685763
 20
-1.557872178819444
 10
-5.254545762803819
 20
-1.557872178819444
 10
-5.254545762803819
 20
-1.557872178819444
 10
-5.254545762803819
 20
-1.557872178819444
 10
-5.254545762803819
 20
-1.241267903645833
 10
-5.254545762803819
 20
-1.241267903645833
 10
-5.254545762803819
 20
-1.241267903645833
 10
-3.952299669053819
 20
0.4382161458333333
 10
-3.952299669053819
 20
0.4382161458333333
 10
-3.952299669053819
 20
0.4382161458333333
 10
-3.678586832682291
 20
0.4382161458333333
 10
-3.678586832682291
 20
0.4382161458333333
 10
-3.678586832682291
 20
0.4382161458333333
 10
-3.678586832682291
 20
-1.22938232421875
 10
-3.678586832682291
 20
-1.22938232421875
 97
        0
 75
     0
 76
     1
 98
        1
 10
0.0
 20
0.0
  0
HATCH
  5
29
330
22
100
AcDbEntity
  8
LAYER_1
 62
     7
100
AcDbHatch
 10
0.0
 20
0.0
 30
0.0
210
0.0
220
0.0
230
1.0
  2
SOLID
 70
     1
 71
     0
 91
        2
 92
        1
 93
        1
 72
     4
 94
        3
 73
     0
 74
     0
 95
       17
 96
       13
 40
0.0
 40
0.0
 40
0.0
 40
0.0
 40
1.0
 40
1.0
 40
1.0
 40
2.0
 40
2.0
 40
2.0
 40
3.0
 40
3.0
 40
3.0
 40
4.0
 40
4.0
 40
4.0
 40
4.0
 10
-1.968613688151041
 20
2.221053059895833
 10
-1.968613688151041
 20
2.221053059895833
 10
-1.524024115668403
 20
2.221053059895833
 10
-1.524024115668403
 20
2.221053059895833
 10
-1.524024115668403
 20
2.221053059895833
 10
-1.524024115668403
 20
0.6690375434027778
 10
-1.524024115668403
 20
0.6690375434027778
 10
-1.524024115668403
 20
0.6690375434027778
 10
-1.968613688151041
 20
0.6690375434027778
 10
-1.968613688151041
 20
0.6690375434027778
 10
-1.968613688151041
 20
0.6690375434027778
 10
-1.968613688151041
 20
2.221053059895833
 10
-1.968613688151041
 20
2.221053059895833
 97
        0
 92
        1
 93
        1
 72
     4
 94
        3
 73
     0
 74
     0
 95
       17
 96
       13
 40
0.0
 40
0.0
 40
0.0
 40
0.0
 40
1.0
 40
1.0
 40
1.0
 40
2.0
 40
2.0
 40
2.0
 40
3.0
 40
3.0
 40
3.0
 40
4.0
 40
4.0
 40
4.0
 40
4.0
 10
-2.832643636067708
 20
2.221053059895833
 10
-2.832643636067708
 20
2.221053059895833
 10
-2.388570827907986
 20
2.221053059895833
 10
-2.388570827907986
 20
2.221053059895833
 10
-2.388570827907986
 20
2.221053059895833
 10
-2.388570827907986
 20
0.6690375434027778
 10
-2.388570827907986
 20
0.6690375434027778
 10
-2.388570827907986
 20
0.6690375434027778
 10
-2.832643636067708
 20
0.6690375434027778
 10
-2.832643636067708
 20
0.6690375434027778
 10
-2.832643636067708
 20
0.6690375434027778
 10
-2.832643636067708
 20
2.221053059895833
 10
-2.832643636067708
 20
2.221053059895833
 97
        0
 75
     0
 76
     1
 98
        1
 10
0.0
 20
0.0
  0
HATCH
  5
28
330
22
100
AcDbEntity
  8
LAYER_1
 62
     7
100
AcDbHatch
 10
0.0
 20
0.0
 30
0.0
210
0.0
220
0.0
230
1.0
  2
SOLID
 70
     1
 71
     0
 91
        1
 92
        1
 93
        1
 72
     4
 94
        3
 73
     0
 74
     0
 95
       59
 96
       55
 40
0.0
 40
0.0
 40
0.0
 40
0.0
 40
1.0
 40
1.0
 40
1.0
 40
2.0
 40
2.0
 40
2.0
 40
3.0
 40
3.0
 40
3.0
 40
4.0
 40
4.0
 40
4.0
 40
5.0
 40
5.0
 40
5.0
 40
6.0
 40
6.0
 40
6.0
 40
7.0
 40
7.0
 40
7.0
 40
8.0
 40
8.0
 40
8.0
 40
9.0
 40
9.0
 40
9.0
 40
10.0
 40
10.0
 40
10.0
 40
11.0
 40
11.0
 40
11.0
 40
12.0
 40
12.0
 40
12.0
 40
13.0
 40
13.0
 40
13.0
 40
14.0
 40
14.0
 40
14.0
 40
15.0
 40
15.0
 40
15.0
 40
16.0
 40
16.0
 40
16.0
 40
17.0
 40
17.0
 40
17.0
 40
18.0
 40
18.0
 40
18.0
 40
18.0
 10
4.651998562282985
 20
-2.148189290364583
 10
4.651998562282985
 20
-2.148189290364583
 10
4.651998562282985
 20
0.4318427191840277
 10
4.651998562282985
 20
0.4318427191840277
 10
4.651998562282985
 20
0.5598280164930555
 10
4.664400906032986
 20
1.113627115885417
 10
4.664400906032986
 20
1.521354166666667
 10
4.664400906032986
 20
1.521354166666667
 10
4.651998562282985
 20
1.521354166666667
 10
4.651998562282985
 20
1.521354166666667
 10
4.651998562282985
 20
1.521354166666667
 10
3.423133002387153
 20
-2.148189290364583
 10
3.423133002387153
 20
-2.148189290364583
 10
3.423133002387153
 20
-2.148189290364583
 10
2.838672553168403
 20
-2.148189290364583
 10
2.838672553168403
 20
-2.148189290364583
 10
2.838672553168403
 20
-2.148189290364583
 10
1.609806993272569
 20
1.514980740017361
 10
1.609806993272569
 20
1.514980740017361
 10
1.609806993272569
 20
1.514980740017361
 10
1.597404649522569
 20
1.514980740017361
 10
1.597404649522569
 20
1.514980740017361
 10
1.597404649522569
 20
1.113627115885417
 10
1.609806993272569
 20
0.5598280164930555
 10
1.609806993272569
 20
0.4318427191840277
 10
1.609806993272569
 20
0.4318427191840277
 10
1.609806993272569
 20
-2.148189290364583
 10
1.609806993272569
 20
-2.148189290364583
 10
1.609806993272569
 20
-2.148189290364583
 10
1.037576633029514
 20
-2.148189290364583
 10
1.037576633029514
 20
-2.148189290364583
 10
1.037576633029514
 20
-2.148189290364583
 10
1.037576633029514
 20
2.221053059895833
 10
1.037576633029514
 20
2.221053059895833
 10
1.037576633029514
 20
2.221053059895833
 10
1.883519829644097
 20
2.221053059895833
 10
1.883519829644097
 20
2.221053059895833
 10
1.883519829644097
 20
2.221053059895833
 10
3.131161159939236
 20
-1.472606065538194
 10
3.131161159939236
 20
-1.472606065538194
 10
3.131161159939236
 20
-1.472606065538194
 10
3.143046739366319
 20
-1.472606065538194
 10
3.143046739366319
 20
-1.472606065538194
 10
3.143046739366319
 20
-1.472606065538194
 10
4.384659152560763
 20
2.221053059895833
 10
4.384659152560763
 20
2.221053059895833
 10
4.384659152560763
 20
2.221053059895833
 10
5.224056667751736
 20
2.221053059895833
 10
5.224056667751736
 20
2.221053059895833
 10
5.224056667751736
 20
2.221053059895833
 10
5.224056667751736
 20
-2.148189290364583
 10
5.224056667751736
 20
-2.148189290364583
 10
5.224056667751736
 20
-2.148189290364583
 10
4.651998562282985
 20
-2.148189290364583
 10
4.651998562282985
 20
-2.148189290364583
 97
        0
 75
     0
 76
     1
 98
        1
 10
0.0
 20
0.0
  0
HATCH
  5
27
330
22
100
AcDbEntity
  8
LAYER_1
 62
     7
100
AcDbHatch
 10
0.0
 20
0.0
 30
0.0
210
0.0
220
0.0
230
1.0
  2
SOLID
 70
     1
 71
     0
 91
        2
 92
        1
 93
        1
 72
     4
 94
        3
 73
     0
 74
     0
 95
       17
 96
       13
 40
0.0
 40
0.0
 40
0.0
 40
0.0
 40
1.0
 40
1.0
 40
1.0
 40
2.0
 40
2.0
 40
2.0
 40
3.0
 40
3.0
 40
3.0
 40
4.0
 40
4.0
 40
4.0
 40
4.0
 10
6.605712212456597
 20
-2.148189290364583
 10
6.605712212456597
 20
-2.148189290364583
 10
6.069999864366319
 20
-2.148189290364583
 10
6.069999864366319
 20
-2.148189290364583
 10
6.069999864366319
 20
-2.148189290364583
 10
6.069999864366319
 20
1.034389919704861
 10
6.069999864366319
 20
1.034389919704861
 10
6.069999864366319
 20
1.034389919704861
 10
6.605712212456597
 20
1.034389919704861
 10
6.605712212456597
 20
1.034389919704861
 10
6.605712212456597
 20
1.034389919704861
 10
6.605712212456597
 20
-2.148189290364583
 10
6.605712212456597
 20
-2.148189290364583
 97
        0
 92
        1
 93
        1
 72
     4
 94
        3
 73
     0
 74
     0
 95
       17
 96
       13
 40
0.0
 40
0.0
 40
0.0
 40
0.0
 40
1.0
 40
1.0
 40
1.0
 40
2.0
 40
2.0
 40
2.0
 40
3.0
 40
3.0
 40
3.0
 40
4.0
 40
4.0
 40
4.0
 40
4.0
 10
6.069999864366319
 20
1.612476942274306
 10
6.069999864366319
 20
1.612476942274306
 10
6.069999864366319
 20
2.221053059895833
 10
6.069999864366319
 20
2.221053059895833
 10
6.069999864366319
 20
2.221053059895833
 10
6.605712212456597
 20
2.221053059895833
 10
6.605712212456597
 20
2.221053059895833
 10
6.605712212456597
 20
2.221053059895833
 10
6.605712212456597
 20
1.612476942274306
 10
6.605712212456597
 20
1.612476942274306
 10
6.605712212456597
 20
1.612476942274306
 10
6.069999864366319
 20
1.612476942274306
 10
6.069999864366319
 20
1.612476942274306
 97
        0
 75
     0
 76
     1
 98
        1
 10
0.0
 20
0.0
  0
HATCH
  5
26
330
22
100
AcDbEntity
  8
LAYER_1
 62
     7
100
AcDbHatch
 10
0.0
 20
0.0
 30
0.0
210
0.0
220
0.0
230
1.0
  2
SOLID
 70
     1
 71
     0
 91
        1
 92
        1
 93
        1
 72
     4
 94
        3
 73
     0
 74
     0
 95
       44
 96
       40
 40
0.0
 40
0.0
 40
0.0
 40
0.0
 40
1.0
 40
1.0
 40
1.0
 40
2.0
 40
2.0
 40
2.0
 40
3.0
 40
3.0
 40
3.0
 40
4.0
 40
4.0
 40
4.0
 40
5.0
 40
5.0
 40
5.0
 40
6.0
 40
6.0
 40
6.0
 40
7.0
 40
7.0
 40
7.0
 40
8.0
 40
8.0
 40
8.0
 40
9.0
 40
9.0
 40
9.0
 40
10.0
 40
10.0
 40
10.0
 40
11.0
 40
11.0
 40
11.0
 40
12.0
 40
12.0
 40
12.0
 40
13.0
 40
13.0
 40
13.0
 40
13.0
 10
10.0010260687934
 20
-2.148189290364583
 10
10.0010260687934
 20
-2.148189290364583
 10
9.465313720703124
 20
-2.148189290364583
 10
9.465313720703124
 20
-2.148189290364583
 10
9.465313720703124
 20
-2.148189290364583
 10
9.465313720703124
 20
-0.1886189778645833
 10
9.465313720703124
 20
-0.1886189778645833
 10
9.465313720703124
 20
0.3648356119791666
 10
9.307183837890625
 20
0.644921875
 10
8.783873833550347
 20
0.644921875
 10
8.479671902126736
 20
0.644921875
 10
7.944304063585069
 20
0.4501017252604166
 10
7.944304063585069
 20
-0.4141004774305555
 10
7.944304063585069
 20
-0.4141004774305555
 10
7.944304063585069
 20
-2.148189290364583
 10
7.944304063585069
 20
-2.148189290364583
 10
7.944304063585069
 20
-2.148189290364583
 10
7.408763970269097
 20
-2.148189290364583
 10
7.408763970269097
 20
-2.148189290364583
 10
7.408763970269097
 20
-2.148189290364583
 10
7.408763970269097
 20
1.034389919704861
 10
7.408763970269097
 20
1.034389919704861
 10
7.408763970269097
 20
1.034389919704861
 10
7.913814968532986
 20
1.034389919704861
 10
7.913814968532986
 20
1.034389919704861
 10
7.913814968532986
 20
1.034389919704861
 10
7.913814968532986
 20
0.5839436848958333
 10
7.913814968532986
 20
0.5839436848958333
 10
7.913814968532986
 20
0.5839436848958333
 10
7.92604505750868
 20
0.5839436848958333
 10
7.92604505750868
 20
0.5839436848958333
 10
8.041455756293402
 20
0.7543036566840277
 10
8.339801025390624
 20
1.1255126953125
 10
8.887226698133679
 20
1.1255126953125
 10
9.380047607421874
 20
1.1255126953125
 10
10.0010260687934
 20
0.9250081380208333
 10
10.0010260687934
 20
0.0182590060763889
 10
10.0010260687934
 20
0.0182590060763889
 10
10.0010260687934
 20
-2.148189290364583
 10
10.0010260687934
 20
-2.148189290364583
 97
        0
 75
     0
 76
     1
 98
        1
 10
0.0
 20
0.0
  0
HATCH
  5
25
330
22
100
AcDbEntity
  8
LAYER_1
 62
     7
100
AcDbHatch
 10
0.0
 20
0.0
 30
0.0
210
0.0
220
0.0
230
1.0
  2
SOLID
 70
     1
 71
     0
 91
        1
 92
        1
 93
        1
 72
     4
 94
        3
 73
     0
 74
     0
 95
       17
 96
       13
 40
0.0
 40
0.0
 40
0.0
 40
0.0
 40
1.0
 40
1.0
 40
1.0
 40
2.0
 40
2.0
 40
2.0
 40
3.0
 40
3.0
 40
3.0
 40
4.0
 40
4.0
 40
4.0
 40
4.0
 10
11.55872599283854
 20
-2.148189290364583
 10
11.55872599283854
 20
-2.148189290364583
 10
10.92603420681424
 20
-2.148189290364583
 10
10.92603420681424
 20
-2.148189290364583
 10
10.92603420681424
 20
-2.148189290364583
 10
10.92603420681424
 20
-1.503095160590278
 10
10.92603420681424
 20
-1.503095160590278
 10
10.92603420681424
 20
-1.503095160590278
 10
11.55872599283854
 20
-1.503095160590278
 10
11.55872599283854
 20
-1.503095160590278
 10
11.55872599283854
 20
-1.503095160590278
 10
11.55872599283854
 20
-2.148189290364583
 10
11.55872599283854
 20
-2.148189290364583
 97
        0
 75
     0
 76
     1
 98
        1
 10
0.0
 20
0.0
  0
ENDBLK
  5
2E
330
22
100
AcDbEntity
  8
LAYER_1
100
AcDbBlockEnd
  0
BLOCK
  5
33
330
31
100
AcDbEntity
  8
LAYER_1
 62
     7
100
AcDbBlockBegin
  2
AI9-BLK2
 70
     0
 10
0.0
 20
0.0
 30
0.0
  3
AI9-BLK2
  1

  4

  0
LINE
  5
36
330
31
100
AcDbEntity
  8
LAYER_1
 62
     7
100
AcDbLine
 10
-4.192078314887152
 20
0.8113199869791666
 30
0.0
 11
4.192078314887152
 21
-0.8113199869791666
 31
0.0
  0
HATCH
  5
35
330
31
100
AcDbEntity
  8
LAYER_1
 62
     7
100
AcDbHatch
 10
0.0
 20
0.0
 30
0.0
210
0.0
220
0.0
230
1.0
  2
SOLID
 70
     1
 71
     0
 91
        1
 92
        3
 72
     0
 73
     1
 93
        3
 10
3.58832533094618
 20
-1.407666015625
 10
6.312362331814236
 20
-1.204405381944444
 10
3.851358371310764
 20
-0.0182590060763889
 97
        0
 75
     0
 76
     1
 98
        1
 10
0.0
 20
0.0
  0
HATCH
  5
34
330
31
100
AcDbEntity
  8
LAYER_1
 62
     7
100
AcDbHatch
 10
0.0
 20
0.0
 30
0.0
210
0.0
220
0.0
230
1.0
  2
SOLID
 70
     1
 71
     0
 91
        1
 92
        3
 72
     0
 73
     1
 93
        3
 10
-3.58832533094618
 20
1.407666015625
 10
-6.312362331814236
 20
1.204405381944444
 10
-3.851358371310764
 20
0.0182590060763889
 97
        0
 75
     0
 76
     1
 98
        1
 10
0.0
 20
0.0
  0
ENDBLK
  5
37
330
31
100
AcDbEntity
  8
LAYER_1
100
AcDbBlockEnd
  0
BLOCK
  5
3C
330
3A
100
AcDbEntity
  8
LAYER_1
 62
     7
100
AcDbBlockBegin
  2
AI9-BLK3
 70
     0
 10
0.0
 20
0.0
 30
0.0
  3
AI9-BLK3
  1

  4

  0
LWPOLYLINE
  5
1BF
330
3A
100
AcDbEntity
  8
LAYER_1
 62
     7
100
AcDbPolyline
 90
        7
 70
     0
 43
0.0
 10
-11.75957505967882
 20
-2.960628933376736
 10
-35.59291788736979
 20
-12.9278069390191
 10
-35.59291788736979
 20
-44.92378675672742
 10
6.247939046223958
 20
-59.1606438530816
 10
35.59291788736979
 20
-36.89619750976562
 10
35.59291788736979
 20
-6.83153822157118
 10
11.77628377278646
 20
-2.077478705512152
  0
SPLINE
  5
1BE
330
3A
100
AcDbEntity
  8
LAYER_1
 62
     7
100
AcDbSpline
210
0.0
220
0.0
230
1.0
 70
    11
 71
     3
 72
    38
 73
    34
 74
     0
 42
0.0000000001
 43
0.0000000001
 40
0.0
 40
0.0
 40
0.0
 40
0.0
 40
1.0
 40
1.0
 40
1.0
 40
2.0
 40
2.0
 40
2.0
 40
3.0
 40
3.0
 40
3.0
 40
4.0
 40
4.0
 40
4.0
 40
5.0
 40
5.0
 40
5.0
 40
6.0
 40
6.0
 40
6.0
 40
7.0
 40
7.0
 40
7.0
 40
8.0
 40
8.0
 40
8.0
 40
9.0
 40
9.0
 40
9.0
 40
10.0
 40
10.0
 40
10.0
 40
11.0
 40
11.0
 40
11.0
 40
11.0
 10
-6.740243191189236
 20
53.56339721679687
 30
0.0
 10
-5.773204888237847
 20
54.39900512695312
 30
0.0
 10
-4.685588243272569
 20
55.19809502495659
 30
0.0
 10
-3.496685791015625
 20
55.92862752278646
 30
0.0
 10
2.671585422092014
 20
59.72081637912326
 30
0.0
 10
9.235525851779514
 20
60.25256686740451
 30
0.0
 10
11.1637457953559
 20
57.11632419162326
 30
0.0
 10
11.50722181532118
 20
56.55735744900173
 30
0.0
 10
11.68033786349826
 20
55.91984252929687
 30
0.0
 10
11.69825236002604
 20
55.22806735568576
 30
0.0
 10
11.69825236002604
 20
55.22806735568576
 30
0.0
 10
11.7652594672309
 20
-6.907330322265624
 30
0.0
 10
11.7652594672309
 20
-6.907330322265624
 30
0.0
 10
11.7652594672309
 20
-8.814879692925347
 30
0.0
 10
6.514589436848958
 20
-10.36121080186632
 30
0.0
 10
0.0381544325086806
 20
-10.36121080186632
 30
0.0
 10
-6.438797336154513
 20
-10.36121080186632
 30
0.0
 10
-11.68895060221354
 20
-8.814879692925347
 30
0.0
 10
-11.68895060221354
 20
-6.907330322265624
 30
0.0
 10
-11.68895060221354
 20
-6.907330322265624
 30
0.0
 10
-11.70686509874132
 20
45.57077568901909
 30
0.0
 10
-11.70686509874132
 20
45.57077568901909
 30
0.0
 10
-11.66052856445312
 20
46.81910603841146
 30
0.0
 10
-11.13635728624132
 20
48.22642754448784
 30
0.0
 10
-10.21600002712674
 20
49.65820922851562
 30
0.0
 10
-10.13917439778646
 20
49.77740953233506
 30
0.0
 10
-10.18551093207465
 20
52.42703247070312
 30
0.0
 10
-10.18551093207465
 20
52.42703247070312
 30
0.0
 10
-10.18551093207465
 20
52.42703247070312
 30
0.0
 10
-6.480827501085069
 20
51.96039428710937
 30
0.0
 10
-6.480827501085069
 20
51.96039428710937
 30
0.0
 10
-6.480827501085069
 20
51.96039428710937
 30
0.0
 10
-6.740243191189236
 20
53.56339721679687
 30
0.0
 10
-6.740243191189236
 20
53.56339721679687
 30
0.0
  0
SPLINE
  5
1BD
330
3A
100
AcDbEntity
  8
LAYER_1
 62
     7
100
AcDbSpline
210
0.0
220
0.0
230
1.0
 70
     8
 71
     3
 72
    11
 73
     7
 74
     0
 42
0.0000000001
 43
0.0000000001
 40
0.0
 40
0.0
 40
0.0
 40
0.0
 40
1.0
 40
1.0
 40
1.0
 40
2.0
 40
2.0
 40
2.0
 40
2.0
 10
11.7652594672309
 20
-6.907330322265624
 30
0.0
 10
11.7652594672309
 20
-8.814879692925347
 30
0.0
 10
6.514589436848958
 20
-10.36121080186632
 30
0.0
 10
0.0381544325086806
 20
-10.36121080186632
 30
0.0
 10
-6.438797336154513
 20
-10.36121080186632
 30
0.0
 10
-11.68895060221354
 20
-8.814879692925347
 30
0.0
 10
-11.68895060221354
 20
-6.907330322265624
 30
0.0
  0
LWPOLYLINE
  5
1B8
330
3A
100
AcDbEntity
  8
LAYER_1
 62
     7
100
AcDbPolyline
 90
        3
 70
     0
 43
0.0
 10
-10.18551093207465
 20
52.42703247070312
 10
6.967447238498263
 20
50.0793721516927
 10
10.71571112738715
 20
48.29963582356771
  0
SPLINE
  5
1B7
330
3A
100
AcDbEntity
  8
LAYER_1
  6
AI9-LTYPE3
 62
     7
100
AcDbSpline
210
0.0
220
0.0
230
1.0
 70
     8
 71
     3
 72
     8
 73
     4
 74
     0
 42
0.0000000001
 43
0.0000000001
 40
0.0
 40
0.0
 40
0.0
 40
0.0
 40
1.0
 40
1.0
 40
1.0
 40
1.0
 10
-6.089981418185763
 20
-4.083213297526041
 30
0.0
 10
-9.448777262369791
 20
-4.690755886501735
 30
0.0
 10
-11.68895060221354
 20
-5.782851155598958
 30
0.0
 10
-11.68895060221354
 20
-7.028942192925347
 30
0.0
  0
SPLINE
  5
1B6
330
3A
100
AcDbEntity
  8
LAYER_1
  6
AI9-LTYPE3
 62
     7
100
AcDbSpline
210
0.0
220
0.0
230
1.0
 70
     8
 71
     3
 72
     8
 73
     4
 74
     0
 42
0.0000000001
 43
0.0000000001
 40
0.0
 40
0.0
 40
0.0
 40
0.0
 40
1.0
 40
1.0
 40
1.0
 40
1.0
 10
-1.243765597873264
 20
-3.595215521918402
 30
0.0
 10
-1.908496771918403
 20
-3.616575113932291
 30
0.0
 10
-2.556519232855902
 20
-3.654126654730903
 30
0.0
 10
-3.183182101779514
 20
-3.706664360894097
 30
0.0
  0
SPLINE
  5
1B5
330
3A
100
AcDbEntity
  8
LAYER_1
  6
AI9-LTYPE3
 62
     7
100
AcDbSpline
210
0.0
220
0.0
230
1.0
 70
     8
 71
     3
 72
     8
 73
     4
 74
     0
 42
0.0000000001
 43
0.0000000001
 40
0.0
 40
0.0
 40
0.0
 40
0.0
 40
1.0
 40
1.0
 40
1.0
 40
1.0
 10
2.92790052625868
 20
-3.680309380425347
 30
0.0
 10
2.430773247612847
 20
-3.643274603949652
 30
0.0
 10
1.921071370442708
 20
-3.615541585286458
 30
0.0
 10
1.401034206814236
 20
-3.597799343532986
 30
0.0
  0
SPLINE
  5
1B4
330
3A
100
AcDbEntity
  8
LAYER_1
  6
AI9-LTYPE3
 62
     7
100
AcDbSpline
210
0.0
220
0.0
230
1.0
 70
     8
 71
     3
 72
     8
 73
     4
 74
     0
 42
0.0000000001
 43
0.0000000001
 40
0.0
 40
0.0
 40
0.0
 40
0.0
 40
1.0
 40
1.0
 40
1.0
 40
1.0
 10
11.7652594672309
 20
-7.028942192925347
 30
0.0
 10
11.7652594672309
 20
-5.700685628255208
 30
0.0
 10
9.219850667317708
 20
-4.547439914279513
 30
0.0
 10
5.487606472439236
 20
-3.969525146484375
 30
0.0
  0
SPLINE
  5
1B3
330
3A
100
AcDbEntity
  8
LAYER_1
 62
     7
100
AcDbSpline
210
0.0
220
0.0
230
1.0
 70
     8
 71
     3
 72
     8
 73
     4
 74
     0
 42
0.0000000001
 43
0.0000000001
 40
0.0
 40
0.0
 40
0.0
 40
0.0
 40
1.0
 40
1.0
 40
1.0
 40
1.0
 10
11.69980265299479
 20
55.18965454101562
 30
0.0
 10
11.70255872938368
 20
54.02607354058159
 30
0.0
 10
11.27467787000868
 20
52.7146979437934
 30
0.0
 10
10.48592325846354
 20
51.36852688259548
 30
0.0
  0
SPLINE
  5
1B2
330
3A
100
AcDbEntity
  8
LAYER_1
 62
     7
100
AcDbSpline
210
0.0
220
0.0
230
1.0
 70
     8
 71
     3
 72
    14
 73
    10
 74
     0
 42
0.0000000001
 43
0.0000000001
 40
0.0
 40
0.0
 40
0.0
 40
0.0
 40
1.0
 40
1.0
 40
1.0
 40
2.0
 40
2.0
 40
2.0
 40
3.0
 40
3.0
 40
3.0
 40
3.0
 10
-11.70996568467882
 20
45.51599867078993
 30
0.0
 10
-11.71840616861979
 20
44.75687188042534
 30
0.0
 10
-11.54632364908854
 20
44.05924004448784
 30
0.0
 10
-11.17390882703993
 20
43.45428127712673
 30
0.0
 10
-9.24568888346354
 20
40.31769409179687
 30
0.0
 10
-2.682092963324652
 20
40.84944458007812
 30
0.0
 10
3.486522759331597
 20
44.64163343641493
 30
0.0
 10
4.669913058810764
 20
45.36906534830729
 30
0.0
 10
5.752706570095485
 20
46.16384887695312
 30
0.0
 10
6.716644287109374
 20
46.99532267252604
 30
0.0
  0
LWPOLYLINE
  5
1AD
330
3A
100
AcDbEntity
  8
LAYER_1
 62
     7
100
AcDbPolyline
 90
        3
 70
     0
 43
0.0
 10
-6.654632568359374
 20
53.51068725585937
 10
10.48592325846354
 20
51.36852688259548
 10
10.71571112738715
 20
48.29963582356771
  0
LWPOLYLINE
  5
1A8
330
3A
100
AcDbEntity
  8
LAYER_1
 62
     7
100
AcDbPolyline
 90
        3
 70
     0
 43
0.0
 10
-10.21600002712674
 20
49.65820922851562
 10
6.716644287109374
 20
46.99532267252604
 10
6.967447238498263
 20
50.15499199761284
  0
SPLINE
  5
1A7
330
3A
100
AcDbEntity
  8
LAYER_1
 62
     7
100
AcDbSpline
210
0.0
220
0.0
230
1.0
 70
     8
 71
     3
 72
    14
 73
    10
 74
     0
 42
0.0000000001
 43
0.0000000001
 40
0.0
 40
0.0
 40
0.0
 40
0.0
 40
1.0
 40
1.0
 40
1.0
 40
2.0
 40
2.0
 40
2.0
 40
3.0
 40
3.0
 40
3.0
 40
3.0
 10
-11.62452731662326
 20
46.02793986002604
 30
0.0
 10
-11.24573906792535
 20
46.25497165256076
 30
0.0
 10
-10.82922702365451
 20
46.70937974717882
 30
0.0
 10
-10.71553887261285
 20
47.31519978841146
 30
0.0
 10
-10.60185072157118
 20
47.92084757486979
 30
0.0
 10
-10.63991902669271
 20
48.8296637641059
 30
0.0
 10
-9.352314588758679
 20
49.51110365125868
 30
0.0
 10
-9.541622585720486
 20
50.30640394422743
 30
0.0
 10
-10.07182278103299
 20
51.21522013346354
 30
0.0
 10
-9.731102837456596
 20
52.35106811523437
 30
0.0
  0
SPLINE
  5
1A6
330
3A
100
AcDbEntity
  8
LAYER_1
 62
     7
100
AcDbSpline
210
0.0
220
0.0
230
1.0
 70
     8
 71
     3
 72
    14
 73
    10
 74
     0
 42
0.0000000001
 43
0.0000000001
 40
0.0
 40
0.0
 40
0.0
 40
0.0
 40
1.0
 40
1.0
 40
1.0
 40
2.0
 40
2.0
 40
2.0
 40
3.0
 40
3.0
 40
3.0
 40
3.0
 10
-11.35942721896701
 20
43.94520738389757
 30
0.0
 10
-10.9806389702691
 20
44.17223917643229
 30
0.0
 10
-9.996202935112846
 20
45.76249525282118
 30
0.0
 10
-9.882859293619791
 20
46.36865980360243
 30
0.0
 10
-9.769171142578124
 20
46.97447984483507
 30
0.0
 10
-9.352314588758679
 20
48.60228746202257
 30
0.0
 10
-8.065054660373264
 20
49.28424411349826
 30
0.0
 10
-8.254534912109374
 20
50.0793721516927
 30
0.0
 10
-8.632806396484375
 20
50.91256849500868
 30
0.0
 10
-8.704119873046874
 20
52.12403632269965
 30
0.0
  0
SPLINE
  5
1A5
330
3A
100
AcDbEntity
  8
LAYER_1
 62
     7
100
AcDbSpline
210
0.0
220
0.0
230
1.0
 70
     8
 71
     3
 72
    14
 73
    10
 74
     0
 42
0.0000000001
 43
0.0000000001
 40
0.0
 40
0.0
 40
0.0
 40
0.0
 40
1.0
 40
1.0
 40
1.0
 40
2.0
 40
2.0
 40
2.0
 40
3.0
 40
3.0
 40
3.0
 40
3.0
 10
-10.03409898546007
 20
42.31722751193576
 30
0.0
 10
-9.655482991536458
 20
42.54425930447048
 30
0.0
 10
-8.065054660373264
 20
44.05889553493923
 30
0.0
 10
-7.951366509331597
 20
45.53546346028645
 30
0.0
 10
-7.90434095594618
 20
46.14989624023437
 30
0.0
 10
-8.055580647786458
 20
48.37525566948784
 30
0.0
 10
-6.768320719401041
 20
49.05669555664062
 30
0.0
 10
-6.957456461588541
 20
49.85182359483507
 30
0.0
 10
-7.501781548394097
 20
50.87450018988715
 30
0.0
 10
-7.57257826063368
 20
52.08596801757812
 30
0.0
  0
SPLINE
  5
1A4
330
3A
100
AcDbEntity
  8
LAYER_1
 62
     7
100
AcDbSpline
210
0.0
220
0.0
230
1.0
 70
     8
 71
     3
 72
    14
 73
    10
 74
     0
 42
0.0000000001
 43
0.0000000001
 40
0.0
 40
0.0
 40
0.0
 40
0.0
 40
1.0
 40
1.0
 40
1.0
 40
2.0
 40
2.0
 40
2.0
 40
3.0
 40
3.0
 40
3.0
 40
3.0
 10
-8.443842909071179
 20
41.71106296115451
 30
0.0
 10
-8.065054660373264
 20
41.93843926323785
 30
0.0
 10
-6.512522379557291
 20
43.68010728624132
 30
0.0
 10
-6.399178738064236
 20
45.15701972113715
 30
0.0
 10
-6.351636420355902
 20
45.77162475585937
 30
0.0
 10
-6.32304212782118
 20
47.42888793945312
 30
0.0
 10
-5.556508382161458
 20
48.90545586480035
 30
0.0
 10
-5.745816379123263
 20
49.70058390299479
 30
0.0
 10
-6.058458794487847
 20
50.49571194118924
 30
0.0
 10
-6.626210530598958
 20
51.89666002061632
 30
0.0
  0
SPLINE
  5
1A3
330
3A
100
AcDbEntity
  8
LAYER_1
 62
     7
100
AcDbSpline
210
0.0
220
0.0
230
1.0
 70
     8
 71
     3
 72
    14
 73
    10
 74
     0
 42
0.0000000001
 43
0.0000000001
 40
0.0
 40
0.0
 40
0.0
 40
0.0
 40
1.0
 40
1.0
 40
1.0
 40
2.0
 40
2.0
 40
2.0
 40
3.0
 40
3.0
 40
3.0
 40
3.0
 10
-6.32304212782118
 20
41.44596286349826
 30
0.0
 10
-5.94477064344618
 20
41.6735114203559
 30
0.0
 10
-5.263330756293402
 20
43.22569919162326
 30
0.0
 10
-5.149642605251736
 20
44.70261162651909
 30
0.0
 10
-5.102100287543403
 20
45.31721666124132
 30
0.0
 10
-5.23008558485243
 20
47.30555352105034
 30
0.0
 10
-4.463035074869791
 20
48.78263821072049
 30
0.0
 10
-4.652687581380208
 20
49.57776624891493
 30
0.0
 10
-5.187194146050347
 20
50.0793721516927
 30
0.0
 10
-5.533081732855902
 20
51.77384236653646
 30
0.0
  0
SPLINE
  5
1A2
330
3A
100
AcDbEntity
  8
LAYER_1
 62
     7
100
AcDbSpline
210
0.0
220
0.0
230
1.0
 70
     8
 71
     3
 72
    14
 73
    10
 74
     0
 42
0.0000000001
 43
0.0000000001
 40
0.0
 40
0.0
 40
0.0
 40
0.0
 40
1.0
 40
1.0
 40
1.0
 40
2.0
 40
2.0
 40
2.0
 40
3.0
 40
3.0
 40
3.0
 40
3.0
 10
-4.846474202473958
 20
41.55965101453992
 30
0.0
 10
-4.468202718098958
 20
41.78668280707465
 30
0.0
 10
-4.43013441297743
 20
43.37711113823784
 30
0.0
 10
-4.316446261935764
 20
44.85402357313367
 30
0.0
 10
-4.269248453776041
 20
45.46845635308159
 30
0.0
 10
-3.833788384331597
 20
47.0500996907552
 30
0.0
 10
-3.066910129123264
 20
48.52666761610243
 30
0.0
 10
-3.256218126085069
 20
49.32179565429687
 30
0.0
 10
-4.037049018012152
 20
49.86612074110243
 30
0.0
 10
-4.382592095269096
 20
51.56059095594618
 30
0.0
  0
SPLINE
  5
1A1
330
3A
100
AcDbEntity
  8
LAYER_1
 62
     7
100
AcDbSpline
210
0.0
220
0.0
230
1.0
 70
     8
 71
     3
 72
    14
 73
    10
 74
     0
 42
0.0000000001
 43
0.0000000001
 40
0.0
 40
0.0
 40
0.0
 40
0.0
 40
1.0
 40
1.0
 40
1.0
 40
2.0
 40
2.0
 40
2.0
 40
3.0
 40
3.0
 40
3.0
 40
3.0
 10
-3.862038167317708
 20
41.74913126627604
 30
0.0
 10
-3.483594428168403
 20
41.97616305881076
 30
0.0
 10
-3.369906277126736
 20
42.65794745551215
 30
0.0
 10
-3.256218126085069
 20
44.13451538085937
 30
0.0
 10
-3.209020317925347
 20
44.74894816080729
 30
0.0
 10
-2.461090087890625
 20
46.81359388563368
 30
0.0
 10
-1.694384087456597
 20
48.2901618109809
 30
0.0
 10
-1.883864339192708
 20
49.08528984917534
 30
0.0
 10
-2.948743353949653
 20
49.74812622070312
 30
0.0
 10
-3.294286431206597
 20
51.44225192599826
 30
0.0
  0
SPLINE
  5
1A0
330
3A
100
AcDbEntity
  8
LAYER_1
 62
     7
100
AcDbSpline
210
0.0
220
0.0
230
1.0
 70
     8
 71
     3
 72
    14
 73
    10
 74
     0
 42
0.0000000001
 43
0.0000000001
 40
0.0
 40
0.0
 40
0.0
 40
0.0
 40
1.0
 40
1.0
 40
1.0
 40
2.0
 40
2.0
 40
2.0
 40
3.0
 40
3.0
 40
3.0
 40
3.0
 10
-2.536709933810764
 20
42.01423136393229
 30
0.0
 10
-2.385470241970486
 20
42.31722751193576
 30
0.0
 10
-2.461090087890625
 20
42.69567125108507
 30
0.0
 10
-1.983255343967014
 20
43.97362942165798
 30
0.0
 10
-1.766903347439236
 20
44.5508551703559
 30
0.0
 10
-1.187782796223958
 20
46.65270792643229
 30
0.0
 10
-0.4210767957899305
 20
48.12927585177951
 30
0.0
 10
-0.6105570475260416
 20
48.92440388997395
 30
0.0
 10
-1.358487277560764
 20
49.52074991861979
 30
0.0
 10
-1.704030354817708
 20
51.21522013346354
 30
0.0
  0
SPLINE
  5
19F
330
3A
100
AcDbEntity
  8
LAYER_1
 62
     7
100
AcDbSpline
210
0.0
220
0.0
230
1.0
 70
     8
 71
     3
 72
    14
 73
    10
 74
     0
 42
0.0000000001
 43
0.0000000001
 40
0.0
 40
0.0
 40
0.0
 40
0.0
 40
1.0
 40
1.0
 40
1.0
 40
2.0
 40
2.0
 40
2.0
 40
3.0
 40
3.0
 40
3.0
 40
3.0
 10
-1.628238254123264
 20
42.35495130750868
 30
0.0
 10
-1.476481797960069
 20
42.65794745551215
 30
0.0
 10
-1.424633110894097
 20
42.5914571126302
 30
0.0
 10
-0.9464538574218749
 20
43.86941528320312
 30
0.0
 10
-0.7304463704427082
 20
44.44681328667534
 30
0.0
 10
0.1988681369357639
 20
46.45375366210937
 30
0.0
 10
0.9655741373697916
 20
47.93032158745659
 30
0.0
 10
0.7760938856336805
 20
48.72562188042534
 30
0.0
 10
-0.3359829372829861
 20
49.40740627712673
 30
0.0
 10
-0.681353759765625
 20
51.10153198242187
 30
0.0
  0
SPLINE
  5
19E
330
3A
100
AcDbEntity
  8
LAYER_1
 62
     7
100
AcDbSpline
210
0.0
220
0.0
230
1.0
 70
     8
 71
     3
 72
    14
 73
    10
 74
     0
 42
0.0000000001
 43
0.0000000001
 40
0.0
 40
0.0
 40
0.0
 40
0.0
 40
1.0
 40
1.0
 40
1.0
 40
2.0
 40
2.0
 40
2.0
 40
3.0
 40
3.0
 40
3.0
 40
3.0
 10
-0.3025655110677083
 20
42.7712910970052
 30
0.0
 10
-0.1513258192274306
 20
43.07428724500868
 30
0.0
 10
0.658099365234375
 20
43.76537339952257
 30
0.0
 10
1.135934109157986
 20
45.04333157009548
 30
0.0
 10
1.351769341362847
 20
45.6205573187934
 30
0.0
 10
1.55744154188368
 20
46.17917955186631
 30
0.0
 10
2.324147542317708
 20
47.65591973198784
 30
0.0
 10
2.134667290581597
 20
48.45104777018229
 30
0.0
 10
0.7998650444878471
 20
49.25564982096354
 30
0.0
 10
0.4544942220052083
 20
50.95012003580729
 30
0.0
  0
SPLINE
  5
19D
330
3A
100
AcDbEntity
  8
LAYER_1
 62
     7
100
AcDbSpline
210
0.0
220
0.0
230
1.0
 70
     8
 71
     3
 72
    14
 73
    10
 74
     0
 42
0.0000000001
 43
0.0000000001
 40
0.0
 40
0.0
 40
0.0
 40
0.0
 40
1.0
 40
1.0
 40
1.0
 40
2.0
 40
2.0
 40
2.0
 40
3.0
 40
3.0
 40
3.0
 40
3.0
 10
1.211553955078125
 20
43.49079928927951
 30
0.0
 10
1.363310411241319
 20
43.79379543728298
 30
0.0
 10
1.755879041883681
 20
44.10609334309896
 30
0.0
 10
2.234058295355903
 20
45.38405151367187
 30
0.0
 10
2.450065782335069
 20
45.96127726236979
 30
0.0
 10
2.73566419813368
 20
45.98987155490451
 30
0.0
 10
3.502714708116319
 20
47.46643948025173
 30
0.0
 10
3.313406711154514
 20
48.26156751844618
 30
0.0
 10
2.309850396050347
 20
49.73865220811631
 30
0.0
 10
1.633061387803819
 20
50.76081203884548
 30
0.0
  0
SPLINE
  5
19C
330
3A
100
AcDbEntity
  8
LAYER_1
 62
     7
100
AcDbSpline
210
0.0
220
0.0
230
1.0
 70
     8
 71
     3
 72
    14
 73
    10
 74
     0
 42
0.0000000001
 43
0.0000000001
 40
0.0
 40
0.0
 40
0.0
 40
0.0
 40
1.0
 40
1.0
 40
1.0
 40
2.0
 40
2.0
 40
2.0
 40
3.0
 40
3.0
 40
3.0
 40
3.0
 10
2.347918701171875
 20
44.02082722981771
 30
0.0
 10
2.499158393012153
 20
44.32399563259548
 30
0.0
 10
3.067254638671875
 20
44.77840372721354
 30
0.0
 10
3.71079847547743
 20
45.68687540690104
 30
0.0
 10
4.06736585828993
 20
46.19003160264757
 30
0.0
 10
3.881158447265625
 20
45.84328274197048
 30
0.0
 10
4.648036702473958
 20
47.3198506673177
 30
0.0
 10
4.458728705512153
 20
48.11497870551215
 30
0.0
 10
3.89528333875868
 20
49.54917195638021
 30
0.0
 10
3.218666585286458
 20
50.57133178710937
 30
0.0
  0
SPLINE
  5
19B
330
3A
100
AcDbEntity
  8
LAYER_1
 62
     7
100
AcDbSpline
210
0.0
220
0.0
230
1.0
 70
     8
 71
     3
 72
    11
 73
     7
 74
     0
 42
0.0000000001
 43
0.0000000001
 40
0.0
 40
0.0
 40
0.0
 40
0.0
 40
1.0
 40
1.0
 40
1.0
 40
2.0
 40
2.0
 40
2.0
 40
2.0
 10
4.392582872178819
 20
45.27036336263021
 30
0.0
 10
4.748805745442708
 20
45.77351955837673
 30
0.0
 10
4.65768296983507
 20
45.95180324978298
 30
0.0
 10
5.982838948567708
 20
47.12571953667534
 30
0.0
 10
5.793530951605902
 20
47.92084757486979
 30
0.0
 10
5.523607720269097
 20
49.32179565429687
 30
0.0
 10
4.846990966796875
 20
50.34429999457465
 30
0.0
  0
SPLINE
  5
19A
330
3A
100
AcDbEntity
  8
LAYER_1
 62
     7
100
AcDbSpline
210
0.0
220
0.0
230
1.0
 70
     8
 71
     3
 72
    17
 73
    13
 74
     0
 42
0.0000000001
 43
0.0000000001
 40
0.0
 40
0.0
 40
0.0
 40
0.0
 40
1.0
 40
1.0
 40
1.0
 40
2.0
 40
2.0
 40
2.0
 40
3.0
 40
3.0
 40
3.0
 40
4.0
 40
4.0
 40
4.0
 40
4.0
 10
5.641774495442708
 20
59.12894897460937
 30
0.0
 10
5.377018907335069
 20
58.22013278537326
 30
0.0
 10
4.96033460828993
 20
57.53869289822048
 30
0.0
 10
3.407974582248264
 20
56.78111640082465
 30
0.0
 10
1.855442301432292
 20
56.02405666775173
 30
0.0
 10
1.514722357855903
 20
55.11524047851562
 30
0.0
 10
1.325242106119792
 20
54.66083238389756
 30
0.0
 10
1.135934109157986
 20
54.20642428927951
 30
0.0
 10
0.2650139702690972
 20
53.03285251193576
 30
0.0
 10
-0.3025655110677083
 20
52.72985636393229
 30
0.0
 10
0.0757059733072917
 20
52.31334431966145
 30
0.0
 10
0.4164259168836805
 20
51.66962822808159
 30
0.0
 10
0.1893941243489583
 20
51.02573988172743
 30
0.0
  0
SPLINE
  5
199
330
3A
100
AcDbEntity
  8
LAYER_1
 62
     7
100
AcDbSpline
210
0.0
220
0.0
230
1.0
 70
     8
 71
     3
 72
    17
 73
    13
 74
     0
 42
0.0000000001
 43
0.0000000001
 40
0.0
 40
0.0
 40
0.0
 40
0.0
 40
1.0
 40
1.0
 40
1.0
 40
2.0
 40
2.0
 40
2.0
 40
3.0
 40
3.0
 40
3.0
 40
4.0
 40
4.0
 40
4.0
 40
4.0
 10
6.929378933376736
 20
59.12894897460937
 30
0.0
 10
6.664278835720485
 20
58.22013278537326
 30
0.0
 10
6.853586832682291
 20
57.23569675021701
 30
0.0
 10
5.301054551866319
 20
56.47846476236979
 30
0.0
 10
3.748694525824652
 20
55.72106051974826
 30
0.0
 10
2.461090087890625
 20
54.69890068901909
 30
0.0
 10
2.272126600477431
 20
54.24449259440104
 30
0.0
 10
2.082818603515625
 20
53.78991224500867
 30
0.0
 10
1.55744154188368
 20
52.86731567382812
 30
0.0
 10
0.9893452962239583
 20
52.56414727105035
 30
0.0
 10
1.368133544921875
 20
52.14780748155381
 30
0.0
 10
1.708853488498264
 20
51.50391913519965
 30
0.0
 10
1.481304931640625
 20
50.86020304361978
 30
0.0
  0
SPLINE
  5
198
330
3A
100
AcDbEntity
  8
LAYER_1
 62
     7
100
AcDbSpline
210
0.0
220
0.0
230
1.0
 70
     8
 71
     3
 72
    17
 73
    13
 74
     0
 42
0.0000000001
 43
0.0000000001
 40
0.0
 40
0.0
 40
0.0
 40
0.0
 40
1.0
 40
1.0
 40
1.0
 40
2.0
 40
2.0
 40
2.0
 40
3.0
 40
3.0
 40
3.0
 40
4.0
 40
4.0
 40
4.0
 40
4.0
 10
8.117420111762153
 20
59.0152608235677
 30
0.0
 10
7.852492268880208
 20
58.10678914388021
 30
0.0
 10
7.371901448567708
 20
57.84978502061632
 30
0.0
 10
6.489095730251735
 20
56.36477661132812
 30
0.0
 10
5.56649915907118
 20
54.81258884006076
 30
0.0
 10
4.392582872178819
 20
54.32011244032118
 30
0.0
 10
3.748694525824652
 20
53.82798055013021
 30
0.0
 10
3.357676188151042
 20
53.52894626193576
 30
0.0
 10
2.745138210720486
 20
52.75362752278645
 30
0.0
 10
2.17755872938368
 20
52.45045912000867
 30
0.0
 10
2.55583021375868
 20
52.03411933051215
 30
0.0
 10
2.745138210720486
 20
51.34320543077256
 30
0.0
 10
2.877946641710069
 20
50.68501993815104
 30
0.0
  0
SPLINE
  5
197
330
3A
100
AcDbEntity
  8
LAYER_1
 62
     7
100
AcDbSpline
210
0.0
220
0.0
230
1.0
 70
     8
 71
     3
 72
    17
 73
    13
 74
     0
 42
0.0000000001
 43
0.0000000001
 40
0.0
 40
0.0
 40
0.0
 40
0.0
 40
1.0
 40
1.0
 40
1.0
 40
2.0
 40
2.0
 40
2.0
 40
3.0
 40
3.0
 40
3.0
 40
4.0
 40
4.0
 40
4.0
 40
4.0
 10
9.466519504123262
 20
58.59892103407118
 30
0.0
 10
9.201074896918401
 20
57.69010484483506
 30
0.0
 10
8.744255235460068
 20
57.62705959743923
 30
0.0
 10
7.861966281467013
 20
56.14256795247395
 30
0.0
 10
6.938852945963541
 20
54.58986341688367
 30
0.0
 10
6.20987074110243
 20
53.78991224500867
 30
0.0
 10
5.56649915907118
 20
53.29795260959201
 30
0.0
 10
5.175480821397569
 20
52.99874606662326
 30
0.0
 10
4.118008761935764
 20
52.53090209960937
 30
0.0
 10
3.549912516276041
 20
52.22825046115451
 30
0.0
 10
3.928700764973958
 20
51.81139390733507
 30
0.0
 10
4.118008761935764
 20
51.12048000759548
 30
0.0
 10
4.25030042860243
 20
50.46281127929687
 30
0.0
  0
SPLINE
  5
196
330
3A
100
AcDbEntity
  8
LAYER_1
 62
     7
100
AcDbSpline
210
0.0
220
0.0
230
1.0
 70
     8
 71
     3
 72
    17
 73
    13
 74
     0
 42
0.0000000001
 43
0.0000000001
 40
0.0
 40
0.0
 40
0.0
 40
0.0
 40
1.0
 40
1.0
 40
1.0
 40
2.0
 40
2.0
 40
2.0
 40
3.0
 40
3.0
 40
3.0
 40
4.0
 40
4.0
 40
4.0
 40
4.0
 10
10.67798733181424
 20
57.76572469075521
 30
0.0
 10
10.41305948893229
 20
56.85725301106771
 30
0.0
 10
9.515956624348958
 20
56.71376478407117
 30
0.0
 10
8.63332316080729
 20
55.22892862955729
 30
0.0
 10
7.710209825303819
 20
53.67674085828993
 30
0.0
 10
7.686783175998263
 20
53.48726060655382
 30
0.0
 10
7.043067084418402
 20
52.99478420681423
 30
0.0
 10
6.652048746744791
 20
52.69574991861979
 30
0.0
 10
6.262236192491319
 20
52.28009914822048
 30
0.0
 10
5.693967692057291
 20
51.97744750976562
 30
0.0
 10
6.072755940755208
 20
51.56059095594618
 30
0.0
 10
6.262236192491319
 20
50.86967705620659
 30
0.0
 10
6.394527859157986
 20
50.21166381835937
 30
0.0
  0
SPLINE
  5
195
330
3A
100
AcDbEntity
  8
LAYER_1
 62
     7
100
AcDbSpline
210
0.0
220
0.0
230
1.0
 70
     8
 71
     3
 72
    17
 73
    13
 74
     0
 42
0.0000000001
 43
0.0000000001
 40
0.0
 40
0.0
 40
0.0
 40
0.0
 40
1.0
 40
1.0
 40
1.0
 40
2.0
 40
2.0
 40
2.0
 40
3.0
 40
3.0
 40
3.0
 40
4.0
 40
4.0
 40
4.0
 40
4.0
 10
11.32153116861979
 20
56.97059665256076
 30
0.0
 10
11.05677558051215
 20
56.06212497287326
 30
0.0
 10
10.80321655273438
 20
56.33514879014756
 30
0.0
 10
9.920583089192707
 20
54.85014038085937
 30
0.0
 10
8.997814263237846
 20
53.29795260959201
 30
0.0
 10
9.125455050998264
 20
53.37357245551215
 30
0.0
 10
8.481566704644097
 20
52.88109605577257
 30
0.0
 10
8.090892876519096
 20
52.58240627712673
 30
0.0
 10
7.965835910373263
 20
52.05306735568576
 30
0.0
 10
7.398084174262152
 20
51.75007120768229
 30
0.0
 10
7.776355658637153
 20
51.33355916341145
 30
0.0
 10
8.387343343098957
 20
50.09349704318576
 30
0.0
 10
8.519635009765624
 20
49.43548380533854
 30
0.0
  0
SPLINE
  5
194
330
3A
100
AcDbEntity
  8
LAYER_1
 62
     7
100
AcDbSpline
210
0.0
220
0.0
230
1.0
 70
     8
 71
     3
 72
    14
 73
    10
 74
     0
 42
0.0000000001
 43
0.0000000001
 40
0.0
 40
0.0
 40
0.0
 40
0.0
 40
1.0
 40
1.0
 40
1.0
 40
2.0
 40
2.0
 40
2.0
 40
3.0
 40
3.0
 40
3.0
 40
3.0
 10
11.73821546766493
 20
55.50350273980034
 30
0.0
 10
10.81510213216146
 20
53.95079820421007
 30
0.0
 10
10.33726738823785
 20
53.33550415039062
 30
0.0
 10
10.0723395453559
 20
52.69178805881076
 30
0.0
 10
9.884926350911458
 20
52.23686319986979
 30
0.0
 10
9.556091986762151
 20
51.86375935872395
 30
0.0
 10
8.98834025065104
 20
51.56059095594618
 30
0.0
 10
9.366611735026041
 20
51.14425116644965
 30
0.0
 10
9.712499321831597
 20
49.41171264648437
 30
0.0
 10
9.844790988498263
 20
48.75404391818576
 30
0.0
  0
SPLINE
  5
193
330
3A
100
AcDbEntity
  8
LAYER_1
 62
     7
100
AcDbSpline
210
0.0
220
0.0
230
1.0
 70
     8
 71
     3
 72
    17
 73
    13
 74
     0
 42
0.0000000001
 43
0.0000000001
 40
0.0
 40
0.0
 40
0.0
 40
0.0
 40
1.0
 40
1.0
 40
1.0
 40
2.0
 40
2.0
 40
2.0
 40
3.0
 40
3.0
 40
3.0
 40
4.0
 40
4.0
 40
4.0
 40
4.0
 10
2.726534695095486
 20
58.67454087999131
 30
0.0
 10
2.461090087890625
 20
57.76572469075521
 30
0.0
 10
1.786023627387153
 20
57.66306084526909
 30
0.0
 10
1.174002414279514
 20
56.40284491644965
 30
0.0
 10
0.5301140679253472
 20
55.0775166829427
 30
0.0
 10
0.1137742784288194
 20
54.62310858832465
 30
0.0
 10
-0.2650139702690972
 20
54.24449259440104
 30
0.0
 10
-0.6133131239149305
 20
53.89619344075521
 30
0.0
 10
-1.135761854383681
 20
53.22233276367187
 30
0.0
 10
-1.704030354817708
 20
52.91916436089409
 30
0.0
 10
-1.325242106119792
 20
52.50282457139757
 30
0.0
 10
-0.7809170193142361
 20
51.78331637912326
 30
0.0
 10
-1.008293321397569
 20
51.13942803276909
 30
0.0
  0
SPLINE
  5
192
330
3A
100
AcDbEntity
  8
LAYER_1
 62
     7
100
AcDbSpline
210
0.0
220
0.0
230
1.0
 70
     8
 71
     3
 72
    17
 73
    13
 74
     0
 42
0.0000000001
 43
0.0000000001
 40
0.0
 40
0.0
 40
0.0
 40
0.0
 40
1.0
 40
1.0
 40
1.0
 40
2.0
 40
2.0
 40
2.0
 40
3.0
 40
3.0
 40
3.0
 40
4.0
 40
4.0
 40
4.0
 40
4.0
 10
0.5301140679253472
 20
58.03082478841145
 30
0.0
 10
0.2650139702690972
 20
57.12183634440104
 30
0.0
 10
0.2650139702690972
 20
57.23569675021701
 30
0.0
 10
-0.1132575141059028
 20
56.59215291341145
 30
0.0
 10
-0.9884840223524305
 20
55.10456068250868
 30
0.0
 10
-1.363310411241319
 20
54.7364522298177
 30
0.0
 10
-1.741581895616319
 20
54.3581807454427
 30
0.0
 10
-2.089881049262153
 20
54.00988159179687
 30
0.0
 10
-2.210287136501736
 20
53.37839558919271
 30
0.0
 10
-2.778383382161458
 20
53.07522718641493
 30
0.0
 10
-2.399595133463541
 20
52.6588873969184
 30
0.0
 10
-2.158438449435764
 20
51.97262437608507
 30
0.0
 10
-2.082301839192708
 20
51.29566311306423
 30
0.0
  0
SPLINE
  5
191
330
3A
100
AcDbEntity
  8
LAYER_1
 62
     7
100
AcDbSpline
210
0.0
220
0.0
230
1.0
 70
     8
 71
     3
 72
    14
 73
    10
 74
     0
 42
0.0000000001
 43
0.0000000001
 40
0.0
 40
0.0
 40
0.0
 40
0.0
 40
1.0
 40
1.0
 40
1.0
 40
2.0
 40
2.0
 40
2.0
 40
3.0
 40
3.0
 40
3.0
 40
3.0
 10
-1.173830159505208
 20
57.19797295464409
 30
0.0
 10
-2.048712158203125
 20
55.71038072374132
 30
0.0
 10
-2.309678141276041
 20
54.81258884006076
 30
0.0
 10
-2.688121880425347
 20
54.43380059136284
 30
0.0
 10
-3.036248779296875
 20
54.08550143771701
 30
0.0
 10
-3.596938069661458
 20
53.52498440212673
 30
0.0
 10
-4.16503431532118
 20
53.22233276367187
 30
0.0
 10
-3.89993421766493
 20
52.70608520507812
 30
0.0
 10
-3.786246066623264
 20
52.16158786349826
 30
0.0
 10
-3.521318223741319
 20
51.55594007703993
 30
0.0
  0
SPLINE
  5
190
330
3A
100
AcDbEntity
  8
LAYER_1
 62
     7
100
AcDbSpline
210
0.0
220
0.0
230
1.0
 70
     8
 71
     3
 72
    14
 73
    10
 74
     0
 42
0.0000000001
 43
0.0000000001
 40
0.0
 40
0.0
 40
0.0
 40
0.0
 40
1.0
 40
1.0
 40
1.0
 40
2.0
 40
2.0
 40
2.0
 40
3.0
 40
3.0
 40
3.0
 40
3.0
 10
-2.801810031467014
 20
56.40284491644965
 30
0.0
 10
-3.521318223741319
 20
55.83474867078993
 30
0.0
 10
-3.838956027560764
 20
55.38154635959201
 30
0.0
 10
-3.994674343532986
 20
54.57556627061631
 30
0.0
 10
-4.087864176432292
 20
54.09221937391492
 30
0.0
 10
-4.714182535807291
 20
53.65296969943576
 30
0.0
 10
-5.281934271918402
 20
53.34980129665798
 30
0.0
 10
-5.016834174262153
 20
52.83407050238715
 30
0.0
 10
-4.903146023220486
 20
52.37483927408854
 30
0.0
 10
-4.827526177300347
 20
51.69805026584201
 30
0.0
  0
INSERT
  5
14E
330
3A
100
AcDbEntity
  8
LAYER_1
 62
     7
100
AcDbBlockReference
  2
AI9-BLK9
 10
0.08836669921875
 20
-11.82692667643229
 30
0.0
  0
LWPOLYLINE
  5
146
330
3A
100
AcDbEntity
  8
LAYER_1
 62
     7
100
AcDbPolyline
 90
        5
 70
     0
 43
0.0
 10
-35.59291788736979
 20
-12.9278069390191
 10
6.172146945529513
 20
-23.37833184136284
 10
35.59291788736979
 20
-6.83153822157118
 10
6.172146945529513
 20
-23.37833184136284
 10
6.172146945529513
 20
-59.1606438530816
  0
ELLIPSE
  5
145
330
3A
100
AcDbEntity
  8
LAYER_1
 62
     7
100
AcDbEllipse
 10
-32.39328545464409
 20
-39.04550645616319
 30
0.0
 11
0.3212551540798611
 21
8.612738715277777E-5
 31
0.0
210
0.0
220
0.0
230
1.0
 40
0.7498659247940432
 41
0.0
 42
6.283185307179586
  0
ELLIPSE
  5
144
330
3A
100
AcDbEntity
  8
LAYER_1
 62
     7
100
AcDbEllipse
 10
10.34691365559896
 20
-42.19277343749999
 30
0.0
 11
0.32091064453125
 21
-8.612738715277777E-5
 31
0.0
210
0.0
220
0.0
230
1.0
 40
0.7506709337804203
 41
0.0
 42
6.283185307179586
  0
CIRCLE
  5
143
330
3A
100
AcDbEntity
  8
LAYER_1
 62
     7
100
AcDbCircle
 10
-30.9733893500434
 20
-38.47758246527778
 30
0.0
 40
0.241070556640625
  0
CIRCLE
  5
142
330
3A
100
AcDbEntity
  8
LAYER_1
 62
     7
100
AcDbCircle
 10
17.10532972547743
 20
-44.46498616536458
 30
0.0
 40
0.2408983018663194
  0
CIRCLE
  5
141
330
3A
100
AcDbEntity
  8
LAYER_1
 62
     7
100
AcDbCircle
 10
-29.89421318901909
 20
-40.35171440972222
 30
0.0
 40
0.2408983018663194
  0
ELLIPSE
  5
140
330
3A
100
AcDbEntity
  8
LAYER_1
 62
     7
100
AcDbEllipse
 10
2.139490424262152
 20
-24.21660970052083
 30
0.0
 11
0.0
 21
-0.2408983018663194
 31
0.0
210
0.0
220
0.0
230
1.0
 40
0.6678585154329402
 41
0.0
 42
6.283185307179586
  0
ELLIPSE
  5
13F
330
3A
100
AcDbEntity
  8
LAYER_1
 62
     7
100
AcDbEllipse
 10
15.2596198187934
 20
-50.17299262152778
 30
0.0
 11
0.0
 21
-0.241070556640625
 31
0.0
210
0.0
220
0.0
230
1.0
 40
0.6652384482867479
 41
0.0
 42
6.283185307179586
  0
ELLIPSE
  5
13E
330
3A
100
AcDbEntity
  8
LAYER_1
 62
     7
100
AcDbEllipse
 10
12.41965535481771
 20
-41.36939561631944
 30
0.0
 11
0.0
 21
-0.241070556640625
 31
0.0
210
0.0
220
0.0
230
1.0
 40
0.665952221593542
 41
0.0
 42
6.283185307179586
  0
ELLIPSE
  5
13D
330
3A
100
AcDbEntity
  8
LAYER_1
 62
     7
100
AcDbEllipse
 10
-9.24844495985243
 20
-44.94747178819444
 30
0.0
 11
0.0
 21
-0.2408983018663194
 31
0.0
210
0.0
220
0.0
230
1.0
 40
0.6671434636942514
 41
0.0
 42
6.283185307179586
  0
ELLIPSE
  5
13C
330
3A
100
AcDbEntity
  8
LAYER_1
 62
     7
100
AcDbEllipse
 10
12.70370347764757
 20
-44.37954779730902
 30
0.0
 11
0.0
 21
-0.241070556640625
 31
0.0
210
0.0
220
0.0
230
1.0
 40
0.6659529882677838
 41
0.0
 42
6.283185307179586
  0
ELLIPSE
  5
13B
330
3A
100
AcDbEntity
  8
LAYER_1
 62
     7
100
AcDbEllipse
 10
14.23745998806423
 20
-48.18517252604166
 30
0.0
 11
0.0
 21
-0.2408983018663194
 31
0.0
210
0.0
220
0.0
230
1.0
 40
0.6657133602175347
 41
0.0
 42
6.283185307179586
  0
ELLIPSE
  5
13A
330
3A
100
AcDbEntity
  8
LAYER_1
 62
     7
100
AcDbEllipse
 10
-15.46942613389757
 20
-49.55270317925347
 30
0.0
 11
0.0
 21
-0.3213412814670139
 31
0.0
210
0.0
220
0.0
230
1.0
 40
0.4990619856683046
 41
0.0
 42
6.283185307179586
  0
ELLIPSE
  5
139
330
3A
100
AcDbEntity
  8
LAYER_1
 62
     7
100
AcDbEllipse
 10
5.234908718532986
 20
-25.01156548394097
 30
0.0
 11
0.2408121744791667
 21
-0.0002583821614583333
 31
0.0
210
0.0
220
0.0
230
1.0
 40
0.6670239365035516
 41
0.0
 42
6.283185307179586
  0
ELLIPSE
  5
138
330
3A
100
AcDbEntity
  8
LAYER_1
 62
     7
100
AcDbEllipse
 10
-12.8130852593316
 20
-39.55830891927083
 30
0.0
 11
0.0
 21
-0.241070556640625
 31
0.0
210
0.0
220
0.0
230
1.0
 40
0.6659529882677838
 41
0.0
 42
6.283185307179586
  0
CIRCLE
  5
137
330
3A
100
AcDbEntity
  8
LAYER_1
 62
     7
100
AcDbCircle
 10
-16.3913336859809
 20
-38.93354085286458
 30
0.0
 40
0.241070556640625
  0
CIRCLE
  5
136
330
3A
100
AcDbEntity
  8
LAYER_1
 62
     7
100
AcDbCircle
 10
-20.92215101453993
 20
-48.41668294270833
 30
0.0
 40
0.241070556640625
  0
CIRCLE
  5
135
330
3A
100
AcDbEntity
  8
LAYER_1
 62
     7
100
AcDbCircle
 10
3.900106472439236
 20
-27.9083740234375
 30
0.0
 40
0.2408983018663194
  0
CIRCLE
  5
134
330
3A
100
AcDbEntity
  8
LAYER_1
 62
     7
100
AcDbCircle
 10
-4.619442409939236
 20
-49.83210042317708
 30
0.0
 40
0.2408983018663194
  0
ELLIPSE
  5
133
330
3A
100
AcDbEntity
  8
LAYER_1
 62
     7
100
AcDbEllipse
 10
-7.45940687391493
 20
-50.96794840494791
 30
0.0
 11
0.0
 21
-0.3213412814670139
 31
0.0
210
0.0
220
0.0
230
1.0
 40
0.5006701333867418
 41
0.0
 42
6.283185307179586
  0
ELLIPSE
  5
132
330
3A
100
AcDbEntity
  8
LAYER_1
 62
     7
100
AcDbEllipse
 10
-8.424894883897569
 20
-50.45686848958333
 30
0.0
 11
0.0
 21
-0.2408983018663194
 31
0.0
210
0.0
220
0.0
230
1.0
 40
0.6664284119557827
 41
0.0
 42
6.283185307179586
  0
ELLIPSE
  5
131
330
3A
100
AcDbEntity
  8
LAYER_1
 62
     7
100
AcDbEllipse
 10
12.50492146809896
 20
-51.30884060329861
 30
0.0
 11
0.0
 21
-0.241070556640625
 31
0.0
210
0.0
220
0.0
230
1.0
 40
0.6666675282508054
 41
0.0
 42
6.283185307179586
  0
ELLIPSE
  5
130
330
3A
100
AcDbEntity
  8
LAYER_1
 62
     7
100
AcDbEllipse
 10
-8.481566704644097
 20
-52.55837673611111
 30
0.0
 11
0.3214274088541667
 21
-0.0002583821614583333
 31
0.0
210
0.0
220
0.0
230
1.0
 40
0.749999757679422
 41
0.0
 42
6.283185307179586
  0
ELLIPSE
  5
12F
330
3A
100
AcDbEntity
  8
LAYER_1
 62
     7
100
AcDbEllipse
 10
-32.59172295464409
 20
-44.52630886501736
 30
0.0
 11
0.0
 21
-0.3213412814670139
 31
0.0
210
0.0
220
0.0
230
1.0
 40
0.7493969924489117
 41
0.0
 42
6.283185307179586
  0
ELLIPSE
  5
12E
330
3A
100
AcDbEntity
  8
LAYER_1
 62
     7
100
AcDbEllipse
 10
-33.61439954969618
 20
-42.14092475043402
 30
0.0
 11
0.3214274088541667
 21
8.612738715277776E-5
 31
0.0
210
0.0
220
0.0
230
1.0
 40
0.7494640674141182
 41
0.0
 42
6.283185307179586
  0
CIRCLE
  5
12D
330
3A
100
AcDbEntity
  8
LAYER_1
 62
     7
100
AcDbCircle
 10
-34.23916761610243
 20
-43.39046088324653
 30
0.0
 40
0.2408983018663194
  0
CIRCLE
  5
12C
330
3A
100
AcDbEntity
  8
LAYER_1
 62
     7
100
AcDbCircle
 10
12.60586276584201
 20
-47.34525824652777
 30
0.0
 40
0.2408983018663194
  0
SPLINE
  5
12B
330
3A
100
AcDbEntity
  8
LAYER_1
 62
     7
100
AcDbSpline
210
0.0
220
0.0
230
1.0
 70
    11
 71
     3
 72
    17
 73
    13
 74
     0
 42
0.0000000001
 43
0.0000000001
 40
0.0
 40
0.0
 40
0.0
 40
0.0
 40
1.0
 40
1.0
 40
1.0
 40
2.0
 40
2.0
 40
2.0
 40
3.0
 40
3.0
 40
3.0
 40
4.0
 40
4.0
 40
4.0
 40
4.0
 10
3.447593180338541
 20
-31.48739759657118
 30
0.0
 10
3.491173638237847
 20
-31.40695461697048
 30
0.0
 10
3.597454833984375
 20
-31.40988294813368
 30
0.0
 10
3.561798095703125
 20
-31.2989508734809
 30
0.0
 10
3.533203803168402
 20
-31.16820949978298
 30
0.0
 10
3.53561537000868
 20
-31.11429375542534
 30
0.0
 10
3.376796468098958
 20
-31.13289727105034
 30
0.0
 10
3.33717787000868
 20
-31.14633314344618
 30
0.0
 10
3.237614610460069
 20
-31.22195298936632
 30
0.0
 10
3.240370686848958
 20
-31.29843410915798
 30
0.0
 10
3.228140597873264
 20
-31.37732679578993
 30
0.0
 10
3.28291761610243
 20
-31.47155015733507
 30
0.0
 10
3.447593180338541
 20
-31.48739759657118
 30
0.0
  0
SPLINE
  5
12A
330
3A
100
AcDbEntity
  8
LAYER_1
 62
     7
100
AcDbSpline
210
0.0
220
0.0
230
1.0
 70
    11
 71
     3
 72
    17
 73
    13
 74
     0
 42
0.0000000001
 43
0.0000000001
 40
0.0
 40
0.0
 40
0.0
 40
0.0
 40
1.0
 40
1.0
 40
1.0
 40
2.0
 40
2.0
 40
2.0
 40
3.0
 40
3.0
 40
3.0
 40
4.0
 40
4.0
 40
4.0
 40
4.0
 10
5.095037841796875
 20
-32.13490329318576
 30
0.0
 10
5.203213840060763
 20
-32.18347913953993
 30
0.0
 10
5.320347086588542
 20
-32.09528469509549
 30
0.0
 10
5.372368028428819
 20
-31.98900349934896
 30
0.0
 10
5.294681125217013
 20
-31.92251315646701
 30
0.0
 10
5.199596489800347
 20
-31.86773613823785
 30
0.0
 10
5.162733968098958
 20
-31.84672105577257
 30
0.0
 10
4.948793538411458
 20
-31.86187947591145
 30
0.0
 10
4.956717258029514
 20
-31.8880622016059
 30
0.0
 10
4.956372748480902
 20
-31.96798841688368
 30
0.0
 10
4.884542507595485
 20
-32.11337144639757
 30
0.0
 10
5.015283881293402
 20
-32.12525702582465
 30
0.0
 10
5.095037841796875
 20
-32.13490329318576
 30
0.0
  0
SPLINE
  5
129
330
3A
100
AcDbEntity
  8
LAYER_1
 62
     7
100
AcDbSpline
210
0.0
220
0.0
230
1.0
 70
    11
 71
     3
 72
    17
 73
    13
 74
     0
 42
0.0000000001
 43
0.0000000001
 40
0.0
 40
0.0
 40
0.0
 40
0.0
 40
1.0
 40
1.0
 40
1.0
 40
2.0
 40
2.0
 40
2.0
 40
3.0
 40
3.0
 40
3.0
 40
4.0
 40
4.0
 40
4.0
 40
4.0
 10
-2.91549818250868
 20
-25.87740410698785
 30
0.0
 10
-2.835399712456597
 20
-25.91478339301215
 30
0.0
 10
-2.732908121744791
 20
-25.7459737141927
 30
0.0
 10
-2.66435072157118
 20
-25.71066148546007
 30
0.0
 10
-2.739626057942708
 20
-25.74631822374132
 30
0.0
 10
-2.799742974175347
 20
-25.6219502766927
 30
0.0
 10
-2.902062310112847
 20
-25.62315606011284
 30
0.0
 10
-3.04262220594618
 20
-25.63779771592882
 30
0.0
 10
-3.114452446831597
 20
-25.71152275933159
 30
0.0
 10
-3.137017822265625
 20
-25.78111368815104
 30
0.0
 10
-3.099638536241319
 20
-25.7487297905816
 30
0.0
 10
-3.077589925130208
 20
-25.89652438693576
 30
0.0
 10
-2.91549818250868
 20
-25.87740410698785
 30
0.0
  0
SPLINE
  5
128
330
3A
100
AcDbEntity
  8
LAYER_1
 62
     7
100
AcDbSpline
210
0.0
220
0.0
230
1.0
 70
    11
 71
     3
 72
    17
 73
    13
 74
     0
 42
0.0000000001
 43
0.0000000001
 40
0.0
 40
0.0
 40
0.0
 40
0.0
 40
1.0
 40
1.0
 40
1.0
 40
2.0
 40
2.0
 40
2.0
 40
3.0
 40
3.0
 40
3.0
 40
4.0
 40
4.0
 40
4.0
 40
4.0
 10
4.922610812717013
 20
-29.51249660915799
 30
0.0
 10
5.067993842230902
 20
-29.54333021375868
 30
0.0
 10
5.096243625217014
 20
-29.48441908094618
 30
0.0
 10
5.093487548828125
 20
-29.4201680501302
 30
0.0
 10
5.125182427300347
 20
-29.35126614040798
 30
0.0
 10
5.069716389973958
 20
-29.31715969509548
 30
0.0
 10
4.941214328342014
 20
-29.35987887912326
 30
0.0
 10
4.859737820095486
 20
-29.34609849717882
 30
0.0
 10
4.786012776692708
 20
-29.37452053493923
 30
0.0
 10
4.755868191189236
 20
-29.45858086480034
 30
0.0
 10
4.799793158637153
 20
-29.46926066080729
 30
0.0
 10
4.843029106987847
 20
-29.52403767903646
 30
0.0
 10
4.922610812717013
 20
-29.51249660915799
 30
0.0
  0
SPLINE
  5
127
330
3A
100
AcDbEntity
  8
LAYER_1
 62
     7
100
AcDbSpline
210
0.0
220
0.0
230
1.0
 70
    11
 71
     3
 72
    17
 73
    13
 74
     0
 42
0.0000000001
 43
0.0000000001
 40
0.0
 40
0.0
 40
0.0
 40
0.0
 40
1.0
 40
1.0
 40
1.0
 40
2.0
 40
2.0
 40
2.0
 40
3.0
 40
3.0
 40
3.0
 40
4.0
 40
4.0
 40
4.0
 40
4.0
 10
-3.243988037109375
 20
-22.78491414388021
 30
0.0
 10
-3.223317464192708
 20
-22.77251180013021
 30
0.0
 10
-3.174913872612847
 20
-22.6731207953559
 30
0.0
 10
-3.133400472005208
 20
-22.6235114203559
 30
0.0
 10
-3.158721923828125
 20
-22.56408352322049
 30
0.0
 10
-3.21625501844618
 20
-22.48846367730035
 30
0.0
 10
-3.242782253689236
 20
-22.47898966471354
 30
0.0
 10
-3.295492214626736
 20
-22.50000474717882
 30
0.0
 10
-3.34337904188368
 20
-22.52567070855034
 30
0.0
 10
-3.354403347439236
 20
-22.6295403374566
 30
0.0
 10
-3.392127143012153
 20
-22.69964803059896
 30
0.0
 10
-3.324431016710069
 20
-22.73961113823784
 30
0.0
 10
-3.243988037109375
 20
-22.78491414388021
 30
0.0
  0
SPLINE
  5
126
330
3A
100
AcDbEntity
  8
LAYER_1
 62
     7
100
AcDbSpline
210
0.0
220
0.0
230
1.0
 70
    11
 71
     3
 72
    17
 73
    13
 74
     0
 42
0.0000000001
 43
0.0000000001
 40
0.0
 40
0.0
 40
0.0
 40
0.0
 40
1.0
 40
1.0
 40
1.0
 40
2.0
 40
2.0
 40
2.0
 40
3.0
 40
3.0
 40
3.0
 40
4.0
 40
4.0
 40
4.0
 40
4.0
 10
-7.485072835286458
 20
-23.81499769422743
 30
0.0
 10
-7.46405775282118
 20
-23.80259535047743
 30
0.0
 10
-7.415826416015625
 20
-23.70320434570312
 30
0.0
 10
-7.37414076063368
 20
-23.65325046115451
 30
0.0
 10
-7.399462212456597
 20
-23.59416707356771
 30
0.0
 10
-7.456995307074652
 20
-23.51820271809896
 30
0.0
 10
-7.483522542317708
 20
-23.50872870551215
 30
0.0
 10
-7.536232503255207
 20
-23.53008829752604
 30
0.0
 10
-7.584119330512152
 20
-23.55575425889757
 30
0.0
 10
-7.595315890842013
 20
-23.65962388780382
 30
0.0
 10
-7.633211941189235
 20
-23.72973158094618
 30
0.0
 10
-7.565171305338541
 20
-23.76969468858507
 30
0.0
 10
-7.485072835286458
 20
-23.81499769422743
 30
0.0
  0
SPLINE
  5
125
330
3A
100
AcDbEntity
  8
LAYER_1
 62
     7
100
AcDbSpline
210
0.0
220
0.0
230
1.0
 70
    11
 71
     3
 72
    17
 73
    13
 74
     0
 42
0.0000000001
 43
0.0000000001
 40
0.0
 40
0.0
 40
0.0
 40
0.0
 40
1.0
 40
1.0
 40
1.0
 40
2.0
 40
2.0
 40
2.0
 40
3.0
 40
3.0
 40
3.0
 40
4.0
 40
4.0
 40
4.0
 40
4.0
 10
-5.380636257595485
 20
-23.26739976671007
 30
0.0
 10
-5.323447672526041
 20
-23.22657538519965
 30
0.0
 10
-5.308461507161458
 20
-23.15440063476562
 30
0.0
 10
-5.291063774956597
 20
-23.07412990993923
 30
0.0
 10
-5.300193277994791
 20
-23.01969740125868
 30
0.0
 10
-5.355142550998264
 20
-22.97577243381076
 30
0.0
 10
-5.37891370985243
 20
-22.98851928710937
 30
0.0
 10
-5.442303466796875
 20
-22.93546481662326
 30
0.0
 10
-5.479165988498264
 20
-23.0327887641059
 30
0.0
 10
-5.487089708116319
 20
-23.1256340874566
 30
0.0
 10
-5.503453911675347
 20
-23.21589558919271
 30
0.0
 10
-5.472103542751736
 20
-23.23260430230035
 30
0.0
 10
-5.380636257595485
 20
-23.26739976671007
 30
0.0
  0
SPLINE
  5
124
330
3A
100
AcDbEntity
  8
LAYER_1
 62
     7
100
AcDbSpline
210
0.0
220
0.0
230
1.0
 70
    11
 71
     3
 72
    17
 73
    13
 74
     0
 42
0.0000000001
 43
0.0000000001
 40
0.0
 40
0.0
 40
0.0
 40
0.0
 40
1.0
 40
1.0
 40
1.0
 40
2.0
 40
2.0
 40
2.0
 40
3.0
 40
3.0
 40
3.0
 40
4.0
 40
4.0
 40
4.0
 40
4.0
 10
25.89876369900173
 20
-14.99744805230035
 30
0.0
 10
26.00487263997396
 20
-14.93250800238715
 30
0.0
 10
26.04173516167534
 20
-14.86618991427951
 30
0.0
 10
25.9938483344184
 20
-14.7664543999566
 30
0.0
 10
26.02227037217882
 20
-14.68756171332465
 30
0.0
 10
25.98781941731771
 20
-14.62227715386285
 30
0.0
 10
25.94268866644965
 20
-14.65431654188368
 30
0.0
 10
25.85036010742187
 20
-14.61194186740451
 30
0.0
 10
25.83726874457465
 20
-14.73510403103298
 30
0.0
 10
25.82900051540798
 20
-14.83845689561632
 30
0.0
 10
25.82865600585937
 20
-14.91579928927951
 30
0.0
 10
25.90031399197049
 20
-14.98745727539062
 30
0.0
 10
25.89876369900173
 20
-14.99744805230035
 30
0.0
  0
SPLINE
  5
123
330
3A
100
AcDbEntity
  8
LAYER_1
 62
     7
100
AcDbSpline
210
0.0
220
0.0
230
1.0
 70
    11
 71
     3
 72
    17
 73
    13
 74
     0
 42
0.0000000001
 43
0.0000000001
 40
0.0
 40
0.0
 40
0.0
 40
0.0
 40
1.0
 40
1.0
 40
1.0
 40
2.0
 40
2.0
 40
2.0
 40
3.0
 40
3.0
 40
3.0
 40
4.0
 40
4.0
 40
4.0
 40
4.0
 10
25.25608113606771
 20
-17.24416707356771
 30
0.0
 10
25.33566284179687
 20
-17.28137410481771
 30
0.0
 10
25.43832668728298
 20
-17.11256442599826
 30
0.0
 10
25.50688408745659
 20
-17.07776896158854
 30
0.0
 10
25.43195326063368
 20
-17.11308119032118
 30
0.0
 10
25.37183634440104
 20
-16.98871324327257
 30
0.0
 10
25.26951700846354
 20
-16.9897467719184
 30
0.0
 10
25.12895711263021
 20
-17.00490519205729
 30
0.0
 10
25.05729912651909
 20
-17.07863023546007
 30
0.0
 10
25.03456149631076
 20
-17.1478766547309
 30
0.0
 10
25.07142401801215
 20
-17.11549275716146
 30
0.0
 10
25.09364488389757
 20
-17.26363186306423
 30
0.0
 10
25.25608113606771
 20
-17.24416707356771
 30
0.0
  0
SPLINE
  5
122
330
3A
100
AcDbEntity
  8
LAYER_1
 62
     7
100
AcDbSpline
210
0.0
220
0.0
230
1.0
 70
    11
 71
     3
 72
    17
 73
    13
 74
     0
 42
0.0000000001
 43
0.0000000001
 40
0.0
 40
0.0
 40
0.0
 40
0.0
 40
1.0
 40
1.0
 40
1.0
 40
2.0
 40
2.0
 40
2.0
 40
3.0
 40
3.0
 40
3.0
 40
4.0
 40
4.0
 40
4.0
 40
4.0
 10
23.83704630533854
 20
-15.72677476671007
 30
0.0
 10
23.85788913302951
 20
-15.71454467773437
 30
0.0
 10
23.90594821506076
 20
-15.61549818250868
 30
0.0
 10
23.9474616156684
 20
-15.56554429796007
 30
0.0
 10
23.92214016384548
 20
-15.50611640082465
 30
0.0
 10
23.86477932400173
 20
-15.43049655490451
 30
0.0
 10
23.83807983398437
 20
-15.4208502875434
 30
0.0
 10
23.78554212782118
 20
-15.44186537000868
 30
0.0
 10
23.73748304578993
 20
-15.46770358615451
 30
0.0
 10
23.72645874023437
 20
-15.57191772460937
 30
0.0
 10
23.68873494466146
 20
-15.64168090820312
 30
0.0
 10
23.75660332573785
 20
-15.68164401584201
 30
0.0
 10
23.83704630533854
 20
-15.72677476671007
 30
0.0
  0
SPLINE
  5
121
330
3A
100
AcDbEntity
  8
LAYER_1
 62
     7
100
AcDbSpline
210
0.0
220
0.0
230
1.0
 70
    11
 71
     3
 72
    17
 73
    13
 74
     0
 42
0.0000000001
 43
0.0000000001
 40
0.0
 40
0.0
 40
0.0
 40
0.0
 40
1.0
 40
1.0
 40
1.0
 40
2.0
 40
2.0
 40
2.0
 40
3.0
 40
3.0
 40
3.0
 40
4.0
 40
4.0
 40
4.0
 40
4.0
 10
26.27824096679687
 20
-13.72293497721354
 30
0.0
 10
26.29925604926215
 20
-13.71053263346354
 30
0.0
 10
26.34714287651909
 20
-13.61114162868924
 30
0.0
 10
26.38882853190104
 20
-13.56170450846354
 30
0.0
 10
26.36350708007812
 20
-13.50227661132812
 30
0.0
 10
26.30597398546007
 20
-13.42648451063368
 30
0.0
 10
26.27979125976562
 20
-13.41701049804687
 30
0.0
 10
26.22673678927951
 20
-13.43802558051215
 30
0.0
 10
26.17884996202257
 20
-13.46369154188368
 30
0.0
 10
26.16765340169271
 20
-13.56756117078993
 30
0.0
 10
26.13010186089409
 20
-13.63766886393229
 30
0.0
 10
26.19779798719618
 20
-13.67763197157118
 30
0.0
 10
26.27824096679687
 20
-13.72293497721354
 30
0.0
  0
SPLINE
  5
120
330
3A
100
AcDbEntity
  8
LAYER_1
 62
     7
100
AcDbSpline
210
0.0
220
0.0
230
1.0
 70
    11
 71
     3
 72
    17
 73
    13
 74
     0
 42
0.0000000001
 43
0.0000000001
 40
0.0
 40
0.0
 40
0.0
 40
0.0
 40
1.0
 40
1.0
 40
1.0
 40
2.0
 40
2.0
 40
2.0
 40
3.0
 40
3.0
 40
3.0
 40
4.0
 40
4.0
 40
4.0
 40
4.0
 10
21.70039808485243
 20
-16.20926038953993
 30
0.0
 10
21.75741441514757
 20
-16.16860826280382
 30
0.0
 10
21.77240058051215
 20
-16.09643351236979
 30
0.0
 10
21.78979831271701
 20
-16.0159905327691
 30
0.0
 10
21.78084106445312
 20
-15.96173027886285
 30
0.0
 10
21.72571953667535
 20
-15.91780531141493
 30
0.0
 10
21.70160386827257
 20
-15.93037990993924
 30
0.0
 10
21.63855862087673
 20
-15.87732543945312
 30
0.0
 10
21.60169609917535
 20
-15.97482164171007
 30
0.0
 10
21.59377237955729
 20
-16.06749471028646
 30
0.0
 10
21.57706366644965
 20
-16.15827297634548
 30
0.0
 10
21.60875854492187
 20
-16.17446492513021
 30
0.0
 10
21.70039808485243
 20
-16.20926038953993
 30
0.0
  0
SPLINE
  5
11F
330
3A
100
AcDbEntity
  8
LAYER_1
 62
     7
100
AcDbSpline
210
0.0
220
0.0
230
1.0
 70
    11
 71
     3
 72
    17
 73
    13
 74
     0
 42
0.0000000001
 43
0.0000000001
 40
0.0
 40
0.0
 40
0.0
 40
0.0
 40
1.0
 40
1.0
 40
1.0
 40
2.0
 40
2.0
 40
2.0
 40
3.0
 40
3.0
 40
3.0
 40
4.0
 40
4.0
 40
4.0
 40
4.0
 10
34.02298787434896
 20
-10.06252102322049
 30
0.0
 10
34.12875230577257
 20
-9.99758097330729
 30
0.0
 10
34.16595933702256
 20
-9.931435139973958
 30
0.0
 10
34.11755574544271
 20
-9.831527370876735
 30
0.0
 10
34.14615003797743
 20
-9.752634684244791
 30
0.0
 10
34.11169908311631
 20
-9.687350124782986
 30
0.0
 10
34.06656833224826
 20
-9.719389512803819
 30
0.0
 10
33.97423977322048
 20
-9.677014838324652
 30
0.0
 10
33.96114841037326
 20
-9.800177001953124
 30
0.0
 10
33.95270792643229
 20
-9.903702121310763
 30
0.0
 10
33.95270792643229
 20
-9.981216769748263
 30
0.0
 10
34.02453816731771
 20
-10.05253024631076
 30
0.0
 10
34.02298787434896
 20
-10.06252102322049
 30
0.0
  0
SPLINE
  5
11E
330
3A
100
AcDbEntity
  8
LAYER_1
 62
     7
100
AcDbSpline
210
0.0
220
0.0
230
1.0
 70
    11
 71
     3
 72
    17
 73
    13
 74
     0
 42
0.0000000001
 43
0.0000000001
 40
0.0
 40
0.0
 40
0.0
 40
0.0
 40
1.0
 40
1.0
 40
1.0
 40
2.0
 40
2.0
 40
2.0
 40
3.0
 40
3.0
 40
3.0
 40
4.0
 40
4.0
 40
4.0
 40
4.0
 10
32.28924357096354
 20
-13.88450995551215
 30
0.0
 10
32.36916978624132
 20
-13.92171698676215
 30
0.0
 10
32.47183363172743
 20
-13.75290730794271
 30
0.0
 10
32.54039103190104
 20
-13.71811184353298
 30
0.0
 10
32.46546020507812
 20
-13.75342407226562
 30
0.0
 10
32.40534328884549
 20
-13.62905612521701
 30
0.0
 10
32.30267944335937
 20
-13.63008965386285
 30
0.0
 10
32.16194729275173
 20
-13.64524807400174
 30
0.0
 10
32.09063381618923
 20
-13.71897311740451
 30
0.0
 10
32.06806844075521
 20
-13.78821953667535
 30
0.0
 10
32.10493096245659
 20
-13.7558356391059
 30
0.0
 10
32.12715182834201
 20
-13.90397474500868
 30
0.0
 10
32.28924357096354
 20
-13.88450995551215
 30
0.0
  0
SPLINE
  5
11D
330
3A
100
AcDbEntity
  8
LAYER_1
 62
     7
100
AcDbSpline
210
0.0
220
0.0
230
1.0
 70
    11
 71
     3
 72
    17
 73
    13
 74
     0
 42
0.0000000001
 43
0.0000000001
 40
0.0
 40
0.0
 40
0.0
 40
0.0
 40
1.0
 40
1.0
 40
1.0
 40
2.0
 40
2.0
 40
2.0
 40
3.0
 40
3.0
 40
3.0
 40
4.0
 40
4.0
 40
4.0
 40
4.0
 10
33.37996080186632
 20
-12.30975680881076
 30
0.0
 10
33.45988701714409
 20
-12.34644707573785
 30
0.0
 10
33.56220635308159
 20
-12.17780965169271
 30
0.0
 10
33.63110826280381
 20
-12.14284193250868
 30
0.0
 10
33.55583292643229
 20
-12.17815416124132
 30
0.0
 10
33.49554375542535
 20
-12.05378621419271
 30
0.0
 10
33.39339667426215
 20
-12.05499199761285
 30
0.0
 10
33.25266452365451
 20
-12.06997816297743
 30
0.0
 10
33.1810065375434
 20
-12.14370320638021
 30
0.0
 10
33.15844116210937
 20
-12.21294962565104
 30
0.0
 10
33.19564819335938
 20
-12.1805657280816
 30
0.0
 10
33.21786905924479
 20
-12.32870483398437
 30
0.0
 10
33.37996080186632
 20
-12.30975680881076
 30
0.0
  0
SPLINE
  5
11C
330
3A
100
AcDbEntity
  8
LAYER_1
 62
     7
100
AcDbSpline
210
0.0
220
0.0
230
1.0
 70
    11
 71
     3
 72
    17
 73
    13
 74
     0
 42
0.0000000001
 43
0.0000000001
 40
0.0
 40
0.0
 40
0.0
 40
0.0
 40
1.0
 40
1.0
 40
1.0
 40
2.0
 40
2.0
 40
2.0
 40
3.0
 40
3.0
 40
3.0
 40
4.0
 40
4.0
 40
4.0
 40
4.0
 10
29.97672322591146
 20
-12.82703789605035
 30
0.0
 10
30.12210625542534
 20
-12.85804375542535
 30
0.0
 10
30.15018378363715
 20
-12.79896036783854
 30
0.0
 10
30.14742770724826
 20
-12.73470933702257
 30
0.0
 10
30.17912258572049
 20
-12.66546291775174
 30
0.0
 10
30.12400105794271
 20
-12.63170098198785
 30
0.0
 10
29.99532674153646
 20
-12.67424791124132
 30
0.0
 10
29.91367797851562
 20
-12.66063978407118
 30
0.0
 10
29.83995293511284
 20
-12.6892340766059
 30
0.0
 10
29.80980834960937
 20
-12.7727776421441
 30
0.0
 10
29.85390557183159
 20
-12.78397420247396
 30
0.0
 10
29.8974860297309
 20
-12.83857896592882
 30
0.0
 10
29.97672322591146
 20
-12.82703789605035
 30
0.0
  0
SPLINE
  5
11B
330
3A
100
AcDbEntity
  8
LAYER_1
 62
     7
100
AcDbSpline
210
0.0
220
0.0
230
1.0
 70
    11
 71
     3
 72
    17
 73
    13
 74
     0
 42
0.0000000001
 43
0.0000000001
 40
0.0
 40
0.0
 40
0.0
 40
0.0
 40
1.0
 40
1.0
 40
1.0
 40
2.0
 40
2.0
 40
2.0
 40
3.0
 40
3.0
 40
3.0
 40
4.0
 40
4.0
 40
4.0
 40
4.0
 10
34.79778984917535
 20
-13.83662312825521
 30
0.0
 10
34.84705471462674
 20
-13.82473754882812
 30
0.0
 10
34.98210245768229
 20
-13.79338717990451
 30
0.0
 10
34.97262844509548
 20
-13.70502048068576
 30
0.0
 10
34.95195787217882
 20
-13.65437757703993
 30
0.0
 10
34.90751614040799
 20
-13.55843166775174
 30
0.0
 10
34.77281290690104
 20
-13.54413452148437
 30
0.0
 10
34.66153632269965
 20
-13.59805026584201
 30
0.0
 10
34.64499986436632
 20
-13.66023423936632
 30
0.0
 10
34.59263441297743
 20
-13.71931762695312
 30
0.0
 10
34.62346801757812
 20
-13.76927151150174
 30
0.0
 10
34.69478149414062
 20
-13.91034817165799
 30
0.0
 10
34.79778984917535
 20
-13.83662312825521
 30
0.0
  0
SPLINE
  5
11A
330
3A
100
AcDbEntity
  8
LAYER_1
 62
     7
100
AcDbSpline
210
0.0
220
0.0
230
1.0
 70
    11
 71
     3
 72
    17
 73
    13
 74
     0
 42
0.0000000001
 43
0.0000000001
 40
0.0
 40
0.0
 40
0.0
 40
0.0
 40
1.0
 40
1.0
 40
1.0
 40
2.0
 40
2.0
 40
2.0
 40
3.0
 40
3.0
 40
3.0
 40
4.0
 40
4.0
 40
4.0
 40
4.0
 10
29.23189358181423
 20
-15.54022284613715
 30
0.0
 10
29.3764153374566
 20
-15.56675008138021
 30
0.0
 10
29.37090318467882
 20
-15.48320651584201
 30
0.0
 10
29.46392076280382
 20
-15.4423821343316
 30
0.0
 10
29.44342244466145
 20
-15.34609171549479
 30
0.0
 10
29.2742682562934
 20
-15.29613783094618
 30
0.0
 10
29.19141370985243
 20
-15.24067179361979
 30
0.0
 10
29.05154283311632
 20
-15.28855862087674
 30
0.0
 10
29.03293931749132
 20
-15.31439683702257
 30
0.0
 10
29.03380059136284
 20
-15.4485833062066
 30
0.0
 10
28.98453572591146
 20
-15.53901706271701
 30
0.0
 10
29.07496948242187
 20
-15.61894327799479
 30
0.0
 10
29.23189358181423
 20
-15.54022284613715
 30
0.0
  0
SPLINE
  5
119
330
3A
100
AcDbEntity
  8
LAYER_1
 62
     7
100
AcDbSpline
210
0.0
220
0.0
230
1.0
 70
    11
 71
     3
 72
    17
 73
    13
 74
     0
 42
0.0000000001
 43
0.0000000001
 40
0.0
 40
0.0
 40
0.0
 40
0.0
 40
1.0
 40
1.0
 40
1.0
 40
2.0
 40
2.0
 40
2.0
 40
3.0
 40
3.0
 40
3.0
 40
4.0
 40
4.0
 40
4.0
 40
4.0
 10
31.96075371636285
 20
-10.79184773763021
 30
0.0
 10
31.98176879882812
 20
-10.77961764865451
 30
0.0
 10
32.02965562608507
 20
-10.68057115342882
 30
0.0
 10
32.07134128146701
 20
-10.63061726888021
 30
0.0
 10
32.0460198296441
 20
-10.5715338812934
 30
0.0
 10
31.98848673502604
 20
-10.49556952582465
 30
0.0
 10
31.96230400933159
 20
-10.48609551323785
 30
0.0
 10
31.90924953884548
 20
-10.50711059570312
 30
0.0
 10
31.86136271158854
 20
-10.53277655707465
 30
0.0
 10
31.85016615125868
 20
-10.63699069552951
 30
0.0
 10
31.81261461046007
 20
-10.70675387912326
 30
0.0
 10
31.88031073676215
 20
-10.74706149631076
 30
0.0
 10
31.96075371636285
 20
-10.79184773763021
 30
0.0
  0
SPLINE
  5
118
330
3A
100
AcDbEntity
  8
LAYER_1
 62
     7
100
AcDbSpline
210
0.0
220
0.0
230
1.0
 70
    11
 71
     3
 72
    17
 73
    13
 74
     0
 42
0.0000000001
 43
0.0000000001
 40
0.0
 40
0.0
 40
0.0
 40
0.0
 40
1.0
 40
1.0
 40
1.0
 40
2.0
 40
2.0
 40
2.0
 40
3.0
 40
3.0
 40
3.0
 40
4.0
 40
4.0
 40
4.0
 40
4.0
 10
29.82410549587673
 20
-11.27450561523437
 30
0.0
 10
29.88112182617187
 20
-11.23368123372396
 30
0.0
 10
29.89662475585937
 20
-11.16150648328993
 30
0.0
 10
29.91367797851562
 20
-11.08106350368924
 30
0.0
 10
29.90489298502604
 20
-11.02680324978299
 30
0.0
 10
29.84994371202257
 20
-10.98287828233507
 30
0.0
 10
29.82565578884548
 20
-10.99545288085937
 30
0.0
 10
29.76226603190104
 20
-10.94239841037326
 30
0.0
 10
29.72540351019965
 20
-11.03989461263021
 30
0.0
 10
29.71799655490451
 20
-11.13308444552951
 30
0.0
 10
29.70128784179687
 20
-11.22334594726562
 30
0.0
 10
29.73263821072048
 20
-11.23953789605035
 30
0.0
 10
29.82410549587673
 20
-11.27450561523437
 30
0.0
  0
SPLINE
  5
117
330
3A
100
AcDbEntity
  8
LAYER_1
 62
     7
100
AcDbSpline
210
0.0
220
0.0
230
1.0
 70
    11
 71
     3
 72
    17
 73
    13
 74
     0
 42
0.0000000001
 43
0.0000000001
 40
0.0
 40
0.0
 40
0.0
 40
0.0
 40
1.0
 40
1.0
 40
1.0
 40
2.0
 40
2.0
 40
2.0
 40
3.0
 40
3.0
 40
3.0
 40
4.0
 40
4.0
 40
4.0
 40
4.0
 10
34.68410169813368
 20
-21.3336676703559
 30
0.0
 10
34.72768215603298
 20
-21.25322469075521
 30
0.0
 10
34.83396335177951
 20
-21.2559807671441
 30
0.0
 10
34.79865112304687
 20
-21.14504869249132
 30
0.0
 10
34.76971232096354
 20
-21.0143073187934
 30
0.0
 10
34.77212388780382
 20
-20.96039157443576
 30
0.0
 10
34.61364949544271
 20
-20.97899509006076
 30
0.0
 10
34.57403089735243
 20
-20.9924309624566
 30
0.0
 10
34.47412312825521
 20
-21.06822306315104
 30
0.0
 10
34.47739596896701
 20
-21.14470418294271
 30
0.0
 10
34.4646491156684
 20
-21.22342461480034
 30
0.0
 10
34.51925387912326
 20
-21.31782023111979
 30
0.0
 10
34.68410169813368
 20
-21.3336676703559
 30
0.0
  0
SPLINE
  5
116
330
3A
100
AcDbEntity
  8
LAYER_1
 62
     7
100
AcDbSpline
210
0.0
220
0.0
230
1.0
 70
    11
 71
     3
 72
    17
 73
    13
 74
     0
 42
0.0000000001
 43
0.0000000001
 40
0.0
 40
0.0
 40
0.0
 40
0.0
 40
1.0
 40
1.0
 40
1.0
 40
2.0
 40
2.0
 40
2.0
 40
3.0
 40
3.0
 40
3.0
 40
4.0
 40
4.0
 40
4.0
 40
4.0
 10
33.52327677408854
 20
-14.64604831271701
 30
0.0
 10
33.60613132052951
 20
-14.62778930664062
 30
0.0
 10
33.65953030056424
 20
-14.54252319335937
 30
0.0
 10
33.64058227539062
 20
-14.49032999674479
 30
0.0
 10
33.67038235134548
 20
-14.36234469943576
 30
0.0
 10
33.62352905273437
 20
-14.35597127278646
 30
0.0
 10
33.48882581922743
 20
-14.31325208875868
 30
0.0
 10
33.39977010091145
 20
-14.33616197374132
 30
0.0
 10
33.36566365559896
 20
-14.37457478841146
 30
0.0
 10
33.3300069173177
 20
-14.47999471028646
 30
0.0
 10
33.39098510742187
 20
-14.54700181749132
 30
0.0
 10
33.46591593424479
 20
-14.61900431315104
 30
0.0
 10
33.52327677408854
 20
-14.64604831271701
 30
0.0
  0
SPLINE
  5
115
330
3A
100
AcDbEntity
  8
LAYER_1
 62
     7
100
AcDbSpline
210
0.0
220
0.0
230
1.0
 70
    11
 71
     3
 72
    17
 73
    13
 74
     0
 42
0.0000000001
 43
0.0000000001
 40
0.0
 40
0.0
 40
0.0
 40
0.0
 40
1.0
 40
1.0
 40
1.0
 40
2.0
 40
2.0
 40
2.0
 40
3.0
 40
3.0
 40
3.0
 40
4.0
 40
4.0
 40
4.0
 40
4.0
 10
34.34097018771701
 20
-16.81042955186632
 30
0.0
 10
34.44759589301215
 20
-16.80870700412326
 30
0.0
 10
34.51529201931423
 20
-16.75840861002604
 30
0.0
 10
34.48445841471354
 20
-16.68985120985243
 30
0.0
 10
34.46740519205729
 20
-16.58770412868924
 30
0.0
 10
34.44518432617187
 20
-16.52827623155382
 30
0.0
 10
34.36043497721354
 20
-16.50812242296007
 30
0.0
 10
34.21470743815104
 20
-16.53775024414063
 30
0.0
 10
34.15958591037326
 20
-16.57065090603298
 30
0.0
 10
34.20161607530382
 20
-16.63765801323785
 30
0.0
 10
34.20282185872396
 20
-16.70173678927951
 30
0.0
 10
34.23124389648437
 20
-16.80078328450521
 30
0.0
 10
34.34097018771701
 20
-16.81042955186632
 30
0.0
  0
SPLINE
  5
114
330
3A
100
AcDbEntity
  8
LAYER_1
 62
     7
100
AcDbSpline
210
0.0
220
0.0
230
1.0
 70
    11
 71
     3
 72
    17
 73
    13
 74
     0
 42
0.0000000001
 43
0.0000000001
 40
0.0
 40
0.0
 40
0.0
 40
0.0
 40
1.0
 40
1.0
 40
1.0
 40
2.0
 40
2.0
 40
2.0
 40
3.0
 40
3.0
 40
3.0
 40
4.0
 40
4.0
 40
4.0
 40
4.0
 10
34.35681762695312
 20
-19.03492770724826
 30
0.0
 10
34.3778327094184
 20
-19.02304212782118
 30
0.0
 10
34.42589179144965
 20
-18.92365112304687
 30
0.0
 10
34.46740519205729
 20
-18.87369723849826
 30
0.0
 10
34.44208374023437
 20
-18.81461385091146
 30
0.0
 10
34.38455064561632
 20
-18.73864949544271
 30
0.0
 10
34.35854017469618
 20
-18.7290032280816
 30
0.0
 10
34.30531344943576
 20
-18.75053507486979
 30
0.0
 10
34.25742662217882
 20
-18.77620103624132
 30
0.0
 10
34.24640231662326
 20
-18.88007066514757
 30
0.0
 10
34.20867852105035
 20
-18.95017835828993
 30
0.0
 10
34.27654690212673
 20
-18.99014146592882
 30
0.0
 10
34.35681762695312
 20
-19.03492770724826
 30
0.0
  0
SPLINE
  5
113
330
3A
100
AcDbEntity
  8
LAYER_1
 62
     7
100
AcDbSpline
210
0.0
220
0.0
230
1.0
 70
    11
 71
     3
 72
    17
 73
    13
 74
     0
 42
0.0000000001
 43
0.0000000001
 40
0.0
 40
0.0
 40
0.0
 40
0.0
 40
1.0
 40
1.0
 40
1.0
 40
2.0
 40
2.0
 40
2.0
 40
3.0
 40
3.0
 40
3.0
 40
4.0
 40
4.0
 40
4.0
 40
4.0
 10
32.68301798502604
 20
-21.31385837131076
 30
0.0
 10
32.76501125759548
 20
-21.34159138997396
 30
0.0
 10
32.80187377929687
 20
-21.26941663953993
 30
0.0
 10
32.8430426703559
 20
-21.13471340603298
 30
0.0
 10
32.84976060655382
 20
-20.99019165039062
 30
0.0
 10
32.77534654405382
 20
-20.86806301540798
 30
0.0
 10
32.72298109266493
 20
-20.91560533311632
 30
0.0
 10
32.65804104275173
 20
-20.92077297634549
 30
0.0
 10
32.59068942599826
 20
-21.02188652886284
 30
0.0
 10
32.61566636827256
 20
-21.08475952148437
 30
0.0
 10
32.63737046983507
 20
-21.20998874240451
 30
0.0
 10
32.6601081000434
 20
-21.30748494466146
 30
0.0
 10
32.68301798502604
 20
-21.31385837131076
 30
0.0
  0
SPLINE
  5
112
330
3A
100
AcDbEntity
  8
LAYER_1
 62
     7
100
AcDbSpline
210
0.0
220
0.0
230
1.0
 70
    11
 71
     3
 72
    17
 73
    13
 74
     0
 42
0.0000000001
 43
0.0000000001
 40
0.0
 40
0.0
 40
0.0
 40
0.0
 40
1.0
 40
1.0
 40
1.0
 40
2.0
 40
2.0
 40
2.0
 40
3.0
 40
3.0
 40
3.0
 40
4.0
 40
4.0
 40
4.0
 40
4.0
 10
-33.74462415907118
 20
-39.45710923936632
 30
0.0
 10
-33.37737698025173
 20
-39.59508531358507
 30
0.0
 10
-33.27436862521701
 20
-39.40594957139756
 30
0.0
 10
-33.30141262478298
 20
-39.02647230360243
 30
0.0
 10
-33.33035142686632
 20
-38.88694593641493
 30
0.0
 10
-33.38581746419271
 20
-38.58946194118924
 30
0.0
 10
-33.71689114040798
 20
-38.57326999240451
 30
0.0
 10
-34.1080817328559
 20
-38.64647827148437
 30
0.0
 10
-34.22642076280382
 20
-38.78566012912326
 30
0.0
 10
-34.12616848415799
 20
-39.02009887695312
 30
0.0
 10
-34.23003811306423
 20
-39.36529744466146
 30
0.0
 10
-34.1328864203559
 20
-39.52377183702257
 30
0.0
 10
-33.74462415907118
 20
-39.45710923936632
 30
0.0
  0
SPLINE
  5
111
330
3A
100
AcDbEntity
  8
LAYER_1
 62
     7
100
AcDbSpline
210
0.0
220
0.0
230
1.0
 70
    11
 71
     3
 72
    17
 73
    13
 74
     0
 42
0.0000000001
 43
0.0000000001
 40
0.0
 40
0.0
 40
0.0
 40
0.0
 40
1.0
 40
1.0
 40
1.0
 40
2.0
 40
2.0
 40
2.0
 40
3.0
 40
3.0
 40
3.0
 40
4.0
 40
4.0
 40
4.0
 40
4.0
 10
8.103295220269096
 20
-56.3208516438802
 30
0.0
 10
8.337044949001735
 20
-56.41938137478298
 30
0.0
 10
8.63297865125868
 20
-56.27003648546007
 30
0.0
 10
8.457106526692707
 20
-55.96979641384548
 30
0.0
 10
8.629016791449653
 20
-55.81959025065104
 30
0.0
 10
8.439536539713542
 20
-55.66473320855035
 30
0.0
 10
8.111563449435764
 20
-55.6230475531684
 30
0.0
 10
7.787552218967013
 20
-55.61598510742187
 30
0.0
 10
7.557247585720486
 20
-55.84267239040798
 30
0.0
 10
7.499025472005208
 20
-55.93052232530381
 30
0.0
 10
7.577056884765624
 20
-56.14377373589409
 30
0.0
 10
7.865066867404513
 20
-56.40715128580729
 30
0.0
 10
8.103295220269096
 20
-56.3208516438802
 30
0.0
  0
SPLINE
  5
110
330
3A
100
AcDbEntity
  8
LAYER_1
 62
     7
100
AcDbSpline
210
0.0
220
0.0
230
1.0
 70
    11
 71
     3
 72
    17
 73
    13
 74
     0
 42
0.0000000001
 43
0.0000000001
 40
0.0
 40
0.0
 40
0.0
 40
0.0
 40
1.0
 40
1.0
 40
1.0
 40
2.0
 40
2.0
 40
2.0
 40
3.0
 40
3.0
 40
3.0
 40
4.0
 40
4.0
 40
4.0
 40
4.0
 10
11.44658813476563
 20
-46.45409817165798
 30
0.0
 10
11.68085462782118
 20
-46.55280015733506
 30
0.0
 10
11.97627156575521
 20
-46.40345526801215
 30
0.0
 10
11.80091620551215
 20
-46.10355970594618
 30
0.0
 10
11.9728264702691
 20
-45.95335354275174
 30
0.0
 10
11.78334621853299
 20
-45.79815199110243
 30
0.0
 10
11.45537312825521
 20
-45.75646633572048
 30
0.0
 10
11.13084513346354
 20
-45.74974839952257
 30
0.0
 10
10.90071275499132
 20
-45.97591891818576
 30
0.0
 10
10.84249064127604
 20
-46.06428561740451
 30
0.0
 10
10.92052205403646
 20
-46.27753702799479
 30
0.0
 10
11.20887654622396
 20
-46.54091457790798
 30
0.0
 10
11.44658813476563
 20
-46.45409817165798
 30
0.0
  0
SPLINE
  5
10F
330
3A
100
AcDbEntity
  8
LAYER_1
 62
     7
100
AcDbSpline
210
0.0
220
0.0
230
1.0
 70
    11
 71
     3
 72
    17
 73
    13
 74
     0
 42
0.0000000001
 43
0.0000000001
 40
0.0
 40
0.0
 40
0.0
 40
0.0
 40
1.0
 40
1.0
 40
1.0
 40
2.0
 40
2.0
 40
2.0
 40
3.0
 40
3.0
 40
3.0
 40
4.0
 40
4.0
 40
4.0
 40
4.0
 10
-32.4554694281684
 20
-43.54109768337673
 30
0.0
 10
-32.16745944552951
 20
-43.54144219292535
 30
0.0
 10
-31.98676418728298
 20
-43.32474568684896
 30
0.0
 10
-31.79590589735243
 20
-43.09254625108507
 30
0.0
 10
-31.99244859483507
 20
-42.53581882052951
 30
0.0
 10
-32.25582614474826
 20
-42.51015285915798
 30
0.0
 10
-32.5236823187934
 20
-42.49034356011284
 30
0.0
 10
-32.73951755099826
 20
-42.48086954752604
 30
0.0
 10
-33.10280287000868
 20
-42.71255221896701
 30
0.0
 10
-33.00375637478298
 20
-42.91116197374132
 30
0.0
 10
-32.99789971245659
 20
-43.35557929144965
 30
0.0
 10
-32.77052341037326
 20
-43.4689229329427
 30
0.0
 10
-32.4554694281684
 20
-43.54109768337673
 30
0.0
  0
ELLIPSE
  5
10E
330
3A
100
AcDbEntity
  8
LAYER_1
 62
     7
100
AcDbEllipse
 10
-20.06828409830729
 20
-21.58042263454861
 30
0.0
 11
0.0
 21
-0.3213412814670139
 31
0.0
210
0.0
220
0.0
230
1.0
 40
0.7493969924489117
 41
0.0
 42
6.283185307179586
  0
ELLIPSE
  5
10D
330
3A
100
AcDbEntity
  8
LAYER_1
 62
     7
100
AcDbEllipse
 10
-21.09044392903646
 20
-19.19503851996528
 30
0.0
 11
0.3212551540798611
 21
8.612738715277777E-5
 31
0.0
210
0.0
220
0.0
230
1.0
 40
0.7498659247940432
 41
0.0
 42
6.283185307179586
  0
CIRCLE
  5
10C
330
3A
100
AcDbEntity
  8
LAYER_1
 62
     7
100
AcDbCircle
 10
-21.71538425021701
 20
-20.44440239800347
 30
0.0
 40
0.241070556640625
  0
SPLINE
  5
10B
330
3A
100
AcDbEntity
  8
LAYER_1
 62
     7
100
AcDbSpline
210
0.0
220
0.0
230
1.0
 70
    11
 71
     3
 72
    17
 73
    13
 74
     0
 42
0.0000000001
 43
0.0000000001
 40
0.0
 40
0.0
 40
0.0
 40
0.0
 40
1.0
 40
1.0
 40
1.0
 40
2.0
 40
2.0
 40
2.0
 40
3.0
 40
3.0
 40
3.0
 40
4.0
 40
4.0
 40
4.0
 40
4.0
 10
-19.93168606228299
 20
-20.59503919813368
 30
0.0
 10
-19.6436760796441
 20
-20.59555596245659
 30
0.0
 10
-19.46298082139757
 20
-20.37834269205729
 30
0.0
 10
-19.27195027669271
 20
-20.14666002061632
 30
0.0
 10
-19.46849297417534
 20
-19.58993259006076
 30
0.0
 10
-19.73204277886284
 20
-19.56392211914062
 30
0.0
 10
-19.99989895290798
 20
-19.54411282009549
 30
0.0
 10
-20.21573418511285
 20
-19.53446655273437
 30
0.0
 10
-20.57901950412326
 20
-19.76666598849826
 30
0.0
 10
-20.47997300889757
 20
-19.96510348849826
 30
0.0
 10
-20.47411634657118
 20
-20.40934855143229
 30
0.0
 10
-20.24656778971354
 20
-20.52269219292534
 30
0.0
 10
-19.93168606228299
 20
-20.59503919813368
 30
0.0
  0
SPLINE
  5
10A
330
3A
100
AcDbEntity
  8
LAYER_1
 62
     7
100
AcDbSpline
210
0.0
220
0.0
230
1.0
 70
    11
 71
     3
 72
    17
 73
    13
 74
     0
 42
0.0000000001
 43
0.0000000001
 40
0.0
 40
0.0
 40
0.0
 40
0.0
 40
1.0
 40
1.0
 40
1.0
 40
2.0
 40
2.0
 40
2.0
 40
3.0
 40
3.0
 40
3.0
 40
4.0
 40
4.0
 40
4.0
 40
4.0
 10
3.900106472439236
 20
-54.50304701063367
 30
0.0
 10
4.360026719835069
 20
-54.52130601671006
 30
0.0
 10
4.608934868706597
 20
-54.02297295464409
 30
0.0
 10
4.525219048394097
 20
-53.65400322808159
 30
0.0
 10
4.505065239800347
 20
-53.54978908962673
 30
0.0
 10
4.297153727213542
 20
-53.10571628146701
 30
0.0
 10
3.933351643880208
 20
-53.25196058485243
 30
0.0
 10
3.732847086588541
 20
-53.09021335177951
 30
0.0
 10
3.275682915581597
 20
-53.4433356391059
 30
0.0
 10
3.336661105685764
 20
-53.85416327582465
 30
0.0
 10
3.381447347005208
 20
-54.09824829101562
 30
0.0
 10
3.621570502387153
 20
-54.49322848849826
 30
0.0
 10
3.900106472439236
 20
-54.50304701063367
 30
0.0
  0
SPLINE
  5
109
330
3A
100
AcDbEntity
  8
LAYER_1
 62
     7
100
AcDbSpline
210
0.0
220
0.0
230
1.0
 70
    11
 71
     3
 72
    17
 73
    13
 74
     0
 42
0.0000000001
 43
0.0000000001
 40
0.0
 40
0.0
 40
0.0
 40
0.0
 40
1.0
 40
1.0
 40
1.0
 40
2.0
 40
2.0
 40
2.0
 40
3.0
 40
3.0
 40
3.0
 40
4.0
 40
4.0
 40
4.0
 40
4.0
 10
-3.262936062282986
 20
-31.21127319335937
 30
0.0
 10
-2.803015814887153
 20
-31.22953219943576
 30
0.0
 10
-2.554107666015625
 20
-30.73119913736979
 30
0.0
 10
-2.638167995876736
 20
-30.36222941080729
 30
0.0
 10
-2.657977294921875
 20
-30.25767076280382
 30
0.0
 10
-2.866405571831597
 20
-29.81394246419271
 30
0.0
 10
-3.229690890842014
 20
-29.96018676757812
 30
0.0
 10
-3.43019544813368
 20
-29.7980950249566
 30
0.0
 10
-3.887359619140625
 20
-30.1515618218316
 30
0.0
 10
-3.826381429036458
 20
-30.56204494900173
 30
0.0
 10
-3.781939697265625
 20
-30.80647447374132
 30
0.0
 10
-3.541472032335069
 20
-31.20145467122396
 30
0.0
 10
-3.262936062282986
 20
-31.21127319335937
 30
0.0
  0
SPLINE
  5
108
330
3A
100
AcDbEntity
  8
LAYER_1
 62
     7
100
AcDbSpline
210
0.0
220
0.0
230
1.0
 70
    11
 71
     3
 72
    17
 73
    13
 74
     0
 42
0.0000000001
 43
0.0000000001
 40
0.0
 40
0.0
 40
0.0
 40
0.0
 40
1.0
 40
1.0
 40
1.0
 40
2.0
 40
2.0
 40
2.0
 40
3.0
 40
3.0
 40
3.0
 40
4.0
 40
4.0
 40
4.0
 40
4.0
 10
-10.75360717773437
 20
-50.0729987250434
 30
0.0
 10
-10.4165045844184
 20
-50.06576402452257
 30
0.0
 10
-10.35225355360243
 20
-49.77017483181423
 30
0.0
 10
-10.22599080403646
 20
-49.42911037868923
 30
0.0
 10
-10.12212117513021
 20
-48.98383178710937
 30
0.0
 10
-10.6209710015191
 20
-48.76437920464409
 30
0.0
 10
-10.73500366210937
 20
-48.82897474500868
 30
0.0
 10
-11.31946411132812
 20
-48.74095255533854
 30
0.0
 10
-11.38509318033854
 20
-49.20138956705729
 30
0.0
 10
-11.4457268608941
 20
-49.39552069769965
 30
0.0
 10
-11.56906127929687
 20
-49.85268486870659
 30
0.0
 10
-11.15065443250868
 20
-49.96396145290798
 30
0.0
 10
-10.75360717773437
 20
-50.0729987250434
 30
0.0
  0
SPLINE
  5
107
330
3A
100
AcDbEntity
  8
LAYER_1
 62
     7
100
AcDbSpline
210
0.0
220
0.0
230
1.0
 70
    11
 71
     3
 72
    17
 73
    13
 74
     0
 42
0.0000000001
 43
0.0000000001
 40
0.0
 40
0.0
 40
0.0
 40
0.0
 40
1.0
 40
1.0
 40
1.0
 40
2.0
 40
2.0
 40
2.0
 40
3.0
 40
3.0
 40
3.0
 40
4.0
 40
4.0
 40
4.0
 40
4.0
 10
-15.79860500759549
 20
-36.50638495551215
 30
0.0
 10
-15.17710978190104
 20
-36.31104804144965
 30
0.0
 10
-14.96626993815104
 20
-36.11657240125868
 30
0.0
 10
-15.05256958007812
 20
-35.47974650065104
 30
0.0
 10
-15.01897989908854
 20
-35.07735934787326
 30
0.0
 10
-15.39690687391493
 20
-34.52614407009548
 30
0.0
 10
-15.94571058485243
 20
-34.64551662868924
 30
0.0
 10
-16.36205037434896
 20
-34.60538126627604
 30
0.0
 10
-16.48848537868923
 20
-34.74284057617187
 30
0.0
 10
-16.74876234266493
 20
-35.25960489908854
 30
0.0
 10
-16.72378540039063
 20
-35.80358547634548
 30
0.0
 10
-16.20443725585938
 20
-36.27969767252604
 30
0.0
 10
-15.79860500759549
 20
-36.50638495551215
 30
0.0
  0
SPLINE
  5
106
330
3A
100
AcDbEntity
  8
LAYER_1
 62
     7
100
AcDbSpline
210
0.0
220
0.0
230
1.0
 70
    11
 71
     3
 72
    17
 73
    13
 74
     0
 42
0.0000000001
 43
0.0000000001
 40
0.0
 40
0.0
 40
0.0
 40
0.0
 40
1.0
 40
1.0
 40
1.0
 40
2.0
 40
2.0
 40
2.0
 40
3.0
 40
3.0
 40
3.0
 40
4.0
 40
4.0
 40
4.0
 40
4.0
 10
-8.344796413845485
 20
-44.38376803927951
 30
0.0
 10
-8.169785563151041
 20
-44.42648722330729
 30
0.0
 10
-7.878502739800346
 20
-44.12349107530382
 30
0.0
 10
-7.972037082248264
 20
-43.89129163953993
 30
0.0
 10
-7.912609185112847
 20
-43.74229125976562
 30
0.0
 10
-8.17874281141493
 20
-43.55091620551215
 30
0.0
 10
-8.344107394748264
 20
-43.35988566080729
 30
0.0
 10
-8.637974039713541
 20
-43.43877834743923
 30
0.0
 10
-8.963191053602429
 20
-43.75331556532117
 30
0.0
 10
-8.97714369032118
 20
-43.90438300238715
 30
0.0
 10
-8.862249755859374
 20
-44.29264526367187
 30
0.0
 10
-8.828143310546874
 20
-44.37498304578993
 30
0.0
 10
-8.344796413845485
 20
-44.38376803927951
 30
0.0
  0
SPLINE
  5
105
330
3A
100
AcDbEntity
  8
LAYER_1
 62
     7
100
AcDbSpline
210
0.0
220
0.0
230
1.0
 70
    11
 71
     3
 72
    17
 73
    13
 74
     0
 42
0.0000000001
 43
0.0000000001
 40
0.0
 40
0.0
 40
0.0
 40
0.0
 40
1.0
 40
1.0
 40
1.0
 40
2.0
 40
2.0
 40
2.0
 40
3.0
 40
3.0
 40
3.0
 40
4.0
 40
4.0
 40
4.0
 40
4.0
 10
-7.108696153428819
 20
-48.15614759657117
 30
0.0
 10
-6.71526624891493
 20
-48.03574150933159
 30
0.0
 10
-6.439486355251735
 20
-47.82782999674479
 30
0.0
 10
-6.268437364366319
 20
-47.34396633572048
 30
0.0
 10
-6.377819146050347
 20
-47.07662692599826
 30
0.0
 10
-6.787785508897569
 20
-46.6067159016927
 30
0.0
 10
-7.26251966688368
 20
-46.63238186306423
 30
0.0
 10
-7.584463840060764
 20
-46.63996107313368
 30
0.0
 10
-8.046451144748263
 20
-47.06594712999132
 30
0.0
 10
-8.104328748914929
 20
-47.50519680447048
 30
0.0
 10
-8.116214328342013
 20
-47.77942640516493
 30
0.0
 10
-7.708142768012152
 20
-48.14081692165798
 30
0.0
 10
-7.108696153428819
 20
-48.15614759657117
 30
0.0
  0
SPLINE
  5
104
330
3A
100
AcDbEntity
  8
LAYER_1
 62
     7
100
AcDbSpline
210
0.0
220
0.0
230
1.0
 70
    11
 71
     3
 72
    17
 73
    13
 74
     0
 42
0.0000000001
 43
0.0000000001
 40
0.0
 40
0.0
 40
0.0
 40
0.0
 40
1.0
 40
1.0
 40
1.0
 40
2.0
 40
2.0
 40
2.0
 40
3.0
 40
3.0
 40
3.0
 40
4.0
 40
4.0
 40
4.0
 40
4.0
 10
-15.77965698242187
 20
-46.43825073242187
 30
0.0
 10
-15.59344957139757
 20
-46.46133287217882
 30
0.0
 10
-15.49319729275173
 20
-46.34678344726562
 30
0.0
 10
-15.45082261827257
 20
-46.20295071072048
 30
0.0
 10
-15.38433227539062
 20
-45.96007147894965
 30
0.0
 10
-15.59069349500868
 20
-45.70461764865451
 30
0.0
 10
-15.85889417860243
 20
-45.83725382486979
 30
0.0
 10
-16.03114895290798
 20
-45.87136027018229
 30
0.0
 10
-16.16757473415798
 20
-45.9430182562934
 30
0.0
 10
-16.10642428927951
 20
-46.11113891601562
 30
0.0
 10
-16.17377590603298
 20
-46.40311075846354
 30
0.0
 10
-15.95914645724826
 20
-46.44152357313368
 30
0.0
 10
-15.77965698242187
 20
-46.43825073242187
 30
0.0
  0
SPLINE
  5
103
330
3A
100
AcDbEntity
  8
LAYER_1
 62
     7
100
AcDbSpline
210
0.0
220
0.0
230
1.0
 70
    11
 71
     3
 72
    17
 73
    13
 74
     0
 42
0.0000000001
 43
0.0000000001
 40
0.0
 40
0.0
 40
0.0
 40
0.0
 40
1.0
 40
1.0
 40
1.0
 40
2.0
 40
2.0
 40
2.0
 40
3.0
 40
3.0
 40
3.0
 40
4.0
 40
4.0
 40
4.0
 40
4.0
 10
13.20892673068576
 20
-43.03983629014756
 30
0.0
 10
13.58719821506076
 20
-43.04896579318576
 30
0.0
 10
13.86332261827257
 20
-42.65243530273437
 30
0.0
 10
13.81423000759549
 20
-42.55855645073785
 30
0.0
 10
13.8736579047309
 20
-42.01526489257812
 30
0.0
 10
13.55205824110243
 20
-41.90760565863715
 30
0.0
 10
13.20444810655382
 20
-41.96892835828993
 30
0.0
 10
12.90782538519965
 20
-41.89003567165798
 30
0.0
 10
12.78139038085937
 20
-41.99476657443576
 30
0.0
 10
12.80516153971354
 20
-42.40404391818576
 30
0.0
 10
12.75451863606771
 20
-42.68964233398437
 30
0.0
 10
12.86183336046007
 20
-42.97851359049479
 30
0.0
 10
13.20892673068576
 20
-43.03983629014756
 30
0.0
  0
SPLINE
  5
102
330
3A
100
AcDbEntity
  8
LAYER_1
 62
     7
100
AcDbSpline
210
0.0
220
0.0
230
1.0
 70
    11
 71
     3
 72
    17
 73
    13
 74
     0
 42
0.0000000001
 43
0.0000000001
 40
0.0
 40
0.0
 40
0.0
 40
0.0
 40
1.0
 40
1.0
 40
1.0
 40
2.0
 40
2.0
 40
2.0
 40
3.0
 40
3.0
 40
3.0
 40
4.0
 40
4.0
 40
4.0
 40
4.0
 10
-20.23709377712673
 20
-38.8953864203559
 30
0.0
 10
-19.84021877712673
 20
-38.84388224283854
 30
0.0
 10
-19.49588148328993
 20
-38.69212578667534
 30
0.0
 10
-19.5074225531684
 20
-38.46113213433159
 30
0.0
 10
-19.53791164822048
 20
-38.18104587131076
 30
0.0
 10
-19.89568481445312
 20
-37.83756985134549
 30
0.0
 10
-20.26241522894965
 20
-37.86771443684896
 30
0.0
 10
-20.54939168294271
 20
-37.85014444986979
 30
0.0
 10
-20.93283081054687
 20
-38.00431247287326
 30
0.0
 10
-20.92249552408854
 20
-38.2752692328559
 30
0.0
 10
-21.00138821072049
 20
-38.55466647677951
 30
0.0
 10
-20.69546373155382
 20
-38.81528795030382
 30
0.0
 10
-20.23709377712673
 20
-38.8953864203559
 30
0.0
  0
SPLINE
  5
101
330
3A
100
AcDbEntity
  8
LAYER_1
 62
     7
100
AcDbSpline
210
0.0
220
0.0
230
1.0
 70
    11
 71
     3
 72
    17
 73
    13
 74
     0
 42
0.0000000001
 43
0.0000000001
 40
0.0
 40
0.0
 40
0.0
 40
0.0
 40
1.0
 40
1.0
 40
1.0
 40
2.0
 40
2.0
 40
2.0
 40
3.0
 40
3.0
 40
3.0
 40
4.0
 40
4.0
 40
4.0
 40
4.0
 10
-5.300882297092014
 20
-25.99109225802951
 30
0.0
 10
-4.904351806640625
 20
-25.93924357096354
 30
0.0
 10
-4.559670003255208
 20
-25.78800387912326
 30
0.0
 10
-4.57121107313368
 20
-25.55649346245659
 30
0.0
 10
-4.601700168185763
 20
-25.27692396375868
 30
0.0
 10
-4.959473334418402
 20
-24.93327568901909
 30
0.0
 10
-5.32620374891493
 20
-24.96342027452257
 30
0.0
 10
-5.613180202907985
 20
-24.9456780327691
 30
0.0
 10
-5.996619330512152
 20
-25.10019056532118
 30
0.0
 10
-5.986284044053819
 20
-25.37114732530382
 30
0.0
 10
-6.065521240234374
 20
-25.65037231445312
 30
0.0
 10
-5.759252251519096
 20
-25.91116604275173
 30
0.0
 10
-5.300882297092014
 20
-25.99109225802951
 30
0.0
  0
CIRCLE
  5
100
330
3A
100
AcDbEntity
  8
LAYER_1
 62
     7
100
AcDbCircle
 10
-29.7238532172309
 20
-22.00158555772569
 30
0.0
 40
0.2408983018663194
  0
CIRCLE
  5
FF
330
3A
100
AcDbEntity
  8
LAYER_1
 62
     7
100
AcDbCircle
 10
-30.85970119900173
 20
-20.04201524522569
 30
0.0
 40
0.2408983018663194
  0
ELLIPSE
  5
FE
330
3A
100
AcDbEntity
  8
LAYER_1
 62
     7
100
AcDbEllipse
 10
-31.93887736002604
 20
-21.46191134982639
 30
0.0
 11
0.0
 21
-0.2408983018663194
 31
0.0
210
0.0
220
0.0
230
1.0
 40
0.6678585154329402
 41
0.0
 42
6.283185307179586
  0
SPLINE
  5
FD
330
3A
100
AcDbEntity
  8
LAYER_1
 62
     7
100
AcDbSpline
210
0.0
220
0.0
230
1.0
 70
    11
 71
     3
 72
    17
 73
    13
 74
     0
 42
0.0000000001
 43
0.0000000001
 40
0.0
 40
0.0
 40
0.0
 40
0.0
 40
1.0
 40
1.0
 40
1.0
 40
2.0
 40
2.0
 40
2.0
 40
3.0
 40
3.0
 40
3.0
 40
4.0
 40
4.0
 40
4.0
 40
4.0
 10
-33.02752753363715
 20
-16.66487426757812
 30
0.0
 10
-32.56760728624132
 20
-16.68313327365451
 30
0.0
 10
-32.3188713921441
 20
-16.18480021158854
 30
0.0
 10
-32.40241495768229
 20
-15.81600273980035
 30
0.0
 10
-32.42256876627604
 20
-15.71127183702257
 30
0.0
 10
-32.63065253363715
 20
-15.26754353841146
 30
0.0
 10
-32.99393785264757
 20
-15.41378784179687
 30
0.0
 10
-33.19478691948785
 20
-15.25221286349826
 30
0.0
 10
-33.65195109049479
 20
-15.60516289605035
 30
0.0
 10
-33.59097290039063
 20
-16.0159905327691
 30
0.0
 10
-33.54618665907118
 20
-16.26007554796007
 30
0.0
 10
-33.30606350368923
 20
-16.65505574544271
 30
0.0
 10
-33.02752753363715
 20
-16.66487426757812
 30
0.0
  0
SPLINE
  5
FC
330
3A
100
AcDbEntity
  8
LAYER_1
 62
     7
100
AcDbSpline
210
0.0
220
0.0
230
1.0
 70
    11
 71
     3
 72
    17
 73
    13
 74
     0
 42
0.0000000001
 43
0.0000000001
 40
0.0
 40
0.0
 40
0.0
 40
0.0
 40
1.0
 40
1.0
 40
1.0
 40
2.0
 40
2.0
 40
2.0
 40
3.0
 40
3.0
 40
3.0
 40
4.0
 40
4.0
 40
4.0
 40
4.0
 10
-26.25085245768229
 20
-20.85945027669271
 30
0.0
 10
-25.85380520290799
 20
-20.80742933485243
 30
0.0
 10
-25.50964016384548
 20
-20.65618964301215
 30
0.0
 10
-25.52066446940104
 20
-20.4251959906684
 30
0.0
 10
-25.55149807400174
 20
-20.14510972764757
 30
0.0
 10
-25.90927124023437
 20
-19.80163370768229
 30
0.0
 10
-26.2758293999566
 20
-19.83160603841146
 30
0.0
 10
-26.56297810872396
 20
-19.81386379665798
 30
0.0
 10
-26.94658949110243
 20
-19.96837632921007
 30
0.0
 10
-26.93625420464409
 20
-20.23933308919271
 30
0.0
 10
-27.01514689127604
 20
-20.51873033311632
 30
0.0
 10
-26.70887790256076
 20
-20.77935180664062
 30
0.0
 10
-26.25085245768229
 20
-20.85945027669271
 30
0.0
  0
SPLINE
  5
FB
330
3A
100
AcDbEntity
  8
LAYER_1
 62
     7
100
AcDbSpline
210
0.0
220
0.0
230
1.0
 70
    11
 71
     3
 72
    17
 73
    13
 74
     0
 42
0.0000000001
 43
0.0000000001
 40
0.0
 40
0.0
 40
0.0
 40
0.0
 40
1.0
 40
1.0
 40
1.0
 40
2.0
 40
2.0
 40
2.0
 40
3.0
 40
3.0
 40
3.0
 40
4.0
 40
4.0
 40
4.0
 40
4.0
 10
4.203619384765625
 20
-26.57796427408854
 30
0.0
 10
4.51385023328993
 20
-26.3814215766059
 30
0.0
 10
4.785496012369792
 20
-26.17626614040798
 30
0.0
 10
4.633050537109375
 20
-25.94406670464409
 30
0.0
 10
4.67353040907118
 20
-25.53840671115451
 30
0.0
 10
4.354514567057291
 20
-25.24557359483507
 30
0.0
 10
4.018962266710069
 20
-25.20268215603299
 30
0.0
 10
3.913197835286458
 20
-25.42661336263021
 30
0.0
 10
3.55111829969618
 20
-25.46502617730035
 30
0.0
 10
3.434501817491319
 20
-25.96456502278646
 30
0.0
 10
3.655676947699652
 20
-26.09582316080729
 30
0.0
 10
3.698051622178819
 20
-26.53989596896701
 30
0.0
 10
4.203619384765625
 20
-26.57796427408854
 30
0.0
  0
SPLINE
  5
FA
330
3A
100
AcDbEntity
  8
LAYER_1
 62
     7
100
AcDbSpline
210
0.0
220
0.0
230
1.0
 70
    11
 71
     3
 72
    17
 73
    13
 74
     0
 42
0.0000000001
 43
0.0000000001
 40
0.0
 40
0.0
 40
0.0
 40
0.0
 40
1.0
 40
1.0
 40
1.0
 40
2.0
 40
2.0
 40
2.0
 40
3.0
 40
3.0
 40
3.0
 40
4.0
 40
4.0
 40
4.0
 40
4.0
 10
-24.7255364312066
 20
-43.93883395724826
 30
0.0
 10
-24.41926744249132
 20
-43.86355862087673
 30
0.0
 10
-23.93747083875868
 20
-43.31234334309895
 30
0.0
 10
-23.88803371853298
 20
-42.77869805230034
 30
0.0
 10
-23.87494235568576
 20
-42.45382554796007
 30
0.0
 10
-24.44114379882812
 20
-42.00854695638021
 30
0.0
 10
-24.65456746419271
 20
-42.11362236870659
 30
0.0
 10
-25.04214070638021
 20
-41.93723347981771
 30
0.0
 10
-25.46037529839409
 20
-42.43797810872395
 30
0.0
 10
-25.31671481662326
 20
-42.8143547905816
 30
0.0
 10
-25.49964938693576
 20
-43.25618828667535
 30
0.0
 10
-25.07383558485243
 20
-43.7633063422309
 30
0.0
 10
-24.7255364312066
 20
-43.93883395724826
 30
0.0
  0
ELLIPSE
  5
F9
330
3A
100
AcDbEntity
  8
LAYER_1
 62
     7
100
AcDbEllipse
 10
2.028127712673611
 20
-51.6791022406684
 30
0.0
 11
0.2979146321614583
 21
0.1204060872395833
 31
0.0
210
0.0
220
0.0
230
1.0
 40
0.5994713799112302
 41
0.0
 42
6.283185307179586
  0
ELLIPSE
  5
F8
330
3A
100
AcDbEntity
  8
LAYER_1
 62
     7
100
AcDbEllipse
 10
8.161258951822916
 20
-29.97698160807292
 30
0.0
 11
0.2977423773871527
 21
0.120147705078125
 31
0.0
210
0.0
220
0.0
230
1.0
 40
0.6008973343042244
 41
0.0
 42
6.283185307179586
  0
ELLIPSE
  5
F7
330
3A
100
AcDbEntity
  8
LAYER_1
 62
     7
100
AcDbEllipse
 10
3.174483235677083
 20
-50.72584431966146
 30
0.0
 11
0.2233283148871528
 21
0.0902615017361111
 31
0.0
210
0.0
220
0.0
230
1.0
 40
0.7999478278242296
 41
0.0
 42
6.283185307179586
  0
ELLIPSE
  5
F6
330
3A
100
AcDbEntity
  8
LAYER_1
 62
     7
100
AcDbEllipse
 10
17.92069769965278
 20
-26.08307630750868
 30
0.0
 11
0.2235005696614583
 21
0.0902615017361111
 31
0.0
210
0.0
220
0.0
230
1.0
 40
0.7991500597985035
 41
0.0
 42
6.283185307179586
  0
ELLIPSE
  5
F5
330
3A
100
AcDbEntity
  8
LAYER_1
 62
     7
100
AcDbEllipse
 10
15.10881076388889
 20
-29.13034939236111
 30
0.0
 11
0.2236728244357639
 21
0.09051988389756943
 31
0.0
210
0.0
220
0.0
230
1.0
 40
0.7995606201221482
 41
0.0
 42
6.283185307179586
  0
ELLIPSE
  5
F4
330
3A
100
AcDbEntity
  8
LAYER_1
 62
     7
100
AcDbEllipse
 10
4.736834038628472
 20
-51.71191677517361
 30
0.0
 11
0.2235005696614583
 21
0.09034762912326388
 31
0.0
210
0.0
220
0.0
230
1.0
 40
0.7993744192289257
 41
0.0
 42
6.283185307179586
  0
ELLIPSE
  5
F3
330
3A
100
AcDbEntity
  8
LAYER_1
 62
     7
100
AcDbEllipse
 10
29.26953125
 20
-36.81222330729166
 30
0.0
 11
0.07208862304687499
 21
-0.1787143283420139
 31
0.0
210
0.0
220
0.0
230
1.0
 40
0.833515294695692
 41
0.0
 42
6.283185307179586
  0
ELLIPSE
  5
F2
330
3A
100
AcDbEntity
  8
LAYER_1
 62
     7
100
AcDbEllipse
 10
18.93157484266493
 20
-29.2914076063368
 30
0.0
 11
0.07234700520833333
 21
-0.1787143283420139
 31
0.0
210
0.0
220
0.0
230
1.0
 40
0.8343393827743717
 41
0.0
 42
6.283185307179586
  0
ELLIPSE
  5
F1
330
3A
100
AcDbEntity
  8
LAYER_1
 62
     7
100
AcDbEllipse
 10
9.836608886718748
 20
-28.58955552842882
 30
0.0
 11
0.07208862304687499
 21
-0.1788004557291666
 31
0.0
210
0.0
220
0.0
230
1.0
 40
0.8336732106737498
 41
0.0
 42
6.283185307179586
  0
ELLIPSE
  5
F0
330
3A
100
AcDbEntity
  8
LAYER_1
 62
     7
100
AcDbEllipse
 10
23.10556640625
 20
-37.93050130208333
 30
0.0
 11
0.07208862304687499
 21
-0.1788865831163194
 31
0.0
210
0.0
220
0.0
230
1.0
 40
0.8333189416056203
 41
0.0
 42
6.283185307179586
  0
ELLIPSE
  5
EF
330
3A
100
AcDbEntity
  8
LAYER_1
 62
     7
100
AcDbEllipse
 10
11.00208468967014
 20
-30.71612684461805
 30
0.0
 11
0.07208862304687499
 21
-0.1787143283420139
 31
0.0
210
0.0
220
0.0
230
1.0
 40
0.8343440741766792
 41
0.0
 42
6.283185307179586
  0
ELLIPSE
  5
EE
330
3A
100
AcDbEntity
  8
LAYER_1
 62
     7
100
AcDbEllipse
 10
17.3882581922743
 20
-28.19991522894965
 30
0.0
 11
0.07208862304687499
 21
-0.1786282009548611
 31
0.0
210
0.0
220
0.0
230
1.0
 40
0.83402859548548
 41
0.0
 42
6.283185307179586
  0
ELLIPSE
  5
ED
330
3A
100
AcDbEntity
  8
LAYER_1
 62
     7
100
AcDbEllipse
 10
10.01876831054687
 20
-51.18688422309027
 30
0.0
 11
0.09629041883680556
 21
-0.2383144802517361
 31
0.0
210
0.0
220
0.0
230
1.0
 40
0.6249748078086794
 41
0.0
 42
6.283185307179586
  0
ELLIPSE
  5
EC
330
3A
100
AcDbEntity
  8
LAYER_1
 62
     7
100
AcDbEllipse
 10
27.38282470703125
 20
-24.63673909505208
 30
0.0
 11
0.09620429144965277
 21
-0.2383144802517361
 31
0.0
210
0.0
220
0.0
230
1.0
 40
0.6247424075339383
 41
0.0
 42
6.283185307179586
  0
ELLIPSE
  5
EB
330
3A
100
AcDbEntity
  8
LAYER_1
 62
     7
100
AcDbEllipse
 10
8.480188666449653
 20
-52.83751559787326
 30
0.0
 11
0.2235866970486111
 21
0.0902615017361111
 31
0.0
210
0.0
220
0.0
230
1.0
 40
0.7992870206294813
 41
0.0
 42
6.283185307179586
  0
ELLIPSE
  5
EA
330
3A
100
AcDbEntity
  8
LAYER_1
 62
     7
100
AcDbEllipse
 10
9.084372287326389
 20
-54.33311767578125
 30
0.0
 11
0.2236728244357639
 21
0.09034762912326388
 31
0.0
210
0.0
220
0.0
230
1.0
 40
0.5332488812195323
 41
0.0
 42
6.283185307179586
  0
ELLIPSE
  5
E9
330
3A
100
AcDbEntity
  8
LAYER_1
 62
     7
100
AcDbEllipse
 10
32.37769639756944
 20
-36.24249064127604
 30
0.0
 11
0.2236728244357639
 21
0.09026150173611111
 31
0.0
210
0.0
220
0.0
230
1.0
 40
0.5329890561289105
 41
0.0
 42
6.283185307179586
  0
ELLIPSE
  5
E8
330
3A
100
AcDbEntity
  8
LAYER_1
 62
     7
100
AcDbEllipse
 10
10.64362250434028
 20
-53.18857082790798
 30
0.0
 11
0.2233283148871527
 21
0.09043375651041666
 31
0.0
210
0.0
220
0.0
230
1.0
 40
0.7994655261134819
 41
0.0
 42
6.283185307179586
  0
ELLIPSE
  5
E7
330
3A
100
AcDbEntity
  8
LAYER_1
 62
     7
100
AcDbEllipse
 10
28.35012139214409
 20
-23.24138929578993
 30
0.0
 11
0.2235866970486111
 21
0.09043375651041664
 31
0.0
210
0.0
220
0.0
230
1.0
 40
0.5322269727761035
 41
0.0
 42
6.283185307179586
  0
ELLIPSE
  5
E6
330
3A
100
AcDbEntity
  8
LAYER_1
 62
     7
100
AcDbEllipse
 10
9.507774522569443
 20
-23.65402560763889
 30
0.0
 11
0.2233283148871528
 21
0.09034762912326388
 31
0.0
210
0.0
220
0.0
230
1.0
 40
0.7999042957561271
 41
0.0
 42
6.283185307179586
  0
ELLIPSE
  5
E5
330
3A
100
AcDbEntity
  8
LAYER_1
 62
     7
100
AcDbEllipse
 10
32.74184299045139
 20
-31.6848876953125
 30
0.0
 11
0.2233283148871528
 21
0.09000311957465276
 31
0.0
210
0.0
220
0.0
230
1.0
 40
0.8012639787487293
 41
0.0
 42
6.283185307179586
  0
ELLIPSE
  5
E4
330
3A
100
AcDbEntity
  8
LAYER_1
 62
     7
100
AcDbEllipse
 10
23.21891004774306
 20
-22.59465874565972
 30
0.0
 11
0.2235005696614583
 21
0.09034762912326388
 31
0.0
210
0.0
220
0.0
230
1.0
 40
0.7993744192289257
 41
0.0
 42
6.283185307179586
  0
ELLIPSE
  5
E3
330
3A
100
AcDbEntity
  8
LAYER_1
 62
     7
100
AcDbEllipse
 10
16.71810099283854
 20
-31.16588406032986
 30
0.0
 11
0.07234700520833333
 21
-0.1788865831163194
 31
0.0
210
0.0
220
0.0
230
1.0
 40
0.8333152803151678
 41
0.0
 42
6.283185307179586
  0
ELLIPSE
  5
E2
330
3A
100
AcDbEntity
  8
LAYER_1
 62
     7
100
AcDbEllipse
 10
3.486522759331597
 20
-55.81898735894097
 30
0.0
 11
0.09629041883680556
 21
-0.2383144802517361
 31
0.0
210
0.0
220
0.0
230
1.0
 40
0.9373394230078748
 41
0.0
 42
6.283185307179586
  0
ELLIPSE
  5
E1
330
3A
100
AcDbEntity
  8
LAYER_1
 62
     7
100
AcDbEllipse
 10
1.823489040798611
 20
-54.43259480794271
 30
0.0
 11
0.2980868869357639
 21
0.1204060872395833
 31
0.0
210
0.0
220
0.0
230
1.0
 40
0.5993742965668958
 41
0.0
 42
6.283185307179586
  0
ELLIPSE
  5
E0
330
3A
100
AcDbEntity
  8
LAYER_1
 62
     7
100
AcDbEllipse
 10
1.618850368923611
 20
-55.59341973198784
 30
0.0
 11
0.2235005696614583
 21
0.09043375651041666
 31
0.0
210
0.0
220
0.0
230
1.0
 40
0.798936082133903
 41
0.0
 42
6.283185307179586
  0
ELLIPSE
  5
DF
330
3A
100
AcDbEntity
  8
LAYER_1
 62
     7
100
AcDbEllipse
 10
16.65987887912326
 20
-29.27831624348958
 30
0.0
 11
0.2235866970486111
 21
0.09034762912326388
 31
0.0
210
0.0
220
0.0
230
1.0
 40
0.7995111564906956
 41
0.0
 42
6.283185307179586
  0
SPLINE
  5
DE
330
3A
100
AcDbEntity
  8
LAYER_1
 62
     7
100
AcDbSpline
210
0.0
220
0.0
230
1.0
 70
    11
 71
     3
 72
    17
 73
    13
 74
     0
 42
0.0000000001
 43
0.0000000001
 40
0.0
 40
0.0
 40
0.0
 40
0.0
 40
1.0
 40
1.0
 40
1.0
 40
2.0
 40
2.0
 40
2.0
 40
3.0
 40
3.0
 40
3.0
 40
4.0
 40
4.0
 40
4.0
 40
4.0
 10
28.32290513780382
 20
-13.38221503363715
 30
0.0
 10
28.70496622721354
 20
-13.34690280490451
 30
0.0
 10
28.7440680609809
 20
-13.16827460394965
 30
0.0
 10
28.60505845811632
 20
-12.8968010796441
 30
0.0
 10
28.5365010579427
 20
-12.80412801106771
 30
0.0
 10
28.39594116210937
 20
-12.60448472764757
 30
0.0
 10
28.08416002061632
 20
-12.71610582139757
 30
0.0
 10
27.74344007703993
 20
-12.91695488823785
 30
0.0
 10
27.67522718641493
 20
-13.0644049750434
 30
0.0
 10
27.8385247124566
 20
-13.2006585015191
 30
0.0
 10
27.84558715820312
 20
-13.49590318467882
 30
0.0
 10
27.98304646809896
 20
-13.57669067382812
 30
0.0
 10
28.32290513780382
 20
-13.38221503363715
 30
0.0
  0
SPLINE
  5
DD
330
3A
100
AcDbEntity
  8
LAYER_1
 62
     7
100
AcDbSpline
210
0.0
220
0.0
230
1.0
 70
    11
 71
     3
 72
    17
 73
    13
 74
     0
 42
0.0000000001
 43
0.0000000001
 40
0.0
 40
0.0
 40
0.0
 40
0.0
 40
1.0
 40
1.0
 40
1.0
 40
2.0
 40
2.0
 40
2.0
 40
3.0
 40
3.0
 40
3.0
 40
4.0
 40
4.0
 40
4.0
 40
4.0
 10
32.18502943250868
 20
-12.13250664605035
 30
0.0
 10
32.43135375976562
 20
-12.11786499023437
 30
0.0
 10
32.66114162868924
 20
-11.89651760525173
 30
0.0
 10
32.40809936523437
 20
-11.73959350585937
 30
0.0
 10
32.52247653537326
 20
-11.5637213812934
 30
0.0
 10
32.30061238606771
 20
-11.51962415907118
 30
0.0
 10
31.9841803656684
 20
-11.61160820855035
 30
0.0
 10
31.68101196289062
 20
-11.7280524359809
 30
0.0
 10
31.53562893337674
 20
-11.98247273763021
 30
0.0
 10
31.50789591471354
 20
-12.06963365342882
 30
0.0
 10
31.64414944118924
 20
-12.19830796983507
 30
0.0
 10
31.99055379231771
 20
-12.2859856499566
 30
0.0
 10
32.18502943250868
 20
-12.13250664605035
 30
0.0
  0
SPLINE
  5
DC
330
3A
100
AcDbEntity
  8
LAYER_1
 62
     7
100
AcDbSpline
210
0.0
220
0.0
230
1.0
 70
    11
 71
     3
 72
    17
 73
    13
 74
     0
 42
0.0000000001
 43
0.0000000001
 40
0.0
 40
0.0
 40
0.0
 40
0.0
 40
1.0
 40
1.0
 40
1.0
 40
2.0
 40
2.0
 40
2.0
 40
3.0
 40
3.0
 40
3.0
 40
4.0
 40
4.0
 40
4.0
 40
4.0
 10
34.11634996202257
 20
-36.78250935872396
 30
0.0
 10
34.36284654405382
 20
-36.76786770290799
 30
0.0
 10
34.59228990342881
 20
-36.54634806315104
 30
0.0
 10
34.33907538519965
 20
-36.38942396375868
 30
0.0
 10
34.45396931966145
 20
-36.21389634874132
 30
0.0
 10
34.23176066080729
 20
-36.16962687174479
 30
0.0
 10
33.91515638563368
 20
-36.26143866644965
 30
0.0
 10
33.6119879828559
 20
-36.37805514865451
 30
0.0
 10
33.46660495334201
 20
-36.63230319552951
 30
0.0
 10
33.43938869900173
 20
-36.71946411132812
 30
0.0
 10
33.57529771592882
 20
-36.84831068250868
 30
0.0
 10
33.92152981228298
 20
-36.9358161078559
 30
0.0
 10
34.11634996202257
 20
-36.78250935872396
 30
0.0
  0
SPLINE
  5
DB
330
3A
100
AcDbEntity
  8
LAYER_1
 62
     7
100
AcDbSpline
210
0.0
220
0.0
230
1.0
 70
    11
 71
     3
 72
    17
 73
    13
 74
     0
 42
0.0000000001
 43
0.0000000001
 40
0.0
 40
0.0
 40
0.0
 40
0.0
 40
1.0
 40
1.0
 40
1.0
 40
2.0
 40
2.0
 40
2.0
 40
3.0
 40
3.0
 40
3.0
 40
4.0
 40
4.0
 40
4.0
 40
4.0
 10
10.45853474934896
 20
-32.72590942382812
 30
0.0
 10
10.70451456705729
 20
-32.71126776801215
 30
0.0
 10
10.9343024359809
 20
-32.48974812825521
 30
0.0
 10
10.68126017252604
 20
-32.33299628363715
 30
0.0
 10
10.79563734266493
 20
-32.15695190429688
 30
0.0
 10
10.57377319335937
 20
-32.11302693684895
 30
0.0
 10
10.25734117296007
 20
-32.20501098632812
 30
0.0
 10
9.954172770182291
 20
-32.32145521375868
 30
0.0
 10
9.808789740668402
 20
-32.57535875108507
 30
0.0
 10
9.781056722005207
 20
-32.66286417643229
 30
0.0
 10
9.917310248480902
 20
-32.79171074761285
 30
0.0
 10
10.26371459960937
 20
-32.87921617296006
 30
0.0
 10
10.45853474934896
 20
-32.72590942382812
 30
0.0
  0
SPLINE
  5
DA
330
3A
100
AcDbEntity
  8
LAYER_1
 62
     7
100
AcDbSpline
210
0.0
220
0.0
230
1.0
 70
    11
 71
     3
 72
    17
 73
    13
 74
     0
 42
0.0000000001
 43
0.0000000001
 40
0.0
 40
0.0
 40
0.0
 40
0.0
 40
1.0
 40
1.0
 40
1.0
 40
2.0
 40
2.0
 40
2.0
 40
3.0
 40
3.0
 40
3.0
 40
4.0
 40
4.0
 40
4.0
 40
4.0
 10
32.54194132486979
 20
-16.25645819769965
 30
0.0
 10
32.80859171549479
 20
-16.14914347330729
 30
0.0
 10
32.91160007052951
 20
-15.92056138780382
 30
0.0
 10
33.01891479492187
 20
-15.67682088216146
 30
0.0
 10
32.66992662217881
 20
-15.33730672200521
 30
0.0
 10
32.41757337782118
 20
-15.41688842773437
 30
0.0
 10
32.16366984049479
 20
-15.50249905056423
 30
0.0
 10
31.96040920681423
 20
-15.57622409396701
 30
0.0
 10
31.69341430664062
 20
-15.88438788519965
 30
0.0
 10
31.84430948893229
 20
-15.99463094075521
 30
0.0
 10
31.98297458224826
 20
-16.32225952148437
 30
0.0
 10
32.22826538085937
 20
-16.32105373806423
 30
0.0
 10
32.54194132486979
 20
-16.25645819769965
 30
0.0
  0
SPLINE
  5
D9
330
3A
100
AcDbEntity
  8
LAYER_1
 62
     7
100
AcDbSpline
210
0.0
220
0.0
230
1.0
 70
    11
 71
     3
 72
    17
 73
    13
 74
     0
 42
0.0000000001
 43
0.0000000001
 40
0.0
 40
0.0
 40
0.0
 40
0.0
 40
1.0
 40
1.0
 40
1.0
 40
2.0
 40
2.0
 40
2.0
 40
3.0
 40
3.0
 40
3.0
 40
4.0
 40
4.0
 40
4.0
 40
4.0
 10
13.21478339301215
 20
-50.0729987250434
 30
0.0
 10
13.64662611219618
 20
-49.91400756835937
 30
0.0
 10
13.7279303656684
 20
-49.45133124457465
 30
0.0
 10
13.53965589735243
 20
-49.20931328667534
 30
0.0
 10
13.48970201280382
 20
-49.13920559353299
 30
0.0
 10
13.16414048936632
 20
-48.88788587782118
 30
0.0
 10
12.87096286349826
 20
-49.13231540256076
 30
0.0
 10
12.6363518608941
 20
-49.08770141601562
 30
0.0
 10
12.31819729275174
 20
-49.5210944281684
 30
0.0
 10
12.49820353190104
 20
-49.80273098415798
 30
0.0
 10
12.61258070203993
 20
-49.96723429361979
 30
0.0
 10
12.95381740993924
 20
-50.16997816297743
 30
0.0
 10
13.21478339301215
 20
-50.0729987250434
 30
0.0
  0
SPLINE
  5
D8
330
3A
100
AcDbEntity
  8
LAYER_1
 62
     7
100
AcDbSpline
210
0.0
220
0.0
230
1.0
 70
    11
 71
     3
 72
    17
 73
    13
 74
     0
 42
0.0000000001
 43
0.0000000001
 40
0.0
 40
0.0
 40
0.0
 40
0.0
 40
1.0
 40
1.0
 40
1.0
 40
2.0
 40
2.0
 40
2.0
 40
3.0
 40
3.0
 40
3.0
 40
4.0
 40
4.0
 40
4.0
 40
4.0
 10
21.91261596679687
 20
-40.0922125922309
 30
0.0
 10
22.22284681532118
 20
-39.96060994466146
 30
0.0
 10
22.19356350368923
 20
-39.71738620334201
 30
0.0
 10
22.20906643337673
 20
-39.41714613172743
 30
0.0
 10
22.17185940212674
 20
-39.04748738606771
 30
0.0
 10
21.64320949978298
 20
-39.0721198187934
 30
0.0
 10
21.5569098578559
 20
-39.16272583007812
 30
0.0
 10
20.98846910264757
 20
-39.31654934353298
 30
0.0
 10
21.06563924153646
 20
-39.68224622938368
 30
0.0
 10
21.06770629882812
 20
-39.84898885091145
 30
0.0
 10
21.09027167426215
 20
-40.23449503580729
 30
0.0
 10
21.51177910698785
 20
-40.15990871853298
 30
0.0
 10
21.91261596679687
 20
-40.0922125922309
 30
0.0
  0
SPLINE
  5
D7
330
3A
100
AcDbEntity
  8
LAYER_1
 62
     7
100
AcDbSpline
210
0.0
220
0.0
230
1.0
 70
    11
 71
     3
 72
    17
 73
    13
 74
     0
 42
0.0000000001
 43
0.0000000001
 40
0.0
 40
0.0
 40
0.0
 40
0.0
 40
1.0
 40
1.0
 40
1.0
 40
2.0
 40
2.0
 40
2.0
 40
3.0
 40
3.0
 40
3.0
 40
4.0
 40
4.0
 40
4.0
 40
4.0
 10
9.23914320203993
 20
-45.18837009006076
 30
0.0
 10
9.756596544053819
 20
-44.81078762478298
 30
0.0
 10
9.893539089626735
 20
-44.58737318250868
 30
0.0
 10
9.622582329644096
 20
-44.1476067437066
 30
0.0
 10
9.533526611328124
 20
-43.83651462131076
 30
0.0
 10
9.017623562282985
 20
-43.56917521158854
 30
0.0
 10
8.544956461588541
 20
-43.86304185655381
 30
0.0
 10
8.146875678168403
 20
-43.98947686089409
 30
0.0
 10
8.070739067925347
 20
-44.13882175021701
 30
0.0
 10
7.984439425998263
 20
-44.61941257052951
 30
0.0
 10
8.170646837022568
 20
-45.01370374891493
 30
0.0
 10
8.794898139105902
 20
-45.17252265082465
 30
0.0
 10
9.23914320203993
 20
-45.18837009006076
 30
0.0
  0
SPLINE
  5
D6
330
3A
100
AcDbEntity
  8
LAYER_1
 62
     7
100
AcDbSpline
210
0.0
220
0.0
230
1.0
 70
    11
 71
     3
 72
    17
 73
    13
 74
     0
 42
0.0000000001
 43
0.0000000001
 40
0.0
 40
0.0
 40
0.0
 40
0.0
 40
1.0
 40
1.0
 40
1.0
 40
2.0
 40
2.0
 40
2.0
 40
3.0
 40
3.0
 40
3.0
 40
4.0
 40
4.0
 40
4.0
 40
4.0
 10
-0.7571458604600694
 20
-51.43622300889756
 30
0.0
 10
-0.087591552734375
 20
-50.96045532226562
 30
0.0
 10
0.1260043674045139
 20
-50.58046129014757
 30
0.0
 10
-0.1723409016927083
 20
-50.31777275933159
 30
0.0
 10
-0.0949985080295139
 20
-49.93106079101562
 30
0.0
 10
-0.6243374294704861
 20
-49.63478257921007
 30
0.0
 10
-1.205180528428819
 20
-49.97860310872395
 30
0.0
 10
-1.551757134331597
 20
-49.88627454969618
 30
0.0
 10
-1.96826917860243
 20
-50.6002705891927
 30
0.0
 10
-1.598093668619792
 20
-51.08516777886284
 30
0.0
 10
-1.444097900390625
 20
-51.42709350585937
 30
0.0
 10
-1.131455485026042
 20
-51.47704739040798
 30
0.0
 10
-0.7571458604600694
 20
-51.43622300889756
 30
0.0
  0
SPLINE
  5
D5
330
3A
100
AcDbEntity
  8
LAYER_1
 62
     7
100
AcDbSpline
210
0.0
220
0.0
230
1.0
 70
    11
 71
     3
 72
    17
 73
    13
 74
     0
 42
0.0000000001
 43
0.0000000001
 40
0.0
 40
0.0
 40
0.0
 40
0.0
 40
1.0
 40
1.0
 40
1.0
 40
2.0
 40
2.0
 40
2.0
 40
3.0
 40
3.0
 40
3.0
 40
4.0
 40
4.0
 40
4.0
 40
4.0
 10
23.77434556749132
 20
-37.17387220594618
 30
0.0
 10
23.94952867296007
 20
-37.13976576063368
 30
0.0
 10
24.12850138346354
 20
-36.80593600802951
 30
0.0
 10
23.97243855794271
 20
-36.66882120768229
 30
0.0
 10
23.98277384440104
 20
-36.53601277669271
 30
0.0
 10
23.67891642252604
 20
-36.49363810221354
 30
0.0
 10
23.46859334309896
 20
-36.41405639648437
 30
0.0
 10
23.21934068467882
 20
-36.58286607530382
 30
0.0
 10
23.01211819118923
 20
-36.93771091037326
 30
0.0
 10
23.04415757921007
 20
-37.05501641167535
 30
0.0
 10
23.26722751193576
 20
-37.29996270073784
 30
0.0
 10
23.32355482313368
 20
-37.34871080186632
 30
0.0
 10
23.77434556749132
 20
-37.17387220594618
 30
0.0
  0
SPLINE
  5
D4
330
3A
100
AcDbEntity
  8
LAYER_1
 62
     7
100
AcDbSpline
210
0.0
220
0.0
230
1.0
 70
    11
 71
     3
 72
    17
 73
    13
 74
     0
 42
0.0000000001
 43
0.0000000001
 40
0.0
 40
0.0
 40
0.0
 40
0.0
 40
1.0
 40
1.0
 40
1.0
 40
2.0
 40
2.0
 40
2.0
 40
3.0
 40
3.0
 40
3.0
 40
4.0
 40
4.0
 40
4.0
 40
4.0
 10
26.05086466471354
 20
-39.50861341688368
 30
0.0
 10
26.37935451931423
 20
-39.27210761176215
 30
0.0
 10
26.57296888563368
 20
-39.01458672417535
 30
0.0
 10
26.58657701280382
 20
-38.59187350802951
 30
0.0
 10
26.40502048068576
 20
-38.43426038953993
 30
0.0
 10
25.88412204318576
 20
-38.23926798502604
 30
0.0
 10
25.45176255967882
 20
-38.43615519205729
 30
0.0
 10
25.15548434787326
 20
-38.56259019639757
 30
0.0
 10
24.85472751193576
 20
-39.05144924587673
 30
0.0
 10
24.93275892469618
 20
-39.39888712565104
 30
0.0
 10
25.00372789171007
 20
-39.60731540256076
 30
0.0
 10
25.49069213867187
 20
-39.72186482747396
 30
0.0
 10
26.05086466471354
 20
-39.50861341688368
 30
0.0
  0
SPLINE
  5
D3
330
3A
100
AcDbEntity
  8
LAYER_1
 62
     7
100
AcDbSpline
210
0.0
220
0.0
230
1.0
 70
    11
 71
     3
 72
    17
 73
    13
 74
     0
 42
0.0000000001
 43
0.0000000001
 40
0.0
 40
0.0
 40
0.0
 40
0.0
 40
1.0
 40
1.0
 40
1.0
 40
2.0
 40
2.0
 40
2.0
 40
3.0
 40
3.0
 40
3.0
 40
4.0
 40
4.0
 40
4.0
 40
4.0
 10
8.797826470269097
 20
-48.99296129014756
 30
0.0
 10
8.977660454644097
 20
-48.94025132921006
 30
0.0
 10
9.035538058810763
 20
-48.81777818467882
 30
0.0
 10
9.032265218098958
 20
-48.69496053059896
 30
0.0
 10
9.020724148220486
 20
-48.49014960394965
 30
0.0
 10
8.753040228949653
 20
-48.37801174587673
 30
0.0
 10
8.544267442491318
 20
-48.57662150065104
 30
0.0
 10
8.394405788845486
 20
-48.66688300238715
 30
0.0
 10
8.289502631293402
 20
-48.77109714084201
 30
0.0
 10
8.396817355685764
 20
-48.87255520290798
 30
0.0
 10
8.421449788411458
 20
-49.11457316080729
 30
0.0
 10
8.632117377387152
 20
-49.06272447374131
 30
0.0
 10
8.797826470269097
 20
-48.99296129014756
 30
0.0
  0
SPLINE
  5
D2
330
3A
100
AcDbEntity
  8
LAYER_1
 62
     7
100
AcDbSpline
210
0.0
220
0.0
230
1.0
 70
    11
 71
     3
 72
    17
 73
    13
 74
     0
 42
0.0000000001
 43
0.0000000001
 40
0.0
 40
0.0
 40
0.0
 40
0.0
 40
1.0
 40
1.0
 40
1.0
 40
2.0
 40
2.0
 40
2.0
 40
3.0
 40
3.0
 40
3.0
 40
4.0
 40
4.0
 40
4.0
 40
4.0
 10
11.06900566948785
 20
-29.53299492730034
 30
0.0
 10
11.42247246636285
 20
-29.39794718424479
 30
0.0
 10
11.55958726671007
 20
-29.00055541992187
 30
0.0
 10
11.4862067328559
 20
-28.94956800672743
 30
0.0
 10
11.37803073459201
 20
-28.5239264594184
 30
0.0
 10
11.04764607747396
 20
-28.56475084092882
 30
0.0
 10
10.74378865559896
 20
-28.74027845594618
 30
0.0
 10
10.44509887695312
 20
-28.79298841688368
 30
0.0
 10
10.35914374457465
 20
-28.91821763780382
 30
0.0
 10
10.50418226453993
 20
-29.21260104709201
 30
0.0
 10
10.54259507921007
 20
-29.44359469943576
 30
0.0
 10
10.72880249023437
 20
-29.61739976671007
 30
0.0
 10
11.06900566948785
 20
-29.53299492730034
 30
0.0
  0
SPLINE
  5
D1
330
3A
100
AcDbEntity
  8
LAYER_1
 62
     7
100
AcDbSpline
210
0.0
220
0.0
230
1.0
 70
    11
 71
     3
 72
    17
 73
    13
 74
     0
 42
0.0000000001
 43
0.0000000001
 40
0.0
 40
0.0
 40
0.0
 40
0.0
 40
1.0
 40
1.0
 40
1.0
 40
2.0
 40
2.0
 40
2.0
 40
3.0
 40
3.0
 40
3.0
 40
4.0
 40
4.0
 40
4.0
 40
4.0
 10
31.8568840874566
 20
-26.57004055447048
 30
0.0
 10
32.20914510091146
 20
-26.38297186957465
 30
0.0
 10
32.48285793728299
 20
-26.14129842122395
 30
0.0
 10
32.40327623155382
 20
-25.97421129014757
 30
0.0
 10
32.29079386393229
 20
-25.77801310221354
 30
0.0
 10
31.85653957790798
 20
-25.65726250542534
 30
0.0
 10
31.5252936469184
 20
-25.81677042643229
 30
0.0
 10
31.25399237738715
 20
-25.91151055230035
 30
0.0
 10
30.94462280273437
 20
-26.16937594943576
 30
0.0
 10
31.0352288140191
 20
-26.36677992078993
 30
0.0
 10
31.04590861002604
 20
-26.60328572591146
 30
0.0
 10
31.40816040039062
 20
-26.6821784125434
 30
0.0
 10
31.8568840874566
 20
-26.57004055447048
 30
0.0
  0
SPLINE
  5
D0
330
3A
100
AcDbEntity
  8
LAYER_1
 62
     7
100
AcDbSpline
210
0.0
220
0.0
230
1.0
 70
    11
 71
     3
 72
    17
 73
    13
 74
     0
 42
0.0000000001
 43
0.0000000001
 40
0.0
 40
0.0
 40
0.0
 40
0.0
 40
1.0
 40
1.0
 40
1.0
 40
2.0
 40
2.0
 40
2.0
 40
3.0
 40
3.0
 40
3.0
 40
4.0
 40
4.0
 40
4.0
 40
4.0
 10
19.80335625542535
 20
-32.23860066731771
 30
0.0
 10
20.15561726888021
 20
-32.05204874674479
 30
0.0
 10
20.42984686957465
 20
-31.8103752983941
 30
0.0
 10
20.34974839952257
 20
-31.6431159125434
 30
0.0
 10
20.23761054144965
 20
-31.44708997938368
 30
0.0
 10
19.80301174587673
 20
-31.32616712782118
 30
0.0
 10
19.47211032443576
 20
-31.48584730360243
 30
0.0
 10
19.2004645453559
 20
-31.58024291992187
 30
0.0
 10
18.89143948025173
 20
-31.8384528266059
 30
0.0
 10
18.98204549153646
 20
-32.03585679796007
 30
0.0
 10
18.99238077799479
 20
-32.2723626030816
 30
0.0
 10
19.35446031358507
 20
-32.35108303493924
 30
0.0
 10
19.80335625542535
 20
-32.23860066731771
 30
0.0
  0
SPLINE
  5
CF
330
3A
100
AcDbEntity
  8
LAYER_1
 62
     7
100
AcDbSpline
210
0.0
220
0.0
230
1.0
 70
    11
 71
     3
 72
    17
 73
    13
 74
     0
 42
0.0000000001
 43
0.0000000001
 40
0.0
 40
0.0
 40
0.0
 40
0.0
 40
1.0
 40
1.0
 40
1.0
 40
2.0
 40
2.0
 40
2.0
 40
3.0
 40
3.0
 40
3.0
 40
4.0
 40
4.0
 40
4.0
 40
4.0
 10
31.8909905327691
 20
-37.79071655273437
 30
0.0
 10
32.11957261827256
 20
-37.52854478624132
 30
0.0
 10
32.31025865342882
 20
-37.27446899414062
 30
0.0
 10
32.09907430013021
 20
-37.15957505967882
 30
0.0
 10
32.0150139702691
 20
-36.84314303927951
 30
0.0
 10
31.63157484266493
 20
-36.74564683702257
 30
0.0
 10
31.30739135742187
 20
-36.83952568901909
 30
0.0
 10
31.27655775282118
 20
-37.04554239908854
 30
0.0
 10
30.95254652235243
 20
-37.20952894422743
 30
0.0
 10
30.99440443250868
 20
-37.62362942165798
 30
0.0
 10
31.23848944769965
 20
-37.63827107747395
 30
0.0
 10
31.41091647677951
 20
-37.95160251193576
 30
0.0
 10
31.8909905327691
 20
-37.79071655273437
 30
0.0
  0
SPLINE
  5
CE
330
3A
100
AcDbEntity
  8
LAYER_1
 62
     7
100
AcDbSpline
210
0.0
220
0.0
230
1.0
 70
    11
 71
     3
 72
    17
 73
    13
 74
     0
 42
0.0000000001
 43
0.0000000001
 40
0.0
 40
0.0
 40
0.0
 40
0.0
 40
1.0
 40
1.0
 40
1.0
 40
2.0
 40
2.0
 40
2.0
 40
3.0
 40
3.0
 40
3.0
 40
4.0
 40
4.0
 40
4.0
 40
4.0
 10
29.20639987521701
 20
-31.99227634006076
 30
0.0
 10
29.46788262261284
 20
-31.82139960394965
 30
0.0
 10
29.74969143337673
 20
-31.23228827582465
 30
0.0
 10
29.63548651801215
 20
-30.81784328884548
 30
0.0
 10
29.55039265950521
 20
-30.57220798068576
 30
0.0
 10
28.89186265733507
 20
-30.45386895073785
 30
0.0
 10
28.7254645453559
 20
-30.61182657877604
 30
0.0
 10
28.31343112521701
 20
-30.6261237250434
 30
0.0
 10
28.07537502712673
 20
-31.15425686306423
 30
0.0
 10
28.32187160915798
 20
-31.37973836263021
 30
0.0
 10
28.28414781358507
 20
-31.77592434353298
 30
0.0
 10
28.83122897677951
 20
-31.99227634006076
 30
0.0
 10
29.20639987521701
 20
-31.99227634006076
 30
0.0
  0
ELLIPSE
  5
CD
330
3A
100
AcDbEntity
  8
LAYER_1
 62
     7
100
AcDbEllipse
 10
-28.56543986002604
 20
-12.12880316840278
 30
0.0
 11
0.3701755099826389
 21
0.0002583821614583332
 31
0.0
210
0.0
220
0.0
230
1.0
 40
0.4799905764194038
 41
0.0
 42
6.283185307179586
  0
ELLIPSE
  5
CC
330
3A
100
AcDbEntity
  8
LAYER_1
 62
     7
100
AcDbEllipse
 10
-26.92953626844618
 20
-11.71005181206597
 30
0.0
 11
0.2776746961805555
 21
0.0002583821614583333
 31
0.0
210
0.0
220
0.0
230
1.0
 40
0.6398880604392645
 41
0.0
 42
6.283185307179586
  0
ELLIPSE
  5
CB
330
3A
100
AcDbEntity
  8
LAYER_1
 62
     7
100
AcDbEllipse
 10
-25.68620130750868
 20
-13.09187961154514
 30
0.0
 11
0.2773301866319444
 21
8.612738715277777E-5
 31
0.0
210
0.0
220
0.0
230
1.0
 40
0.6406831989177123
 41
0.0
 42
6.283185307179586
  0
ELLIPSE
  5
CA
330
3A
100
AcDbEntity
  8
LAYER_1
 62
     7
100
AcDbEllipse
 10
-13.82043117947049
 20
-9.951761203342013
 30
0.0
 11
0.1607137044270833
 21
-0.0001722547743055555
 31
0.0
210
0.0
220
0.0
230
1.0
 40
0.9603424280248505
 41
0.0
 42
6.283185307179586
  0
ELLIPSE
  5
C9
330
3A
100
AcDbEntity
  8
LAYER_1
 62
     7
100
AcDbEllipse
 10
5.40526869032118
 20
-17.44449937608507
 30
0.0
 11
0.1607137044270833
 21
0.0001722547743055555
 31
0.0
210
0.0
220
0.0
230
1.0
 40
0.9603424280248505
 41
0.0
 42
6.283185307179586
  0
ELLIPSE
  5
C8
330
3A
100
AcDbEntity
  8
LAYER_1
 62
     7
100
AcDbEllipse
 10
-12.59948933919271
 20
-8.624968804253472
 30
0.0
 11
0.1608859592013889
 21
-0.0002583821614583333
 31
0.0
210
0.0
220
0.0
230
1.0
 40
0.9587782068045762
 41
0.0
 42
6.283185307179586
  0
ELLIPSE
  5
C7
330
3A
100
AcDbEntity
  8
LAYER_1
 62
     7
100
AcDbEllipse
 10
-13.11056925455729
 20
-12.22371554904514
 30
0.0
 11
0.1608859592013889
 21
8.612738715277777E-5
 31
0.0
210
0.0
220
0.0
230
1.0
 40
0.9577086422130742
 41
0.0
 42
6.283185307179586
  0
ELLIPSE
  5
C6
330
3A
100
AcDbEntity
  8
LAYER_1
 62
     7
100
AcDbEllipse
 10
-11.81814168294271
 20
-10.48540649414063
 30
0.0
 11
0.2411566840277777
 21
-0.0001722547743055555
 31
0.0
210
0.0
220
0.0
230
1.0
 40
0.4264284626458143
 41
0.0
 42
6.283185307179586
  0
ELLIPSE
  5
C5
330
3A
100
AcDbEntity
  8
LAYER_1
 62
     7
100
AcDbEllipse
 10
-10.86695081922743
 20
-12.20545654296875
 30
0.0
 11
0.3212551540798611
 21
-8.612738715277777E-5
 31
0.0
210
0.0
220
0.0
230
1.0
 40
0.4796246476426683
 41
0.0
 42
6.283185307179586
  0
ELLIPSE
  5
C4
330
3A
100
AcDbEntity
  8
LAYER_1
 62
     7
100
AcDbEllipse
 10
-16.00703328450521
 20
-6.553088378906249
 30
0.0
 11
0.0
 21
-0.2055860731336806
 31
0.0
210
0.0
220
0.0
230
1.0
 40
0.7800587635225993
 41
0.0
 42
6.283185307179586
  0
ELLIPSE
  5
C3
330
3A
100
AcDbEntity
  8
LAYER_1
 62
     7
100
AcDbEllipse
 10
-18.05169745551215
 20
-7.316349283854166
 30
0.0
 11
0.2408121744791667
 21
-0.0002583821614583333
 31
0.0
210
0.0
220
0.0
230
1.0
 40
0.6405575711945636
 41
0.0
 42
6.283185307179586
  0
ELLIPSE
  5
C2
330
3A
100
AcDbEntity
  8
LAYER_1
 62
     7
100
AcDbEllipse
 10
-18.05169745551215
 20
-8.606709798177082
 30
0.0
 11
0.2408121744791667
 21
-0.0002583821614583333
 31
0.0
210
0.0
220
0.0
230
1.0
 40
0.4266807272111191
 41
0.0
 42
6.283185307179586
  0
ELLIPSE
  5
C1
330
3A
100
AcDbEntity
  8
LAYER_1
 62
     7
100
AcDbEllipse
 10
-16.1773932562934
 20
-8.22525160047743
 30
0.0
 11
0.2408121744791666
 21
0.0001722547743055555
 31
0.0
210
0.0
220
0.0
230
1.0
 40
0.6409154297383378
 41
0.0
 42
6.283185307179586
  0
ELLIPSE
  5
C0
330
3A
100
AcDbEntity
  8
LAYER_1
 62
     7
100
AcDbEllipse
 10
-17.5972893608941
 20
-12.00581325954861
 30
0.0
 11
0.2408121744791666
 21
0.0004306369357638889
 31
0.0
210
0.0
220
0.0
230
1.0
 40
0.8537182343735739
 41
0.0
 42
6.283185307179586
  0
ELLIPSE
  5
BF
330
3A
100
AcDbEntity
  8
LAYER_1
 62
     7
100
AcDbEllipse
 10
-17.2284918891059
 20
-10.16096462673611
 30
0.0
 11
0.3212551540798611
 21
0.0002583821614583333
 31
0.0
210
0.0
220
0.0
230
1.0
 40
0.4801607026052935
 41
0.0
 42
6.283185307179586
  0
ELLIPSE
  5
BE
330
3A
100
AcDbEntity
  8
LAYER_1
 62
     7
100
AcDbEllipse
 10
7.19430677625868
 20
-21.29758029513889
 30
0.0
 11
0.0
 21
-0.2055860731336806
 31
0.0
210
0.0
220
0.0
230
1.0
 40
0.780896635207509
 41
0.0
 42
6.283185307179586
  0
ELLIPSE
  5
BD
330
3A
100
AcDbEntity
  8
LAYER_1
 62
     7
100
AcDbEllipse
 10
6.228818766276041
 20
-20.97055460611979
 30
0.0
 11
0.1605414496527778
 21
0.0001722547743055556
 31
0.0
210
0.0
220
0.0
230
1.0
 40
0.9613728371697303
 41
0.0
 42
6.283185307179586
  0
ELLIPSE
  5
BC
330
3A
100
AcDbEntity
  8
LAYER_1
 62
     7
100
AcDbEllipse
 10
-13.02530314127604
 20
-7.012491861979166
 30
0.0
 11
0.1607137044270833
 21
-0.0002583821614583333
 31
0.0
210
0.0
220
0.0
230
1.0
 40
0.9598058335247603
 41
0.0
 42
6.283185307179586
  0
ELLIPSE
  5
BB
330
3A
100
AcDbEntity
  8
LAYER_1
 62
     7
100
AcDbEllipse
 10
6.172146945529513
 20
-22.31551988389757
 30
0.0
 11
0.3214274088541667
 21
0.0001722547743055556
 31
0.0
210
0.0
220
0.0
230
1.0
 40
0.4801714208664058
 41
0.0
 42
6.283185307179586
  0
ELLIPSE
  5
BA
330
3A
100
AcDbEntity
  8
LAYER_1
 62
     7
100
AcDbEllipse
 10
-12.37211303710937
 20
-5.903343370225694
 30
0.0
 11
0.2409844292534722
 21
-8.612738715277777E-5
 31
0.0
210
0.0
220
0.0
230
1.0
 40
0.6393852343611353
 41
0.0
 42
6.283185307179586
  0
SPLINE
  5
B9
330
3A
100
AcDbEntity
  8
LAYER_1
 62
     7
100
AcDbSpline
210
0.0
220
0.0
230
1.0
 70
    11
 71
     3
 72
    17
 73
    13
 74
     0
 42
0.0000000001
 43
0.0000000001
 40
0.0
 40
0.0
 40
0.0
 40
0.0
 40
1.0
 40
1.0
 40
1.0
 40
2.0
 40
2.0
 40
2.0
 40
3.0
 40
3.0
 40
3.0
 40
4.0
 40
4.0
 40
4.0
 40
4.0
 10
-30.86004570855035
 20
-12.89404500325521
 30
0.0
 10
-30.33122355143229
 20
-13.02168579101562
 30
0.0
 10
-30.1825676812066
 20
-12.8473639594184
 30
0.0
 10
-30.22184176974826
 20
-12.49751451280382
 30
0.0
 10
-30.2633551703559
 20
-12.36918470594618
 30
0.0
 10
-30.34345364040798
 20
-12.09495510525174
 30
0.0
 10
-30.82008260091146
 20
-12.07945217556424
 30
0.0
 10
-31.38335571289062
 20
-12.14732055664062
 30
0.0
 10
-31.55371568467882
 20
-12.27565036349826
 30
0.0
 10
-31.40919392903646
 20
-12.49148559570312
 30
0.0
 10
-31.55888332790799
 20
-12.80964016384549
 30
0.0
 10
-31.41901245117187
 20
-12.95553995768229
 30
0.0
 10
-30.86004570855035
 20
-12.89404500325521
 30
0.0
  0
SPLINE
  5
B8
330
3A
100
AcDbEntity
  8
LAYER_1
 62
     7
100
AcDbSpline
210
0.0
220
0.0
230
1.0
 70
    11
 71
     3
 72
    17
 73
    13
 74
     0
 42
0.0000000001
 43
0.0000000001
 40
0.0
 40
0.0
 40
0.0
 40
0.0
 40
1.0
 40
1.0
 40
1.0
 40
2.0
 40
2.0
 40
2.0
 40
3.0
 40
3.0
 40
3.0
 40
4.0
 40
4.0
 40
4.0
 40
4.0
 10
-27.90260348849826
 20
-13.77271660698785
 30
0.0
 10
-27.5658454047309
 20
-13.86349487304687
 30
0.0
 10
-27.13985934787326
 20
-13.72603556315104
 30
0.0
 10
-27.39272935655382
 20
-13.44956665039062
 30
0.0
 10
-27.14502699110243
 20
-13.31090155707465
 30
0.0
 10
-27.41753404405382
 20
-13.16827460394965
 30
0.0
 10
-27.89020114474826
 20
-13.12986178927951
 30
0.0
 10
-28.35735609266493
 20
-13.12348836263021
 30
0.0
 10
-28.68860202365451
 20
-13.33191663953993
 30
0.0
 10
-28.77249009874132
 20
-13.41339314778646
 30
0.0
 10
-28.66000773111979
 20
-13.60959133572048
 30
0.0
 10
-28.24521823459201
 20
-13.85247056749132
 30
0.0
 10
-27.90260348849826
 20
-13.77271660698785
 30
0.0
  0
SPLINE
  5
B7
330
3A
100
AcDbEntity
  8
LAYER_1
 62
     7
100
AcDbSpline
210
0.0
220
0.0
230
1.0
 70
    11
 71
     3
 72
    17
 73
    13
 74
     0
 42
0.0000000001
 43
0.0000000001
 40
0.0
 40
0.0
 40
0.0
 40
0.0
 40
1.0
 40
1.0
 40
1.0
 40
2.0
 40
2.0
 40
2.0
 40
3.0
 40
3.0
 40
3.0
 40
4.0
 40
4.0
 40
4.0
 40
4.0
 10
-12.64823744032118
 20
-4.885231526692708
 30
0.0
 10
-12.41448771158854
 20
-4.948104519314236
 30
0.0
 10
-12.1185540093316
 20
-4.852675374348958
 30
0.0
 10
-12.29442613389757
 20
-4.660439046223958
 30
0.0
 10
-12.12251586914062
 20
-4.564320882161458
 30
0.0
 10
-12.31182386610243
 20
-4.464757622612847
 30
0.0
 10
-12.63979695638021
 20
-4.438230387369791
 30
0.0
 10
-12.96432495117187
 20
-4.433924018012152
 30
0.0
 10
-13.19411282009549
 20
-4.57896253797743
 30
0.0
 10
-13.25233493381076
 20
-4.635634358723958
 30
0.0
 10
-13.17430352105035
 20
-4.771887885199653
 30
0.0
 10
-12.88629353841146
 20
-4.94018079969618
 30
0.0
 10
-12.64823744032118
 20
-4.885231526692708
 30
0.0
  0
SPLINE
  5
B6
330
3A
100
AcDbEntity
  8
LAYER_1
 62
     7
100
AcDbSpline
210
0.0
220
0.0
230
1.0
 70
    11
 71
     3
 72
    17
 73
    13
 74
     0
 42
0.0000000001
 43
0.0000000001
 40
0.0
 40
0.0
 40
0.0
 40
0.0
 40
1.0
 40
1.0
 40
1.0
 40
2.0
 40
2.0
 40
2.0
 40
3.0
 40
3.0
 40
3.0
 40
4.0
 40
4.0
 40
4.0
 40
4.0
 10
3.489278835720486
 20
-18.69059041341146
 30
0.0
 10
3.826381429036458
 20
-18.68593953450521
 30
0.0
 10
3.89063245985243
 20
-18.4964592827691
 30
0.0
 10
4.016895209418403
 20
-18.27855699327257
 30
0.0
 10
4.120764838324653
 20
-17.99330308702257
 30
0.0
 10
3.621915011935764
 20
-17.85308770073785
 30
0.0
 10
3.507882351345486
 20
-17.89425659179688
 30
0.0
 10
2.923421902126736
 20
-17.83810153537326
 30
0.0
 10
2.857792833116319
 20
-18.13282945421007
 30
0.0
 10
2.797159152560764
 20
-18.25685289171007
 30
0.0
 10
2.673824734157986
 20
-18.54968600802951
 30
0.0
 10
3.09223158094618
 20
-18.6204827202691
 30
0.0
 10
3.489278835720486
 20
-18.69059041341146
 30
0.0
  0
SPLINE
  5
B5
330
3A
100
AcDbEntity
  8
LAYER_1
 62
     7
100
AcDbSpline
210
0.0
220
0.0
230
1.0
 70
    11
 71
     3
 72
    17
 73
    13
 74
     0
 42
0.0000000001
 43
0.0000000001
 40
0.0
 40
0.0
 40
0.0
 40
0.0
 40
1.0
 40
1.0
 40
1.0
 40
2.0
 40
2.0
 40
2.0
 40
3.0
 40
3.0
 40
3.0
 40
4.0
 40
4.0
 40
4.0
 40
4.0
 10
-20.46136949327257
 20
-10.62872246636285
 30
0.0
 10
-19.66227959526909
 20
-10.47644924587674
 30
0.0
 10
-19.32190416124132
 20
-10.25854695638021
 30
0.0
 10
-19.50018785264757
 20
-9.974154324001736
 30
0.0
 10
-19.28349134657118
 20
-9.71077677408854
 30
0.0
 10
-19.66348537868923
 20
-9.332333034939236
 30
0.0
 10
-20.33097262912326
 20
-9.413120524088541
 30
0.0
 10
-20.6174323187934
 20
-9.240865749782985
 30
0.0
 10
-21.27113918728298
 20
-9.645664469401041
 30
0.0
 10
-21.10956420898437
 20
-10.11643676757812
 30
0.0
 10
-21.0949225531684
 20
-10.4163323296441
 30
0.0
 10
-20.82344902886285
 20
-10.54707370334201
 30
0.0
 10
-20.46136949327257
 20
-10.62872246636285
 30
0.0
  0
SPLINE
  5
B4
330
3A
100
AcDbEntity
  8
LAYER_1
 62
     7
100
AcDbSpline
210
0.0
220
0.0
230
1.0
 70
    11
 71
     3
 72
    17
 73
    13
 74
     0
 42
0.0000000001
 43
0.0000000001
 40
0.0
 40
0.0
 40
0.0
 40
0.0
 40
1.0
 40
1.0
 40
1.0
 40
2.0
 40
2.0
 40
2.0
 40
3.0
 40
3.0
 40
3.0
 40
4.0
 40
4.0
 40
4.0
 40
4.0
 10
6.308917236328124
 20
-17.08379787868924
 30
0.0
 10
6.484100341796874
 20
-17.11101413302951
 30
0.0
 10
6.775210910373263
 20
-16.91688300238715
 30
0.0
 10
6.681676567925346
 20
-16.76839938693576
 30
0.0
 10
6.741104465060763
 20
-16.6733147515191
 30
0.0
 10
6.47497083875868
 20
-16.55049709743923
 30
0.0
 10
6.309778510199652
 20
-16.4283684624566
 30
0.0
 10
6.015739610460069
 20
-16.47918362087674
 30
0.0
 10
5.69052259657118
 20
-16.68003268771701
 30
0.0
 10
5.67656995985243
 20
-16.77666761610243
 30
0.0
 10
5.791463894314235
 20
-17.02505900065104
 30
0.0
 10
5.825570339626736
 20
-17.07811347113715
 30
0.0
 10
6.308917236328124
 20
-17.08379787868924
 30
0.0
  0
SPLINE
  5
B3
330
3A
100
AcDbEntity
  8
LAYER_1
 62
     7
100
AcDbSpline
210
0.0
220
0.0
230
1.0
 70
    11
 71
     3
 72
    17
 73
    13
 74
     0
 42
0.0000000001
 43
0.0000000001
 40
0.0
 40
0.0
 40
0.0
 40
0.0
 40
1.0
 40
1.0
 40
1.0
 40
2.0
 40
2.0
 40
2.0
 40
3.0
 40
3.0
 40
3.0
 40
4.0
 40
4.0
 40
4.0
 40
4.0
 10
7.545017496744791
 20
-19.4981207953559
 30
0.0
 10
7.938102891710069
 20
-19.42077840169271
 30
0.0
 10
8.213710530598958
 20
-19.28762546115451
 30
0.0
 10
8.38493177625868
 20
-18.97825588650174
 30
0.0
 10
8.275894504123263
 20
-18.80720689561632
 30
0.0
 10
7.865928141276041
 20
-18.50645005967882
 30
0.0
 10
7.391366238064236
 20
-18.52264200846354
 30
0.0
 10
7.069249810112846
 20
-18.52780965169271
 30
0.0
 10
6.606917995876736
 20
-18.8003167046441
 30
0.0
 10
6.54938490125868
 20
-19.08126424153646
 30
0.0
 10
6.537154812282986
 20
-19.25713636610243
 30
0.0
 10
6.945570882161458
 20
-19.48813001844618
 30
0.0
 10
7.545017496744791
 20
-19.4981207953559
 30
0.0
  0
ELLIPSE
  5
B2
330
3A
100
AcDbEntity
  8
LAYER_1
 62
     7
100
AcDbEllipse
 10
-5.755290391710069
 20
-19.08324517144097
 30
0.0
 11
0.0
 21
-0.2055860731336806
 31
0.0
210
0.0
220
0.0
230
1.0
 40
0.7817345068926774
 41
0.0
 42
6.283185307179586
  0
ELLIPSE
  5
B1
330
3A
100
AcDbEntity
  8
LAYER_1
 62
     7
100
AcDbEllipse
 10
-4.335394287109375
 20
-18.33824327256944
 30
0.0
 11
0.2408121744791667
 21
0.0002583821614583333
 31
0.0
210
0.0
220
0.0
230
1.0
 40
0.4266807272111191
 41
0.0
 42
6.283185307179586
  0
ELLIPSE
  5
B0
330
3A
100
AcDbEntity
  8
LAYER_1
 62
     7
100
AcDbEllipse
 10
-8.850708685980901
 20
-16.32088148328993
 30
0.0
 11
0.2408121744791666
 21
0.0001722547743055555
 31
0.0
210
0.0
220
0.0
230
1.0
 40
0.6409154297383378
 41
0.0
 42
6.283185307179586
  0
SPLINE
  5
AF
330
3A
100
AcDbEntity
  8
LAYER_1
 62
     7
100
AcDbSpline
210
0.0
220
0.0
230
1.0
 70
    11
 71
     3
 72
    17
 73
    13
 74
     0
 42
0.0000000001
 43
0.0000000001
 40
0.0
 40
0.0
 40
0.0
 40
0.0
 40
1.0
 40
1.0
 40
1.0
 40
2.0
 40
2.0
 40
2.0
 40
3.0
 40
3.0
 40
3.0
 40
4.0
 40
4.0
 40
4.0
 40
4.0
 10
-2.736869981553819
 20
-20.02143079969618
 30
0.0
 10
-2.339822726779514
 20
-19.98818562825521
 30
0.0
 10
-1.995485432942708
 20
-19.89103393554687
 30
0.0
 10
-2.00668199327257
 20
-19.74323933919271
 30
0.0
 10
-2.037515597873264
 20
-19.56426662868924
 30
0.0
 10
-2.395288764105902
 20
-19.34429728190104
 30
0.0
 10
-2.761846923828125
 20
-19.36376207139757
 30
0.0
 10
-3.048995632595486
 20
-19.35222100151909
 30
0.0
 10
-3.432434760199652
 20
-19.45092298719618
 30
0.0
 10
-3.422271728515625
 20
-19.62438354492187
 30
0.0
 10
-3.500992160373264
 20
-19.80318400065104
 30
0.0
 10
-3.194723171657986
 20
-19.97027113172743
 30
0.0
 10
-2.736869981553819
 20
-20.02143079969618
 30
0.0
  0
ELLIPSE
  5
AE
330
3A
100
AcDbEntity
  8
LAYER_1
 62
     7
100
AcDbEllipse
 10
11.23902113172743
 20
-16.15999552408854
 30
0.0
 11
0.1605414496527778
 21
-0.0001722547743055556
 31
0.0
210
0.0
220
0.0
230
1.0
 40
0.9613728371697303
 41
0.0
 42
6.283185307179586
  0
ELLIPSE
  5
AD
330
3A
100
AcDbEntity
  8
LAYER_1
 62
     7
100
AcDbEllipse
 10
10.01566772460937
 20
-13.32528483072917
 30
0.0
 11
0.1608859592013889
 21
-0.0002583821614583333
 31
0.0
210
0.0
220
0.0
230
1.0
 40
0.9587782068045762
 41
0.0
 42
6.283185307179586
  0
ELLIPSE
  5
AC
330
3A
100
AcDbEntity
  8
LAYER_1
 62
     7
100
AcDbEllipse
 10
8.683277045355903
 20
-12.45229763454861
 30
0.0
 11
0.1603691948784722
 21
-8.612738715277778E-5
 31
0.0
210
0.0
220
0.0
230
1.0
 40
0.9607947056924231
 41
0.0
 42
6.283185307179586
  0
ELLIPSE
  5
AB
330
3A
100
AcDbEntity
  8
LAYER_1
 62
     7
100
AcDbEllipse
 10
10.21651679144965
 20
-14.88789401584201
 30
0.0
 11
0.1608859592013889
 21
0.0001722547743055555
 31
0.0
210
0.0
220
0.0
230
1.0
 40
0.9593142253197375
 41
0.0
 42
6.283185307179586
  0
ELLIPSE
  5
AA
330
3A
100
AcDbEntity
  8
LAYER_1
 62
     7
100
AcDbEllipse
 10
8.484322781032985
 20
-16.88699679904514
 30
0.0
 11
0.1605414496527778
 21
-0.0002583821614583333
 31
0.0
210
0.0
220
0.0
230
1.0
 40
0.9608356654439396
 41
0.0
 42
6.283185307179586
  0
ELLIPSE
  5
A9
330
3A
100
AcDbEntity
  8
LAYER_1
 62
     7
100
AcDbEllipse
 10
9.137685139973957
 20
-15.46942613389757
 30
0.0
 11
0.2408121744791666
 21
0.0001722547743055555
 31
0.0
210
0.0
220
0.0
230
1.0
 40
0.6409154297383378
 41
0.0
 42
6.283185307179586
  0
SPLINE
  5
A8
330
3A
100
AcDbEntity
  8
LAYER_1
 62
     7
100
AcDbSpline
210
0.0
220
0.0
230
1.0
 70
    11
 71
     3
 72
    17
 73
    13
 74
     0
 42
0.0000000001
 43
0.0000000001
 40
0.0
 40
0.0
 40
0.0
 40
0.0
 40
1.0
 40
1.0
 40
1.0
 40
2.0
 40
2.0
 40
2.0
 40
3.0
 40
3.0
 40
3.0
 40
4.0
 40
4.0
 40
4.0
 40
4.0
 10
10.12539401584201
 20
-12.40432467990451
 30
0.0
 10
10.50366550021701
 20
-12.40983683268229
 30
0.0
 10
10.77978990342882
 20
-12.15627780490451
 30
0.0
 10
10.73069729275174
 20
-12.09616088867187
 30
0.0
 10
10.79012518988715
 20
-11.74872300889757
 30
0.0
 10
10.46852552625868
 20
-11.67982109917535
 30
0.0
 10
10.12108764648438
 20
-11.71892293294271
 30
0.0
 10
9.824292670355902
 20
-11.66828002929687
 30
0.0
 10
9.697857666015624
 20
-11.73563164605035
 30
0.0
 10
9.721628824869791
 20
-11.99711439344618
 30
0.0
 10
9.670985921223958
 20
-12.18004896375868
 30
0.0
 10
9.778300645616319
 20
-12.36522284613715
 30
0.0
 10
10.12539401584201
 20
-12.40432467990451
 30
0.0
  0
SPLINE
  5
A7
330
3A
100
AcDbEntity
  8
LAYER_1
 62
     7
100
AcDbSpline
210
0.0
220
0.0
230
1.0
 70
    11
 71
     3
 72
    17
 73
    13
 74
     0
 42
0.0000000001
 43
0.0000000001
 40
0.0
 40
0.0
 40
0.0
 40
0.0
 40
1.0
 40
1.0
 40
1.0
 40
2.0
 40
2.0
 40
2.0
 40
3.0
 40
3.0
 40
3.0
 40
4.0
 40
4.0
 40
4.0
 40
4.0
 10
10.94308742947048
 20
-18.60739135742188
 30
0.0
 10
11.33961791992187
 20
-18.5741461859809
 30
0.0
 10
11.68429972330729
 20
-18.47751125759548
 30
0.0
 10
11.67293090820312
 20
-18.32937215169271
 30
0.0
 10
11.64244181315104
 20
-18.15022718641493
 30
0.0
 10
11.2846686469184
 20
-17.93043009440104
 30
0.0
 10
10.91776597764757
 20
-17.94972262912326
 30
0.0
 10
10.6304450141059
 20
-17.9383538140191
 30
0.0
 10
10.24735039605035
 20
-18.03740030924479
 30
0.0
 10
10.25768568250868
 20
-18.21051635742187
 30
0.0
 10
10.17844848632812
 20
-18.38948906792535
 30
0.0
 10
10.4847174750434
 20
-18.55640394422743
 30
0.0
 10
10.94308742947048
 20
-18.60739135742188
 30
0.0
  0
ELLIPSE
  5
A6
330
3A
100
AcDbEntity
  8
LAYER_1
 62
     7
100
AcDbEllipse
 10
27.64146525065104
 20
-6.939369710286457
 30
0.0
 11
0.3214274088541667
 21
0.0
 31
0.0
210
0.0
220
0.0
230
1.0
 40
0.4796355841371918
 41
0.0
 42
6.283185307179586
  0
ELLIPSE
  5
A5
330
3A
100
AcDbEntity
  8
LAYER_1
 62
     7
100
AcDbEllipse
 10
14.94732191297743
 20
-3.838869900173611
 30
0.0
 11
0.3212551540798611
 21
8.612738715277777E-5
 31
0.0
210
0.0
220
0.0
230
1.0
 40
0.4796246476426683
 41
0.0
 42
6.283185307179586
  0
ELLIPSE
  5
A4
330
3A
100
AcDbEntity
  8
LAYER_1
 62
     7
100
AcDbEllipse
 10
29.06153361002604
 20
-6.575653754340277
 30
0.0
 11
0.2408121744791666
 21
-8.612738715277778E-5
 31
0.0
210
0.0
220
0.0
230
1.0
 40
0.6398425914087768
 41
0.0
 42
6.283185307179586
  0
ELLIPSE
  5
A3
330
3A
100
AcDbEntity
  8
LAYER_1
 62
     7
100
AcDbEllipse
 10
32.18502943250868
 20
-7.43460218641493
 30
0.0
 11
0.2408121744791666
 21
0.0
 31
0.0
210
0.0
220
0.0
230
1.0
 40
0.6402002861230329
 41
0.0
 42
6.283185307179586
  0
ELLIPSE
  5
A2
330
3A
100
AcDbEntity
  8
LAYER_1
 62
     7
100
AcDbEllipse
 10
21.70625474717882
 20
-5.293044704861111
 30
0.0
 11
0.2409844292534722
 21
0.0002583821614583333
 31
0.0
210
0.0
220
0.0
230
1.0
 40
0.6400997035501415
 41
0.0
 42
6.283185307179586
  0
ELLIPSE
  5
A1
330
3A
100
AcDbEntity
  8
LAYER_1
 62
     7
100
AcDbEllipse
 10
30.14036526150174
 20
-7.775322129991319
 30
0.0
 11
0.2411566840277778
 21
0.0
 31
0.0
210
0.0
220
0.0
230
1.0
 40
0.6392857142857142
 41
0.0
 42
6.283185307179586
  0
ELLIPSE
  5
A0
330
3A
100
AcDbEntity
  8
LAYER_1
 62
     7
100
AcDbEllipse
 10
29.45892537434895
 20
-8.911342366536458
 30
0.0
 11
0.2408121744791666
 21
0.0001722547743055555
 31
0.0
210
0.0
220
0.0
230
1.0
 40
0.6409154297383378
 41
0.0
 42
6.283185307179586
  0
ELLIPSE
  5
9F
330
3A
100
AcDbEntity
  8
LAYER_1
 62
     7
100
AcDbEllipse
 10
18.44013197157118
 20
-11.06960856119792
 30
0.0
 11
0.1608859592013889
 21
-8.612738715277777E-5
 31
0.0
210
0.0
220
0.0
230
1.0
 40
0.9577086422130742
 41
0.0
 42
6.283185307179586
  0
ELLIPSE
  5
9E
330
3A
100
AcDbEntity
  8
LAYER_1
 62
     7
100
AcDbEllipse
 10
19.46263631184896
 20
-4.481294080946181
 30
0.0
 11
0.1605414496527778
 21
0.0001722547743055556
 31
0.0
210
0.0
220
0.0
230
1.0
 40
0.9613728371697303
 41
0.0
 42
6.283185307179586
  0
ELLIPSE
  5
9D
330
3A
100
AcDbEntity
  8
LAYER_1
 62
     7
100
AcDbEllipse
 10
17.30428398980035
 20
-5.238353814019097
 30
0.0
 11
0.1608859592013889
 21
-0.0001722547743055555
 31
0.0
210
0.0
220
0.0
230
1.0
 40
0.9593142253197375
 41
0.0
 42
6.283185307179586
  0
ELLIPSE
  5
9C
330
3A
100
AcDbEntity
  8
LAYER_1
 62
     7
100
AcDbEllipse
 10
17.41797214084201
 20
-9.79724867078993
 30
0.0
 11
0.1603691948784722
 21
-0.0001722547743055555
 31
0.0
210
0.0
220
0.0
230
1.0
 40
0.9624054598642636
 41
0.0
 42
6.283185307179586
  0
ELLIPSE
  5
9B
330
3A
100
AcDbEntity
  8
LAYER_1
 62
     7
100
AcDbEllipse
 10
15.68543362087674
 20
-11.79660983615451
 30
0.0
 11
0.1608859592013889
 21
0.0
 31
0.0
210
0.0
220
0.0
230
1.0
 40
0.9582441113490364
 41
0.0
 42
6.283185307179586
  0
ELLIPSE
  5
9A
330
3A
100
AcDbEntity
  8
LAYER_1
 62
     7
100
AcDbEllipse
 10
25.82383287217882
 20
-11.13179253472222
 30
0.0
 11
0.2408121744791666
 21
-8.612738715277778E-5
 31
0.0
210
0.0
220
0.0
230
1.0
 40
0.8537195448254612
 41
0.0
 42
6.283185307179586
  0
ELLIPSE
  5
99
330
3A
100
AcDbEntity
  8
LAYER_1
 62
     7
100
AcDbEllipse
 10
25.5968010796441
 20
-9.264206271701388
 30
0.0
 11
0.3212551540798611
 21
8.612738715277777E-5
 31
0.0
210
0.0
220
0.0
230
1.0
 40
0.4796246476426683
 41
0.0
 42
6.283185307179586
  0
ELLIPSE
  5
98
330
3A
100
AcDbEntity
  8
LAYER_1
 62
     7
100
AcDbEllipse
 10
24.97203301323784
 20
-10.06407131618924
 30
0.0
 11
0.2408121744791666
 21
0.0
 31
0.0
210
0.0
220
0.0
230
1.0
 40
0.6402002861230329
 41
0.0
 42
6.283185307179586
  0
ELLIPSE
  5
97
330
3A
100
AcDbEntity
  8
LAYER_1
 62
     7
100
AcDbEllipse
 10
16.33879597981771
 20
-10.37886691623264
 30
0.0
 11
0.2408121744791667
 21
-0.0002583821614583333
 31
0.0
210
0.0
220
0.0
230
1.0
 40
0.6405575711945636
 41
0.0
 42
6.283185307179586
  0
SPLINE
  5
96
330
3A
100
AcDbEntity
  8
LAYER_1
 62
     7
100
AcDbSpline
210
0.0
220
0.0
230
1.0
 70
    11
 71
     3
 72
    17
 73
    13
 74
     0
 42
0.0000000001
 43
0.0000000001
 40
0.0
 40
0.0
 40
0.0
 40
0.0
 40
1.0
 40
1.0
 40
1.0
 40
2.0
 40
2.0
 40
2.0
 40
3.0
 40
3.0
 40
3.0
 40
4.0
 40
4.0
 40
4.0
 40
4.0
 10
26.28978203667534
 20
-7.202402750651041
 30
0.0
 10
26.65702921549479
 20
-7.291113959418402
 30
0.0
 10
26.76038208007812
 20
-7.170018853081596
 30
0.0
 10
26.73316582573785
 20
-6.927139621310763
 30
0.0
 10
26.70457153320312
 20
-6.837911648220485
 30
0.0
 10
26.64876098632812
 20
-6.647397867838541
 30
0.0
 10
26.31785956488715
 20
-6.637062581380207
 30
0.0
 10
25.92649671766493
 20
-6.683915879991319
 30
0.0
 10
25.8079854329427
 20
-6.772971598307291
 30
0.0
 10
25.90858222113715
 20
-6.923177761501735
 30
0.0
 10
25.80488484700521
 20
-7.143836127387152
 30
0.0
 10
25.90186428493923
 20
-7.245294189453125
 30
0.0
 10
26.28978203667534
 20
-7.202402750651041
 30
0.0
  0
SPLINE
  5
95
330
3A
100
AcDbEntity
  8
LAYER_1
 62
     7
100
AcDbSpline
210
0.0
220
0.0
230
1.0
 70
    11
 71
     3
 72
    17
 73
    13
 74
     0
 42
0.0000000001
 43
0.0000000001
 40
0.0
 40
0.0
 40
0.0
 40
0.0
 40
1.0
 40
1.0
 40
1.0
 40
2.0
 40
2.0
 40
2.0
 40
3.0
 40
3.0
 40
3.0
 40
4.0
 40
4.0
 40
4.0
 40
4.0
 10
28.34392022026909
 20
-7.813045925564236
 30
0.0
 10
28.57766994900173
 20
-7.875918918185763
 30
0.0
 10
28.87360365125868
 20
-7.780145263671875
 30
0.0
 10
28.69773152669271
 20
-7.587908935546874
 30
0.0
 10
28.87015855577257
 20
-7.492135281032986
 30
0.0
 10
28.68067830403646
 20
-7.392572021484375
 30
0.0
 10
28.35236070421007
 20
-7.366044786241319
 30
0.0
 10
28.02817721896701
 20
-7.36173841688368
 30
0.0
 10
27.79804484049479
 20
-7.506776936848958
 30
0.0
 10
27.73982272677951
 20
-7.562931993272569
 30
0.0
 10
27.81785413953993
 20
-7.699185519748263
 30
0.0
 10
28.10586412217882
 20
-7.867995198567708
 30
0.0
 10
28.34392022026909
 20
-7.813045925564236
 30
0.0
  0
SPLINE
  5
94
330
3A
100
AcDbEntity
  8
LAYER_1
 62
     7
100
AcDbSpline
210
0.0
220
0.0
230
1.0
 70
    11
 71
     3
 72
    17
 73
    13
 74
     0
 42
0.0000000001
 43
0.0000000001
 40
0.0
 40
0.0
 40
0.0
 40
0.0
 40
1.0
 40
1.0
 40
1.0
 40
2.0
 40
2.0
 40
2.0
 40
3.0
 40
3.0
 40
3.0
 40
4.0
 40
4.0
 40
4.0
 40
4.0
 10
16.0471686469184
 20
-6.566093614366319
 30
0.0
 10
16.28126288519965
 20
-6.629138861762153
 30
0.0
 10
16.57685207790798
 20
-6.533709716796874
 30
0.0
 10
16.40097995334201
 20
-6.341473388671875
 30
0.0
 10
16.57323472764757
 20
-6.245699734157985
 30
0.0
 10
16.38392673068576
 20
-6.146136474609374
 30
0.0
 10
16.05595364040799
 20
-6.119609239366319
 30
0.0
 10
15.73142564561632
 20
-6.11530287000868
 30
0.0
 10
15.50163777669271
 20
-6.260341389973958
 30
0.0
 10
15.44289889865451
 20
-6.316496446397569
 30
0.0
 10
15.52110256618924
 20
-6.452922227647569
 30
0.0
 10
15.80945705837674
 20
-6.621559651692707
 30
0.0
 10
16.0471686469184
 20
-6.566093614366319
 30
0.0
  0
SPLINE
  5
93
330
3A
100
AcDbEntity
  8
LAYER_1
 62
     7
100
AcDbSpline
210
0.0
220
0.0
230
1.0
 70
    11
 71
     3
 72
    17
 73
    13
 74
     0
 42
0.0000000001
 43
0.0000000001
 40
0.0
 40
0.0
 40
0.0
 40
0.0
 40
1.0
 40
1.0
 40
1.0
 40
2.0
 40
2.0
 40
2.0
 40
3.0
 40
3.0
 40
3.0
 40
4.0
 40
4.0
 40
4.0
 40
4.0
 10
26.75573120117187
 20
-10.16036173502604
 30
0.0
 10
27.04322441948785
 20
-10.16070624457465
 30
0.0
 10
27.22443644205729
 20
-10.02169664171007
 30
0.0
 10
27.41529473198785
 20
-9.87355753580729
 30
0.0
 10
27.2187520345052
 20
-9.51699015299479
 30
0.0
 10
26.95537448459201
 20
-9.500281439887152
 30
0.0
 10
26.68751831054687
 20
-9.487706841362847
 30
0.0
 10
26.47168307834201
 20
-9.481677924262153
 30
0.0
 10
26.10822550455729
 20
-9.630333794487846
 30
0.0
 10
26.20692749023437
 20
-9.757113308376736
 30
0.0
 10
26.21330091688368
 20
-10.04150594075521
 30
0.0
 10
26.44067721896701
 20
-10.11402520073785
 30
0.0
 10
26.75573120117187
 20
-10.16036173502604
 30
0.0
  0
SPLINE
  5
92
330
3A
100
AcDbEntity
  8
LAYER_1
 62
     7
100
AcDbSpline
210
0.0
220
0.0
230
1.0
 70
    11
 71
     3
 72
    17
 73
    13
 74
     0
 42
0.0000000001
 43
0.0000000001
 40
0.0
 40
0.0
 40
0.0
 40
0.0
 40
1.0
 40
1.0
 40
1.0
 40
2.0
 40
2.0
 40
2.0
 40
3.0
 40
3.0
 40
3.0
 40
4.0
 40
4.0
 40
4.0
 40
4.0
 10
17.80933498806423
 20
-4.381214057074653
 30
0.0
 10
18.18777872721354
 20
-4.38672620985243
 30
0.0
 10
18.46390313042535
 20
-4.133167182074653
 30
0.0
 10
18.41481051974826
 20
-4.073050265842014
 30
0.0
 10
18.47423841688368
 20
-3.725095621744791
 30
0.0
 10
18.1524664984809
 20
-3.65653822157118
 30
0.0
 10
17.8050286187066
 20
-3.695812310112847
 30
0.0
 10
17.50823364257812
 20
-3.645169406467014
 30
0.0
 10
17.38197089301215
 20
-3.712004258897569
 30
0.0
 10
17.40574205186632
 20
-3.974003770616319
 30
0.0
 10
17.35492689344618
 20
-4.156938340928819
 30
0.0
 10
17.46241387261285
 20
-4.341939968532985
 30
0.0
 10
17.80933498806423
 20
-4.381214057074653
 30
0.0
  0
SPLINE
  5
91
330
3A
100
AcDbEntity
  8
LAYER_1
 62
     7
100
AcDbSpline
210
0.0
220
0.0
230
1.0
 70
    11
 71
     3
 72
    17
 73
    13
 74
     0
 42
0.0000000001
 43
0.0000000001
 40
0.0
 40
0.0
 40
0.0
 40
0.0
 40
1.0
 40
1.0
 40
1.0
 40
2.0
 40
2.0
 40
2.0
 40
3.0
 40
3.0
 40
3.0
 40
4.0
 40
4.0
 40
4.0
 40
4.0
 10
18.14419826931423
 20
-13.5169182671441
 30
0.0
 10
18.54107326931424
 20
-13.48401760525174
 30
0.0
 10
18.88541056315104
 20
-13.3868659125434
 30
0.0
 10
18.87438625759549
 20
-13.23907131618924
 30
0.0
 10
18.84338039822049
 20
-13.05958184136285
 30
0.0
 10
18.48612399631076
 20
-12.83978474934896
 30
0.0
 10
18.11922132703993
 20
-12.85924953884549
 30
0.0
 10
17.83190036349826
 20
-12.84805297851562
 30
0.0
 10
17.4484612358941
 20
-12.94675496419271
 30
0.0
 10
17.45879652235243
 20
-13.1202155219184
 30
0.0
 10
17.37990383572048
 20
-13.29901597764757
 30
0.0
 10
17.68617282443576
 20
-13.46575859917535
 30
0.0
 10
18.14419826931423
 20
-13.5169182671441
 30
0.0
  0
SPLINE
  5
90
330
3A
100
AcDbEntity
  8
LAYER_1
 62
     7
100
AcDbSpline
210
0.0
220
0.0
230
1.0
 70
    11
 71
     3
 72
    17
 73
    13
 74
     0
 42
0.0000000001
 43
0.0000000001
 40
0.0
 40
0.0
 40
0.0
 40
0.0
 40
1.0
 40
1.0
 40
1.0
 40
2.0
 40
2.0
 40
2.0
 40
3.0
 40
3.0
 40
3.0
 40
4.0
 40
4.0
 40
4.0
 40
4.0
 10
-14.35493774414062
 20
-8.365639241536458
 30
0.0
 10
-13.82490980360243
 20
-8.482083468967014
 30
0.0
 10
-13.80785658094618
 20
-8.21750013563368
 30
0.0
 10
-13.67590942382812
 20
-8.088309054904514
 30
0.0
 10
-13.8114739312066
 20
-7.871612548828124
 30
0.0
 10
-14.14099731445312
 20
-7.623565673828124
 30
0.0
 10
-14.49601440429687
 20
-7.677825927734374
 30
0.0
 10
-15.00347696940104
 20
-7.717444525824652
 30
0.0
 10
-15.36400621202257
 20
-7.730535888671875
 30
0.0
 10
-15.2875250922309
 20
-7.937758382161458
 30
0.0
 10
-15.22740817599826
 20
-8.286057535807291
 30
0.0
 10
-14.82915513780382
 20
-8.349447292751735
 30
0.0
 10
-14.35493774414062
 20
-8.365639241536458
 30
0.0
  0
INSERT
  5
80
330
3A
100
AcDbEntity
  8
LAYER_1
 62
     7
100
AcDbBlockReference
  2
AI9-BLK8
 10
-5.645047336154513
 20
-5.263847520616319
 30
0.0
  0
INSERT
  5
6F
330
3A
100
AcDbEntity
  8
LAYER_1
 62
     7
100
AcDbBlockReference
  2
AI9-BLK7
 10
3.300487603081597
 20
-5.531875949435763
 30
0.0
  0
INSERT
  5
5E
330
3A
100
AcDbEntity
  8
LAYER_1
 62
     7
100
AcDbBlockReference
  2
AI9-BLK6
 10
-3.53716566297743
 20
-1.079262288411458
 30
0.0
  0
INSERT
  5
4C
330
3A
100
AcDbEntity
  8
LAYER_1
 62
     7
100
AcDbBlockReference
  2
AI9-BLK5
 10
5.152915445963541
 20
-1.315165201822917
 30
0.0
  0
INSERT
  5
3E
330
3A
100
AcDbEntity
  8
LAYER_1
 62
     7
100
AcDbBlockReference
  2
AI9-BLK4
 10
-0.3599263509114583
 20
-11.39370591905382
 30
0.0
  0
ENDBLK
  5
1C8
330
3A
100
AcDbEntity
  8
LAYER_1
100
AcDbBlockEnd
  0
BLOCK
  5
3F
330
3D
100
AcDbEntity
  8
LAYER_1
 62
     7
100
AcDbBlockBegin
  2
AI9-BLK4
 70
     0
 10
0.0
 20
0.0
 30
0.0
  3
AI9-BLK4
  1

  4

  0
SPLINE
  5
49
330
3D
100
AcDbEntity
  8
LAYER_1
 62
     7
100
AcDbSpline
210
0.0
220
0.0
230
1.0
 70
    11
 71
     3
 72
    65
 73
    61
 74
     0
 42
0.0000000001
 43
0.0000000001
 40
0.0
 40
0.0
 40
0.0
 40
0.0
 40
1.0
 40
1.0
 40
1.0
 40
2.0
 40
2.0
 40
2.0
 40
3.0
 40
3.0
 40
3.0
 40
4.0
 40
4.0
 40
4.0
 40
5.0
 40
5.0
 40
5.0
 40
6.0
 40
6.0
 40
6.0
 40
7.0
 40
7.0
 40
7.0
 40
8.0
 40
8.0
 40
8.0
 40
9.0
 40
9.0
 40
9.0
 40
10.0
 40
10.0
 40
10.0
 40
11.0
 40
11.0
 40
11.0
 40
12.0
 40
12.0
 40
12.0
 40
13.0
 40
13.0
 40
13.0
 40
14.0
 40
14.0
 40
14.0
 40
15.0
 40
15.0
 40
15.0
 40
16.0
 40
16.0
 40
16.0
 40
17.0
 40
17.0
 40
17.0
 40
18.0
 40
18.0
 40
18.0
 40
19.0
 40
19.0
 40
19.0
 40
20.0
 40
20.0
 40
20.0
 40
20.0
 10
-10.65843641493055
 20
3.310219997829861
 30
0.0
 10
-9.038380262586804
 20
1.974556477864583
 30
0.0
 10
-4.69463161892361
 20
1.0324951171875
 30
0.0
 10
0.3980807834201389
 20
1.0324951171875
 30
0.0
 10
4.805219184027777
 20
1.0324951171875
 30
0.0
 10
8.664759657118054
 20
1.773362901475694
 30
0.0
 10
10.66825493706597
 20
2.831868489583333
 30
0.0
 10
10.66825493706597
 20
2.831868489583333
 30
0.0
 10
10.67824571397569
 20
2.157663302951389
 30
0.0
 10
10.67824571397569
 20
2.157663302951389
 30
0.0
 10
10.67824571397569
 20
2.157663302951389
 30
0.0
 10
10.39419759114583
 20
2.015725368923611
 30
0.0
 10
10.39419759114583
 20
2.015725368923611
 30
0.0
 10
10.39419759114583
 20
2.015725368923611
 30
0.0
 10
10.39419759114583
 20
0.9081271701388888
 30
0.0
 10
10.39419759114583
 20
0.9081271701388888
 30
0.0
 10
10.39419759114583
 20
0.9081271701388888
 30
0.0
 10
5.623257107204861
 20
-1.789554850260417
 30
0.0
 10
5.623257107204861
 20
-1.789554850260417
 30
0.0
 10
5.623257107204861
 20
-1.789554850260417
 30
0.0
 10
3.294544813368055
 20
-1.789554850260417
 30
0.0
 10
3.294544813368055
 20
-1.789554850260417
 30
0.0
 10
3.294544813368055
 20
-1.789554850260417
 30
0.0
 10
3.294544813368055
 20
-0.05736083984375
 30
0.0
 10
3.294544813368055
 20
-0.05736083984375
 30
0.0
 10
3.294544813368055
 20
-0.05736083984375
 30
0.0
 10
2.243790690104166
 20
-2.755042860243055
 30
0.0
 10
2.243790690104166
 20
-2.755042860243055
 30
0.0
 10
2.016758897569444
 20
-3.26646728515625
 30
0.0
 10
1.760960557725694
 20
-3.522093370225694
 30
0.0
 10
0.9375827365451388
 20
-3.436482747395833
 30
0.0
 10
0.9375827365451388
 20
-3.436482747395833
 30
0.0
 10
-3.095246039496527
 20
-3.181373426649305
 30
0.0
 10
-3.095246039496527
 20
-3.181373426649305
 30
0.0
 10
-3.776685926649305
 20
-3.152779134114583
 30
0.0
 10
-4.145827907986111
 20
-2.897325303819444
 30
0.0
 10
-4.145827907986111
 20
-2.215540907118055
 30
0.0
 10
-4.145827907986111
 20
-2.215540907118055
 30
0.0
 10
-4.145827907986111
 20
-0.1707044813368056
 30
0.0
 10
-4.145827907986111
 20
-0.1707044813368056
 30
0.0
 10
-4.145827907986111
 20
0.1021470811631944
 30
0.0
 10
-4.282081434461805
 20
0.2575208875868055
 30
0.0
 10
-4.462432183159722
 20
0.3608737521701388
 30
0.0
 10
-4.462432183159722
 20
0.3608737521701388
 30
0.0
 10
-4.462432183159722
 20
-1.67586669921875
 30
0.0
 10
-4.462432183159722
 20
-1.67586669921875
 30
0.0
 10
-4.462432183159722
 20
-1.67586669921875
 30
0.0
 10
-6.502789984809027
 20
-1.67586669921875
 30
0.0
 10
-6.502789984809027
 20
-1.67586669921875
 30
0.0
 10
-6.502789984809027
 20
-1.67586669921875
 30
0.0
 10
-10.33666449652778
 20
0.9651435004340276
 30
0.0
 10
-10.33666449652778
 20
0.9651435004340276
 30
0.0
 10
-10.33666449652778
 20
0.9651435004340276
 30
0.0
 10
-10.33666449652778
 20
2.385039605034722
 30
0.0
 10
-10.33666449652778
 20
2.385039605034722
 30
0.0
 10
-10.33666449652778
 20
2.385039605034722
 30
0.0
 10
-10.67738444010417
 20
2.583993869357639
 30
0.0
 10
-10.67738444010417
 20
2.583993869357639
 30
0.0
 10
-10.67738444010417
 20
2.583993869357639
 30
0.0
 10
-10.65843641493055
 20
3.310219997829861
 30
0.0
 10
-10.65843641493055
 20
3.310219997829861
 30
0.0
  0
LINE
  5
48
330
3D
100
AcDbEntity
  8
LAYER_1
 62
     7
100
AcDbLine
 10
3.294544813368055
 20
-1.335146755642361
 30
0.0
 11
3.294544813368055
 21
0.3970472547743055
 31
0.0
  0
SPLINE
  5
47
330
3D
100
AcDbEntity
  8
LAYER_1
 62
     7
100
AcDbSpline
210
0.0
220
0.0
230
1.0
 70
     8
 71
     3
 72
    11
 73
     7
 74
     0
 42
0.0000000001
 43
0.0000000001
 40
0.0
 40
0.0
 40
0.0
 40
0.0
 40
1.0
 40
1.0
 40
1.0
 40
2.0
 40
2.0
 40
2.0
 40
2.0
 10
-4.145827907986111
 20
-0.1707044813368056
 30
0.0
 10
-4.145827907986111
 20
0.3117811414930555
 30
0.0
 10
-4.372859700520833
 20
0.48214111328125
 30
0.0
 10
-4.940955946180555
 20
0.5958292643229166
 30
0.0
 10
-6.957198079427083
 20
0.9081271701388888
 30
0.0
 10
-9.626630316840277
 20
1.788349066840278
 30
0.0
 10
-10.64930691189236
 20
2.583993869357639
 30
0.0
  0
SPLINE
  5
46
330
3D
100
AcDbEntity
  8
LAYER_1
 62
     7
100
AcDbSpline
210
0.0
220
0.0
230
1.0
 70
     8
 71
     3
 72
    20
 73
    16
 74
     0
 42
0.0000000001
 43
0.0000000001
 40
0.0
 40
0.0
 40
0.0
 40
0.0
 40
1.0
 40
1.0
 40
1.0
 40
2.0
 40
2.0
 40
2.0
 40
3.0
 40
3.0
 40
3.0
 40
4.0
 40
4.0
 40
4.0
 40
5.0
 40
5.0
 40
5.0
 40
5.0
 10
2.045008680555555
 20
-3.067685275607639
 30
0.0
 10
2.158696831597222
 20
-2.868731011284722
 30
0.0
 10
2.158696831597222
 20
-2.471339246961805
 30
0.0
 10
2.158696831597222
 20
-1.988509114583333
 30
0.0
 10
2.158696831597222
 20
-1.988509114583333
 30
0.0
 10
2.158696831597222
 20
-0.3129869249131944
 30
0.0
 10
2.158696831597222
 20
-0.3129869249131944
 30
0.0
 10
2.158696831597222
 20
0.1700154622395833
 30
0.0
 10
2.353516981336806
 20
0.4254692925347222
 30
0.0
 10
2.783464898003472
 20
0.4254692925347222
 30
0.0
 10
3.322966851128472
 20
0.4254692925347222
 30
0.0
 10
4.856723361545138
 20
0.5674072265625
 30
0.0
 10
5.765195041232638
 20
0.7377671983506944
 30
0.0
 10
6.674011230468749
 20
0.9081271701388888
 30
0.0
 10
9.258349609374999
 20
1.390957302517361
 30
0.0
 10
10.67824571397569
 20
2.186085340711805
 30
0.0
  0
LINE
  5
45
330
3D
100
AcDbEntity
  8
LAYER_1
 62
     7
100
AcDbLine
 10
-6.502789984809027
 20
-1.67586669921875
 30
0.0
 11
-6.502789984809027
 21
0.9081271701388888
 31
0.0
  0
LINE
  5
44
330
3D
100
AcDbEntity
  8
LAYER_1
 62
     7
100
AcDbLine
 10
5.594835069444444
 20
-1.789554850260417
 30
0.0
 11
5.594835069444444
 21
0.6810953776041666
 31
0.0
  0
SPLINE
  5
43
330
3D
100
AcDbEntity
  8
LAYER_1
 62
     7
100
AcDbSpline
210
0.0
220
0.0
230
1.0
 70
     8
 71
     3
 72
    20
 73
    16
 74
     0
 42
0.0000000001
 43
0.0000000001
 40
0.0
 40
0.0
 40
0.0
 40
0.0
 40
1.0
 40
1.0
 40
1.0
 40
2.0
 40
2.0
 40
2.0
 40
3.0
 40
3.0
 40
3.0
 40
4.0
 40
4.0
 40
4.0
 40
5.0
 40
5.0
 40
5.0
 40
5.0
 10
-4.628830295138888
 20
1.362535264756944
 30
0.0
 10
-3.720014105902778
 20
1.19217529296875
 30
0.0
 10
-3.265606011284722
 20
1.050237358940972
 30
0.0
 10
-3.265606011284722
 20
-0.2277208116319444
 30
0.0
 10
-3.265606011284722
 20
-0.2277208116319444
 30
0.0
 10
-3.265606011284722
 20
-1.628668891059028
 30
0.0
 10
-3.265606011284722
 20
-1.628668891059028
 30
0.0
 10
-3.265606011284722
 20
-1.997983127170139
 30
0.0
 10
-3.180339898003472
 20
-2.28203125
 30
0.0
 10
-2.725931803385417
 20
-2.28203125
 30
0.0
 10
-2.725931803385417
 20
-2.28203125
 30
0.0
 10
0.8333685980902778
 20
-2.537485080295139
 30
0.0
 10
0.8333685980902778
 20
-2.537485080295139
 30
0.0
 10
1.155140516493056
 20
-2.556605360243055
 30
0.0
 10
1.382516818576389
 20
-2.48046875
 30
0.0
 10
1.382516818576389
 20
-2.007457139756944
 30
0.0
  0
SPLINE
  5
42
330
3D
100
AcDbEntity
  8
LAYER_1
 62
     7
100
AcDbSpline
210
0.0
220
0.0
230
1.0
 70
     8
 71
     3
 72
    11
 73
     7
 74
     0
 42
0.0000000001
 43
0.0000000001
 40
0.0
 40
0.0
 40
0.0
 40
0.0
 40
1.0
 40
1.0
 40
1.0
 40
2.0
 40
2.0
 40
2.0
 40
2.0
 10
-2.778297254774305
 20
-2.272557237413194
 30
0.0
 10
-2.778297254774305
 20
-2.272557237413194
 30
0.0
 10
0.7811754014756944
 20
-2.528011067708333
 30
0.0
 10
0.7811754014756944
 20
-2.528011067708333
 30
0.0
 10
1.103291829427083
 20
-2.54713134765625
 30
0.0
 10
1.3301513671875
 20
-2.470994737413194
 30
0.0
 10
1.3301513671875
 20
-1.997983127170139
 30
0.0
  0
LINE
  5
41
330
3D
100
AcDbEntity
  8
LAYER_1
 62
     7
100
AcDbLine
 10
-2.782603624131944
 20
-1.789554850260417
 30
0.0
 11
-1.476395670572916
 21
1.021815321180555
 31
0.0
  0
SPLINE
  5
40
330
3D
100
AcDbEntity
  8
LAYER_1
 62
     7
100
AcDbSpline
210
0.0
220
0.0
230
1.0
 70
     8
 71
     3
 72
    11
 73
     7
 74
     0
 42
0.0000000001
 43
0.0000000001
 40
0.0
 40
0.0
 40
0.0
 40
0.0
 40
1.0
 40
1.0
 40
1.0
 40
2.0
 40
2.0
 40
2.0
 40
2.0
 10
2.348004828559028
 20
1.097435167100694
 30
0.0
 10
1.609548611111111
 20
1.059883626302083
 30
0.0
 10
1.344448513454861
 20
0.7191636827256944
 30
0.0
 10
1.344448513454861
 20
-0.1140326605902778
 30
0.0
 10
1.344448513454861
 20
-0.1140326605902778
 30
0.0
 10
1.344448513454861
 20
-2.102197265625
 30
0.0
 10
1.344448513454861
 20
-2.102197265625
 30
0.0
  0
ENDBLK
  5
4A
330
3D
100
AcDbEntity
  8
LAYER_1
100
AcDbBlockEnd
  0
BLOCK
  5
4D
330
4B
100
AcDbEntity
  8
LAYER_1
 62
     7
100
AcDbBlockBegin
  2
AI9-BLK5
 70
     0
 10
0.0
 20
0.0
 30
0.0
  3
AI9-BLK5
  1

  4

  0
SPLINE
  5
5B
330
4B
100
AcDbEntity
  8
LAYER_1
  6
AI9-LTYPE1
 62
     7
100
AcDbSpline
210
0.0
220
0.0
230
1.0
 70
    11
 71
     3
 72
    23
 73
    19
 74
     0
 42
0.0000000001
 43
0.0000000001
 40
0.0
 40
0.0
 40
0.0
 40
0.0
 40
1.0
 40
1.0
 40
1.0
 40
2.0
 40
2.0
 40
2.0
 40
3.0
 40
3.0
 40
3.0
 40
4.0
 40
4.0
 40
4.0
 40
5.0
 40
5.0
 40
5.0
 40
6.0
 40
6.0
 40
6.0
 40
6.0
 10
0.2812920464409722
 20
-3.331493462456597
 30
0.0
 10
0.2812920464409722
 20
-3.331493462456597
 30
0.0
 10
0.2812920464409722
 20
0.8716952853732638
 30
0.0
 10
0.2812920464409722
 20
0.8716952853732638
 30
0.0
 10
0.2812920464409722
 20
2.348263210720486
 30
0.0
 10
0.0680406358506944
 20
3.188866509331597
 30
0.0
 10
0.0
 20
3.325292290581597
 30
0.0
 10
-0.068212890625
 20
3.188866509331597
 30
0.0
 10
-0.2812920464409722
 20
2.348263210720486
 30
0.0
 10
-0.2812920464409722
 20
0.8716952853732638
 30
0.0
 10
-0.2812920464409722
 20
0.8716952853732638
 30
0.0
 10
-0.2812920464409722
 20
-3.331493462456597
 30
0.0
 10
-0.2812920464409722
 20
-3.331493462456597
 30
0.0
 10
-0.2812920464409722
 20
-3.452760823567708
 30
0.0
 10
-0.1925808376736111
 20
-3.490829128689236
 30
0.0
 10
-0.0032728407118056
 20
-3.490829128689236
 30
0.0
 10
0.1862074110243056
 20
-3.490829128689236
 30
0.0
 10
0.2812920464409722
 20
-3.456722683376736
 30
0.0
 10
0.2812920464409722
 20
-3.331493462456597
 30
0.0
  0
LINE
  5
59
330
4B
100
AcDbEntity
  8
LAYER_1
 62
     7
100
AcDbLine
 10
-0.2812920464409722
 20
-3.195239935980903
 30
0.0
 11
0.3093695746527778
 21
-2.96820814344618
 31
0.0
  0
LINE
  5
58
330
4B
100
AcDbEntity
  8
LAYER_1
 62
     7
100
AcDbLine
 10
-0.2812920464409722
 20
-2.729635281032986
 30
0.0
 11
0.3093695746527778
 21
-2.502258978949653
 31
0.0
  0
LINE
  5
57
330
4B
100
AcDbEntity
  8
LAYER_1
 62
     7
100
AcDbLine
 10
-0.2812920464409722
 20
-2.241120741102431
 30
0.0
 11
0.3093695746527778
 21
-2.013744439019097
 31
0.0
  0
LINE
  5
56
330
4B
100
AcDbEntity
  8
LAYER_1
 62
     7
100
AcDbLine
 10
-0.2812920464409722
 20
-1.752606201171875
 30
0.0
 11
0.3093695746527778
 21
-1.525229899088542
 31
0.0
  0
LINE
  5
55
330
4B
100
AcDbEntity
  8
LAYER_1
 62
     7
100
AcDbLine
 10
-0.2812920464409722
 20
-1.264263916015625
 30
0.0
 11
0.3093695746527778
 21
-1.036715359157986
 31
0.0
  0
LINE
  5
54
330
4B
100
AcDbEntity
  8
LAYER_1
 62
     7
100
AcDbLine
 10
-0.2812920464409722
 20
-0.7757493760850693
 30
0.0
 11
0.3093695746527778
 21
-0.5487175835503472
 31
0.0
  0
LINE
  5
53
330
4B
100
AcDbEntity
  8
LAYER_1
 62
     7
100
AcDbLine
 10
-0.2812920464409722
 20
-0.2872348361545138
 30
0.0
 11
0.3093695746527778
 21
-0.0602030436197917
 31
0.0
  0
LINE
  5
52
330
4B
100
AcDbEntity
  8
LAYER_1
 62
     7
100
AcDbLine
 10
-0.2812920464409722
 20
0.2012797037760417
 30
0.0
 11
0.3093695746527778
 21
0.4283114963107639
 31
0.0
  0
LINE
  5
51
330
4B
100
AcDbEntity
  8
LAYER_1
 62
     7
100
AcDbLine
 10
-0.2812920464409722
 20
0.6897942437065971
 30
0.0
 11
0.3093695746527778
 21
0.9168260362413193
 31
0.0
  0
LINE
  5
50
330
4B
100
AcDbEntity
  8
LAYER_1
 62
     7
100
AcDbLine
 10
-0.2812920464409722
 20
1.178308783637153
 30
0.0
 11
0.3093695746527778
 21
1.405340576171875
 31
0.0
  0
LINE
  5
4F
330
4B
100
AcDbEntity
  8
LAYER_1
 62
     7
100
AcDbLine
 10
-0.2812920464409722
 20
1.666823323567708
 30
0.0
 11
0.2523532443576388
 21
1.871289740668403
 31
0.0
  0
LINE
  5
4E
330
4B
100
AcDbEntity
  8
LAYER_1
 62
     7
100
AcDbLine
 10
-0.22479248046875
 20
2.166362169053819
 30
0.0
 11
0.2182467990451389
 21
2.325181070963541
 31
0.0
  0
ENDBLK
  5
5C
330
4B
100
AcDbEntity
  8
LAYER_1
100
AcDbBlockEnd
  0
BLOCK
  5
5F
330
5D
100
AcDbEntity
  8
LAYER_1
 62
     7
100
AcDbBlockBegin
  2
AI9-BLK6
 70
     0
 10
0.0
 20
0.0
 30
0.0
  3
AI9-BLK6
  1

  4

  0
SPLINE
  5
6C
330
5D
100
AcDbEntity
  8
LAYER_1
  6
AI9-LTYPE1
 62
     7
100
AcDbSpline
210
0.0
220
0.0
230
1.0
 70
    11
 71
     3
 72
    23
 73
    19
 74
     0
 42
0.0000000001
 43
0.0000000001
 40
0.0
 40
0.0
 40
0.0
 40
0.0
 40
1.0
 40
1.0
 40
1.0
 40
2.0
 40
2.0
 40
2.0
 40
3.0
 40
3.0
 40
3.0
 40
4.0
 40
4.0
 40
4.0
 40
5.0
 40
5.0
 40
5.0
 40
6.0
 40
6.0
 40
6.0
 40
6.0
 10
0.2812920464409722
 20
-3.340364583333333
 30
0.0
 10
0.2812920464409722
 20
-3.340364583333333
 30
0.0
 10
0.2812920464409722
 20
0.8628241644965277
 30
0.0
 10
0.2812920464409722
 20
0.8628241644965277
 30
0.0
 10
0.2812920464409722
 20
2.33939208984375
 30
0.0
 10
0.068212890625
 20
3.179995388454861
 30
0.0
 10
0.0
 20
3.316421169704861
 30
0.0
 10
-0.0680406358506944
 20
3.179995388454861
 30
0.0
 10
-0.2812920464409722
 20
2.33939208984375
 30
0.0
 10
-0.2812920464409722
 20
0.8628241644965277
 30
0.0
 10
-0.2812920464409722
 20
0.8628241644965277
 30
0.0
 10
-0.2812920464409722
 20
-3.340364583333333
 30
0.0
 10
-0.2812920464409722
 20
-3.340364583333333
 30
0.0
 10
-0.2812920464409722
 20
-3.442511664496528
 30
0.0
 10
-0.2115288628472222
 20
-3.480235460069444
 30
0.0
 10
-0.0220486111111111
 20
-3.480235460069444
 30
0.0
 10
0.1672593858506944
 20
-3.480235460069444
 30
0.0
 10
0.2812920464409722
 20
-3.465249294704861
 30
0.0
 10
0.2812920464409722
 20
-3.340364583333333
 30
0.0
  0
LINE
  5
6B
330
5D
100
AcDbEntity
  8
LAYER_1
 62
     7
100
AcDbLine
 10
-0.2812920464409722
 20
-3.204111056857639
 30
0.0
 11
0.3095418294270833
 21
-2.976734754774305
 31
0.0
  0
LINE
  5
6A
330
5D
100
AcDbEntity
  8
LAYER_1
 62
     7
100
AcDbLine
 10
-0.2812920464409722
 20
-2.738161892361111
 30
0.0
 11
0.3095418294270833
 21
-2.511130099826389
 31
0.0
  0
LINE
  5
69
330
5D
100
AcDbEntity
  8
LAYER_1
 62
     7
100
AcDbLine
 10
-0.2812920464409722
 20
-2.249647352430555
 30
0.0
 11
0.3095418294270833
 21
-2.022615559895833
 31
0.0
  0
LINE
  5
68
330
5D
100
AcDbEntity
  8
LAYER_1
 62
     7
100
AcDbLine
 10
-0.2812920464409722
 20
-1.7611328125
 30
0.0
 11
0.3095418294270833
 21
-1.534101019965278
 31
0.0
  0
LINE
  5
67
330
5D
100
AcDbEntity
  8
LAYER_1
 62
     7
100
AcDbLine
 10
-0.2812920464409722
 20
-1.272618272569444
 30
0.0
 11
0.3095418294270833
 21
-1.045586480034722
 31
0.0
  0
LINE
  5
66
330
5D
100
AcDbEntity
  8
LAYER_1
 62
     7
100
AcDbLine
 10
-0.2812920464409722
 20
-0.7846204969618055
 30
0.0
 11
0.3095418294270833
 21
-0.5572441948784722
 31
0.0
  0
LINE
  5
65
330
5D
100
AcDbEntity
  8
LAYER_1
 62
     7
100
AcDbLine
 10
-0.2812920464409722
 20
-0.29610595703125
 30
0.0
 11
0.3095418294270833
 21
-0.0687296549479167
 31
0.0
  0
LINE
  5
64
330
5D
100
AcDbEntity
  8
LAYER_1
 62
     7
100
AcDbLine
 10
-0.2812920464409722
 20
0.1924085828993055
 30
0.0
 11
0.3095418294270833
 21
0.4197848849826388
 31
0.0
  0
LINE
  5
63
330
5D
100
AcDbEntity
  8
LAYER_1
 62
     7
100
AcDbLine
 10
-0.2812920464409722
 20
0.680923122829861
 30
0.0
 11
0.3095418294270833
 21
0.9082994249131944
 31
0.0
  0
LINE
  5
62
330
5D
100
AcDbEntity
  8
LAYER_1
 62
     7
100
AcDbLine
 10
-0.2812920464409722
 20
1.169437662760417
 30
0.0
 11
0.3095418294270833
 21
1.39681396484375
 31
0.0
  0
LINE
  5
61
330
5D
100
AcDbEntity
  8
LAYER_1
 62
     7
100
AcDbLine
 10
-0.2812920464409722
 20
1.657952202690972
 30
0.0
 11
0.2523532443576388
 21
1.862418619791667
 31
0.0
  0
LINE
  5
60
330
5D
100
AcDbEntity
  8
LAYER_1
 62
     7
100
AcDbLine
 10
-0.2246202256944444
 20
2.157835557725695
 30
0.0
 11
0.2184190538194444
 21
2.316826714409722
 31
0.0
  0
ENDBLK
  5
6D
330
5D
100
AcDbEntity
  8
LAYER_1
100
AcDbBlockEnd
  0
BLOCK
  5
70
330
6E
100
AcDbEntity
  8
LAYER_1
 62
     7
100
AcDbBlockBegin
  2
AI9-BLK7
 70
     0
 10
0.0
 20
0.0
 30
0.0
  3
AI9-BLK7
  1

  4

  0
SPLINE
  5
7D
330
6E
100
AcDbEntity
  8
LAYER_1
  6
AI9-LTYPE1
 62
     7
100
AcDbSpline
210
0.0
220
0.0
230
1.0
 70
    11
 71
     3
 72
    23
 73
    19
 74
     0
 42
0.0000000001
 43
0.0000000001
 40
0.0
 40
0.0
 40
0.0
 40
0.0
 40
1.0
 40
1.0
 40
1.0
 40
2.0
 40
2.0
 40
2.0
 40
3.0
 40
3.0
 40
3.0
 40
4.0
 40
4.0
 40
4.0
 40
5.0
 40
5.0
 40
5.0
 40
6.0
 40
6.0
 40
6.0
 40
6.0
 10
0.3515719943576389
 20
-4.101558430989583
 30
0.0
 10
0.3515719943576389
 20
-4.101558430989583
 30
0.0
 10
0.3515719943576389
 20
1.152212185329861
 30
0.0
 10
0.3515719943576389
 20
1.152212185329861
 30
0.0
 10
0.3515719943576389
 20
2.998094346788194
 30
0.0
 10
0.0854383680555555
 20
4.048848470052083
 30
0.0
 10
0.0001722547743056
 20
4.219208441840277
 30
0.0
 10
-0.0849216037326389
 20
4.048848470052083
 30
0.0
 10
-0.3515719943576389
 20
2.998094346788194
 30
0.0
 10
-0.3515719943576389
 20
1.152212185329861
 30
0.0
 10
-0.3515719943576389
 20
1.152212185329861
 30
0.0
 10
-0.3515719943576389
 20
-4.101558430989583
 30
0.0
 10
-0.3515719943576389
 20
-4.101558430989583
 30
0.0
 10
-0.3515719943576389
 20
-4.3005126953125
 30
0.0
 10
-0.1670871310763889
 20
-4.385606553819444
 30
0.0
 10
0.0885389539930555
 20
-4.385606553819444
 30
0.0
 10
0.2022271050347222
 20
-4.385606553819444
 30
0.0
 10
0.3515719943576389
 20
-4.3005126953125
 30
0.0
 10
0.3515719943576389
 20
-4.101558430989583
 30
0.0
  0
LINE
  5
7C
330
6E
100
AcDbEntity
  8
LAYER_1
 62
     7
100
AcDbLine
 10
-0.3515719943576389
 20
-3.931198459201389
 30
0.0
 11
0.3868842230902778
 21
-3.647150336371527
 31
0.0
  0
LINE
  5
7B
330
6E
100
AcDbEntity
  8
LAYER_1
 62
     7
100
AcDbLine
 10
-0.3515719943576389
 20
-3.349149576822916
 30
0.0
 11
0.3868842230902778
 21
-3.065101453993055
 31
0.0
  0
LINE
  5
7A
330
6E
100
AcDbEntity
  8
LAYER_1
 62
     7
100
AcDbLine
 10
-0.3515719943576389
 20
-2.738678656684027
 30
0.0
 11
0.3868842230902778
 21
-2.454630533854167
 31
0.0
  0
LINE
  5
79
330
6E
100
AcDbEntity
  8
LAYER_1
 62
     7
100
AcDbLine
 10
-0.3515719943576389
 20
-2.127690972222222
 30
0.0
 11
0.3868842230902778
 21
-1.844159613715278
 31
0.0
  0
LINE
  5
78
330
6E
100
AcDbEntity
  8
LAYER_1
 62
     7
100
AcDbLine
 10
-0.3515719943576389
 20
-1.517220052083333
 30
0.0
 11
0.3868842230902778
 21
-1.233516438802083
 31
0.0
  0
LINE
  5
77
330
6E
100
AcDbEntity
  8
LAYER_1
 62
     7
100
AcDbLine
 10
-0.3515719943576389
 20
-0.9067491319444444
 30
0.0
 11
0.3868842230902778
 21
-0.6227010091145833
 31
0.0
  0
LINE
  5
76
330
6E
100
AcDbEntity
  8
LAYER_1
 62
     7
100
AcDbLine
 10
-0.3515719943576389
 20
-0.2962782118055555
 30
0.0
 11
0.3868842230902778
 21
-0.0120578342013889
 31
0.0
  0
LINE
  5
75
330
6E
100
AcDbEntity
  8
LAYER_1
 62
     7
100
AcDbLine
 10
-0.3515719943576389
 20
0.3143649631076388
 30
0.0
 11
0.3868842230902778
 21
0.5984130859375
 31
0.0
  0
LINE
  5
74
330
6E
100
AcDbEntity
  8
LAYER_1
 62
     7
100
AcDbLine
 10
-0.3515719943576389
 20
0.9248358832465277
 30
0.0
 11
0.3868842230902778
 21
1.208884006076389
 31
0.0
  0
LINE
  5
73
330
6E
100
AcDbEntity
  8
LAYER_1
 62
     7
100
AcDbLine
 10
-0.3515719943576389
 20
1.535306803385417
 30
0.0
 11
0.3868842230902778
 21
1.819354926215278
 31
0.0
  0
LINE
  5
72
330
6E
100
AcDbEntity
  8
LAYER_1
 62
     7
100
AcDbLine
 10
-0.3515719943576389
 20
2.145949978298611
 30
0.0
 11
0.3155707465277777
 21
2.401748318142361
 31
0.0
  0
LINE
  5
71
330
6E
100
AcDbEntity
  8
LAYER_1
 62
     7
100
AcDbLine
 10
-0.2807752821180555
 20
2.770718044704861
 30
0.0
 11
0.2731960720486111
 21
2.969500054253472
 31
0.0
  0
ENDBLK
  5
7E
330
6E
100
AcDbEntity
  8
LAYER_1
100
AcDbBlockEnd
  0
BLOCK
  5
81
330
7F
100
AcDbEntity
  8
LAYER_1
 62
     7
100
AcDbBlockBegin
  2
AI9-BLK8
 70
     0
 10
0.0
 20
0.0
 30
0.0
  3
AI9-BLK8
  1

  4

  0
SPLINE
  5
8E
330
7F
100
AcDbEntity
  8
LAYER_1
  6
AI9-LTYPE1
 62
     7
100
AcDbSpline
210
0.0
220
0.0
230
1.0
 70
    11
 71
     3
 72
    23
 73
    19
 74
     0
 42
0.0000000001
 43
0.0000000001
 40
0.0
 40
0.0
 40
0.0
 40
0.0
 40
1.0
 40
1.0
 40
1.0
 40
2.0
 40
2.0
 40
2.0
 40
3.0
 40
3.0
 40
3.0
 40
4.0
 40
4.0
 40
4.0
 40
5.0
 40
5.0
 40
5.0
 40
6.0
 40
6.0
 40
6.0
 40
6.0
 10
0.3515719943576389
 20
-4.142555067274305
 30
0.0
 10
0.3515719943576389
 20
-4.142555067274305
 30
0.0
 10
0.3515719943576389
 20
1.111215549045139
 30
0.0
 10
0.3515719943576389
 20
1.111215549045139
 30
0.0
 10
0.3515719943576389
 20
2.957097710503472
 30
0.0
 10
0.0850938585069444
 20
4.007679578993055
 30
0.0
 10
-0.0001722547743056
 20
4.17803955078125
 30
0.0
 10
-0.08526611328125
 20
4.007679578993055
 30
0.0
 10
-0.3515719943576389
 20
2.957097710503472
 30
0.0
 10
-0.3515719943576389
 20
1.111215549045139
 30
0.0
 10
-0.3515719943576389
 20
1.111215549045139
 30
0.0
 10
-0.3515719943576389
 20
-4.142555067274305
 30
0.0
 10
-0.3515719943576389
 20
-4.142555067274305
 30
0.0
 10
-0.3515719943576389
 20
-4.255898708767361
 30
0.0
 10
-0.1955091688368055
 20
-4.341509331597222
 30
0.0
 10
0.0318671332465278
 20
-4.341509331597222
 30
0.0
 10
0.25889892578125
 20
-4.341509331597222
 30
0.0
 10
0.3515719943576389
 20
-4.241946072048611
 30
0.0
 10
0.3515719943576389
 20
-4.142555067274305
 30
0.0
  0
LINE
  5
8D
330
7F
100
AcDbEntity
  8
LAYER_1
 62
     7
100
AcDbLine
 10
-0.3515719943576389
 20
-3.972195095486111
 30
0.0
 11
0.3868842230902778
 21
-3.68814697265625
 31
0.0
  0
LINE
  5
8C
330
7F
100
AcDbEntity
  8
LAYER_1
 62
     7
100
AcDbLine
 10
-0.3515719943576389
 20
-3.389801703559027
 30
0.0
 11
0.3868842230902778
 21
-3.105753580729167
 31
0.0
  0
LINE
  5
8B
330
7F
100
AcDbEntity
  8
LAYER_1
 62
     7
100
AcDbLine
 10
-0.3515719943576389
 20
-2.779330783420139
 30
0.0
 11
0.3868842230902778
 21
-2.495282660590278
 31
0.0
  0
LINE
  5
8A
330
7F
100
AcDbEntity
  8
LAYER_1
 62
     7
100
AcDbLine
 10
-0.3515719943576389
 20
-2.16885986328125
 30
0.0
 11
0.3868842230902778
 21
-1.884639485677083
 31
0.0
  0
LINE
  5
89
330
7F
100
AcDbEntity
  8
LAYER_1
 62
     7
100
AcDbLine
 10
-0.3515719943576389
 20
-1.558216688368056
 30
0.0
 11
0.3868842230902778
 21
-1.274168565538194
 31
0.0
  0
LINE
  5
88
330
7F
100
AcDbEntity
  8
LAYER_1
 62
     7
100
AcDbLine
 10
-0.3515719943576389
 20
-0.9477457682291666
 30
0.0
 11
0.3868842230902778
 21
-0.6636976453993055
 31
0.0
  0
LINE
  5
87
330
7F
100
AcDbEntity
  8
LAYER_1
 62
     7
100
AcDbLine
 10
-0.3515719943576389
 20
-0.3372748480902778
 30
0.0
 11
0.3868842230902778
 21
-0.0532267252604167
 31
0.0
  0
LINE
  5
86
330
7F
100
AcDbEntity
  8
LAYER_1
 62
     7
100
AcDbLine
 10
-0.3515719943576389
 20
0.2733683268229166
 30
0.0
 11
0.3868842230902778
 21
0.5574164496527777
 31
0.0
  0
LINE
  5
85
330
7F
100
AcDbEntity
  8
LAYER_1
 62
     7
100
AcDbLine
 10
-0.3515719943576389
 20
0.8841837565104166
 30
0.0
 11
0.3868842230902778
 21
1.167887369791667
 31
0.0
  0
LINE
  5
84
330
7F
100
AcDbEntity
  8
LAYER_1
 62
     7
100
AcDbLine
 10
-0.3515719943576389
 20
1.494826931423611
 30
0.0
 11
0.3868842230902778
 21
1.778875054253472
 31
0.0
  0
LINE
  5
83
330
7F
100
AcDbEntity
  8
LAYER_1
 62
     7
100
AcDbLine
 10
-0.3515719943576389
 20
2.1052978515625
 30
0.0
 11
0.3155707465277777
 21
2.360751681857639
 31
0.0
  0
LINE
  5
82
330
7F
100
AcDbEntity
  8
LAYER_1
 62
     7
100
AcDbLine
 10
-0.28060302734375
 20
2.73006591796875
 30
0.0
 11
0.2731960720486111
 21
2.929020182291667
 31
0.0
  0
ENDBLK
  5
8F
330
7F
100
AcDbEntity
  8
LAYER_1
100
AcDbBlockEnd
  0
BLOCK
  5
14F
330
14D
100
AcDbEntity
  8
LAYER_1
 62
     7
100
AcDbBlockBegin
  2
AI9-BLK9
 70
     0
 10
0.0
 20
0.0
 30
0.0
  3
AI9-BLK9
  1

  4

  0
SPLINE
  5
18E
330
14D
100
AcDbEntity
  8
LAYER_1
  6
AI9-LTYPE3
 62
     7
100
AcDbSpline
210
0.0
220
0.0
230
1.0
 70
     8
 71
     3
 72
    17
 73
    13
 74
     0
 42
0.0000000001
 43
0.0000000001
 40
0.0
 40
0.0
 40
0.0
 40
0.0
 40
1.0
 40
1.0
 40
1.0
 40
2.0
 40
2.0
 40
2.0
 40
3.0
 40
3.0
 40
3.0
 40
4.0
 40
4.0
 40
4.0
 40
4.0
 10
1.241354031032986
 20
1.48052978515625
 30
0.0
 10
1.241354031032986
 20
1.48052978515625
 30
0.0
 10
1.243593343098958
 20
17.56395806206597
 30
0.0
 10
1.243593343098958
 20
17.56395806206597
 30
0.0
 10
1.243593343098958
 20
17.78737250434028
 30
0.0
 10
0.6934115939670138
 20
17.96600070529514
 30
0.0
 10
0.0092156304253472
 20
17.96600070529514
 30
0.0
 10
-0.675497097439236
 20
17.96600070529514
 30
0.0
 10
-1.236875406901042
 20
17.78737250434028
 30
0.0
 10
-1.236875406901042
 20
17.56395806206597
 30
0.0
 10
-1.236875406901042
 20
17.56395806206597
 30
0.0
 10
-1.239975992838542
 20
1.53944091796875
 30
0.0
 10
-1.239975992838542
 20
1.53944091796875
 30
0.0
  0
SPLINE
  5
18D
330
14D
100
AcDbEntity
  8
LAYER_1
  6
AI9-LTYPE3
 62
     7
100
AcDbSpline
210
0.0
220
0.0
230
1.0
 70
     8
 71
     3
 72
    17
 73
    13
 74
     0
 42
0.0000000001
 43
0.0000000001
 40
0.0
 40
0.0
 40
0.0
 40
0.0
 40
1.0
 40
1.0
 40
1.0
 40
2.0
 40
2.0
 40
2.0
 40
3.0
 40
3.0
 40
3.0
 40
4.0
 40
4.0
 40
4.0
 40
4.0
 10
-1.240837266710069
 20
-2.869936794704861
 30
0.0
 10
-1.240837266710069
 20
-2.869936794704861
 30
0.0
 10
-1.243593343098958
 20
-17.09714762369791
 30
0.0
 10
-1.243593343098958
 20
-17.09714762369791
 30
0.0
 10
-1.243593343098958
 20
-17.70107286241319
 30
0.0
 10
-0.6996127658420138
 20
-17.96600070529514
 30
0.0
 10
-0.0412550184461806
 20
-17.96600070529514
 30
0.0
 10
0.6172749837239583
 20
-17.96600070529514
 30
0.0
 10
1.238942464192708
 20
-17.64595133463542
 30
0.0
 10
1.238942464192708
 20
-17.08336724175347
 30
0.0
 10
1.238942464192708
 20
-17.08336724175347
 30
0.0
 10
1.240837266710069
 20
-2.988103569878472
 30
0.0
 10
1.240837266710069
 20
-2.988103569878472
 30
0.0
  0
SPLINE
  5
18B
330
14D
100
AcDbEntity
  8
LAYER_1
  6
AI9-LTYPE2
 62
     7
100
AcDbSpline
210
0.0
220
0.0
230
1.0
 70
     8
 71
     3
 72
    11
 73
     7
 74
     0
 42
0.0000000001
 43
0.0000000001
 40
0.0
 40
0.0
 40
0.0
 40
0.0
 40
1.0
 40
1.0
 40
1.0
 40
2.0
 40
2.0
 40
2.0
 40
2.0
 10
1.238942464192708
 20
-15.81712239583333
 30
0.0
 10
1.238942464192708
 20
-16.37936197916666
 30
0.0
 10
0.6172749837239583
 20
-16.69941134982639
 30
0.0
 10
-0.0412550184461806
 20
-16.69941134982639
 30
0.0
 10
-0.6996127658420138
 20
-16.69941134982639
 30
0.0
 10
-1.243593343098958
 20
-16.43431125217014
 30
0.0
 10
-1.243593343098958
 20
-15.83055826822917
 30
0.0
  0
SPLINE
  5
18A
330
14D
100
AcDbEntity
  8
LAYER_1
  6
AI9-LTYPE2
 62
     7
100
AcDbSpline
210
0.0
220
0.0
230
1.0
 70
     8
 71
     3
 72
    11
 73
     7
 74
     0
 42
0.0000000001
 43
0.0000000001
 40
0.0
 40
0.0
 40
0.0
 40
0.0
 40
1.0
 40
1.0
 40
1.0
 40
2.0
 40
2.0
 40
2.0
 40
2.0
 10
1.238942464192708
 20
-15.18598090277778
 30
0.0
 10
1.238942464192708
 20
-15.74856499565972
 30
0.0
 10
0.6172749837239583
 20
-16.06826985677083
 30
0.0
 10
-0.0412550184461806
 20
-16.06826985677083
 30
0.0
 10
-0.6996127658420138
 20
-16.06826985677083
 30
0.0
 10
-1.243593343098958
 20
-15.80334201388889
 30
0.0
 10
-1.243593343098958
 20
-15.19993353949653
 30
0.0
  0
SPLINE
  5
189
330
14D
100
AcDbEntity
  8
LAYER_1
  6
AI9-LTYPE2
 62
     7
100
AcDbSpline
210
0.0
220
0.0
230
1.0
 70
     8
 71
     3
 72
    11
 73
     7
 74
     0
 42
0.0000000001
 43
0.0000000001
 40
0.0
 40
0.0
 40
0.0
 40
0.0
 40
1.0
 40
1.0
 40
1.0
 40
2.0
 40
2.0
 40
2.0
 40
2.0
 10
1.238942464192708
 20
-14.55535617404514
 30
0.0
 10
1.238942464192708
 20
-15.11742350260417
 30
0.0
 10
0.6172749837239583
 20
-15.43764512803819
 30
0.0
 10
-0.0412550184461806
 20
-15.43764512803819
 30
0.0
 10
-0.6996127658420138
 20
-15.43764512803819
 30
0.0
 10
-1.243593343098958
 20
-15.17254503038194
 30
0.0
 10
-1.243593343098958
 20
-14.56879204644097
 30
0.0
  0
SPLINE
  5
188
330
14D
100
AcDbEntity
  8
LAYER_1
  6
AI9-LTYPE2
 62
     7
100
AcDbSpline
210
0.0
220
0.0
230
1.0
 70
     8
 71
     3
 72
    11
 73
     7
 74
     0
 42
0.0000000001
 43
0.0000000001
 40
0.0
 40
0.0
 40
0.0
 40
0.0
 40
1.0
 40
1.0
 40
1.0
 40
2.0
 40
2.0
 40
2.0
 40
2.0
 10
1.238942464192708
 20
-13.92421468098958
 30
0.0
 10
1.238942464192708
 20
-14.48679877387153
 30
0.0
 10
0.6172749837239583
 20
-14.80650363498264
 30
0.0
 10
-0.0412550184461806
 20
-14.80650363498264
 30
0.0
 10
-0.6996127658420138
 20
-14.80650363498264
 30
0.0
 10
-1.243593343098958
 20
-14.54140353732639
 30
0.0
 10
-1.243593343098958
 20
-13.93799506293403
 30
0.0
  0
SPLINE
  5
187
330
14D
100
AcDbEntity
  8
LAYER_1
  6
AI9-LTYPE2
 62
     7
100
AcDbSpline
210
0.0
220
0.0
230
1.0
 70
     8
 71
     3
 72
    11
 73
     7
 74
     0
 42
0.0000000001
 43
0.0000000001
 40
0.0
 40
0.0
 40
0.0
 40
0.0
 40
1.0
 40
1.0
 40
1.0
 40
2.0
 40
2.0
 40
2.0
 40
2.0
 10
1.238942464192708
 20
-13.29307318793403
 30
0.0
 10
1.238942464192708
 20
-13.85565728081597
 30
0.0
 10
0.6172749837239583
 20
-14.17570665147569
 30
0.0
 10
-0.0412550184461806
 20
-14.17570665147569
 30
0.0
 10
-0.6996127658420138
 20
-14.17570665147569
 30
0.0
 10
-1.243593343098958
 20
-13.91026204427083
 30
0.0
 10
-1.243593343098958
 20
-13.30685356987847
 30
0.0
  0
SPLINE
  5
186
330
14D
100
AcDbEntity
  8
LAYER_1
  6
AI9-LTYPE2
 62
     7
100
AcDbSpline
210
0.0
220
0.0
230
1.0
 70
     8
 71
     3
 72
    11
 73
     7
 74
     0
 42
0.0000000001
 43
0.0000000001
 40
0.0
 40
0.0
 40
0.0
 40
0.0
 40
1.0
 40
1.0
 40
1.0
 40
2.0
 40
2.0
 40
2.0
 40
2.0
 10
1.238942464192708
 20
-12.66227620442708
 30
0.0
 10
1.238942464192708
 20
-13.22451578776042
 30
0.0
 10
0.6172749837239583
 20
-13.54456515842014
 30
0.0
 10
-0.0412550184461806
 20
-13.54456515842014
 30
0.0
 10
-0.6996127658420138
 20
-13.54456515842014
 30
0.0
 10
-1.243593343098958
 20
-13.27963731553819
 30
0.0
 10
-1.243593343098958
 20
-12.67571207682292
 30
0.0
  0
SPLINE
  5
185
330
14D
100
AcDbEntity
  8
LAYER_1
  6
AI9-LTYPE2
 62
     7
100
AcDbSpline
210
0.0
220
0.0
230
1.0
 70
     8
 71
     3
 72
    11
 73
     7
 74
     0
 42
0.0000000001
 43
0.0000000001
 40
0.0
 40
0.0
 40
0.0
 40
0.0
 40
1.0
 40
1.0
 40
1.0
 40
2.0
 40
2.0
 40
2.0
 40
2.0
 10
1.238942464192708
 20
-12.03113471137153
 30
0.0
 10
1.238942464192708
 20
-12.59371880425347
 30
0.0
 10
0.6172749837239583
 20
-12.91342366536458
 30
0.0
 10
-0.0412550184461806
 20
-12.91342366536458
 30
0.0
 10
-0.6996127658420138
 20
-12.91342366536458
 30
0.0
 10
-1.243593343098958
 20
-12.64849582248264
 30
0.0
 10
-1.243593343098958
 20
-12.04508734809028
 30
0.0
  0
SPLINE
  5
184
330
14D
100
AcDbEntity
  8
LAYER_1
  6
AI9-LTYPE2
 62
     7
100
AcDbSpline
210
0.0
220
0.0
230
1.0
 70
     8
 71
     3
 72
    11
 73
     7
 74
     0
 42
0.0000000001
 43
0.0000000001
 40
0.0
 40
0.0
 40
0.0
 40
0.0
 40
1.0
 40
1.0
 40
1.0
 40
2.0
 40
2.0
 40
2.0
 40
2.0
 10
1.238942464192708
 20
-11.40050998263889
 30
0.0
 10
1.238942464192708
 20
-11.96257731119792
 30
0.0
 10
0.6172749837239583
 20
-12.28279893663194
 30
0.0
 10
-0.0412550184461806
 20
-12.28279893663194
 30
0.0
 10
-0.6996127658420138
 20
-12.28279893663194
 30
0.0
 10
-1.243593343098958
 20
-12.01735432942708
 30
0.0
 10
-1.243593343098958
 20
-11.41394585503472
 30
0.0
  0
SPLINE
  5
183
330
14D
100
AcDbEntity
  8
LAYER_1
  6
AI9-LTYPE2
 62
     7
100
AcDbSpline
210
0.0
220
0.0
230
1.0
 70
     8
 71
     3
 72
    11
 73
     7
 74
     0
 42
0.0000000001
 43
0.0000000001
 40
0.0
 40
0.0
 40
0.0
 40
0.0
 40
1.0
 40
1.0
 40
1.0
 40
2.0
 40
2.0
 40
2.0
 40
2.0
 10
-1.217927381727431
 20
17.11265055338541
 30
0.0
 10
-1.217927381727431
 20
16.89164767795139
 30
0.0
 10
-0.6682623969184027
 20
16.712158203125
 30
0.0
 10
0.0092156304253472
 20
16.712158203125
 30
0.0
 10
0.6866936577690972
 20
16.712158203125
 30
0.0
 10
1.236186387803819
 20
16.89164767795139
 30
0.0
 10
1.236186387803819
 20
17.11265055338541
 30
0.0
  0
SPLINE
  5
182
330
14D
100
AcDbEntity
  8
LAYER_1
  6
AI9-LTYPE2
 62
     7
100
AcDbSpline
210
0.0
220
0.0
230
1.0
 70
     8
 71
     3
 72
    11
 73
     7
 74
     0
 42
0.0000000001
 43
0.0000000001
 40
0.0
 40
0.0
 40
0.0
 40
0.0
 40
1.0
 40
1.0
 40
1.0
 40
2.0
 40
2.0
 40
2.0
 40
2.0
 10
-1.217927381727431
 20
17.58617892795139
 30
0.0
 10
-1.217927381727431
 20
17.36465928819444
 30
0.0
 10
-0.6682623969184027
 20
17.18551432291666
 30
0.0
 10
0.0092156304253472
 20
17.18551432291666
 30
0.0
 10
0.6866936577690972
 20
17.18551432291666
 30
0.0
 10
1.236186387803819
 20
17.36465928819444
 30
0.0
 10
1.236186387803819
 20
17.58617892795139
 30
0.0
  0
SPLINE
  5
181
330
14D
100
AcDbEntity
  8
LAYER_1
  6
AI9-LTYPE2
 62
     7
100
AcDbSpline
210
0.0
220
0.0
230
1.0
 70
     8
 71
     3
 72
    11
 73
     7
 74
     0
 42
0.0000000001
 43
0.0000000001
 40
0.0
 40
0.0
 40
0.0
 40
0.0
 40
1.0
 40
1.0
 40
1.0
 40
2.0
 40
2.0
 40
2.0
 40
2.0
 10
-1.217927381727431
 20
16.59175211588542
 30
0.0
 10
-1.217927381727431
 20
16.37023247612847
 30
0.0
 10
-0.6682623969184027
 20
16.19074300130208
 30
0.0
 10
0.0092156304253472
 20
16.19074300130208
 30
0.0
 10
0.6866936577690972
 20
16.19074300130208
 30
0.0
 10
1.236186387803819
 20
16.37023247612847
 30
0.0
 10
1.236186387803819
 20
16.59175211588542
 30
0.0
  0
SPLINE
  5
180
330
14D
100
AcDbEntity
  8
LAYER_1
  6
AI9-LTYPE2
 62
     7
100
AcDbSpline
210
0.0
220
0.0
230
1.0
 70
     8
 71
     3
 72
    11
 73
     7
 74
     0
 42
0.0000000001
 43
0.0000000001
 40
0.0
 40
0.0
 40
0.0
 40
0.0
 40
1.0
 40
1.0
 40
1.0
 40
2.0
 40
2.0
 40
2.0
 40
2.0
 10
-1.217927381727431
 20
16.0703369140625
 30
0.0
 10
-1.217927381727431
 20
15.84881727430556
 30
0.0
 10
-0.6682623969184027
 20
15.66967230902778
 30
0.0
 10
0.0092156304253472
 20
15.66967230902778
 30
0.0
 10
0.6866936577690972
 20
15.66967230902778
 30
0.0
 10
1.236186387803819
 20
15.84881727430556
 30
0.0
 10
1.236186387803819
 20
16.0703369140625
 30
0.0
  0
SPLINE
  5
17F
330
14D
100
AcDbEntity
  8
LAYER_1
  6
AI9-LTYPE2
 62
     7
100
AcDbSpline
210
0.0
220
0.0
230
1.0
 70
     8
 71
     3
 72
    11
 73
     7
 74
     0
 42
0.0000000001
 43
0.0000000001
 40
0.0
 40
0.0
 40
0.0
 40
0.0
 40
1.0
 40
1.0
 40
1.0
 40
2.0
 40
2.0
 40
2.0
 40
2.0
 10
-1.217927381727431
 20
15.54926622178819
 30
0.0
 10
-1.217927381727431
 20
15.32791883680556
 30
0.0
 10
-0.6682623969184027
 20
15.14842936197917
 30
0.0
 10
0.0092156304253472
 20
15.14842936197917
 30
0.0
 10
0.6866936577690972
 20
15.14842936197917
 30
0.0
 10
1.236186387803819
 20
15.32791883680556
 30
0.0
 10
1.236186387803819
 20
15.54926622178819
 30
0.0
  0
SPLINE
  5
17E
330
14D
100
AcDbEntity
  8
LAYER_1
  6
AI9-LTYPE2
 62
     7
100
AcDbSpline
210
0.0
220
0.0
230
1.0
 70
     8
 71
     3
 72
    11
 73
     7
 74
     0
 42
0.0000000001
 43
0.0000000001
 40
0.0
 40
0.0
 40
0.0
 40
0.0
 40
1.0
 40
1.0
 40
1.0
 40
2.0
 40
2.0
 40
2.0
 40
2.0
 10
-1.217927381727431
 20
15.02785101996528
 30
0.0
 10
-1.217927381727431
 20
14.80650363498264
 30
0.0
 10
-0.6682623969184027
 20
14.62701416015625
 30
0.0
 10
0.0092156304253472
 20
14.62701416015625
 30
0.0
 10
0.6866936577690972
 20
14.62701416015625
 30
0.0
 10
1.236186387803819
 20
14.80650363498264
 30
0.0
 10
1.236186387803819
 20
15.02785101996528
 30
0.0
  0
SPLINE
  5
17D
330
14D
100
AcDbEntity
  8
LAYER_1
  6
AI9-LTYPE2
 62
     7
100
AcDbSpline
210
0.0
220
0.0
230
1.0
 70
     8
 71
     3
 72
    11
 73
     7
 74
     0
 42
0.0000000001
 43
0.0000000001
 40
0.0
 40
0.0
 40
0.0
 40
0.0
 40
1.0
 40
1.0
 40
1.0
 40
2.0
 40
2.0
 40
2.0
 40
2.0
 10
-1.217927381727431
 20
14.50660807291667
 30
0.0
 10
-1.217927381727431
 20
14.28543294270833
 30
0.0
 10
-0.6682623969184027
 20
14.10594346788194
 30
0.0
 10
0.0092156304253472
 20
14.10594346788194
 30
0.0
 10
0.6866936577690972
 20
14.10594346788194
 30
0.0
 10
1.236186387803819
 20
14.28543294270833
 30
0.0
 10
1.236186387803819
 20
14.50660807291667
 30
0.0
  0
SPLINE
  5
17C
330
14D
100
AcDbEntity
  8
LAYER_1
  6
AI9-LTYPE2
 62
     7
100
AcDbSpline
210
0.0
220
0.0
230
1.0
 70
     8
 71
     3
 72
    11
 73
     7
 74
     0
 42
0.0000000001
 43
0.0000000001
 40
0.0
 40
0.0
 40
0.0
 40
0.0
 40
1.0
 40
1.0
 40
1.0
 40
2.0
 40
2.0
 40
2.0
 40
2.0
 10
-1.217927381727431
 20
13.98553738064236
 30
0.0
 10
-1.217927381727431
 20
13.76401774088542
 30
0.0
 10
-0.6682623969184027
 20
13.58470052083333
 30
0.0
 10
0.0092156304253472
 20
13.58470052083333
 30
0.0
 10
0.6866936577690972
 20
13.58470052083333
 30
0.0
 10
1.236186387803819
 20
13.76401774088542
 30
0.0
 10
1.236186387803819
 20
13.98553738064236
 30
0.0
  0
SPLINE
  5
17B
330
14D
100
AcDbEntity
  8
LAYER_1
  6
AI9-LTYPE2
 62
     7
100
AcDbSpline
210
0.0
220
0.0
230
1.0
 70
     8
 71
     3
 72
    11
 73
     7
 74
     0
 42
0.0000000001
 43
0.0000000001
 40
0.0
 40
0.0
 40
0.0
 40
0.0
 40
1.0
 40
1.0
 40
1.0
 40
2.0
 40
2.0
 40
2.0
 40
2.0
 10
-1.217927381727431
 20
13.46412217881944
 30
0.0
 10
-1.217927381727431
 20
13.24277479383681
 30
0.0
 10
-0.6682623969184027
 20
13.06362982855903
 30
0.0
 10
0.0092156304253472
 20
13.06362982855903
 30
0.0
 10
0.6866936577690972
 20
13.06362982855903
 30
0.0
 10
1.236186387803819
 20
13.24277479383681
 30
0.0
 10
1.236186387803819
 20
13.46412217881944
 30
0.0
  0
SPLINE
  5
17A
330
14D
100
AcDbEntity
  8
LAYER_1
  6
AI9-LTYPE2
 62
     7
100
AcDbSpline
210
0.0
220
0.0
230
1.0
 70
     8
 71
     3
 72
    11
 73
     7
 74
     0
 42
0.0000000001
 43
0.0000000001
 40
0.0
 40
0.0
 40
0.0
 40
0.0
 40
1.0
 40
1.0
 40
1.0
 40
2.0
 40
2.0
 40
2.0
 40
2.0
 10
-1.217927381727431
 20
12.94287923177083
 30
0.0
 10
-1.217927381727431
 20
12.7217041015625
 30
0.0
 10
-0.6682623969184027
 20
12.54221462673611
 30
0.0
 10
0.0092156304253472
 20
12.54221462673611
 30
0.0
 10
0.6866936577690972
 20
12.54221462673611
 30
0.0
 10
1.236186387803819
 20
12.7217041015625
 30
0.0
 10
1.236186387803819
 20
12.94287923177083
 30
0.0
  0
SPLINE
  5
179
330
14D
100
AcDbEntity
  8
LAYER_1
  6
AI9-LTYPE2
 62
     7
100
AcDbSpline
210
0.0
220
0.0
230
1.0
 70
     8
 71
     3
 72
    11
 73
     7
 74
     0
 42
0.0000000001
 43
0.0000000001
 40
0.0
 40
0.0
 40
0.0
 40
0.0
 40
1.0
 40
1.0
 40
1.0
 40
2.0
 40
2.0
 40
2.0
 40
2.0
 10
-1.217927381727431
 20
12.42180853949653
 30
0.0
 10
-1.217927381727431
 20
12.20028889973958
 30
0.0
 10
-0.6682623969184027
 20
12.02079942491319
 30
0.0
 10
0.0092156304253472
 20
12.02079942491319
 30
0.0
 10
0.6866936577690972
 20
12.02079942491319
 30
0.0
 10
1.236186387803819
 20
12.20028889973958
 30
0.0
 10
1.236186387803819
 20
12.42180853949653
 30
0.0
  0
SPLINE
  5
178
330
14D
100
AcDbEntity
  8
LAYER_1
  6
AI9-LTYPE2
 62
     7
100
AcDbSpline
210
0.0
220
0.0
230
1.0
 70
     8
 71
     3
 72
    11
 73
     7
 74
     0
 42
0.0000000001
 43
0.0000000001
 40
0.0
 40
0.0
 40
0.0
 40
0.0
 40
1.0
 40
1.0
 40
1.0
 40
2.0
 40
2.0
 40
2.0
 40
2.0
 10
-1.217927381727431
 20
11.90039333767361
 30
0.0
 10
-1.217927381727431
 20
11.67939046223958
 30
0.0
 10
-0.6682623969184027
 20
11.49990098741319
 30
0.0
 10
0.0092156304253472
 20
11.49990098741319
 30
0.0
 10
0.6866936577690972
 20
11.49990098741319
 30
0.0
 10
1.236186387803819
 20
11.67939046223958
 30
0.0
 10
1.236186387803819
 20
11.90039333767361
 30
0.0
  0
SPLINE
  5
177
330
14D
100
AcDbEntity
  8
LAYER_1
  6
AI9-LTYPE2
 62
     7
100
AcDbSpline
210
0.0
220
0.0
230
1.0
 70
     8
 71
     3
 72
    11
 73
     7
 74
     0
 42
0.0000000001
 43
0.0000000001
 40
0.0
 40
0.0
 40
0.0
 40
0.0
 40
1.0
 40
1.0
 40
1.0
 40
2.0
 40
2.0
 40
2.0
 40
2.0
 10
-1.217927381727431
 20
11.37949490017361
 30
0.0
 10
-1.217927381727431
 20
11.15797526041667
 30
0.0
 10
-0.6682623969184027
 20
10.97848578559028
 30
0.0
 10
0.0092156304253472
 20
10.97848578559028
 30
0.0
 10
0.6866936577690972
 20
10.97848578559028
 30
0.0
 10
1.236186387803819
 20
11.15797526041667
 30
0.0
 10
1.236186387803819
 20
11.37949490017361
 30
0.0
  0
SPLINE
  5
176
330
14D
100
AcDbEntity
  8
LAYER_1
  6
AI9-LTYPE2
 62
     7
100
AcDbSpline
210
0.0
220
0.0
230
1.0
 70
     8
 71
     3
 72
    11
 73
     7
 74
     0
 42
0.0000000001
 43
0.0000000001
 40
0.0
 40
0.0
 40
0.0
 40
0.0
 40
1.0
 40
1.0
 40
1.0
 40
2.0
 40
2.0
 40
2.0
 40
2.0
 10
-1.217927381727431
 20
10.85807969835069
 30
0.0
 10
-1.217927381727431
 20
10.63656005859375
 30
0.0
 10
-0.6682623969184027
 20
10.45758734809028
 30
0.0
 10
0.0092156304253472
 20
10.45758734809028
 30
0.0
 10
0.6866936577690972
 20
10.45758734809028
 30
0.0
 10
1.236186387803819
 20
10.63656005859375
 30
0.0
 10
1.236186387803819
 20
10.85807969835069
 30
0.0
  0
SPLINE
  5
175
330
14D
100
AcDbEntity
  8
LAYER_1
  6
AI9-LTYPE2
 62
     7
100
AcDbSpline
210
0.0
220
0.0
230
1.0
 70
     8
 71
     3
 72
    11
 73
     7
 74
     0
 42
0.0000000001
 43
0.0000000001
 40
0.0
 40
0.0
 40
0.0
 40
0.0
 40
1.0
 40
1.0
 40
1.0
 40
2.0
 40
2.0
 40
2.0
 40
2.0
 10
-1.217927381727431
 20
10.33666449652778
 30
0.0
 10
-1.217927381727431
 20
10.11566162109375
 30
0.0
 10
-0.6682623969184027
 20
9.93617214626736
 30
0.0
 10
0.0092156304253472
 20
9.93617214626736
 30
0.0
 10
0.6866936577690972
 20
9.93617214626736
 30
0.0
 10
1.236186387803819
 20
10.11566162109375
 30
0.0
 10
1.236186387803819
 20
10.33666449652778
 30
0.0
  0
SPLINE
  5
174
330
14D
100
AcDbEntity
  8
LAYER_1
  6
AI9-LTYPE2
 62
     7
100
AcDbSpline
210
0.0
220
0.0
230
1.0
 70
     8
 71
     3
 72
    11
 73
     7
 74
     0
 42
0.0000000001
 43
0.0000000001
 40
0.0
 40
0.0
 40
0.0
 40
0.0
 40
1.0
 40
1.0
 40
1.0
 40
2.0
 40
2.0
 40
2.0
 40
2.0
 10
-1.217927381727431
 20
9.815766059027776
 30
0.0
 10
-1.217927381727431
 20
9.594246419270833
 30
0.0
 10
-0.6682623969184027
 20
9.414756944444443
 30
0.0
 10
0.0092156304253472
 20
9.414756944444443
 30
0.0
 10
0.6866936577690972
 20
9.414756944444443
 30
0.0
 10
1.236186387803819
 20
9.594246419270833
 30
0.0
 10
1.236186387803819
 20
9.815766059027776
 30
0.0
  0
SPLINE
  5
173
330
14D
100
AcDbEntity
  8
LAYER_1
  6
AI9-LTYPE2
 62
     7
100
AcDbSpline
210
0.0
220
0.0
230
1.0
 70
     8
 71
     3
 72
    11
 73
     7
 74
     0
 42
0.0000000001
 43
0.0000000001
 40
0.0
 40
0.0
 40
0.0
 40
0.0
 40
1.0
 40
1.0
 40
1.0
 40
2.0
 40
2.0
 40
2.0
 40
2.0
 10
-1.217927381727431
 20
9.29435085720486
 30
0.0
 10
-1.217927381727431
 20
9.073175726996526
 30
0.0
 10
-0.6682623969184027
 20
8.893858506944444
 30
0.0
 10
0.0092156304253472
 20
8.893858506944444
 30
0.0
 10
0.6866936577690972
 20
8.893858506944444
 30
0.0
 10
1.236186387803819
 20
9.073175726996526
 30
0.0
 10
1.236186387803819
 20
9.29435085720486
 30
0.0
  0
SPLINE
  5
172
330
14D
100
AcDbEntity
  8
LAYER_1
  6
AI9-LTYPE2
 62
     7
100
AcDbSpline
210
0.0
220
0.0
230
1.0
 70
     8
 71
     3
 72
    11
 73
     7
 74
     0
 42
0.0000000001
 43
0.0000000001
 40
0.0
 40
0.0
 40
0.0
 40
0.0
 40
1.0
 40
1.0
 40
1.0
 40
2.0
 40
2.0
 40
2.0
 40
2.0
 10
-1.217927381727431
 20
8.772935655381943
 30
0.0
 10
-1.217927381727431
 20
8.551932779947915
 30
0.0
 10
-0.6682623969184027
 20
8.372443305121527
 30
0.0
 10
0.0092156304253472
 20
8.372443305121527
 30
0.0
 10
0.6866936577690972
 20
8.372443305121527
 30
0.0
 10
1.236186387803819
 20
8.551932779947915
 30
0.0
 10
1.236186387803819
 20
8.772935655381943
 30
0.0
  0
SPLINE
  5
171
330
14D
100
AcDbEntity
  8
LAYER_1
  6
AI9-LTYPE2
 62
     7
100
AcDbSpline
210
0.0
220
0.0
230
1.0
 70
     8
 71
     3
 72
    11
 73
     7
 74
     0
 42
0.0000000001
 43
0.0000000001
 40
0.0
 40
0.0
 40
0.0
 40
0.0
 40
1.0
 40
1.0
 40
1.0
 40
2.0
 40
2.0
 40
2.0
 40
2.0
 10
-1.217927381727431
 20
8.252037217881943
 30
0.0
 10
-1.217927381727431
 20
8.030517578125
 30
0.0
 10
-0.6682623969184027
 20
7.851372612847221
 30
0.0
 10
0.0092156304253472
 20
7.851372612847221
 30
0.0
 10
0.6866936577690972
 20
7.851372612847221
 30
0.0
 10
1.236186387803819
 20
8.030517578125
 30
0.0
 10
1.236186387803819
 20
8.252037217881943
 30
0.0
  0
SPLINE
  5
170
330
14D
100
AcDbEntity
  8
LAYER_1
  6
AI9-LTYPE2
 62
     7
100
AcDbSpline
210
0.0
220
0.0
230
1.0
 70
     8
 71
     3
 72
    11
 73
     7
 74
     0
 42
0.0000000001
 43
0.0000000001
 40
0.0
 40
0.0
 40
0.0
 40
0.0
 40
1.0
 40
1.0
 40
1.0
 40
2.0
 40
2.0
 40
2.0
 40
2.0
 10
-1.217927381727431
 20
7.730622016059027
 30
0.0
 10
-1.217927381727431
 20
7.509446885850694
 30
0.0
 10
-0.6682623969184027
 20
7.329957411024305
 30
0.0
 10
0.0092156304253472
 20
7.329957411024305
 30
0.0
 10
0.6866936577690972
 20
7.329957411024305
 30
0.0
 10
1.236186387803819
 20
7.509446885850694
 30
0.0
 10
1.236186387803819
 20
7.730622016059027
 30
0.0
  0
SPLINE
  5
16F
330
14D
100
AcDbEntity
  8
LAYER_1
  6
AI9-LTYPE2
 62
     7
100
AcDbSpline
210
0.0
220
0.0
230
1.0
 70
     8
 71
     3
 72
    11
 73
     7
 74
     0
 42
0.0000000001
 43
0.0000000001
 40
0.0
 40
0.0
 40
0.0
 40
0.0
 40
1.0
 40
1.0
 40
1.0
 40
2.0
 40
2.0
 40
2.0
 40
2.0
 10
-1.217927381727431
 20
7.209551323784722
 30
0.0
 10
-1.217927381727431
 20
6.988203938802083
 30
0.0
 10
-0.6682623969184027
 20
6.808714463975694
 30
0.0
 10
0.0092156304253472
 20
6.808714463975694
 30
0.0
 10
0.6866936577690972
 20
6.808714463975694
 30
0.0
 10
1.236186387803819
 20
6.988203938802083
 30
0.0
 10
1.236186387803819
 20
7.209551323784722
 30
0.0
  0
SPLINE
  5
16E
330
14D
100
AcDbEntity
  8
LAYER_1
  6
AI9-LTYPE2
 62
     7
100
AcDbSpline
210
0.0
220
0.0
230
1.0
 70
     8
 71
     3
 72
    11
 73
     7
 74
     0
 42
0.0000000001
 43
0.0000000001
 40
0.0
 40
0.0
 40
0.0
 40
0.0
 40
1.0
 40
1.0
 40
1.0
 40
2.0
 40
2.0
 40
2.0
 40
2.0
 10
-1.217927381727431
 20
6.688136121961805
 30
0.0
 10
-1.217927381727431
 20
6.466788736979166
 30
0.0
 10
-0.6682623969184027
 20
6.287643771701388
 30
0.0
 10
0.0092156304253472
 20
6.287643771701388
 30
0.0
 10
0.6866936577690972
 20
6.287643771701388
 30
0.0
 10
1.236186387803819
 20
6.466788736979166
 30
0.0
 10
1.236186387803819
 20
6.688136121961805
 30
0.0
  0
SPLINE
  5
16D
330
14D
100
AcDbEntity
  8
LAYER_1
  6
AI9-LTYPE2
 62
     7
100
AcDbSpline
210
0.0
220
0.0
230
1.0
 70
     8
 71
     3
 72
    11
 73
     7
 74
     0
 42
0.0000000001
 43
0.0000000001
 40
0.0
 40
0.0
 40
0.0
 40
0.0
 40
1.0
 40
1.0
 40
1.0
 40
2.0
 40
2.0
 40
2.0
 40
2.0
 10
-1.217927381727431
 20
6.166893174913194
 30
0.0
 10
-1.217927381727431
 20
5.945718044704861
 30
0.0
 10
-0.6682623969184027
 20
5.766228569878471
 30
0.0
 10
0.0092156304253472
 20
5.766228569878471
 30
0.0
 10
0.6866936577690972
 20
5.766228569878471
 30
0.0
 10
1.236186387803819
 20
5.945718044704861
 30
0.0
 10
1.236186387803819
 20
6.166893174913194
 30
0.0
  0
SPLINE
  5
16C
330
14D
100
AcDbEntity
  8
LAYER_1
  6
AI9-LTYPE2
 62
     7
100
AcDbSpline
210
0.0
220
0.0
230
1.0
 70
     8
 71
     3
 72
    11
 73
     7
 74
     0
 42
0.0000000001
 43
0.0000000001
 40
0.0
 40
0.0
 40
0.0
 40
0.0
 40
1.0
 40
1.0
 40
1.0
 40
2.0
 40
2.0
 40
2.0
 40
2.0
 10
-1.217927381727431
 20
5.645822482638889
 30
0.0
 10
-1.217927381727431
 20
5.424302842881944
 30
0.0
 10
-0.6682623969184027
 20
5.24498562282986
 30
0.0
 10
0.0092156304253472
 20
5.24498562282986
 30
0.0
 10
0.6866936577690972
 20
5.24498562282986
 30
0.0
 10
1.236186387803819
 20
5.424302842881944
 30
0.0
 10
1.236186387803819
 20
5.645822482638889
 30
0.0
  0
SPLINE
  5
16B
330
14D
100
AcDbEntity
  8
LAYER_1
  6
AI9-LTYPE2
 62
     7
100
AcDbSpline
210
0.0
220
0.0
230
1.0
 70
     8
 71
     3
 72
    11
 73
     7
 74
     0
 42
0.0000000001
 43
0.0000000001
 40
0.0
 40
0.0
 40
0.0
 40
0.0
 40
1.0
 40
1.0
 40
1.0
 40
2.0
 40
2.0
 40
2.0
 40
2.0
 10
-1.217927381727431
 20
5.124407280815972
 30
0.0
 10
-1.217927381727431
 20
4.903404405381944
 30
0.0
 10
-0.6682623969184027
 20
4.723914930555555
 30
0.0
 10
0.0092156304253472
 20
4.723914930555555
 30
0.0
 10
0.6866936577690972
 20
4.723914930555555
 30
0.0
 10
1.236186387803819
 20
4.903404405381944
 30
0.0
 10
1.236186387803819
 20
5.124407280815972
 30
0.0
  0
SPLINE
  5
16A
330
14D
100
AcDbEntity
  8
LAYER_1
  6
AI9-LTYPE2
 62
     7
100
AcDbSpline
210
0.0
220
0.0
230
1.0
 70
     8
 71
     3
 72
    11
 73
     7
 74
     0
 42
0.0000000001
 43
0.0000000001
 40
0.0
 40
0.0
 40
0.0
 40
0.0
 40
1.0
 40
1.0
 40
1.0
 40
2.0
 40
2.0
 40
2.0
 40
2.0
 10
-1.217927381727431
 20
4.603508843315971
 30
0.0
 10
-1.217927381727431
 20
4.381989203559027
 30
0.0
 10
-0.6682623969184027
 20
4.202499728732638
 30
0.0
 10
0.0092156304253472
 20
4.202499728732638
 30
0.0
 10
0.6866936577690972
 20
4.202499728732638
 30
0.0
 10
1.236186387803819
 20
4.381989203559027
 30
0.0
 10
1.236186387803819
 20
4.603508843315971
 30
0.0
  0
SPLINE
  5
169
330
14D
100
AcDbEntity
  8
LAYER_1
  6
AI9-LTYPE2
 62
     7
100
AcDbSpline
210
0.0
220
0.0
230
1.0
 70
     8
 71
     3
 72
    11
 73
     7
 74
     0
 42
0.0000000001
 43
0.0000000001
 40
0.0
 40
0.0
 40
0.0
 40
0.0
 40
1.0
 40
1.0
 40
1.0
 40
2.0
 40
2.0
 40
2.0
 40
2.0
 10
-1.217927381727431
 20
4.082093641493056
 30
0.0
 10
-1.217927381727431
 20
3.860574001736111
 30
0.0
 10
-0.6682623969184027
 20
3.681084526909722
 30
0.0
 10
0.0092156304253472
 20
3.681084526909722
 30
0.0
 10
0.6866936577690972
 20
3.681084526909722
 30
0.0
 10
1.236186387803819
 20
3.860574001736111
 30
0.0
 10
1.236186387803819
 20
4.082093641493056
 30
0.0
  0
SPLINE
  5
168
330
14D
100
AcDbEntity
  8
LAYER_1
  6
AI9-LTYPE2
 62
     7
100
AcDbSpline
210
0.0
220
0.0
230
1.0
 70
     8
 71
     3
 72
    11
 73
     7
 74
     0
 42
0.0000000001
 43
0.0000000001
 40
0.0
 40
0.0
 40
0.0
 40
0.0
 40
1.0
 40
1.0
 40
1.0
 40
2.0
 40
2.0
 40
2.0
 40
2.0
 10
-1.217927381727431
 20
3.560678439670139
 30
0.0
 10
-1.217927381727431
 20
3.339675564236111
 30
0.0
 10
-0.6682623969184027
 20
3.160186089409722
 30
0.0
 10
0.0092156304253472
 20
3.160186089409722
 30
0.0
 10
0.6866936577690972
 20
3.160186089409722
 30
0.0
 10
1.236186387803819
 20
3.339675564236111
 30
0.0
 10
1.236186387803819
 20
3.560678439670139
 30
0.0
  0
SPLINE
  5
167
330
14D
100
AcDbEntity
  8
LAYER_1
  6
AI9-LTYPE2
 62
     7
100
AcDbSpline
210
0.0
220
0.0
230
1.0
 70
     8
 71
     3
 72
    11
 73
     7
 74
     0
 42
0.0000000001
 43
0.0000000001
 40
0.0
 40
0.0
 40
0.0
 40
0.0
 40
1.0
 40
1.0
 40
1.0
 40
2.0
 40
2.0
 40
2.0
 40
2.0
 10
-1.217927381727431
 20
3.039780002170139
 30
0.0
 10
-1.217927381727431
 20
2.818260362413194
 30
0.0
 10
-0.6682623969184027
 20
2.638770887586805
 30
0.0
 10
0.0092156304253472
 20
2.638770887586805
 30
0.0
 10
0.6866936577690972
 20
2.638770887586805
 30
0.0
 10
1.236186387803819
 20
2.818260362413194
 30
0.0
 10
1.236186387803819
 20
3.039780002170139
 30
0.0
  0
SPLINE
  5
166
330
14D
100
AcDbEntity
  8
LAYER_1
  6
AI9-LTYPE2
 62
     7
100
AcDbSpline
210
0.0
220
0.0
230
1.0
 70
     8
 71
     3
 72
    11
 73
     7
 74
     0
 42
0.0000000001
 43
0.0000000001
 40
0.0
 40
0.0
 40
0.0
 40
0.0
 40
1.0
 40
1.0
 40
1.0
 40
2.0
 40
2.0
 40
2.0
 40
2.0
 10
-1.217927381727431
 20
2.518364800347222
 30
0.0
 10
-1.217927381727431
 20
2.296845160590278
 30
0.0
 10
-0.6682623969184027
 20
2.117872450086805
 30
0.0
 10
0.0092156304253472
 20
2.117872450086805
 30
0.0
 10
0.6866936577690972
 20
2.117872450086805
 30
0.0
 10
1.236186387803819
 20
2.296845160590278
 30
0.0
 10
1.236186387803819
 20
2.518364800347222
 30
0.0
  0
SPLINE
  5
165
330
14D
100
AcDbEntity
  8
LAYER_1
  6
AI9-LTYPE2
 62
     7
100
AcDbSpline
210
0.0
220
0.0
230
1.0
 70
     8
 71
     3
 72
    11
 73
     7
 74
     0
 42
0.0000000001
 43
0.0000000001
 40
0.0
 40
0.0
 40
0.0
 40
0.0
 40
1.0
 40
1.0
 40
1.0
 40
2.0
 40
2.0
 40
2.0
 40
2.0
 10
-1.217927381727431
 20
1.996949598524305
 30
0.0
 10
-1.217927381727431
 20
1.775946723090278
 30
0.0
 10
-0.6682623969184027
 20
1.596457248263889
 30
0.0
 10
0.0092156304253472
 20
1.596457248263889
 30
0.0
 10
0.6866936577690972
 20
1.596457248263889
 30
0.0
 10
1.236186387803819
 20
1.775946723090278
 30
0.0
 10
1.236186387803819
 20
1.996949598524305
 30
0.0
  0
INSERT
  5
153
330
14D
100
AcDbEntity
  8
LAYER_1
 62
     7
100
AcDbBlockReference
  2
AI9-BLK10
 10
-0.0018948025173611
 20
-7.322119818793402
 30
0.0
  0
SPLINE
  5
151
330
14D
100
AcDbEntity
  8
LAYER_1
  6
AI9-LTYPE2
 62
     7
100
AcDbSpline
210
0.0
220
0.0
230
1.0
 70
     8
 71
     3
 72
    11
 73
     7
 74
     0
 42
0.0000000001
 43
0.0000000001
 40
0.0
 40
0.0
 40
0.0
 40
0.0
 40
1.0
 40
1.0
 40
1.0
 40
2.0
 40
2.0
 40
2.0
 40
2.0
 10
1.238942464192708
 20
-16.44791937934028
 30
0.0
 10
1.238942464192708
 20
-17.01050347222222
 30
0.0
 10
0.6172749837239583
 20
-17.33055284288194
 30
0.0
 10
-0.0412550184461806
 20
-17.33055284288194
 30
0.0
 10
-0.6996127658420138
 20
-17.33055284288194
 30
0.0
 10
-1.243593343098958
 20
-17.06510823567708
 30
0.0
 10
-1.243593343098958
 20
-16.46169976128472
 30
0.0
  0
ENDBLK
  5
18F
330
14D
100
AcDbEntity
  8
LAYER_1
100
AcDbBlockEnd
  0
BLOCK
  5
154
330
152
100
AcDbEntity
  8
LAYER_1
 62
     7
100
AcDbBlockBegin
  2
AI9-BLK10
 70
     0
 10
0.0
 20
0.0
 30
0.0
  3
AI9-BLK10
  1

  4

  0
SPLINE
  5
163
330
152
100
AcDbEntity
  8
LAYER_1
  6
AI9-LTYPE2
 62
     7
100
AcDbSpline
210
0.0
220
0.0
230
1.0
 70
     8
 71
     3
 72
    11
 73
     7
 74
     0
 42
0.0000000001
 43
0.0000000001
 40
0.0
 40
0.0
 40
0.0
 40
0.0
 40
1.0
 40
1.0
 40
1.0
 40
2.0
 40
2.0
 40
2.0
 40
2.0
 10
-1.240837266710069
 20
-3.527691650390625
 30
0.0
 10
-1.240837266710069
 20
-4.112841118706597
 30
0.0
 10
-0.6961676703559028
 20
-4.37432386610243
 30
0.0
 10
-0.0369486490885417
 20
-4.37432386610243
 30
0.0
 10
0.6222703721788194
 20
-4.37432386610243
 30
0.0
 10
1.240837266710069
 20
-4.06082017686632
 30
0.0
 10
1.240837266710069
 20
-3.514600287543403
 30
0.0
  0
SPLINE
  5
162
330
152
100
AcDbEntity
  8
LAYER_1
  6
AI9-LTYPE2
 62
     7
100
AcDbSpline
210
0.0
220
0.0
230
1.0
 70
     8
 71
     3
 72
    11
 73
     7
 74
     0
 42
0.0000000001
 43
0.0000000001
 40
0.0
 40
0.0
 40
0.0
 40
0.0
 40
1.0
 40
1.0
 40
1.0
 40
2.0
 40
2.0
 40
2.0
 40
2.0
 10
-1.239286973741319
 20
-2.963385009765625
 30
0.0
 10
-1.239286973741319
 20
-3.530447726779514
 30
0.0
 10
-0.6949618869357638
 20
-3.787451850043402
 30
0.0
 10
-0.0345370822482639
 20
-3.787451850043402
 30
0.0
 10
0.625543212890625
 20
-3.787451850043402
 30
0.0
 10
1.240837266710069
 20
-3.480838351779513
 30
0.0
 10
1.240837266710069
 20
-2.95115492078993
 30
0.0
  0
SPLINE
  5
161
330
152
100
AcDbEntity
  8
LAYER_1
  6
AI9-LTYPE2
 62
     7
100
AcDbSpline
210
0.0
220
0.0
230
1.0
 70
     8
 71
     3
 72
    11
 73
     7
 74
     0
 42
0.0000000001
 43
0.0000000001
 40
0.0
 40
0.0
 40
0.0
 40
0.0
 40
1.0
 40
1.0
 40
1.0
 40
2.0
 40
2.0
 40
2.0
 40
2.0
 10
-1.23808119032118
 20
-2.399767388237847
 30
0.0
 10
-1.23808119032118
 20
-2.948398844401042
 30
0.0
 10
-0.6934115939670138
 20
-3.201096598307291
 30
0.0
 10
-0.0321255154079861
 20
-3.201096598307291
 30
0.0
 10
0.6291605631510416
 20
-3.201096598307291
 30
0.0
 10
1.240320502387153
 20
-2.901201036241319
 30
0.0
 10
1.240320502387153
 20
-2.387881808810764
 30
0.0
  0
SPLINE
  5
160
330
152
100
AcDbEntity
  8
LAYER_1
  6
AI9-LTYPE2
 62
     7
100
AcDbSpline
210
0.0
220
0.0
230
1.0
 70
     8
 71
     3
 72
    11
 73
     7
 74
     0
 42
0.0000000001
 43
0.0000000001
 40
0.0
 40
0.0
 40
0.0
 40
0.0
 40
1.0
 40
1.0
 40
1.0
 40
2.0
 40
2.0
 40
2.0
 40
2.0
 10
-1.236875406901042
 20
-1.835116238064236
 30
0.0
 10
-1.236875406901042
 20
-2.366005452473958
 30
0.0
 10
-0.6918613009982638
 20
-2.61474134657118
 30
0.0
 10
-0.0297139485677083
 20
-2.61474134657118
 30
0.0
 10
0.6322611490885416
 20
-2.61474134657118
 30
0.0
 10
1.240320502387153
 20
-2.321563720703125
 30
0.0
 10
1.240320502387153
 20
-1.82409193250868
 30
0.0
  0
SPLINE
  5
15F
330
152
100
AcDbEntity
  8
LAYER_1
  6
AI9-LTYPE2
 62
     7
100
AcDbSpline
210
0.0
220
0.0
230
1.0
 70
     8
 71
     3
 72
    11
 73
     7
 74
     0
 42
0.0000000001
 43
0.0000000001
 40
0.0
 40
0.0
 40
0.0
 40
0.0
 40
1.0
 40
1.0
 40
1.0
 40
2.0
 40
2.0
 40
2.0
 40
2.0
 10
-1.235841878255208
 20
-1.270981852213542
 30
0.0
 10
-1.235841878255208
 20
-1.783612060546875
 30
0.0
 10
-0.6901387532552082
 20
-2.028386094835069
 30
0.0
 10
-0.0274746365017361
 20
-2.028386094835069
 30
0.0
 10
0.6353617350260417
 20
-2.028386094835069
 30
0.0
 10
1.239975992838542
 20
-1.741581895616319
 30
0.0
 10
1.239975992838542
 20
-1.260646565755208
 30
0.0
  0
SPLINE
  5
15E
330
152
100
AcDbEntity
  8
LAYER_1
  6
AI9-LTYPE2
 62
     7
100
AcDbSpline
210
0.0
220
0.0
230
1.0
 70
     8
 71
     3
 72
    11
 73
     7
 74
     0
 42
0.0000000001
 43
0.0000000001
 40
0.0
 40
0.0
 40
0.0
 40
0.0
 40
1.0
 40
1.0
 40
1.0
 40
2.0
 40
2.0
 40
2.0
 40
2.0
 10
-1.234636094835069
 20
-0.7068474663628471
 30
0.0
 10
-1.234636094835069
 20
-1.201218668619792
 30
0.0
 10
-0.689105224609375
 20
-1.441686333550347
 30
0.0
 10
-0.0250630696614583
 20
-1.441686333550347
 30
0.0
 10
0.6389790852864583
 20
-1.441686333550347
 30
0.0
 10
1.239975992838542
 20
-1.161944580078125
 30
0.0
 10
1.239975992838542
 20
-0.696856689453125
 30
0.0
  0
SPLINE
  5
15D
330
152
100
AcDbEntity
  8
LAYER_1
  6
AI9-LTYPE2
 62
     7
100
AcDbSpline
210
0.0
220
0.0
230
1.0
 70
     8
 71
     3
 72
    11
 73
     7
 74
     0
 42
0.0000000001
 43
0.0000000001
 40
0.0
 40
0.0
 40
0.0
 40
0.0
 40
1.0
 40
1.0
 40
1.0
 40
2.0
 40
2.0
 40
2.0
 40
2.0
 10
-1.232913547092014
 20
-0.1425408257378472
 30
0.0
 10
-1.232913547092014
 20
-0.6188252766927083
 30
0.0
 10
-0.6873826768663194
 20
-0.855331081814236
 30
0.0
 10
-0.0226515028211806
 20
-0.855331081814236
 30
0.0
 10
0.6420796712239583
 20
-0.855331081814236
 30
0.0
 10
1.239975992838542
 20
-0.5823072645399305
 30
0.0
 10
1.239975992838542
 20
-0.1335835774739583
 30
0.0
  0
SPLINE
  5
15C
330
152
100
AcDbEntity
  8
LAYER_1
  6
AI9-LTYPE2
 62
     7
100
AcDbSpline
210
0.0
220
0.0
230
1.0
 70
     8
 71
     3
 72
    11
 73
     7
 74
     0
 42
0.0000000001
 43
0.0000000001
 40
0.0
 40
0.0
 40
0.0
 40
0.0
 40
1.0
 40
1.0
 40
1.0
 40
2.0
 40
2.0
 40
2.0
 40
2.0
 10
-1.23188001844618
 20
0.4215935601128472
 30
0.0
 10
-1.23188001844618
 20
-0.036431884765625
 30
0.0
 10
-0.6858323838975694
 20
-0.268975830078125
 30
0.0
 10
-0.0202399359809028
 20
-0.268975830078125
 30
0.0
 10
0.6453525119357638
 20
-0.268975830078125
 30
0.0
 10
1.23963148328993
 20
-0.0028422037760417
 30
0.0
 10
1.23963148328993
 20
0.4298617892795139
 30
0.0
  0
SPLINE
  5
15B
330
152
100
AcDbEntity
  8
LAYER_1
  6
AI9-LTYPE2
 62
     7
100
AcDbSpline
210
0.0
220
0.0
230
1.0
 70
     8
 71
     3
 72
    11
 73
     7
 74
     0
 42
0.0000000001
 43
0.0000000001
 40
0.0
 40
0.0
 40
0.0
 40
0.0
 40
1.0
 40
1.0
 40
1.0
 40
2.0
 40
2.0
 40
2.0
 40
2.0
 10
-1.230674235026042
 20
0.9857279459635416
 30
0.0
 10
-1.230674235026042
 20
0.5459615071614583
 30
0.0
 10
-0.6842820909288194
 20
0.3173794216579861
 30
0.0
 10
-0.017828369140625
 20
0.3173794216579861
 30
0.0
 10
0.6489698621961805
 20
0.3173794216579861
 30
0.0
 10
1.23963148328993
 20
0.5773118760850694
 30
0.0
 10
1.23963148328993
 20
0.9936516655815971
 30
0.0
  0
SPLINE
  5
15A
330
152
100
AcDbEntity
  8
LAYER_1
  6
AI9-LTYPE2
 62
     7
100
AcDbSpline
210
0.0
220
0.0
230
1.0
 70
     8
 71
     3
 72
    11
 73
     7
 74
     0
 42
0.0000000001
 43
0.0000000001
 40
0.0
 40
0.0
 40
0.0
 40
0.0
 40
1.0
 40
1.0
 40
1.0
 40
2.0
 40
2.0
 40
2.0
 40
2.0
 10
-1.229468451605903
 20
1.549862331814236
 30
0.0
 10
-1.229468451605903
 20
1.128354899088542
 30
0.0
 10
-0.6830763075086805
 20
0.9040791829427083
 30
0.0
 10
-0.0155890570746528
 20
0.9040791829427083
 30
0.0
 10
0.6520704481336805
 20
0.9040791829427083
 30
0.0
 10
1.23963148328993
 20
1.157293701171875
 30
0.0
 10
1.23963148328993
 20
1.557097032335069
 30
0.0
  0
SPLINE
  5
159
330
152
100
AcDbEntity
  8
LAYER_1
  6
AI9-LTYPE2
 62
     7
100
AcDbSpline
210
0.0
220
0.0
230
1.0
 70
     8
 71
     3
 72
    11
 73
     7
 74
     0
 42
0.0000000001
 43
0.0000000001
 40
0.0
 40
0.0
 40
0.0
 40
0.0
 40
1.0
 40
1.0
 40
1.0
 40
2.0
 40
2.0
 40
2.0
 40
2.0
 10
-1.228262668185764
 20
2.113652208116319
 30
0.0
 10
-1.228262668185764
 20
1.710403781467014
 30
0.0
 10
-0.6815260145399305
 20
1.490434434678819
 30
0.0
 10
-0.013177490234375
 20
1.490434434678819
 30
0.0
 10
0.6551710340711805
 20
1.490434434678819
 30
0.0
 10
1.239286973741319
 20
1.736414252387153
 30
0.0
 10
1.239286973741319
 20
2.120370144314236
 30
0.0
  0
SPLINE
  5
158
330
152
100
AcDbEntity
  8
LAYER_1
  6
AI9-LTYPE2
 62
     7
100
AcDbSpline
210
0.0
220
0.0
230
1.0
 70
     8
 71
     3
 72
    11
 73
     7
 74
     0
 42
0.0000000001
 43
0.0000000001
 40
0.0
 40
0.0
 40
0.0
 40
0.0
 40
1.0
 40
1.0
 40
1.0
 40
2.0
 40
2.0
 40
2.0
 40
2.0
 10
-1.227056884765625
 20
2.67830335828993
 30
0.0
 10
-1.227056884765625
 20
2.292797173394097
 30
0.0
 10
-0.6799757215711805
 20
2.07678968641493
 30
0.0
 10
-0.0104214138454861
 20
2.07678968641493
 30
0.0
 10
0.6587883843315971
 20
2.07678968641493
 30
0.0
 10
1.239286973741319
 20
2.316568332248264
 30
0.0
 10
1.239286973741319
 20
2.683815511067708
 30
0.0
  0
SPLINE
  5
157
330
152
100
AcDbEntity
  8
LAYER_1
  6
AI9-LTYPE2
 62
     7
100
AcDbSpline
210
0.0
220
0.0
230
1.0
 70
     8
 71
     3
 72
    11
 73
     7
 74
     0
 42
0.0000000001
 43
0.0000000001
 40
0.0
 40
0.0
 40
0.0
 40
0.0
 40
1.0
 40
1.0
 40
1.0
 40
2.0
 40
2.0
 40
2.0
 40
2.0
 10
-1.225851101345486
 20
3.242437744140625
 30
0.0
 10
-1.225851101345486
 20
2.875535074869791
 30
0.0
 10
-0.6782531738281249
 20
2.663144938151041
 30
0.0
 10
-0.0083543565538194
 20
2.663144938151041
 30
0.0
 10
0.6618889702690972
 20
2.663144938151041
 30
0.0
 10
1.238770209418403
 20
2.896205647786458
 30
0.0
 10
1.238770209418403
 20
3.247605387369791
 30
0.0
  0
SPLINE
  5
156
330
152
100
AcDbEntity
  8
LAYER_1
  6
AI9-LTYPE2
 62
     7
100
AcDbSpline
210
0.0
220
0.0
230
1.0
 70
     8
 71
     3
 72
    11
 73
     7
 74
     0
 42
0.0000000001
 43
0.0000000001
 40
0.0
 40
0.0
 40
0.0
 40
0.0
 40
1.0
 40
1.0
 40
1.0
 40
2.0
 40
2.0
 40
2.0
 40
2.0
 10
-1.224645317925347
 20
3.806572129991319
 30
0.0
 10
-1.224645317925347
 20
3.457928466796875
 30
0.0
 10
-0.6772196451822916
 20
3.249844699435764
 30
0.0
 10
-0.0055982801649306
 20
3.249844699435764
 30
0.0
 10
0.6651618109809028
 20
3.249844699435764
 30
0.0
 10
1.238770209418403
 20
3.476187472873264
 30
0.0
 10
1.238770209418403
 20
3.810878499348958
 30
0.0
  0
SPLINE
  5
155
330
152
100
AcDbEntity
  8
LAYER_1
  6
AI9-LTYPE2
 62
     7
100
AcDbSpline
210
0.0
220
0.0
230
1.0
 70
     8
 71
     3
 72
    11
 73
     7
 74
     0
 42
0.0000000001
 43
0.0000000001
 40
0.0
 40
0.0
 40
0.0
 40
0.0
 40
1.0
 40
1.0
 40
1.0
 40
2.0
 40
2.0
 40
2.0
 40
2.0
 10
-1.223095024956597
 20
4.370362006293402
 30
0.0
 10
-1.223095024956597
 20
4.039977349175347
 30
0.0
 10
-0.675497097439236
 20
3.836199951171875
 30
0.0
 10
-0.0031867133246528
 20
3.836199951171875
 30
0.0
 10
0.6687791612413194
 20
3.836199951171875
 30
0.0
 10
1.238770209418403
 20
4.055824788411458
 30
0.0
 10
1.238770209418403
 20
4.37432386610243
 30
0.0
  0
ENDBLK
  5
164
330
152
100
AcDbEntity
  8
LAYER_1
100
AcDbBlockEnd
  0
ENDSEC
  0
SECTION
  2
ENTITIES
  0
INSERT
  5
3B
330
A
100
AcDbEntity
  8
LAYER_1
 62
     7
100
AcDbBlockReference
  2
AI9-BLK3
 10
98.02252671983506
 20
140.3448357476129
 30
0.0
  0
LINE
  5
39
330
A
100
AcDbEntity
  8
LAYER_1
 62
     7
100
AcDbLine
 10
134.3321967230903
 20
134.1158447265625
 30
0.0
 11
143.5617797851562
 21
139.3897691514757
 31
0.0
  0
LINE
  5
38
330
A
100
AcDbEntity
  8
LAYER_1
 62
     7
100
AcDbLine
 10
108.9085978190104
 20
130.2280544704861
 30
0.0
 11
131.6274522569444
 21
141.9932278103298
 31
0.0
  0
INSERT
  5
32
330
A
100
AcDbEntity
  8
LAYER_1
 62
     7
100
AcDbBlockReference
  2
AI9-BLK2
 10
135.1436028374566
 20
139.4235310872396
 30
0.0
  0
HATCH
  5
30
330
A
100
AcDbEntity
  8
LAYER_1
 62
     7
100
AcDbHatch
 10
0.0
 20
0.0
 30
0.0
210
0.0
220
0.0
230
1.0
  2
SOLID
 70
     1
 71
     0
 91
        1
 92
        1
 93
        1
 72
     4
 94
        3
 73
     0
 74
     0
 95
       17
 96
       13
 40
0.0
 40
0.0
 40
0.0
 40
0.0
 40
1.0
 40
1.0
 40
1.0
 40
2.0
 40
2.0
 40
2.0
 40
3.0
 40
3.0
 40
3.0
 40
4.0
 40
4.0
 40
4.0
 40
4.0
 10
136.1915147569444
 20
139.5253336588542
 10
136.1915147569444
 20
139.0027126736111
 10
135.7675957573785
 20
138.5787936740451
 10
135.2449747721354
 20
138.5787936740451
 10
134.7225260416667
 20
138.5787936740451
 10
134.2986070421007
 20
139.0027126736111
 10
134.2986070421007
 20
139.5253336588542
 10
134.2986070421007
 20
140.0479546440972
 10
134.7225260416667
 20
140.4718736436632
 10
135.2449747721354
 20
140.4718736436632
 10
135.7675957573785
 20
140.4718736436632
 10
136.1915147569444
 20
140.0479546440972
 10
136.1915147569444
 20
139.5253336588542
 97
        0
 75
     0
 76
     1
 98
        1
 10
0.0
 20
0.0
  0
LINE
  5
2F
330
A
100
AcDbEntity
  8
LAYER_1
 62
     7
100
AcDbLine
 10
135.2454915364583
 20
147.2335625542535
 30
0.0
 11
135.2454915364583
 21
139.3902859157986
 31
0.0
  0
INSERT
  5
23
330
A
100
AcDbEntity
  8
LAYER_1
 62
     7
100
AcDbBlockReference
  2
AI9-BLK1
 10
137.5234747992622
 20
151.0381537543403
 30
0.0
  0
ENDSEC
  0
SECTION
  2
OBJECTS
  0
DICTIONARY
  5
19
330
0
100
AcDbDictionary
281
     1
  3
ACAD_COLOR
350
1FF
  3
ACAD_GROUP
350
1A
  3
ACAD_LAYOUT
350
1CC
  3
ACAD_MATERIAL
350
201
  3
ACAD_MLINESTYLE
350
1B
  3
ACAD_PLOTSETTINGS
350
1CD
  3
ACAD_PLOTSTYLENAME
350
1CA
  3
ACDBHEADERROUNDTRIPXREC
350
1FE
  0
DICTIONARY
  5
1FF
102
{ACAD_REACTORS
330
19
102
}
330
19
100
AcDbDictionary
281
     1
  0
DICTIONARY
  5
1A
102
{ACAD_REACTORS
330
19
102
}
330
19
100
AcDbDictionary
281
     1
  0
DICTIONARY
  5
1CC
102
{ACAD_REACTORS
330
19
102
}
330
19
100
AcDbDictionary
281
     1
  3
Layout1
350
1CF
  3
Model
350
1CE
  0
DICTIONARY
  5
201
102
{ACAD_REACTORS
330
19
102
}
330
19
100
AcDbDictionary
281
     1
  0
DICTIONARY
  5
1B
102
{ACAD_REACTORS
330
19
102
}
330
19
100
AcDbDictionary
281
     1
  3
STANDARD
350
1C
  0
DICTIONARY
  5
1CD
102
{ACAD_REACTORS
330
19
102
}
330
19
100
AcDbDictionary
281
     1
  0
ACDBDICTIONARYWDFLT
  5
1CA
102
{ACAD_REACTORS
330
19
102
}
330
19
100
AcDbDictionary
281
     1
  3
Normal
350
1CB
100
AcDbDictionaryWithDefault
340
1CB
  0
DICTIONARY
  5
1FE
102
{ACAD_REACTORS
330
19
102
}
330
19
100
AcDbDictionary
281
     1
  3
COLORDICT
350
200
  3
MATERIALDICT
350
202
  0
LAYOUT
  5
1CF
102
{ACAD_REACTORS
330
1CC
102
}
102
{ACAD_XDICTIONARY
360
203
102
}
330
1CC
100
AcDbPlotSettings
  1

  2
Support Center HP LaserJet 4
  4

  6

 40
0.0
 41
0.0
 42
0.0
 43
0.0
 44
0.0
 45
0.0
 46
0.0
 47
0.0
 48
0.0
 49
0.0
140
0.0
141
0.0
142
1.0
143
1.0
 70
   688
 72
     0
 73
     0
 74
     5
  7

 75
    16
147
1.0
148
0.0
149
0.0
100
AcDbLayout
  1
Layout1
 70
     0
 71
     1
 10
0.0
 20
0.0
 11
12.0
 21
9.0
 12
0.0
 22
0.0
 32
0.0
 14
1.000000000000000E+20
 24
1.000000000000000E+20
 34
1.000000000000000E+20
 15
-1.000000000000000E+20
 25
-1.000000000000000E+20
 35
-1.000000000000000E+20
146
0.0
 13
0.0
 23
0.0
 33
0.0
 16
1.0
 26
0.0
 36
0.0
 17
0.0
 27
1.0
 37
0.0
 76
     0
330
B
  0
LAYOUT
  5
1CE
102
{ACAD_REACTORS
330
1CC
102
}
102
{ACAD_XDICTIONARY
360
205
102
}
330
1CC
100
AcDbPlotSettings
  1

  2
Support Center HP LaserJet 4
  4

  6

 40
0.0
 41
0.0
 42
0.0
 43
0.0
 44
0.0
 45
0.0
 46
0.0
 47
0.0
 48
0.0
 49
0.0
140
0.0
141
0.0
142
1.0
143
1.0
 70
  1712
 72
     0
 73
     0
 74
     0
  7

 75
     0
147
1.0
148
0.0
149
0.0
100
AcDbLayout
  1
Model
 70
     1
 71
     0
 10
0.0
 20
0.0
 11
12.0
 21
9.0
 12
0.0
 22
0.0
 32
0.0
 14
0.0
 24
0.0
 34
0.0
 15
0.0
 25
0.0
 35
0.0
146
0.0
 13
0.0
 23
0.0
 33
0.0
 16
1.0
 26
0.0
 36
0.0
 17
0.0
 27
1.0
 37
0.0
 76
     0
330
A
  0
MLINESTYLE
  5
1C
102
{ACAD_REACTORS
330
1B
102
}
330
1B
100
AcDbMlineStyle
  2
STANDARD
 70
     0
  3

 62
     0
 51
90.0000000000002
 52
90.0000000000002
 71
     2
 49
0.5
 62
   256
  6
BYLAYER
 49
-0.5
 62
   256
  6
BYLAYER
  0
ACDBPLACEHOLDER
  5
1CB
102
{ACAD_REACTORS
330
1CA
102
}
330
1CA
  0
XRECORD
  5
200
102
{ACAD_REACTORS
330
1FE
102
}
330
1FE
100
AcDbXrecord
340
1FF
  0
XRECORD
  5
202
102
{ACAD_REACTORS
330
1FE
102
}
330
1FE
100
AcDbXrecord
340
201
  0
DICTIONARY
  5
203
330
1CF
100
AcDbDictionary
280
     1
281
     1
  3
ACAD_XREC_ROUNDTRIP
360
204
  0
DICTIONARY
  5
205
330
1CE
100
AcDbDictionary
280
     1
281
     1
  3
ACAD_XREC_ROUNDTRIP
360
206
  0
XRECORD
  5
204
102
{ACAD_REACTORS
330
203
102
}
330
203
100
AcDbXrecord
102
SHADEPLOT
 70
     0
102
SHADEPLOTRESLEVEL
 70
     0
102
SHADEPLOTCUSTOMDPI
 70
     0
  0
XRECORD
  5
206
102
{ACAD_REACTORS
330
205
102
}
330
205
100
AcDbXrecord
102
SHADEPLOT
 70
     0
102
SHADEPLOTRESLEVEL
 70
     0
102
SHADEPLOTCUSTOMDPI
 70
     0
  0
ENDSEC
  0
EOF
