  0
SECTION
  2
HEADER
  9
$ACADVER
  1
AC1015
  9
$ACADMAINTVER
 70
     6
  9
$DWGCODEPAGE
  3
ANSI_1252
  9
$INSBASE
 10
0.0
 20
0.0
 30
0.0
  9
$EXTMIN
 10
1.409
 20
0.362
 30
0.0
  9
$EXTMAX
 10
4.923
 20
4.319
 30
0.0
  9
$LIMMIN
 10
0.0
 20
0.0
  9
$LIMMAX
 10
12.0
 20
17.0
  9
$ORTHOMODE
 70
     0
  9
$REGENMODE
 70
     0
  9
$FILLMODE
 70
     1
  9
$QTEXTMODE
 70
     0
  9
$MIRRTEXT
 70
     1
  9
$LTSCALE
 40
0.25
  9
$ATTMODE
 70
     1
  9
$TEXTSIZE
 40
0.175
  9
$TRACEWID
 40
0.05
  9
$TEXTSTYLE
  7
STANDARD
  9
$CLAYER
  8
0
  9
$CELTYPE
  6
ByLayer
  9
$CECOLOR
 62
   256
  9
$CELTSCALE
 40
1.0
  9
$DISPSILH
 70
     0
  9
$DIMSCALE
 40
1.0
  9
$DIMASZ
 40
0.125
  9
$DIMEXO
 40
0.063
  9
$DIMDLI
 40
0.38
  9
$DIMRND
 40
0.0
  9
$DIMDLE
 40
0.0
  9
$DIMEXE
 40
0.18
  9
$DIMTP
 40
0.0
  9
$DIMTM
 40
0.0
  9
$DIMTXT
 40
0.1
  9
$DIMCEN
 40
0.09
  9
$DIMTSZ
 40
0.0
  9
$DIMTOL
 70
     0
  9
$DIMLIM
 70
     0
  9
$DIMTIH
 70
     1
  9
$DIMTOH
 70
     1
  9
$DIMSE1
 70
     0
  9
$DIMSE2
 70
     0
  9
$DIMTAD
 70
     0
  9
$DIMZIN
 70
     0
  9
$DIMBLK
  1

  9
$DIMASO
 70
     0
  9
$DIMSHO
 70
     0
  9
$DIMPOST
  1

  9
$DIMAPOST
  1

  9
$DIMALT
 70
     0
  9
$DIMALTD
 70
     2
  9
$DIMALTF
 40
25.4
  9
$DIMLFAC
 40
1.0
  9
$DIMTOFL
 70
     0
  9
$DIMTVP
 40
0.0
  9
$DIMTIX
 70
     0
  9
$DIMSOXD
 70
     0
  9
$DIMSAH
 70
     0
  9
$DIMBLK1
  1

  9
$DIMBLK2
  1

  9
$DIMSTYLE
  2
Standard
  9
$DIMCLRD
 70
     0
  9
$DIMCLRE
 70
     0
  9
$DIMCLRT
 70
     0
  9
$DIMTFAC
 40
1.0
  9
$DIMGAP
 40
0.09
  9
$DIMJUST
 70
     0
  9
$DIMSD1
 70
     0
  9
$DIMSD2
 70
     0
  9
$DIMTOLJ
 70
     1
  9
$DIMTZIN
 70
     0
  9
$DIMALTZ
 70
     0
  9
$DIMALTTZ
 70
     0
  9
$DIMUPT
 70
     0
  9
$DIMDEC
 70
     4
  9
$DIMTDEC
 70
     4
  9
$DIMALTU
 70
     2
  9
$DIMALTTD
 70
     2
  9
$DIMTXSTY
  7
STANDARD
  9
$DIMAUNIT
 70
     0
  9
$DIMADEC
 70
     0
  9
$DIMALTRND
 40
0.0
  9
$DIMAZIN
 70
     0
  9
$DIMDSEP
 70
    46
  9
$DIMATFIT
 70
     3
  9
$DIMFRAC
 70
     0
  9
$DIMLDRBLK
  1

  9
$DIMLUNIT
 70
     2
  9
$DIMLWD
 70
    -2
  9
$DIMLWE
 70
    -2
  9
$DIMTMOVE
 70
     0
  9
$LUNITS
 70
     2
  9
$LUPREC
 70
     4
  9
$SKETCHINC
 40
0.1
  9
$FILLETRAD
 40
0.0
  9
$AUNITS
 70
     0
  9
$AUPREC
 70
     0
  9
$MENU
  1
ACAD
  9
$ELEVATION
 40
0.0
  9
$PELEVATION
 40
0.0
  9
$THICKNESS
 40
0.0
  9
$LIMCHECK
 70
     0
  9
$CHAMFERA
 40
0.0
  9
$CHAMFERB
 40
0.0
  9
$CHAMFERC
 40
1.0
  9
$CHAMFERD
 40
0.0
  9
$SKPOLY
 70
     0
  9
$TDCREATE
 40
2453955.561202766
  9
$TDUCREATE
 40
2453955.894536099
  9
$TDUPDATE
 40
2453955.602869445
  9
$TDUUPDATE
 40
2453955.894536111
  9
$TDINDWG
 40
0.0000000116
  9
$TDUSRTIMER
 40
0.0000000116
  9
$USRTIMER
 70
     1
  9
$ANGBASE
 50
0.0
  9
$ANGDIR
 70
     0
  9
$PDMODE
 70
     0
  9
$PDSIZE
 40
0.0
  9
$PLINEWID
 40
0.0
  9
$SPLFRAME
 70
     0
  9
$SPLINETYPE
 70
     6
  9
$SPLINESEGS
 70
     8
  9
$HANDSEED
  5
26C
  9
$SURFTAB1
 70
     6
  9
$SURFTAB2
 70
     6
  9
$SURFTYPE
 70
     6
  9
$SURFU
 70
     6
  9
$SURFV
 70
     6
  9
$UCSBASE
  2

  9
$UCSNAME
  2

  9
$UCSORG
 10
0.0
 20
0.0
 30
0.0
  9
$UCSXDIR
 10
1.0
 20
0.0
 30
0.0
  9
$UCSYDIR
 10
0.0
 20
1.0
 30
0.0
  9
$UCSORTHOREF
  2

  9
$UCSORTHOVIEW
 70
     0
  9
$UCSORGTOP
 10
0.0
 20
0.0
 30
0.0
  9
$UCSORGBOTTOM
 10
0.0
 20
0.0
 30
0.0
  9
$UCSORGLEFT
 10
0.0
 20
0.0
 30
0.0
  9
$UCSORGRIGHT
 10
0.0
 20
0.0
 30
0.0
  9
$UCSORGFRONT
 10
0.0
 20
0.0
 30
0.0
  9
$UCSORGBACK
 10
0.0
 20
0.0
 30
0.0
  9
$PUCSBASE
  2

  9
$PUCSNAME
  2

  9
$PUCSORG
 10
0.0
 20
0.0
 30
0.0
  9
$PUCSXDIR
 10
1.0
 20
0.0
 30
0.0
  9
$PUCSYDIR
 10
0.0
 20
1.0
 30
0.0
  9
$PUCSORTHOREF
  2

  9
$PUCSORTHOVIEW
 70
     0
  9
$PUCSORGTOP
 10
0.0
 20
0.0
 30
0.0
  9
$PUCSORGBOTTOM
 10
0.0
 20
0.0
 30
0.0
  9
$PUCSORGLEFT
 10
0.0
 20
0.0
 30
0.0
  9
$PUCSORGRIGHT
 10
0.0
 20
0.0
 30
0.0
  9
$PUCSORGFRONT
 10
0.0
 20
0.0
 30
0.0
  9
$PUCSORGBACK
 10
0.0
 20
0.0
 30
0.0
  9
$USERI1
 70
     0
  9
$USERI2
 70
     0
  9
$USERI3
 70
     0
  9
$USERI4
 70
     0
  9
$USERI5
 70
     0
  9
$USERR1
 40
0.0
  9
$USERR2
 40
0.0
  9
$USERR3
 40
0.0
  9
$USERR4
 40
0.0
  9
$USERR5
 40
0.0
  9
$WORLDVIEW
 70
     1
  9
$SHADEDGE
 70
     3
  9
$SHADEDIF
 70
    70
  9
$TILEMODE
 70
     1
  9
$MAXACTVP
 70
    16
  9
$PINSBASE
 10
0.0
 20
0.0
 30
0.0
  9
$PLIMCHECK
 70
     0
  9
$PEXTMIN
 10
1.000000000000000E+20
 20
1.000000000000000E+20
 30
1.000000000000000E+20
  9
$PEXTMAX
 10
-1.000000000000000E+20
 20
-1.000000000000000E+20
 30
-1.000000000000000E+20
  9
$PLIMMIN
 10
0.0
 20
0.0
  9
$PLIMMAX
 10
12.0
 20
9.0
  9
$UNITMODE
 70
     0
  9
$VISRETAIN
 70
     0
  9
$PLINEGEN
 70
     0
  9
$PSLTSCALE
 70
     0
  9
$TREEDEPTH
 70
  3020
  9
$CMLSTYLE
  2
Standard
  9
$CMLJUST
 70
     0
  9
$CMLSCALE
 40
1.0
  9
$PROXYGRAPHICS
 70
     1
  9
$MEASUREMENT
 70
     0
  9
$CELWEIGHT
370
    -1
  9
$ENDCAPS
280
     0
  9
$JOINSTYLE
280
     0
  9
$LWDISPLAY
290
     0
  9
$INSUNITS
 70
     1
  9
$HYPERLINKBASE
  1

  9
$STYLESHEET
  1

  9
$XEDIT
290
     1
  9
$CEPSNTYPE
380
     0
  9
$PSTYLEMODE
290
     0
  9
$FINGERPRINTGUID
  2
{FAEB1C30-E019-11D5-929B-00C0DF256EC4}
  9
$VERSIONGUID
  2
{FAEB1C32-E019-11D5-929B-00C0DF256EC4}
  9
$EXTNAMES
290
     1
  9
$PSVPSCALE
 40
0.0
  9
$OLESTARTUP
290
     0
  0
ENDSEC
  0
SECTION
  2
CLASSES
  0
CLASS
  1
ACDBDICTIONARYWDFLT
  2
AcDbDictionaryWithDefault
  3
AutoCAD 2000
 90
        0
280
     0
281
     0
  0
CLASS
  1
ACDBPLACEHOLDER
  2
AcDbPlaceHolder
  3
ObjectDBX Classes
 90
        0
280
     0
281
     0
  0
CLASS
  1
LAYOUT
  2
AcDbLayout
  3
ObjectDBX Classes
 90
        0
280
     0
281
     0
  0
ENDSEC
  0
SECTION
  2
TABLES
  0
TABLE
  2
VPORT
  5
8
330
0
100
AcDbSymbolTable
 70
     2
  0
VPORT
  5
1E
330
8
100
AcDbSymbolTableRecord
100
AcDbViewportTableRecord
  2
*ACTIVE
 70
     0
 10
0.0
 20
0.0
 11
1.0
 21
1.0
 12
11.79297820823245
 22
8.5
 13
0.0
 23
0.0
 14
0.025
 24
0.025
 15
0.0
 25
0.0
 16
0.0
 26
0.0
 36
1.0
 17
0.0
 27
0.0
 37
0.0
 40
17.0
 41
0.7207678883071553
 42
50.0
 43
0.0
 44
0.0
 50
0.0
 51
0.0
 71
     0
 72
  2000
 73
     1
 74
     0
 75
     1
 76
     0
 77
     0
 78
     1
281
     0
 65
     1
110
0.0
120
0.0
130
0.0
111
1.0
121
0.0
131
0.0
112
0.0
122
1.0
132
0.0
 79
     0
146
0.0
  0
ENDTAB
  0
TABLE
  2
LTYPE
  5
5
330
0
100
AcDbSymbolTable
 70
     1
  0
LTYPE
  5
10
330
5
100
AcDbSymbolTableRecord
100
AcDbLinetypeTableRecord
  2
ByBlock
 70
     0
  3

 72
    65
 73
     0
 40
0.0
  0
LTYPE
  5
11
330
5
100
AcDbSymbolTableRecord
100
AcDbLinetypeTableRecord
  2
ByLayer
 70
     0
  3

 72
    65
 73
     0
 40
0.0
  0
LTYPE
  5
1B
330
5
100
AcDbSymbolTableRecord
100
AcDbLinetypeTableRecord
  2
CONTINUOUS
 70
     0
  3
Solid line
 72
    65
 73
     0
 40
0.0
  0
ENDTAB
  0
TABLE
  2
LAYER
  5
2
330
0
100
AcDbSymbolTable
 70
     1
  0
LAYER
  5
1C
330
2
100
AcDbSymbolTableRecord
100
AcDbLayerTableRecord
  2
0
 70
     0
 62
     7
  6
CONTINUOUS
370
    -3
390
F
  0
ENDTAB
  0
TABLE
  2
STYLE
  5
3
330
0
100
AcDbSymbolTable
 70
     1
  0
STYLE
  5
20
330
3
100
AcDbSymbolTableRecord
100
AcDbTextStyleTableRecord
  2
STANDARD
 70
     0
 40
0.0
 41
1.0
 50
0.0
 71
     0
 42
0.175
  3
romans
  4

  0
ENDTAB
  0
TABLE
  2
VIEW
  5
6
330
0
100
AcDbSymbolTable
 70
     0
  0
ENDTAB
  0
TABLE
  2
UCS
  5
7
330
0
100
AcDbSymbolTable
 70
     0
  0
ENDTAB
  0
TABLE
  2
APPID
  5
9
330
0
100
AcDbSymbolTable
 70
     1
  0
APPID
  5
1F
330
9
100
AcDbSymbolTableRecord
100
AcDbRegAppTableRecord
  2
ACAD
 70
     0
  0
ENDTAB
  0
TABLE
  2
DIMSTYLE
  5
A
330
0
100
AcDbSymbolTable
 70
     1
100
AcDbDimStyleTable
  0
DIMSTYLE
105
21
330
A
100
AcDbSymbolTableRecord
100
AcDbDimStyleTableRecord
  2
Standard
 70
     0
  3

  4

340
20
  0
ENDTAB
  0
TABLE
  2
BLOCK_RECORD
  5
1
330
0
100
AcDbSymbolTable
 70
     0
  0
BLOCK_RECORD
  5
18
330
1
100
AcDbSymbolTableRecord
100
AcDbBlockTableRecord
  2
*Model_Space
340
19
  0
BLOCK_RECORD
  5
16
330
1
100
AcDbSymbolTableRecord
100
AcDbBlockTableRecord
  2
*Paper_Space
340
17
  0
ENDTAB
  0
ENDSEC
  0
SECTION
  2
BLOCKS
  0
BLOCK
  5
261
330
18
100
AcDbEntity
  8
0
100
AcDbBlockBegin
  2
*Model_Space
 70
     0
 10
0.0
 20
0.0
 30
0.0
  3
*Model_Space
  1

  4

  0
ENDBLK
  5
262
330
18
100
AcDbEntity
  8
0
100
AcDbBlockEnd
  0
BLOCK
  5
25F
330
16
100
AcDbEntity
 67
     1
  8
0
100
AcDbBlockBegin
  2
*Paper_Space
 70
     0
 10
0.0
 20
0.0
 30
0.0
  3
*Paper_Space
  1

  4

  0
ENDBLK
  5
260
330
16
100
AcDbEntity
 67
     1
  8
0
100
AcDbBlockEnd
  0
ENDSEC
  0
SECTION
  2
ENTITIES
  0
LINE
  5
22
330
18
100
AcDbEntity
  8
0
100
AcDbLine
 10
4.32
 20
3.02
 30
0.0
 11
4.318000000000001
 21
4.319
 31
0.0
  0
LINE
  5
23
330
18
100
AcDbEntity
  8
0
100
AcDbLine
 10
4.318000000000001
 20
4.319
 30
0.0
 11
1.515
 21
3.221
 31
0.0
  0
LINE
  5
24
330
18
100
AcDbEntity
  8
0
100
AcDbLine
 10
1.515
 20
3.221
 30
0.0
 11
1.513
 21
2.819
 31
0.0
  0
LINE
  5
25
330
18
100
AcDbEntity
  8
0
100
AcDbLine
 10
1.51
 20
2.104
 30
0.0
 11
1.937
 21
2.243
 31
0.0
  0
LINE
  5
26
330
18
100
AcDbEntity
  8
0
100
AcDbLine
 10
4.32
 20
3.02
 30
0.0
 11
4.899
 21
2.693
 31
0.0
  0
LINE
  5
27
330
18
100
AcDbEntity
  8
0
100
AcDbLine
 10
4.899
 20
2.693
 30
0.0
 11
4.923
 21
3.94
 31
0.0
  0
LINE
  5
28
330
18
100
AcDbEntity
  8
0
100
AcDbLine
 10
4.923
 20
3.94
 30
0.0
 11
4.318000000000001
 21
4.319
 31
0.0
  0
LINE
  5
29
330
18
100
AcDbEntity
  8
0
100
AcDbLine
 10
4.899
 20
2.693
 30
0.0
 11
4.348
 21
2.523
 31
0.0
  0
LINE
  5
2A
330
18
100
AcDbEntity
  8
0
100
AcDbLine
 10
2.105
 20
1.829
 30
0.0
 11
1.51
 21
2.104
 31
0.0
  0
LINE
  5
2B
330
18
100
AcDbEntity
  8
0
100
AcDbLine
 10
3.262
 20
2.675
 30
0.0
 11
3.256
 21
1.284
 31
0.0
  0
LINE
  5
2C
330
18
100
AcDbEntity
  8
0
100
AcDbLine
 10
3.256
 20
1.284
 30
0.0
 11
2.951
 21
1.213
 31
0.0
  0
LINE
  5
2D
330
18
100
AcDbEntity
  8
0
100
AcDbLine
 10
2.347
 20
1.07
 30
0.0
 11
2.968
 21
0.863
 31
0.0
  0
LINE
  5
2E
330
18
100
AcDbEntity
  8
0
100
AcDbLine
 10
2.968
 20
0.863
 30
0.0
 11
3.255
 21
0.917
 31
0.0
  0
LINE
  5
2F
330
18
100
AcDbEntity
  8
0
100
AcDbLine
 10
3.931
 20
1.043
 30
0.0
 11
3.256
 21
1.284
 31
0.0
  0
LINE
  5
30
330
18
100
AcDbEntity
  8
0
100
AcDbLine
 10
2.347
 20
1.07
 30
0.0
 11
2.366
 21
2.371
 31
0.0
  0
LINE
  5
31
330
18
100
AcDbEntity
  8
0
100
AcDbLine
 10
3.931
 20
1.043
 30
0.0
 11
3.939
 21
2.368
 31
0.0
  0
LINE
  5
32
330
18
100
AcDbEntity
  8
0
100
AcDbLine
 10
2.36
 20
1.908
 30
0.0
 11
2.105
 21
1.829
 31
0.0
  0
LINE
  5
33
330
18
100
AcDbEntity
  8
0
100
AcDbLine
 10
3.262
 20
2.675
 30
0.0
 11
3.357
 21
2.636
 31
0.0
  0
LINE
  5
34
330
18
100
AcDbEntity
  8
0
100
AcDbLine
 10
2.661
 20
1.144
 30
0.0
 11
2.711
 21
1.265
 31
0.0
  0
LINE
  5
35
330
18
100
AcDbEntity
  8
0
100
AcDbLine
 10
2.711
 20
1.265
 30
0.0
 11
2.875
 21
1.049
 31
0.0
  0
LINE
  5
36
330
18
100
AcDbEntity
  8
0
100
AcDbLine
 10
2.875
 20
1.049
 30
0.0
 11
2.951
 21
1.213
 31
0.0
  0
LINE
  5
37
330
18
100
AcDbEntity
  8
0
100
AcDbLine
 10
2.661
 20
1.144
 30
0.0
 11
2.347
 21
1.07
 31
0.0
  0
LINE
  5
38
330
18
100
AcDbEntity
  8
0
100
AcDbLine
 10
2.875
 20
1.049
 30
0.0
 11
3.549
 21
0.815
 31
0.0
  0
LINE
  5
39
330
18
100
AcDbEntity
  8
0
100
AcDbLine
 10
3.549
 20
0.815
 30
0.0
 11
3.629
 21
0.987
 31
0.0
  0
LINE
  5
3A
330
18
100
AcDbEntity
  8
0
100
AcDbLine
 10
3.629
 20
0.987
 30
0.0
 11
3.931
 21
1.043
 31
0.0
  0
LINE
  5
3B
330
18
100
AcDbEntity
  8
0
100
AcDbLine
 10
2.951
 20
1.213
 30
0.0
 11
3.629
 21
0.987
 31
0.0
  0
LINE
  5
3C
330
18
100
AcDbEntity
  8
0
100
AcDbLine
 10
2.661
 20
1.144
 30
0.0
 11
2.853
 21
1.078
 31
0.0
  0
LINE
  5
3D
330
18
100
AcDbEntity
  8
0
100
AcDbLine
 10
2.742
 20
1.116
 30
0.0
 11
2.762
 21
1.197
 31
0.0
  0
LINE
  5
3E
330
18
100
AcDbEntity
  8
0
100
AcDbLine
 10
2.806
 20
1.094
 30
0.0
 11
2.816
 21
1.127
 31
0.0
  0
LINE
  5
3F
330
18
100
AcDbEntity
  8
0
100
AcDbLine
 10
2.989
 20
1.2
 30
0.0
 11
2.935
 21
1.028
 31
0.0
  0
LINE
  5
40
330
18
100
AcDbEntity
  8
0
100
AcDbLine
 10
3.059
 20
1.177
 30
0.0
 11
3.015
 21
1.0
 31
0.0
  0
LINE
  5
41
330
18
100
AcDbEntity
  8
0
100
AcDbLine
 10
3.098
 20
1.164
 30
0.0
 11
3.057
 21
0.986
 31
0.0
  0
LINE
  5
42
330
18
100
AcDbEntity
  8
0
100
AcDbLine
 10
3.153
 20
1.145
 30
0.0
 11
3.109
 21
0.9670000000000001
 31
0.0
  0
LINE
  5
43
330
18
100
AcDbEntity
  8
0
100
AcDbLine
 10
3.222
 20
1.122
 30
0.0
 11
3.181
 21
0.9420000000000001
 31
0.0
  0
LINE
  5
44
330
18
100
AcDbEntity
  8
0
100
AcDbLine
 10
3.289
 20
1.1
 30
0.0
 11
3.254
 21
0.917
 31
0.0
  0
LINE
  5
45
330
18
100
AcDbEntity
  8
0
100
AcDbLine
 10
3.366
 20
1.074
 30
0.0
 11
3.337
 21
0.888
 31
0.0
  0
LINE
  5
46
330
18
100
AcDbEntity
  8
0
100
AcDbLine
 10
3.502
 20
1.029
 30
0.0
 11
3.474
 21
0.841
 31
0.0
  0
LINE
  5
47
330
18
100
AcDbEntity
  8
0
100
AcDbLine
 10
3.574
 20
1.005
 30
0.0
 11
3.541
 21
0.8170000000000001
 31
0.0
  0
LINE
  5
48
330
18
100
AcDbEntity
  8
0
100
AcDbLine
 10
3.441
 20
1.043
 30
0.0
 11
3.411
 21
0.862
 31
0.0
  0
LINE
  5
49
330
18
100
AcDbEntity
  8
0
100
AcDbLine
 10
2.989
 20
1.2
 30
0.0
 11
3.039
 21
1.233
 31
0.0
  0
LINE
  5
4A
330
18
100
AcDbEntity
  8
0
100
AcDbLine
 10
1.928
 20
2.841
 30
0.0
 11
1.933
 21
2.262
 31
0.0
  0
LINE
  5
4B
330
18
100
AcDbEntity
  8
0
100
AcDbLine
 10
4.272
 20
2.527
 30
0.0
 11
4.343
 21
2.491
 31
0.0
  0
LINE
  5
4C
330
18
100
AcDbEntity
  8
0
100
AcDbLine
 10
3.86
 20
2.4
 30
0.0
 11
4.272
 21
2.527
 31
0.0
  0
LINE
  5
4D
330
18
100
AcDbEntity
  8
0
100
AcDbLine
 10
4.272
 20
2.527
 30
0.0
 11
4.277
 21
2.558
 31
0.0
  0
LINE
  5
4E
330
18
100
AcDbEntity
  8
0
100
AcDbLine
 10
4.277
 20
2.558
 30
0.0
 11
4.348
 21
2.523
 31
0.0
  0
LINE
  5
4F
330
18
100
AcDbEntity
  8
0
100
AcDbLine
 10
3.86
 20
2.43
 30
0.0
 11
4.277
 21
2.558
 31
0.0
  0
LINE
  5
50
330
18
100
AcDbEntity
  8
0
100
AcDbLine
 10
3.851
 20
1.774
 30
0.0
 11
3.824
 21
1.762
 31
0.0
  0
LINE
  5
51
330
18
100
AcDbEntity
  8
0
100
AcDbLine
 10
3.355
 20
1.943
 30
0.0
 11
3.824
 21
1.762
 31
0.0
  0
LINE
  5
52
330
18
100
AcDbEntity
  8
0
100
AcDbLine
 10
3.382
 20
1.955
 30
0.0
 11
3.355
 21
1.943
 31
0.0
  0
LINE
  5
53
330
18
100
AcDbEntity
  8
0
100
AcDbLine
 10
3.356
 20
2.635
 30
0.0
 11
3.355
 21
1.943
 31
0.0
  0
LINE
  5
54
330
18
100
AcDbEntity
  8
0
100
AcDbLine
 10
3.356
 20
2.635
 30
0.0
 11
3.811
 21
2.79
 31
0.0
  0
LINE
  5
55
330
18
100
AcDbEntity
  8
0
100
AcDbLine
 10
3.851
 20
1.774
 30
0.0
 11
3.86
 21
2.43
 31
0.0
  0
LINE
  5
56
330
18
100
AcDbEntity
  8
0
100
AcDbLine
 10
3.382
 20
1.955
 30
0.0
 11
3.851
 21
1.774
 31
0.0
  0
LINE
  5
57
330
18
100
AcDbEntity
  8
0
100
AcDbLine
 10
3.383
 20
2.625
 30
0.0
 11
3.382
 21
1.955
 31
0.0
  0
LINE
  5
58
330
18
100
AcDbEntity
  8
0
100
AcDbLine
 10
2.023
 20
2.196
 30
0.0
 11
2.364
 21
2.307
 31
0.0
  0
LINE
  5
59
330
18
100
AcDbEntity
  8
0
100
AcDbLine
 10
2.023
 20
2.196
 30
0.0
 11
1.967
 21
2.216
 31
0.0
  0
LINE
  5
5A
330
18
100
AcDbEntity
  8
0
100
AcDbLine
 10
3.811
 20
2.79
 30
0.0
 11
3.775
 21
2.808
 31
0.0
  0
LINE
  5
5B
330
18
100
AcDbEntity
  8
0
100
AcDbLine
 10
3.74
 20
3.558
 30
0.0
 11
3.747
 21
2.852
 31
0.0
  0
LINE
  5
5C
330
18
100
AcDbEntity
  8
0
100
AcDbLine
 10
3.815
 20
2.821
 30
0.0
 11
3.791
 21
2.834
 31
0.0
  0
LINE
  5
5D
330
18
100
AcDbEntity
  8
0
100
AcDbLine
 10
3.811
 20
2.79
 30
0.0
 11
3.815
 21
2.821
 31
0.0
  0
LINE
  5
5E
330
18
100
AcDbEntity
  8
0
100
AcDbLine
 10
3.77
 20
3.544
 30
0.0
 11
3.777
 21
2.856
 31
0.0
  0
LINE
  5
5F
330
18
100
AcDbEntity
  8
0
100
AcDbLine
 10
3.74
 20
3.558
 30
0.0
 11
3.77
 21
3.544
 31
0.0
  0
LINE
  5
60
330
18
100
AcDbEntity
  8
0
100
AcDbLine
 10
1.928
 20
2.841
 30
0.0
 11
3.74
 21
3.558
 31
0.0
  0
LINE
  5
61
330
18
100
AcDbEntity
  8
0
100
AcDbLine
 10
4.343
 20
2.491
 30
0.0
 11
4.348
 21
2.523
 31
0.0
  0
LINE
  5
62
330
18
100
AcDbEntity
  8
0
100
AcDbLine
 10
3.939
 20
2.368
 30
0.0
 11
4.343
 21
2.491
 31
0.0
  0
LINE
  5
63
330
18
100
AcDbEntity
  8
0
100
AcDbLine
 10
3.86
 20
2.4
 30
0.0
 11
3.939
 21
2.368
 31
0.0
  0
ARC
  5
64
330
18
100
AcDbEntity
  8
0
100
AcDbCircle
 10
3.802
 20
2.856
 30
0.0
 40
0.025
100
AcDbArc
 50
180.563
 51
243.126
  0
ARC
  5
65
330
18
100
AcDbEntity
  8
0
100
AcDbCircle
 10
3.797
 20
2.853
 30
0.0
 40
0.05
100
AcDbArc
 50
180.563
 51
243.126
  0
LINE
  5
66
330
18
100
AcDbEntity
  8
0
100
AcDbLine
 10
3.356
 20
2.635
 30
0.0
 11
3.86
 21
2.43
 31
0.0
  0
LINE
  5
67
330
18
100
AcDbEntity
  8
0
100
AcDbLine
 10
3.78
 20
2.844
 30
0.0
 11
4.32
 21
3.02
 31
0.0
  0
ARC
  5
68
330
18
100
AcDbEntity
  8
0
100
AcDbCircle
 10
1.983
 20
2.263
 30
0.0
 40
0.05
100
AcDbArc
 50
180.563
 51
250.817
  0
LINE
  5
69
330
18
100
AcDbEntity
  8
0
100
AcDbLine
 10
3.75
 20
2.837
 30
0.0
 11
1.946
 21
2.23
 31
0.0
  0
LINE
  5
6A
330
18
100
AcDbEntity
  8
0
100
AcDbLine
 10
1.512
 20
2.478
 30
0.0
 11
1.62
 21
2.568
 31
0.0
  0
LINE
  5
6B
330
18
100
AcDbEntity
  8
0
100
AcDbLine
 10
1.62
 20
2.568
 30
0.0
 11
1.409
 21
2.724
 31
0.0
  0
LINE
  5
6C
330
18
100
AcDbEntity
  8
0
100
AcDbLine
 10
1.409
 20
2.724
 30
0.0
 11
1.513
 21
2.819
 31
0.0
  0
LINE
  5
6D
330
18
100
AcDbEntity
  8
0
100
AcDbLine
 10
1.512
 20
2.478
 30
0.0
 11
1.51
 21
2.104
 31
0.0
  0
LINE
  5
6E
330
18
100
AcDbEntity
  8
0
100
AcDbLine
 10
3.574
 20
1.005
 30
0.0
 11
3.664
 21
1.01
 31
0.0
  0
LINE
  5
6F
330
18
100
AcDbEntity
  8
0
100
AcDbLine
 10
3.664
 20
1.01
 30
0.0
 11
3.738
 21
1.007
 31
0.0
  0
LINE
  5
70
330
18
100
AcDbEntity
  8
0
100
AcDbLine
 10
3.502
 20
1.029
 30
0.0
 11
3.609
 21
1.036
 31
0.0
  0
LINE
  5
71
330
18
100
AcDbEntity
  8
0
100
AcDbLine
 10
3.609
 20
1.036
 30
0.0
 11
3.758
 21
1.049
 31
0.0
  0
LINE
  5
72
330
18
100
AcDbEntity
  8
0
100
AcDbLine
 10
3.758
 20
1.049
 30
0.0
 11
3.852
 21
1.057
 31
0.0
  0
LINE
  5
73
330
18
100
AcDbEntity
  8
0
100
AcDbLine
 10
3.852
 20
1.057
 30
0.0
 11
3.877
 21
1.062
 31
0.0
  0
LINE
  5
74
330
18
100
AcDbEntity
  8
0
100
AcDbLine
 10
3.366
 20
1.074
 30
0.0
 11
3.491
 21
1.072
 31
0.0
  0
LINE
  5
75
330
18
100
AcDbEntity
  8
0
100
AcDbLine
 10
3.491
 20
1.072
 30
0.0
 11
3.617
 21
1.084
 31
0.0
  0
LINE
  5
76
330
18
100
AcDbEntity
  8
0
100
AcDbLine
 10
3.617
 20
1.084
 30
0.0
 11
3.734
 21
1.093
 31
0.0
  0
LINE
  5
77
330
18
100
AcDbEntity
  8
0
100
AcDbLine
 10
3.734
 20
1.093
 30
0.0
 11
3.767
 21
1.101
 31
0.0
  0
LINE
  5
78
330
18
100
AcDbEntity
  8
0
100
AcDbLine
 10
3.289
 20
1.1
 30
0.0
 11
3.398
 21
1.113
 31
0.0
  0
LINE
  5
79
330
18
100
AcDbEntity
  8
0
100
AcDbLine
 10
3.398
 20
1.113
 30
0.0
 11
3.518
 21
1.125
 31
0.0
  0
LINE
  5
7A
330
18
100
AcDbEntity
  8
0
100
AcDbLine
 10
3.518
 20
1.125
 30
0.0
 11
3.613
 21
1.134
 31
0.0
  0
LINE
  5
7B
330
18
100
AcDbEntity
  8
0
100
AcDbLine
 10
3.613
 20
1.134
 30
0.0
 11
3.643
 21
1.146
 31
0.0
  0
LINE
  5
7C
330
18
100
AcDbEntity
  8
0
100
AcDbLine
 10
3.153
 20
1.145
 30
0.0
 11
3.284
 21
1.195
 31
0.0
  0
LINE
  5
7D
330
18
100
AcDbEntity
  8
0
100
AcDbLine
 10
3.284
 20
1.195
 30
0.0
 11
3.378
 21
1.225
 31
0.0
  0
LINE
  5
7E
330
18
100
AcDbEntity
  8
0
100
AcDbLine
 10
3.378
 20
1.225
 30
0.0
 11
3.403
 21
1.232
 31
0.0
  0
LINE
  5
7F
330
18
100
AcDbEntity
  8
0
100
AcDbLine
 10
3.059
 20
1.177
 30
0.0
 11
3.112
 21
1.222
 31
0.0
  0
LINE
  5
80
330
18
100
AcDbEntity
  8
0
100
AcDbLine
 10
3.112
 20
1.222
 30
0.0
 11
3.221
 21
1.273
 31
0.0
  0
LINE
  5
81
330
18
100
AcDbEntity
  8
0
100
AcDbLine
 10
3.221
 20
1.273
 30
0.0
 11
3.227
 21
1.278
 31
0.0
  0
LINE
  5
82
330
18
100
AcDbEntity
  8
0
100
AcDbLine
 10
2.413
 20
1.048
 30
0.0
 11
2.493
 21
1.067
 31
0.0
  0
LINE
  5
83
330
18
100
AcDbEntity
  8
0
100
AcDbLine
 10
2.493
 20
1.067
 30
0.0
 11
2.61
 21
1.076
 31
0.0
  0
LINE
  5
84
330
18
100
AcDbEntity
  8
0
100
AcDbLine
 10
2.61
 20
1.076
 30
0.0
 11
2.701
 21
1.104
 31
0.0
  0
LINE
  5
85
330
18
100
AcDbEntity
  8
0
100
AcDbLine
 10
2.701
 20
1.104
 30
0.0
 11
2.742
 21
1.116
 31
0.0
  0
LINE
  5
86
330
18
100
AcDbEntity
  8
0
100
AcDbLine
 10
2.515
 20
1.014
 30
0.0
 11
2.536
 21
1.016
 31
0.0
  0
LINE
  5
87
330
18
100
AcDbEntity
  8
0
100
AcDbLine
 10
2.536
 20
1.016
 30
0.0
 11
2.662
 21
1.038
 31
0.0
  0
LINE
  5
88
330
18
100
AcDbEntity
  8
0
100
AcDbLine
 10
2.662
 20
1.038
 30
0.0
 11
2.756
 21
1.045
 31
0.0
  0
LINE
  5
89
330
18
100
AcDbEntity
  8
0
100
AcDbLine
 10
2.756
 20
1.045
 30
0.0
 11
2.855
 21
1.064
 31
0.0
  0
LINE
  5
8A
330
18
100
AcDbEntity
  8
0
100
AcDbLine
 10
2.855
 20
1.064
 30
0.0
 11
2.862
 21
1.066
 31
0.0
  0
LINE
  5
8B
330
18
100
AcDbEntity
  8
0
100
AcDbLine
 10
2.601
 20
0.986
 30
0.0
 11
2.671
 21
0.998
 31
0.0
  0
LINE
  5
8C
330
18
100
AcDbEntity
  8
0
100
AcDbLine
 10
2.671
 20
0.998
 30
0.0
 11
2.767
 21
1.004
 31
0.0
  0
LINE
  5
8D
330
18
100
AcDbEntity
  8
0
100
AcDbLine
 10
2.767
 20
1.004
 30
0.0
 11
2.865
 21
1.023
 31
0.0
  0
LINE
  5
8E
330
18
100
AcDbEntity
  8
0
100
AcDbLine
 10
2.865
 20
1.023
 30
0.0
 11
2.915
 21
1.035
 31
0.0
  0
LINE
  5
8F
330
18
100
AcDbEntity
  8
0
100
AcDbLine
 10
2.834
 20
0.9079999999999999
 30
0.0
 11
2.863
 21
0.91
 31
0.0
  0
LINE
  5
90
330
18
100
AcDbEntity
  8
0
100
AcDbLine
 10
2.863
 20
0.91
 30
0.0
 11
2.981
 21
0.9290000000000001
 31
0.0
  0
LINE
  5
91
330
18
100
AcDbEntity
  8
0
100
AcDbLine
 10
2.981
 20
0.9290000000000001
 30
0.0
 11
3.123
 21
0.963
 31
0.0
  0
LINE
  5
92
330
18
100
AcDbEntity
  8
0
100
AcDbLine
 10
2.689
 20
0.956
 30
0.0
 11
2.764
 21
0.9640000000000001
 31
0.0
  0
LINE
  5
93
330
18
100
AcDbEntity
  8
0
100
AcDbLine
 10
2.764
 20
0.9640000000000001
 30
0.0
 11
2.879
 21
0.976
 31
0.0
  0
LINE
  5
94
330
18
100
AcDbEntity
  8
0
100
AcDbLine
 10
2.879
 20
0.976
 30
0.0
 11
2.96
 21
0.982
 31
0.0
  0
LINE
  5
95
330
18
100
AcDbEntity
  8
0
100
AcDbLine
 10
2.96
 20
0.982
 30
0.0
 11
3.026
 21
0.996
 31
0.0
  0
LINE
  5
96
330
18
100
AcDbEntity
  8
0
100
AcDbLine
 10
3.098
 20
1.164
 30
0.0
 11
3.182
 21
1.201
 31
0.0
  0
LINE
  5
97
330
18
100
AcDbEntity
  8
0
100
AcDbLine
 10
3.182
 20
1.201
 30
0.0
 11
3.274
 21
1.237
 31
0.0
  0
LINE
  5
98
330
18
100
AcDbEntity
  8
0
100
AcDbLine
 10
3.274
 20
1.237
 30
0.0
 11
3.323
 21
1.26
 31
0.0
  0
LINE
  5
99
330
18
100
AcDbEntity
  8
0
100
AcDbLine
 10
3.222
 20
1.122
 30
0.0
 11
3.343
 21
1.152
 31
0.0
  0
LINE
  5
9A
330
18
100
AcDbEntity
  8
0
100
AcDbLine
 10
3.343
 20
1.152
 30
0.0
 11
3.445
 21
1.173
 31
0.0
  0
LINE
  5
9B
330
18
100
AcDbEntity
  8
0
100
AcDbLine
 10
3.445
 20
1.173
 30
0.0
 11
3.511
 21
1.193
 31
0.0
  0
ARC
  5
9C
330
18
100
AcDbEntity
  8
0
100
AcDbCircle
 10
5.388999999999999
 20
2.723
 30
0.0
 40
1.044
100
AcDbArc
 50
157.94
 51
165.342
  0
ARC
  5
9D
330
18
100
AcDbEntity
  8
0
100
AcDbCircle
 10
4.799
 20
2.962
 30
0.0
 40
0.408
100
AcDbArc
 50
147.054
 51
157.94
  0
ARC
  5
9E
330
18
100
AcDbEntity
  8
0
100
AcDbCircle
 10
7.042999999999999
 20
1.508
 30
0.0
 40
3.081
100
AcDbArc
 50
145.272
 51
147.054
  0
ARC
  5
9F
330
18
100
AcDbEntity
  8
0
100
AcDbCircle
 10
4.053999999999999
 20
3.58
 30
0.0
 40
0.5550000000000001
100
AcDbArc
 50
325.272
 51
329.469
  0
ARC
  5
A0
330
18
100
AcDbEntity
  8
0
100
AcDbCircle
 10
2.217
 20
4.663
 30
0.0
 40
2.688
100
AcDbArc
 50
329.469
 51
330.661
  0
ARC
  5
A1
330
18
100
AcDbEntity
  8
0
100
AcDbCircle
 10
2.602
 20
4.447
 30
0.0
 40
2.246
100
AcDbArc
 50
330.661
 51
331.965
  0
ARC
  5
A2
330
18
100
AcDbEntity
  8
0
100
AcDbCircle
 10
3.667
 20
3.879
 30
0.0
 40
1.039
100
AcDbArc
 50
331.965
 51
336.524
  0
ARC
  5
A3
330
18
100
AcDbEntity
  8
0
100
AcDbCircle
 10
2.68
 20
4.308
 30
0.0
 40
2.116
100
AcDbArc
 50
336.524
 51
339.718
  0
ARC
  5
A4
330
18
100
AcDbEntity
  8
0
100
AcDbCircle
 10
3.155
 20
4.133
 30
0.0
 40
1.61
100
AcDbArc
 50
339.718
 51
344.258
  0
ARC
  5
A5
330
18
100
AcDbEntity
  8
0
100
AcDbCircle
 10
3.834
 20
3.941
 30
0.0
 40
0.904
100
AcDbArc
 50
344.258
 51
350.318
  0
ARC
  5
A6
330
18
100
AcDbEntity
  8
0
100
AcDbCircle
 10
4.242
 20
3.872
 30
0.0
 40
0.49
100
AcDbArc
 50
350.318
 51
351.759
  0
ARC
  5
A7
330
18
100
AcDbEntity
  8
0
100
AcDbCircle
 10
-23.409
 20
7.876
 30
0.0
 40
28.429
100
AcDbArc
 50
351.759
 51
351.948
  0
ARC
  5
A8
330
18
100
AcDbEntity
  8
0
100
AcDbCircle
 10
2.953
 20
4.147
 30
0.0
 40
1.804
100
AcDbArc
 50
351.948
 51
355.6180000000001
  0
ARC
  5
A9
330
18
100
AcDbEntity
  8
0
100
AcDbCircle
 10
1.587
 20
4.252
 30
0.0
 40
3.175
100
AcDbArc
 50
355.6180000000001
 51
356.271
  0
ARC
  5
AA
330
18
100
AcDbEntity
  8
0
100
AcDbCircle
 10
-3.101
 20
8.576000000000001
 30
0.0
 40
9.241
100
AcDbArc
 50
323.399
 51
323.952
  0
ARC
  5
AB
330
18
100
AcDbEntity
  8
0
100
AcDbCircle
 10
2.831
 20
4.258
 30
0.0
 40
1.904
100
AcDbArc
 50
323.952
 51
325.171
  0
ARC
  5
AC
330
18
100
AcDbEntity
  8
0
100
AcDbCircle
 10
-32.606
 20
28.914
 30
0.0
 40
45.075
100
AcDbArc
 50
325.171
 51
325.389
  0
ARC
  5
AD
330
18
100
AcDbEntity
  8
0
100
AcDbCircle
 10
2.839
 20
4.452
 30
0.0
 40
2.009
100
AcDbArc
 50
325.389
 51
326.418
  0
ARC
  5
AE
330
18
100
AcDbEntity
  8
0
100
AcDbCircle
 10
3.921
 20
3.734
 30
0.0
 40
0.71
100
AcDbArc
 50
326.418
 51
331.8030000000001
  0
ARC
  5
AF
330
18
100
AcDbEntity
  8
0
100
AcDbCircle
 10
3.777
 20
3.811
 30
0.0
 40
0.872
100
AcDbArc
 50
331.8030000000001
 51
336.661
  0
ARC
  5
B0
330
18
100
AcDbEntity
  8
0
100
AcDbCircle
 10
3.964
 20
3.73
 30
0.0
 40
0.669
100
AcDbArc
 50
336.661
 51
342.929
  0
ARC
  5
B1
330
18
100
AcDbEntity
  8
0
100
AcDbCircle
 10
3.615
 20
3.837
 30
0.0
 40
1.034
100
AcDbArc
 50
342.929
 51
347.971
  0
ARC
  5
B2
330
18
100
AcDbEntity
  8
0
100
AcDbCircle
 10
2.089
 20
4.162
 30
0.0
 40
2.595
100
AcDbArc
 50
347.971
 51
350.023
  0
ARC
  5
B3
330
18
100
AcDbEntity
  8
0
100
AcDbCircle
 10
3.477
 20
3.918
 30
0.0
 40
1.185
100
AcDbArc
 50
350.023
 51
353.061
  0
ARC
  5
B4
330
18
100
AcDbEntity
  8
0
100
AcDbCircle
 10
1.306
 20
4.182
 30
0.0
 40
3.372
100
AcDbArc
 50
353.061
 51
354.772
  0
ARC
  5
B5
330
18
100
AcDbEntity
  8
0
100
AcDbCircle
 10
3.872
 20
3.948
 30
0.0
 40
0.7959999999999999
100
AcDbArc
 50
354.772
 51
358.294
  0
ARC
  5
B6
330
18
100
AcDbEntity
  8
0
100
AcDbCircle
 10
3.594
 20
3.956
 30
0.0
 40
1.073
100
AcDbArc
 50
358.294
 51
358.926
  0
ARC
  5
B7
330
18
100
AcDbEntity
  8
0
100
AcDbCircle
 10
-106.429
 20
6.018
 30
0.0
 40
111.116
100
AcDbArc
 50
358.926
 51
358.9880000000001
  0
ARC
  5
B8
330
18
100
AcDbEntity
  8
0
100
AcDbCircle
 10
1.542
 20
4.111000000000001
 30
0.0
 40
3.128
100
AcDbArc
 50
358.9880000000001
 51
359.763
  0
ARC
  5
B9
330
18
100
AcDbEntity
  8
0
100
AcDbCircle
 10
3.779
 20
4.112
 30
0.0
 40
0.601
100
AcDbArc
 50
333.781
 51
334.543
  0
ARC
  5
BA
330
18
100
AcDbEntity
  8
0
100
AcDbCircle
 10
4.111000000000001
 20
3.955
 30
0.0
 40
0.234
100
AcDbArc
 50
334.543
 51
345.579
  0
ARC
  5
BB
330
18
100
AcDbEntity
  8
0
100
AcDbCircle
 10
3.456
 20
4.123
 30
0.0
 40
0.91
100
AcDbArc
 50
345.579
 51
349.223
  0
ARC
  5
BC
330
18
100
AcDbEntity
  8
0
100
AcDbCircle
 10
4.712
 20
3.884
 30
0.0
 40
0.368
100
AcDbArc
 50
163.492
 51
169.223
  0
ARC
  5
BD
330
18
100
AcDbEntity
  8
0
100
AcDbCircle
 10
4.61
 20
3.914
 30
0.0
 40
0.262
100
AcDbArc
 50
148.151
 51
163.492
  0
ARC
  5
BE
330
18
100
AcDbEntity
  8
0
100
AcDbCircle
 10
4.31
 20
4.1
 30
0.0
 40
0.091
100
AcDbArc
 50
328.151
 51
354.2619999999999
  0
ARC
  5
BF
330
18
100
AcDbEntity
  8
0
100
AcDbCircle
 10
3.116
 20
4.22
 30
0.0
 40
1.291
100
AcDbArc
 50
354.2619999999999
 51
355.396
  0
ARC
  5
C0
330
18
100
AcDbEntity
  8
0
100
AcDbCircle
 10
17.504
 20
3.062
 30
0.0
 40
13.143
100
AcDbArc
 50
175.041
 51
175.396
  0
ARC
  5
C1
330
18
100
AcDbEntity
  8
0
100
AcDbCircle
 10
13.351
 20
3.422
 30
0.0
 40
8.975
100
AcDbArc
 50
174.654
 51
175.041
  0
ARC
  5
C2
330
18
100
AcDbEntity
  8
0
100
AcDbCircle
 10
3.755
 20
4.138
 30
0.0
 40
0.7090000000000001
100
AcDbArc
 50
322.71
 51
322.975
  0
ARC
  5
C3
330
18
100
AcDbEntity
  8
0
100
AcDbCircle
 10
4.127
 20
3.857
 30
0.0
 40
0.243
100
AcDbArc
 50
322.975
 51
335.717
  0
ARC
  5
C4
330
18
100
AcDbEntity
  8
0
100
AcDbCircle
 10
1.784
 20
4.914
 30
0.0
 40
2.813
100
AcDbArc
 50
335.717
 51
338.088
  0
ARC
  5
C5
330
18
100
AcDbEntity
  8
0
100
AcDbCircle
 10
4.178999999999999
 20
3.951
 30
0.0
 40
0.232
100
AcDbArc
 50
338.088
 51
346.353
  0
ARC
  5
C6
330
18
100
AcDbEntity
  8
0
100
AcDbCircle
 10
2.997
 20
4.238
 30
0.0
 40
1.448
100
AcDbArc
 50
346.353
 51
348.579
  0
ARC
  5
C7
330
18
100
AcDbEntity
  8
0
100
AcDbCircle
 10
4.044
 20
4.026
 30
0.0
 40
0.379
100
AcDbArc
 50
348.579
 51
352.929
  0
ARC
  5
C8
330
18
100
AcDbEntity
  8
0
100
AcDbCircle
 10
3.816
 20
4.053999999999999
 30
0.0
 40
0.609
100
AcDbArc
 50
352.929
 51
356.6
  0
ARC
  5
C9
330
18
100
AcDbEntity
  8
0
100
AcDbCircle
 10
10.266
 20
3.671
 30
0.0
 40
5.851
100
AcDbArc
 50
175.415
 51
176.6
  0
ARC
  5
CA
330
18
100
AcDbEntity
  8
0
100
AcDbCircle
 10
5.955
 20
4.017
 30
0.0
 40
1.527
100
AcDbArc
 50
172.163
 51
175.415
  0
ARC
  5
CB
330
18
100
AcDbEntity
  8
0
100
AcDbCircle
 10
8.201000000000001
 20
3.708
 30
0.0
 40
3.795
100
AcDbArc
 50
171.938
 51
172.163
  0
ARC
  5
CC
330
18
100
AcDbEntity
  8
0
100
AcDbCircle
 10
2.387
 20
4.536000000000001
 30
0.0
 40
2.173
100
AcDbArc
 50
332.77
 51
334.2480000000001
  0
ARC
  5
CD
330
18
100
AcDbEntity
  8
0
100
AcDbCircle
 10
3.894
 20
3.809
 30
0.0
 40
0.5
100
AcDbArc
 50
334.2480000000001
 51
339.982
  0
ARC
  5
CE
330
18
100
AcDbEntity
  8
0
100
AcDbCircle
 10
-131.769
 20
53.236
 30
0.0
 40
144.886
100
AcDbArc
 50
339.982
 51
340.034
  0
ARC
  5
CF
330
18
100
AcDbEntity
  8
0
100
AcDbCircle
 10
-6.752999999999999
 20
7.818
 30
0.0
 40
11.875
100
AcDbArc
 50
340.034
 51
340.217
  0
ARC
  5
D0
330
18
100
AcDbEntity
  8
0
100
AcDbCircle
 10
-19.489
 20
12.399
 30
0.0
 40
25.41
100
AcDbArc
 50
340.217
 51
340.508
  0
ARC
  5
D1
330
18
100
AcDbEntity
  8
0
100
AcDbCircle
 10
3.906
 20
4.118
 30
0.0
 40
0.593
100
AcDbArc
 50
340.508
 51
342.417
  0
ARC
  5
D2
330
18
100
AcDbEntity
  8
0
100
AcDbCircle
 10
4.377
 20
3.969
 30
0.0
 40
0.099
100
AcDbArc
 50
342.417
 51
352.353
  0
ARC
  5
D3
330
18
100
AcDbEntity
  8
0
100
AcDbCircle
 10
9.08
 20
3.337
 30
0.0
 40
4.646
100
AcDbArc
 50
170.905
 51
172.353
  0
ARC
  5
D4
330
18
100
AcDbEntity
  8
0
100
AcDbCircle
 10
7.735
 20
3.553
 30
0.0
 40
3.284
100
AcDbArc
 50
168.706
 51
170.905
  0
ARC
  5
D5
330
18
100
AcDbEntity
  8
0
100
AcDbCircle
 10
10.323
 20
3.036
 30
0.0
 40
5.922999999999999
100
AcDbArc
 50
168.704
 51
168.706
  0
ARC
  5
D6
330
18
100
AcDbEntity
  8
0
100
AcDbCircle
 10
2.937
 20
4.233000000000001
 30
0.0
 40
1.63
100
AcDbArc
 50
327.979
 51
329.633
  0
ARC
  5
D7
330
18
100
AcDbEntity
  8
0
100
AcDbCircle
 10
3.898
 20
3.67
 30
0.0
 40
0.516
100
AcDbArc
 50
329.633
 51
335.8130000000001
  0
ARC
  5
D8
330
18
100
AcDbEntity
  8
0
100
AcDbCircle
 10
-20.819
 20
14.772
 30
0.0
 40
27.612
100
AcDbArc
 50
335.8130000000001
 51
336.05
  0
ARC
  5
D9
330
18
100
AcDbEntity
  8
0
100
AcDbCircle
 10
3.901
 20
3.792
 30
0.0
 40
0.564
100
AcDbArc
 50
336.05
 51
337.711
  0
ARC
  5
DA
330
18
100
AcDbEntity
  8
0
100
AcDbCircle
 10
0.439
 20
5.211
 30
0.0
 40
4.305
100
AcDbArc
 50
337.711
 51
338.656
  0
ARC
  5
DB
330
18
100
AcDbEntity
  8
0
100
AcDbCircle
 10
4.041
 20
3.803
 30
0.0
 40
0.4379999999999999
100
AcDbArc
 50
338.656
 51
341.621
  0
ARC
  5
DC
330
18
100
AcDbEntity
  8
0
100
AcDbCircle
 10
3.666
 20
3.928
 30
0.0
 40
0.8320000000000001
100
AcDbArc
 50
341.621
 51
343.75
  0
ARC
  5
DD
330
18
100
AcDbEntity
  8
0
100
AcDbCircle
 10
-9.025
 20
7.627000000000001
 30
0.0
 40
14.052
100
AcDbArc
 50
343.75
 51
344.268
  0
ARC
  5
DE
330
18
100
AcDbEntity
  8
0
100
AcDbCircle
 10
-6.024
 20
6.782
 30
0.0
 40
10.934
100
AcDbArc
 50
344.268
 51
344.859
  0
ARC
  5
DF
330
18
100
AcDbEntity
  8
0
100
AcDbCircle
 10
4.419
 20
3.956
 30
0.0
 40
0.116
100
AcDbArc
 50
344.859
 51
350.59
  0
ARC
  5
E0
330
18
100
AcDbEntity
  8
0
100
AcDbCircle
 10
4.257
 20
3.983
 30
0.0
 40
0.28
100
AcDbArc
 50
350.59
 51
352.249
  0
ARC
  5
E1
330
18
100
AcDbEntity
  8
0
100
AcDbCircle
 10
-25.128
 20
7.982
 30
0.0
 40
29.936
100
AcDbArc
 50
352.249
 51
352.409
  0
ARC
  5
E2
330
18
100
AcDbEntity
  8
0
100
AcDbCircle
 10
-1.401
 20
4.821000000000001
 30
0.0
 40
5.999
100
AcDbArc
 50
352.409
 51
352.783
  0
ARC
  5
E3
330
18
100
AcDbEntity
  8
0
100
AcDbCircle
 10
49.083
 20
-1.572
 30
0.0
 40
44.887
100
AcDbArc
 50
172.656
 51
172.783
  0
ARC
  5
E4
330
18
100
AcDbEntity
  8
0
100
AcDbCircle
 10
3.099
 20
4.218
 30
0.0
 40
1.551
100
AcDbArc
 50
321.94
 51
324.4
  0
ARC
  5
E5
330
18
100
AcDbEntity
  8
0
100
AcDbCircle
 10
3.973
 20
3.592
 30
0.0
 40
0.475
100
AcDbArc
 50
324.4
 51
330.95
  0
ARC
  5
E6
330
18
100
AcDbEntity
  8
0
100
AcDbCircle
 10
-20.68
 20
17.286
 30
0.0
 40
28.676
100
AcDbArc
 50
330.95
 51
331.163
  0
ARC
  5
E7
330
18
100
AcDbEntity
  8
0
100
AcDbCircle
 10
3.059
 20
4.215
 30
0.0
 40
1.576
100
AcDbArc
 50
331.163
 51
332.073
  0
ARC
  5
E8
330
18
100
AcDbEntity
  8
0
100
AcDbCircle
 10
1.689
 20
4.942
 30
0.0
 40
3.128
100
AcDbArc
 50
332.073
 51
333.324
  0
ARC
  5
E9
330
18
100
AcDbEntity
  8
0
100
AcDbCircle
 10
3.069
 20
4.248
 30
0.0
 40
1.584
100
AcDbArc
 50
333.324
 51
335.082
  0
ARC
  5
EA
330
18
100
AcDbEntity
  8
0
100
AcDbCircle
 10
4.071000000000001
 20
3.783
 30
0.0
 40
0.479
100
AcDbArc
 50
335.082
 51
343.845
  0
ARC
  5
EB
330
18
100
AcDbEntity
  8
0
100
AcDbCircle
 10
3.597
 20
3.92
 30
0.0
 40
0.972
100
AcDbArc
 50
343.845
 51
349.991
  0
ARC
  5
EC
330
18
100
AcDbEntity
  8
0
100
AcDbCircle
 10
-0.083
 20
4.57
 30
0.0
 40
4.709
100
AcDbArc
 50
349.991
 51
350.946
  0
ARC
  5
ED
330
18
100
AcDbEntity
  8
0
100
AcDbCircle
 10
3.778
 20
3.954
 30
0.0
 40
0.799
100
AcDbArc
 50
350.946
 51
353.266
  0
ARC
  5
EE
330
18
100
AcDbEntity
  8
0
100
AcDbCircle
 10
-7.55
 20
5.292000000000001
 30
0.0
 40
12.206
100
AcDbArc
 50
353.266
 51
353.549
  0
ARC
  5
EF
330
18
100
AcDbEntity
  8
0
100
AcDbCircle
 10
-0.893
 20
4.539
 30
0.0
 40
5.507000000000001
100
AcDbArc
 50
353.549
 51
353.97
  0
ARC
  5
F0
330
18
100
AcDbEntity
  8
0
100
AcDbCircle
 10
2.096
 20
4.223
 30
0.0
 40
2.5
100
AcDbArc
 50
353.97
 51
354.627
  0
ARC
  5
F1
330
18
100
AcDbEntity
  8
0
100
AcDbCircle
 10
47.627
 20
-0.059
 30
0.0
 40
43.232
100
AcDbArc
 50
174.469
 51
174.627
  0
ARC
  5
F2
330
18
100
AcDbEntity
  8
0
100
AcDbCircle
 10
6.22
 20
3.951
 30
0.0
 40
1.631
100
AcDbArc
 50
173.268
 51
174.469
  0
ARC
  5
F3
330
18
100
AcDbEntity
  8
0
100
AcDbCircle
 10
3.683
 20
3.829
 30
0.0
 40
0.919
100
AcDbArc
 50
313.862
 51
318.682
  0
ARC
  5
F4
330
18
100
AcDbEntity
  8
0
100
AcDbCircle
 10
4.233000000000001
 20
3.345
 30
0.0
 40
0.186
100
AcDbArc
 50
318.682
 51
332.376
  0
ARC
  5
F5
330
18
100
AcDbEntity
  8
0
100
AcDbCircle
 10
1.844
 20
4.596
 30
0.0
 40
2.883
100
AcDbArc
 50
332.376
 51
334.655
  0
ARC
  5
F6
330
18
100
AcDbEntity
  8
0
100
AcDbCircle
 10
5.774
 20
2.734
 30
0.0
 40
1.466
100
AcDbArc
 50
151.458
 51
154.655
  0
ARC
  5
F7
330
18
100
AcDbEntity
  8
0
100
AcDbCircle
 10
6.171
 20
2.518
 30
0.0
 40
1.918
100
AcDbArc
 50
148.787
 51
151.458
  0
ARC
  5
F8
330
18
100
AcDbEntity
  8
0
100
AcDbCircle
 10
3.854
 20
3.923
 30
0.0
 40
0.792
100
AcDbArc
 50
328.787
 51
332.944
  0
ARC
  5
F9
330
18
100
AcDbEntity
  8
0
100
AcDbCircle
 10
4.243
 20
3.723
 30
0.0
 40
0.355
100
AcDbArc
 50
332.944
 51
341.329
  0
ARC
  5
FA
330
18
100
AcDbEntity
  8
0
100
AcDbCircle
 10
3.093
 20
4.112
 30
0.0
 40
1.569
100
AcDbArc
 50
341.329
 51
345.311
  0
ARC
  5
FB
330
18
100
AcDbEntity
  8
0
100
AcDbCircle
 10
3.581
 20
3.984
 30
0.0
 40
1.064
100
AcDbArc
 50
345.311
 51
350.146
  0
ARC
  5
FC
330
18
100
AcDbEntity
  8
0
100
AcDbCircle
 10
3.84
 20
3.939
 30
0.0
 40
0.8020000000000001
100
AcDbArc
 50
350.146
 51
355.716
  0
ARC
  5
FD
330
18
100
AcDbEntity
  8
0
100
AcDbCircle
 10
4.39
 20
3.898
 30
0.0
 40
0.25
100
AcDbArc
 50
355.716
 51
6.586
  0
ARC
  5
FE
330
18
100
AcDbEntity
  8
0
100
AcDbCircle
 10
5.562
 20
4.034
 30
0.0
 40
0.9300000000000001
100
AcDbArc
 50
180.959
 51
186.586
  0
ARC
  5
FF
330
18
100
AcDbEntity
  8
0
100
AcDbCircle
 10
4.997
 20
4.024
 30
0.0
 40
0.365
100
AcDbArc
 50
169.113
 51
180.959
  0
ARC
  5
100
330
18
100
AcDbEntity
  8
0
100
AcDbCircle
 10
5.44
 20
3.939
 30
0.0
 40
0.816
100
AcDbArc
 50
167.52
 51
169.113
  0
ARC
  5
101
330
18
100
AcDbEntity
  8
0
100
AcDbCircle
 10
6.669
 20
1.888
 30
0.0
 40
2.458
100
AcDbArc
 50
153.345
 51
154.501
  0
ARC
  5
102
330
18
100
AcDbEntity
  8
0
100
AcDbCircle
 10
5.09
 20
2.681
 30
0.0
 40
0.691
100
AcDbArc
 50
149.72
 51
153.345
  0
ARC
  5
103
330
18
100
AcDbEntity
  8
0
100
AcDbCircle
 10
7.661000000000001
 20
1.18
 30
0.0
 40
3.668
100
AcDbArc
 50
148.07
 51
149.72
  0
ARC
  5
104
330
18
100
AcDbEntity
  8
0
100
AcDbCircle
 10
4.294
 20
3.278
 30
0.0
 40
0.299
100
AcDbArc
 50
328.07
 51
333.848
  0
ARC
  5
105
330
18
100
AcDbEntity
  8
0
100
AcDbCircle
 10
3.462
 20
3.687
 30
0.0
 40
1.226
100
AcDbArc
 50
333.848
 51
334.742
  0
ARC
  5
106
330
18
100
AcDbEntity
  8
0
100
AcDbCircle
 10
-32.191
 20
20.508
 30
0.0
 40
40.648
100
AcDbArc
 50
334.742
 51
334.897
  0
ARC
  5
107
330
18
100
AcDbEntity
  8
0
100
AcDbCircle
 10
-12.589
 20
11.324
 30
0.0
 40
19.001
100
AcDbArc
 50
334.897
 51
335.576
  0
ARC
  5
108
330
18
100
AcDbEntity
  8
0
100
AcDbCircle
 10
4.604
 20
3.516
 30
0.0
 40
0.118
100
AcDbArc
 50
335.576
 51
344.181
  0
ARC
  5
109
330
18
100
AcDbEntity
  8
0
100
AcDbCircle
 10
4.308
 20
3.6
 30
0.0
 40
0.426
100
AcDbArc
 50
344.181
 51
349.531
  0
ARC
  5
10A
330
18
100
AcDbEntity
  8
0
100
AcDbCircle
 10
8.547000000000001
 20
2.817
 30
0.0
 40
3.884
100
AcDbArc
 50
167.761
 51
169.531
  0
ARC
  5
10B
330
18
100
AcDbEntity
  8
0
100
AcDbCircle
 10
60.703
 20
-8.497
 30
0.0
 40
57.254
100
AcDbArc
 50
167.607
 51
167.761
  0
ARC
  5
10C
330
18
100
AcDbEntity
  8
0
100
AcDbCircle
 10
8.252000000000001
 20
3.028
 30
0.0
 40
3.552
100
AcDbArc
 50
166.99
 51
167.607
  0
ARC
  5
10D
330
18
100
AcDbEntity
  8
0
100
AcDbCircle
 10
5.089
 20
3.759
 30
0.0
 40
0.305
100
AcDbArc
 50
163.23
 51
166.99
  0
ARC
  5
10E
330
18
100
AcDbEntity
  8
0
100
AcDbCircle
 10
-0.179
 20
5.347
 30
0.0
 40
5.197
100
AcDbArc
 50
343.23
 51
344.141
  0
ARC
  5
10F
330
18
100
AcDbEntity
  8
0
100
AcDbCircle
 10
4.004
 20
4.158
 30
0.0
 40
0.848
100
AcDbArc
 50
344.141
 51
348.847
  0
ARC
  5
110
330
18
100
AcDbEntity
  8
0
100
AcDbCircle
 10
1.738
 20
4.292
 30
0.0
 40
3.14
100
AcDbArc
 50
333.508
 51
334.936
  0
ARC
  5
111
330
18
100
AcDbEntity
  8
0
100
AcDbCircle
 10
3.724
 20
3.363
 30
0.0
 40
0.9470000000000001
100
AcDbArc
 50
334.936
 51
339.807
  0
ARC
  5
112
330
18
100
AcDbEntity
  8
0
100
AcDbCircle
 10
-103.501
 20
42.799
 30
0.0
 40
115.194
100
AcDbArc
 50
339.807
 51
339.891
  0
ARC
  5
113
330
18
100
AcDbEntity
  8
0
100
AcDbCircle
 10
2.024
 20
4.162
 30
0.0
 40
2.819
100
AcDbArc
 50
339.891
 51
340.423
  0
ARC
  5
114
330
18
100
AcDbEntity
  8
0
100
AcDbCircle
 10
-11.408
 20
8.939
 30
0.0
 40
17.075
100
AcDbArc
 50
340.423
 51
341.04
  0
ARC
  5
115
330
18
100
AcDbEntity
  8
0
100
AcDbCircle
 10
3.487
 20
3.822
 30
0.0
 40
1.325
100
AcDbArc
 50
341.04
 51
343.257
  0
ARC
  5
116
330
18
100
AcDbEntity
  8
0
100
AcDbCircle
 10
3.536
 20
3.808
 30
0.0
 40
1.274
100
AcDbArc
 50
343.257
 51
345.769
  0
ARC
  5
117
330
18
100
AcDbEntity
  8
0
100
AcDbCircle
 10
-2.395
 20
5.312
 30
0.0
 40
7.392
100
AcDbArc
 50
345.769
 51
346.812
  0
ARC
  5
118
330
18
100
AcDbEntity
  8
0
100
AcDbCircle
 10
-6.927000000000001
 20
6.374
 30
0.0
 40
12.048
100
AcDbArc
 50
346.812
 51
347.379
  0
ARC
  5
119
330
18
100
AcDbEntity
  8
0
100
AcDbCircle
 10
-1.676
 20
5.198
 30
0.0
 40
6.666
100
AcDbArc
 50
347.379
 51
348.141
  0
ARC
  5
11A
330
18
100
AcDbEntity
  8
0
100
AcDbCircle
 10
4.133
 20
3.978
 30
0.0
 40
0.731
100
AcDbArc
 50
348.141
 51
350.229
  0
ARC
  5
11B
330
18
100
AcDbEntity
  8
0
100
AcDbCircle
 10
12.199
 20
2.589
 30
0.0
 40
7.454
100
AcDbArc
 50
169.575
 51
170.229
  0
ARC
  5
11C
330
18
100
AcDbEntity
  8
0
100
AcDbCircle
 10
5.51
 20
3.82
 30
0.0
 40
0.652
100
AcDbArc
 50
166.661
 51
169.575
  0
ARC
  5
11D
330
18
100
AcDbEntity
  8
0
100
AcDbCircle
 10
3.626
 20
3.409
 30
0.0
 40
1.176
100
AcDbArc
 50
330.676
 51
332.126
  0
ARC
  5
11E
330
18
100
AcDbEntity
  8
0
100
AcDbCircle
 10
4.405
 20
2.997
 30
0.0
 40
0.295
100
AcDbArc
 50
332.126
 51
341.757
  0
ARC
  5
11F
330
18
100
AcDbEntity
  8
0
100
AcDbCircle
 10
-26.598
 20
13.216
 30
0.0
 40
32.938
100
AcDbArc
 50
341.757
 51
341.932
  0
ARC
  5
120
330
18
100
AcDbEntity
  8
0
100
AcDbCircle
 10
12.375
 20
0.501
 30
0.0
 40
8.056000000000001
100
AcDbArc
 50
161.579
 51
161.932
  0
ARC
  5
121
330
18
100
AcDbEntity
  8
0
100
AcDbCircle
 10
19.648
 20
-1.921
 30
0.0
 40
15.722
100
AcDbArc
 50
161.15
 51
161.579
  0
ARC
  5
122
330
18
100
AcDbEntity
  8
0
100
AcDbCircle
 10
3.199
 20
3.695
 30
0.0
 40
1.659
100
AcDbArc
 50
341.15
 51
342.471
  0
ARC
  5
123
330
18
100
AcDbEntity
  8
0
100
AcDbCircle
 10
4.212
 20
3.375
 30
0.0
 40
0.597
100
AcDbArc
 50
342.471
 51
345.608
  0
ARC
  5
124
330
18
100
AcDbEntity
  8
0
100
AcDbCircle
 10
-2.458
 20
5.086
 30
0.0
 40
7.483
100
AcDbArc
 50
345.608
 51
346.494
  0
ARC
  5
125
330
18
100
AcDbEntity
  8
0
100
AcDbCircle
 10
-13.593
 20
7.761
 30
0.0
 40
18.935
100
AcDbArc
 50
346.494
 51
346.735
  0
ARC
  5
126
330
18
100
AcDbEntity
  8
0
100
AcDbCircle
 10
-4.311
 20
5.573
 30
0.0
 40
9.398
100
AcDbArc
 50
346.735
 51
347.078
  0
ARC
  5
127
330
18
100
AcDbEntity
  8
0
100
AcDbCircle
 10
2.486
 20
4.013
 30
0.0
 40
2.425
100
AcDbArc
 50
347.078
 51
348.848
  0
ARC
  5
128
330
18
100
AcDbEntity
  8
0
100
AcDbCircle
 10
8.172000000000001
 20
2.878
 30
0.0
 40
3.374
100
AcDbArc
 50
167.327
 51
168.599
  0
ARC
  5
129
330
18
100
AcDbEntity
  8
0
100
AcDbCircle
 10
5.587000000000001
 20
3.459
 30
0.0
 40
0.7240000000000001
100
AcDbArc
 50
164.015
 51
167.327
  0
ARC
  5
12A
330
18
100
AcDbEntity
  8
0
100
AcDbCircle
 10
3.241
 20
4.131
 30
0.0
 40
1.716
100
AcDbArc
 50
344.015
 51
346.167
  0
ARC
  5
12B
330
18
100
AcDbEntity
  8
0
100
AcDbCircle
 10
4.62
 20
3.791
 30
0.0
 40
0.296
100
AcDbArc
 50
346.167
 51
352.685
  0
ARC
  5
12C
330
18
100
AcDbEntity
  8
0
100
AcDbCircle
 10
6.656000000000001
 20
3.53
 30
0.0
 40
1.757
100
AcDbArc
 50
171.089
 51
172.685
  0
ARC
  5
12D
330
18
100
AcDbEntity
  8
0
100
AcDbCircle
 10
2.423
 20
3.927
 30
0.0
 40
2.565
100
AcDbArc
 50
333.741
 51
335.32
  0
ARC
  5
12E
330
18
100
AcDbEntity
  8
0
100
AcDbCircle
 10
4.001
 20
3.202
 30
0.0
 40
0.828
100
AcDbArc
 50
335.32
 51
339.907
  0
ARC
  5
12F
330
18
100
AcDbEntity
  8
0
100
AcDbCircle
 10
-23.712
 20
13.34
 30
0.0
 40
30.337
100
AcDbArc
 50
339.907
 51
340.187
  0
ARC
  5
130
330
18
100
AcDbEntity
  8
0
100
AcDbCircle
 10
4.692
 20
3.106
 30
0.0
 40
0.146
100
AcDbArc
 50
340.187
 51
344.229
  0
LINE
  5
131
330
18
100
AcDbEntity
  8
0
100
AcDbLine
 10
4.833
 20
3.067
 30
0.0
 11
4.878
 21
3.227
 31
0.0
  0
LINE
  5
132
330
18
100
AcDbEntity
  8
0
100
AcDbLine
 10
4.878
 20
3.227
 30
0.0
 11
4.911000000000001
 21
3.345
 31
0.0
  0
ARC
  5
133
330
18
100
AcDbEntity
  8
0
100
AcDbCircle
 10
3.238
 20
3.74
 30
0.0
 40
1.855
100
AcDbArc
 50
327.608
 51
329.108
  0
ARC
  5
134
330
18
100
AcDbEntity
  8
0
100
AcDbCircle
 10
4.527
 20
2.969
 30
0.0
 40
0.353
100
AcDbArc
 50
329.108
 51
337.529
  0
ARC
  5
135
330
18
100
AcDbEntity
  8
0
100
AcDbCircle
 10
0.8140000000000001
 20
4.505
 30
0.0
 40
4.371
100
AcDbArc
 50
337.529
 51
338.9930000000001
  0
ARC
  5
136
330
18
100
AcDbEntity
  8
0
100
AcDbCircle
 10
-5.31
 20
6.857
 30
0.0
 40
10.931
100
AcDbArc
 50
338.9930000000001
 51
339.127
  0
ARC
  5
137
330
18
100
AcDbEntity
  8
0
100
AcDbCircle
 10
5.457000000000001
 20
3.493
 30
0.0
 40
1.283
100
AcDbArc
 50
150.977
 51
152.577
  0
ARC
  5
138
330
18
100
AcDbEntity
  8
0
100
AcDbCircle
 10
5.114
 20
3.683
 30
0.0
 40
0.8909999999999999
100
AcDbArc
 50
148.422
 51
150.977
  0
ARC
  5
139
330
18
100
AcDbEntity
  8
0
100
AcDbCircle
 10
4.306
 20
4.18
 30
0.0
 40
0.057
100
AcDbArc
 50
328.422
 51
338.521
  0
ARC
  5
13A
330
18
100
AcDbEntity
  8
0
100
AcDbCircle
 10
4.335
 20
4.169
 30
0.0
 40
0.026
100
AcDbArc
 50
338.521
 51
5.622000000000001
  0
ARC
  5
13B
330
18
100
AcDbEntity
  8
0
100
AcDbCircle
 10
4.81
 20
4.215
 30
0.0
 40
0.451
100
AcDbArc
 50
179.162
 51
185.622
  0
ARC
  5
13C
330
18
100
AcDbEntity
  8
0
100
AcDbCircle
 10
5.028000000000001
 20
4.212
 30
0.0
 40
0.669
100
AcDbArc
 50
173.278
 51
179.162
  0
ARC
  5
13D
330
18
100
AcDbEntity
  8
0
100
AcDbCircle
 10
3.805
 20
1.886
 30
0.0
 40
0.008
100
AcDbArc
 50
80.16
 51
114.724
  0
ARC
  5
13E
330
18
100
AcDbEntity
  8
0
100
AcDbCircle
 10
3.809
 20
1.878
 30
0.0
 40
0.016
100
AcDbArc
 50
114.724
 51
139.144
  0
ARC
  5
13F
330
18
100
AcDbEntity
  8
0
100
AcDbCircle
 10
3.815
 20
1.873
 30
0.0
 40
0.025
100
AcDbArc
 50
139.144
 51
156.175
  0
ARC
  5
140
330
18
100
AcDbEntity
  8
0
100
AcDbCircle
 10
3.826
 20
1.868
 30
0.0
 40
0.036
100
AcDbArc
 50
156.175
 51
170.16
  0
ARC
  5
141
330
18
100
AcDbEntity
  8
0
100
AcDbCircle
 10
3.826
 20
1.868
 30
0.0
 40
0.036
100
AcDbArc
 50
170.16
 51
184.144
  0
ARC
  5
142
330
18
100
AcDbEntity
  8
0
100
AcDbCircle
 10
3.814
 20
1.867
 30
0.0
 40
0.025
100
AcDbArc
 50
184.144
 51
201.176
  0
ARC
  5
143
330
18
100
AcDbEntity
  8
0
100
AcDbCircle
 10
3.806
 20
1.864
 30
0.0
 40
0.016
100
AcDbArc
 50
201.176
 51
225.595
  0
ARC
  5
144
330
18
100
AcDbEntity
  8
0
100
AcDbCircle
 10
3.801
 20
1.859
 30
0.0
 40
0.008
100
AcDbArc
 50
225.595
 51
260.16
  0
ARC
  5
145
330
18
100
AcDbEntity
  8
0
100
AcDbCircle
 10
3.801
 20
1.859
 30
0.0
 40
0.008
100
AcDbArc
 50
260.16
 51
294.724
  0
ARC
  5
146
330
18
100
AcDbEntity
  8
0
100
AcDbCircle
 10
3.797
 20
1.866
 30
0.0
 40
0.016
100
AcDbArc
 50
294.724
 51
319.144
  0
ARC
  5
147
330
18
100
AcDbEntity
  8
0
100
AcDbCircle
 10
3.791
 20
1.871
 30
0.0
 40
0.025
100
AcDbArc
 50
319.144
 51
336.175
  0
ARC
  5
148
330
18
100
AcDbEntity
  8
0
100
AcDbCircle
 10
3.78
 20
1.876
 30
0.0
 40
0.036
100
AcDbArc
 50
336.175
 51
350.16
  0
ARC
  5
149
330
18
100
AcDbEntity
  8
0
100
AcDbCircle
 10
3.78
 20
1.876
 30
0.0
 40
0.036
100
AcDbArc
 50
350.16
 51
4.144
  0
ARC
  5
14A
330
18
100
AcDbEntity
  8
0
100
AcDbCircle
 10
3.792
 20
1.877
 30
0.0
 40
0.025
100
AcDbArc
 50
4.144
 51
21.176
  0
ARC
  5
14B
330
18
100
AcDbEntity
  8
0
100
AcDbCircle
 10
3.8
 20
1.88
 30
0.0
 40
0.016
100
AcDbArc
 50
21.176
 51
45.595
  0
ARC
  5
14C
330
18
100
AcDbEntity
  8
0
100
AcDbCircle
 10
3.805
 20
1.886
 30
0.0
 40
0.008
100
AcDbArc
 50
45.595
 51
80.16
  0
ARC
  5
14D
330
18
100
AcDbEntity
  8
0
100
AcDbCircle
 10
3.783
 20
1.865
 30
0.0
 40
0.016
100
AcDbArc
 50
314.992
 51
319.144
  0
ARC
  5
14E
330
18
100
AcDbEntity
  8
0
100
AcDbCircle
 10
3.776
 20
1.871
 30
0.0
 40
0.025
100
AcDbArc
 50
319.144
 51
336.175
  0
ARC
  5
14F
330
18
100
AcDbEntity
  8
0
100
AcDbCircle
 10
3.765
 20
1.876
 30
0.0
 40
0.036
100
AcDbArc
 50
336.175
 51
350.16
  0
ARC
  5
150
330
18
100
AcDbEntity
  8
0
100
AcDbCircle
 10
3.765
 20
1.876
 30
0.0
 40
0.036
100
AcDbArc
 50
350.16
 51
4.144
  0
ARC
  5
151
330
18
100
AcDbEntity
  8
0
100
AcDbCircle
 10
3.777
 20
1.876
 30
0.0
 40
0.025
100
AcDbArc
 50
4.144
 51
34.043
  0
ARC
  5
152
330
18
100
AcDbEntity
  8
0
100
AcDbCircle
 10
3.48
 20
2.023
 30
0.0
 40
0.008
100
AcDbArc
 50
80.16
 51
114.724
  0
ARC
  5
153
330
18
100
AcDbEntity
  8
0
100
AcDbCircle
 10
3.483
 20
2.016
 30
0.0
 40
0.016
100
AcDbArc
 50
114.724
 51
139.144
  0
ARC
  5
154
330
18
100
AcDbEntity
  8
0
100
AcDbCircle
 10
3.49
 20
2.011
 30
0.0
 40
0.025
100
AcDbArc
 50
139.144
 51
156.175
  0
ARC
  5
155
330
18
100
AcDbEntity
  8
0
100
AcDbCircle
 10
3.5
 20
2.006
 30
0.0
 40
0.036
100
AcDbArc
 50
156.175
 51
170.16
  0
ARC
  5
156
330
18
100
AcDbEntity
  8
0
100
AcDbCircle
 10
3.5
 20
2.006
 30
0.0
 40
0.036
100
AcDbArc
 50
170.16
 51
184.144
  0
ARC
  5
157
330
18
100
AcDbEntity
  8
0
100
AcDbCircle
 10
3.489
 20
2.005
 30
0.0
 40
0.025
100
AcDbArc
 50
184.144
 51
201.176
  0
ARC
  5
158
330
18
100
AcDbEntity
  8
0
100
AcDbCircle
 10
3.481
 20
2.002
 30
0.0
 40
0.016
100
AcDbArc
 50
201.176
 51
225.595
  0
ARC
  5
159
330
18
100
AcDbEntity
  8
0
100
AcDbCircle
 10
3.475
 20
1.996
 30
0.0
 40
0.008
100
AcDbArc
 50
225.595
 51
260.16
  0
ARC
  5
15A
330
18
100
AcDbEntity
  8
0
100
AcDbCircle
 10
3.475
 20
1.996
 30
0.0
 40
0.008
100
AcDbArc
 50
260.16
 51
294.724
  0
ARC
  5
15B
330
18
100
AcDbEntity
  8
0
100
AcDbCircle
 10
3.472
 20
2.003
 30
0.0
 40
0.016
100
AcDbArc
 50
294.724
 51
319.144
  0
ARC
  5
15C
330
18
100
AcDbEntity
  8
0
100
AcDbCircle
 10
3.466
 20
2.009
 30
0.0
 40
0.025
100
AcDbArc
 50
319.144
 51
336.175
  0
ARC
  5
15D
330
18
100
AcDbEntity
  8
0
100
AcDbCircle
 10
3.455
 20
2.014
 30
0.0
 40
0.036
100
AcDbArc
 50
336.175
 51
350.16
  0
ARC
  5
15E
330
18
100
AcDbEntity
  8
0
100
AcDbCircle
 10
3.455
 20
2.014
 30
0.0
 40
0.036
100
AcDbArc
 50
350.16
 51
4.144
  0
ARC
  5
15F
330
18
100
AcDbEntity
  8
0
100
AcDbCircle
 10
3.466
 20
2.015
 30
0.0
 40
0.025
100
AcDbArc
 50
4.144
 51
21.176
  0
ARC
  5
160
330
18
100
AcDbEntity
  8
0
100
AcDbCircle
 10
3.474
 20
2.018
 30
0.0
 40
0.016
100
AcDbArc
 50
21.176
 51
45.595
  0
ARC
  5
161
330
18
100
AcDbEntity
  8
0
100
AcDbCircle
 10
3.48
 20
2.023
 30
0.0
 40
0.008
100
AcDbArc
 50
45.595
 51
80.16
  0
ARC
  5
162
330
18
100
AcDbEntity
  8
0
100
AcDbCircle
 10
3.457
 20
2.003
 30
0.0
 40
0.016
100
AcDbArc
 50
314.992
 51
319.144
  0
ARC
  5
163
330
18
100
AcDbEntity
  8
0
100
AcDbCircle
 10
3.451
 20
2.008
 30
0.0
 40
0.025
100
AcDbArc
 50
319.144
 51
336.175
  0
ARC
  5
164
330
18
100
AcDbEntity
  8
0
100
AcDbCircle
 10
3.44
 20
2.013
 30
0.0
 40
0.036
100
AcDbArc
 50
336.175
 51
350.16
  0
ARC
  5
165
330
18
100
AcDbEntity
  8
0
100
AcDbCircle
 10
3.44
 20
2.013
 30
0.0
 40
0.036
100
AcDbArc
 50
350.16
 51
4.144
  0
ARC
  5
166
330
18
100
AcDbEntity
  8
0
100
AcDbCircle
 10
3.452
 20
2.014
 30
0.0
 40
0.025
100
AcDbArc
 50
4.144
 51
34.043
  0
ARC
  5
167
330
18
100
AcDbEntity
  8
0
100
AcDbCircle
 10
3.482
 20
2.38
 30
0.0
 40
0.008
100
AcDbArc
 50
80.16
 51
114.724
  0
ARC
  5
168
330
18
100
AcDbEntity
  8
0
100
AcDbCircle
 10
3.485
 20
2.373
 30
0.0
 40
0.016
100
AcDbArc
 50
114.724
 51
139.144
  0
ARC
  5
169
330
18
100
AcDbEntity
  8
0
100
AcDbCircle
 10
3.492
 20
2.367
 30
0.0
 40
0.025
100
AcDbArc
 50
139.144
 51
156.175
  0
ARC
  5
16A
330
18
100
AcDbEntity
  8
0
100
AcDbCircle
 10
3.502
 20
2.362
 30
0.0
 40
0.036
100
AcDbArc
 50
156.175
 51
170.16
  0
ARC
  5
16B
330
18
100
AcDbEntity
  8
0
100
AcDbCircle
 10
3.502
 20
2.362
 30
0.0
 40
0.036
100
AcDbArc
 50
170.16
 51
184.144
  0
ARC
  5
16C
330
18
100
AcDbEntity
  8
0
100
AcDbCircle
 10
3.491
 20
2.361
 30
0.0
 40
0.025
100
AcDbArc
 50
184.144
 51
201.176
  0
ARC
  5
16D
330
18
100
AcDbEntity
  8
0
100
AcDbCircle
 10
3.483
 20
2.358
 30
0.0
 40
0.016
100
AcDbArc
 50
201.176
 51
225.595
  0
ARC
  5
16E
330
18
100
AcDbEntity
  8
0
100
AcDbCircle
 10
3.477
 20
2.353
 30
0.0
 40
0.008
100
AcDbArc
 50
225.595
 51
260.16
  0
ARC
  5
16F
330
18
100
AcDbEntity
  8
0
100
AcDbCircle
 10
3.477
 20
2.353
 30
0.0
 40
0.008
100
AcDbArc
 50
260.16
 51
294.724
  0
ARC
  5
170
330
18
100
AcDbEntity
  8
0
100
AcDbCircle
 10
3.474
 20
2.36
 30
0.0
 40
0.016
100
AcDbArc
 50
294.724
 51
319.144
  0
ARC
  5
171
330
18
100
AcDbEntity
  8
0
100
AcDbCircle
 10
3.467
 20
2.365
 30
0.0
 40
0.025
100
AcDbArc
 50
319.144
 51
336.175
  0
ARC
  5
172
330
18
100
AcDbEntity
  8
0
100
AcDbCircle
 10
3.457
 20
2.37
 30
0.0
 40
0.036
100
AcDbArc
 50
336.175
 51
350.16
  0
ARC
  5
173
330
18
100
AcDbEntity
  8
0
100
AcDbCircle
 10
3.457
 20
2.37
 30
0.0
 40
0.036
100
AcDbArc
 50
350.16
 51
4.144
  0
ARC
  5
174
330
18
100
AcDbEntity
  8
0
100
AcDbCircle
 10
3.468
 20
2.371
 30
0.0
 40
0.025
100
AcDbArc
 50
4.144
 51
21.176
  0
ARC
  5
175
330
18
100
AcDbEntity
  8
0
100
AcDbCircle
 10
3.476
 20
2.374
 30
0.0
 40
0.016
100
AcDbArc
 50
21.176
 51
45.595
  0
ARC
  5
176
330
18
100
AcDbEntity
  8
0
100
AcDbCircle
 10
3.482
 20
2.38
 30
0.0
 40
0.008
100
AcDbArc
 50
45.595
 51
80.16
  0
ARC
  5
177
330
18
100
AcDbEntity
  8
0
100
AcDbCircle
 10
3.459
 20
2.359
 30
0.0
 40
0.016
100
AcDbArc
 50
314.992
 51
319.144
  0
ARC
  5
178
330
18
100
AcDbEntity
  8
0
100
AcDbCircle
 10
3.453
 20
2.365
 30
0.0
 40
0.025
100
AcDbArc
 50
319.144
 51
336.175
  0
ARC
  5
179
330
18
100
AcDbEntity
  8
0
100
AcDbCircle
 10
3.442
 20
2.37
 30
0.0
 40
0.036
100
AcDbArc
 50
336.175
 51
350.16
  0
ARC
  5
17A
330
18
100
AcDbEntity
  8
0
100
AcDbCircle
 10
3.442
 20
2.37
 30
0.0
 40
0.036
100
AcDbArc
 50
350.16
 51
4.144
  0
ARC
  5
17B
330
18
100
AcDbEntity
  8
0
100
AcDbCircle
 10
3.454
 20
2.37
 30
0.0
 40
0.025
100
AcDbArc
 50
4.144
 51
34.043
  0
ARC
  5
17C
330
18
100
AcDbEntity
  8
0
100
AcDbCircle
 10
3.784
 20
2.21
 30
0.0
 40
0.016
100
AcDbArc
 50
314.992
 51
319.144
  0
ARC
  5
17D
330
18
100
AcDbEntity
  8
0
100
AcDbCircle
 10
3.778
 20
2.215
 30
0.0
 40
0.025
100
AcDbArc
 50
319.144
 51
336.175
  0
ARC
  5
17E
330
18
100
AcDbEntity
  8
0
100
AcDbCircle
 10
3.767
 20
2.22
 30
0.0
 40
0.036
100
AcDbArc
 50
336.175
 51
350.16
  0
ARC
  5
17F
330
18
100
AcDbEntity
  8
0
100
AcDbCircle
 10
3.767
 20
2.22
 30
0.0
 40
0.036
100
AcDbArc
 50
350.16
 51
4.144
  0
ARC
  5
180
330
18
100
AcDbEntity
  8
0
100
AcDbCircle
 10
3.779
 20
2.221
 30
0.0
 40
0.025
100
AcDbArc
 50
4.144
 51
34.043
  0
ARC
  5
181
330
18
100
AcDbEntity
  8
0
100
AcDbCircle
 10
3.807
 20
2.23
 30
0.0
 40
0.008
100
AcDbArc
 50
80.16
 51
114.724
  0
ARC
  5
182
330
18
100
AcDbEntity
  8
0
100
AcDbCircle
 10
3.81
 20
2.223
 30
0.0
 40
0.016
100
AcDbArc
 50
114.724
 51
139.144
  0
ARC
  5
183
330
18
100
AcDbEntity
  8
0
100
AcDbCircle
 10
3.817
 20
2.217
 30
0.0
 40
0.025
100
AcDbArc
 50
139.144
 51
156.175
  0
ARC
  5
184
330
18
100
AcDbEntity
  8
0
100
AcDbCircle
 10
3.828
 20
2.213
 30
0.0
 40
0.036
100
AcDbArc
 50
156.175
 51
170.16
  0
ARC
  5
185
330
18
100
AcDbEntity
  8
0
100
AcDbCircle
 10
3.828
 20
2.213
 30
0.0
 40
0.036
100
AcDbArc
 50
170.16
 51
184.144
  0
ARC
  5
186
330
18
100
AcDbEntity
  8
0
100
AcDbCircle
 10
3.816
 20
2.212
 30
0.0
 40
0.025
100
AcDbArc
 50
184.144
 51
201.176
  0
ARC
  5
187
330
18
100
AcDbEntity
  8
0
100
AcDbCircle
 10
3.808
 20
2.209
 30
0.0
 40
0.016
100
AcDbArc
 50
201.176
 51
225.595
  0
ARC
  5
188
330
18
100
AcDbEntity
  8
0
100
AcDbCircle
 10
3.802
 20
2.203
 30
0.0
 40
0.008
100
AcDbArc
 50
225.595
 51
260.16
  0
ARC
  5
189
330
18
100
AcDbEntity
  8
0
100
AcDbCircle
 10
3.802
 20
2.203
 30
0.0
 40
0.008
100
AcDbArc
 50
260.16
 51
294.724
  0
ARC
  5
18A
330
18
100
AcDbEntity
  8
0
100
AcDbCircle
 10
3.799
 20
2.21
 30
0.0
 40
0.016
100
AcDbArc
 50
294.724
 51
319.144
  0
ARC
  5
18B
330
18
100
AcDbEntity
  8
0
100
AcDbCircle
 10
3.793
 20
2.216
 30
0.0
 40
0.025
100
AcDbArc
 50
319.144
 51
336.175
  0
ARC
  5
18C
330
18
100
AcDbEntity
  8
0
100
AcDbCircle
 10
3.782
 20
2.221
 30
0.0
 40
0.036
100
AcDbArc
 50
336.175
 51
350.16
  0
ARC
  5
18D
330
18
100
AcDbEntity
  8
0
100
AcDbCircle
 10
3.782
 20
2.221
 30
0.0
 40
0.036
100
AcDbArc
 50
350.16
 51
4.144
  0
ARC
  5
18E
330
18
100
AcDbEntity
  8
0
100
AcDbCircle
 10
3.794
 20
2.222
 30
0.0
 40
0.025
100
AcDbArc
 50
4.144
 51
21.176
  0
ARC
  5
18F
330
18
100
AcDbEntity
  8
0
100
AcDbCircle
 10
3.802
 20
2.225
 30
0.0
 40
0.016
100
AcDbArc
 50
21.176
 51
45.595
  0
ARC
  5
190
330
18
100
AcDbEntity
  8
0
100
AcDbCircle
 10
3.807
 20
2.23
 30
0.0
 40
0.008
100
AcDbArc
 50
45.595
 51
80.16
  0
ARC
  5
191
330
18
100
AcDbEntity
  8
0
100
AcDbCircle
 10
3.621
 20
2.06
 30
0.0
 40
0.036
100
AcDbArc
 50
301.399
 51
303.146
  0
ARC
  5
192
330
18
100
AcDbEntity
  8
0
100
AcDbCircle
 10
3.611
 20
2.076
 30
0.0
 40
0.055
100
AcDbArc
 50
303.146
 51
327.505
  0
ARC
  5
193
330
18
100
AcDbEntity
  8
0
100
AcDbCircle
 10
3.595
 20
2.085
 30
0.0
 40
0.073
100
AcDbArc
 50
327.505
 51
346.528
  0
ARC
  5
194
330
18
100
AcDbEntity
  8
0
100
AcDbCircle
 10
3.572
 20
2.091
 30
0.0
 40
0.098
100
AcDbArc
 50
346.528
 51
2.965
  0
ARC
  5
195
330
18
100
AcDbEntity
  8
0
100
AcDbCircle
 10
3.572
 20
2.091
 30
0.0
 40
0.098
100
AcDbArc
 50
2.965
 51
19.403
  0
ARC
  5
196
330
18
100
AcDbEntity
  8
0
100
AcDbCircle
 10
3.595
 20
2.099
 30
0.0
 40
0.073
100
AcDbArc
 50
19.403
 51
38.426
  0
ARC
  5
197
330
18
100
AcDbEntity
  8
0
100
AcDbCircle
 10
3.609
 20
2.111
 30
0.0
 40
0.055
100
AcDbArc
 50
38.426
 51
62.785
  0
ARC
  5
198
330
18
100
AcDbEntity
  8
0
100
AcDbCircle
 10
3.618
 20
2.127
 30
0.0
 40
0.036
100
AcDbArc
 50
62.785
 51
76.747
  0
ARC
  5
199
330
18
100
AcDbEntity
  8
0
100
AcDbCircle
 10
3.645
 20
2.132
 30
0.0
 40
0.036
100
AcDbArc
 50
92.96499999999999
 51
123.146
  0
ARC
  5
19A
330
18
100
AcDbEntity
  8
0
100
AcDbCircle
 10
3.655
 20
2.116
 30
0.0
 40
0.055
100
AcDbArc
 50
123.146
 51
147.505
  0
ARC
  5
19B
330
18
100
AcDbEntity
  8
0
100
AcDbCircle
 10
3.67
 20
2.106
 30
0.0
 40
0.073
100
AcDbArc
 50
147.505
 51
166.528
  0
ARC
  5
19C
330
18
100
AcDbEntity
  8
0
100
AcDbCircle
 10
3.694
 20
2.1
 30
0.0
 40
0.098
100
AcDbArc
 50
166.528
 51
182.965
  0
ARC
  5
19D
330
18
100
AcDbEntity
  8
0
100
AcDbCircle
 10
3.694
 20
2.1
 30
0.0
 40
0.098
100
AcDbArc
 50
182.965
 51
199.403
  0
ARC
  5
19E
330
18
100
AcDbEntity
  8
0
100
AcDbCircle
 10
3.671
 20
2.092
 30
0.0
 40
0.073
100
AcDbArc
 50
199.403
 51
218.426
  0
ARC
  5
19F
330
18
100
AcDbEntity
  8
0
100
AcDbCircle
 10
3.657
 20
2.081
 30
0.0
 40
0.055
100
AcDbArc
 50
218.426
 51
242.785
  0
ARC
  5
1A0
330
18
100
AcDbEntity
  8
0
100
AcDbCircle
 10
3.648
 20
2.064
 30
0.0
 40
0.036
100
AcDbArc
 50
242.785
 51
272.965
  0
ARC
  5
1A1
330
18
100
AcDbEntity
  8
0
100
AcDbCircle
 10
3.648
 20
2.064
 30
0.0
 40
0.036
100
AcDbArc
 50
272.965
 51
303.146
  0
ARC
  5
1A2
330
18
100
AcDbEntity
  8
0
100
AcDbCircle
 10
3.638
 20
2.08
 30
0.0
 40
0.055
100
AcDbArc
 50
303.146
 51
327.505
  0
ARC
  5
1A3
330
18
100
AcDbEntity
  8
0
100
AcDbCircle
 10
3.622
 20
2.09
 30
0.0
 40
0.073
100
AcDbArc
 50
327.505
 51
346.528
  0
ARC
  5
1A4
330
18
100
AcDbEntity
  8
0
100
AcDbCircle
 10
3.599
 20
2.095
 30
0.0
 40
0.098
100
AcDbArc
 50
346.528
 51
2.965
  0
ARC
  5
1A5
330
18
100
AcDbEntity
  8
0
100
AcDbCircle
 10
3.599
 20
2.095
 30
0.0
 40
0.098
100
AcDbArc
 50
2.965
 51
19.403
  0
ARC
  5
1A6
330
18
100
AcDbEntity
  8
0
100
AcDbCircle
 10
3.622
 20
2.104
 30
0.0
 40
0.073
100
AcDbArc
 50
19.403
 51
38.426
  0
ARC
  5
1A7
330
18
100
AcDbEntity
  8
0
100
AcDbCircle
 10
3.636
 20
2.115
 30
0.0
 40
0.055
100
AcDbArc
 50
38.426
 51
62.785
  0
ARC
  5
1A8
330
18
100
AcDbEntity
  8
0
100
AcDbCircle
 10
3.645
 20
2.132
 30
0.0
 40
0.036
100
AcDbArc
 50
62.785
 51
92.96499999999999
  0
ARC
  5
1A9
330
18
100
AcDbEntity
  8
0
100
AcDbCircle
 10
1.991
 20
2.7
 30
0.0
 40
0.011
100
AcDbArc
 50
79.64100000000001
 51
110.327
  0
ARC
  5
1AA
330
18
100
AcDbEntity
  8
0
100
AcDbCircle
 10
1.993
 20
2.694
 30
0.0
 40
0.017
100
AcDbArc
 50
110.327
 51
134.726
  0
ARC
  5
1AB
330
18
100
AcDbEntity
  8
0
100
AcDbCircle
 10
1.997
 20
2.69
 30
0.0
 40
0.023
100
AcDbArc
 50
134.726
 51
153.515
  0
ARC
  5
1AC
330
18
100
AcDbEntity
  8
0
100
AcDbCircle
 10
2.005
 20
2.686
 30
0.0
 40
0.031
100
AcDbArc
 50
153.515
 51
169.641
  0
ARC
  5
1AD
330
18
100
AcDbEntity
  8
0
100
AcDbCircle
 10
2.005
 20
2.686
 30
0.0
 40
0.031
100
AcDbArc
 50
169.641
 51
185.767
  0
ARC
  5
1AE
330
18
100
AcDbEntity
  8
0
100
AcDbCircle
 10
1.997
 20
2.685
 30
0.0
 40
0.023
100
AcDbArc
 50
185.767
 51
204.556
  0
ARC
  5
1AF
330
18
100
AcDbEntity
  8
0
100
AcDbCircle
 10
1.991
 20
2.683
 30
0.0
 40
0.017
100
AcDbArc
 50
204.556
 51
228.955
  0
ARC
  5
1B0
330
18
100
AcDbEntity
  8
0
100
AcDbCircle
 10
1.987
 20
2.678
 30
0.0
 40
0.011
100
AcDbArc
 50
228.955
 51
259.641
  0
ARC
  5
1B1
330
18
100
AcDbEntity
  8
0
100
AcDbCircle
 10
1.987
 20
2.678
 30
0.0
 40
0.011
100
AcDbArc
 50
259.641
 51
290.327
  0
ARC
  5
1B2
330
18
100
AcDbEntity
  8
0
100
AcDbCircle
 10
1.985
 20
2.684
 30
0.0
 40
0.017
100
AcDbArc
 50
290.327
 51
314.726
  0
ARC
  5
1B3
330
18
100
AcDbEntity
  8
0
100
AcDbCircle
 10
1.981
 20
2.688
 30
0.0
 40
0.023
100
AcDbArc
 50
314.726
 51
333.515
  0
ARC
  5
1B4
330
18
100
AcDbEntity
  8
0
100
AcDbCircle
 10
1.974
 20
2.692
 30
0.0
 40
0.031
100
AcDbArc
 50
333.515
 51
349.641
  0
ARC
  5
1B5
330
18
100
AcDbEntity
  8
0
100
AcDbCircle
 10
1.974
 20
2.692
 30
0.0
 40
0.031
100
AcDbArc
 50
349.641
 51
5.767000000000001
  0
ARC
  5
1B6
330
18
100
AcDbEntity
  8
0
100
AcDbCircle
 10
1.982
 20
2.693
 30
0.0
 40
0.023
100
AcDbArc
 50
5.767000000000001
 51
24.55599999999999
  0
ARC
  5
1B7
330
18
100
AcDbEntity
  8
0
100
AcDbCircle
 10
1.987
 20
2.695
 30
0.0
 40
0.017
100
AcDbArc
 50
24.55599999999999
 51
48.95499999999999
  0
ARC
  5
1B8
330
18
100
AcDbEntity
  8
0
100
AcDbCircle
 10
1.991
 20
2.7
 30
0.0
 40
0.011
100
AcDbArc
 50
48.95499999999999
 51
79.64100000000001
  0
ARC
  5
1B9
330
18
100
AcDbEntity
  8
0
100
AcDbCircle
 10
2.008
 20
2.687
 30
0.0
 40
0.017
100
AcDbArc
 50
112.099
 51
134.726
  0
ARC
  5
1BA
330
18
100
AcDbEntity
  8
0
100
AcDbCircle
 10
2.012
 20
2.683
 30
0.0
 40
0.023
100
AcDbArc
 50
134.726
 51
153.515
  0
ARC
  5
1BB
330
18
100
AcDbEntity
  8
0
100
AcDbCircle
 10
2.02
 20
2.68
 30
0.0
 40
0.031
100
AcDbArc
 50
153.515
 51
169.641
  0
ARC
  5
1BC
330
18
100
AcDbEntity
  8
0
100
AcDbCircle
 10
2.02
 20
2.68
 30
0.0
 40
0.031
100
AcDbArc
 50
169.641
 51
185.767
  0
ARC
  5
1BD
330
18
100
AcDbEntity
  8
0
100
AcDbCircle
 10
2.012
 20
2.679
 30
0.0
 40
0.023
100
AcDbArc
 50
185.767
 51
204.556
  0
ARC
  5
1BE
330
18
100
AcDbEntity
  8
0
100
AcDbCircle
 10
2.006
 20
2.676
 30
0.0
 40
0.017
100
AcDbArc
 50
204.556
 51
208.324
  0
ARC
  5
1BF
330
18
100
AcDbEntity
  8
0
100
AcDbCircle
 10
2.343
 20
2.569
 30
0.0
 40
0.011
100
AcDbArc
 50
79.64100000000001
 51
110.327
  0
ARC
  5
1C0
330
18
100
AcDbEntity
  8
0
100
AcDbCircle
 10
2.345
 20
2.564
 30
0.0
 40
0.017
100
AcDbArc
 50
110.327
 51
134.726
  0
ARC
  5
1C1
330
18
100
AcDbEntity
  8
0
100
AcDbCircle
 10
2.349
 20
2.559
 30
0.0
 40
0.023
100
AcDbArc
 50
134.726
 51
153.515
  0
ARC
  5
1C2
330
18
100
AcDbEntity
  8
0
100
AcDbCircle
 10
2.356
 20
2.556
 30
0.0
 40
0.031
100
AcDbArc
 50
153.515
 51
169.641
  0
ARC
  5
1C3
330
18
100
AcDbEntity
  8
0
100
AcDbCircle
 10
2.356
 20
2.556
 30
0.0
 40
0.031
100
AcDbArc
 50
169.641
 51
185.767
  0
ARC
  5
1C4
330
18
100
AcDbEntity
  8
0
100
AcDbCircle
 10
2.348
 20
2.555
 30
0.0
 40
0.023
100
AcDbArc
 50
185.767
 51
204.556
  0
ARC
  5
1C5
330
18
100
AcDbEntity
  8
0
100
AcDbCircle
 10
2.343
 20
2.552
 30
0.0
 40
0.017
100
AcDbArc
 50
204.556
 51
228.955
  0
ARC
  5
1C6
330
18
100
AcDbEntity
  8
0
100
AcDbCircle
 10
2.339
 20
2.548
 30
0.0
 40
0.011
100
AcDbArc
 50
228.955
 51
259.641
  0
ARC
  5
1C7
330
18
100
AcDbEntity
  8
0
100
AcDbCircle
 10
2.339
 20
2.548
 30
0.0
 40
0.011
100
AcDbArc
 50
259.641
 51
290.327
  0
ARC
  5
1C8
330
18
100
AcDbEntity
  8
0
100
AcDbCircle
 10
2.337
 20
2.554
 30
0.0
 40
0.017
100
AcDbArc
 50
290.327
 51
314.726
  0
ARC
  5
1C9
330
18
100
AcDbEntity
  8
0
100
AcDbCircle
 10
2.332
 20
2.558
 30
0.0
 40
0.023
100
AcDbArc
 50
314.726
 51
333.515
  0
ARC
  5
1CA
330
18
100
AcDbEntity
  8
0
100
AcDbCircle
 10
2.325
 20
2.561
 30
0.0
 40
0.031
100
AcDbArc
 50
333.515
 51
349.641
  0
ARC
  5
1CB
330
18
100
AcDbEntity
  8
0
100
AcDbCircle
 10
2.325
 20
2.561
 30
0.0
 40
0.031
100
AcDbArc
 50
349.641
 51
5.767000000000001
  0
ARC
  5
1CC
330
18
100
AcDbEntity
  8
0
100
AcDbCircle
 10
2.333
 20
2.562
 30
0.0
 40
0.023
100
AcDbArc
 50
5.767000000000001
 51
24.55599999999999
  0
ARC
  5
1CD
330
18
100
AcDbEntity
  8
0
100
AcDbCircle
 10
2.339
 20
2.565
 30
0.0
 40
0.017
100
AcDbArc
 50
24.55599999999999
 51
48.95499999999999
  0
ARC
  5
1CE
330
18
100
AcDbEntity
  8
0
100
AcDbCircle
 10
2.343
 20
2.569
 30
0.0
 40
0.011
100
AcDbArc
 50
48.95499999999999
 51
79.64100000000001
  0
ARC
  5
1CF
330
18
100
AcDbEntity
  8
0
100
AcDbCircle
 10
2.36
 20
2.557
 30
0.0
 40
0.017
100
AcDbArc
 50
112.099
 51
134.726
  0
ARC
  5
1D0
330
18
100
AcDbEntity
  8
0
100
AcDbCircle
 10
2.364
 20
2.553
 30
0.0
 40
0.023
100
AcDbArc
 50
134.726
 51
153.515
  0
ARC
  5
1D1
330
18
100
AcDbEntity
  8
0
100
AcDbCircle
 10
2.371
 20
2.549
 30
0.0
 40
0.031
100
AcDbArc
 50
153.515
 51
169.641
  0
ARC
  5
1D2
330
18
100
AcDbEntity
  8
0
100
AcDbCircle
 10
2.371
 20
2.549
 30
0.0
 40
0.031
100
AcDbArc
 50
169.641
 51
185.767
  0
ARC
  5
1D3
330
18
100
AcDbEntity
  8
0
100
AcDbCircle
 10
2.363
 20
2.548
 30
0.0
 40
0.023
100
AcDbArc
 50
185.767
 51
204.556
  0
ARC
  5
1D4
330
18
100
AcDbEntity
  8
0
100
AcDbCircle
 10
2.358
 20
2.546
 30
0.0
 40
0.017
100
AcDbArc
 50
204.556
 51
208.324
  0
ARC
  5
1D5
330
18
100
AcDbEntity
  8
0
100
AcDbCircle
 10
2.576
 20
2.923
 30
0.0
 40
0.011
100
AcDbArc
 50
79.64100000000001
 51
110.327
  0
ARC
  5
1D6
330
18
100
AcDbEntity
  8
0
100
AcDbCircle
 10
2.578
 20
2.918
 30
0.0
 40
0.017
100
AcDbArc
 50
110.327
 51
134.726
  0
ARC
  5
1D7
330
18
100
AcDbEntity
  8
0
100
AcDbCircle
 10
2.582
 20
2.914
 30
0.0
 40
0.023
100
AcDbArc
 50
134.726
 51
153.515
  0
ARC
  5
1D8
330
18
100
AcDbEntity
  8
0
100
AcDbCircle
 10
2.589
 20
2.91
 30
0.0
 40
0.031
100
AcDbArc
 50
153.515
 51
169.641
  0
ARC
  5
1D9
330
18
100
AcDbEntity
  8
0
100
AcDbCircle
 10
2.589
 20
2.91
 30
0.0
 40
0.031
100
AcDbArc
 50
169.641
 51
185.767
  0
ARC
  5
1DA
330
18
100
AcDbEntity
  8
0
100
AcDbCircle
 10
2.581
 20
2.909
 30
0.0
 40
0.023
100
AcDbArc
 50
185.767
 51
204.556
  0
ARC
  5
1DB
330
18
100
AcDbEntity
  8
0
100
AcDbCircle
 10
2.576
 20
2.907
 30
0.0
 40
0.017
100
AcDbArc
 50
204.556
 51
228.955
  0
ARC
  5
1DC
330
18
100
AcDbEntity
  8
0
100
AcDbCircle
 10
2.572
 20
2.902
 30
0.0
 40
0.011
100
AcDbArc
 50
228.955
 51
259.641
  0
ARC
  5
1DD
330
18
100
AcDbEntity
  8
0
100
AcDbCircle
 10
2.572
 20
2.902
 30
0.0
 40
0.011
100
AcDbArc
 50
259.641
 51
290.327
  0
ARC
  5
1DE
330
18
100
AcDbEntity
  8
0
100
AcDbCircle
 10
2.57
 20
2.908
 30
0.0
 40
0.017
100
AcDbArc
 50
290.327
 51
314.726
  0
ARC
  5
1DF
330
18
100
AcDbEntity
  8
0
100
AcDbCircle
 10
2.566
 20
2.912
 30
0.0
 40
0.023
100
AcDbArc
 50
314.726
 51
333.515
  0
ARC
  5
1E0
330
18
100
AcDbEntity
  8
0
100
AcDbCircle
 10
2.559
 20
2.916
 30
0.0
 40
0.031
100
AcDbArc
 50
333.515
 51
349.641
  0
ARC
  5
1E1
330
18
100
AcDbEntity
  8
0
100
AcDbCircle
 10
2.559
 20
2.916
 30
0.0
 40
0.031
100
AcDbArc
 50
349.641
 51
5.767000000000001
  0
ARC
  5
1E2
330
18
100
AcDbEntity
  8
0
100
AcDbCircle
 10
2.566
 20
2.916
 30
0.0
 40
0.023
100
AcDbArc
 50
5.767000000000001
 51
24.55599999999999
  0
ARC
  5
1E3
330
18
100
AcDbEntity
  8
0
100
AcDbCircle
 10
2.572
 20
2.919
 30
0.0
 40
0.017
100
AcDbArc
 50
24.55599999999999
 51
48.95499999999999
  0
ARC
  5
1E4
330
18
100
AcDbEntity
  8
0
100
AcDbCircle
 10
2.576
 20
2.923
 30
0.0
 40
0.011
100
AcDbArc
 50
48.95499999999999
 51
79.64100000000001
  0
ARC
  5
1E5
330
18
100
AcDbEntity
  8
0
100
AcDbCircle
 10
2.593
 20
2.911
 30
0.0
 40
0.017
100
AcDbArc
 50
112.099
 51
134.726
  0
ARC
  5
1E6
330
18
100
AcDbEntity
  8
0
100
AcDbCircle
 10
2.597
 20
2.907
 30
0.0
 40
0.023
100
AcDbArc
 50
134.726
 51
153.515
  0
ARC
  5
1E7
330
18
100
AcDbEntity
  8
0
100
AcDbCircle
 10
2.604
 20
2.904
 30
0.0
 40
0.031
100
AcDbArc
 50
153.515
 51
169.641
  0
ARC
  5
1E8
330
18
100
AcDbEntity
  8
0
100
AcDbCircle
 10
2.604
 20
2.904
 30
0.0
 40
0.031
100
AcDbArc
 50
169.641
 51
185.767
  0
ARC
  5
1E9
330
18
100
AcDbEntity
  8
0
100
AcDbCircle
 10
2.596
 20
2.903
 30
0.0
 40
0.023
100
AcDbArc
 50
185.767
 51
204.556
  0
ARC
  5
1EA
330
18
100
AcDbEntity
  8
0
100
AcDbCircle
 10
2.591
 20
2.9
 30
0.0
 40
0.017
100
AcDbArc
 50
204.556
 51
208.324
  0
ARC
  5
1EB
330
18
100
AcDbEntity
  8
0
100
AcDbCircle
 10
3.063
 20
3.114
 30
0.0
 40
0.011
100
AcDbArc
 50
79.64100000000001
 51
110.327
  0
ARC
  5
1EC
330
18
100
AcDbEntity
  8
0
100
AcDbCircle
 10
3.065
 20
3.108
 30
0.0
 40
0.017
100
AcDbArc
 50
110.327
 51
134.726
  0
ARC
  5
1ED
330
18
100
AcDbEntity
  8
0
100
AcDbCircle
 10
3.069
 20
3.104
 30
0.0
 40
0.023
100
AcDbArc
 50
134.726
 51
153.515
  0
ARC
  5
1EE
330
18
100
AcDbEntity
  8
0
100
AcDbCircle
 10
3.076
 20
3.1
 30
0.0
 40
0.031
100
AcDbArc
 50
153.515
 51
169.641
  0
ARC
  5
1EF
330
18
100
AcDbEntity
  8
0
100
AcDbCircle
 10
3.076
 20
3.1
 30
0.0
 40
0.031
100
AcDbArc
 50
169.641
 51
185.767
  0
ARC
  5
1F0
330
18
100
AcDbEntity
  8
0
100
AcDbCircle
 10
3.068
 20
3.1
 30
0.0
 40
0.023
100
AcDbArc
 50
185.767
 51
204.556
  0
ARC
  5
1F1
330
18
100
AcDbEntity
  8
0
100
AcDbCircle
 10
3.063
 20
3.097
 30
0.0
 40
0.017
100
AcDbArc
 50
204.556
 51
228.955
  0
ARC
  5
1F2
330
18
100
AcDbEntity
  8
0
100
AcDbCircle
 10
3.059
 20
3.092
 30
0.0
 40
0.011
100
AcDbArc
 50
228.955
 51
259.641
  0
ARC
  5
1F3
330
18
100
AcDbEntity
  8
0
100
AcDbCircle
 10
3.059
 20
3.092
 30
0.0
 40
0.011
100
AcDbArc
 50
259.641
 51
290.327
  0
ARC
  5
1F4
330
18
100
AcDbEntity
  8
0
100
AcDbCircle
 10
3.057
 20
3.098
 30
0.0
 40
0.017
100
AcDbArc
 50
290.327
 51
314.726
  0
ARC
  5
1F5
330
18
100
AcDbEntity
  8
0
100
AcDbCircle
 10
3.053
 20
3.102
 30
0.0
 40
0.023
100
AcDbArc
 50
314.726
 51
333.515
  0
ARC
  5
1F6
330
18
100
AcDbEntity
  8
0
100
AcDbCircle
 10
3.045
 20
3.106
 30
0.0
 40
0.031
100
AcDbArc
 50
333.515
 51
349.641
  0
ARC
  5
1F7
330
18
100
AcDbEntity
  8
0
100
AcDbCircle
 10
3.045
 20
3.106
 30
0.0
 40
0.031
100
AcDbArc
 50
349.641
 51
5.767000000000001
  0
ARC
  5
1F8
330
18
100
AcDbEntity
  8
0
100
AcDbCircle
 10
3.053
 20
3.107
 30
0.0
 40
0.023
100
AcDbArc
 50
5.767000000000001
 51
24.55599999999999
  0
ARC
  5
1F9
330
18
100
AcDbEntity
  8
0
100
AcDbCircle
 10
3.059
 20
3.109
 30
0.0
 40
0.017
100
AcDbArc
 50
24.55599999999999
 51
48.95499999999999
  0
ARC
  5
1FA
330
18
100
AcDbEntity
  8
0
100
AcDbCircle
 10
3.063
 20
3.114
 30
0.0
 40
0.011
100
AcDbArc
 50
48.95499999999999
 51
79.64100000000001
  0
ARC
  5
1FB
330
18
100
AcDbEntity
  8
0
100
AcDbCircle
 10
3.08
 20
3.102
 30
0.0
 40
0.017
100
AcDbArc
 50
112.099
 51
134.726
  0
ARC
  5
1FC
330
18
100
AcDbEntity
  8
0
100
AcDbCircle
 10
3.084
 20
3.097
 30
0.0
 40
0.023
100
AcDbArc
 50
134.726
 51
153.515
  0
ARC
  5
1FD
330
18
100
AcDbEntity
  8
0
100
AcDbCircle
 10
3.091
 20
3.094
 30
0.0
 40
0.031
100
AcDbArc
 50
153.515
 51
169.641
  0
ARC
  5
1FE
330
18
100
AcDbEntity
  8
0
100
AcDbCircle
 10
3.091
 20
3.094
 30
0.0
 40
0.031
100
AcDbArc
 50
169.641
 51
185.767
  0
ARC
  5
1FF
330
18
100
AcDbEntity
  8
0
100
AcDbCircle
 10
3.083
 20
3.093
 30
0.0
 40
0.023
100
AcDbArc
 50
185.767
 51
204.556
  0
ARC
  5
200
330
18
100
AcDbEntity
  8
0
100
AcDbCircle
 10
3.078
 20
3.091
 30
0.0
 40
0.017
100
AcDbArc
 50
204.556
 51
208.324
  0
ARC
  5
201
330
18
100
AcDbEntity
  8
0
100
AcDbCircle
 10
3.342
 20
2.931
 30
0.0
 40
0.011
100
AcDbArc
 50
79.64100000000001
 51
110.327
  0
ARC
  5
202
330
18
100
AcDbEntity
  8
0
100
AcDbCircle
 10
3.345
 20
2.926
 30
0.0
 40
0.017
100
AcDbArc
 50
110.327
 51
134.726
  0
ARC
  5
203
330
18
100
AcDbEntity
  8
0
100
AcDbCircle
 10
3.349
 20
2.921
 30
0.0
 40
0.023
100
AcDbArc
 50
134.726
 51
153.515
  0
ARC
  5
204
330
18
100
AcDbEntity
  8
0
100
AcDbCircle
 10
3.356
 20
2.918
 30
0.0
 40
0.031
100
AcDbArc
 50
153.515
 51
169.641
  0
ARC
  5
205
330
18
100
AcDbEntity
  8
0
100
AcDbCircle
 10
3.356
 20
2.918
 30
0.0
 40
0.031
100
AcDbArc
 50
169.641
 51
185.767
  0
ARC
  5
206
330
18
100
AcDbEntity
  8
0
100
AcDbCircle
 10
3.348
 20
2.917
 30
0.0
 40
0.023
100
AcDbArc
 50
185.767
 51
204.556
  0
ARC
  5
207
330
18
100
AcDbEntity
  8
0
100
AcDbCircle
 10
3.343
 20
2.914
 30
0.0
 40
0.017
100
AcDbArc
 50
204.556
 51
228.955
  0
ARC
  5
208
330
18
100
AcDbEntity
  8
0
100
AcDbCircle
 10
3.339
 20
2.91
 30
0.0
 40
0.011
100
AcDbArc
 50
228.955
 51
259.641
  0
ARC
  5
209
330
18
100
AcDbEntity
  8
0
100
AcDbCircle
 10
3.339
 20
2.91
 30
0.0
 40
0.011
100
AcDbArc
 50
259.641
 51
290.327
  0
ARC
  5
20A
330
18
100
AcDbEntity
  8
0
100
AcDbCircle
 10
3.336
 20
2.916
 30
0.0
 40
0.017
100
AcDbArc
 50
290.327
 51
314.726
  0
ARC
  5
20B
330
18
100
AcDbEntity
  8
0
100
AcDbCircle
 10
3.332
 20
2.92
 30
0.0
 40
0.023
100
AcDbArc
 50
314.726
 51
333.515
  0
ARC
  5
20C
330
18
100
AcDbEntity
  8
0
100
AcDbCircle
 10
3.325
 20
2.923
 30
0.0
 40
0.031
100
AcDbArc
 50
333.515
 51
349.641
  0
ARC
  5
20D
330
18
100
AcDbEntity
  8
0
100
AcDbCircle
 10
3.325
 20
2.923
 30
0.0
 40
0.031
100
AcDbArc
 50
349.641
 51
5.767000000000001
  0
ARC
  5
20E
330
18
100
AcDbEntity
  8
0
100
AcDbCircle
 10
3.333
 20
2.924
 30
0.0
 40
0.023
100
AcDbArc
 50
5.767000000000001
 51
24.55599999999999
  0
ARC
  5
20F
330
18
100
AcDbEntity
  8
0
100
AcDbCircle
 10
3.339
 20
2.927
 30
0.0
 40
0.017
100
AcDbArc
 50
24.55599999999999
 51
48.95499999999999
  0
ARC
  5
210
330
18
100
AcDbEntity
  8
0
100
AcDbCircle
 10
3.342
 20
2.931
 30
0.0
 40
0.011
100
AcDbArc
 50
48.95499999999999
 51
79.64100000000001
  0
ARC
  5
211
330
18
100
AcDbEntity
  8
0
100
AcDbCircle
 10
3.36
 20
2.919
 30
0.0
 40
0.017
100
AcDbArc
 50
112.099
 51
134.726
  0
ARC
  5
212
330
18
100
AcDbEntity
  8
0
100
AcDbCircle
 10
3.364
 20
2.915
 30
0.0
 40
0.023
100
AcDbArc
 50
134.726
 51
153.515
  0
ARC
  5
213
330
18
100
AcDbEntity
  8
0
100
AcDbCircle
 10
3.371
 20
2.911
 30
0.0
 40
0.031
100
AcDbArc
 50
153.515
 51
169.641
  0
ARC
  5
214
330
18
100
AcDbEntity
  8
0
100
AcDbCircle
 10
3.371
 20
2.911
 30
0.0
 40
0.031
100
AcDbArc
 50
169.641
 51
185.767
  0
ARC
  5
215
330
18
100
AcDbEntity
  8
0
100
AcDbCircle
 10
3.363
 20
2.91
 30
0.0
 40
0.023
100
AcDbArc
 50
185.767
 51
204.556
  0
ARC
  5
216
330
18
100
AcDbEntity
  8
0
100
AcDbCircle
 10
3.357
 20
2.908
 30
0.0
 40
0.017
100
AcDbArc
 50
204.556
 51
208.324
  0
ARC
  5
217
330
18
100
AcDbEntity
  8
0
100
AcDbCircle
 10
3.686
 20
3.328
 30
0.0
 40
0.017
100
AcDbArc
 50
112.099
 51
134.726
  0
ARC
  5
218
330
18
100
AcDbEntity
  8
0
100
AcDbCircle
 10
3.69
 20
3.324
 30
0.0
 40
0.023
100
AcDbArc
 50
134.726
 51
153.515
  0
ARC
  5
219
330
18
100
AcDbEntity
  8
0
100
AcDbCircle
 10
3.697
 20
3.32
 30
0.0
 40
0.031
100
AcDbArc
 50
153.515
 51
169.641
  0
ARC
  5
21A
330
18
100
AcDbEntity
  8
0
100
AcDbCircle
 10
3.697
 20
3.32
 30
0.0
 40
0.031
100
AcDbArc
 50
169.641
 51
185.767
  0
ARC
  5
21B
330
18
100
AcDbEntity
  8
0
100
AcDbCircle
 10
3.689
 20
3.32
 30
0.0
 40
0.023
100
AcDbArc
 50
185.767
 51
204.556
  0
ARC
  5
21C
330
18
100
AcDbEntity
  8
0
100
AcDbCircle
 10
3.684
 20
3.317
 30
0.0
 40
0.017
100
AcDbArc
 50
204.556
 51
208.324
  0
ARC
  5
21D
330
18
100
AcDbEntity
  8
0
100
AcDbCircle
 10
3.669
 20
3.34
 30
0.0
 40
0.011
100
AcDbArc
 50
79.64100000000001
 51
110.327
  0
ARC
  5
21E
330
18
100
AcDbEntity
  8
0
100
AcDbCircle
 10
3.671
 20
3.335
 30
0.0
 40
0.017
100
AcDbArc
 50
110.327
 51
134.726
  0
ARC
  5
21F
330
18
100
AcDbEntity
  8
0
100
AcDbCircle
 10
3.675
 20
3.33
 30
0.0
 40
0.023
100
AcDbArc
 50
134.726
 51
153.515
  0
ARC
  5
220
330
18
100
AcDbEntity
  8
0
100
AcDbCircle
 10
3.682
 20
3.327
 30
0.0
 40
0.031
100
AcDbArc
 50
153.515
 51
169.641
  0
ARC
  5
221
330
18
100
AcDbEntity
  8
0
100
AcDbCircle
 10
3.682
 20
3.327
 30
0.0
 40
0.031
100
AcDbArc
 50
169.641
 51
185.767
  0
ARC
  5
222
330
18
100
AcDbEntity
  8
0
100
AcDbCircle
 10
3.674
 20
3.326
 30
0.0
 40
0.023
100
AcDbArc
 50
185.767
 51
204.556
  0
ARC
  5
223
330
18
100
AcDbEntity
  8
0
100
AcDbCircle
 10
3.669
 20
3.323
 30
0.0
 40
0.017
100
AcDbArc
 50
204.556
 51
228.955
  0
ARC
  5
224
330
18
100
AcDbEntity
  8
0
100
AcDbCircle
 10
3.665
 20
3.319
 30
0.0
 40
0.011
100
AcDbArc
 50
228.955
 51
259.641
  0
ARC
  5
225
330
18
100
AcDbEntity
  8
0
100
AcDbCircle
 10
3.665
 20
3.319
 30
0.0
 40
0.011
100
AcDbArc
 50
259.641
 51
290.327
  0
ARC
  5
226
330
18
100
AcDbEntity
  8
0
100
AcDbCircle
 10
3.663
 20
3.325
 30
0.0
 40
0.017
100
AcDbArc
 50
290.327
 51
314.726
  0
ARC
  5
227
330
18
100
AcDbEntity
  8
0
100
AcDbCircle
 10
3.659
 20
3.329
 30
0.0
 40
0.023
100
AcDbArc
 50
314.726
 51
333.515
  0
ARC
  5
228
330
18
100
AcDbEntity
  8
0
100
AcDbCircle
 10
3.651
 20
3.332
 30
0.0
 40
0.031
100
AcDbArc
 50
333.515
 51
349.641
  0
ARC
  5
229
330
18
100
AcDbEntity
  8
0
100
AcDbCircle
 10
3.651
 20
3.332
 30
0.0
 40
0.031
100
AcDbArc
 50
349.641
 51
5.767000000000001
  0
ARC
  5
22A
330
18
100
AcDbEntity
  8
0
100
AcDbCircle
 10
3.659
 20
3.333
 30
0.0
 40
0.023
100
AcDbArc
 50
5.767000000000001
 51
24.55599999999999
  0
ARC
  5
22B
330
18
100
AcDbEntity
  8
0
100
AcDbCircle
 10
3.665
 20
3.336
 30
0.0
 40
0.017
100
AcDbArc
 50
24.55599999999999
 51
48.95499999999999
  0
ARC
  5
22C
330
18
100
AcDbEntity
  8
0
100
AcDbCircle
 10
3.669
 20
3.34
 30
0.0
 40
0.011
100
AcDbArc
 50
48.95499999999999
 51
79.64100000000001
  0
ARC
  5
22D
330
18
100
AcDbEntity
  8
0
100
AcDbCircle
 10
2.234
 20
2.76
 30
0.0
 40
0.03
100
AcDbArc
 50
78.991
 51
111.33
  0
ARC
  5
22E
330
18
100
AcDbEntity
  8
0
100
AcDbCircle
 10
2.242
 20
2.74
 30
0.0
 40
0.052
100
AcDbArc
 50
111.33
 51
135.797
  0
ARC
  5
22F
330
18
100
AcDbEntity
  8
0
100
AcDbCircle
 10
2.258
 20
2.724
 30
0.0
 40
0.075
100
AcDbArc
 50
135.797
 51
153.828
  0
ARC
  5
230
330
18
100
AcDbEntity
  8
0
100
AcDbCircle
 10
2.286
 20
2.71
 30
0.0
 40
0.105
100
AcDbArc
 50
153.828
 51
168.991
  0
ARC
  5
231
330
18
100
AcDbEntity
  8
0
100
AcDbCircle
 10
2.286
 20
2.71
 30
0.0
 40
0.105
100
AcDbArc
 50
168.991
 51
184.153
  0
ARC
  5
232
330
18
100
AcDbEntity
  8
0
100
AcDbCircle
 10
2.255
 20
2.708
 30
0.0
 40
0.075
100
AcDbArc
 50
184.153
 51
202.185
  0
ARC
  5
233
330
18
100
AcDbEntity
  8
0
100
AcDbCircle
 10
2.234
 20
2.7
 30
0.0
 40
0.052
100
AcDbArc
 50
202.185
 51
226.652
  0
ARC
  5
234
330
18
100
AcDbEntity
  8
0
100
AcDbCircle
 10
2.219
 20
2.684
 30
0.0
 40
0.03
100
AcDbArc
 50
226.652
 51
258.991
  0
ARC
  5
235
330
18
100
AcDbEntity
  8
0
100
AcDbCircle
 10
2.219
 20
2.684
 30
0.0
 40
0.03
100
AcDbArc
 50
258.991
 51
291.33
  0
ARC
  5
236
330
18
100
AcDbEntity
  8
0
100
AcDbCircle
 10
2.211
 20
2.704
 30
0.0
 40
0.052
100
AcDbArc
 50
291.33
 51
315.797
  0
ARC
  5
237
330
18
100
AcDbEntity
  8
0
100
AcDbCircle
 10
2.195
 20
2.72
 30
0.0
 40
0.075
100
AcDbArc
 50
315.797
 51
333.828
  0
ARC
  5
238
330
18
100
AcDbEntity
  8
0
100
AcDbCircle
 10
2.168
 20
2.733
 30
0.0
 40
0.105
100
AcDbArc
 50
333.828
 51
348.991
  0
ARC
  5
239
330
18
100
AcDbEntity
  8
0
100
AcDbCircle
 10
2.168
 20
2.733
 30
0.0
 40
0.105
100
AcDbArc
 50
348.991
 51
4.153000000000001
  0
ARC
  5
23A
330
18
100
AcDbEntity
  8
0
100
AcDbCircle
 10
2.198
 20
2.736
 30
0.0
 40
0.075
100
AcDbArc
 50
4.153000000000001
 51
22.185
  0
ARC
  5
23B
330
18
100
AcDbEntity
  8
0
100
AcDbCircle
 10
2.219
 20
2.744
 30
0.0
 40
0.052
100
AcDbArc
 50
22.185
 51
46.652
  0
ARC
  5
23C
330
18
100
AcDbEntity
  8
0
100
AcDbCircle
 10
2.234
 20
2.76
 30
0.0
 40
0.03
100
AcDbArc
 50
46.652
 51
78.991
  0
ARC
  5
23D
330
18
100
AcDbEntity
  8
0
100
AcDbCircle
 10
2.256
 20
2.752
 30
0.0
 40
0.03
100
AcDbArc
 50
92.285
 51
111.33
  0
ARC
  5
23E
330
18
100
AcDbEntity
  8
0
100
AcDbCircle
 10
2.264
 20
2.732
 30
0.0
 40
0.052
100
AcDbArc
 50
111.33
 51
135.797
  0
ARC
  5
23F
330
18
100
AcDbEntity
  8
0
100
AcDbCircle
 10
2.28
 20
2.716
 30
0.0
 40
0.075
100
AcDbArc
 50
135.797
 51
153.828
  0
ARC
  5
240
330
18
100
AcDbEntity
  8
0
100
AcDbCircle
 10
2.308
 20
2.702
 30
0.0
 40
0.105
100
AcDbArc
 50
153.828
 51
168.991
  0
ARC
  5
241
330
18
100
AcDbEntity
  8
0
100
AcDbCircle
 10
2.308
 20
2.702
 30
0.0
 40
0.105
100
AcDbArc
 50
168.991
 51
184.153
  0
ARC
  5
242
330
18
100
AcDbEntity
  8
0
100
AcDbCircle
 10
2.277
 20
2.7
 30
0.0
 40
0.075
100
AcDbArc
 50
184.153
 51
202.185
  0
ARC
  5
243
330
18
100
AcDbEntity
  8
0
100
AcDbCircle
 10
2.256
 20
2.692
 30
0.0
 40
0.052
100
AcDbArc
 50
202.185
 51
226.652
  0
ARC
  5
244
330
18
100
AcDbEntity
  8
0
100
AcDbCircle
 10
2.241
 20
2.676
 30
0.0
 40
0.03
100
AcDbArc
 50
226.652
 51
227.205
  0
ARC
  5
245
330
18
100
AcDbEntity
  8
0
100
AcDbCircle
 10
3.491
 20
3.24
 30
0.0
 40
0.03
100
AcDbArc
 50
92.285
 51
111.33
  0
ARC
  5
246
330
18
100
AcDbEntity
  8
0
100
AcDbCircle
 10
3.499
 20
3.219
 30
0.0
 40
0.052
100
AcDbArc
 50
111.33
 51
135.797
  0
ARC
  5
247
330
18
100
AcDbEntity
  8
0
100
AcDbCircle
 10
3.515
 20
3.204
 30
0.0
 40
0.075
100
AcDbArc
 50
135.797
 51
153.828
  0
ARC
  5
248
330
18
100
AcDbEntity
  8
0
100
AcDbCircle
 10
3.543
 20
3.19
 30
0.0
 40
0.105
100
AcDbArc
 50
153.828
 51
168.991
  0
ARC
  5
249
330
18
100
AcDbEntity
  8
0
100
AcDbCircle
 10
3.543
 20
3.19
 30
0.0
 40
0.105
100
AcDbArc
 50
168.991
 51
184.153
  0
ARC
  5
24A
330
18
100
AcDbEntity
  8
0
100
AcDbCircle
 10
3.512
 20
3.188
 30
0.0
 40
0.075
100
AcDbArc
 50
184.153
 51
202.185
  0
ARC
  5
24B
330
18
100
AcDbEntity
  8
0
100
AcDbCircle
 10
3.492
 20
3.179
 30
0.0
 40
0.052
100
AcDbArc
 50
202.185
 51
226.652
  0
ARC
  5
24C
330
18
100
AcDbEntity
  8
0
100
AcDbCircle
 10
3.476
 20
3.163
 30
0.0
 40
0.03
100
AcDbArc
 50
226.652
 51
227.205
  0
ARC
  5
24D
330
18
100
AcDbEntity
  8
0
100
AcDbCircle
 10
3.47
 20
3.248
 30
0.0
 40
0.03
100
AcDbArc
 50
78.991
 51
111.33
  0
ARC
  5
24E
330
18
100
AcDbEntity
  8
0
100
AcDbCircle
 10
3.478
 20
3.227
 30
0.0
 40
0.052
100
AcDbArc
 50
111.33
 51
135.797
  0
ARC
  5
24F
330
18
100
AcDbEntity
  8
0
100
AcDbCircle
 10
3.494
 20
3.212
 30
0.0
 40
0.075
100
AcDbArc
 50
135.797
 51
153.828
  0
ARC
  5
250
330
18
100
AcDbEntity
  8
0
100
AcDbCircle
 10
3.521
 20
3.198
 30
0.0
 40
0.105
100
AcDbArc
 50
153.828
 51
168.991
  0
ARC
  5
251
330
18
100
AcDbEntity
  8
0
100
AcDbCircle
 10
3.521
 20
3.198
 30
0.0
 40
0.105
100
AcDbArc
 50
168.991
 51
184.153
  0
ARC
  5
252
330
18
100
AcDbEntity
  8
0
100
AcDbCircle
 10
3.491
 20
3.196
 30
0.0
 40
0.075
100
AcDbArc
 50
184.153
 51
202.185
  0
ARC
  5
253
330
18
100
AcDbEntity
  8
0
100
AcDbCircle
 10
3.47
 20
3.187
 30
0.0
 40
0.052
100
AcDbArc
 50
202.185
 51
226.652
  0
ARC
  5
254
330
18
100
AcDbEntity
  8
0
100
AcDbCircle
 10
3.455
 20
3.171
 30
0.0
 40
0.03
100
AcDbArc
 50
226.652
 51
258.991
  0
ARC
  5
255
330
18
100
AcDbEntity
  8
0
100
AcDbCircle
 10
3.455
 20
3.171
 30
0.0
 40
0.03
100
AcDbArc
 50
258.991
 51
291.33
  0
ARC
  5
256
330
18
100
AcDbEntity
  8
0
100
AcDbCircle
 10
3.447
 20
3.192
 30
0.0
 40
0.052
100
AcDbArc
 50
291.33
 51
315.797
  0
ARC
  5
257
330
18
100
AcDbEntity
  8
0
100
AcDbCircle
 10
3.431
 20
3.207
 30
0.0
 40
0.075
100
AcDbArc
 50
315.797
 51
333.828
  0
ARC
  5
258
330
18
100
AcDbEntity
  8
0
100
AcDbCircle
 10
3.403
 20
3.221
 30
0.0
 40
0.105
100
AcDbArc
 50
333.828
 51
348.991
  0
ARC
  5
259
330
18
100
AcDbEntity
  8
0
100
AcDbCircle
 10
3.403
 20
3.221
 30
0.0
 40
0.105
100
AcDbArc
 50
348.991
 51
4.153000000000001
  0
ARC
  5
25A
330
18
100
AcDbEntity
  8
0
100
AcDbCircle
 10
3.434
 20
3.223
 30
0.0
 40
0.075
100
AcDbArc
 50
4.153000000000001
 51
22.185
  0
ARC
  5
25B
330
18
100
AcDbEntity
  8
0
100
AcDbCircle
 10
3.454
 20
3.232
 30
0.0
 40
0.052
100
AcDbArc
 50
22.185
 51
46.652
  0
ARC
  5
25C
330
18
100
AcDbEntity
  8
0
100
AcDbCircle
 10
3.47
 20
3.248
 30
0.0
 40
0.03
100
AcDbArc
 50
46.652
 51
78.991
  0
TEXT
  5
25D
330
18
100
AcDbEntity
  8
0
100
AcDbText
 10
2.985
 20
0.362
 30
0.0
 40
0.125
  1
PC
100
AcDbText
  0
TEXT
  5
25E
330
18
100
AcDbEntity
  8
0
100
AcDbText
 10
2.985
 20
0.5489999999999999
 30
0.0
 40
0.125
  1
Simpson Strong-Tie
100
AcDbText
  0
ENDSEC
  0
SECTION
  2
OBJECTS
  0
DICTIONARY
  5
C
330
0
100
AcDbDictionary
281
     1
  3
ACAD_COLOR
350
264
  3
ACAD_GROUP
350
D
  3
ACAD_LAYOUT
350
15
  3
ACAD_MATERIAL
350
266
  3
ACAD_MLINESTYLE
350
12
  3
ACAD_PLOTSETTINGS
350
14
  3
ACAD_PLOTSTYLENAME
350
E
  3
ACDBHEADERROUNDTRIPXREC
350
263
  0
DICTIONARY
  5
264
102
{ACAD_REACTORS
330
C
102
}
330
C
100
AcDbDictionary
281
     1
  0
DICTIONARY
  5
D
102
{ACAD_REACTORS
330
C
102
}
330
C
100
AcDbDictionary
281
     1
  0
DICTIONARY
  5
15
102
{ACAD_REACTORS
330
C
102
}
330
C
100
AcDbDictionary
281
     1
  3
Layout1
350
17
  3
Model
350
19
  0
DICTIONARY
  5
266
102
{ACAD_REACTORS
330
C
102
}
330
C
100
AcDbDictionary
281
     1
  0
DICTIONARY
  5
12
102
{ACAD_REACTORS
330
C
102
}
330
C
100
AcDbDictionary
281
     1
  3
Standard
350
13
  0
DICTIONARY
  5
14
102
{ACAD_REACTORS
330
C
102
}
330
C
100
AcDbDictionary
281
     1
  0
ACDBDICTIONARYWDFLT
  5
E
102
{ACAD_REACTORS
330
C
102
}
330
C
100
AcDbDictionary
281
     1
  3
Normal
350
F
100
AcDbDictionaryWithDefault
340
F
  0
DICTIONARY
  5
263
102
{ACAD_REACTORS
330
C
102
}
330
C
100
AcDbDictionary
281
     1
  3
COLORDICT
350
265
  3
MATERIALDICT
350
267
  0
LAYOUT
  5
17
102
{ACAD_REACTORS
330
15
102
}
102
{ACAD_XDICTIONARY
360
268
102
}
330
15
100
AcDbPlotSettings
  1

  2

  4

  6

 40
0.0
 41
0.0
 42
0.0
 43
0.0
 44
0.0
 45
0.0
 46
0.0
 47
0.0
 48
0.0
 49
0.0
140
0.0
141
0.0
142
1.0
143
1.0
 70
   688
 72
     0
 73
     0
 74
     5
  7

 75
    16
147
1.0
148
0.0
149
0.0
100
AcDbLayout
  1
Layout1
 70
     1
 71
     1
 10
0.0
 20
0.0
 11
12.0
 21
9.0
 12
0.0
 22
0.0
 32
0.0
 14
1.000000000000000E+20
 24
1.000000000000000E+20
 34
1.000000000000000E+20
 15
-1.000000000000000E+20
 25
-1.000000000000000E+20
 35
-1.000000000000000E+20
146
0.0
 13
0.0
 23
0.0
 33
0.0
 16
1.0
 26
0.0
 36
0.0
 17
0.0
 27
1.0
 37
0.0
 76
     0
330
16
  0
LAYOUT
  5
19
102
{ACAD_REACTORS
330
15
102
}
102
{ACAD_XDICTIONARY
360
26A
102
}
330
15
100
AcDbPlotSettings
  1

  2

  4

  6

 40
0.0
 41
0.0
 42
0.0
 43
0.0
 44
0.0
 45
0.0
 46
0.0
 47
0.0
 48
0.0
 49
0.0
140
0.0
141
0.0
142
1.0
143
1.0
 70
  1712
 72
     0
 73
     0
 74
     0
  7

 75
     0
147
1.0
148
0.0
149
0.0
100
AcDbLayout
  1
Model
 70
     1
 71
     0
 10
0.0
 20
0.0
 11
0.0
 21
0.0
 12
0.0
 22
0.0
 32
0.0
 14
0.0
 24
0.0
 34
0.0
 15
0.0
 25
0.0
 35
0.0
146
0.0
 13
0.0
 23
0.0
 33
0.0
 16
1.0
 26
0.0
 36
0.0
 17
0.0
 27
1.0
 37
0.0
 76
     0
330
18
  0
MLINESTYLE
  5
13
102
{ACAD_REACTORS
330
12
102
}
330
12
100
AcDbMlineStyle
  2
Standard
 70
     0
  3

 62
   256
 51
90.0
 52
90.0
 71
     2
 49
0.5
 62
   256
  6
BYLAYER
 49
-0.5
 62
   256
  6
BYLAYER
  0
ACDBPLACEHOLDER
  5
F
102
{ACAD_REACTORS
330
E
102
}
330
E
  0
XRECORD
  5
265
102
{ACAD_REACTORS
330
263
102
}
330
263
100
AcDbXrecord
340
264
  0
XRECORD
  5
267
102
{ACAD_REACTORS
330
263
102
}
330
263
100
AcDbXrecord
340
266
  0
DICTIONARY
  5
268
330
17
100
AcDbDictionary
280
     1
281
     1
  3
ACAD_XREC_ROUNDTRIP
360
269
  0
DICTIONARY
  5
26A
330
19
100
AcDbDictionary
280
     1
281
     1
  3
ACAD_XREC_ROUNDTRIP
360
26B
  0
XRECORD
  5
269
102
{ACAD_REACTORS
330
268
102
}
330
268
100
AcDbXrecord
102
SHADEPLOT
 70
     0
102
SHADEPLOTRESLEVEL
 70
     0
102
SHADEPLOTCUSTOMDPI
 70
     0
  0
XRECORD
  5
26B
102
{ACAD_REACTORS
330
26A
102
}
330
26A
100
AcDbXrecord
102
SHADEPLOT
 70
     0
102
SHADEPLOTRESLEVEL
 70
     0
102
SHADEPLOTCUSTOMDPI
 70
     0
  0
ENDSEC
  0
EOF
