  0
SECTION
  2
HEADER
  9
$ACADVER
  1
AC1015
  9
$ACADMAINTVER
 70
     6
  9
$DWGCODEPAGE
  3
ANSI_1252
  9
$INSBASE
 10
0.0
 20
0.0
 30
0.0
  9
$EXTMIN
 10
22.35067602704534
 20
25.1882353732317
 30
-0.0015258207003612
  9
$EXTMAX
 10
130.1169042692321
 20
152.8167484036533
 30
0.0000000349246008
  9
$LIMMIN
 10
22.23860812717014
 20
25.0653089735243
  9
$LIMMAX
 10
130.245452202691
 20
152.9396742078993
  9
$ORTHOMODE
 70
     0
  9
$REGENMODE
 70
     1
  9
$FILLMODE
 70
     1
  9
$QTEXTMODE
 70
     0
  9
$MIRRTEXT
 70
     1
  9
$LTSCALE
 40
1.0
  9
$ATTMODE
 70
     1
  9
$TEXTSIZE
 40
0.2
  9
$TRACEWID
 40
0.05
  9
$TEXTSTYLE
  7
STANDARD
  9
$CLAYER
  8
0
  9
$CELTYPE
  6
CONTINUOUS
  9
$CECOLOR
 62
   256
  9
$CELTSCALE
 40
1.0
  9
$DISPSILH
 70
     0
  9
$DIMSCALE
 40
1.0
  9
$DIMASZ
 40
0.18
  9
$DIMEXO
 40
0.0625
  9
$DIMDLI
 40
0.38
  9
$DIMRND
 40
0.0
  9
$DIMDLE
 40
0.0
  9
$DIMEXE
 40
0.18
  9
$DIMTP
 40
0.0
  9
$DIMTM
 40
0.0
  9
$DIMTXT
 40
0.18
  9
$DIMCEN
 40
0.09
  9
$DIMTSZ
 40
0.0
  9
$DIMTOL
 70
     0
  9
$DIMLIM
 70
     0
  9
$DIMTIH
 70
     1
  9
$DIMTOH
 70
     1
  9
$DIMSE1
 70
     0
  9
$DIMSE2
 70
     0
  9
$DIMTAD
 70
     0
  9
$DIMZIN
 70
     0
  9
$DIMBLK
  1

  9
$DIMASO
 70
     1
  9
$DIMSHO
 70
     1
  9
$DIMPOST
  1

  9
$DIMAPOST
  1

  9
$DIMALT
 70
     0
  9
$DIMALTD
 70
     2
  9
$DIMALTF
 40
25.4
  9
$DIMLFAC
 40
1.0
  9
$DIMTOFL
 70
     0
  9
$DIMTVP
 40
0.0
  9
$DIMTIX
 70
     0
  9
$DIMSOXD
 70
     0
  9
$DIMSAH
 70
     0
  9
$DIMBLK1
  1

  9
$DIMBLK2
  1

  9
$DIMSTYLE
  2
STANDARD
  9
$DIMCLRD
 70
     0
  9
$DIMCLRE
 70
     0
  9
$DIMCLRT
 70
     0
  9
$DIMTFAC
 40
1.0
  9
$DIMGAP
 40
0.09
  9
$DIMJUST
 70
     0
  9
$DIMSD1
 70
     0
  9
$DIMSD2
 70
     0
  9
$DIMTOLJ
 70
     1
  9
$DIMTZIN
 70
     0
  9
$DIMALTZ
 70
     0
  9
$DIMALTTZ
 70
     0
  9
$DIMUPT
 70
     0
  9
$DIMDEC
 70
     4
  9
$DIMTDEC
 70
     4
  9
$DIMALTU
 70
     2
  9
$DIMALTTD
 70
     2
  9
$DIMTXSTY
  7
STANDARD
  9
$DIMAUNIT
 70
     0
  9
$DIMADEC
 70
     0
  9
$DIMALTRND
 40
0.0
  9
$DIMAZIN
 70
     0
  9
$DIMDSEP
 70
    46
  9
$DIMATFIT
 70
     3
  9
$DIMFRAC
 70
     0
  9
$DIMLDRBLK
  1

  9
$DIMLUNIT
 70
     2
  9
$DIMLWD
 70
    -2
  9
$DIMLWE
 70
    -2
  9
$DIMTMOVE
 70
     0
  9
$LUNITS
 70
     2
  9
$LUPREC
 70
     4
  9
$SKETCHINC
 40
0.1
  9
$FILLETRAD
 40
0.0
  9
$AUNITS
 70
     0
  9
$AUPREC
 70
     0
  9
$MENU
  1
acad
  9
$ELEVATION
 40
0.0
  9
$PELEVATION
 40
0.0
  9
$THICKNESS
 40
0.0
  9
$LIMCHECK
 70
     0
  9
$CHAMFERA
 40
0.0
  9
$CHAMFERB
 40
0.0
  9
$CHAMFERC
 40
0.0
  9
$CHAMFERD
 40
0.0
  9
$SKPOLY
 70
     0
  9
$TDCREATE
 40
2444971.666666667
  9
$TDUCREATE
 40
2444972.0
  9
$TDUPDATE
 40
2452219.39097662
  9
$TDUUPDATE
 40
2452219.724309954
  9
$TDINDWG
 40
0.0008021991
  9
$TDUSRTIMER
 40
0.0008021991
  9
$USRTIMER
 70
     1
  9
$ANGBASE
 50
0.0
  9
$ANGDIR
 70
     0
  9
$PDMODE
 70
     0
  9
$PDSIZE
 40
0.0
  9
$PLINEWID
 40
0.0
  9
$SPLFRAME
 70
     0
  9
$SPLINETYPE
 70
     6
  9
$SPLINESEGS
 70
     8
  9
$HANDSEED
  5
167
  9
$SURFTAB1
 70
     6
  9
$SURFTAB2
 70
     6
  9
$SURFTYPE
 70
     6
  9
$SURFU
 70
     6
  9
$SURFV
 70
     6
  9
$UCSBASE
  2

  9
$UCSNAME
  2

  9
$UCSORG
 10
0.0
 20
0.0
 30
0.0
  9
$UCSXDIR
 10
1.0
 20
0.0
 30
0.0
  9
$UCSYDIR
 10
0.0
 20
1.0
 30
0.0
  9
$UCSORTHOREF
  2

  9
$UCSORTHOVIEW
 70
     0
  9
$UCSORGTOP
 10
0.0
 20
0.0
 30
0.0
  9
$UCSORGBOTTOM
 10
0.0
 20
0.0
 30
0.0
  9
$UCSORGLEFT
 10
0.0
 20
0.0
 30
0.0
  9
$UCSORGRIGHT
 10
0.0
 20
0.0
 30
0.0
  9
$UCSORGFRONT
 10
0.0
 20
0.0
 30
0.0
  9
$UCSORGBACK
 10
0.0
 20
0.0
 30
0.0
  9
$PUCSBASE
  2

  9
$PUCSNAME
  2

  9
$PUCSORG
 10
0.0
 20
0.0
 30
0.0
  9
$PUCSXDIR
 10
1.0
 20
0.0
 30
0.0
  9
$PUCSYDIR
 10
0.0
 20
1.0
 30
0.0
  9
$PUCSORTHOREF
  2

  9
$PUCSORTHOVIEW
 70
     0
  9
$PUCSORGTOP
 10
0.0
 20
0.0
 30
0.0
  9
$PUCSORGBOTTOM
 10
0.0
 20
0.0
 30
0.0
  9
$PUCSORGLEFT
 10
0.0
 20
0.0
 30
0.0
  9
$PUCSORGRIGHT
 10
0.0
 20
0.0
 30
0.0
  9
$PUCSORGFRONT
 10
0.0
 20
0.0
 30
0.0
  9
$PUCSORGBACK
 10
0.0
 20
0.0
 30
0.0
  9
$USERI1
 70
     0
  9
$USERI2
 70
     0
  9
$USERI3
 70
     0
  9
$USERI4
 70
     0
  9
$USERI5
 70
     0
  9
$USERR1
 40
0.0
  9
$USERR2
 40
0.0
  9
$USERR3
 40
0.0
  9
$USERR4
 40
0.0
  9
$USERR5
 40
0.0
  9
$WORLDVIEW
 70
     1
  9
$SHADEDGE
 70
     3
  9
$SHADEDIF
 70
    70
  9
$TILEMODE
 70
     1
  9
$MAXACTVP
 70
    16
  9
$PINSBASE
 10
0.0
 20
0.0
 30
0.0
  9
$PLIMCHECK
 70
     0
  9
$PEXTMIN
 10
1.000000000000000E+20
 20
1.000000000000000E+20
 30
1.000000000000000E+20
  9
$PEXTMAX
 10
-1.000000000000000E+20
 20
-1.000000000000000E+20
 30
-1.000000000000000E+20
  9
$PLIMMIN
 10
0.0
 20
0.0
  9
$PLIMMAX
 10
12.0
 20
9.0
  9
$UNITMODE
 70
     0
  9
$VISRETAIN
 70
     0
  9
$PLINEGEN
 70
     1
  9
$PSLTSCALE
 70
     0
  9
$TREEDEPTH
 70
  3020
  9
$CMLSTYLE
  2
STANDARD
  9
$CMLJUST
 70
     0
  9
$CMLSCALE
 40
1.0
  9
$PROXYGRAPHICS
 70
     0
  9
$MEASUREMENT
 70
     0
  9
$CELWEIGHT
370
    -1
  9
$ENDCAPS
280
     0
  9
$JOINSTYLE
280
     0
  9
$LWDISPLAY
290
     0
  9
$INSUNITS
 70
     0
  9
$HYPERLINKBASE
  1

  9
$STYLESHEET
  1

  9
$XEDIT
290
     1
  9
$CEPSNTYPE
380
     0
  9
$PSTYLEMODE
290
     1
  9
$FINGERPRINTGUID
  2
{0AE0CF96-D1C7-11D5-923F-00805F198AD5}
  9
$VERSIONGUID
  2
{0AE0CF98-D1C7-11D5-923F-00805F198AD5}
  9
$EXTNAMES
290
     1
  9
$PSVPSCALE
 40
0.0
  9
$OLESTARTUP
290
     0
  0
ENDSEC
  0
SECTION
  2
CLASSES
  0
CLASS
  1
LWPOLYLINE
  2
AcDbPolyline
  3
AutoCAD 2000
 90
        0
280
     0
281
     1
  0
CLASS
  1
IMAGE
  2
AcDbRasterImage
  3
ISM
 90
      127
280
     0
281
     1
  0
CLASS
  1
OLE2FRAME
  2
AcDbOle2Frame
  3
AutoCAD 2000
 90
        0
280
     0
281
     1
  0
CLASS
  1
HATCH
  2
AcDbHatch
  3
AutoCAD 2000
 90
        0
280
     0
281
     1
  0
CLASS
  1
DICTIONARYVAR
  2
AcDbDictionaryVar
  3
AutoCAD 2000
 90
        0
280
     0
281
     0
  0
CLASS
  1
RASTERVARIABLES
  2
AcDbRasterVariables
  3
ISM
 90
        0
280
     0
281
     0
  0
CLASS
  1
IMAGEDEF
  2
AcDbRasterImageDef
  3
ISM
 90
        0
280
     0
281
     0
  0
CLASS
  1
IMAGEDEF_REACTOR
  2
AcDbRasterImageDefReactor
  3
ISM
 90
        1
280
     0
281
     0
  0
CLASS
  1
IDBUFFER
  2
AcDbIdBuffer
  3
AutoCAD 2000
 90
        0
280
     0
281
     0
  0
CLASS
  1
SPATIAL_FILTER
  2
AcDbSpatialFilter
  3
AutoCAD 2000
 90
        0
280
     0
281
     0
  0
CLASS
  1
XRECORD
  2
AcDbXrecord
  3
AutoCAD 2000
 90
        0
280
     0
281
     0
  0
CLASS
  1
SORTENTSTABLE
  2
AcDbSortentsTable
  3
AutoCAD 2000
 90
        0
280
     0
281
     0
  0
CLASS
  1
LAYER_INDEX
  2
AcDbLayerIndex
  3
AutoCAD 2000
 90
        0
280
     0
281
     0
  0
CLASS
  1
SPATIAL_INDEX
  2
AcDbSpatialIndex
  3
AutoCAD 2000
 90
        0
280
     0
281
     0
  0
CLASS
  1
OBJECT_PTR
  2
CAseDLPNTableRecord
  3
ASE-LPNTableRecord
 90
        1
280
     1
281
     0
  0
CLASS
  1
LAYOUT
  2
AcDbLayout
  3
ObjectDBX Classes
 90
        0
280
     0
281
     0
  0
CLASS
  1
PLOTSETTINGS
  2
AcDbPlotSettings
  3
AutoCAD 2000
 90
        0
280
     0
281
     0
  0
CLASS
  1
ACDBDICTIONARYWDFLT
  2
AcDbDictionaryWithDefault
  3
AutoCAD 2000
 90
        0
280
     0
281
     0
  0
CLASS
  1
ACDBPLACEHOLDER
  2
AcDbPlaceHolder
  3
ObjectDBX Classes
 90
        0
280
     0
281
     0
  0
CLASS
  1
VBAPROJECT
  2
AcDbVbaProject
  3
ObjectDBX Classes
 90
        0
280
     0
281
     0
  0
CLASS
  1
WIPEOUT
  2
AcDbWipeout
  3
WipeOut|AutoCAD Express Tool|expresstools@autodesk.com
 90
      127
280
     0
281
     1
  0
CLASS
  1
WIPEOUTVARIABLES
  2
AcDbWipeoutVariables
  3
WipeOut|AutoCAD Express Tool|expresstools@autodesk.com
 90
        0
280
     0
281
     0
  0
CLASS
  1
RTEXT
  2
RText
  3
RText|AutoCAD Express Tool|expresstools@autodesk.com
 90
        0
280
     0
281
     1
  0
CLASS
  1
ARCALIGNEDTEXT
  2
AcDbArcAlignedText
  3
ATEXT|AutoCAD Express Tool|expresstools@autodesk.com
 90
        0
280
     0
281
     1
  0
CLASS
  1
LONG_TRANSACTION
  2
AcDbLongTransaction
  3
AutoCAD 2000
 90
        0
280
     1
281
     0
  0
CLASS
  1
LWPOLYLINE
  2
AcDbPolyline
  3
AutoCAD 2000
 90
        0
280
     0
281
     1
  0
CLASS
  1
HATCH
  2
AcDbHatch
  3
AutoCAD 2000
 90
        0
280
     0
281
     1
  0
CLASS
  1
XRECORD
  2
AcDbXrecord
  3
AutoCAD 2000
 90
        0
280
     0
281
     0
  0
ENDSEC
  0
SECTION
  2
TABLES
  0
TABLE
  2
VPORT
  5
7
330
0
100
AcDbSymbolTable
 70
     2
  0
VPORT
  5
133
330
7
100
AcDbSymbolTableRecord
100
AcDbViewportTableRecord
  2
*Active
 70
     0
 10
0.0
 20
0.0
 11
1.0
 21
1.0
 12
76.23379014813871
 22
89.00249188844251
 13
0.0
 23
0.0
 14
1.0
 24
1.0
 15
0.0
 25
0.0
 16
0.0
 26
0.0
 36
1.0
 17
0.0
 27
0.0
 37
0.0
 40
129.6384108734204
 41
1.836842105263158
 42
50.0
 43
0.0
 44
0.0
 50
0.0
 51
0.0
 71
     0
 72
   100
 73
     1
 74
     1
 75
     0
 76
     0
 77
     0
 78
     0
281
     0
 65
     1
110
0.0
120
0.0
130
0.0
111
1.0
121
0.0
131
0.0
112
0.0
122
1.0
132
0.0
 79
     0
146
0.0
  0
ENDTAB
  0
TABLE
  2
LTYPE
  5
4
330
0
100
AcDbSymbolTable
 70
     1
  0
LTYPE
  5
11
330
4
100
AcDbSymbolTableRecord
100
AcDbLinetypeTableRecord
  2
BYBLOCK
 70
     0
  3

 72
    65
 73
     0
 40
0.0
  0
LTYPE
  5
12
330
4
100
AcDbSymbolTableRecord
100
AcDbLinetypeTableRecord
  2
BYLAYER
 70
     0
  3

 72
    65
 73
     0
 40
0.0
  0
LTYPE
  5
13
330
4
100
AcDbSymbolTableRecord
100
AcDbLinetypeTableRecord
  2
CONTINUOUS
 70
     0
  3
Solid line
 72
    65
 73
     0
 40
0.0
  0
ENDTAB
  0
TABLE
  2
LAYER
  5
2
330
0
100
AcDbSymbolTable
 70
     2
  0
LAYER
  5
14
330
2
100
AcDbSymbolTableRecord
100
AcDbLayerTableRecord
  2
0
 70
     0
 62
     7
  6
CONTINUOUS
370
    -3
390
0
  0
LAYER
  5
21
330
2
100
AcDbSymbolTableRecord
100
AcDbLayerTableRecord
  2
LAYER_1
 70
     0
 62
     5
  6
CONTINUOUS
370
    -3
390
0
  0
ENDTAB
  0
TABLE
  2
STYLE
  5
3
330
0
100
AcDbSymbolTable
 70
     5
  0
STYLE
  5
17
330
3
100
AcDbSymbolTableRecord
100
AcDbTextStyleTableRecord
  2
STANDARD
 70
     0
 40
0.0
 41
1.0
 50
0.0
 71
     0
 42
0.2
  3
txt
  4

  0
STYLE
  5
1D
330
3
100
AcDbSymbolTableRecord
100
AcDbTextStyleTableRecord
  2
STD
 70
     0
 40
0.0
 41
1.0
 50
0.0
 71
     0
 42
0.2
  3
txt
  4

  0
STYLE
  5
1E
330
3
100
AcDbSymbolTableRecord
100
AcDbTextStyleTableRecord
  2
TATESTD
 70
     4
 40
0.0
 41
1.0
 50
0.0
 71
     0
 42
0.2
  3
txt
  4

  0
STYLE
  5
1F
330
3
100
AcDbSymbolTableRecord
100
AcDbTextStyleTableRecord
  2
KANJISTD
 70
     0
 40
0.0
 41
1.0
 50
0.0
 71
     0
 42
0.2
  3
txt
  4
extfont
  0
STYLE
  5
20
330
3
100
AcDbSymbolTableRecord
100
AcDbTextStyleTableRecord
  2
KANJITATE
 70
     4
 40
0.0
 41
1.0
 50
0.0
 71
     0
 42
0.2
  3
txt
  4
extfont
  0
ENDTAB
  0
TABLE
  2
VIEW
  5
5
330
0
100
AcDbSymbolTable
 70
     0
  0
ENDTAB
  0
TABLE
  2
UCS
  5
6
330
0
100
AcDbSymbolTable
 70
     0
  0
ENDTAB
  0
TABLE
  2
APPID
  5
8
330
0
100
AcDbSymbolTable
 70
     1
  0
APPID
  5
16
330
8
100
AcDbSymbolTableRecord
100
AcDbRegAppTableRecord
  2
ACAD
 70
     0
  0
ENDTAB
  0
TABLE
  2
DIMSTYLE
  5
9
330
0
100
AcDbSymbolTable
 70
     1
100
AcDbDimStyleTable
  0
DIMSTYLE
105
18
330
9
100
AcDbSymbolTableRecord
100
AcDbDimStyleTableRecord
  2
STANDARD
 70
     0
  3

  4

289
     0
340
17
  0
ENDTAB
  0
TABLE
  2
BLOCK_RECORD
  5
1
330
0
100
AcDbSymbolTable
 70
     0
  0
BLOCK_RECORD
  5
A
330
1
100
AcDbSymbolTableRecord
100
AcDbBlockTableRecord
  2
*MODEL_SPACE
340
12E
  0
BLOCK_RECORD
  5
B
330
1
100
AcDbSymbolTableRecord
100
AcDbBlockTableRecord
  2
*PAPER_SPACE
340
12F
  0
ENDTAB
  0
ENDSEC
  0
SECTION
  2
BLOCKS
  0
BLOCK
  5
D
330
A
100
AcDbEntity
  8
0
100
AcDbBlockBegin
  2
*MODEL_SPACE
 70
     0
 10
0.0
 20
0.0
 30
0.0
  3
*MODEL_SPACE
  1

  4

  0
ENDBLK
  5
E
330
A
100
AcDbEntity
  8
0
100
AcDbBlockEnd
  0
BLOCK
  5
F
330
B
100
AcDbEntity
 67
     1
  8
0
100
AcDbBlockBegin
  2
*PAPER_SPACE
 70
     0
 10
0.0
 20
0.0
 30
0.0
  3
*PAPER_SPACE
  1

  4

  0
ENDBLK
  5
10
330
B
100
AcDbEntity
 67
     1
  8
0
100
AcDbBlockEnd
  0
ENDSEC
  0
SECTION
  2
ENTITIES
  0
LWPOLYLINE
  5
FF
330
A
100
AcDbEntity
  8
LAYER_1
 62
     7
100
AcDbPolyline
 90
       40
 70
     1
 43
0.0
 10
45.72520209418403
 20
128.9544026692708
 10
45.60117865668403
 20
135.5558946397569
 10
78.60881076388888
 20
150.752210828993
 10
85.70846354166666
 20
147.6380167643229
 10
96.23374701605901
 20
152.8073825412326
 10
102.3873765733507
 20
150.3568861219618
 10
102.695368109809
 20
149.7886176215278
 10
103.5046210394965
 20
149.9131578233507
 10
109.1661187065972
 20
147.6555867513021
 10
109.4758327907986
 20
147.0854234483507
 10
110.1236829969618
 20
147.2742146809896
 10
115.2461954752604
 20
145.2324788411458
 10
115.5772691514757
 20
144.6543918185764
 10
116.1824001736111
 20
144.8609252929687
 10
122.6397148980035
 20
142.2820990668403
 10
127.1863796657986
 20
130.8850341796875
 10
130.1131605360243
 20
128.8922186957465
 10
127.3729315863715
 20
122.9757839626736
 10
128.9299424913194
 20
121.1069919162326
 10
129.2415513780382
 20
103.7936645507812
 10
111.5542588975694
 20
94.1403347439236
 10
111.7413275824653
 20
44.13029513888888
 10
102.025641547309
 20
38.4009290907118
 10
99.72104492187499
 20
33.04501139322917
 10
95.05018446180554
 20
35.10018310546874
 10
94.11621907552083
 20
33.29374728732638
 10
80.60179850260415
 20
25.19760064019097
 10
46.16152343749999
 20
43.19650200737847
 10
46.03681098090277
 20
61.56833496093749
 10
42.59016520182291
 20
63.34169786241319
 10
42.09579399956597
 20
64.09479573567708
 10
41.59952799479166
 20
63.84967719184027
 10
36.09943305121527
 20
66.67362196180555
 10
35.69050021701388
 20
67.4131117078993
 10
34.90829128689236
 20
67.28426513671874
 10
29.50758734809028
 20
70.05618896484374
 10
29.14774712456597
 20
70.64788411458332
 10
28.6649169921875
 20
70.48820393880207
 10
22.74434814453125
 20
73.52626139322916
 10
22.43325602213541
 20
117.7440619574653
  0
LWPOLYLINE
  5
F4
330
A
100
AcDbEntity
  8
LAYER_1
 62
     7
100
AcDbPolyline
 90
        9
 70
     1
 43
0.0
 10
87.06841498480902
 20
114.8004001193576
 10
86.76455756293402
 20
54.35619981553819
 10
88.59063042534721
 20
53.40380316840277
 10
89.70167371961804
 20
52.92751871744791
 10
106.5824693467882
 20
62.83905843098957
 10
107.0689168294271
 20
64.19883761935763
 10
107.0081108940972
 20
124.5636284722222
 10
104.2584079318576
 20
125.8136813693576
 10
88.34120551215277
 20
117.5812811957465
  0
SPLINE
  5
F3
330
A
100
AcDbEntity
  8
LAYER_1
 62
     7
100
AcDbSpline
210
0.0
220
0.0
230
1.0
 70
     8
 71
     3
 72
     8
 73
     4
 74
     0
 42
0.0000000001
 43
0.0000000001
 40
0.0
 40
0.0
 40
0.0
 40
0.0
 40
1.0
 40
1.0
 40
1.0
 40
1.0
 10
96.73190782335068
 20
34.35276963975694
 30
0.0
 10
96.42029893663194
 20
35.59834391276041
 30
0.0
 10
95.98449435763888
 20
36.59449327256944
 30
0.0
 10
96.17156304253471
 20
36.9684583875868
 30
0.0
  0
SPLINE
  5
F2
330
A
100
AcDbEntity
  8
LAYER_1
 62
     7
100
AcDbSpline
210
0.0
220
0.0
230
1.0
 70
     8
 71
     3
 72
     8
 73
     4
 74
     0
 42
0.0000000001
 43
0.0000000001
 40
0.0
 40
0.0
 40
0.0
 40
0.0
 40
1.0
 40
1.0
 40
1.0
 40
1.0
 10
97.79041341145833
 20
33.97880452473958
 30
0.0
 10
97.79041341145833
 20
34.91328667534722
 30
0.0
 10
97.4793212890625
 20
35.97179226345486
 30
0.0
 10
97.60403374565972
 20
36.71920572916666
 30
0.0
  0
LWPOLYLINE
  5
ED
330
A
100
AcDbEntity
  8
LAYER_1
 62
     7
100
AcDbPolyline
 90
        3
 70
     0
 43
0.0
 10
95.05018446180554
 20
35.10018310546874
 10
96.8566202799479
 20
38.21403266059028
 10
99.90794135199651
 20
33.97880452473958
  0
LINE
  5
EC
330
A
100
AcDbEntity
  8
LAYER_1
 62
     7
100
AcDbLine
 10
80.29018961588541
 20
77.13809950086805
 30
0.0
 11
80.41472981770832
 21
25.3844970703125
 31
0.0
  0
LINE
  5
EB
330
A
100
AcDbEntity
  8
LAYER_1
 62
     7
100
AcDbLine
 10
107.2177449544271
 20
91.78922932942707
 30
0.0
 11
111.5542588975694
 21
94.1403347439236
 31
0.0
  0
LINE
  5
EA
330
A
100
AcDbEntity
  8
LAYER_1
 62
     7
100
AcDbLine
 10
49.02594807942708
 20
60.1982204861111
 30
0.0
 11
86.87445610894096
 21
80.7271999782986
 31
0.0
  0
SPLINE
  5
E9
330
A
100
AcDbEntity
  8
LAYER_1
 62
     7
100
AcDbSpline
210
0.0
220
0.0
230
1.0
 70
     8
 71
     3
 72
    11
 73
     7
 74
     0
 42
0.0000000001
 43
0.0000000001
 40
0.0
 40
0.0
 40
0.0
 40
0.0
 40
1.0
 40
1.0
 40
1.0
 40
2.0
 40
2.0
 40
2.0
 40
2.0
 10
27.29066840277778
 20
71.22166476779513
 30
0.0
 10
27.16647271050347
 20
73.71281331380207
 30
0.0
 10
26.91704779730902
 20
75.14528401692708
 30
0.0
 10
27.53992106119792
 20
76.51539849175346
 30
0.0
 10
28.1626220703125
 20
77.88551296657985
 30
0.0
 10
28.59894341362847
 20
80.81281060112846
 30
0.0
 10
29.03474799262153
 20
81.56022406684028
 30
0.0
  0
SPLINE
  5
E8
330
A
100
AcDbEntity
  8
LAYER_1
 62
     7
100
AcDbSpline
210
0.0
220
0.0
230
1.0
 70
     8
 71
     3
 72
    14
 73
    10
 74
     0
 42
0.0000000001
 43
0.0000000001
 40
0.0
 40
0.0
 40
0.0
 40
0.0
 40
1.0
 40
1.0
 40
1.0
 40
2.0
 40
2.0
 40
2.0
 40
3.0
 40
3.0
 40
3.0
 40
3.0
 10
29.15928819444444
 20
93.82924262152777
 30
0.0
 10
28.66112738715277
 20
91.77389865451389
 30
0.0
 10
29.09693196614583
 20
92.14734700520833
 30
0.0
 10
28.22497829861111
 20
88.22390001085068
 30
0.0
 10
27.35285237630208
 20
84.30045301649305
 30
0.0
 10
27.16647271050347
 20
81.68476426866319
 30
0.0
 10
26.85486382378472
 20
79.38033989800347
 30
0.0
 10
26.54359944661458
 20
77.07626003689235
 30
0.0
 10
25.54693332248264
 20
73.27700873480902
 30
0.0
 10
25.54693332248264
 20
72.21833089192708
 30
0.0
  0
SPLINE
  5
E7
330
A
100
AcDbEntity
  8
LAYER_1
 62
     7
100
AcDbSpline
210
0.0
220
0.0
230
1.0
 70
     8
 71
     3
 72
    17
 73
    13
 74
     0
 42
0.0000000001
 43
0.0000000001
 40
0.0
 40
0.0
 40
0.0
 40
0.0
 40
1.0
 40
1.0
 40
1.0
 40
2.0
 40
2.0
 40
2.0
 40
3.0
 40
3.0
 40
3.0
 40
4.0
 40
4.0
 40
4.0
 40
4.0
 10
23.74101426866319
 20
72.52959526909721
 30
0.0
 10
24.17681884765625
 20
74.83401963975693
 30
0.0
 10
23.55411783854166
 20
75.02108832465277
 30
0.0
 10
24.36371527777778
 20
78.44637451171874
 30
0.0
 10
25.17348497178819
 20
81.8713161892361
 30
0.0
 10
25.17348497178819
 20
85.73292371961804
 30
0.0
 10
25.9208984375
 20
88.59734836154513
 30
0.0
 10
26.6683119032118
 20
91.46228976779513
 30
0.0
 10
26.7301513671875
 20
95.07464463975694
 30
0.0
 10
27.29066840277778
 20
96.38257514105902
 30
0.0
 10
27.85152994791666
 20
97.69033338758679
 30
0.0
 10
28.78532307942708
 20
101.8630330403646
 30
0.0
 10
29.03474799262153
 20
104.0429172092014
 30
0.0
  0
SPLINE
  5
E6
330
A
100
AcDbEntity
  8
LAYER_1
 62
     7
100
AcDbSpline
210
0.0
220
0.0
230
1.0
 70
     8
 71
     3
 72
    17
 73
    13
 74
     0
 42
0.0000000001
 43
0.0000000001
 40
0.0
 40
0.0
 40
0.0
 40
0.0
 40
1.0
 40
1.0
 40
1.0
 40
2.0
 40
2.0
 40
2.0
 40
3.0
 40
3.0
 40
3.0
 40
4.0
 40
4.0
 40
4.0
 40
4.0
 10
27.72681749131944
 20
115.1283732096354
 30
0.0
 10
27.4775648328993
 20
112.3879720052083
 30
0.0
 10
27.72681749131944
 20
111.7652709960937
 30
0.0
 10
27.10411648220486
 20
107.9665364583333
 30
0.0
 10
26.48141547309028
 20
104.1676296657986
 30
0.0
 10
25.85854220920139
 20
100.8663669162326
 30
0.0
 10
25.42239312065972
 20
97.69033338758679
 30
0.0
 10
24.98658854166666
 20
94.51429985894096
 30
0.0
 10
25.11112874348958
 20
93.01947292751736
 30
0.0
 10
24.488427734375
 20
89.7187269422743
 30
0.0
 10
23.86572672526042
 20
86.41798095703125
 30
0.0
 10
23.36704915364583
 20
82.36982150607638
 30
0.0
 10
22.99360080295139
 20
80.50154622395833
 30
0.0
  0
SPLINE
  5
E5
330
A
100
AcDbEntity
  8
LAYER_1
 62
     7
100
AcDbSpline
210
0.0
220
0.0
230
1.0
 70
     8
 71
     3
 72
    20
 73
    16
 74
     0
 42
0.0000000001
 43
0.0000000001
 40
0.0
 40
0.0
 40
0.0
 40
0.0
 40
1.0
 40
1.0
 40
1.0
 40
2.0
 40
2.0
 40
2.0
 40
3.0
 40
3.0
 40
3.0
 40
4.0
 40
4.0
 40
4.0
 40
5.0
 40
5.0
 40
5.0
 40
5.0
 10
26.23199055989583
 20
115.75107421875
 30
0.0
 10
25.67164577907986
 20
113.8827989366319
 30
0.0
 10
25.67164577907986
 20
115.0036607530382
 30
0.0
 10
25.36055365668403
 20
112.4503282335069
 30
0.0
 10
25.04894476996527
 20
109.8969957139757
 30
0.0
 10
24.42607150607639
 20
108.3399848090278
 30
0.0
 10
24.42607150607639
 20
106.9075141059028
 30
0.0
 10
24.42607150607639
 20
105.4750434027778
 30
0.0
 10
24.05210639105903
 20
103.3578599717882
 30
0.0
 10
23.99026692708333
 20
101.4268839518229
 30
0.0
 10
23.92808295355903
 20
99.49625244140624
 30
0.0
 10
23.74101426866319
 20
96.44475911458332
 30
0.0
 10
23.55411783854166
 20
94.82539198133679
 30
0.0
 10
23.36704915364583
 20
93.20636935763888
 30
0.0
 10
23.36704915364583
 20
90.15453152126736
 30
0.0
 10
22.74434814453125
 20
88.90895724826387
 30
0.0
  0
SPLINE
  5
E4
330
A
100
AcDbEntity
  8
LAYER_1
 62
     7
100
AcDbSpline
210
0.0
220
0.0
230
1.0
 70
     8
 71
     3
 72
    11
 73
     7
 74
     0
 42
0.0000000001
 43
0.0000000001
 40
0.0
 40
0.0
 40
0.0
 40
0.0
 40
1.0
 40
1.0
 40
1.0
 40
2.0
 40
2.0
 40
2.0
 40
2.0
 10
24.488427734375
 20
116.623200141059
 30
0.0
 10
23.61647406684028
 20
114.8171088324653
 30
0.0
 10
23.61647406684028
 20
116.9966484917535
 30
0.0
 10
23.67865804036458
 20
113.758258734809
 30
0.0
 10
23.74101426866319
 20
110.5196967230903
 30
0.0
 10
23.30486518012152
 20
109.2119384765625
 30
0.0
 10
22.62015245225694
 20
107.0320543077257
 30
0.0
  0
SPLINE
  5
E3
330
A
100
AcDbEntity
  8
LAYER_1
 62
     7
100
AcDbSpline
210
0.0
220
0.0
230
1.0
 70
     8
 71
     3
 72
    23
 73
    19
 74
     0
 42
0.0000000001
 43
0.0000000001
 40
0.0
 40
0.0
 40
0.0
 40
0.0
 40
1.0
 40
1.0
 40
1.0
 40
2.0
 40
2.0
 40
2.0
 40
3.0
 40
3.0
 40
3.0
 40
4.0
 40
4.0
 40
4.0
 40
5.0
 40
5.0
 40
5.0
 40
6.0
 40
6.0
 40
6.0
 40
6.0
 10
29.28400065104167
 20
101.24033203125
 30
0.0
 10
30.21779378255208
 20
99.80786132812499
 30
0.0
 10
30.09359809027778
 20
99.99493001302082
 30
0.0
 10
30.09359809027778
 20
98.43774685329861
 30
0.0
 10
30.09359809027778
 20
96.88056369357638
 30
0.0
 10
30.03141411675347
 20
92.89476047092013
 30
0.0
 10
30.3425062391493
 20
91.58700222439235
 30
0.0
 10
30.65411512586805
 20
90.27924397786458
 30
0.0
 10
30.77831081814236
 20
89.59401448567708
 30
0.0
 10
31.0275634765625
 20
87.35194634331596
 30
0.0
 10
31.27681613498264
 20
85.11022271050346
 30
0.0
 10
31.0275634765625
 20
83.36614312065971
 30
0.0
 10
30.96520724826389
 20
81.24861518012152
 30
0.0
 10
30.90285101996528
 20
79.13108723958332
 30
0.0
 10
31.0275634765625
 20
78.75746663411458
 30
0.0
 10
31.08991970486111
 20
76.57775472005207
 30
0.0
 10
31.15227593315972
 20
74.39821506076389
 30
0.0
 10
31.08991970486111
 20
70.9105726453993
 30
0.0
 10
31.21445990668402
 20
69.35338948567707
 30
0.0
  0
SPLINE
  5
E2
330
A
100
AcDbEntity
  8
LAYER_1
 62
     7
100
AcDbSpline
210
0.0
220
0.0
230
1.0
 70
     8
 71
     3
 72
    26
 73
    22
 74
     0
 42
0.0000000001
 43
0.0000000001
 40
0.0
 40
0.0
 40
0.0
 40
0.0
 40
1.0
 40
1.0
 40
1.0
 40
2.0
 40
2.0
 40
2.0
 40
3.0
 40
3.0
 40
3.0
 40
4.0
 40
4.0
 40
4.0
 40
5.0
 40
5.0
 40
5.0
 40
6.0
 40
6.0
 40
6.0
 40
7.0
 40
7.0
 40
7.0
 40
7.0
 10
32.77112630208333
 20
68.35724012586805
 30
0.0
 10
33.02055121527778
 20
71.53327365451388
 30
0.0
 10
33.51853976779513
 20
74.02442220052083
 30
0.0
 10
33.08273518880208
 20
76.14195014105903
 30
0.0
 10
32.64693060980903
 20
78.25947808159721
 30
0.0
 10
32.21078152126736
 20
85.4213148328993
 30
0.0
 10
31.96187337239583
 20
87.22723388671874
 30
0.0
 10
31.71262071397569
 20
89.0336697048611
 30
0.0
 10
31.83733317057292
 20
93.70453016493055
 30
0.0
 10
31.65026448567708
 20
94.45194363064235
 30
0.0
 10
31.46388481987847
 20
95.19935709635416
 30
0.0
 10
31.0275634765625
 20
100.4305623372396
 30
0.0
 10
30.96520724826389
 20
101.4892401801215
 30
0.0
 10
30.90285101996528
 20
102.5482625325521
 30
0.0
 10
30.28015001085069
 20
104.0429172092014
 30
0.0
 10
30.15560980902778
 20
105.9111924913194
 30
0.0
 10
30.03141411675347
 20
107.7794677734375
 30
0.0
 10
30.21779378255208
 20
109.025042046441
 30
0.0
 10
29.90670166015625
 20
110.457512749566
 30
0.0
 10
29.5950927734375
 20
111.889983452691
 30
0.0
 10
29.15928819444444
 20
112.9484890407986
 30
0.0
 10
29.15928819444444
 20
112.9484890407986
 30
0.0
  0
SPLINE
  5
E1
330
A
100
AcDbEntity
  8
LAYER_1
 62
     7
100
AcDbSpline
210
0.0
220
0.0
230
1.0
 70
     8
 71
     3
 72
    35
 73
    31
 74
     0
 42
0.0000000001
 43
0.0000000001
 40
0.0
 40
0.0
 40
0.0
 40
0.0
 40
1.0
 40
1.0
 40
1.0
 40
2.0
 40
2.0
 40
2.0
 40
3.0
 40
3.0
 40
3.0
 40
4.0
 40
4.0
 40
4.0
 40
5.0
 40
5.0
 40
5.0
 40
6.0
 40
6.0
 40
6.0
 40
7.0
 40
7.0
 40
7.0
 40
8.0
 40
8.0
 40
8.0
 40
9.0
 40
9.0
 40
9.0
 40
10.0
 40
10.0
 40
10.0
 40
10.0
 10
30.77831081814236
 20
113.6335462782118
 30
0.0
 10
30.90285101996528
 20
111.9521674262153
 30
0.0
 10
30.71647135416666
 20
112.8242933485243
 30
0.0
 10
31.27681613498264
 20
110.7691216362847
 30
0.0
 10
31.83733317057292
 20
108.7137776692708
 30
0.0
 10
32.33532172309027
 20
106.8456746419271
 30
0.0
 10
32.4600341796875
 20
104.7279744466146
 30
0.0
 10
32.58474663628472
 20
102.6104465060764
 30
0.0
 10
32.83348253038194
 20
101.8008490668403
 30
0.0
 10
33.14509141710069
 20
100.1194702148437
 30
0.0
 10
33.45670030381944
 20
98.43774685329861
 30
0.0
 10
33.8925048828125
 20
97.19217258029514
 30
0.0
 10
33.76779242621527
 20
95.19935709635416
 30
0.0
 10
33.64325222439236
 20
93.20636935763888
 30
0.0
 10
33.20744764539931
 20
91.77389865451389
 30
0.0
 10
34.07940131293402
 20
89.7187269422743
 30
0.0
 10
34.95101047092014
 20
87.66355523003472
 30
0.0
 10
34.26595323350694
 20
87.72591145833333
 30
0.0
 10
34.26595323350694
 20
85.91947564019097
 30
0.0
 10
34.26595323350694
 20
84.11355658637152
 30
0.0
 10
34.45302191840278
 20
83.05487874348958
 30
0.0
 10
34.6399183485243
 20
81.31079915364583
 30
0.0
 10
34.82647026909722
 20
79.56723632812499
 30
0.0
 10
34.6399183485243
 20
77.32499593098957
 30
0.0
 10
34.6399183485243
 20
75.20746799045138
 30
0.0
 10
34.6399183485243
 20
73.08994004991318
 30
0.0
 10
35.26261935763888
 20
72.40488281249999
 30
0.0
 10
35.32497558593749
 20
70.72367621527778
 30
0.0
 10
35.38733181423611
 20
69.04178059895833
 30
0.0
 10
35.20026312934027
 20
67.98327501085069
 30
0.0
 10
35.13807915581597
 20
67.36057400173611
 30
0.0
  0
SPLINE
  5
E0
330
A
100
AcDbEntity
  8
LAYER_1
 62
     7
100
AcDbSpline
210
0.0
220
0.0
230
1.0
 70
     8
 71
     3
 72
    23
 73
    19
 74
     0
 42
0.0000000001
 43
0.0000000001
 40
0.0
 40
0.0
 40
0.0
 40
0.0
 40
1.0
 40
1.0
 40
1.0
 40
2.0
 40
2.0
 40
2.0
 40
3.0
 40
3.0
 40
3.0
 40
4.0
 40
4.0
 40
4.0
 40
5.0
 40
5.0
 40
5.0
 40
6.0
 40
6.0
 40
6.0
 40
6.0
 10
32.83348253038194
 20
112.7619371202257
 30
0.0
 10
33.33216010199652
 20
111.1425699869792
 30
0.0
 10
33.76779242621527
 20
110.3951565212674
 30
0.0
 10
33.64325222439236
 20
108.9626858181424
 30
0.0
 10
33.51853976779513
 20
107.5302151150174
 30
0.0
 10
33.51853976779513
 20
105.7242960611979
 30
0.0
 10
33.76779242621527
 20
104.4787217881944
 30
0.0
 10
34.01721733940972
 20
103.2333197699653
 30
0.0
 10
34.45302191840278
 20
101.3650444878472
 30
0.0
 10
34.51520589192708
 20
100.1194702148437
 30
0.0
 10
34.57756212022569
 20
98.87355143229166
 30
0.0
 10
34.82647026909722
 20
96.50711534288193
 30
0.0
 10
34.82647026909722
 20
95.88441433376735
 30
0.0
 10
34.82647026909722
 20
95.26171332465277
 30
0.0
 10
35.13807915581597
 20
94.26504720052083
 30
0.0
 10
35.20026312934027
 20
92.5836683485243
 30
0.0
 10
35.26261935763888
 20
90.90194498697916
 30
0.0
 10
34.95101047092014
 20
89.53183051215277
 30
0.0
 10
35.57388373480902
 20
87.60119900173611
 30
0.0
  0
SPLINE
  5
DF
330
A
100
AcDbEntity
  8
LAYER_1
 62
     7
100
AcDbSpline
210
0.0
220
0.0
230
1.0
 70
     8
 71
     3
 72
    11
 73
     7
 74
     0
 42
0.0000000001
 43
0.0000000001
 40
0.0
 40
0.0
 40
0.0
 40
0.0
 40
1.0
 40
1.0
 40
1.0
 40
2.0
 40
2.0
 40
2.0
 40
2.0
 10
34.57756212022569
 20
111.9521674262153
 30
0.0
 10
34.57756212022569
 20
110.3328002929687
 30
0.0
 10
34.14175754123264
 20
111.0178575303819
 30
0.0
 10
34.82647026909722
 20
110.1462483723958
 30
0.0
 10
35.51187201605902
 20
109.2742947048611
 30
0.0
 10
35.51187201605902
 20
109.1495822482639
 30
0.0
 10
35.69842393663194
 20
107.1567667643229
 30
0.0
  0
SPLINE
  5
DE
330
A
100
AcDbEntity
  8
LAYER_1
 62
     7
100
AcDbSpline
210
0.0
220
0.0
230
1.0
 70
     8
 71
     3
 72
    11
 73
     7
 74
     0
 42
0.0000000001
 43
0.0000000001
 40
0.0
 40
0.0
 40
0.0
 40
0.0
 40
1.0
 40
1.0
 40
1.0
 40
2.0
 40
2.0
 40
2.0
 40
2.0
 10
41.92646755642361
 20
76.26649034288194
 30
0.0
 10
41.42830674913194
 20
73.02810058593749
 30
0.0
 10
41.24141031901041
 20
73.837353515625
 30
0.0
 10
41.24141031901041
 20
71.53327365451388
 30
0.0
 10
41.24141031901041
 20
69.22884928385416
 30
0.0
 10
40.92980143229166
 20
65.36758626302083
 30
0.0
 10
40.99215766059027
 20
64.30873616536458
 30
0.0
  0
SPLINE
  5
DD
330
A
100
AcDbEntity
  8
LAYER_1
 62
     7
100
AcDbSpline
210
0.0
220
0.0
230
1.0
 70
     8
 71
     3
 72
    23
 73
    19
 74
     0
 42
0.0000000001
 43
0.0000000001
 40
0.0
 40
0.0
 40
0.0
 40
0.0
 40
1.0
 40
1.0
 40
1.0
 40
2.0
 40
2.0
 40
2.0
 40
3.0
 40
3.0
 40
3.0
 40
4.0
 40
4.0
 40
4.0
 40
5.0
 40
5.0
 40
5.0
 40
6.0
 40
6.0
 40
6.0
 40
6.0
 10
39.37313503689236
 20
65.11833360460069
 30
0.0
 10
39.55968695746527
 20
67.79637858072915
 30
0.0
 10
39.24842258029513
 20
69.97626274956596
 30
0.0
 10
39.62187093098958
 20
70.97292887369791
 30
0.0
 10
39.99583604600694
 20
71.96907823350693
 30
0.0
 10
40.43164062499999
 20
73.89970974392361
 30
0.0
 10
40.43164062499999
 20
76.51539849175346
 30
0.0
 10
40.43164062499999
 20
79.13108723958332
 30
0.0
 10
40.55635308159722
 20
80.93735080295139
 30
0.0
 10
40.86744520399305
 20
83.05487874348958
 30
0.0
 10
41.1790540907118
 20
85.17257893880208
 30
0.0
 10
41.49066297743055
 20
87.41430257161457
 30
0.0
 10
41.36595052083333
 20
88.78441704644096
 30
0.0
 10
41.24141031901041
 20
90.15453152126736
 30
0.0
 10
41.30376654730902
 20
97.0052761501736
 30
0.0
 10
41.42830674913194
 20
97.44108072916666
 30
0.0
 10
41.55301920572916
 20
97.87722981770833
 30
0.0
 10
42.11336398654514
 20
102.7351589626736
 30
0.0
 10
42.17572021484374
 20
103.7313083224826
 30
0.0
  0
SPLINE
  5
DC
330
A
100
AcDbEntity
  8
LAYER_1
 62
     7
100
AcDbSpline
210
0.0
220
0.0
230
1.0
 70
     8
 71
     3
 72
    23
 73
    19
 74
     0
 42
0.0000000001
 43
0.0000000001
 40
0.0
 40
0.0
 40
0.0
 40
0.0
 40
1.0
 40
1.0
 40
1.0
 40
2.0
 40
2.0
 40
2.0
 40
3.0
 40
3.0
 40
3.0
 40
4.0
 40
4.0
 40
4.0
 40
5.0
 40
5.0
 40
5.0
 40
6.0
 40
6.0
 40
6.0
 40
6.0
 10
41.05434163411458
 20
108.8384901258681
 30
0.0
 10
40.99215766059027
 20
107.7794677734375
 30
0.0
 10
40.86744520399305
 20
104.4787217881944
 30
0.0
 10
40.4939968532986
 20
102.5482625325521
 30
0.0
 10
40.12054850260417
 20
100.6176310221354
 30
0.0
 10
39.31077880859375
 20
100.679987250434
 30
0.0
 10
39.68422715928819
 20
97.7526896158854
 30
0.0
 10
40.05819227430555
 20
94.82539198133679
 30
0.0
 10
39.99583604600694
 20
90.65303683810762
 30
0.0
 10
39.62187093098958
 20
87.91280788845485
 30
0.0
 10
39.24842258029513
 20
85.17257893880208
 30
0.0
 10
39.99583604600694
 20
82.36982150607638
 30
0.0
 10
39.12388237847222
 20
80.31464979383679
 30
0.0
 10
38.25175645616319
 20
78.25947808159721
 30
0.0
 10
38.06520453559028
 20
77.01390380859374
 30
0.0
 10
38.25175645616319
 20
74.70947943793402
 30
0.0
 10
38.43882514105903
 20
72.40488281249999
 30
0.0
 10
37.38014729817708
 20
67.48528645833333
 30
0.0
 10
37.50434299045138
 20
66.30155164930555
 30
0.0
  0
SPLINE
  5
DB
330
A
100
AcDbEntity
  8
LAYER_1
 62
     7
100
AcDbSpline
210
0.0
220
0.0
230
1.0
 70
     8
 71
     3
 72
    23
 73
    19
 74
     0
 42
0.0000000001
 43
0.0000000001
 40
0.0
 40
0.0
 40
0.0
 40
0.0
 40
1.0
 40
1.0
 40
1.0
 40
2.0
 40
2.0
 40
2.0
 40
3.0
 40
3.0
 40
3.0
 40
4.0
 40
4.0
 40
4.0
 40
5.0
 40
5.0
 40
5.0
 40
6.0
 40
6.0
 40
6.0
 40
6.0
 10
39.62187093098958
 20
109.5853868272569
 30
0.0
 10
38.81261800130208
 20
108.0287204318576
 30
0.0
 10
38.75043402777777
 20
105.0392388237847
 30
0.0
 10
38.43882514105903
 20
103.3578599717882
 30
0.0
 10
38.12756076388889
 20
101.6761366102431
 30
0.0
 10
37.44250352647569
 20
96.19550645616319
 30
0.0
 10
37.44250352647569
 20
94.20269097222221
 30
0.0
 10
37.44250352647569
 20
92.20970323350694
 30
0.0
 10
37.25560709635416
 20
89.34476182725693
 30
0.0
 10
37.06853841145833
 20
87.04068196614583
 30
0.0
 10
36.88164198133681
 20
84.73625759548611
 30
0.0
 10
37.13089463975694
 20
80.50154622395833
 30
0.0
 10
36.81928575303819
 20
79.13108723958332
 30
0.0
 10
36.50819363064236
 20
77.76080050998263
 30
0.0
 10
36.32112494574653
 20
76.39120279947916
 30
0.0
 10
36.38348117404514
 20
74.5847669813368
 30
0.0
 10
36.44583740234375
 20
72.77884792751736
 30
0.0
 10
36.38348117404514
 20
71.22166476779513
 30
0.0
 10
35.94767659505208
 20
70.22499864366318
 30
0.0
  0
SPLINE
  5
DA
330
A
100
AcDbEntity
  8
LAYER_1
 62
     7
100
AcDbSpline
210
0.0
220
0.0
230
1.0
 70
     8
 71
     3
 72
    14
 73
    10
 74
     0
 42
0.0000000001
 43
0.0000000001
 40
0.0
 40
0.0
 40
0.0
 40
0.0
 40
1.0
 40
1.0
 40
1.0
 40
2.0
 40
2.0
 40
2.0
 40
3.0
 40
3.0
 40
3.0
 40
3.0
 10
37.81595187717014
 20
110.3951565212674
 30
0.0
 10
37.25560709635416
 20
109.1495822482639
 30
0.0
 10
36.7574462890625
 20
109.5853868272569
 30
0.0
 10
36.88164198133681
 20
108.0910766601563
 30
0.0
 10
37.00635443793402
 20
106.5962497287326
 30
0.0
 10
36.94399820963541
 20
104.5410780164931
 30
0.0
 10
36.69509006076389
 20
103.6691243489583
 30
0.0
 10
36.44583740234375
 20
102.7975151909722
 30
0.0
 10
36.44583740234375
 20
100.8041829427083
 30
0.0
 10
36.01003282335069
 20
99.62096489800346
 30
0.0
  0
SPLINE
  5
D9
330
A
100
AcDbEntity
  8
LAYER_1
 62
     7
100
AcDbSpline
210
0.0
220
0.0
230
1.0
 70
     8
 71
     3
 72
    26
 73
    22
 74
     0
 42
0.0000000001
 43
0.0000000001
 40
0.0
 40
0.0
 40
0.0
 40
0.0
 40
1.0
 40
1.0
 40
1.0
 40
2.0
 40
2.0
 40
2.0
 40
3.0
 40
3.0
 40
3.0
 40
4.0
 40
4.0
 40
4.0
 40
5.0
 40
5.0
 40
5.0
 40
6.0
 40
6.0
 40
6.0
 40
7.0
 40
7.0
 40
7.0
 40
7.0
 10
42.36227213541666
 20
107.0320543077257
 30
0.0
 10
43.29658203125
 20
104.8521701388889
 30
0.0
 10
43.35893825954861
 20
103.9183770073785
 30
0.0
 10
43.54549018012153
 20
101.5514241536458
 30
0.0
 10
43.73238661024305
 20
99.18516031901041
 30
0.0
 10
43.91928304036458
 20
95.57280544704861
 30
0.0
 10
43.98163926866319
 20
93.57981770833332
 30
0.0
 10
44.0439954969618
 20
91.58700222439235
 30
0.0
 10
43.54549018012153
 20
89.09602593315971
 30
0.0
 10
43.85709906684028
 20
87.10303819444444
 30
0.0
 10
44.16870795355902
 20
85.11022271050346
 30
0.0
 10
44.16870795355902
 20
82.99269476996527
 30
0.0
 10
44.16870795355902
 20
81.06206325954861
 30
0.0
 10
44.16870795355902
 20
79.13108723958332
 30
0.0
 10
43.98163926866319
 20
77.76080050998263
 30
0.0
 10
43.98163926866319
 20
75.89252522786458
 30
0.0
 10
43.98163926866319
 20
74.02442220052083
 30
0.0
 10
43.85709906684028
 20
69.85155029296874
 30
0.0
 10
43.54549018012153
 20
68.10798746744791
 30
0.0
 10
43.23422580295139
 20
66.36390787760416
 30
0.0
 10
43.60767415364583
 20
64.93195393880208
 30
0.0
 10
43.42129448784722
 20
63.06316189236111
 30
0.0
  0
SPLINE
  5
D8
330
A
100
AcDbEntity
  8
LAYER_1
 62
     7
100
AcDbSpline
210
0.0
220
0.0
230
1.0
 70
     8
 71
     3
 72
    23
 73
    19
 74
     0
 42
0.0000000001
 43
0.0000000001
 40
0.0
 40
0.0
 40
0.0
 40
0.0
 40
1.0
 40
1.0
 40
1.0
 40
2.0
 40
2.0
 40
2.0
 40
3.0
 40
3.0
 40
3.0
 40
4.0
 40
4.0
 40
4.0
 40
5.0
 40
5.0
 40
5.0
 40
6.0
 40
6.0
 40
6.0
 40
6.0
 10
45.16485731336805
 20
62.00465630425347
 30
0.0
 10
45.35175374348958
 20
63.7482191297743
 30
0.0
 10
44.60434027777777
 20
65.11833360460069
 30
0.0
 10
45.28956976996528
 20
68.17034369574652
 30
0.0
 10
45.97462700737847
 20
71.22166476779513
 30
0.0
 10
45.78755832248263
 20
71.7198255750868
 30
0.0
 10
45.78755832248263
 20
74.64712320963541
 30
0.0
 10
45.78755832248263
 20
77.57442084418402
 30
0.0
 10
45.35175374348958
 20
80.3770060221354
 30
0.0
 10
45.53882242838542
 20
83.67775200737846
 30
0.0
 10
45.72520209418403
 20
86.97849799262151
 30
0.0
 10
45.84991455078124
 20
91.40010579427083
 30
0.0
 10
45.72520209418403
 20
93.45527750651041
 30
0.0
 10
45.60117865668403
 20
95.51044921875
 30
0.0
 10
44.66669650607638
 20
97.25452880859375
 30
0.0
 10
44.85376519097222
 20
99.49625244140624
 30
0.0
 10
45.04014485677083
 20
101.7384928385417
 30
0.0
 10
43.79474283854167
 20
106.8456746419271
 30
0.0
 10
43.79474283854167
 20
107.6549275716146
 30
0.0
  0
SPLINE
  5
D7
330
A
100
AcDbEntity
  8
LAYER_1
 62
     7
100
AcDbSpline
210
0.0
220
0.0
230
1.0
 70
     8
 71
     3
 72
    23
 73
    19
 74
     0
 42
0.0000000001
 43
0.0000000001
 40
0.0
 40
0.0
 40
0.0
 40
0.0
 40
1.0
 40
1.0
 40
1.0
 40
2.0
 40
2.0
 40
2.0
 40
3.0
 40
3.0
 40
3.0
 40
4.0
 40
4.0
 40
4.0
 40
5.0
 40
5.0
 40
5.0
 40
6.0
 40
6.0
 40
6.0
 40
6.0
 10
45.72520209418403
 20
106.7833184136285
 30
0.0
 10
46.09916720920138
 20
105.2261352539062
 30
0.0
 10
46.65968424479166
 20
104.6034342447917
 30
0.0
 10
46.72204047309027
 20
102.8593546549479
 30
0.0
 10
46.78422444661458
 20
101.1157918294271
 30
0.0
 10
47.22002902560764
 20
99.18516031901041
 30
0.0
 10
47.28238525390625
 20
97.50343695746527
 30
0.0
 10
47.34474148220486
 20
95.82205810546874
 30
0.0
 10
47.09548882378472
 20
93.95378282335069
 30
0.0
 10
47.59399414062499
 20
91.52464599609374
 30
0.0
 10
48.09215494791666
 20
89.09602593315971
 30
0.0
 10
47.53163791232638
 20
86.91614176432292
 30
0.0
 10
47.71870659722222
 20
84.92315402560763
 30
0.0
 10
47.90508626302083
 20
82.93033854166666
 30
0.0
 10
47.71870659722222
 20
78.50873074001736
 30
0.0
 10
47.71870659722222
 20
76.88936360677083
 30
0.0
 10
47.71870659722222
 20
75.26982421874999
 30
0.0
 10
47.22002902560764
 20
62.19155273437499
 30
0.0
 10
46.9089369032118
 20
61.19488661024305
 30
0.0
  0
LINE
  5
D6
330
A
100
AcDbEntity
  8
LAYER_1
 62
     7
100
AcDbLine
 10
48.65249972873264
 20
105.5372273763021
 30
0.0
 11
122.5778754340278
 21
142.157386610243
 31
0.0
  0
LWPOLYLINE
  5
D1
330
A
100
AcDbEntity
  8
LAYER_1
 62
     7
100
AcDbPolyline
 90
        3
 70
     0
 43
0.0
 10
29.09693196614583
 20
70.59896375868055
 10
29.28400065104167
 20
114.4433159722222
 10
102.6483425564236
 20
149.8179009331597
  0
LWPOLYLINE
  5
CC
330
A
100
AcDbEntity
  8
LAYER_1
 62
     7
100
AcDbPolyline
 90
        3
 70
     0
 43
0.0
 10
35.76078016493055
 20
67.42293023003472
 10
36.01003282335069
 20
111.2671101888021
 10
109.4990871853299
 20
147.1398559570312
  0
LWPOLYLINE
  5
C7
330
A
100
AcDbEntity
  8
LAYER_1
 62
     7
100
AcDbPolyline
 90
        3
 70
     0
 43
0.0
 10
42.11336398654514
 20
64.12218424479165
 10
42.36227213541666
 20
108.2776285807292
 10
115.6024183485243
 20
144.6488796657986
  0
LWPOLYLINE
  5
C1
330
A
100
AcDbEntity
  8
LAYER_1
 62
     7
100
AcDbPolyline
 90
        4
 70
     0
 43
0.0
 10
22.3708997938368
 20
117.7440619574653
 10
48.59014350043402
 20
105.4750434027778
 10
48.96376410590278
 20
60.0740247938368
 10
46.03681098090277
 20
61.56833496093749
  0
SPLINE
  5
C0
330
A
100
AcDbEntity
  8
LAYER_1
 62
     7
100
AcDbSpline
210
0.0
220
0.0
230
1.0
 70
     8
 71
     3
 72
    14
 73
    10
 74
     0
 42
0.0000000001
 43
0.0000000001
 40
0.0
 40
0.0
 40
0.0
 40
0.0
 40
1.0
 40
1.0
 40
1.0
 40
2.0
 40
2.0
 40
2.0
 40
3.0
 40
3.0
 40
3.0
 40
3.0
 10
72.87892795138889
 20
141.8462944878472
 30
0.0
 10
74.12450222439236
 20
142.5313517252604
 30
0.0
 10
75.99277750651041
 20
144.0880181206597
 30
0.0
 10
77.23869628906249
 20
144.8976155598958
 30
0.0
 10
78.48427056206596
 20
145.7073852539062
 30
0.0
 10
78.92007514105902
 20
145.8942816840278
 30
0.0
 10
80.2278333875868
 20
147.2022121853298
 30
0.0
 10
81.53559163411458
 20
148.5099704318576
 30
0.0
 10
82.09662543402777
 20
148.5723266601563
 30
0.0
 10
82.78116590711805
 20
148.8212348090278
 30
0.0
  0
SPLINE
  5
BF
330
A
100
AcDbEntity
  8
LAYER_1
 62
     7
100
AcDbSpline
210
0.0
220
0.0
230
1.0
 70
     8
 71
     3
 72
    20
 73
    16
 74
     0
 42
0.0000000001
 43
0.0000000001
 40
0.0
 40
0.0
 40
0.0
 40
0.0
 40
1.0
 40
1.0
 40
1.0
 40
2.0
 40
2.0
 40
2.0
 40
3.0
 40
3.0
 40
3.0
 40
4.0
 40
4.0
 40
4.0
 40
5.0
 40
5.0
 40
5.0
 40
5.0
 10
62.60289713541666
 20
136.9260091145833
 30
0.0
 10
64.47151692708333
 20
138.296295844184
 30
0.0
 10
65.28076985677083
 20
139.2924452039931
 30
0.0
 10
66.52686089409721
 20
140.1022148980035
 30
0.0
 10
67.77226291232638
 20
140.9118123372396
 30
0.0
 10
69.20473361545139
 20
141.72158203125
 30
0.0
 10
70.76140001085069
 20
143.2164089626736
 30
0.0
 10
72.31858317057291
 20
144.7112358940972
 30
0.0
 10
72.87892795138889
 20
145.2092244466146
 30
0.0
 10
74.06214599609375
 20
145.6450290256076
 30
0.0
 10
75.24588080512152
 20
146.0808336046007
 30
0.0
 10
77.11398383246527
 20
147.2645684136285
 30
0.0
 10
77.92375352647569
 20
147.887269422743
 30
0.0
 10
78.73300645616318
 20
148.5099704318576
 30
0.0
 10
80.41472981770832
 20
149.8179009331597
 30
0.0
 10
80.41472981770832
 20
149.8179009331597
 30
0.0
  0
SPLINE
  5
BE
330
A
100
AcDbEntity
  8
LAYER_1
 62
     7
100
AcDbSpline
210
0.0
220
0.0
230
1.0
 70
     8
 71
     3
 72
    23
 73
    19
 74
     0
 42
0.0000000001
 43
0.0000000001
 40
0.0
 40
0.0
 40
0.0
 40
0.0
 40
1.0
 40
1.0
 40
1.0
 40
2.0
 40
2.0
 40
2.0
 40
3.0
 40
3.0
 40
3.0
 40
4.0
 40
4.0
 40
4.0
 40
5.0
 40
5.0
 40
5.0
 40
6.0
 40
6.0
 40
6.0
 40
6.0
 10
52.88755560980902
 20
132.4422173394097
 30
0.0
 10
53.69732530381944
 20
133.0649183485243
 30
0.0
 10
54.25784233940972
 20
134.2481363932292
 30
0.0
 10
56.00140516493055
 20
135.2442857530382
 30
0.0
 10
57.7454847547743
 20
136.2409518771701
 30
0.0
 10
59.17743869357638
 20
137.2994574652778
 30
0.0
 10
60.98387451171875
 20
138.7942843967014
 30
0.0
 10
62.78979356553819
 20
140.289111328125
 30
0.0
 10
63.10140245225694
 20
140.9118123372396
 30
0.0
 10
64.28462049696179
 20
141.5968695746528
 30
0.0
 10
65.46783854166667
 20
142.2820990668403
 30
0.0
 10
66.90030924479166
 20
143.9638224283854
 30
0.0
 10
67.95881483289929
 20
144.150202094184
 30
0.0
 10
69.01783718532985
 20
144.3372707790799
 30
0.0
 10
70.76140001085069
 20
145.6450290256076
 30
0.0
 10
71.69570990668402
 20
146.4547987196181
 30
0.0
 10
72.62967529296874
 20
147.2645684136285
 30
0.0
 10
73.43944498697915
 20
148.3854302300347
 30
0.0
 10
73.6886976453993
 20
148.5099704318576
 30
0.0
  0
SPLINE
  5
BD
330
A
100
AcDbEntity
  8
LAYER_1
 62
     7
100
AcDbSpline
210
0.0
220
0.0
230
1.0
 70
     8
 71
     3
 72
    20
 73
    16
 74
     0
 42
0.0000000001
 43
0.0000000001
 40
0.0
 40
0.0
 40
0.0
 40
0.0
 40
1.0
 40
1.0
 40
1.0
 40
2.0
 40
2.0
 40
2.0
 40
3.0
 40
3.0
 40
3.0
 40
4.0
 40
4.0
 40
4.0
 40
5.0
 40
5.0
 40
5.0
 40
5.0
 10
50.5831312391493
 20
133.3760104709201
 30
0.0
 10
51.82870551215277
 20
134.2481363932292
 30
0.0
 10
52.94991183810763
 20
135.1200900607639
 30
0.0
 10
54.00841742621527
 20
135.99169921875
 30
0.0
 10
55.06709526909722
 20
136.863825141059
 30
0.0
 10
55.6897962782118
 20
137.7357788085938
 30
0.0
 10
56.99807128906249
 20
138.6079047309028
 30
0.0
 10
58.30582953559027
 20
139.4793416341146
 30
0.0
 10
59.17743869357638
 20
140.2267550998264
 30
0.0
 10
60.17410481770833
 20
140.6007202148437
 30
0.0
 10
61.17042643229166
 20
140.9741685655382
 30
0.0
 10
61.54439154730903
 20
141.5968695746528
 30
0.0
 10
62.60289713541666
 20
142.4689954969618
 30
0.0
 10
63.66191948784721
 20
143.3409491644965
 30
0.0
 10
64.59571261935763
 20
144.2749145507812
 30
0.0
 10
64.59571261935763
 20
144.2749145507812
 30
0.0
  0
SPLINE
  5
BC
330
A
100
AcDbEntity
  8
LAYER_1
 62
     7
100
AcDbSpline
210
0.0
220
0.0
230
1.0
 70
     8
 71
     3
 72
    17
 73
    13
 74
     0
 42
0.0000000001
 43
0.0000000001
 40
0.0
 40
0.0
 40
0.0
 40
0.0
 40
1.0
 40
1.0
 40
1.0
 40
2.0
 40
2.0
 40
2.0
 40
3.0
 40
3.0
 40
3.0
 40
4.0
 40
4.0
 40
4.0
 40
4.0
 10
48.02979871961805
 20
134.5597452799479
 30
0.0
 10
48.96376410590278
 20
135.431354437934
 30
0.0
 10
49.89807400173611
 20
135.7429633246528
 30
0.0
 10
50.5831312391493
 20
136.3656643337673
 30
0.0
 10
51.26818847656249
 20
136.9883653428819
 30
0.0
 10
51.89088948567708
 20
137.4865261501736
 30
0.0
 10
52.57594672309028
 20
137.4865261501736
 30
0.0
 10
53.26117621527777
 20
137.4865261501736
 30
0.0
 10
54.07077365451389
 20
138.7942843967014
 30
0.0
 10
54.56893446180555
 20
139.1058932834201
 30
0.0
 10
55.06709526909722
 20
139.4171576605903
 30
0.0
 10
56.25065782335069
 20
140.4760077582465
 30
0.0
 10
56.25065782335069
 20
140.4760077582465
 30
0.0
  0
LINE
  5
BB
330
A
100
AcDbEntity
  8
LAYER_1
 62
     7
100
AcDbLine
 10
45.66301812065972
 20
135.5558946397569
 30
0.0
 11
52.61280924479166
 21
132.1793565538195
 31
0.0
  0
LINE
  5
BA
330
A
100
AcDbEntity
  8
LAYER_1
 62
     7
100
AcDbLine
 10
45.78755832248263
 20
128.9921264648438
 30
0.0
 11
85.64610731336805
 21
147.7003729926215
 31
0.0
  0
LINE
  5
B9
330
A
100
AcDbEntity
  8
LAYER_1
 62
     7
100
AcDbLine
 10
101.0911593967014
 20
115.0660169813368
 30
0.0
 11
99.90794135199651
 21
115.8757866753472
 31
0.0
  0
LINE
  5
B8
330
A
100
AcDbEntity
  8
LAYER_1
 62
     7
100
AcDbLine
 10
101.9632853190104
 20
117.5575100368924
 30
0.0
 11
100.9047797309028
 21
118.1802110460069
 31
0.0
  0
LWPOLYLINE
  5
B0
330
A
100
AcDbEntity
  8
LAYER_1
 62
     7
100
AcDbPolyline
 90
        6
 70
     0
 43
0.0
 10
104.0808132595486
 20
117.8686021592882
 10
102.5236300998264
 20
118.8652682834201
 10
100.6553548177083
 20
118.2425672743055
 10
99.7834011501736
 20
115.8134304470486
 10
101.2158718532986
 20
114.5054999457465
 10
102.4612738715278
 20
113.6959025065104
  0
LWPOLYLINE
  5
A8
330
A
100
AcDbEntity
  8
LAYER_1
 62
     7
100
AcDbPolyline
 90
        6
 70
     1
 43
0.0
 10
104.9527669270833
 20
116.9348090277778
 10
103.8937445746528
 20
118.055670844184
 10
102.025641547309
 20
117.4327975802951
 10
101.153515625
 20
115.0036607530382
 10
102.585986328125
 20
113.6959025065104
 10
104.2677096896701
 20
114.4433159722222
  0
LINE
  5
A7
330
A
100
AcDbEntity
  8
LAYER_1
 62
     7
100
AcDbLine
 10
92.93265652126735
 20
110.3951565212674
 30
0.0
 11
91.74943847656249
 21
111.2049262152778
 31
0.0
  0
LINE
  5
A6
330
A
100
AcDbEntity
  8
LAYER_1
 62
     7
100
AcDbLine
 10
93.80461018880207
 20
112.8866495768229
 30
0.0
 11
92.74610460069444
 21
113.5093505859375
 31
0.0
  0
LWPOLYLINE
  5
9E
330
A
100
AcDbEntity
  8
LAYER_1
 62
     7
100
AcDbPolyline
 90
        6
 70
     0
 43
0.0
 10
95.92213812934027
 20
113.1977416992187
 10
94.36512722439235
 20
114.1944078233507
 10
92.49685194227429
 20
113.5717068142361
 10
91.62472601996527
 20
111.1425699869792
 10
93.05719672309027
 20
109.8346394856771
 10
94.30277099609374
 20
109.025042046441
  0
LWPOLYLINE
  5
96
330
A
100
AcDbEntity
  8
LAYER_1
 62
     7
100
AcDbPolyline
 90
        6
 70
     1
 43
0.0
 10
96.79426405164929
 20
112.263776312934
 10
95.73524169921875
 20
113.3846381293403
 10
93.86696641710068
 20
112.7619371202257
 10
92.99501274956596
 20
110.3328002929687
 10
94.42748345269096
 20
109.025042046441
 10
96.1092068142361
 20
109.7724555121528
  0
LINE
  5
95
330
A
100
AcDbEntity
  8
LAYER_1
 62
     7
100
AcDbLine
 10
93.24426540798611
 20
98.74935574001735
 30
0.0
 11
92.06104736328125
 21
99.55860866970485
 31
0.0
  0
LINE
  5
94
330
A
100
AcDbEntity
  8
LAYER_1
 62
     7
100
AcDbLine
 10
94.11621907552083
 20
101.24033203125
 30
0.0
 11
93.05719672309027
 21
101.8630330403646
 31
0.0
  0
LWPOLYLINE
  5
8C
330
A
100
AcDbEntity
  8
LAYER_1
 62
     7
100
AcDbPolyline
 90
        6
 70
     0
 43
0.0
 10
96.23374701605901
 20
101.5514241536458
 10
94.6767361111111
 20
102.5482625325521
 10
92.80846082899305
 20
101.9253892686632
 10
91.93633490668402
 20
99.49625244140624
 10
93.36880560980902
 20
98.18849419487846
 10
94.61437988281249
 20
97.37872450086805
  0
LWPOLYLINE
  5
84
330
A
100
AcDbEntity
  8
LAYER_1
 62
     7
100
AcDbPolyline
 90
        6
 70
     1
 43
0.0
 10
97.10535617404513
 20
100.6176310221354
 10
96.04685058593749
 20
101.7384928385417
 10
94.17857530381944
 20
101.1157918294271
 10
93.30662163628472
 20
98.68699951171874
 10
94.73909233940971
 20
97.37872450086805
 10
96.42029893663194
 20
98.12613796657985
  0
LINE
  5
83
330
A
100
AcDbEntity
  8
LAYER_1
 62
     7
100
AcDbLine
 10
101.2782280815972
 20
103.2333197699653
 30
0.0
 11
100.0950100368924
 21
104.0429172092014
 31
0.0
  0
LINE
  5
82
330
A
100
AcDbEntity
  8
LAYER_1
 62
     7
100
AcDbLine
 10
102.1501817491319
 20
105.7242960611979
 30
0.0
 11
101.0911593967014
 21
106.3469970703125
 31
0.0
  0
LWPOLYLINE
  5
7A
330
A
100
AcDbEntity
  8
LAYER_1
 62
     7
100
AcDbPolyline
 90
        6
 70
     0
 43
0.0
 10
104.2677096896701
 20
106.0359049479167
 10
102.7106987847222
 20
107.0320543077257
 10
100.8424235026042
 20
106.4093532986111
 10
99.97029758029512
 20
103.9807332356771
 10
101.4027682834201
 20
102.672802734375
 10
102.6483425564236
 20
101.8630330403646
  0
LWPOLYLINE
  5
72
330
A
100
AcDbEntity
  8
LAYER_1
 62
     7
100
AcDbPolyline
 90
        6
 70
     1
 43
0.0
 10
105.1393188476562
 20
105.1015950520833
 10
104.0808132595486
 20
106.2228013780382
 10
102.2125379774305
 20
105.5995836046007
 10
101.3404120551215
 20
103.1709635416667
 10
102.7728827582465
 20
101.8630330403646
 10
104.4542616102431
 20
102.6104465060764
  0
LINE
  5
71
330
A
100
AcDbEntity
  8
LAYER_1
 62
     7
100
AcDbLine
 10
101.153515625
 20
75.83034125434027
 30
0.0
 11
99.97029758029512
 21
76.63993869357638
 31
0.0
  0
LINE
  5
70
330
A
100
AcDbEntity
  8
LAYER_1
 62
     7
100
AcDbLine
 10
102.025641547309
 20
78.32183430989582
 30
0.0
 11
100.9669637044271
 21
78.94453531901041
 31
0.0
  0
LWPOLYLINE
  5
68
330
A
100
AcDbEntity
  8
LAYER_1
 62
     7
100
AcDbPolyline
 90
        6
 70
     0
 43
0.0
 10
104.1431694878472
 20
78.63292643229165
 10
102.585986328125
 20
79.6295925564236
 10
100.7177110460069
 20
79.00689154730902
 10
99.84575737847221
 20
76.57775472005207
 10
101.2782280815972
 20
75.26982421874999
 10
102.5236300998264
 20
74.4605712890625
  0
LWPOLYLINE
  5
60
330
A
100
AcDbEntity
  8
LAYER_1
 62
     7
100
AcDbPolyline
 90
        6
 70
     1
 43
0.0
 10
105.0151231553819
 20
77.69896104600694
 10
103.9561008029514
 20
78.81982286241319
 10
102.0878255208333
 20
78.1971218532986
 10
101.2158718532986
 20
75.76798502604166
 10
102.6483425564236
 20
74.4605712890625
 10
104.3300659179687
 20
75.20746799045138
  0
LINE
  5
5F
330
A
100
AcDbEntity
  8
LAYER_1
 62
     7
100
AcDbLine
 10
93.18190917968749
 20
71.09712456597222
 30
0.0
 11
91.99869113498264
 21
71.90672200520832
 31
0.0
  0
LINE
  5
5E
330
A
100
AcDbEntity
  8
LAYER_1
 62
     7
100
AcDbLine
 10
94.05403510199652
 20
73.58861762152777
 30
0.0
 11
92.99501274956596
 21
74.21131863064235
 31
0.0
  0
LWPOLYLINE
  5
56
330
A
100
AcDbEntity
  8
LAYER_1
 62
     7
100
AcDbPolyline
 90
        6
 70
     0
 43
0.0
 10
96.17156304253471
 20
73.89970974392361
 10
94.61437988281249
 20
74.89637586805554
 10
92.74610460069444
 20
74.27367485894096
 10
91.87415093315971
 20
71.84453803168402
 10
93.30662163628472
 20
70.53660753038194
 10
94.55202365451387
 20
69.72701009114583
  0
LWPOLYLINE
  5
4E
330
A
100
AcDbEntity
  8
LAYER_1
 62
     7
100
AcDbPolyline
 90
        6
 70
     1
 43
0.0
 10
97.04299994574652
 20
72.96574435763888
 10
95.98449435763888
 20
74.08660617404513
 10
94.11621907552083
 20
73.46390516493055
 10
93.24426540798611
 20
71.03476833767361
 10
94.6767361111111
 20
69.72701009114583
 10
96.35794270833333
 20
70.47425130208333
  0
LINE
  5
4D
330
A
100
AcDbEntity
  8
LAYER_1
 62
     7
100
AcDbLine
 10
93.68006998697916
 20
60.1982204861111
 30
0.0
 11
92.49685194227429
 21
61.00799018012152
 31
0.0
  0
LINE
  5
4C
330
A
100
AcDbEntity
  8
LAYER_1
 62
     7
100
AcDbLine
 10
94.55202365451387
 20
62.68971354166666
 30
0.0
 11
93.49300130208333
 21
63.31241455078124
 31
0.0
  0
LWPOLYLINE
  5
44
330
A
100
AcDbEntity
  8
LAYER_1
 62
     7
100
AcDbPolyline
 90
        6
 70
     0
 43
0.0
 10
96.66955159505207
 20
63.0008056640625
 10
95.11254069010415
 20
63.99747178819444
 10
93.24426540798611
 20
63.37477077907985
 10
92.37213948567708
 20
60.94563395182291
 10
93.80461018880207
 20
59.63770345052083
 10
95.05018446180554
 20
58.82845052083333
  0
LWPOLYLINE
  5
3C
330
A
100
AcDbEntity
  8
LAYER_1
 62
     7
100
AcDbPolyline
 90
        6
 70
     1
 43
0.0
 10
97.54167751736111
 20
62.06701253255208
 10
96.48265516493055
 20
63.18787434895832
 10
94.61437988281249
 20
62.56500108506944
 10
93.74242621527777
 20
60.13638102213541
 10
95.17489691840277
 20
58.82845052083333
 10
96.8566202799479
 20
59.57551947699653
  0
LINE
  5
3B
330
A
100
AcDbEntity
  8
LAYER_1
 62
     7
100
AcDbLine
 10
101.589836968316
 20
65.05597737630208
 30
0.0
 11
100.4061021592882
 21
65.86574707031249
 31
0.0
  0
LINE
  5
3A
330
A
100
AcDbEntity
  8
LAYER_1
 62
     7
100
AcDbLine
 10
102.4612738715278
 20
67.54747043185763
 30
0.0
 11
101.4027682834201
 21
68.17034369574652
 31
0.0
  0
LWPOLYLINE
  5
32
330
A
100
AcDbEntity
  8
LAYER_1
 62
     7
100
AcDbPolyline
 90
        6
 70
     0
 43
0.0
 10
104.5789740668403
 20
67.85873480902777
 10
103.0217909071181
 20
68.85540093315971
 10
101.153515625
 20
68.23252766927082
 10
100.2819064670139
 20
65.80339084201388
 10
101.7143771701389
 20
64.4956325954861
 10
102.9599514431424
 20
63.68586290147569
  0
LWPOLYLINE
  5
2A
330
A
100
AcDbEntity
  8
LAYER_1
 62
     7
100
AcDbPolyline
 90
        6
 70
     1
 43
0.0
 10
105.450927734375
 20
66.92476942274305
 10
104.3919053819444
 20
68.0456312391493
 10
102.5236300998264
 20
67.42293023003472
 10
101.6516764322917
 20
64.99379340277777
 10
103.0841471354167
 20
63.68586290147569
 10
104.7658704969618
 20
64.43327636718749
  0
LWPOLYLINE
  5
24
330
A
100
AcDbEntity
  8
LAYER_1
 62
     7
100
AcDbPolyline
 90
        4
 70
     0
 43
0.0
 10
106.0131673177083
 20
125.0397406684028
 10
89.76127387152776
 20
116.7649658203125
 10
88.5747829861111
 20
114.3241156684028
 10
88.63472764756943
 20
53.40380316840277
  0
LINE
  5
23
330
A
100
AcDbEntity
  8
LAYER_1
 62
     7
100
AcDbLine
 10
87.10131564670138
 20
114.9101264105903
 30
0.0
 11
88.5747829861111
 21
114.3241156684028
 31
0.0
  0
LINE
  5
22
330
A
100
AcDbEntity
  8
LAYER_1
 62
     7
100
AcDbLine
 10
88.34120551215277
 20
117.5812811957465
 30
0.0
 11
89.5826456705729
 21
116.7649658203125
 31
0.0
  0
ENDSEC
  0
SECTION
  2
OBJECTS
  0
DICTIONARY
  5
19
330
0
100
AcDbDictionary
281
     1
  3
ACAD_COLOR
350
15F
  3
ACAD_GROUP
350
1A
  3
ACAD_LAYOUT
350
12C
  3
ACAD_MATERIAL
350
161
  3
ACAD_MLINESTYLE
350
1B
  3
ACAD_PLOTSETTINGS
350
12D
  3
ACAD_PLOTSTYLENAME
350
12A
  3
ACDBHEADERROUNDTRIPXREC
350
15E
  0
DICTIONARY
  5
15F
102
{ACAD_REACTORS
330
19
102
}
330
19
100
AcDbDictionary
281
     1
  0
DICTIONARY
  5
1A
102
{ACAD_REACTORS
330
19
102
}
330
19
100
AcDbDictionary
281
     1
  0
DICTIONARY
  5
12C
102
{ACAD_REACTORS
330
19
102
}
330
19
100
AcDbDictionary
281
     1
  3
Layout1
350
12F
  3
Model
350
12E
  0
DICTIONARY
  5
161
102
{ACAD_REACTORS
330
19
102
}
330
19
100
AcDbDictionary
281
     1
  0
DICTIONARY
  5
1B
102
{ACAD_REACTORS
330
19
102
}
330
19
100
AcDbDictionary
281
     1
  3
STANDARD
350
1C
  0
DICTIONARY
  5
12D
102
{ACAD_REACTORS
330
19
102
}
330
19
100
AcDbDictionary
281
     1
  0
ACDBDICTIONARYWDFLT
  5
12A
102
{ACAD_REACTORS
330
19
102
}
330
19
100
AcDbDictionary
281
     1
  3
Normal
350
12B
100
AcDbDictionaryWithDefault
340
12B
  0
DICTIONARY
  5
15E
102
{ACAD_REACTORS
330
19
102
}
330
19
100
AcDbDictionary
281
     1
  3
COLORDICT
350
160
  3
MATERIALDICT
350
162
  0
LAYOUT
  5
12F
102
{ACAD_REACTORS
330
12C
102
}
102
{ACAD_XDICTIONARY
360
163
102
}
330
12C
100
AcDbPlotSettings
  1

  2
Support Center HP LaserJet 4
  4

  6

 40
0.0
 41
0.0
 42
0.0
 43
0.0
 44
0.0
 45
0.0
 46
0.0
 47
0.0
 48
0.0
 49
0.0
140
0.0
141
0.0
142
1.0
143
1.0
 70
   688
 72
     0
 73
     0
 74
     5
  7

 75
    16
147
1.0
148
0.0
149
0.0
100
AcDbLayout
  1
Layout1
 70
     0
 71
     1
 10
0.0
 20
0.0
 11
12.0
 21
9.0
 12
0.0
 22
0.0
 32
0.0
 14
1.000000000000000E+20
 24
1.000000000000000E+20
 34
1.000000000000000E+20
 15
-1.000000000000000E+20
 25
-1.000000000000000E+20
 35
-1.000000000000000E+20
146
0.0
 13
0.0
 23
0.0
 33
0.0
 16
1.0
 26
0.0
 36
0.0
 17
0.0
 27
1.0
 37
0.0
 76
     0
330
B
  0
LAYOUT
  5
12E
102
{ACAD_REACTORS
330
12C
102
}
102
{ACAD_XDICTIONARY
360
165
102
}
330
12C
100
AcDbPlotSettings
  1

  2
Support Center HP LaserJet 4
  4

  6

 40
0.0
 41
0.0
 42
0.0
 43
0.0
 44
0.0
 45
0.0
 46
0.0
 47
0.0
 48
0.0
 49
0.0
140
0.0
141
0.0
142
1.0
143
1.0
 70
  1712
 72
     0
 73
     0
 74
     0
  7

 75
     0
147
1.0
148
0.0
149
0.0
100
AcDbLayout
  1
Model
 70
     1
 71
     0
 10
0.0
 20
0.0
 11
12.0
 21
9.0
 12
0.0
 22
0.0
 32
0.0
 14
0.0
 24
0.0
 34
0.0
 15
0.0
 25
0.0
 35
0.0
146
0.0
 13
0.0
 23
0.0
 33
0.0
 16
1.0
 26
0.0
 36
0.0
 17
0.0
 27
1.0
 37
0.0
 76
     0
330
A
  0
MLINESTYLE
  5
1C
102
{ACAD_REACTORS
330
1B
102
}
330
1B
100
AcDbMlineStyle
  2
STANDARD
 70
     0
  3

 62
     0
 51
90.0000000000002
 52
90.0000000000002
 71
     2
 49
0.5
 62
   256
  6
BYLAYER
 49
-0.5
 62
   256
  6
BYLAYER
  0
ACDBPLACEHOLDER
  5
12B
102
{ACAD_REACTORS
330
12A
102
}
330
12A
  0
XRECORD
  5
160
102
{ACAD_REACTORS
330
15E
102
}
330
15E
100
AcDbXrecord
340
15F
  0
XRECORD
  5
162
102
{ACAD_REACTORS
330
15E
102
}
330
15E
100
AcDbXrecord
340
161
  0
DICTIONARY
  5
163
330
12F
100
AcDbDictionary
280
     1
281
     1
  3
ACAD_XREC_ROUNDTRIP
360
164
  0
DICTIONARY
  5
165
330
12E
100
AcDbDictionary
280
     1
281
     1
  3
ACAD_XREC_ROUNDTRIP
360
166
  0
XRECORD
  5
164
102
{ACAD_REACTORS
330
163
102
}
330
163
100
AcDbXrecord
102
SHADEPLOT
 70
     0
102
SHADEPLOTRESLEVEL
 70
     0
102
SHADEPLOTCUSTOMDPI
 70
     0
  0
XRECORD
  5
166
102
{ACAD_REACTORS
330
165
102
}
330
165
100
AcDbXrecord
102
SHADEPLOT
 70
     0
102
SHADEPLOTRESLEVEL
 70
     0
102
SHADEPLOTCUSTOMDPI
 70
     0
  0
ENDSEC
  0
EOF
