  0
SECTION
  2
HEADER
  9
$ACADVER
  1
AC1015
  9
$ACADMAINTVER
 70
     6
  9
$DWGCODEPAGE
  3
ISO8859-1
  9
$INSBASE
 10
0.0
 20
0.0
 30
0.0
  9
$EXTMIN
 10
5.0
 20
5.0
 30
0.0
  9
$EXTMAX
 10
185.0
 20
185.0
 30
0.0
  9
$LIMMIN
 10
0.0
 20
0.0
  9
$LIMMAX
 10
190.0
 20
190.0
  9
$ORTHOMODE
 70
     0
  9
$REGENMODE
 70
     1
  9
$FILLMODE
 70
     1
  9
$QTEXTMODE
 70
     0
  9
$MIRRTEXT
 70
     1
  9
$LTSCALE
 40
5.0
  9
$ATTMODE
 70
     1
  9
$TEXTSIZE
 40
5.0
  9
$TRACEWID
 40
0.05
  9
$TEXTSTYLE
  7
STANDARD
  9
$CLAYER
  8
0
  9
$CELTYPE
  6
ByLayer
  9
$CECOLOR
 62
   256
  9
$CELTSCALE
 40
1.0
  9
$DISPSILH
 70
     0
  9
$DIMSCALE
 40
1.0
  9
$DIMASZ
 40
0.18
  9
$DIMEXO
 40
0.0625
  9
$DIMDLI
 40
0.38
  9
$DIMRND
 40
0.0
  9
$DIMDLE
 40
0.0
  9
$DIMEXE
 40
0.18
  9
$DIMTP
 40
0.0
  9
$DIMTM
 40
0.0
  9
$DIMTXT
 40
0.18
  9
$DIMCEN
 40
0.09
  9
$DIMTSZ
 40
0.0
  9
$DIMTOL
 70
     0
  9
$DIMLIM
 70
     0
  9
$DIMTIH
 70
     1
  9
$DIMTOH
 70
     1
  9
$DIMSE1
 70
     0
  9
$DIMSE2
 70
     0
  9
$DIMTAD
 70
     0
  9
$DIMZIN
 70
     0
  9
$DIMBLK
  1

  9
$DIMASO
 70
     1
  9
$DIMSHO
 70
     1
  9
$DIMPOST
  1

  9
$DIMAPOST
  1

  9
$DIMALT
 70
     0
  9
$DIMALTD
 70
     2
  9
$DIMALTF
 40
25.4
  9
$DIMLFAC
 40
1.0
  9
$DIMTOFL
 70
     0
  9
$DIMTVP
 40
0.0
  9
$DIMTIX
 70
     0
  9
$DIMSOXD
 70
     0
  9
$DIMSAH
 70
     0
  9
$DIMBLK1
  1

  9
$DIMBLK2
  1

  9
$DIMSTYLE
  2
Standard
  9
$DIMCLRD
 70
     0
  9
$DIMCLRE
 70
     0
  9
$DIMCLRT
 70
     0
  9
$DIMTFAC
 40
1.0
  9
$DIMGAP
 40
0.09
  9
$DIMJUST
 70
     0
  9
$DIMSD1
 70
     0
  9
$DIMSD2
 70
     0
  9
$DIMTOLJ
 70
     1
  9
$DIMTZIN
 70
     0
  9
$DIMALTZ
 70
     0
  9
$DIMALTTZ
 70
     0
  9
$DIMUPT
 70
     0
  9
$DIMDEC
 70
     4
  9
$DIMTDEC
 70
     4
  9
$DIMALTU
 70
     2
  9
$DIMALTTD
 70
     2
  9
$DIMTXSTY
  7
STANDARD
  9
$DIMAUNIT
 70
     0
  9
$DIMADEC
 70
     0
  9
$DIMALTRND
 40
0.0
  9
$DIMAZIN
 70
     0
  9
$DIMDSEP
 70
    46
  9
$DIMATFIT
 70
     3
  9
$DIMFRAC
 70
     0
  9
$DIMLDRBLK
  1

  9
$DIMLUNIT
 70
     2
  9
$DIMLWD
 70
    -2
  9
$DIMLWE
 70
    -2
  9
$DIMTMOVE
 70
     0
  9
$LUNITS
 70
     2
  9
$LUPREC
 70
     4
  9
$SKETCHINC
 40
0.1
  9
$FILLETRAD
 40
0.0
  9
$AUNITS
 70
     0
  9
$AUPREC
 70
     0
  9
$MENU
  1
acad
  9
$ELEVATION
 40
0.0
  9
$PELEVATION
 40
0.0
  9
$THICKNESS
 40
0.0
  9
$LIMCHECK
 70
     0
  9
$CHAMFERA
 40
0.0
  9
$CHAMFERB
 40
0.0
  9
$CHAMFERC
 40
1.0
  9
$CHAMFERD
 40
0.0
  9
$SKPOLY
 70
     0
  9
$TDCREATE
 40
2453955.561135671
  9
$TDUCREATE
 40
2453955.894469005
  9
$TDUPDATE
 40
2453955.60280235
  9
$TDUUPDATE
 40
2453955.894469016
  9
$TDINDWG
 40
0.0000000116
  9
$TDUSRTIMER
 40
0.0000000116
  9
$USRTIMER
 70
     1
  9
$ANGBASE
 50
0.0
  9
$ANGDIR
 70
     0
  9
$PDMODE
 70
     0
  9
$PDSIZE
 40
0.0
  9
$PLINEWID
 40
0.0
  9
$SPLFRAME
 70
     0
  9
$SPLINETYPE
 70
     6
  9
$SPLINESEGS
 70
     8
  9
$HANDSEED
  5
823
  9
$SURFTAB1
 70
     6
  9
$SURFTAB2
 70
     6
  9
$SURFTYPE
 70
     6
  9
$SURFU
 70
     6
  9
$SURFV
 70
     6
  9
$UCSBASE
  2

  9
$UCSNAME
  2

  9
$UCSORG
 10
0.0
 20
0.0
 30
0.0
  9
$UCSXDIR
 10
1.0
 20
0.0
 30
0.0
  9
$UCSYDIR
 10
0.0
 20
1.0
 30
0.0
  9
$UCSORTHOREF
  2

  9
$UCSORTHOVIEW
 70
     0
  9
$UCSORGTOP
 10
0.0
 20
0.0
 30
0.0
  9
$UCSORGBOTTOM
 10
0.0
 20
0.0
 30
0.0
  9
$UCSORGLEFT
 10
0.0
 20
0.0
 30
0.0
  9
$UCSORGRIGHT
 10
0.0
 20
0.0
 30
0.0
  9
$UCSORGFRONT
 10
0.0
 20
0.0
 30
0.0
  9
$UCSORGBACK
 10
0.0
 20
0.0
 30
0.0
  9
$PUCSBASE
  2

  9
$PUCSNAME
  2

  9
$PUCSORG
 10
0.0
 20
0.0
 30
0.0
  9
$PUCSXDIR
 10
1.0
 20
0.0
 30
0.0
  9
$PUCSYDIR
 10
0.0
 20
1.0
 30
0.0
  9
$PUCSORTHOREF
  2

  9
$PUCSORTHOVIEW
 70
     0
  9
$PUCSORGTOP
 10
0.0
 20
0.0
 30
0.0
  9
$PUCSORGBOTTOM
 10
0.0
 20
0.0
 30
0.0
  9
$PUCSORGLEFT
 10
0.0
 20
0.0
 30
0.0
  9
$PUCSORGRIGHT
 10
0.0
 20
0.0
 30
0.0
  9
$PUCSORGFRONT
 10
0.0
 20
0.0
 30
0.0
  9
$PUCSORGBACK
 10
0.0
 20
0.0
 30
0.0
  9
$USERI1
 70
     0
  9
$USERI2
 70
     0
  9
$USERI3
 70
     0
  9
$USERI4
 70
     0
  9
$USERI5
 70
     0
  9
$USERR1
 40
0.0
  9
$USERR2
 40
0.0
  9
$USERR3
 40
0.0
  9
$USERR4
 40
0.0
  9
$USERR5
 40
0.0
  9
$WORLDVIEW
 70
     1
  9
$SHADEDGE
 70
     3
  9
$SHADEDIF
 70
    70
  9
$TILEMODE
 70
     1
  9
$MAXACTVP
 70
    16
  9
$PINSBASE
 10
0.0
 20
0.0
 30
0.0
  9
$PLIMCHECK
 70
     0
  9
$PEXTMIN
 10
1.000000000000000E+20
 20
1.000000000000000E+20
 30
1.000000000000000E+20
  9
$PEXTMAX
 10
-1.000000000000000E+20
 20
-1.000000000000000E+20
 30
-1.000000000000000E+20
  9
$PLIMMIN
 10
0.0
 20
0.0
  9
$PLIMMAX
 10
12.0
 20
9.0
  9
$UNITMODE
 70
     0
  9
$VISRETAIN
 70
     0
  9
$PLINEGEN
 70
     0
  9
$PSLTSCALE
 70
     1
  9
$TREEDEPTH
 70
  3020
  9
$CMLSTYLE
  2
Standard
  9
$CMLJUST
 70
     0
  9
$CMLSCALE
 40
1.0
  9
$PROXYGRAPHICS
 70
     1
  9
$MEASUREMENT
 70
     0
  9
$CELWEIGHT
370
    -1
  9
$ENDCAPS
280
     0
  9
$JOINSTYLE
280
     0
  9
$LWDISPLAY
290
     0
  9
$INSUNITS
 70
     1
  9
$HYPERLINKBASE
  1

  9
$STYLESHEET
  1

  9
$XEDIT
290
     1
  9
$CEPSNTYPE
380
     0
  9
$PSTYLEMODE
290
     0
  9
$FINGERPRINTGUID
  2
{FAEB1C30-E019-11D5-929B-00C0DF256EC4}
  9
$VERSIONGUID
  2
{FAEB1C32-E019-11D5-929B-00C0DF256EC4}
  9
$EXTNAMES
290
     1
  9
$PSVPSCALE
 40
0.0
  9
$OLESTARTUP
290
     0
  0
ENDSEC
  0
SECTION
  2
CLASSES
  0
CLASS
  1
ACDBDICTIONARYWDFLT
  2
AcDbDictionaryWithDefault
  3
AutoCAD 2000
 90
        0
280
     0
281
     0
  0
CLASS
  1
ACDBPLACEHOLDER
  2
AcDbPlaceHolder
  3
ObjectDBX Classes
 90
        0
280
     0
281
     0
  0
CLASS
  1
LAYOUT
  2
AcDbLayout
  3
ObjectDBX Classes
 90
        0
280
     0
281
     0
  0
ENDSEC
  0
SECTION
  2
TABLES
  0
TABLE
  2
VPORT
  5
8
330
0
100
AcDbSymbolTable
 70
     2
  0
VPORT
  5
1F
330
8
100
AcDbSymbolTableRecord
100
AcDbViewportTableRecord
  2
*ACTIVE
 70
     0
 10
0.0
 20
0.0
 11
1.0
 21
1.0
 12
138.0077519379845
 22
95.0
 13
0.0
 23
0.0
 14
1.0
 24
1.0
 15
0.0
 25
0.0
 16
0.0
 26
0.0
 36
1.0
 17
0.0
 27
0.0
 37
0.0
 40
190.0
 41
0.6883671291355389
 42
50.0
 43
0.0
 44
0.0
 50
0.0
 51
0.0
 71
     0
 72
   100
 73
     1
 74
     0
 75
     0
 76
     0
 77
     0
 78
     0
281
     0
 65
     1
110
0.0
120
0.0
130
0.0
111
1.0
121
0.0
131
0.0
112
0.0
122
1.0
132
0.0
 79
     0
146
0.0
  0
ENDTAB
  0
TABLE
  2
LTYPE
  5
5
330
0
100
AcDbSymbolTable
 70
     2
  0
LTYPE
  5
10
330
5
100
AcDbSymbolTableRecord
100
AcDbLinetypeTableRecord
  2
ByBlock
 70
     0
  3

 72
    65
 73
     0
 40
0.0
  0
LTYPE
  5
11
330
5
100
AcDbSymbolTableRecord
100
AcDbLinetypeTableRecord
  2
ByLayer
 70
     0
  3

 72
    65
 73
     0
 40
0.0
  0
LTYPE
  5
1B
330
5
100
AcDbSymbolTableRecord
100
AcDbLinetypeTableRecord
  2
CONTINUOUS
 70
     0
  3
Solid line
 72
    65
 73
     0
 40
0.0
  0
LTYPE
  5
1C
330
5
100
AcDbSymbolTableRecord
100
AcDbLinetypeTableRecord
  2
HIDDEN
 70
     0
  3
__ __ __ __ __ __ __ __ __ __ __ __ __ __ __ __
 72
    65
 73
     2
 40
0.375
 49
0.25
 74
     0
 49
-0.125
 74
     0
  0
ENDTAB
  0
TABLE
  2
LAYER
  5
2
330
0
100
AcDbSymbolTable
 70
     1
  0
LAYER
  5
1D
330
2
100
AcDbSymbolTableRecord
100
AcDbLayerTableRecord
  2
0
 70
     0
 62
     7
  6
CONTINUOUS
370
    -3
390
F
  0
ENDTAB
  0
TABLE
  2
STYLE
  5
3
330
0
100
AcDbSymbolTable
 70
     2
  0
STYLE
  5
21
330
3
100
AcDbSymbolTableRecord
100
AcDbTextStyleTableRecord
  2
STANDARD
 70
     0
 40
0.0
 41
1.0
 50
0.0
 71
     0
 42
5.0
  3
ROMANS.SHX
  4

  0
STYLE
  5
22
330
3
100
AcDbSymbolTableRecord
100
AcDbTextStyleTableRecord
  2
MONOTXT
 70
     0
 40
10.0
 41
1.0
 50
0.0
 71
     0
 42
10.0
  3
monotxt
  4

  0
ENDTAB
  0
TABLE
  2
VIEW
  5
6
330
0
100
AcDbSymbolTable
 70
     0
  0
ENDTAB
  0
TABLE
  2
UCS
  5
7
330
0
100
AcDbSymbolTable
 70
     0
  0
ENDTAB
  0
TABLE
  2
APPID
  5
9
330
0
100
AcDbSymbolTable
 70
     1
  0
APPID
  5
20
330
9
100
AcDbSymbolTableRecord
100
AcDbRegAppTableRecord
  2
ACAD
 70
     0
  0
ENDTAB
  0
TABLE
  2
DIMSTYLE
  5
A
330
0
100
AcDbSymbolTable
 70
     1
100
AcDbDimStyleTable
  0
DIMSTYLE
105
23
330
A
100
AcDbSymbolTableRecord
100
AcDbDimStyleTableRecord
  2
Standard
 70
     0
  3

  4

340
21
  0
ENDTAB
  0
TABLE
  2
BLOCK_RECORD
  5
1
330
0
100
AcDbSymbolTable
 70
     0
  0
BLOCK_RECORD
  5
18
330
1
100
AcDbSymbolTableRecord
100
AcDbBlockTableRecord
  2
*Model_Space
340
19
  0
BLOCK_RECORD
  5
16
330
1
100
AcDbSymbolTableRecord
100
AcDbBlockTableRecord
  2
*Paper_Space
340
17
  0
ENDTAB
  0
ENDSEC
  0
SECTION
  2
BLOCKS
  0
BLOCK
  5
818
330
18
100
AcDbEntity
  8
0
100
AcDbBlockBegin
  2
*Model_Space
 70
     0
 10
0.0
 20
0.0
 30
0.0
  3
*Model_Space
  1

  4

  0
ENDBLK
  5
819
330
18
100
AcDbEntity
  8
0
100
AcDbBlockEnd
  0
BLOCK
  5
816
330
16
100
AcDbEntity
 67
     1
  8
0
100
AcDbBlockBegin
  2
*Paper_Space
 70
     0
 10
0.0
 20
0.0
 30
0.0
  3
*Paper_Space
  1

  4

  0
ENDBLK
  5
817
330
16
100
AcDbEntity
 67
     1
  8
0
100
AcDbBlockEnd
  0
ENDSEC
  0
SECTION
  2
ENTITIES
  0
TEXT
  5
24
330
18
100
AcDbEntity
  8
0
100
AcDbText
 10
25.03299490476191
 20
160.120726
 30
0.0
 40
5.0
  1
INSTALL HALF OF
 72
     1
 11
58.12823299999999
 21
160.120726
 31
0.0
100
AcDbText
  0
TEXT
  5
25
330
18
100
AcDbEntity
  8
0
100
AcDbText
 10
19.79489966666667
 20
151.787726
 30
0.0
 40
5.0
  1
FASTENERS @ EACH
 72
     1
 11
58.12823299999999
 21
151.787726
 31
0.0
100
AcDbText
  0
TEXT
  5
26
330
18
100
AcDbEntity
  8
0
100
AcDbText
 10
29.43775680952379
 20
143.454726
 30
0.0
 40
5.0
  1
END OF STRAP
 72
     1
 11
58.12823299999999
 21
143.454726
 31
0.0
100
AcDbText
  0
LWPOLYLINE
  5
27
330
18
100
AcDbEntity
  8
0
  6
Continuous
 62
     7
100
AcDbPolyline
 90
        2
 70
     0
 43
0.0
 10
50.4477
 20
61.17390200000001
 10
89.36069999999999
 20
94.52690200000001
  0
LWPOLYLINE
  5
2C
330
18
100
AcDbEntity
  8
0
  6
Continuous
 62
     7
100
AcDbPolyline
 90
        2
 70
     0
 43
0.0
 10
54.9217
 20
129.236902
 10
74.6897
 20
120.233902
  0
LWPOLYLINE
  5
31
330
18
100
AcDbEntity
  8
0
  6
Continuous
 62
     7
100
AcDbPolyline
 90
        2
 70
     0
 43
0.0
 10
50.4477
 20
89.971902
 10
87.8417
 20
121.237902
  0
LWPOLYLINE
  5
36
330
18
100
AcDbEntity
  8
0
  6
Continuous
 62
     7
100
AcDbPolyline
 90
        2
 70
     0
 43
0.0
 10
85.42870000000001
 20
128.884902
 10
41.9597
 20
93.849902
  0
LWPOLYLINE
  5
3B
330
18
100
AcDbEntity
  8
0
  6
Continuous
 62
     7
100
AcDbPolyline
 90
        2
 70
     0
 43
0.0
 10
25.4187
 20
106.214902
 10
25.3917
 20
115.217902
  0
LWPOLYLINE
  5
40
330
18
100
AcDbEntity
  8
0
  6
Continuous
 62
     7
100
AcDbPolyline
 90
        2
 70
     0
 43
0.0
 10
25.3917
 20
115.217902
 10
52.2367
 20
102.146902
  0
LWPOLYLINE
  5
45
330
18
100
AcDbEntity
  8
0
  6
Continuous
 62
     7
100
AcDbPolyline
 90
        2
 70
     0
 43
0.0
 10
44.4277
 20
95.855902
 10
25.4187
 20
106.214902
  0
LWPOLYLINE
  5
4A
330
18
100
AcDbEntity
  8
0
  6
Continuous
 62
     7
100
AcDbPolyline
 90
        2
 70
     0
 43
0.0
 10
43.3697
 20
81.727902
 10
42.4207
 20
78.555902
  0
LWPOLYLINE
  5
4F
330
18
100
AcDbEntity
  8
0
  6
Continuous
 62
     7
100
AcDbPolyline
 90
        2
 70
     0
 43
0.0
 10
44.9157
 20
83.32790200000001
 10
43.6677
 20
77.768902
  0
LWPOLYLINE
  5
54
330
18
100
AcDbEntity
  8
0
  6
Continuous
 62
     7
100
AcDbPolyline
 90
        2
 70
     0
 43
0.0
 10
47.7087
 20
83.02990200000001
 10
45.8107
 20
76.792902
  0
LWPOLYLINE
  5
59
330
18
100
AcDbEntity
  8
0
  6
Continuous
 62
     7
100
AcDbPolyline
 90
        2
 70
     0
 43
0.0
 10
50.2577
 20
90.052902
 10
48.0607
 20
79.585902
  0
LWPOLYLINE
  5
5E
330
18
100
AcDbEntity
  8
0
  6
Continuous
 62
     7
100
AcDbPolyline
 90
        2
 70
     0
 43
0.0
 10
41.9597
 20
93.849902
 10
42.8277
 20
65.376902
  0
LWPOLYLINE
  5
63
330
18
100
AcDbEntity
  8
0
  6
Continuous
 62
     7
100
AcDbPolyline
 90
        2
 70
     0
 43
0.0
 10
50.4477
 20
89.971902
 10
50.4477
 20
61.17390200000001
  0
LWPOLYLINE
  5
68
330
18
100
AcDbEntity
  8
0
  6
Continuous
 62
     7
100
AcDbPolyline
 90
        2
 70
     0
 43
0.0
 10
46.2717
 20
83.51790200000001
 10
45.1867
 20
75.707902
  0
LWPOLYLINE
  5
6D
330
18
100
AcDbEntity
  8
0
  6
Continuous
 62
     7
100
AcDbPolyline
 90
        2
 70
     0
 43
0.0
 10
50.4477
 20
83.73490200000001
 10
48.0337
 20
72.643902
  0
LWPOLYLINE
  5
72
330
18
100
AcDbEntity
  8
0
  6
Continuous
 62
     7
100
AcDbPolyline
 90
        2
 70
     0
 43
0.0
 10
42.8277
 20
65.376902
 10
50.4477
 20
61.17390200000001
  0
LWPOLYLINE
  5
77
330
18
100
AcDbEntity
  8
0
  6
Continuous
 62
     7
100
AcDbPolyline
 90
        2
 70
     0
 43
0.0
 10
49.4987
 20
65.07790200000001
 10
48.6847
 20
62.149902
  0
LWPOLYLINE
  5
7C
330
18
100
AcDbEntity
  8
0
  6
Continuous
 62
     7
100
AcDbPolyline
 90
        2
 70
     0
 43
0.0
 10
49.7427
 20
71.585902
 10
48.1697
 20
66.02690200000001
  0
LWPOLYLINE
  5
81
330
18
100
AcDbEntity
  8
0
  6
Continuous
 62
     7
100
AcDbPolyline
 90
        2
 70
     0
 43
0.0
 10
42.6647
 20
73.646902
 10
42.5837
 20
73.429902
  0
LWPOLYLINE
  5
86
330
18
100
AcDbEntity
  8
0
  6
Continuous
 62
     7
100
AcDbPolyline
 90
        2
 70
     0
 43
0.0
 10
45.1867
 20
75.707902
 10
44.2917
 20
71.233902
  0
LWPOLYLINE
  5
8B
330
18
100
AcDbEntity
  8
0
  6
Continuous
 62
     7
100
AcDbPolyline
 90
        2
 70
     0
 43
0.0
 10
44.2917
 20
71.233902
 10
43.5867
 20
67.89890200000001
  0
LWPOLYLINE
  5
90
330
18
100
AcDbEntity
  8
0
  6
Continuous
 62
     7
100
AcDbPolyline
 90
        2
 70
     0
 43
0.0
 10
43.5867
 20
67.89890200000001
 10
42.8007
 20
65.99990200000001
  0
LWPOLYLINE
  5
95
330
18
100
AcDbEntity
  8
0
  6
Continuous
 62
     7
100
AcDbPolyline
 90
        2
 70
     0
 43
0.0
 10
44.8067
 20
69.66090200000001
 10
44.2107
 20
65.213902
  0
LWPOLYLINE
  5
9A
330
18
100
AcDbEntity
  8
0
  6
Continuous
 62
     7
100
AcDbPolyline
 90
        2
 70
     0
 43
0.0
 10
44.2107
 20
65.213902
 10
44.0477
 20
64.698902
  0
LWPOLYLINE
  5
9F
330
18
100
AcDbEntity
  8
0
  6
Continuous
 62
     7
100
AcDbPolyline
 90
        2
 70
     0
 43
0.0
 10
47.0307
 20
74.433902
 10
46.0277
 20
70.013902
  0
LWPOLYLINE
  5
A4
330
18
100
AcDbEntity
  8
0
  6
Continuous
 62
     7
100
AcDbPolyline
 90
        2
 70
     0
 43
0.0
 10
46.0277
 20
70.013902
 10
45.5387
 20
65.701902
  0
LWPOLYLINE
  5
A9
330
18
100
AcDbEntity
  8
0
  6
Continuous
 62
     7
100
AcDbPolyline
 90
        2
 70
     0
 43
0.0
 10
45.5387
 20
65.701902
 10
45.2407
 20
64.04790200000001
  0
LWPOLYLINE
  5
AE
330
18
100
AcDbEntity
  8
0
  6
Continuous
 62
     7
100
AcDbPolyline
 90
        2
 70
     0
 43
0.0
 10
48.1697
 20
66.02690200000001
 10
47.6817
 20
62.691902
  0
LWPOLYLINE
  5
B3
330
18
100
AcDbEntity
  8
0
  6
Continuous
 62
     7
100
AcDbPolyline
 90
        2
 70
     0
 43
0.0
 10
48.0337
 20
72.643902
 10
47.1117
 20
66.21690200000001
  0
LWPOLYLINE
  5
B8
330
18
100
AcDbEntity
  8
0
  6
Continuous
 62
     7
100
AcDbPolyline
 90
        2
 70
     0
 43
0.0
 10
47.1117
 20
66.21690200000001
 10
46.8137
 20
63.179902
  0
LWPOLYLINE
  5
BD
330
18
100
AcDbEntity
  8
0
  6
Continuous
 62
     7
100
AcDbPolyline
 90
        2
 70
     0
 43
0.0
 10
43.6677
 20
77.768902
 10
42.6647
 20
73.646902
  0
LWPOLYLINE
  5
C2
330
18
100
AcDbEntity
  8
0
  6
Continuous
 62
     7
100
AcDbPolyline
 90
        2
 70
     0
 43
0.0
 10
45.8107
 20
76.792902
 10
44.8067
 20
69.66090200000001
  0
LWPOLYLINE
  5
C7
330
18
100
AcDbEntity
  8
0
  6
Continuous
 62
     7
100
AcDbPolyline
 90
        2
 70
     0
 43
0.0
 10
48.0607
 20
79.585902
 10
47.0307
 20
74.433902
  0
LWPOLYLINE
  5
CC
330
18
100
AcDbEntity
  8
0
  6
Continuous
 62
     7
100
AcDbPolyline
 90
        2
 70
     0
 43
0.0
 10
50.4477
 20
68.087902
 10
49.4987
 20
65.07790200000001
  0
LWPOLYLINE
  5
D1
330
18
100
AcDbEntity
  8
0
  6
Continuous
 62
     7
100
AcDbPolyline
 90
        2
 70
     0
 43
0.0
 10
50.4477
 20
74.162902
 10
49.7427
 20
71.585902
  0
LWPOLYLINE
  5
D6
330
18
100
AcDbEntity
  8
0
  6
Continuous
 62
     7
100
AcDbPolyline
 90
        2
 70
     0
 43
0.0
 10
41.9597
 20
93.849902
 10
50.4477
 20
89.971902
  0
LWPOLYLINE
  5
DB
330
18
100
AcDbEntity
  8
0
  6
Continuous
 62
     7
100
AcDbPolyline
 90
        2
 70
     0
 43
0.0
 10
43.8037
 20
93.00890200000001
 10
43.1257
 20
89.971902
  0
LWPOLYLINE
  5
E0
330
18
100
AcDbEntity
  8
0
  6
Continuous
 62
     7
100
AcDbPolyline
 90
        2
 70
     0
 43
0.0
 10
43.1257
 20
89.971902
 10
42.3937
 20
87.286902
  0
LWPOLYLINE
  5
E5
330
18
100
AcDbEntity
  8
0
  6
Continuous
 62
     7
100
AcDbPolyline
 90
        2
 70
     0
 43
0.0
 10
42.3937
 20
87.286902
 10
42.1767
 20
86.798902
  0
LWPOLYLINE
  5
EA
330
18
100
AcDbEntity
  8
0
  6
Continuous
 62
     7
100
AcDbPolyline
 90
        2
 70
     0
 43
0.0
 10
44.6717
 20
92.601902
 10
43.9937
 20
85.930902
  0
LWPOLYLINE
  5
EF
330
18
100
AcDbEntity
  8
0
  6
Continuous
 62
     7
100
AcDbPolyline
 90
        2
 70
     0
 43
0.0
 10
43.9937
 20
85.930902
 10
43.3697
 20
81.727902
  0
LWPOLYLINE
  5
F4
330
18
100
AcDbEntity
  8
0
  6
Continuous
 62
     7
100
AcDbPolyline
 90
        2
 70
     0
 43
0.0
 10
45.8647
 20
92.05990200000001
 10
45.3497
 20
86.527902
  0
LWPOLYLINE
  5
F9
330
18
100
AcDbEntity
  8
0
  6
Continuous
 62
     7
100
AcDbPolyline
 90
        2
 70
     0
 43
0.0
 10
45.3497
 20
86.527902
 10
44.9157
 20
83.32790200000001
  0
LWPOLYLINE
  5
FE
330
18
100
AcDbEntity
  8
0
  6
Continuous
 62
     7
100
AcDbPolyline
 90
        2
 70
     0
 43
0.0
 10
47.5187
 20
91.30090200000001
 10
46.2717
 20
83.51790200000001
  0
LWPOLYLINE
  5
103
330
18
100
AcDbEntity
  8
0
  6
Continuous
 62
     7
100
AcDbPolyline
 90
        2
 70
     0
 43
0.0
 10
48.7937
 20
90.703902
 10
47.7087
 20
83.02990200000001
  0
LWPOLYLINE
  5
108
330
18
100
AcDbEntity
  8
0
  6
Continuous
 62
     7
100
AcDbPolyline
 90
        2
 70
     0
 43
0.0
 10
29.8387
 20
121.996902
 10
40.9017
 20
125.196902
  0
LWPOLYLINE
  5
10D
330
18
100
AcDbEntity
  8
0
  6
Continuous
 62
     7
100
AcDbPolyline
 90
        2
 70
     0
 43
0.0
 10
29.8387
 20
121.996902
 10
59.5587
 20
108.031902
  0
LWPOLYLINE
  5
112
330
18
100
AcDbEntity
  8
0
  6
Continuous
 62
     7
100
AcDbPolyline
 90
        2
 70
     0
 43
0.0
 10
25.3917
 20
115.217902
 10
29.8657
 20
116.518902
  0
LWPOLYLINE
  5
117
330
18
100
AcDbEntity
  8
0
  6
Continuous
 62
     7
100
AcDbPolyline
 90
        2
 70
     0
 43
0.0
 10
29.8657
 20
113.047902
 10
29.8387
 20
121.996902
  0
LWPOLYLINE
  5
11C
330
18
100
AcDbEntity
  8
0
  6
Continuous
 62
     7
100
AcDbPolyline
 90
        2
 70
     0
 43
0.0
 10
44.9157
 20
126.335902
 10
54.9217
 20
129.236902
  0
LWPOLYLINE
  5
121
330
18
100
AcDbEntity
  8
0
  6
Continuous
 62
     7
100
AcDbPolyline
 90
        2
 70
     0
 43
0.0
 10
43.5327
 20
124.843902
 10
42.7187
 20
127.013902
  0
LWPOLYLINE
  5
126
330
18
100
AcDbEntity
  8
0
  6
Continuous
 62
     7
100
AcDbPolyline
 90
        2
 70
     0
 43
0.0
 10
42.7187
 20
127.013902
 10
44.9157
 20
126.335902
  0
LWPOLYLINE
  5
12B
330
18
100
AcDbEntity
  8
0
  6
Continuous
 62
     7
100
AcDbPolyline
 90
        2
 70
     0
 43
0.0
 10
42.7187
 20
127.013902
 10
42.1497
 20
125.033902
  0
LWPOLYLINE
  5
130
330
18
100
AcDbEntity
  8
0
  6
Continuous
 62
     7
100
AcDbPolyline
 90
        2
 70
     0
 43
0.0
 10
42.5297
 20
126.308902
 10
42.8007
 20
124.952902
  0
LWPOLYLINE
  5
135
330
18
100
AcDbEntity
  8
0
  6
Continuous
 62
     7
100
AcDbPolyline
 90
        2
 70
     0
 43
0.0
 10
40.9017
 20
125.196902
 10
43.5327
 20
124.843902
  0
LWPOLYLINE
  5
13A
330
18
100
AcDbEntity
  8
0
  6
Continuous
 62
     7
100
AcDbPolyline
 90
        2
 70
     0
 43
0.0
 10
131.3377
 20
55.125902
 10
136.1367
 20
55.532902
  0
LWPOLYLINE
  5
13F
330
18
100
AcDbEntity
  8
0
  6
Continuous
 62
     7
100
AcDbPolyline
 90
        2
 70
     0
 43
0.0
 10
128.5717
 20
50.787902
 10
140.8557
 20
55.993902
  0
LWPOLYLINE
  5
144
330
18
100
AcDbEntity
  8
0
  6
Continuous
 62
     7
100
AcDbPolyline
 90
        2
 70
     0
 43
0.0
 10
128.1917
 20
63.993902
 10
128.5717
 20
50.787902
  0
LWPOLYLINE
  5
149
330
18
100
AcDbEntity
  8
0
  6
Continuous
 62
     7
100
AcDbPolyline
 90
        2
 70
     0
 43
0.0
 10
98.7157
 20
67.003902
 10
128.5717
 20
50.787902
  0
LWPOLYLINE
  5
14E
330
18
100
AcDbEntity
  8
0
  6
Continuous
 62
     7
100
AcDbPolyline
 90
        2
 70
     0
 43
0.0
 10
130.8497
 20
52.983902
 10
134.2117
 20
53.17390200000001
  0
LWPOLYLINE
  5
153
330
18
100
AcDbEntity
  8
0
  6
Continuous
 62
     7
100
AcDbPolyline
 90
        2
 70
     0
 43
0.0
 10
128.4627
 20
54.583902
 10
131.3377
 20
55.125902
  0
LWPOLYLINE
  5
158
330
18
100
AcDbEntity
  8
0
  6
Continuous
 62
     7
100
AcDbPolyline
 90
        2
 70
     0
 43
0.0
 10
128.5177
 20
52.604902
 10
130.8497
 20
52.983902
  0
LWPOLYLINE
  5
15D
330
18
100
AcDbEntity
  8
0
  6
Continuous
 62
     7
100
AcDbPolyline
 90
        2
 70
     0
 43
0.0
 10
142.5637
 20
157.031902
 10
138.3607
 20
163.485902
  0
LWPOLYLINE
  5
162
330
18
100
AcDbEntity
  8
0
  6
Continuous
 62
     7
100
AcDbPolyline
 90
        2
 70
     0
 43
0.0
 10
131.1747
 20
165.736902
 10
92.9127
 20
134.904902
  0
LWPOLYLINE
  5
167
330
18
100
AcDbEntity
  8
0
  6
Continuous
 62
     7
100
AcDbPolyline
 90
        2
 70
     0
 43
0.0
 10
96.22069999999999
 20
128.233902
 10
138.3607
 20
163.485902
  0
LWPOLYLINE
  5
16C
330
18
100
AcDbEntity
  8
0
  6
Continuous
 62
     7
100
AcDbPolyline
 90
        2
 70
     0
 43
0.0
 10
160.2437
 20
138.375902
 10
127.5407
 20
127.257902
  0
LWPOLYLINE
  5
171
330
18
100
AcDbEntity
  8
0
  6
Continuous
 62
     7
100
AcDbPolyline
 90
        2
 70
     0
 43
0.0
 10
133.4257
 20
73.185902
 10
133.7777
 20
61.17390200000001
  0
LWPOLYLINE
  5
176
330
18
100
AcDbEntity
  8
0
  6
Continuous
 62
     7
100
AcDbPolyline
 90
        2
 70
     0
 43
0.0
 10
136.1647
 20
70.60990200000001
 10
133.5607
 20
68.84790200000001
  0
LWPOLYLINE
  5
17B
330
18
100
AcDbEntity
  8
0
  6
Continuous
 62
     7
100
AcDbPolyline
 90
        2
 70
     0
 43
0.0
 10
133.8867
 20
70.989902
 10
133.5067
 20
70.691902
  0
LWPOLYLINE
  5
180
330
18
100
AcDbEntity
  8
0
  6
Continuous
 62
     7
100
AcDbPolyline
 90
        2
 70
     0
 43
0.0
 10
131.2287
 20
56.563902
 10
135.0527
 20
57.268902
  0
LWPOLYLINE
  5
185
330
18
100
AcDbEntity
  8
0
  6
Continuous
 62
     7
100
AcDbPolyline
 90
        2
 70
     0
 43
0.0
 10
131.4457
 20
58.190902
 10
136.2997
 20
58.949902
  0
LWPOLYLINE
  5
18A
330
18
100
AcDbEntity
  8
0
  6
Continuous
 62
     7
100
AcDbPolyline
 90
        2
 70
     0
 43
0.0
 10
132.3407
 20
60.332902
 10
136.1647
 20
60.712902
  0
LWPOLYLINE
  5
18F
330
18
100
AcDbEntity
  8
0
  6
Continuous
 62
     7
100
AcDbPolyline
 90
        2
 70
     0
 43
0.0
 10
133.4257
 20
73.185902
 10
144.5437
 20
77.361902
  0
LWPOLYLINE
  5
194
330
18
100
AcDbEntity
  8
0
  6
Continuous
 62
     7
100
AcDbPolyline
 90
        2
 70
     0
 43
0.0
 10
160.8677
 20
83.49090200000001
 10
115.5007
 20
102.987902
  0
LWPOLYLINE
  5
199
330
18
100
AcDbEntity
  8
0
  6
Continuous
 62
     7
100
AcDbPolyline
 90
        2
 70
     0
 43
0.0
 10
96.0307
 20
96.587902
 10
161.2747
 20
118.091902
  0
LWPOLYLINE
  5
19E
330
18
100
AcDbEntity
  8
0
  6
Continuous
 62
     7
100
AcDbPolyline
 90
        2
 70
     0
 43
0.0
 10
98.4447
 20
79.043902
 10
133.7777
 20
61.17390200000001
  0
LWPOLYLINE
  5
1A3
330
18
100
AcDbEntity
  8
0
  6
Continuous
 62
     7
100
AcDbPolyline
 90
        2
 70
     0
 43
0.0
 10
122.0907
 20
122.593902
 10
149.6147
 20
146.184902
  0
LWPOLYLINE
  5
1A8
330
18
100
AcDbEntity
  8
0
  6
Continuous
 62
     7
100
AcDbPolyline
 90
        2
 70
     0
 43
0.0
 10
98.8787
 20
115.732902
 10
99.0407
 20
100.682902
  0
LWPOLYLINE
  5
1AD
330
18
100
AcDbEntity
  8
0
  6
Continuous
 62
     7
100
AcDbPolyline
 90
        2
 70
     0
 43
0.0
 10
98.0377
 20
116.356902
 10
98.2007
 20
101.306902
  0
LWPOLYLINE
  5
1B2
330
18
100
AcDbEntity
  8
0
  6
Continuous
 62
     7
100
AcDbPolyline
 90
        2
 70
     0
 43
0.0
 10
107.9627
 20
107.461902
 10
107.9627
 20
106.838902
  0
LWPOLYLINE
  5
1B7
330
18
100
AcDbEntity
  8
0
  6
Continuous
 62
     7
100
AcDbPolyline
 90
        2
 70
     0
 43
0.0
 10
99.0407
 20
100.682902
 10
122.7417
 20
108.790902
  0
LWPOLYLINE
  5
1BC
330
18
100
AcDbEntity
  8
0
  6
Continuous
 62
     7
100
AcDbPolyline
 90
        2
 70
     0
 43
0.0
 10
107.9627
 20
106.838902
 10
110.5927
 20
107.651902
  0
LWPOLYLINE
  5
1C1
330
18
100
AcDbEntity
  8
0
  6
Continuous
 62
     7
100
AcDbPolyline
 90
        2
 70
     0
 43
0.0
 10
88.1127
 20
96.94090200000001
 10
87.3537
 20
113.020902
  0
LWPOLYLINE
  5
1C6
330
18
100
AcDbEntity
  8
0
  6
Continuous
 62
     7
100
AcDbPolyline
 90
        2
 70
     0
 43
0.0
 10
87.4897
 20
112.505902
 10
97.16970000000001
 20
91.76190200000001
  0
LWPOLYLINE
  5
1CB
330
18
100
AcDbEntity
  8
0
  6
Continuous
 62
     7
100
AcDbPolyline
 90
        2
 70
     0
 43
0.0
 10
96.3297
 20
117.142902
 10
91.82769999999999
 20
106.187902
  0
LWPOLYLINE
  5
1D0
330
18
100
AcDbEntity
  8
0
  6
Continuous
 62
     7
100
AcDbPolyline
 90
        3
 70
     0
 43
0.0
 10
88.3567
 20
113.047902
 10
98.1737
 20
92.00590200000001
 10
98.7157
 20
67.003902
  0
ARC
  5
1D6
330
18
100
AcDbEntity
  8
0
  6
HIDDEN
 62
     7
100
AcDbCircle
 10
100.3697
 20
73.48490200000001
 30
0.0
 40
1.03
100
AcDbArc
 50
217.081
 51
241.546
  0
LWPOLYLINE
  5
1D7
330
18
100
AcDbEntity
  8
0
  6
HIDDEN
 62
     7
100
AcDbPolyline
 90
        2
 70
     0
 43
0.0
 10
109.7797
 20
71.802902
 10
99.1497
 20
66.623902
  0
LWPOLYLINE
  5
1DC
330
18
100
AcDbEntity
  8
0
  6
HIDDEN
 62
     7
100
AcDbPolyline
 90
        2
 70
     0
 43
0.0
 10
96.70869999999999
 20
73.701902
 10
103.3257
 20
76.683902
  0
LWPOLYLINE
  5
1E1
330
18
100
AcDbEntity
  8
0
  6
Continuous
 62
     7
100
AcDbPolyline
 90
        2
 70
     0
 43
0.0
 10
98.4987
 20
89.808902
 10
133.4257
 20
73.185902
  0
LWPOLYLINE
  5
1E6
330
18
100
AcDbEntity
  8
0
  6
Continuous
 62
     7
100
AcDbPolyline
 90
        2
 70
     0
 43
0.0
 10
97.16970000000001
 20
91.76190200000001
 10
97.6857
 20
67.518902
  0
LWPOLYLINE
  5
1EB
330
18
100
AcDbEntity
  8
0
  6
Continuous
 62
     7
100
AcDbPolyline
 90
        2
 70
     0
 43
0.0
 10
90.28270000000001
 20
92.655902
 10
90.6347
 20
71.314902
  0
LINE
  5
1F0
330
18
100
AcDbEntity
  8
0
100
AcDbLine
 10
82.515647
 20
53.501365
 30
0.0
 11
77.515647
 21
53.501365
 31
0.0
  0
LWPOLYLINE
  5
1F1
330
18
100
AcDbEntity
  8
0
  6
Continuous
 62
     7
100
AcDbPolyline
 90
        2
 70
     0
 43
0.0
 10
73.30670000000001
 20
80.778902
 10
90.6347
 20
71.396902
  0
ARC
  5
1F6
330
18
100
AcDbEntity
  8
0
  6
Continuous
 62
     7
100
AcDbCircle
 10
93.5097
 20
77.578902
 30
0.0
 40
0.407
100
AcDbArc
 50
263.113
 51
286.627
  0
ARC
  5
1F7
330
18
100
AcDbEntity
  8
0
  6
Continuous
 62
     7
100
AcDbCircle
 10
93.5097
 20
77.578902
 30
0.0
 40
0.407
100
AcDbArc
 50
286.627
 51
319.853
  0
ARC
  5
1F8
330
18
100
AcDbEntity
  8
0
  6
Continuous
 62
     7
100
AcDbCircle
 10
93.26470000000001
 20
77.795902
 30
0.0
 40
0.759
100
AcDbArc
 50
319.932
 51
344.476
  0
ARC
  5
1F9
330
18
100
AcDbEntity
  8
0
  6
Continuous
 62
     7
100
AcDbCircle
 10
92.9127
 20
77.87790200000001
 30
0.0
 40
1.112
100
AcDbArc
 50
344.439
 51
2.095
  0
ARC
  5
1FA
330
18
100
AcDbEntity
  8
0
  6
Continuous
 62
     7
100
AcDbCircle
 10
92.4517
 20
77.87790200000001
 30
0.0
 40
1.573
100
AcDbArc
 50
2.074
 51
16.747
  0
ARC
  5
1FB
330
18
100
AcDbEntity
  8
0
  6
Continuous
 62
     7
100
AcDbCircle
 10
92.4517
 20
77.87790200000001
 30
0.0
 40
1.573
100
AcDbArc
 50
16.747
 51
31.523
  0
ARC
  5
1FC
330
18
100
AcDbEntity
  8
0
  6
Continuous
 62
     7
100
AcDbCircle
 10
92.8587
 20
78.12190200000001
 30
0.0
 40
1.112
100
AcDbArc
 50
31.443
 51
49.15600000000001
  0
ARC
  5
1FD
330
18
100
AcDbEntity
  8
0
  6
Continuous
 62
     7
100
AcDbCircle
 10
93.0757
 20
78.39290200000001
 30
0.0
 40
0.759
100
AcDbArc
 50
49.19900000000001
 51
73.634
  0
ARC
  5
1FE
330
18
100
AcDbEntity
  8
0
  6
Continuous
 62
     7
100
AcDbCircle
 10
93.1837
 20
78.69090200000001
 30
0.0
 40
0.407
100
AcDbArc
 50
73.74
 51
106.627
  0
ARC
  5
1FF
330
18
100
AcDbEntity
  8
0
  6
Continuous
 62
     7
100
AcDbCircle
 10
93.1837
 20
78.69090200000001
 30
0.0
 40
0.407
100
AcDbArc
 50
106.627
 51
139.854
  0
ARC
  5
200
330
18
100
AcDbEntity
  8
0
  6
Continuous
 62
     7
100
AcDbCircle
 10
93.4277
 20
78.473902
 30
0.0
 40
0.759
100
AcDbArc
 50
139.932
 51
140.221
  0
ARC
  5
201
330
18
100
AcDbEntity
  8
0
  6
Continuous
 62
     7
100
AcDbCircle
 10
93.2377
 20
77.741902
 30
0.0
 40
0.759
100
AcDbArc
 50
229.199
 51
253.634
  0
ARC
  5
202
330
18
100
AcDbEntity
  8
0
  6
Continuous
 62
     7
100
AcDbCircle
 10
93.1567
 20
77.41690200000001
 30
0.0
 40
0.407
100
AcDbArc
 50
253.74
 51
286.627
  0
ARC
  5
203
330
18
100
AcDbEntity
  8
0
  6
Continuous
 62
     7
100
AcDbCircle
 10
93.1567
 20
77.41690200000001
 30
0.0
 40
0.407
100
AcDbArc
 50
286.627
 51
319.854
  0
ARC
  5
204
330
18
100
AcDbEntity
  8
0
  6
Continuous
 62
     7
100
AcDbCircle
 10
92.8857
 20
77.63390200000001
 30
0.0
 40
0.759
100
AcDbArc
 50
319.932
 51
344.476
  0
ARC
  5
205
330
18
100
AcDbEntity
  8
0
  6
Continuous
 62
     7
100
AcDbCircle
 10
92.55970000000001
 20
77.741902
 30
0.0
 40
1.112
100
AcDbArc
 50
344.439
 51
2.095
  0
ARC
  5
206
330
18
100
AcDbEntity
  8
0
  6
Continuous
 62
     7
100
AcDbCircle
 10
92.07170000000001
 20
77.714902
 30
0.0
 40
1.573
100
AcDbArc
 50
2.074
 51
16.747
  0
ARC
  5
207
330
18
100
AcDbEntity
  8
0
  6
Continuous
 62
     7
100
AcDbCircle
 10
92.07170000000001
 20
77.714902
 30
0.0
 40
1.573
100
AcDbArc
 50
16.747
 51
31.523
  0
ARC
  5
208
330
18
100
AcDbEntity
  8
0
  6
Continuous
 62
     7
100
AcDbCircle
 10
92.4787
 20
77.958902
 30
0.0
 40
1.112
100
AcDbArc
 50
31.443
 51
49.15600000000001
  0
ARC
  5
209
330
18
100
AcDbEntity
  8
0
  6
Continuous
 62
     7
100
AcDbCircle
 10
92.7227
 20
78.229902
 30
0.0
 40
0.759
100
AcDbArc
 50
49.19900000000001
 51
73.634
  0
ARC
  5
20A
330
18
100
AcDbEntity
  8
0
  6
Continuous
 62
     7
100
AcDbCircle
 10
92.80370000000001
 20
78.555902
 30
0.0
 40
0.407
100
AcDbArc
 50
106.626
 51
139.853
  0
ARC
  5
20B
330
18
100
AcDbEntity
  8
0
  6
Continuous
 62
     7
100
AcDbCircle
 10
93.0757
 20
78.338902
 30
0.0
 40
0.759
100
AcDbArc
 50
139.932
 51
164.476
  0
ARC
  5
20C
330
18
100
AcDbEntity
  8
0
  6
Continuous
 62
     7
100
AcDbCircle
 10
93.4007
 20
78.256902
 30
0.0
 40
1.112
100
AcDbArc
 50
164.438
 51
182.095
  0
ARC
  5
20D
330
18
100
AcDbEntity
  8
0
  6
Continuous
 62
     7
100
AcDbCircle
 10
93.8617
 20
78.256902
 30
0.0
 40
1.573
100
AcDbArc
 50
182.074
 51
196.747
  0
ARC
  5
20E
330
18
100
AcDbEntity
  8
0
  6
Continuous
 62
     7
100
AcDbCircle
 10
93.8617
 20
78.256902
 30
0.0
 40
1.573
100
AcDbArc
 50
196.747
 51
211.523
  0
ARC
  5
20F
330
18
100
AcDbEntity
  8
0
  6
Continuous
 62
     7
100
AcDbCircle
 10
93.4547
 20
78.012902
 30
0.0
 40
1.112
100
AcDbArc
 50
211.443
 51
229.156
  0
ARC
  5
210
330
18
100
AcDbEntity
  8
0
  6
Continuous
 62
     7
100
AcDbCircle
 10
92.80370000000001
 20
78.555902
 30
0.0
 40
0.407
100
AcDbArc
 50
73.74
 51
106.626
  0
ARC
  5
211
330
18
100
AcDbEntity
  8
0
  6
Continuous
 62
     7
100
AcDbCircle
 10
98.7157
 20
67.518902
 30
0.0
 40
1.03
100
AcDbArc
 50
181.206
 51
296.093
  0
ARC
  5
212
330
18
100
AcDbEntity
  8
0
  6
Continuous
 62
     7
100
AcDbCircle
 10
95.8687
 20
72.046902
 30
0.0
 40
0.407
100
AcDbArc
 50
263.112
 51
286.626
  0
ARC
  5
213
330
18
100
AcDbEntity
  8
0
  6
Continuous
 62
     7
100
AcDbCircle
 10
95.8687
 20
72.046902
 30
0.0
 40
0.407
100
AcDbArc
 50
286.626
 51
319.853
  0
ARC
  5
214
330
18
100
AcDbEntity
  8
0
  6
Continuous
 62
     7
100
AcDbCircle
 10
95.5977
 20
72.263902
 30
0.0
 40
0.759
100
AcDbArc
 50
319.932
 51
344.476
  0
ARC
  5
215
330
18
100
AcDbEntity
  8
0
  6
Continuous
 62
     7
100
AcDbCircle
 10
95.2717
 20
72.345902
 30
0.0
 40
1.112
100
AcDbArc
 50
344.439
 51
2.095
  0
ARC
  5
216
330
18
100
AcDbEntity
  8
0
  6
Continuous
 62
     7
100
AcDbCircle
 10
94.7837
 20
72.31890200000001
 30
0.0
 40
1.573
100
AcDbArc
 50
2.074
 51
16.747
  0
ARC
  5
217
330
18
100
AcDbEntity
  8
0
  6
Continuous
 62
     7
100
AcDbCircle
 10
94.7837
 20
72.31890200000001
 30
0.0
 40
1.573
100
AcDbArc
 50
16.747
 51
31.523
  0
ARC
  5
218
330
18
100
AcDbEntity
  8
0
  6
Continuous
 62
     7
100
AcDbCircle
 10
95.19070000000001
 20
72.589902
 30
0.0
 40
1.112
100
AcDbArc
 50
31.443
 51
49.15600000000001
  0
ARC
  5
219
330
18
100
AcDbEntity
  8
0
  6
Continuous
 62
     7
100
AcDbCircle
 10
95.40770000000001
 20
72.833902
 30
0.0
 40
0.759
100
AcDbArc
 50
49.19900000000001
 51
73.634
  0
ARC
  5
21A
330
18
100
AcDbEntity
  8
0
  6
Continuous
 62
     7
100
AcDbCircle
 10
95.5157
 20
73.158902
 30
0.0
 40
0.407
100
AcDbArc
 50
73.74
 51
106.627
  0
ARC
  5
21B
330
18
100
AcDbEntity
  8
0
  6
Continuous
 62
     7
100
AcDbCircle
 10
95.5157
 20
73.158902
 30
0.0
 40
0.407
100
AcDbArc
 50
106.627
 51
139.854
  0
ARC
  5
21C
330
18
100
AcDbEntity
  8
0
  6
Continuous
 62
     7
100
AcDbCircle
 10
95.7597
 20
72.941902
 30
0.0
 40
0.759
100
AcDbArc
 50
139.932
 51
140.221
  0
ARC
  5
21D
330
18
100
AcDbEntity
  8
0
  6
Continuous
 62
     7
100
AcDbCircle
 10
95.13670000000001
 20
73.02390200000001
 30
0.0
 40
0.407
100
AcDbArc
 50
106.627
 51
139.854
  0
ARC
  5
21E
330
18
100
AcDbEntity
  8
0
  6
Continuous
 62
     7
100
AcDbCircle
 10
95.40770000000001
 20
72.80690200000001
 30
0.0
 40
0.759
100
AcDbArc
 50
139.932
 51
164.476
  0
ARC
  5
21F
330
18
100
AcDbEntity
  8
0
  6
Continuous
 62
     7
100
AcDbCircle
 10
95.73269999999999
 20
72.697902
 30
0.0
 40
1.112
100
AcDbArc
 50
164.438
 51
182.095
  0
ARC
  5
220
330
18
100
AcDbEntity
  8
0
  6
Continuous
 62
     7
100
AcDbCircle
 10
96.22069999999999
 20
72.724902
 30
0.0
 40
1.573
100
AcDbArc
 50
182.074
 51
196.747
  0
ARC
  5
221
330
18
100
AcDbEntity
  8
0
  6
Continuous
 62
     7
100
AcDbCircle
 10
96.22069999999999
 20
72.724902
 30
0.0
 40
1.573
100
AcDbArc
 50
196.747
 51
211.523
  0
ARC
  5
222
330
18
100
AcDbEntity
  8
0
  6
Continuous
 62
     7
100
AcDbCircle
 10
95.8137
 20
72.480902
 30
0.0
 40
1.112
100
AcDbArc
 50
211.443
 51
229.156
  0
ARC
  5
223
330
18
100
AcDbEntity
  8
0
  6
Continuous
 62
     7
100
AcDbCircle
 10
95.5697
 20
72.209902
 30
0.0
 40
0.759
100
AcDbArc
 50
229.199
 51
253.634
  0
ARC
  5
224
330
18
100
AcDbEntity
  8
0
  6
Continuous
 62
     7
100
AcDbCircle
 10
95.48869999999999
 20
71.884902
 30
0.0
 40
0.407
100
AcDbArc
 50
253.74
 51
286.627
  0
ARC
  5
225
330
18
100
AcDbEntity
  8
0
  6
Continuous
 62
     7
100
AcDbCircle
 10
95.48869999999999
 20
71.884902
 30
0.0
 40
0.407
100
AcDbArc
 50
286.627
 51
319.854
  0
ARC
  5
226
330
18
100
AcDbEntity
  8
0
  6
Continuous
 62
     7
100
AcDbCircle
 10
95.21769999999999
 20
72.101902
 30
0.0
 40
0.759
100
AcDbArc
 50
319.932
 51
344.476
  0
ARC
  5
227
330
18
100
AcDbEntity
  8
0
  6
Continuous
 62
     7
100
AcDbCircle
 10
94.8917
 20
72.209902
 30
0.0
 40
1.112
100
AcDbArc
 50
344.439
 51
2.095
  0
ARC
  5
228
330
18
100
AcDbEntity
  8
0
  6
Continuous
 62
     7
100
AcDbCircle
 10
94.4037
 20
72.182902
 30
0.0
 40
1.573
100
AcDbArc
 50
2.074
 51
16.747
  0
ARC
  5
229
330
18
100
AcDbEntity
  8
0
  6
Continuous
 62
     7
100
AcDbCircle
 10
94.4037
 20
72.182902
 30
0.0
 40
1.573
100
AcDbArc
 50
16.747
 51
31.523
  0
ARC
  5
22A
330
18
100
AcDbEntity
  8
0
  6
Continuous
 62
     7
100
AcDbCircle
 10
94.8377
 20
72.426902
 30
0.0
 40
1.112
100
AcDbArc
 50
31.443
 51
49.15600000000001
  0
ARC
  5
22B
330
18
100
AcDbEntity
  8
0
  6
Continuous
 62
     7
100
AcDbCircle
 10
95.0547
 20
72.697902
 30
0.0
 40
0.759
100
AcDbArc
 50
49.19900000000001
 51
73.634
  0
ARC
  5
22C
330
18
100
AcDbEntity
  8
0
  6
Continuous
 62
     7
100
AcDbCircle
 10
95.13670000000001
 20
73.02390200000001
 30
0.0
 40
0.407
100
AcDbArc
 50
73.74
 51
106.627
  0
ARC
  5
22D
330
18
100
AcDbEntity
  8
0
  6
HIDDEN
 62
     7
100
AcDbCircle
 10
100.4237
 20
72.99690200000001
 30
0.0
 40
1.03
100
AcDbArc
 50
132.548
 51
151.414
  0
ARC
  5
22E
330
18
100
AcDbEntity
  8
0
  6
HIDDEN
 62
     7
100
AcDbCircle
 10
100.0177
 20
73.213902
 30
0.0
 40
0.5670000000000001
100
AcDbArc
 50
151.477
 51
182.454
  0
ARC
  5
22F
330
18
100
AcDbEntity
  8
0
  6
HIDDEN
 62
     7
100
AcDbCircle
 10
100.0177
 20
73.213902
 30
0.0
 40
0.569
100
AcDbArc
 50
212.932
 51
217.088
  0
ARC
  5
230
330
18
100
AcDbEntity
  8
0
  6
Continuous
 62
     7
100
AcDbCircle
 10
91.6377
 20
71.34190200000001
 30
0.0
 40
1.03
100
AcDbArc
 50
180.905
 51
241.679
  0
LINE
  5
231
330
18
100
AcDbEntity
  8
0
100
AcDbLine
 10
92.1987
 20
67.570902
 30
0.0
 11
82.515647
 21
53.501365
 31
0.0
  0
LWPOLYLINE
  5
232
330
18
100
AcDbEntity
  8
0
  6
Continuous
 62
     7
100
AcDbPolyline
 90
        2
 70
     0
 43
0.0
 10
91.1497
 20
70.447902
 10
98.2277
 20
66.623902
  0
LWPOLYLINE
  5
237
330
18
100
AcDbEntity
  8
0
  6
HIDDEN
 62
     7
100
AcDbPolyline
 90
        2
 70
     0
 43
0.0
 10
91.1767
 20
71.206902
 10
93.8617
 20
72.399902
  0
SOLID
  5
23C
330
18
100
AcDbEntity
  8
0
100
AcDbTrace
 10
91.5127
 20
68.042902
 30
0.0
 11
92.8857
 21
67.09790200000001
 31
0.0
 12
95.0337
 22
71.689902
 32
0.0
 13
95.0337
 23
71.689902
 33
0.0
  0
LWPOLYLINE
  5
23D
330
18
100
AcDbEntity
  8
0
  6
Continuous
 62
     7
100
AcDbPolyline
 90
        2
 70
     0
 43
0.0
 10
81.36069999999999
 20
87.69390200000001
 10
90.4177
 20
83.110902
  0
LWPOLYLINE
  5
242
330
18
100
AcDbEntity
  8
0
  6
Continuous
 62
     7
100
AcDbPolyline
 90
        2
 70
     0
 43
0.0
 10
94.8107
 20
99.191902
 10
98.2007
 20
102.119902
  0
LWPOLYLINE
  5
247
330
18
100
AcDbEntity
  8
0
  6
Continuous
 62
     7
100
AcDbPolyline
 90
        2
 70
     0
 43
0.0
 10
99.0407
 20
100.682902
 10
98.2007
 20
101.306902
  0
ARC
  5
24C
330
18
100
AcDbEntity
  8
0
  6
Continuous
 62
     7
100
AcDbCircle
 10
94.5937
 20
83.54490200000001
 30
0.0
 40
0.407
100
AcDbArc
 50
106.626
 51
139.853
  0
ARC
  5
24D
330
18
100
AcDbEntity
  8
0
  6
Continuous
 62
     7
100
AcDbCircle
 10
94.8647
 20
83.32790200000001
 30
0.0
 40
0.759
100
AcDbArc
 50
139.932
 51
164.476
  0
ARC
  5
24E
330
18
100
AcDbEntity
  8
0
  6
Continuous
 62
     7
100
AcDbCircle
 10
95.19070000000001
 20
83.21990200000001
 30
0.0
 40
1.112
100
AcDbArc
 50
164.438
 51
182.095
  0
ARC
  5
24F
330
18
100
AcDbEntity
  8
0
  6
Continuous
 62
     7
100
AcDbCircle
 10
95.67870000000001
 20
83.24690200000001
 30
0.0
 40
1.573
100
AcDbArc
 50
182.074
 51
196.747
  0
ARC
  5
250
330
18
100
AcDbEntity
  8
0
  6
Continuous
 62
     7
100
AcDbCircle
 10
95.67870000000001
 20
83.24690200000001
 30
0.0
 40
1.573
100
AcDbArc
 50
196.747
 51
211.523
  0
ARC
  5
251
330
18
100
AcDbEntity
  8
0
  6
Continuous
 62
     7
100
AcDbCircle
 10
95.2717
 20
83.00290200000001
 30
0.0
 40
1.112
100
AcDbArc
 50
211.443
 51
229.156
  0
ARC
  5
252
330
18
100
AcDbEntity
  8
0
  6
Continuous
 62
     7
100
AcDbCircle
 10
95.0547
 20
82.73190200000001
 30
0.0
 40
0.759
100
AcDbArc
 50
229.199
 51
253.634
  0
ARC
  5
253
330
18
100
AcDbEntity
  8
0
  6
Continuous
 62
     7
100
AcDbCircle
 10
94.94670000000001
 20
82.405902
 30
0.0
 40
0.407
100
AcDbArc
 50
253.74
 51
286.627
  0
ARC
  5
254
330
18
100
AcDbEntity
  8
0
  6
Continuous
 62
     7
100
AcDbCircle
 10
94.94670000000001
 20
82.405902
 30
0.0
 40
0.407
100
AcDbArc
 50
286.627
 51
319.853
  0
ARC
  5
255
330
18
100
AcDbEntity
  8
0
  6
Continuous
 62
     7
100
AcDbCircle
 10
94.70269999999999
 20
82.622902
 30
0.0
 40
0.759
100
AcDbArc
 50
319.932
 51
344.476
  0
ARC
  5
256
330
18
100
AcDbEntity
  8
0
  6
Continuous
 62
     7
100
AcDbCircle
 10
94.3497
 20
82.703902
 30
0.0
 40
1.112
100
AcDbArc
 50
344.4380000000001
 51
2.095
  0
ARC
  5
257
330
18
100
AcDbEntity
  8
0
  6
Continuous
 62
     7
100
AcDbCircle
 10
93.8887
 20
82.703902
 30
0.0
 40
1.573
100
AcDbArc
 50
2.074
 51
16.747
  0
ARC
  5
258
330
18
100
AcDbEntity
  8
0
  6
Continuous
 62
     7
100
AcDbCircle
 10
93.8887
 20
82.703902
 30
0.0
 40
1.573
100
AcDbArc
 50
16.747
 51
31.523
  0
ARC
  5
259
330
18
100
AcDbEntity
  8
0
  6
Continuous
 62
     7
100
AcDbCircle
 10
94.2957
 20
82.948902
 30
0.0
 40
1.112
100
AcDbArc
 50
31.443
 51
49.15600000000001
  0
ARC
  5
25A
330
18
100
AcDbEntity
  8
0
  6
Continuous
 62
     7
100
AcDbCircle
 10
94.5127
 20
83.21990200000001
 30
0.0
 40
0.759
100
AcDbArc
 50
49.19900000000001
 51
73.634
  0
ARC
  5
25B
330
18
100
AcDbEntity
  8
0
  6
Continuous
 62
     7
100
AcDbCircle
 10
94.5937
 20
83.54490200000001
 30
0.0
 40
0.407
100
AcDbArc
 50
73.73899999999999
 51
106.626
  0
ARC
  5
25C
330
18
100
AcDbEntity
  8
0
  6
Continuous
 62
     7
100
AcDbCircle
 10
94.97369999999999
 20
83.680902
 30
0.0
 40
0.407
100
AcDbArc
 50
106.627
 51
139.854
  0
ARC
  5
25D
330
18
100
AcDbEntity
  8
0
  6
Continuous
 62
     7
100
AcDbCircle
 10
95.2447
 20
83.463902
 30
0.0
 40
0.759
100
AcDbArc
 50
139.932
 51
140.221
  0
ARC
  5
25E
330
18
100
AcDbEntity
  8
0
  6
Continuous
 62
     7
100
AcDbCircle
 10
95.3257
 20
82.54190200000001
 30
0.0
 40
0.407
100
AcDbArc
 50
263.112
 51
286.626
  0
ARC
  5
25F
330
18
100
AcDbEntity
  8
0
  6
Continuous
 62
     7
100
AcDbCircle
 10
95.3257
 20
82.54190200000001
 30
0.0
 40
0.407
100
AcDbArc
 50
286.626
 51
319.853
  0
ARC
  5
260
330
18
100
AcDbEntity
  8
0
  6
Continuous
 62
     7
100
AcDbCircle
 10
95.0547
 20
82.75890200000001
 30
0.0
 40
0.759
100
AcDbArc
 50
319.932
 51
344.476
  0
ARC
  5
261
330
18
100
AcDbEntity
  8
0
  6
Continuous
 62
     7
100
AcDbCircle
 10
94.72969999999999
 20
82.866902
 30
0.0
 40
1.112
100
AcDbArc
 50
344.439
 51
2.095
  0
ARC
  5
262
330
18
100
AcDbEntity
  8
0
  6
Continuous
 62
     7
100
AcDbCircle
 10
94.24169999999999
 20
82.839902
 30
0.0
 40
1.573
100
AcDbArc
 50
2.074
 51
16.747
  0
ARC
  5
263
330
18
100
AcDbEntity
  8
0
  6
Continuous
 62
     7
100
AcDbCircle
 10
94.24169999999999
 20
82.839902
 30
0.0
 40
1.573
100
AcDbArc
 50
16.747
 51
31.523
  0
ARC
  5
264
330
18
100
AcDbEntity
  8
0
  6
Continuous
 62
     7
100
AcDbCircle
 10
94.6477
 20
83.083902
 30
0.0
 40
1.112
100
AcDbArc
 50
31.443
 51
49.15600000000001
  0
ARC
  5
265
330
18
100
AcDbEntity
  8
0
  6
Continuous
 62
     7
100
AcDbCircle
 10
94.8917
 20
83.354902
 30
0.0
 40
0.759
100
AcDbArc
 50
49.19900000000001
 51
73.634
  0
ARC
  5
266
330
18
100
AcDbEntity
  8
0
  6
Continuous
 62
     7
100
AcDbCircle
 10
94.97369999999999
 20
83.680902
 30
0.0
 40
0.407
100
AcDbArc
 50
73.74
 51
106.627
  0
LWPOLYLINE
  5
267
330
18
100
AcDbEntity
  8
0
  6
Continuous
 62
     7
100
AcDbPolyline
 90
        2
 70
     0
 43
0.0
 10
88.3027
 20
96.316902
 10
90.09269999999999
 20
93.333902
  0
ARC
  5
26C
330
18
100
AcDbEntity
  8
0
  6
Continuous
 62
     7
100
AcDbCircle
 10
89.4687
 20
97.021902
 30
0.0
 40
1.356
100
AcDbArc
 50
182.639
 51
210.826
  0
ARC
  5
26D
330
18
100
AcDbEntity
  8
0
  6
Continuous
 62
     7
100
AcDbCircle
 10
88.9267
 20
92.628902
 30
0.0
 40
1.356
100
AcDbArc
 50
0.917
 51
30.826
  0
LWPOLYLINE
  5
26E
330
18
100
AcDbEntity
  8
0
  6
HIDDEN
 62
     7
100
AcDbPolyline
 90
        2
 70
     0
 43
0.0
 10
103.3257
 20
76.683902
 10
106.0647
 20
76.95590200000001
  0
LWPOLYLINE
  5
273
330
18
100
AcDbEntity
  8
0
  6
HIDDEN
 62
     7
100
AcDbPolyline
 90
        2
 70
     0
 43
0.0
 10
109.8337
 20
74.351902
 10
109.7797
 20
71.802902
  0
ARC
  5
278
330
18
100
AcDbEntity
  8
0
  6
HIDDEN
 62
     7
100
AcDbCircle
 10
100.7227
 20
74.48790200000001
 30
0.0
 40
2.115
100
AcDbArc
 50
285.925
 51
289.155
  0
ARC
  5
279
330
18
100
AcDbEntity
  8
0
  6
HIDDEN
 62
     7
100
AcDbCircle
 10
100.9117
 20
73.890902
 30
0.0
 40
1.491
100
AcDbArc
 50
289.094
 51
307.016
  0
ARC
  5
27A
330
18
100
AcDbEntity
  8
0
  6
HIDDEN
 62
     7
100
AcDbCircle
 10
101.1837
 20
73.53890200000001
 30
0.0
 40
1.033
100
AcDbArc
 50
306.99
 51
307.201
  0
ARC
  5
27B
330
18
100
AcDbEntity
  8
0
  6
HIDDEN
 62
     7
100
AcDbCircle
 10
101.1837
 20
73.53890200000001
 30
0.0
 40
1.03
100
AcDbArc
 50
328.234
 51
331.414
  0
ARC
  5
27C
330
18
100
AcDbEntity
  8
0
  6
HIDDEN
 62
     7
100
AcDbCircle
 10
101.5897
 20
73.32190200000001
 30
0.0
 40
0.5670000000000001
100
AcDbArc
 50
331.477
 51
4.378
  0
ARC
  5
27D
330
18
100
AcDbEntity
  8
0
  6
HIDDEN
 62
     7
100
AcDbCircle
 10
101.5897
 20
73.32190200000001
 30
0.0
 40
0.569
100
AcDbArc
 50
4.378
 51
31.197
  0
ARC
  5
27E
330
18
100
AcDbEntity
  8
0
  6
HIDDEN
 62
     7
100
AcDbCircle
 10
101.2377
 20
73.05090200000001
 30
0.0
 40
1.03
100
AcDbArc
 50
48.09100000000001
 51
61.54600000000001
  0
ARC
  5
27F
330
18
100
AcDbEntity
  8
0
  6
HIDDEN
 62
     7
100
AcDbCircle
 10
101.0207
 20
72.643902
 30
0.0
 40
1.489
100
AcDbArc
 50
61.52300000000001
 51
79.32300000000001
  0
ARC
  5
280
330
18
100
AcDbEntity
  8
0
  6
HIDDEN
 62
     7
100
AcDbCircle
 10
100.8847
 20
72.019902
 30
0.0
 40
2.115
100
AcDbArc
 50
79.367
 51
80.10300000000001
  0
ARC
  5
281
330
18
100
AcDbEntity
  8
0
  6
HIDDEN
 62
     7
100
AcDbCircle
 10
100.8847
 20
72.019902
 30
0.0
 40
2.115
100
AcDbArc
 50
92.64599999999999
 51
94.264
  0
ARC
  5
282
330
18
100
AcDbEntity
  8
0
  6
HIDDEN
 62
     7
100
AcDbCircle
 10
100.8847
 20
72.019902
 30
0.0
 40
2.115
100
AcDbArc
 50
94.264
 51
109.155
  0
ARC
  5
283
330
18
100
AcDbEntity
  8
0
  6
HIDDEN
 62
     7
100
AcDbCircle
 10
100.6957
 20
72.616902
 30
0.0
 40
1.491
100
AcDbArc
 50
109.094
 51
113.117
  0
ARC
  5
284
330
18
100
AcDbEntity
  8
0
  6
HIDDEN
 62
     7
100
AcDbCircle
 10
100.5867
 20
73.863902
 30
0.0
 40
1.489
100
AcDbArc
 50
241.523
 51
245.858
  0
ARC
  5
285
330
18
100
AcDbEntity
  8
0
  6
HIDDEN
 62
     7
100
AcDbCircle
 10
100.7227
 20
74.48790200000001
 30
0.0
 40
2.115
100
AcDbArc
 50
262.265
 51
272.793
  0
ARC
  5
286
330
18
100
AcDbEntity
  8
0
  6
HIDDEN
 62
     7
100
AcDbCircle
 10
107.2037
 20
74.406902
 30
0.0
 40
2.115
100
AcDbArc
 50
262.265
 51
272.793
  0
ARC
  5
287
330
18
100
AcDbEntity
  8
0
  6
HIDDEN
 62
     7
100
AcDbCircle
 10
106.5257
 20
73.131902
 30
0.0
 40
0.569
100
AcDbArc
 50
212.932
 51
217.088
  0
ARC
  5
288
330
18
100
AcDbEntity
  8
0
  6
HIDDEN
 62
     7
100
AcDbCircle
 10
106.8777
 20
73.402902
 30
0.0
 40
1.03
100
AcDbArc
 50
217.081
 51
241.546
  0
ARC
  5
289
330
18
100
AcDbEntity
  8
0
  6
HIDDEN
 62
     7
100
AcDbCircle
 10
107.0947
 20
73.78290200000001
 30
0.0
 40
1.489
100
AcDbArc
 50
241.523
 51
245.858
  0
ARC
  5
28A
330
18
100
AcDbEntity
  8
0
  6
HIDDEN
 62
     7
100
AcDbCircle
 10
106.9047
 20
72.914902
 30
0.0
 40
1.03
100
AcDbArc
 50
132.547
 51
151.413
  0
ARC
  5
28B
330
18
100
AcDbEntity
  8
0
  6
HIDDEN
 62
     7
100
AcDbCircle
 10
106.5257
 20
73.131902
 30
0.0
 40
0.5670000000000001
100
AcDbArc
 50
151.477
 51
182.454
  0
ARC
  5
28C
330
18
100
AcDbEntity
  8
0
  6
HIDDEN
 62
     7
100
AcDbCircle
 10
107.3927
 20
71.938902
 30
0.0
 40
2.115
100
AcDbArc
 50
92.64599999999999
 51
94.264
  0
ARC
  5
28D
330
18
100
AcDbEntity
  8
0
  6
HIDDEN
 62
     7
100
AcDbCircle
 10
107.3927
 20
71.938902
 30
0.0
 40
2.115
100
AcDbArc
 50
94.264
 51
109.155
  0
ARC
  5
28E
330
18
100
AcDbEntity
  8
0
  6
HIDDEN
 62
     7
100
AcDbCircle
 10
107.1757
 20
72.53590200000001
 30
0.0
 40
1.491
100
AcDbArc
 50
109.093
 51
113.116
  0
ARC
  5
28F
330
18
100
AcDbEntity
  8
0
  6
HIDDEN
 62
     7
100
AcDbCircle
 10
107.7187
 20
72.968902
 30
0.0
 40
1.03
100
AcDbArc
 50
48.09100000000001
 51
61.54600000000001
  0
ARC
  5
290
330
18
100
AcDbEntity
  8
0
  6
HIDDEN
 62
     7
100
AcDbCircle
 10
107.5017
 20
72.56290200000001
 30
0.0
 40
1.489
100
AcDbArc
 50
61.52300000000001
 51
79.32300000000001
  0
ARC
  5
291
330
18
100
AcDbEntity
  8
0
  6
HIDDEN
 62
     7
100
AcDbCircle
 10
107.3927
 20
71.938902
 30
0.0
 40
2.115
100
AcDbArc
 50
79.367
 51
80.10300000000001
  0
ARC
  5
292
330
18
100
AcDbEntity
  8
0
  6
HIDDEN
 62
     7
100
AcDbCircle
 10
107.6917
 20
73.457902
 30
0.0
 40
1.03
100
AcDbArc
 50
328.234
 51
331.414
  0
ARC
  5
293
330
18
100
AcDbEntity
  8
0
  6
HIDDEN
 62
     7
100
AcDbCircle
 10
108.0977
 20
73.24090200000001
 30
0.0
 40
0.5670000000000001
100
AcDbArc
 50
331.477
 51
4.378
  0
ARC
  5
294
330
18
100
AcDbEntity
  8
0
  6
HIDDEN
 62
     7
100
AcDbCircle
 10
108.0977
 20
73.24090200000001
 30
0.0
 40
0.569
100
AcDbArc
 50
4.378
 51
31.197
  0
ARC
  5
295
330
18
100
AcDbEntity
  8
0
  6
HIDDEN
 62
     7
100
AcDbCircle
 10
107.2037
 20
74.406902
 30
0.0
 40
2.115
100
AcDbArc
 50
285.925
 51
289.155
  0
ARC
  5
296
330
18
100
AcDbEntity
  8
0
  6
HIDDEN
 62
     7
100
AcDbCircle
 10
107.4207
 20
73.80990200000001
 30
0.0
 40
1.491
100
AcDbArc
 50
289.094
 51
307.016
  0
ARC
  5
297
330
18
100
AcDbEntity
  8
0
  6
HIDDEN
 62
     7
100
AcDbCircle
 10
107.6917
 20
73.457902
 30
0.0
 40
1.033
100
AcDbArc
 50
306.991
 51
307.201
  0
ARC
  5
298
330
18
100
AcDbEntity
  8
0
  6
HIDDEN
 62
     7
100
AcDbCircle
 10
108.8037
 20
74.379902
 30
0.0
 40
1.03
100
AcDbArc
 50
358.794
 51
62.424
  0
LWPOLYLINE
  5
299
330
18
100
AcDbEntity
  8
0
  6
HIDDEN
 62
     7
100
AcDbPolyline
 90
        2
 70
     0
 43
0.0
 10
106.0647
 20
76.95590200000001
 10
109.2917
 20
75.27390200000001
  0
LWPOLYLINE
  5
29E
330
18
100
AcDbEntity
  8
0
  6
Continuous
 62
     7
100
AcDbPolyline
 90
        2
 70
     0
 43
0.0
 10
128.4357
 20
55.505902
 10
131.2287
 20
56.563902
  0
LWPOLYLINE
  5
2A3
330
18
100
AcDbEntity
  8
0
  6
Continuous
 62
     7
100
AcDbPolyline
 90
        2
 70
     0
 43
0.0
 10
128.3817
 20
57.485902
 10
131.4457
 20
58.190902
  0
LWPOLYLINE
  5
2A8
330
18
100
AcDbEntity
  8
0
  6
Continuous
 62
     7
100
AcDbPolyline
 90
        2
 70
     0
 43
0.0
 10
128.3277
 20
59.437902
 10
132.3407
 20
60.332902
  0
LWPOLYLINE
  5
2AD
330
18
100
AcDbEntity
  8
0
  6
Continuous
 62
     7
100
AcDbPolyline
 90
        2
 70
     0
 43
0.0
 10
128.2457
 20
62.040902
 10
130.5777
 20
62.772902
  0
LWPOLYLINE
  5
2B2
330
18
100
AcDbEntity
  8
0
  6
Continuous
 62
     7
100
AcDbPolyline
 90
        2
 70
     0
 43
0.0
 10
128.2737
 20
61.281902
 10
130.9577
 20
61.823902
  0
LWPOLYLINE
  5
2B7
330
18
100
AcDbEntity
  8
0
  6
Continuous
 62
     7
100
AcDbPolyline
 90
        2
 70
     0
 43
0.0
 10
130.9577
 20
61.823902
 10
132.2867
 20
61.932902
  0
LWPOLYLINE
  5
2BC
330
18
100
AcDbEntity
  8
0
  6
Continuous
 62
     7
100
AcDbPolyline
 90
        2
 70
     0
 43
0.0
 10
100.3427
 20
104.234902
 10
102.9457
 20
105.048902
  0
LWPOLYLINE
  5
2C1
330
18
100
AcDbEntity
  8
0
  6
Continuous
 62
     7
100
AcDbPolyline
 90
        2
 70
     0
 43
0.0
 10
100.3427
 20
104.858902
 10
102.6747
 20
105.590902
  0
LWPOLYLINE
  5
2C6
330
18
100
AcDbEntity
  8
0
  6
Continuous
 62
     7
100
AcDbPolyline
 90
        2
 70
     0
 43
0.0
 10
102.2137
 20
105.455902
 10
102.9457
 20
105.048902
  0
LWPOLYLINE
  5
2CB
330
18
100
AcDbEntity
  8
0
  6
Continuous
 62
     7
100
AcDbPolyline
 90
        2
 70
     0
 43
0.0
 10
100.3427
 20
104.858902
 10
100.3427
 20
104.234902
  0
LWPOLYLINE
  5
2D0
330
18
100
AcDbEntity
  8
0
  6
Continuous
 62
     7
100
AcDbPolyline
 90
        2
 70
     0
 43
0.0
 10
104.1387
 20
106.160902
 10
104.1657
 20
105.536902
  0
LWPOLYLINE
  5
2D5
330
18
100
AcDbEntity
  8
0
  6
Continuous
 62
     7
100
AcDbPolyline
 90
        2
 70
     0
 43
0.0
 10
104.1387
 20
106.160902
 10
106.4987
 20
106.892902
  0
LWPOLYLINE
  5
2DA
330
18
100
AcDbEntity
  8
0
  6
Continuous
 62
     7
100
AcDbPolyline
 90
        2
 70
     0
 43
0.0
 10
104.1657
 20
105.536902
 10
106.7697
 20
106.350902
  0
LWPOLYLINE
  5
2DF
330
18
100
AcDbEntity
  8
0
  6
Continuous
 62
     7
100
AcDbPolyline
 90
        2
 70
     0
 43
0.0
 10
106.0097
 20
106.756902
 10
106.7697
 20
106.350902
  0
LWPOLYLINE
  5
2E4
330
18
100
AcDbEntity
  8
0
  6
HIDDEN
 62
     7
100
AcDbPolyline
 90
        2
 70
     0
 43
0.0
 10
98.1467
 20
123.379902
 10
100.9397
 20
127.962902
  0
LWPOLYLINE
  5
2E9
330
18
100
AcDbEntity
  8
0
  6
HIDDEN
 62
     7
100
AcDbPolyline
 90
        2
 70
     0
 43
0.0
 10
99.9357
 20
131.162902
 10
92.55970000000001
 20
135.500902
  0
LWPOLYLINE
  5
2EE
330
18
100
AcDbEntity
  8
0
  6
Continuous
 62
     7
100
AcDbPolyline
 90
        2
 70
     0
 43
0.0
 10
122.0637
 20
123.135902
 10
98.8787
 20
115.732902
  0
LWPOLYLINE
  5
2F3
330
18
100
AcDbEntity
  8
0
  6
Continuous
 62
     7
100
AcDbPolyline
 90
        2
 70
     0
 43
0.0
 10
121.2497
 20
123.732902
 10
98.0377
 20
116.356902
  0
LWPOLYLINE
  5
2F8
330
18
100
AcDbEntity
  8
0
  6
Continuous
 62
     7
100
AcDbPolyline
 90
        2
 70
     0
 43
0.0
 10
85.1027
 20
129.480902
 10
92.55970000000001
 20
135.500902
  0
ARC
  5
2FD
330
18
100
AcDbEntity
  8
0
  6
Continuous
 62
     7
100
AcDbCircle
 10
92.26170000000001
 20
132.572902
 30
0.0
 40
0.8140000000000001
100
AcDbArc
 50
59.59200000000001
 51
84.06100000000001
  0
ARC
  5
2FE
330
18
100
AcDbEntity
  8
0
  6
Continuous
 62
     7
100
AcDbCircle
 10
92.2347
 20
132.165902
 30
0.0
 40
1.22
100
AcDbArc
 50
84.01100000000001
 51
101.16
  0
ARC
  5
2FF
330
18
100
AcDbEntity
  8
0
  6
Continuous
 62
     7
100
AcDbCircle
 10
92.34269999999999
 20
131.623902
 30
0.0
 40
1.79
100
AcDbArc
 50
101.191
 51
115.4
  0
LWPOLYLINE
  5
300
330
18
100
AcDbEntity
  8
0
  6
Continuous
 62
     7
100
AcDbPolyline
 90
        2
 70
     0
 43
0.0
 10
96.22069999999999
 20
129.589902
 10
92.55970000000001
 20
135.500902
  0
LWPOLYLINE
  5
305
330
18
100
AcDbEntity
  8
0
  6
HIDDEN
 62
     7
100
AcDbPolyline
 90
        2
 70
     0
 43
0.0
 10
95.8687
 20
123.379902
 10
98.1467
 20
123.379902
  0
LWPOLYLINE
  5
30A
330
18
100
AcDbEntity
  8
0
  6
HIDDEN
 62
     7
100
AcDbPolyline
 90
        2
 70
     0
 43
0.0
 10
95.1087
 20
123.786902
 10
95.8687
 20
123.379902
  0
ARC
  5
30F
330
18
100
AcDbEntity
  8
0
  6
Continuous
 62
     7
100
AcDbCircle
 10
92.2077
 20
132.545902
 30
0.0
 40
0.8140000000000001
100
AcDbArc
 50
326.68
 51
351.167
  0
ARC
  5
310
330
18
100
AcDbEntity
  8
0
  6
Continuous
 62
     7
100
AcDbCircle
 10
92.5877
 20
132.490902
 30
0.0
 40
0.407
100
AcDbArc
 50
351.167
 51
25.202
  0
ARC
  5
311
330
18
100
AcDbEntity
  8
0
  6
Continuous
 62
     7
100
AcDbCircle
 10
92.5877
 20
132.490902
 30
0.0
 40
0.407
100
AcDbArc
 50
25.202
 51
49.067
  0
ARC
  5
312
330
18
100
AcDbEntity
  8
0
  6
Continuous
 62
     7
100
AcDbCircle
 10
92.07170000000001
 20
132.978902
 30
0.0
 40
0.8140000000000001
100
AcDbArc
 50
326.68
 51
351.167
  0
ARC
  5
313
330
18
100
AcDbEntity
  8
0
  6
Continuous
 62
     7
100
AcDbCircle
 10
92.4787
 20
132.924902
 30
0.0
 40
0.407
100
AcDbArc
 50
351.166
 51
25.201
  0
ARC
  5
314
330
18
100
AcDbEntity
  8
0
  6
Continuous
 62
     7
100
AcDbCircle
 10
94.0517
 20
125.521902
 30
0.0
 40
0.488
100
AcDbArc
 50
55.868
 51
75.887
  0
ARC
  5
315
330
18
100
AcDbEntity
  8
0
  6
Continuous
 62
     7
100
AcDbCircle
 10
94.0517
 20
125.521902
 30
0.0
 40
0.488
100
AcDbArc
 50
75.887
 51
107.732
  0
ARC
  5
316
330
18
100
AcDbEntity
  8
0
  6
Continuous
 62
     7
100
AcDbCircle
 10
94.1597
 20
125.196902
 30
0.0
 40
0.8140000000000001
100
AcDbArc
 50
107.651
 51
132.158
  0
ARC
  5
317
330
18
100
AcDbEntity
  8
0
  6
Continuous
 62
     7
100
AcDbCircle
 10
94.3767
 20
124.952902
 30
0.0
 40
1.166
100
AcDbArc
 50
132.076
 51
150.338
  0
ARC
  5
318
330
18
100
AcDbEntity
  8
0
  6
Continuous
 62
     7
100
AcDbCircle
 10
94.7837
 20
124.708902
 30
0.0
 40
1.63
100
AcDbArc
 50
150.362
 51
165.825
  0
ARC
  5
319
330
18
100
AcDbEntity
  8
0
  6
Continuous
 62
     7
100
AcDbCircle
 10
94.7837
 20
124.708902
 30
0.0
 40
1.627
100
AcDbArc
 50
165.825
 51
181.241
  0
ARC
  5
31A
330
18
100
AcDbEntity
  8
0
  6
Continuous
 62
     7
100
AcDbCircle
 10
94.3227
 20
124.708902
 30
0.0
 40
1.166
100
AcDbArc
 50
181.199
 51
199.573
  0
ARC
  5
31B
330
18
100
AcDbEntity
  8
0
  6
Continuous
 62
     7
100
AcDbCircle
 10
93.9977
 20
124.599902
 30
0.0
 40
0.8140000000000001
100
AcDbArc
 50
199.462
 51
223.919
  0
ARC
  5
31C
330
18
100
AcDbEntity
  8
0
  6
Continuous
 62
     7
100
AcDbCircle
 10
93.7537
 20
124.355902
 30
0.0
 40
0.488
100
AcDbArc
 50
223.877
 51
255.887
  0
ARC
  5
31D
330
18
100
AcDbEntity
  8
0
  6
Continuous
 62
     7
100
AcDbCircle
 10
93.7537
 20
124.355902
 30
0.0
 40
0.488
100
AcDbArc
 50
255.887
 51
280.874
  0
ARC
  5
31E
330
18
100
AcDbEntity
  8
0
  6
Continuous
 62
     7
100
AcDbCircle
 10
94.4037
 20
125.440902
 30
0.0
 40
0.488
100
AcDbArc
 50
75.887
 51
107.732
  0
ARC
  5
31F
330
18
100
AcDbEntity
  8
0
  6
Continuous
 62
     7
100
AcDbCircle
 10
94.5127
 20
125.114902
 30
0.0
 40
0.8140000000000001
100
AcDbArc
 50
107.651
 51
132.158
  0
ARC
  5
320
330
18
100
AcDbEntity
  8
0
  6
Continuous
 62
     7
100
AcDbCircle
 10
94.72969999999999
 20
124.870902
 30
0.0
 40
1.166
100
AcDbArc
 50
132.077
 51
150.338
  0
ARC
  5
321
330
18
100
AcDbEntity
  8
0
  6
Continuous
 62
     7
100
AcDbCircle
 10
95.13670000000001
 20
124.653902
 30
0.0
 40
1.63
100
AcDbArc
 50
150.362
 51
165.825
  0
ARC
  5
322
330
18
100
AcDbEntity
  8
0
  6
Continuous
 62
     7
100
AcDbCircle
 10
95.13670000000001
 20
124.653902
 30
0.0
 40
1.627
100
AcDbArc
 50
165.825
 51
181.241
  0
ARC
  5
323
330
18
100
AcDbEntity
  8
0
  6
Continuous
 62
     7
100
AcDbCircle
 10
94.67570000000001
 20
124.626902
 30
0.0
 40
1.166
100
AcDbArc
 50
181.199
 51
199.573
  0
ARC
  5
324
330
18
100
AcDbEntity
  8
0
  6
Continuous
 62
     7
100
AcDbCircle
 10
94.3767
 20
124.518902
 30
0.0
 40
0.8140000000000001
100
AcDbArc
 50
199.461
 51
223.919
  0
ARC
  5
325
330
18
100
AcDbEntity
  8
0
  6
Continuous
 62
     7
100
AcDbCircle
 10
94.1327
 20
124.301902
 30
0.0
 40
0.488
100
AcDbArc
 50
223.877
 51
255.887
  0
ARC
  5
326
330
18
100
AcDbEntity
  8
0
  6
Continuous
 62
     7
100
AcDbCircle
 10
94.1327
 20
124.301902
 30
0.0
 40
0.488
100
AcDbArc
 50
255.887
 51
287.733
  0
ARC
  5
327
330
18
100
AcDbEntity
  8
0
  6
Continuous
 62
     7
100
AcDbCircle
 10
94.0247
 20
124.599902
 30
0.0
 40
0.8140000000000001
100
AcDbArc
 50
287.65
 51
312.158
  0
ARC
  5
328
330
18
100
AcDbEntity
  8
0
  6
Continuous
 62
     7
100
AcDbCircle
 10
93.8077
 20
124.870902
 30
0.0
 40
1.166
100
AcDbArc
 50
312.076
 51
330.338
  0
ARC
  5
329
330
18
100
AcDbEntity
  8
0
  6
Continuous
 62
     7
100
AcDbCircle
 10
93.4007
 20
125.087902
 30
0.0
 40
1.63
100
AcDbArc
 50
330.362
 51
345.825
  0
ARC
  5
32A
330
18
100
AcDbEntity
  8
0
  6
Continuous
 62
     7
100
AcDbCircle
 10
93.4007
 20
125.087902
 30
0.0
 40
1.627
100
AcDbArc
 50
345.825
 51
1.241
  0
ARC
  5
32B
330
18
100
AcDbEntity
  8
0
  6
Continuous
 62
     7
100
AcDbCircle
 10
93.8617
 20
125.087902
 30
0.0
 40
1.166
100
AcDbArc
 50
1.199
 51
19.573
  0
ARC
  5
32C
330
18
100
AcDbEntity
  8
0
  6
Continuous
 62
     7
100
AcDbCircle
 10
94.1597
 20
125.196902
 30
0.0
 40
0.8140000000000001
100
AcDbArc
 50
19.461
 51
43.919
  0
ARC
  5
32D
330
18
100
AcDbEntity
  8
0
  6
Continuous
 62
     7
100
AcDbCircle
 10
94.4037
 20
125.440902
 30
0.0
 40
0.488
100
AcDbArc
 50
43.877
 51
75.887
  0
LWPOLYLINE
  5
32E
330
18
100
AcDbEntity
  8
0
  6
Continuous
 62
     7
100
AcDbPolyline
 90
        2
 70
     0
 43
0.0
 10
85.1027
 20
129.480902
 10
87.70569999999999
 20
123.271902
  0
ARC
  5
333
330
18
100
AcDbEntity
  8
0
  6
Continuous
 62
     7
100
AcDbCircle
 10
86.45869999999999
 20
122.755902
 30
0.0
 40
1.356
100
AcDbArc
 50
0.8020000000000002
 51
22.822
  0
LWPOLYLINE
  5
334
330
18
100
AcDbEntity
  8
0
  6
Continuous
 62
     7
100
AcDbPolyline
 90
        2
 70
     0
 43
0.0
 10
88.4927
 20
123.406902
 10
85.1027
 20
129.480902
  0
ARC
  5
339
330
18
100
AcDbEntity
  8
0
  6
Continuous
 62
     7
100
AcDbCircle
 10
87.6247
 20
122.918902
 30
0.0
 40
1.03
100
AcDbArc
 50
0.904
 51
29.333
  0
LWPOLYLINE
  5
33A
330
18
100
AcDbEntity
  8
0
  6
HIDDEN
 62
     7
100
AcDbPolyline
 90
        2
 70
     0
 43
0.0
 10
85.2927
 20
129.101902
 10
87.6247
 20
127.826902
  0
ARC
  5
33F
330
18
100
AcDbEntity
  8
0
  6
Continuous
 62
     7
100
AcDbCircle
 10
90.2007
 20
127.447902
 30
0.0
 40
0.407
100
AcDbArc
 50
25.201
 51
59.496
  0
ARC
  5
340
330
18
100
AcDbEntity
  8
0
  6
Continuous
 62
     7
100
AcDbCircle
 10
89.9837
 20
127.121902
 30
0.0
 40
0.8140000000000001
100
AcDbArc
 50
59.593
 51
84.06100000000001
  0
ARC
  5
341
330
18
100
AcDbEntity
  8
0
  6
Continuous
 62
     7
100
AcDbCircle
 10
89.9567
 20
126.714902
 30
0.0
 40
1.22
100
AcDbArc
 50
84.01100000000001
 51
101.16
  0
ARC
  5
342
330
18
100
AcDbEntity
  8
0
  6
Continuous
 62
     7
100
AcDbCircle
 10
90.06570000000001
 20
126.145902
 30
0.0
 40
1.79
100
AcDbArc
 50
101.191
 51
115.4
  0
ARC
  5
343
330
18
100
AcDbEntity
  8
0
  6
Continuous
 62
     7
100
AcDbCircle
 10
90.06570000000001
 20
126.145902
 30
0.0
 40
1.79
100
AcDbArc
 50
115.4
 51
129.528
  0
ARC
  5
344
330
18
100
AcDbEntity
  8
0
  6
Continuous
 62
     7
100
AcDbCircle
 10
89.6857
 20
126.579902
 30
0.0
 40
1.22
100
AcDbArc
 50
129.496
 51
146.698
  0
ARC
  5
345
330
18
100
AcDbEntity
  8
0
  6
Continuous
 62
     7
100
AcDbCircle
 10
89.36069999999999
 20
126.823902
 30
0.0
 40
0.8140000000000001
100
AcDbArc
 50
146.68
 51
171.167
  0
ARC
  5
346
330
18
100
AcDbEntity
  8
0
  6
Continuous
 62
     7
100
AcDbCircle
 10
88.9807
 20
126.877902
 30
0.0
 40
0.407
100
AcDbArc
 50
171.166
 51
205.201
  0
ARC
  5
347
330
18
100
AcDbEntity
  8
0
  6
Continuous
 62
     7
100
AcDbCircle
 10
88.9807
 20
126.877902
 30
0.0
 40
0.407
100
AcDbArc
 50
205.201
 51
239.496
  0
ARC
  5
348
330
18
100
AcDbEntity
  8
0
  6
Continuous
 62
     7
100
AcDbCircle
 10
89.1707
 20
127.202902
 30
0.0
 40
0.8140000000000001
100
AcDbArc
 50
239.592
 51
264.061
  0
ARC
  5
349
330
18
100
AcDbEntity
  8
0
  6
Continuous
 62
     7
100
AcDbCircle
 10
89.2247
 20
127.609902
 30
0.0
 40
1.22
100
AcDbArc
 50
264.011
 51
281.16
  0
ARC
  5
34A
330
18
100
AcDbEntity
  8
0
  6
Continuous
 62
     7
100
AcDbCircle
 10
89.11669999999999
 20
128.179902
 30
0.0
 40
1.79
100
AcDbArc
 50
281.191
 51
295.4
  0
ARC
  5
34B
330
18
100
AcDbEntity
  8
0
  6
Continuous
 62
     7
100
AcDbCircle
 10
89.11669999999999
 20
128.179902
 30
0.0
 40
1.79
100
AcDbArc
 50
295.4
 51
309.528
  0
ARC
  5
34C
330
18
100
AcDbEntity
  8
0
  6
Continuous
 62
     7
100
AcDbCircle
 10
89.4687
 20
127.718902
 30
0.0
 40
1.22
100
AcDbArc
 50
309.496
 51
326.699
  0
ARC
  5
34D
330
18
100
AcDbEntity
  8
0
  6
Continuous
 62
     7
100
AcDbCircle
 10
89.7937
 20
127.501902
 30
0.0
 40
0.8140000000000001
100
AcDbArc
 50
326.68
 51
351.167
  0
ARC
  5
34E
330
18
100
AcDbEntity
  8
0
  6
Continuous
 62
     7
100
AcDbCircle
 10
90.2007
 20
127.447902
 30
0.0
 40
0.407
100
AcDbArc
 50
351.167
 51
25.201
  0
ARC
  5
34F
330
18
100
AcDbEntity
  8
0
  6
Continuous
 62
     7
100
AcDbCircle
 10
90.30970000000001
 20
127.013902
 30
0.0
 40
0.407
100
AcDbArc
 50
25.201
 51
49.06499999999999
  0
ARC
  5
350
330
18
100
AcDbEntity
  8
0
  6
Continuous
 62
     7
100
AcDbCircle
 10
89.4957
 20
126.389902
 30
0.0
 40
0.8140000000000001
100
AcDbArc
 50
167.306
 51
171.167
  0
ARC
  5
351
330
18
100
AcDbEntity
  8
0
  6
Continuous
 62
     7
100
AcDbCircle
 10
89.11669999999999
 20
126.443902
 30
0.0
 40
0.407
100
AcDbArc
 50
171.167
 51
205.201
  0
ARC
  5
352
330
18
100
AcDbEntity
  8
0
  6
Continuous
 62
     7
100
AcDbCircle
 10
89.11669999999999
 20
126.443902
 30
0.0
 40
0.407
100
AcDbArc
 50
205.201
 51
239.495
  0
ARC
  5
353
330
18
100
AcDbEntity
  8
0
  6
Continuous
 62
     7
100
AcDbCircle
 10
89.3057
 20
126.769902
 30
0.0
 40
0.8140000000000001
100
AcDbArc
 50
239.593
 51
264.061
  0
ARC
  5
354
330
18
100
AcDbEntity
  8
0
  6
Continuous
 62
     7
100
AcDbCircle
 10
89.3327
 20
127.175902
 30
0.0
 40
1.22
100
AcDbArc
 50
264.011
 51
281.16
  0
ARC
  5
355
330
18
100
AcDbEntity
  8
0
  6
Continuous
 62
     7
100
AcDbCircle
 10
89.2247
 20
127.745902
 30
0.0
 40
1.79
100
AcDbArc
 50
281.191
 51
295.4
  0
ARC
  5
356
330
18
100
AcDbEntity
  8
0
  6
Continuous
 62
     7
100
AcDbCircle
 10
89.2247
 20
127.745902
 30
0.0
 40
1.79
100
AcDbArc
 50
295.4
 51
309.528
  0
ARC
  5
357
330
18
100
AcDbEntity
  8
0
  6
Continuous
 62
     7
100
AcDbCircle
 10
89.60469999999999
 20
127.311902
 30
0.0
 40
1.22
100
AcDbArc
 50
309.496
 51
326.699
  0
ARC
  5
358
330
18
100
AcDbEntity
  8
0
  6
Continuous
 62
     7
100
AcDbCircle
 10
89.9297
 20
127.067902
 30
0.0
 40
0.8140000000000001
100
AcDbArc
 50
326.68
 51
351.167
  0
ARC
  5
359
330
18
100
AcDbEntity
  8
0
  6
Continuous
 62
     7
100
AcDbCircle
 10
90.30970000000001
 20
127.013902
 30
0.0
 40
0.407
100
AcDbArc
 50
351.167
 51
25.201
  0
ARC
  5
35A
330
18
100
AcDbEntity
  8
0
  6
Continuous
 62
     7
100
AcDbCircle
 10
91.77370000000001
 20
131.840902
 30
0.0
 40
0.8140000000000001
100
AcDbArc
 50
167.306
 51
171.167
  0
ARC
  5
35B
330
18
100
AcDbEntity
  8
0
  6
Continuous
 62
     7
100
AcDbCircle
 10
91.3937
 20
131.894902
 30
0.0
 40
0.407
100
AcDbArc
 50
171.167
 51
205.201
  0
ARC
  5
35C
330
18
100
AcDbEntity
  8
0
  6
Continuous
 62
     7
100
AcDbCircle
 10
91.3937
 20
131.894902
 30
0.0
 40
0.407
100
AcDbArc
 50
205.201
 51
239.495
  0
ARC
  5
35D
330
18
100
AcDbEntity
  8
0
  6
Continuous
 62
     7
100
AcDbCircle
 10
91.58369999999999
 20
132.246902
 30
0.0
 40
0.8140000000000001
100
AcDbArc
 50
239.592
 51
264.061
  0
ARC
  5
35E
330
18
100
AcDbEntity
  8
0
  6
Continuous
 62
     7
100
AcDbCircle
 10
91.61069999999999
 20
132.653902
 30
0.0
 40
1.22
100
AcDbArc
 50
264.011
 51
281.16
  0
ARC
  5
35F
330
18
100
AcDbEntity
  8
0
  6
Continuous
 62
     7
100
AcDbCircle
 10
91.5027
 20
133.195902
 30
0.0
 40
1.79
100
AcDbArc
 50
281.191
 51
295.4
  0
ARC
  5
360
330
18
100
AcDbEntity
  8
0
  6
Continuous
 62
     7
100
AcDbCircle
 10
91.5027
 20
133.195902
 30
0.0
 40
1.79
100
AcDbArc
 50
295.4
 51
309.528
  0
ARC
  5
361
330
18
100
AcDbEntity
  8
0
  6
Continuous
 62
     7
100
AcDbCircle
 10
92.34269999999999
 20
131.623902
 30
0.0
 40
1.79
100
AcDbArc
 50
115.4
 51
129.528
  0
ARC
  5
362
330
18
100
AcDbEntity
  8
0
  6
Continuous
 62
     7
100
AcDbCircle
 10
91.9637
 20
132.056902
 30
0.0
 40
1.22
100
AcDbArc
 50
129.496
 51
146.699
  0
ARC
  5
363
330
18
100
AcDbEntity
  8
0
  6
Continuous
 62
     7
100
AcDbCircle
 10
91.6377
 20
132.273902
 30
0.0
 40
0.8140000000000001
100
AcDbArc
 50
146.68
 51
171.167
  0
ARC
  5
364
330
18
100
AcDbEntity
  8
0
  6
Continuous
 62
     7
100
AcDbCircle
 10
91.25870000000001
 20
132.328902
 30
0.0
 40
0.407
100
AcDbArc
 50
171.167
 51
205.201
  0
ARC
  5
365
330
18
100
AcDbEntity
  8
0
  6
Continuous
 62
     7
100
AcDbCircle
 10
91.25870000000001
 20
132.328902
 30
0.0
 40
0.407
100
AcDbArc
 50
205.201
 51
239.495
  0
ARC
  5
366
330
18
100
AcDbEntity
  8
0
  6
Continuous
 62
     7
100
AcDbCircle
 10
91.4487
 20
132.680902
 30
0.0
 40
0.8140000000000001
100
AcDbArc
 50
239.593
 51
264.061
  0
ARC
  5
367
330
18
100
AcDbEntity
  8
0
  6
Continuous
 62
     7
100
AcDbCircle
 10
91.5027
 20
133.087902
 30
0.0
 40
1.22
100
AcDbArc
 50
264.011
 51
281.16
  0
ARC
  5
368
330
18
100
AcDbEntity
  8
0
  6
Continuous
 62
     7
100
AcDbCircle
 10
91.3937
 20
133.629902
 30
0.0
 40
1.79
100
AcDbArc
 50
281.191
 51
295.4
  0
ARC
  5
369
330
18
100
AcDbEntity
  8
0
  6
Continuous
 62
     7
100
AcDbCircle
 10
91.3937
 20
133.629902
 30
0.0
 40
1.79
100
AcDbArc
 50
295.4
 51
309.528
  0
ARC
  5
36A
330
18
100
AcDbEntity
  8
0
  6
Continuous
 62
     7
100
AcDbCircle
 10
92.1267
 20
121.535902
 30
0.0
 40
0.488
100
AcDbArc
 50
75.887
 51
107.733
  0
ARC
  5
36B
330
18
100
AcDbEntity
  8
0
  6
Continuous
 62
     7
100
AcDbCircle
 10
92.2077
 20
121.210902
 30
0.0
 40
0.8140000000000001
100
AcDbArc
 50
107.65
 51
132.158
  0
ARC
  5
36C
330
18
100
AcDbEntity
  8
0
  6
Continuous
 62
     7
100
AcDbCircle
 10
92.4517
 20
120.966902
 30
0.0
 40
1.166
100
AcDbArc
 50
132.077
 51
150.338
  0
ARC
  5
36D
330
18
100
AcDbEntity
  8
0
  6
Continuous
 62
     7
100
AcDbCircle
 10
92.8317
 20
120.749902
 30
0.0
 40
1.63
100
AcDbArc
 50
150.362
 51
165.825
  0
ARC
  5
36E
330
18
100
AcDbEntity
  8
0
  6
Continuous
 62
     7
100
AcDbCircle
 10
91.8817
 20
121.291902
 30
0.0
 40
0.8140000000000001
100
AcDbArc
 50
19.461
 51
43.919
  0
ARC
  5
36F
330
18
100
AcDbEntity
  8
0
  6
Continuous
 62
     7
100
AcDbCircle
 10
92.1267
 20
121.535902
 30
0.0
 40
0.488
100
AcDbArc
 50
43.877
 51
75.887
  0
ARC
  5
370
330
18
100
AcDbEntity
  8
0
  6
Continuous
 62
     7
100
AcDbCircle
 10
91.7467
 20
121.616902
 30
0.0
 40
0.488
100
AcDbArc
 50
75.887
 51
107.733
  0
ARC
  5
371
330
18
100
AcDbEntity
  8
0
  6
Continuous
 62
     7
100
AcDbCircle
 10
91.85469999999999
 20
121.291902
 30
0.0
 40
0.8140000000000001
100
AcDbArc
 50
107.65
 51
132.158
  0
ARC
  5
372
330
18
100
AcDbEntity
  8
0
  6
Continuous
 62
     7
100
AcDbCircle
 10
92.07170000000001
 20
121.047902
 30
0.0
 40
1.166
100
AcDbArc
 50
132.077
 51
150.338
  0
ARC
  5
373
330
18
100
AcDbEntity
  8
0
  6
Continuous
 62
     7
100
AcDbCircle
 10
92.4787
 20
120.803902
 30
0.0
 40
1.63
100
AcDbArc
 50
150.362
 51
165.825
  0
ARC
  5
374
330
18
100
AcDbEntity
  8
0
  6
Continuous
 62
     7
100
AcDbCircle
 10
92.4787
 20
120.803902
 30
0.0
 40
1.627
100
AcDbArc
 50
165.825
 51
181.241
  0
ARC
  5
375
330
18
100
AcDbEntity
  8
0
  6
Continuous
 62
     7
100
AcDbCircle
 10
91.7467
 20
121.616902
 30
0.0
 40
0.488
100
AcDbArc
 50
55.869
 51
75.887
  0
LWPOLYLINE
  5
376
330
18
100
AcDbEntity
  8
0
  6
Continuous
 62
     7
100
AcDbPolyline
 90
        2
 70
     0
 43
0.0
 10
89.4687
 20
123.162902
 10
95.0277
 20
127.772902
  0
LWPOLYLINE
  5
37B
330
18
100
AcDbEntity
  8
0
  6
Continuous
 62
     7
100
AcDbPolyline
 90
        2
 70
     0
 43
0.0
 10
95.21769999999999
 20
127.121902
 10
89.9027
 20
122.891902
  0
LWPOLYLINE
  5
380
330
18
100
AcDbEntity
  8
0
  6
HIDDEN
 62
     7
100
AcDbPolyline
 90
        2
 70
     0
 43
0.0
 10
90.9877
 20
126.009902
 10
92.9127
 20
124.979902
  0
ARC
  5
385
330
18
100
AcDbEntity
  8
0
  6
Continuous
 62
     7
100
AcDbCircle
 10
91.8817
 20
132.761902
 30
0.0
 40
1.22
100
AcDbArc
 50
309.496
 51
326.699
  0
ARC
  5
386
330
18
100
AcDbEntity
  8
0
  6
Continuous
 62
     7
100
AcDbCircle
 10
92.4787
 20
132.924902
 30
0.0
 40
0.407
100
AcDbArc
 50
25.201
 51
59.496
  0
ARC
  5
387
330
18
100
AcDbEntity
  8
0
  6
Continuous
 62
     7
100
AcDbCircle
 10
91.7467
 20
133.195902
 30
0.0
 40
1.22
100
AcDbArc
 50
309.496
 51
326.698
  0
ARC
  5
388
330
18
100
AcDbEntity
  8
0
  6
Continuous
 62
     7
100
AcDbCircle
 10
91.09569999999999
 20
121.183902
 30
0.0
 40
1.627
100
AcDbArc
 50
345.825
 51
1.241
  0
ARC
  5
389
330
18
100
AcDbEntity
  8
0
  6
Continuous
 62
     7
100
AcDbCircle
 10
91.55670000000001
 20
121.183902
 30
0.0
 40
1.166
100
AcDbArc
 50
1.199
 51
19.573
  0
LWPOLYLINE
  5
38A
330
18
100
AcDbEntity
  8
0
  6
Continuous
 62
     7
100
AcDbPolyline
 90
        2
 70
     0
 43
0.0
 10
98.8787
 20
115.732902
 10
98.0377
 20
116.356902
  0
LWPOLYLINE
  5
38F
330
18
100
AcDbEntity
  8
0
  6
Continuous
 62
     7
100
AcDbPolyline
 90
        2
 70
     0
 43
0.0
 10
87.92270000000001
 20
114.674902
 10
87.46169999999999
 20
113.644902
  0
ARC
  5
394
330
18
100
AcDbEntity
  8
0
  6
Continuous
 62
     7
100
AcDbCircle
 10
88.7097
 20
113.075902
 30
0.0
 40
1.356
100
AcDbArc
 50
155.537
 51
205.079
  0
LWPOLYLINE
  5
395
330
18
100
AcDbEntity
  8
0
  6
Continuous
 62
     7
100
AcDbPolyline
 90
        2
 70
     0
 43
0.0
 10
88.6557
 20
114.295902
 10
88.3567
 20
113.617902
  0
ARC
  5
39A
330
18
100
AcDbEntity
  8
0
  6
Continuous
 62
     7
100
AcDbCircle
 10
88.9537
 20
113.319902
 30
0.0
 40
0.6779999999999999
100
AcDbArc
 50
155.689
 51
205.128
  0
ARC
  5
39B
330
18
100
AcDbEntity
  8
0
  6
Continuous
 62
     7
100
AcDbCircle
 10
87.7337
 20
114.702902
 30
0.0
 40
1.03
100
AcDbArc
 50
335.593
 51
0.904
  0
ARC
  5
39C
330
18
100
AcDbEntity
  8
0
  6
Continuous
 62
     7
100
AcDbCircle
 10
92.3977
 20
120.722902
 30
0.0
 40
1.166
100
AcDbArc
 50
181.199
 51
199.573
  0
ARC
  5
39D
330
18
100
AcDbEntity
  8
0
  6
Continuous
 62
     7
100
AcDbCircle
 10
92.07170000000001
 20
120.613902
 30
0.0
 40
0.8140000000000001
100
AcDbArc
 50
199.461
 51
223.919
  0
ARC
  5
39E
330
18
100
AcDbEntity
  8
0
  6
Continuous
 62
     7
100
AcDbCircle
 10
91.82769999999999
 20
120.396902
 30
0.0
 40
0.488
100
AcDbArc
 50
223.876
 51
255.887
  0
ARC
  5
39F
330
18
100
AcDbEntity
  8
0
  6
Continuous
 62
     7
100
AcDbCircle
 10
91.82769999999999
 20
120.396902
 30
0.0
 40
0.488
100
AcDbArc
 50
255.887
 51
287.733
  0
ARC
  5
3A0
330
18
100
AcDbEntity
  8
0
  6
Continuous
 62
     7
100
AcDbCircle
 10
91.7197
 20
120.694902
 30
0.0
 40
0.8140000000000001
100
AcDbArc
 50
287.65
 51
312.158
  0
ARC
  5
3A1
330
18
100
AcDbEntity
  8
0
  6
Continuous
 62
     7
100
AcDbCircle
 10
91.5027
 20
120.966902
 30
0.0
 40
1.166
100
AcDbArc
 50
312.076
 51
330.338
  0
ARC
  5
3A2
330
18
100
AcDbEntity
  8
0
  6
Continuous
 62
     7
100
AcDbCircle
 10
91.6927
 20
120.694902
 30
0.0
 40
0.8140000000000001
100
AcDbArc
 50
199.461
 51
223.919
  0
ARC
  5
3A3
330
18
100
AcDbEntity
  8
0
  6
Continuous
 62
     7
100
AcDbCircle
 10
91.4487
 20
120.450902
 30
0.0
 40
0.488
100
AcDbArc
 50
223.877
 51
255.887
  0
ARC
  5
3A4
330
18
100
AcDbEntity
  8
0
  6
Continuous
 62
     7
100
AcDbCircle
 10
91.4487
 20
120.450902
 30
0.0
 40
0.488
100
AcDbArc
 50
255.887
 51
280.874
  0
LWPOLYLINE
  5
3A5
330
18
100
AcDbEntity
  8
0
  6
Continuous
 62
     7
100
AcDbPolyline
 90
        2
 70
     0
 43
0.0
 10
87.8147
 20
122.755902
 10
87.92270000000001
 20
114.674902
  0
LWPOLYLINE
  5
3AA
330
18
100
AcDbEntity
  8
0
  6
Continuous
 62
     7
100
AcDbPolyline
 90
        2
 70
     0
 43
0.0
 10
96.3297
 20
117.142902
 10
96.22069999999999
 20
129.589902
  0
LWPOLYLINE
  5
3AF
330
18
100
AcDbEntity
  8
0
  6
Continuous
 62
     7
100
AcDbPolyline
 90
        2
 70
     0
 43
0.0
 10
88.6277
 20
122.918902
 10
88.7367
 20
114.729902
  0
ARC
  5
3B4
330
18
100
AcDbEntity
  8
0
  6
Continuous
 62
     7
100
AcDbCircle
 10
92.8317
 20
120.749902
 30
0.0
 40
1.627
100
AcDbArc
 50
165.825
 51
181.241
  0
ARC
  5
3B5
330
18
100
AcDbEntity
  8
0
  6
Continuous
 62
     7
100
AcDbCircle
 10
91.09569999999999
 20
121.183902
 30
0.0
 40
1.63
100
AcDbArc
 50
330.362
 51
345.825
  0
ARC
  5
3B6
330
18
100
AcDbEntity
  8
0
  6
Continuous
 62
     7
100
AcDbCircle
 10
92.01770000000001
 20
120.803902
 30
0.0
 40
1.166
100
AcDbArc
 50
181.199
 51
199.573
  0
LWPOLYLINE
  5
3B7
330
18
100
AcDbEntity
  8
0
  6
Continuous
 62
     7
100
AcDbPolyline
 90
        2
 70
     0
 43
0.0
 10
115.6097
 20
109.441902
 10
118.2127
 20
110.254902
  0
LWPOLYLINE
  5
3BC
330
18
100
AcDbEntity
  8
0
  6
Continuous
 62
     7
100
AcDbPolyline
 90
        2
 70
     0
 43
0.0
 10
115.5827
 20
110.065902
 10
117.9417
 20
110.824902
  0
LWPOLYLINE
  5
3C1
330
18
100
AcDbEntity
  8
0
  6
Continuous
 62
     7
100
AcDbPolyline
 90
        2
 70
     0
 43
0.0
 10
115.5557
 20
112.695902
 10
118.1587
 20
113.536902
  0
LWPOLYLINE
  5
3C6
330
18
100
AcDbEntity
  8
0
  6
Continuous
 62
     7
100
AcDbPolyline
 90
        2
 70
     0
 43
0.0
 10
115.5557
 20
113.346902
 10
117.8877
 20
114.078902
  0
LWPOLYLINE
  5
3CB
330
18
100
AcDbEntity
  8
0
  6
Continuous
 62
     7
100
AcDbPolyline
 90
        2
 70
     0
 43
0.0
 10
115.5287
 20
116.600902
 10
117.8607
 20
117.359902
  0
LWPOLYLINE
  5
3D0
330
18
100
AcDbEntity
  8
0
  6
Continuous
 62
     7
100
AcDbPolyline
 90
        2
 70
     0
 43
0.0
 10
115.5287
 20
115.976902
 10
118.1317
 20
116.817902
  0
LWPOLYLINE
  5
3D5
330
18
100
AcDbEntity
  8
0
  6
Continuous
 62
     7
100
AcDbPolyline
 90
        2
 70
     0
 43
0.0
 10
115.5007
 20
119.257902
 10
118.1047
 20
120.071902
  0
LWPOLYLINE
  5
3DA
330
18
100
AcDbEntity
  8
0
  6
Continuous
 62
     7
100
AcDbPolyline
 90
        2
 70
     0
 43
0.0
 10
115.4737
 20
119.881902
 10
117.8327
 20
120.613902
  0
LWPOLYLINE
  5
3DF
330
18
100
AcDbEntity
  8
0
  6
HIDDEN
 62
     7
100
AcDbPolyline
 90
        2
 70
     0
 43
0.0
 10
100.9397
 20
127.962902
 10
99.9357
 20
131.162902
  0
LWPOLYLINE
  5
3E4
330
18
100
AcDbEntity
  8
0
  6
Continuous
 62
     7
100
AcDbPolyline
 90
        2
 70
     0
 43
0.0
 10
109.8337
 20
108.058902
 10
110.5927
 20
107.651902
  0
LWPOLYLINE
  5
3E9
330
18
100
AcDbEntity
  8
0
  6
Continuous
 62
     7
100
AcDbPolyline
 90
        2
 70
     0
 43
0.0
 10
109.7797
 20
111.312902
 10
110.5387
 20
110.932902
  0
LWPOLYLINE
  5
3EE
330
18
100
AcDbEntity
  8
0
  6
Continuous
 62
     7
100
AcDbPolyline
 90
        2
 70
     0
 43
0.0
 10
109.7527
 20
114.593902
 10
110.5117
 20
114.186902
  0
LWPOLYLINE
  5
3F3
330
18
100
AcDbEntity
  8
0
  6
Continuous
 62
     7
100
AcDbPolyline
 90
        2
 70
     0
 43
0.0
 10
109.7247
 20
117.874902
 10
110.4847
 20
117.467902
  0
LWPOLYLINE
  5
3F8
330
18
100
AcDbEntity
  8
0
  6
Continuous
 62
     7
100
AcDbPolyline
 90
        2
 70
     0
 43
0.0
 10
113.6297
 20
109.359902
 10
114.3897
 20
108.953902
  0
LWPOLYLINE
  5
3FD
330
18
100
AcDbEntity
  8
0
  6
Continuous
 62
     7
100
AcDbPolyline
 90
        2
 70
     0
 43
0.0
 10
111.7857
 20
108.139902
 10
114.3897
 20
108.953902
  0
LWPOLYLINE
  5
402
330
18
100
AcDbEntity
  8
0
  6
Continuous
 62
     7
100
AcDbPolyline
 90
        2
 70
     0
 43
0.0
 10
111.7857
 20
108.763902
 10
114.1177
 20
109.522902
  0
LWPOLYLINE
  5
407
330
18
100
AcDbEntity
  8
0
  6
Continuous
 62
     7
100
AcDbPolyline
 90
        2
 70
     0
 43
0.0
 10
111.7857
 20
108.763902
 10
111.7857
 20
108.139902
  0
LWPOLYLINE
  5
40C
330
18
100
AcDbEntity
  8
0
  6
Continuous
 62
     7
100
AcDbPolyline
 90
        2
 70
     0
 43
0.0
 10
113.6027
 20
112.614902
 10
114.3617
 20
112.234902
  0
LWPOLYLINE
  5
411
330
18
100
AcDbEntity
  8
0
  6
Continuous
 62
     7
100
AcDbPolyline
 90
        2
 70
     0
 43
0.0
 10
111.7587
 20
111.393902
 10
114.3617
 20
112.234902
  0
LWPOLYLINE
  5
416
330
18
100
AcDbEntity
  8
0
  6
Continuous
 62
     7
100
AcDbPolyline
 90
        2
 70
     0
 43
0.0
 10
111.7317
 20
112.044902
 10
114.0907
 20
112.776902
  0
LWPOLYLINE
  5
41B
330
18
100
AcDbEntity
  8
0
  6
Continuous
 62
     7
100
AcDbPolyline
 90
        2
 70
     0
 43
0.0
 10
111.7317
 20
112.044902
 10
111.7587
 20
111.393902
  0
LWPOLYLINE
  5
420
330
18
100
AcDbEntity
  8
0
  6
Continuous
 62
     7
100
AcDbPolyline
 90
        2
 70
     0
 43
0.0
 10
113.5757
 20
115.895902
 10
114.3347
 20
115.515902
  0
LWPOLYLINE
  5
425
330
18
100
AcDbEntity
  8
0
  6
Continuous
 62
     7
100
AcDbPolyline
 90
        2
 70
     0
 43
0.0
 10
111.7047
 20
115.298902
 10
111.7047
 20
114.674902
  0
LWPOLYLINE
  5
42A
330
18
100
AcDbEntity
  8
0
  6
Continuous
 62
     7
100
AcDbPolyline
 90
        2
 70
     0
 43
0.0
 10
111.7047
 20
115.298902
 10
114.0367
 20
116.057902
  0
LWPOLYLINE
  5
42F
330
18
100
AcDbEntity
  8
0
  6
Continuous
 62
     7
100
AcDbPolyline
 90
        2
 70
     0
 43
0.0
 10
111.7047
 20
114.674902
 10
114.3347
 20
115.515902
  0
LWPOLYLINE
  5
434
330
18
100
AcDbEntity
  8
0
  6
Continuous
 62
     7
100
AcDbPolyline
 90
        2
 70
     0
 43
0.0
 10
113.5217
 20
119.176902
 10
114.2807
 20
118.769902
  0
LWPOLYLINE
  5
439
330
18
100
AcDbEntity
  8
0
  6
Continuous
 62
     7
100
AcDbPolyline
 90
        2
 70
     0
 43
0.0
 10
111.6777
 20
117.956902
 10
114.2807
 20
118.769902
  0
LWPOLYLINE
  5
43E
330
18
100
AcDbEntity
  8
0
  6
Continuous
 62
     7
100
AcDbPolyline
 90
        2
 70
     0
 43
0.0
 10
111.6777
 20
118.579902
 10
114.0097
 20
119.311902
  0
LWPOLYLINE
  5
443
330
18
100
AcDbEntity
  8
0
  6
Continuous
 62
     7
100
AcDbPolyline
 90
        2
 70
     0
 43
0.0
 10
111.6777
 20
118.579902
 10
111.6777
 20
117.956902
  0
LWPOLYLINE
  5
448
330
18
100
AcDbEntity
  8
0
  6
Continuous
 62
     7
100
AcDbPolyline
 90
        2
 70
     0
 43
0.0
 10
115.5827
 20
110.065902
 10
115.6097
 20
109.441902
  0
LWPOLYLINE
  5
44D
330
18
100
AcDbEntity
  8
0
  6
Continuous
 62
     7
100
AcDbPolyline
 90
        2
 70
     0
 43
0.0
 10
115.5557
 20
113.346902
 10
115.5557
 20
112.695902
  0
LWPOLYLINE
  5
452
330
18
100
AcDbEntity
  8
0
  6
Continuous
 62
     7
100
AcDbPolyline
 90
        2
 70
     0
 43
0.0
 10
115.5287
 20
116.600902
 10
115.5287
 20
115.976902
  0
LWPOLYLINE
  5
457
330
18
100
AcDbEntity
  8
0
  6
Continuous
 62
     7
100
AcDbPolyline
 90
        2
 70
     0
 43
0.0
 10
115.4737
 20
119.881902
 10
115.5007
 20
119.257902
  0
LWPOLYLINE
  5
45C
330
18
100
AcDbEntity
  8
0
  6
Continuous
 62
     7
100
AcDbPolyline
 90
        2
 70
     0
 43
0.0
 10
100.2347
 20
114.024902
 10
102.8377
 20
114.864902
  0
LWPOLYLINE
  5
461
330
18
100
AcDbEntity
  8
0
  6
Continuous
 62
     7
100
AcDbPolyline
 90
        2
 70
     0
 43
0.0
 10
100.2347
 20
114.674902
 10
102.5667
 20
115.407902
  0
LWPOLYLINE
  5
466
330
18
100
AcDbEntity
  8
0
  6
Continuous
 62
     7
100
AcDbPolyline
 90
        2
 70
     0
 43
0.0
 10
102.1057
 20
115.271902
 10
102.8377
 20
114.864902
  0
LWPOLYLINE
  5
46B
330
18
100
AcDbEntity
  8
0
  6
Continuous
 62
     7
100
AcDbPolyline
 90
        2
 70
     0
 43
0.0
 10
100.2347
 20
114.674902
 10
100.2347
 20
114.024902
  0
LWPOLYLINE
  5
470
330
18
100
AcDbEntity
  8
0
  6
Continuous
 62
     7
100
AcDbPolyline
 90
        2
 70
     0
 43
0.0
 10
100.2617
 20
111.393902
 10
100.2617
 20
110.770902
  0
LWPOLYLINE
  5
475
330
18
100
AcDbEntity
  8
0
  6
Continuous
 62
     7
100
AcDbPolyline
 90
        2
 70
     0
 43
0.0
 10
100.2617
 20
111.393902
 10
102.6207
 20
112.153902
  0
LWPOLYLINE
  5
47A
330
18
100
AcDbEntity
  8
0
  6
Continuous
 62
     7
100
AcDbPolyline
 90
        2
 70
     0
 43
0.0
 10
100.2617
 20
110.770902
 10
102.8917
 20
111.583902
  0
LWPOLYLINE
  5
47F
330
18
100
AcDbEntity
  8
0
  6
Continuous
 62
     7
100
AcDbPolyline
 90
        2
 70
     0
 43
0.0
 10
102.1327
 20
111.990902
 10
102.8917
 20
111.583902
  0
LWPOLYLINE
  5
484
330
18
100
AcDbEntity
  8
0
  6
Continuous
 62
     7
100
AcDbPolyline
 90
        2
 70
     0
 43
0.0
 10
100.3157
 20
107.488902
 10
102.9187
 20
108.329902
  0
LWPOLYLINE
  5
489
330
18
100
AcDbEntity
  8
0
  6
Continuous
 62
     7
100
AcDbPolyline
 90
        2
 70
     0
 43
0.0
 10
100.2887
 20
108.112902
 10
102.6477
 20
108.871902
  0
LWPOLYLINE
  5
48E
330
18
100
AcDbEntity
  8
0
  6
Continuous
 62
     7
100
AcDbPolyline
 90
        2
 70
     0
 43
0.0
 10
102.1597
 20
108.709902
 10
102.9187
 20
108.329902
  0
LWPOLYLINE
  5
493
330
18
100
AcDbEntity
  8
0
  6
Continuous
 62
     7
100
AcDbPolyline
 90
        2
 70
     0
 43
0.0
 10
100.2887
 20
108.112902
 10
100.3157
 20
107.488902
  0
LWPOLYLINE
  5
498
330
18
100
AcDbEntity
  8
0
  6
Continuous
 62
     7
100
AcDbPolyline
 90
        2
 70
     0
 43
0.0
 10
104.0577
 20
115.976902
 10
104.0577
 20
115.325902
  0
LWPOLYLINE
  5
49D
330
18
100
AcDbEntity
  8
0
  6
Continuous
 62
     7
100
AcDbPolyline
 90
        2
 70
     0
 43
0.0
 10
104.0577
 20
115.976902
 10
106.3897
 20
116.708902
  0
LWPOLYLINE
  5
4A2
330
18
100
AcDbEntity
  8
0
  6
Continuous
 62
     7
100
AcDbPolyline
 90
        2
 70
     0
 43
0.0
 10
104.0577
 20
115.325902
 10
106.6607
 20
116.166902
  0
LWPOLYLINE
  5
4A7
330
18
100
AcDbEntity
  8
0
  6
Continuous
 62
     7
100
AcDbPolyline
 90
        2
 70
     0
 43
0.0
 10
105.9017
 20
116.573902
 10
106.6607
 20
116.166902
  0
LWPOLYLINE
  5
4AC
330
18
100
AcDbEntity
  8
0
  6
Continuous
 62
     7
100
AcDbPolyline
 90
        2
 70
     0
 43
0.0
 10
104.0847
 20
112.071902
 10
106.6877
 20
112.885902
  0
LWPOLYLINE
  5
4B1
330
18
100
AcDbEntity
  8
0
  6
Continuous
 62
     7
100
AcDbPolyline
 90
        2
 70
     0
 43
0.0
 10
104.0847
 20
112.695902
 10
106.4167
 20
113.454902
  0
LWPOLYLINE
  5
4B6
330
18
100
AcDbEntity
  8
0
  6
Continuous
 62
     7
100
AcDbPolyline
 90
        2
 70
     0
 43
0.0
 10
104.0847
 20
112.695902
 10
104.0847
 20
112.071902
  0
LWPOLYLINE
  5
4BB
330
18
100
AcDbEntity
  8
0
  6
Continuous
 62
     7
100
AcDbPolyline
 90
        2
 70
     0
 43
0.0
 10
105.9557
 20
113.291902
 10
106.6877
 20
112.885902
  0
LWPOLYLINE
  5
4C0
330
18
100
AcDbEntity
  8
0
  6
Continuous
 62
     7
100
AcDbPolyline
 90
        2
 70
     0
 43
0.0
 10
104.1117
 20
109.441902
 10
104.1117
 20
108.790902
  0
LWPOLYLINE
  5
4C5
330
18
100
AcDbEntity
  8
0
  6
Continuous
 62
     7
100
AcDbPolyline
 90
        2
 70
     0
 43
0.0
 10
104.1117
 20
109.441902
 10
106.4707
 20
110.173902
  0
LWPOLYLINE
  5
4CA
330
18
100
AcDbEntity
  8
0
  6
Continuous
 62
     7
100
AcDbPolyline
 90
        2
 70
     0
 43
0.0
 10
104.1117
 20
108.790902
 10
106.7427
 20
109.631902
  0
LWPOLYLINE
  5
4CF
330
18
100
AcDbEntity
  8
0
  6
Continuous
 62
     7
100
AcDbPolyline
 90
        2
 70
     0
 43
0.0
 10
105.9827
 20
110.010902
 10
106.7427
 20
109.631902
  0
LWPOLYLINE
  5
4D4
330
18
100
AcDbEntity
  8
0
  6
Continuous
 62
     7
100
AcDbPolyline
 90
        2
 70
     0
 43
0.0
 10
107.9357
 20
110.742902
 10
107.9357
 20
110.092902
  0
LWPOLYLINE
  5
4D9
330
18
100
AcDbEntity
  8
0
  6
Continuous
 62
     7
100
AcDbPolyline
 90
        2
 70
     0
 43
0.0
 10
107.8817
 20
113.997902
 10
107.9087
 20
113.373902
  0
LWPOLYLINE
  5
4DE
330
18
100
AcDbEntity
  8
0
  6
Continuous
 62
     7
100
AcDbPolyline
 90
        2
 70
     0
 43
0.0
 10
107.8537
 20
117.278902
 10
107.8537
 20
116.627902
  0
LWPOLYLINE
  5
4E3
330
18
100
AcDbEntity
  8
0
  6
Continuous
 62
     7
100
AcDbPolyline
 90
        2
 70
     0
 43
0.0
 10
107.9627
 20
107.461902
 10
110.2947
 20
108.193902
  0
LWPOLYLINE
  5
4E8
330
18
100
AcDbEntity
  8
0
  6
Continuous
 62
     7
100
AcDbPolyline
 90
        2
 70
     0
 43
0.0
 10
107.9357
 20
110.092902
 10
110.5387
 20
110.932902
  0
LWPOLYLINE
  5
4ED
330
18
100
AcDbEntity
  8
0
  6
Continuous
 62
     7
100
AcDbPolyline
 90
        2
 70
     0
 43
0.0
 10
107.9357
 20
110.742902
 10
110.2677
 20
111.475902
  0
LWPOLYLINE
  5
4F2
330
18
100
AcDbEntity
  8
0
  6
Continuous
 62
     7
100
AcDbPolyline
 90
        2
 70
     0
 43
0.0
 10
107.8817
 20
113.997902
 10
110.2407
 20
114.756902
  0
LWPOLYLINE
  5
4F7
330
18
100
AcDbEntity
  8
0
  6
Continuous
 62
     7
100
AcDbPolyline
 90
        2
 70
     0
 43
0.0
 10
107.9087
 20
113.373902
 10
110.5117
 20
114.186902
  0
LWPOLYLINE
  5
4FC
330
18
100
AcDbEntity
  8
0
  6
Continuous
 62
     7
100
AcDbPolyline
 90
        2
 70
     0
 43
0.0
 10
107.8537
 20
116.627902
 10
110.4847
 20
117.467902
  0
LWPOLYLINE
  5
501
330
18
100
AcDbEntity
  8
0
  6
Continuous
 62
     7
100
AcDbPolyline
 90
        2
 70
     0
 43
0.0
 10
107.8537
 20
117.278902
 10
110.2137
 20
118.010902
  0
LWPOLYLINE
  5
506
330
18
100
AcDbEntity
  8
0
  6
Continuous
 62
     7
100
AcDbPolyline
 90
        2
 70
     0
 43
0.0
 10
122.0637
 20
123.135902
 10
121.2497
 20
123.732902
  0
LWPOLYLINE
  5
50B
330
18
100
AcDbEntity
  8
0
  6
Continuous
 62
     7
100
AcDbPolyline
 90
        2
 70
     0
 43
0.0
 10
121.1687
 20
121.779902
 10
121.9007
 20
121.372902
  0
LWPOLYLINE
  5
510
330
18
100
AcDbEntity
  8
0
  6
Continuous
 62
     7
100
AcDbPolyline
 90
        2
 70
     0
 43
0.0
 10
119.2977
 20
121.183902
 10
121.6297
 20
121.915902
  0
LWPOLYLINE
  5
515
330
18
100
AcDbEntity
  8
0
  6
Continuous
 62
     7
100
AcDbPolyline
 90
        2
 70
     0
 43
0.0
 10
117.4537
 20
110.661902
 10
118.2127
 20
110.254902
  0
LWPOLYLINE
  5
51A
330
18
100
AcDbEntity
  8
0
  6
Continuous
 62
     7
100
AcDbPolyline
 90
        2
 70
     0
 43
0.0
 10
117.4267
 20
113.942902
 10
118.1587
 20
113.536902
  0
LWPOLYLINE
  5
51F
330
18
100
AcDbEntity
  8
0
  6
Continuous
 62
     7
100
AcDbPolyline
 90
        2
 70
     0
 43
0.0
 10
117.3717
 20
117.196902
 10
118.1317
 20
116.817902
  0
LWPOLYLINE
  5
524
330
18
100
AcDbEntity
  8
0
  6
Continuous
 62
     7
100
AcDbPolyline
 90
        2
 70
     0
 43
0.0
 10
117.3447
 20
120.477902
 10
118.1047
 20
120.071902
  0
LWPOLYLINE
  5
529
330
18
100
AcDbEntity
  8
0
  6
Continuous
 62
     7
100
AcDbPolyline
 90
        2
 70
     0
 43
0.0
 10
121.2767
 20
111.963902
 10
122.0087
 20
111.556902
  0
LWPOLYLINE
  5
52E
330
18
100
AcDbEntity
  8
0
  6
Continuous
 62
     7
100
AcDbPolyline
 90
        2
 70
     0
 43
0.0
 10
119.4057
 20
110.742902
 10
122.0087
 20
111.556902
  0
LWPOLYLINE
  5
533
330
18
100
AcDbEntity
  8
0
  6
Continuous
 62
     7
100
AcDbPolyline
 90
        2
 70
     0
 43
0.0
 10
119.4057
 20
111.366902
 10
121.7377
 20
112.125902
  0
LWPOLYLINE
  5
538
330
18
100
AcDbEntity
  8
0
  6
Continuous
 62
     7
100
AcDbPolyline
 90
        2
 70
     0
 43
0.0
 10
119.4057
 20
111.366902
 10
119.4057
 20
110.742902
  0
LWPOLYLINE
  5
53D
330
18
100
AcDbEntity
  8
0
  6
Continuous
 62
     7
100
AcDbPolyline
 90
        2
 70
     0
 43
0.0
 10
121.2227
 20
115.244902
 10
121.9817
 20
114.837902
  0
LWPOLYLINE
  5
542
330
18
100
AcDbEntity
  8
0
  6
Continuous
 62
     7
100
AcDbPolyline
 90
        2
 70
     0
 43
0.0
 10
119.3787
 20
113.997902
 10
121.9817
 20
114.837902
  0
LWPOLYLINE
  5
547
330
18
100
AcDbEntity
  8
0
  6
Continuous
 62
     7
100
AcDbPolyline
 90
        2
 70
     0
 43
0.0
 10
119.3787
 20
114.647902
 10
121.7107
 20
115.379902
  0
LWPOLYLINE
  5
54C
330
18
100
AcDbEntity
  8
0
  6
Continuous
 62
     7
100
AcDbPolyline
 90
        2
 70
     0
 43
0.0
 10
119.3787
 20
114.647902
 10
119.3787
 20
113.997902
  0
LWPOLYLINE
  5
551
330
18
100
AcDbEntity
  8
0
  6
Continuous
 62
     7
100
AcDbPolyline
 90
        2
 70
     0
 43
0.0
 10
121.1957
 20
118.498902
 10
121.9547
 20
118.118902
  0
LWPOLYLINE
  5
556
330
18
100
AcDbEntity
  8
0
  6
Continuous
 62
     7
100
AcDbPolyline
 90
        2
 70
     0
 43
0.0
 10
119.3247
 20
117.901902
 10
119.3517
 20
117.278902
  0
LWPOLYLINE
  5
55B
330
18
100
AcDbEntity
  8
0
  6
Continuous
 62
     7
100
AcDbPolyline
 90
        2
 70
     0
 43
0.0
 10
119.3247
 20
117.901902
 10
121.6837
 20
118.661902
  0
LWPOLYLINE
  5
560
330
18
100
AcDbEntity
  8
0
  6
Continuous
 62
     7
100
AcDbPolyline
 90
        2
 70
     0
 43
0.0
 10
119.3517
 20
117.278902
 10
121.9547
 20
118.118902
  0
LWPOLYLINE
  5
565
330
18
100
AcDbEntity
  8
0
  6
Continuous
 62
     7
100
AcDbPolyline
 90
        2
 70
     0
 43
0.0
 10
122.7417
 20
108.790902
 10
122.0637
 20
123.135902
  0
LWPOLYLINE
  5
56A
330
18
100
AcDbEntity
  8
0
  6
Continuous
 62
     7
100
AcDbPolyline
 90
        2
 70
     0
 43
0.0
 10
119.2977
 20
120.559902
 10
121.9007
 20
121.372902
  0
LWPOLYLINE
  5
56F
330
18
100
AcDbEntity
  8
0
  6
Continuous
 62
     7
100
AcDbPolyline
 90
        2
 70
     0
 43
0.0
 10
119.2977
 20
121.183902
 10
119.2977
 20
120.559902
  0
LWPOLYLINE
  5
574
330
18
100
AcDbEntity
  8
0
  6
Continuous
 62
     7
100
AcDbPolyline
 90
        2
 70
     0
 43
0.0
 10
154.9567
 20
80.34490200000001
 10
156.4477
 20
81.836902
  0
LWPOLYLINE
  5
579
330
18
100
AcDbEntity
  8
0
  6
Continuous
 62
     7
100
AcDbPolyline
 90
        2
 70
     0
 43
0.0
 10
150.9157
 20
79.748902
 10
160.8677
 20
83.49090200000001
  0
LWPOLYLINE
  5
57E
330
18
100
AcDbEntity
  8
0
  6
Continuous
 62
     7
100
AcDbPolyline
 90
        2
 70
     0
 43
0.0
 10
158.5897
 20
81.158902
 10
160.8677
 20
82.97590200000001
  0
LWPOLYLINE
  5
583
330
18
100
AcDbEntity
  8
0
  6
Continuous
 62
     7
100
AcDbPolyline
 90
        2
 70
     0
 43
0.0
 10
161.0577
 20
72.128902
 10
160.8677
 20
83.49090200000001
  0
LWPOLYLINE
  5
588
330
18
100
AcDbEntity
  8
0
  6
Continuous
 62
     7
100
AcDbPolyline
 90
        2
 70
     0
 43
0.0
 10
148.7467
 20
80.399902
 10
150.9157
 20
79.748902
  0
LWPOLYLINE
  5
58D
330
18
100
AcDbEntity
  8
0
  6
Continuous
 62
     7
100
AcDbPolyline
 90
        2
 70
     0
 43
0.0
 10
150.9427
 20
78.85390200000001
 10
148.7737
 20
79.69390200000001
  0
LWPOLYLINE
  5
592
330
18
100
AcDbEntity
  8
0
  6
Continuous
 62
     7
100
AcDbPolyline
 90
        2
 70
     0
 43
0.0
 10
150.9977
 20
76.982902
 10
148.8277
 20
77.958902
  0
LWPOLYLINE
  5
597
330
18
100
AcDbEntity
  8
0
  6
Continuous
 62
     7
100
AcDbPolyline
 90
        2
 70
     0
 43
0.0
 10
149.1807
 20
69.064902
 10
151.3227
 20
68.41390200000001
  0
LWPOLYLINE
  5
59C
330
18
100
AcDbEntity
  8
0
  6
Continuous
 62
     7
100
AcDbPolyline
 90
        2
 70
     0
 43
0.0
 10
148.6377
 20
59.301902
 10
156.5567
 20
62.66490200000001
  0
LWPOLYLINE
  5
5A1
330
18
100
AcDbEntity
  8
0
  6
Continuous
 62
     7
100
AcDbPolyline
 90
        2
 70
     0
 43
0.0
 10
151.1597
 20
72.887902
 10
148.9907
 20
73.56590200000001
  0
LWPOLYLINE
  5
5A6
330
18
100
AcDbEntity
  8
0
  6
Continuous
 62
     7
100
AcDbPolyline
 90
        2
 70
     0
 43
0.0
 10
151.2147
 20
71.369902
 10
149.0717
 20
71.992902
  0
LWPOLYLINE
  5
5AB
330
18
100
AcDbEntity
  8
0
  6
Continuous
 62
     7
100
AcDbPolyline
 90
        2
 70
     0
 43
0.0
 10
151.2957
 20
69.44390200000001
 10
149.1267
 20
70.040902
  0
LWPOLYLINE
  5
5B0
330
18
100
AcDbEntity
  8
0
  6
Continuous
 62
     7
100
AcDbPolyline
 90
        2
 70
     0
 43
0.0
 10
148.6377
 20
60.440902
 10
151.2957
 20
60.413902
  0
LWPOLYLINE
  5
5B5
330
18
100
AcDbEntity
  8
0
  6
Continuous
 62
     7
100
AcDbPolyline
 90
        2
 70
     0
 43
0.0
 10
148.6657
 20
67.111902
 10
152.2447
 20
67.19390200000001
  0
LWPOLYLINE
  5
5BA
330
18
100
AcDbEntity
  8
0
  6
Continuous
 62
     7
100
AcDbPolyline
 90
        2
 70
     0
 43
0.0
 10
148.6377
 20
61.959902
 10
152.3527
 20
62.095902
  0
LWPOLYLINE
  5
5BF
330
18
100
AcDbEntity
  8
0
  6
Continuous
 62
     7
100
AcDbPolyline
 90
        2
 70
     0
 43
0.0
 10
148.6657
 20
63.559902
 10
152.2987
 20
63.694902
  0
LWPOLYLINE
  5
5C4
330
18
100
AcDbEntity
  8
0
  6
Continuous
 62
     7
100
AcDbPolyline
 90
        2
 70
     0
 43
0.0
 10
148.6657
 20
64.72590200000001
 10
154.4137
 20
64.942902
  0
LWPOLYLINE
  5
5C9
330
18
100
AcDbEntity
  8
0
  6
Continuous
 62
     7
100
AcDbPolyline
 90
        2
 70
     0
 43
0.0
 10
148.6657
 20
66.081902
 10
153.2207
 20
66.135902
  0
LWPOLYLINE
  5
5CE
330
18
100
AcDbEntity
  8
0
  6
Continuous
 62
     7
100
AcDbPolyline
 90
        2
 70
     0
 43
0.0
 10
148.7197
 20
68.006902
 10
152.9767
 20
68.14290200000001
  0
LWPOLYLINE
  5
5D3
330
18
100
AcDbEntity
  8
0
  6
Continuous
 62
     7
100
AcDbPolyline
 90
        2
 70
     0
 43
0.0
 10
151.0787
 20
75.192902
 10
148.9097
 20
75.843902
  0
LWPOLYLINE
  5
5D8
330
18
100
AcDbEntity
  8
0
  6
Continuous
 62
     7
100
AcDbPolyline
 90
        2
 70
     0
 43
0.0
 10
144.5437
 20
77.361902
 10
147.3097
 20
76.900902
  0
LWPOLYLINE
  5
5DD
330
18
100
AcDbEntity
  8
0
  6
Continuous
 62
     7
100
AcDbPolyline
 90
        2
 70
     0
 43
0.0
 10
147.3097
 20
76.900902
 10
148.7467
 20
80.399902
  0
LWPOLYLINE
  5
5E2
330
18
100
AcDbEntity
  8
0
  6
Continuous
 62
     7
100
AcDbPolyline
 90
        2
 70
     0
 43
0.0
 10
144.5977
 20
76.277902
 10
147.3367
 20
76.006902
  0
LWPOLYLINE
  5
5E7
330
18
100
AcDbEntity
  8
0
  6
Continuous
 62
     7
100
AcDbPolyline
 90
        2
 70
     0
 43
0.0
 10
147.3367
 20
75.97890200000001
 10
148.8277
 20
78.582902
  0
LWPOLYLINE
  5
5EC
330
18
100
AcDbEntity
  8
0
  6
Continuous
 62
     7
100
AcDbPolyline
 90
        2
 70
     0
 43
0.0
 10
144.9777
 20
66.02690200000001
 10
147.7157
 20
65.566902
  0
LWPOLYLINE
  5
5F1
330
18
100
AcDbEntity
  8
0
  6
Continuous
 62
     7
100
AcDbPolyline
 90
        2
 70
     0
 43
0.0
 10
147.7157
 20
65.566902
 10
149.1807
 20
69.064902
  0
LWPOLYLINE
  5
5F6
330
18
100
AcDbEntity
  8
0
  6
Continuous
 62
     7
100
AcDbPolyline
 90
        2
 70
     0
 43
0.0
 10
146.1437
 20
56.861902
 10
148.6377
 20
59.301902
  0
LWPOLYLINE
  5
5FB
330
18
100
AcDbEntity
  8
0
  6
Continuous
 62
     7
100
AcDbPolyline
 90
        2
 70
     0
 43
0.0
 10
146.1437
 20
56.861902
 10
146.1707
 20
64.888902
  0
LWPOLYLINE
  5
600
330
18
100
AcDbEntity
  8
0
  6
Continuous
 62
     7
100
AcDbPolyline
 90
        2
 70
     0
 43
0.0
 10
144.3537
 20
65.75590200000001
 10
146.1707
 20
64.888902
  0
LWPOLYLINE
  5
605
330
18
100
AcDbEntity
  8
0
  6
Continuous
 62
     7
100
AcDbPolyline
 90
        2
 70
     0
 43
0.0
 10
146.1707
 20
64.888902
 10
146.9837
 20
65.674902
  0
LWPOLYLINE
  5
60A
330
18
100
AcDbEntity
  8
0
  6
Continuous
 62
     7
100
AcDbPolyline
 90
        2
 70
     0
 43
0.0
 10
148.6377
 20
59.301902
 10
148.6657
 20
67.843902
  0
LWPOLYLINE
  5
60F
330
18
100
AcDbEntity
  8
0
  6
Continuous
 62
     7
100
AcDbPolyline
 90
        2
 70
     0
 43
0.0
 10
144.9227
 20
67.491902
 10
147.6617
 20
67.464902
  0
LWPOLYLINE
  5
614
330
18
100
AcDbEntity
  8
0
  6
Continuous
 62
     7
100
AcDbPolyline
 90
        2
 70
     0
 43
0.0
 10
144.9777
 20
66.108902
 10
147.6887
 20
66.108902
  0
LWPOLYLINE
  5
619
330
18
100
AcDbEntity
  8
0
  6
Continuous
 62
     7
100
AcDbPolyline
 90
        2
 70
     0
 43
0.0
 10
144.8687
 20
68.792902
 10
147.6077
 20
68.84790200000001
  0
LWPOLYLINE
  5
61E
330
18
100
AcDbEntity
  8
0
  6
Continuous
 62
     7
100
AcDbPolyline
 90
        2
 70
     0
 43
0.0
 10
144.7877
 20
70.718902
 10
147.5267
 20
70.528902
  0
LWPOLYLINE
  5
623
330
18
100
AcDbEntity
  8
0
  6
Continuous
 62
     7
100
AcDbPolyline
 90
        2
 70
     0
 43
0.0
 10
144.7337
 20
72.697902
 10
147.4717
 20
72.589902
  0
LWPOLYLINE
  5
628
330
18
100
AcDbEntity
  8
0
  6
Continuous
 62
     7
100
AcDbPolyline
 90
        2
 70
     0
 43
0.0
 10
144.6517
 20
74.48790200000001
 10
147.3907
 20
74.406902
  0
LWPOLYLINE
  5
62D
330
18
100
AcDbEntity
  8
0
  6
Continuous
 62
     7
100
AcDbPolyline
 90
        2
 70
     0
 43
0.0
 10
147.6617
 20
66.948902
 10
149.1537
 20
69.579902
  0
LWPOLYLINE
  5
632
330
18
100
AcDbEntity
  8
0
  6
Continuous
 62
     7
100
AcDbPolyline
 90
        2
 70
     0
 43
0.0
 10
147.5807
 20
69.497902
 10
149.0447
 20
72.101902
  0
LWPOLYLINE
  5
637
330
18
100
AcDbEntity
  8
0
  6
Continuous
 62
     7
100
AcDbPolyline
 90
        2
 70
     0
 43
0.0
 10
147.4987
 20
71.640902
 10
148.9637
 20
74.24390200000001
  0
LWPOLYLINE
  5
63C
330
18
100
AcDbEntity
  8
0
  6
Continuous
 62
     7
100
AcDbPolyline
 90
        2
 70
     0
 43
0.0
 10
148.6377
 20
61.308902
 10
146.1437
 20
57.78390200000001
  0
LWPOLYLINE
  5
641
330
18
100
AcDbEntity
  8
0
  6
Continuous
 62
     7
100
AcDbPolyline
 90
        2
 70
     0
 43
0.0
 10
148.6657
 20
63.098902
 10
146.1437
 20
59.84490200000001
  0
LWPOLYLINE
  5
646
330
18
100
AcDbEntity
  8
0
  6
Continuous
 62
     7
100
AcDbPolyline
 90
        2
 70
     0
 43
0.0
 10
148.6657
 20
64.671902
 10
146.1437
 20
61.471902
  0
LWPOLYLINE
  5
64B
330
18
100
AcDbEntity
  8
0
  6
Continuous
 62
     7
100
AcDbPolyline
 90
        2
 70
     0
 43
0.0
 10
148.6657
 20
65.810902
 10
146.1707
 20
63.125902
  0
LWPOLYLINE
  5
650
330
18
100
AcDbEntity
  8
0
  6
Continuous
 62
     7
100
AcDbPolyline
 90
        2
 70
     0
 43
0.0
 10
140.8557
 20
55.993902
 10
142.9167
 20
58.434902
  0
LWPOLYLINE
  5
655
330
18
100
AcDbEntity
  8
0
  6
Continuous
 62
     7
100
AcDbPolyline
 90
        2
 70
     0
 43
0.0
 10
142.9167
 20
58.434902
 10
142.9437
 20
65.132902
  0
LWPOLYLINE
  5
65A
330
18
100
AcDbEntity
  8
0
  6
Continuous
 62
     7
100
AcDbPolyline
 90
        2
 70
     0
 43
0.0
 10
140.8557
 20
55.993902
 10
140.8827
 20
64.23790200000001
  0
LWPOLYLINE
  5
65F
330
18
100
AcDbEntity
  8
0
  6
Continuous
 62
     7
100
AcDbPolyline
 90
        2
 70
     0
 43
0.0
 10
142.9167
 20
59.11290200000001
 10
140.8557
 20
57.810902
  0
LWPOLYLINE
  5
664
330
18
100
AcDbEntity
  8
0
  6
Continuous
 62
     7
100
AcDbPolyline
 90
        2
 70
     0
 43
0.0
 10
142.9167
 20
60.956902
 10
140.8557
 20
59.627902
  0
LWPOLYLINE
  5
669
330
18
100
AcDbEntity
  8
0
  6
Continuous
 62
     7
100
AcDbPolyline
 90
        2
 70
     0
 43
0.0
 10
142.9167
 20
62.610902
 10
140.8557
 20
61.335902
  0
LWPOLYLINE
  5
66E
330
18
100
AcDbEntity
  8
0
  6
Continuous
 62
     7
100
AcDbPolyline
 90
        2
 70
     0
 43
0.0
 10
142.9437
 20
64.155902
 10
140.8827
 20
62.718902
  0
LWPOLYLINE
  5
673
330
18
100
AcDbEntity
  8
0
  6
Continuous
 62
     7
100
AcDbPolyline
 90
        2
 70
     0
 43
0.0
 10
139.9067
 20
69.38990200000001
 10
136.7067
 20
67.247902
  0
LWPOLYLINE
  5
678
330
18
100
AcDbEntity
  8
0
  6
Continuous
 62
     7
100
AcDbPolyline
 90
        2
 70
     0
 43
0.0
 10
136.7067
 20
67.247902
 10
133.6697
 20
65.05090200000001
  0
LWPOLYLINE
  5
67D
330
18
100
AcDbEntity
  8
0
  6
Continuous
 62
     7
100
AcDbPolyline
 90
        2
 70
     0
 43
0.0
 10
139.2827
 20
66.406902
 10
135.5407
 20
63.96690200000001
  0
LWPOLYLINE
  5
682
330
18
100
AcDbEntity
  8
0
  6
Continuous
 62
     7
100
AcDbPolyline
 90
        2
 70
     0
 43
0.0
 10
135.5407
 20
63.96690200000001
 10
133.7237
 20
62.718902
  0
LWPOLYLINE
  5
687
330
18
100
AcDbEntity
  8
0
  6
Continuous
 62
     7
100
AcDbPolyline
 90
        2
 70
     0
 43
0.0
 10
139.4727
 20
70.908902
 10
136.5977
 20
68.87490200000001
  0
LWPOLYLINE
  5
68C
330
18
100
AcDbEntity
  8
0
  6
Continuous
 62
     7
100
AcDbPolyline
 90
        2
 70
     0
 43
0.0
 10
136.5977
 20
68.87490200000001
 10
133.6157
 20
66.867902
  0
LWPOLYLINE
  5
691
330
18
100
AcDbEntity
  8
0
  6
Continuous
 62
     7
100
AcDbPolyline
 90
        2
 70
     0
 43
0.0
 10
139.9067
 20
72.80690200000001
 10
136.1647
 20
70.60990200000001
  0
LWPOLYLINE
  5
696
330
18
100
AcDbEntity
  8
0
  6
Continuous
 62
     7
100
AcDbPolyline
 90
        2
 70
     0
 43
0.0
 10
139.6357
 20
74.623902
 10
135.9207
 20
72.263902
  0
LWPOLYLINE
  5
69B
330
18
100
AcDbEntity
  8
0
  6
Continuous
 62
     7
100
AcDbPolyline
 90
        2
 70
     0
 43
0.0
 10
135.9207
 20
72.263902
 10
133.8867
 20
70.989902
  0
LWPOLYLINE
  5
6A0
330
18
100
AcDbEntity
  8
0
  6
Continuous
 62
     7
100
AcDbPolyline
 90
        2
 70
     0
 43
0.0
 10
140.6657
 20
66.054902
 10
137.3307
 20
63.369902
  0
LWPOLYLINE
  5
6A5
330
18
100
AcDbEntity
  8
0
  6
Continuous
 62
     7
100
AcDbPolyline
 90
        2
 70
     0
 43
0.0
 10
137.3307
 20
63.369902
 10
136.1097
 20
62.203902
  0
LWPOLYLINE
  5
6AA
330
18
100
AcDbEntity
  8
0
  6
Continuous
 62
     7
100
AcDbPolyline
 90
        2
 70
     0
 43
0.0
 10
136.1367
 20
55.532902
 10
139.8517
 20
55.559902
  0
LWPOLYLINE
  5
6AF
330
18
100
AcDbEntity
  8
0
  6
Continuous
 62
     7
100
AcDbPolyline
 90
        2
 70
     0
 43
0.0
 10
135.0527
 20
57.268902
 10
138.6047
 20
57.566902
  0
LWPOLYLINE
  5
6B4
330
18
100
AcDbEntity
  8
0
  6
Continuous
 62
     7
100
AcDbPolyline
 90
        2
 70
     0
 43
0.0
 10
138.6047
 20
57.566902
 10
140.8557
 20
57.593902
  0
LWPOLYLINE
  5
6B9
330
18
100
AcDbEntity
  8
0
  6
Continuous
 62
     7
100
AcDbPolyline
 90
        2
 70
     0
 43
0.0
 10
136.2997
 20
58.949902
 10
140.2857
 20
59.301902
  0
LWPOLYLINE
  5
6BE
330
18
100
AcDbEntity
  8
0
  6
Continuous
 62
     7
100
AcDbPolyline
 90
        2
 70
     0
 43
0.0
 10
140.2857
 20
59.301902
 10
140.8557
 20
59.35690200000001
  0
LWPOLYLINE
  5
6C3
330
18
100
AcDbEntity
  8
0
  6
Continuous
 62
     7
100
AcDbPolyline
 90
        2
 70
     0
 43
0.0
 10
136.1647
 20
60.712902
 10
138.6857
 20
60.766902
  0
LWPOLYLINE
  5
6C8
330
18
100
AcDbEntity
  8
0
  6
Continuous
 62
     7
100
AcDbPolyline
 90
        2
 70
     0
 43
0.0
 10
138.6857
 20
60.766902
 10
140.8557
 20
60.766902
  0
LWPOLYLINE
  5
6CD
330
18
100
AcDbEntity
  8
0
  6
Continuous
 62
     7
100
AcDbPolyline
 90
        2
 70
     0
 43
0.0
 10
136.2457
 20
62.257902
 10
138.0357
 20
62.366902
  0
LWPOLYLINE
  5
6D2
330
18
100
AcDbEntity
  8
0
  6
Continuous
 62
     7
100
AcDbPolyline
 90
        2
 70
     0
 43
0.0
 10
138.0357
 20
62.366902
 10
140.3127
 20
62.366902
  0
LWPOLYLINE
  5
6D7
330
18
100
AcDbEntity
  8
0
  6
Continuous
 62
     7
100
AcDbPolyline
 90
        2
 70
     0
 43
0.0
 10
140.3127
 20
62.366902
 10
140.8827
 20
62.528902
  0
LWPOLYLINE
  5
6DC
330
18
100
AcDbEntity
  8
0
  6
Continuous
 62
     7
100
AcDbPolyline
 90
        2
 70
     0
 43
0.0
 10
133.7777
 20
61.17390200000001
 10
144.9777
 20
66.02690200000001
  0
LWPOLYLINE
  5
6E1
330
18
100
AcDbEntity
  8
0
  6
Continuous
 62
     7
100
AcDbPolyline
 90
        2
 70
     0
 43
0.0
 10
142.9167
 20
58.434902
 10
146.1437
 20
56.861902
  0
LWPOLYLINE
  5
6E6
330
18
100
AcDbEntity
  8
0
  6
Continuous
 62
     7
100
AcDbPolyline
 90
        2
 70
     0
 43
0.0
 10
142.9167
 20
58.922902
 10
146.1437
 20
58.54290200000001
  0
LWPOLYLINE
  5
6EB
330
18
100
AcDbEntity
  8
0
  6
Continuous
 62
     7
100
AcDbPolyline
 90
        2
 70
     0
 43
0.0
 10
142.9167
 20
60.440902
 10
146.1437
 20
59.871902
  0
LWPOLYLINE
  5
6F0
330
18
100
AcDbEntity
  8
0
  6
Continuous
 62
     7
100
AcDbPolyline
 90
        2
 70
     0
 43
0.0
 10
142.9167
 20
61.796902
 10
146.1437
 20
61.308902
  0
LWPOLYLINE
  5
6F5
330
18
100
AcDbEntity
  8
0
  6
Continuous
 62
     7
100
AcDbPolyline
 90
        2
 70
     0
 43
0.0
 10
143.3227
 20
65.05090200000001
 10
146.1707
 20
64.128902
  0
LWPOLYLINE
  5
6FA
330
18
100
AcDbEntity
  8
0
  6
Continuous
 62
     7
100
AcDbPolyline
 90
        2
 70
     0
 43
0.0
 10
142.9437
 20
63.42390200000001
 10
146.1437
 20
62.962902
  0
LWPOLYLINE
  5
6FF
330
18
100
AcDbEntity
  8
0
  6
Continuous
 62
     7
100
AcDbPolyline
 90
        2
 70
     0
 43
0.0
 10
144.7337
 20
72.697902
 10
139.9067
 20
69.38990200000001
  0
LWPOLYLINE
  5
704
330
18
100
AcDbEntity
  8
0
  6
Continuous
 62
     7
100
AcDbPolyline
 90
        2
 70
     0
 43
0.0
 10
144.7877
 20
70.718902
 10
139.2827
 20
66.406902
  0
LWPOLYLINE
  5
709
330
18
100
AcDbEntity
  8
0
  6
Continuous
 62
     7
100
AcDbPolyline
 90
        2
 70
     0
 43
0.0
 10
144.6517
 20
74.48790200000001
 10
139.4727
 20
70.908902
  0
LWPOLYLINE
  5
70E
330
18
100
AcDbEntity
  8
0
  6
Continuous
 62
     7
100
AcDbPolyline
 90
        2
 70
     0
 43
0.0
 10
144.9227
 20
67.491902
 10
141.3167
 20
64.454902
  0
LWPOLYLINE
  5
713
330
18
100
AcDbEntity
  8
0
  6
Continuous
 62
     7
100
AcDbPolyline
 90
        2
 70
     0
 43
0.0
 10
144.8687
 20
68.792902
 10
140.6657
 20
66.054902
  0
LWPOLYLINE
  5
718
330
18
100
AcDbEntity
  8
0
  6
Continuous
 62
     7
100
AcDbPolyline
 90
        2
 70
     0
 43
0.0
 10
147.3097
 20
76.900902
 10
147.7157
 20
65.566902
  0
LWPOLYLINE
  5
71D
330
18
100
AcDbEntity
  8
0
  6
Continuous
 62
     7
100
AcDbPolyline
 90
        2
 70
     0
 43
0.0
 10
144.5437
 20
77.361902
 10
144.9777
 20
66.02690200000001
  0
LWPOLYLINE
  5
722
330
18
100
AcDbEntity
  8
0
  6
Continuous
 62
     7
100
AcDbPolyline
 90
        2
 70
     0
 43
0.0
 10
148.7467
 20
80.399902
 10
149.1807
 20
69.064902
  0
LWPOLYLINE
  5
727
330
18
100
AcDbEntity
  8
0
  6
Continuous
 62
     7
100
AcDbPolyline
 90
        2
 70
     0
 43
0.0
 10
147.4177
 20
73.99990200000001
 10
148.8817
 20
76.602902
  0
LWPOLYLINE
  5
72C
330
18
100
AcDbEntity
  8
0
  6
Continuous
 62
     7
100
AcDbPolyline
 90
        2
 70
     0
 43
0.0
 10
144.5977
 20
76.277902
 10
139.9067
 20
72.80690200000001
  0
LWPOLYLINE
  5
731
330
18
100
AcDbEntity
  8
0
  6
Continuous
 62
     7
100
AcDbPolyline
 90
        2
 70
     0
 43
0.0
 10
141.3977
 20
76.168902
 10
139.6357
 20
74.623902
  0
LWPOLYLINE
  5
736
330
18
100
AcDbEntity
  8
0
  6
Continuous
 62
     7
100
AcDbPolyline
 90
        2
 70
     0
 43
0.0
 10
150.9427
 20
78.90790200000001
 10
152.5427
 20
80.37190200000001
  0
LWPOLYLINE
  5
73B
330
18
100
AcDbEntity
  8
0
  6
Continuous
 62
     7
100
AcDbPolyline
 90
        2
 70
     0
 43
0.0
 10
157.3427
 20
76.331902
 10
159.5667
 20
78.12190200000001
  0
LWPOLYLINE
  5
740
330
18
100
AcDbEntity
  8
0
  6
Continuous
 62
     7
100
AcDbPolyline
 90
        2
 70
     0
 43
0.0
 10
156.4747
 20
77.551902
 10
159.1867
 20
79.748902
  0
LWPOLYLINE
  5
745
330
18
100
AcDbEntity
  8
0
  6
Continuous
 62
     7
100
AcDbPolyline
 90
        2
 70
     0
 43
0.0
 10
150.9977
 20
76.982902
 10
154.9567
 20
80.34490200000001
  0
LWPOLYLINE
  5
74A
330
18
100
AcDbEntity
  8
0
  6
Continuous
 62
     7
100
AcDbPolyline
 90
        2
 70
     0
 43
0.0
 10
156.2307
 20
79.314902
 10
158.5897
 20
81.158902
  0
LWPOLYLINE
  5
74F
330
18
100
AcDbEntity
  8
0
  6
Continuous
 62
     7
100
AcDbPolyline
 90
        2
 70
     0
 43
0.0
 10
159.1597
 20
76.439902
 10
160.9767
 20
77.63390200000001
  0
LWPOLYLINE
  5
754
330
18
100
AcDbEntity
  8
0
  6
Continuous
 62
     7
100
AcDbPolyline
 90
        2
 70
     0
 43
0.0
 10
159.5667
 20
78.12190200000001
 10
160.9497
 20
79.043902
  0
LWPOLYLINE
  5
759
330
18
100
AcDbEntity
  8
0
  6
Continuous
 62
     7
100
AcDbPolyline
 90
        2
 70
     0
 43
0.0
 10
159.1867
 20
79.748902
 10
160.9217
 20
80.941902
  0
LWPOLYLINE
  5
75E
330
18
100
AcDbEntity
  8
0
  6
Continuous
 62
     7
100
AcDbPolyline
 90
        2
 70
     0
 43
0.0
 10
156.5567
 20
62.66490200000001
 10
155.9867
 20
70.09490200000001
  0
LWPOLYLINE
  5
763
330
18
100
AcDbEntity
  8
0
  6
Continuous
 62
     7
100
AcDbPolyline
 90
        2
 70
     0
 43
0.0
 10
152.6247
 20
68.90190200000001
 10
158.1017
 20
72.99690200000001
  0
LWPOLYLINE
  5
768
330
18
100
AcDbEntity
  8
0
  6
Continuous
 62
     7
100
AcDbPolyline
 90
        2
 70
     0
 43
0.0
 10
151.2957
 20
69.44390200000001
 10
155.9057
 20
73.836902
  0
LWPOLYLINE
  5
76D
330
18
100
AcDbEntity
  8
0
  6
Continuous
 62
     7
100
AcDbPolyline
 90
        2
 70
     0
 43
0.0
 10
158.6167
 20
71.179902
 10
159.8107
 20
72.399902
  0
LWPOLYLINE
  5
772
330
18
100
AcDbEntity
  8
0
  6
Continuous
 62
     7
100
AcDbPolyline
 90
        2
 70
     0
 43
0.0
 10
152.2447
 20
67.19390200000001
 10
156.1767
 20
67.43790200000001
  0
LWPOLYLINE
  5
777
330
18
100
AcDbEntity
  8
0
  6
Continuous
 62
     7
100
AcDbPolyline
 90
        2
 70
     0
 43
0.0
 10
152.3527
 20
62.095902
 10
155.2007
 20
62.067902
  0
LWPOLYLINE
  5
77C
330
18
100
AcDbEntity
  8
0
  6
Continuous
 62
     7
100
AcDbPolyline
 90
        2
 70
     0
 43
0.0
 10
152.2987
 20
63.694902
 10
156.2307
 20
63.315902
  0
LWPOLYLINE
  5
781
330
18
100
AcDbEntity
  8
0
  6
Continuous
 62
     7
100
AcDbPolyline
 90
        2
 70
     0
 43
0.0
 10
156.2307
 20
63.315902
 10
156.5287
 20
63.315902
  0
LWPOLYLINE
  5
786
330
18
100
AcDbEntity
  8
0
  6
Continuous
 62
     7
100
AcDbPolyline
 90
        2
 70
     0
 43
0.0
 10
154.4137
 20
64.942902
 10
156.3667
 20
65.213902
  0
LWPOLYLINE
  5
78B
330
18
100
AcDbEntity
  8
0
  6
Continuous
 62
     7
100
AcDbPolyline
 90
        2
 70
     0
 43
0.0
 10
153.2207
 20
66.135902
 10
156.2847
 20
66.054902
  0
LWPOLYLINE
  5
790
330
18
100
AcDbEntity
  8
0
  6
Continuous
 62
     7
100
AcDbPolyline
 90
        2
 70
     0
 43
0.0
 10
154.1967
 20
69.497902
 10
155.7157
 20
69.60690200000001
  0
LWPOLYLINE
  5
795
330
18
100
AcDbEntity
  8
0
  6
Continuous
 62
     7
100
AcDbPolyline
 90
        2
 70
     0
 43
0.0
 10
155.7157
 20
69.60690200000001
 10
156.0137
 20
69.60690200000001
  0
LWPOLYLINE
  5
79A
330
18
100
AcDbEntity
  8
0
  6
Continuous
 62
     7
100
AcDbPolyline
 90
        2
 70
     0
 43
0.0
 10
152.9767
 20
68.14290200000001
 10
156.1227
 20
68.304902
  0
LWPOLYLINE
  5
79F
330
18
100
AcDbEntity
  8
0
  6
Continuous
 62
     7
100
AcDbPolyline
 90
        2
 70
     0
 43
0.0
 10
151.3227
 20
68.41390200000001
 10
161.0577
 20
72.128902
  0
LWPOLYLINE
  5
7A4
330
18
100
AcDbEntity
  8
0
  6
Continuous
 62
     7
100
AcDbPolyline
 90
        2
 70
     0
 43
0.0
 10
158.1017
 20
72.99690200000001
 10
161.0037
 20
74.921902
  0
LWPOLYLINE
  5
7A9
330
18
100
AcDbEntity
  8
0
  6
Continuous
 62
     7
100
AcDbPolyline
 90
        2
 70
     0
 43
0.0
 10
159.8107
 20
72.399902
 10
161.0307
 20
73.24090200000001
  0
LWPOLYLINE
  5
7AE
330
18
100
AcDbEntity
  8
0
  6
Continuous
 62
     7
100
AcDbPolyline
 90
        2
 70
     0
 43
0.0
 10
150.9157
 20
79.748902
 10
151.3227
 20
68.41390200000001
  0
LWPOLYLINE
  5
7B3
330
18
100
AcDbEntity
  8
0
  6
Continuous
 62
     7
100
AcDbPolyline
 90
        2
 70
     0
 43
0.0
 10
155.9057
 20
73.836902
 10
159.1597
 20
76.439902
  0
LWPOLYLINE
  5
7B8
330
18
100
AcDbEntity
  8
0
  6
Continuous
 62
     7
100
AcDbPolyline
 90
        2
 70
     0
 43
0.0
 10
151.2147
 20
71.369902
 10
157.3427
 20
76.331902
  0
LWPOLYLINE
  5
7BD
330
18
100
AcDbEntity
  8
0
  6
Continuous
 62
     7
100
AcDbPolyline
 90
        2
 70
     0
 43
0.0
 10
151.1597
 20
72.887902
 10
156.4747
 20
77.551902
  0
LWPOLYLINE
  5
7C2
330
18
100
AcDbEntity
  8
0
  6
Continuous
 62
     7
100
AcDbPolyline
 90
        2
 70
     0
 43
0.0
 10
151.0787
 20
75.192902
 10
156.2307
 20
79.314902
  0
LWPOLYLINE
  5
7C7
330
18
100
AcDbEntity
  8
0
  6
Continuous
 62
     7
100
AcDbPolyline
 90
        2
 70
     0
 43
0.0
 10
160.6237
 20
130.918902
 10
160.2437
 20
138.375902
  0
LWPOLYLINE
  5
7CC
330
18
100
AcDbEntity
  8
0
  6
Continuous
 62
     7
100
AcDbPolyline
 90
        2
 70
     0
 43
0.0
 10
161.6817
 20
127.528902
 10
160.8677
 20
125.955902
  0
LWPOLYLINE
  5
7D1
330
18
100
AcDbEntity
  8
0
  6
Continuous
 62
     7
100
AcDbPolyline
 90
        2
 70
     0
 43
0.0
 10
160.6237
 20
130.918902
 10
158.9697
 20
128.260902
  0
LWPOLYLINE
  5
7D6
330
18
100
AcDbEntity
  8
0
  6
Continuous
 62
     7
100
AcDbPolyline
 90
        2
 70
     0
 43
0.0
 10
158.9697
 20
128.260902
 10
161.6817
 20
127.528902
  0
LWPOLYLINE
  5
7DB
330
18
100
AcDbEntity
  8
0
  6
Continuous
 62
     7
100
AcDbPolyline
 90
        2
 70
     0
 43
0.0
 10
161.2747
 20
118.091902
 10
160.8677
 20
125.955902
  0
LWPOLYLINE
  5
7E0
330
18
100
AcDbEntity
  8
0
  6
Continuous
 62
     7
100
AcDbPolyline
 90
        2
 70
     0
 43
0.0
 10
153.6817
 20
141.412902
 10
137.3577
 20
135.663902
  0
LWPOLYLINE
  5
7E5
330
18
100
AcDbEntity
  8
0
  6
Continuous
 62
     7
100
AcDbPolyline
 90
        2
 70
     0
 43
0.0
 10
149.6147
 20
146.184902
 10
145.2217
 20
152.964902
  0
LWPOLYLINE
  5
7EA
330
18
100
AcDbEntity
  8
0
  6
Continuous
 62
     7
100
AcDbPolyline
 90
        2
 70
     0
 43
0.0
 10
145.5467
 20
155.594902
 10
145.2217
 20
152.964902
  0
LWPOLYLINE
  5
7EF
330
18
100
AcDbEntity
  8
0
  6
Continuous
 62
     7
100
AcDbPolyline
 90
        2
 70
     0
 43
0.0
 10
142.5637
 20
157.031902
 10
142.4557
 20
154.075902
  0
LWPOLYLINE
  5
7F4
330
18
100
AcDbEntity
  8
0
  6
Continuous
 62
     7
100
AcDbPolyline
 90
        2
 70
     0
 43
0.0
 10
142.4557
 20
154.075902
 10
145.5467
 20
155.594902
  0
LWPOLYLINE
  5
7F9
330
18
100
AcDbEntity
  8
0
  6
Continuous
 62
     7
100
AcDbPolyline
 90
        2
 70
     0
 43
0.0
 10
145.5467
 20
155.594902
 10
142.5367
 20
156.435902
  0
LWPOLYLINE
  5
7FE
330
18
100
AcDbEntity
  8
0
  6
Continuous
 62
     7
100
AcDbPolyline
 90
        2
 70
     0
 43
0.0
 10
144.5707
 20
155.865902
 10
142.4827
 20
154.835902
  0
LWPOLYLINE
  5
803
330
18
100
AcDbEntity
  8
0
  6
Continuous
 62
     7
100
AcDbPolyline
 90
        2
 70
     0
 43
0.0
 10
143.5127
 20
156.163902
 10
142.5097
 20
155.675902
  0
LWPOLYLINE
  5
808
330
18
100
AcDbEntity
  8
0
  6
Continuous
 62
     7
100
AcDbPolyline
 90
        2
 70
     0
 43
0.0
 10
160.2437
 20
138.375902
 10
153.6817
 20
141.412902
  0
LWPOLYLINE
  5
80D
330
18
100
AcDbEntity
  8
0
  6
Continuous
 62
     7
100
AcDbPolyline
 90
        2
 70
     0
 43
0.0
 10
138.3607
 20
163.485902
 10
131.1747
 20
165.736902
  0
TEXT
  5
812
330
18
100
AcDbEntity
  8
0
100
AcDbText
 10
14.88702498128522
 20
10.73751677484388
 30
0.0
 40
5.5
  1
MTS12
 72
     1
 11
28.1132154574757
 21
10.73751677484388
 31
0.0
100
AcDbText
  0
TEXT
  5
813
330
18
100
AcDbEntity
  8
0
100
AcDbText
 10
10.53008680808154
 20
24.59772535735078
 30
0.0
 40
5.5
  1
Simpson Strong-Tie
 72
     2
 11
94.33961061760537
 21
24.59772535735078
 31
0.0
100
AcDbText
  0
TEXT
  5
814
330
18
100
AcDbEntity
  8
0
100
AcDbText
 10
45.66215519047621
 20
50.848938
 30
0.0
 40
5.0
  1
14-10d
 72
     2
 11
74.47167900000001
 21
50.848938
 31
0.0
100
AcDbText
  0
TEXT
  5
815
330
18
100
AcDbEntity
  8
0
100
AcDbText
 10
47.56691709523811
 20
42.7537
 30
0.0
 40
5.0
  1
(TOTAL)
 72
     2
 11
74.47167900000001
 21
42.7537
 31
0.0
100
AcDbText
  0
ENDSEC
  0
SECTION
  2
OBJECTS
  0
DICTIONARY
  5
C
330
0
100
AcDbDictionary
281
     1
  3
ACAD_COLOR
350
81B
  3
ACAD_GROUP
350
D
  3
ACAD_LAYOUT
350
15
  3
ACAD_MATERIAL
350
81D
  3
ACAD_MLINESTYLE
350
12
  3
ACAD_PLOTSETTINGS
350
14
  3
ACAD_PLOTSTYLENAME
350
E
  3
ACDBHEADERROUNDTRIPXREC
350
81A
  0
DICTIONARY
  5
81B
102
{ACAD_REACTORS
330
C
102
}
330
C
100
AcDbDictionary
281
     1
  0
DICTIONARY
  5
D
102
{ACAD_REACTORS
330
C
102
}
330
C
100
AcDbDictionary
281
     1
  0
DICTIONARY
  5
15
102
{ACAD_REACTORS
330
C
102
}
330
C
100
AcDbDictionary
281
     1
  3
Layout1
350
17
  3
Model
350
19
  0
DICTIONARY
  5
81D
102
{ACAD_REACTORS
330
C
102
}
330
C
100
AcDbDictionary
281
     1
  0
DICTIONARY
  5
12
102
{ACAD_REACTORS
330
C
102
}
330
C
100
AcDbDictionary
281
     1
  3
Standard
350
13
  0
DICTIONARY
  5
14
102
{ACAD_REACTORS
330
C
102
}
330
C
100
AcDbDictionary
281
     1
  0
ACDBDICTIONARYWDFLT
  5
E
102
{ACAD_REACTORS
330
C
102
}
330
C
100
AcDbDictionary
281
     1
  3
Normal
350
F
100
AcDbDictionaryWithDefault
340
F
  0
DICTIONARY
  5
81A
102
{ACAD_REACTORS
330
C
102
}
330
C
100
AcDbDictionary
281
     1
  3
COLORDICT
350
81C
  3
MATERIALDICT
350
81E
  0
LAYOUT
  5
17
102
{ACAD_REACTORS
330
15
102
}
102
{ACAD_XDICTIONARY
360
81F
102
}
330
15
100
AcDbPlotSettings
  1

  2

  4

  6

 40
0.0
 41
0.0
 42
0.0
 43
0.0
 44
0.0
 45
0.0
 46
0.0
 47
0.0
 48
0.0
 49
0.0
140
0.0
141
0.0
142
1.0
143
1.0
 70
   688
 72
     0
 73
     0
 74
     5
  7

 75
    16
147
1.0
148
0.0
149
0.0
100
AcDbLayout
  1
Layout1
 70
     1
 71
     1
 10
0.0
 20
0.0
 11
12.0
 21
9.0
 12
0.0
 22
0.0
 32
0.0
 14
1.000000000000000E+20
 24
1.000000000000000E+20
 34
1.000000000000000E+20
 15
-1.000000000000000E+20
 25
-1.000000000000000E+20
 35
-1.000000000000000E+20
146
0.0
 13
0.0
 23
0.0
 33
0.0
 16
1.0
 26
0.0
 36
0.0
 17
0.0
 27
1.0
 37
0.0
 76
     0
330
16
  0
LAYOUT
  5
19
102
{ACAD_REACTORS
330
15
102
}
102
{ACAD_XDICTIONARY
360
821
102
}
330
15
100
AcDbPlotSettings
  1

  2

  4

  6

 40
0.0
 41
0.0
 42
0.0
 43
0.0
 44
0.0
 45
0.0
 46
0.0
 47
0.0
 48
0.0
 49
0.0
140
0.0
141
0.0
142
1.0
143
1.0
 70
  1712
 72
     0
 73
     0
 74
     0
  7

 75
     0
147
1.0
148
0.0
149
0.0
100
AcDbLayout
  1
Model
 70
     1
 71
     0
 10
0.0
 20
0.0
 11
0.0
 21
0.0
 12
0.0
 22
0.0
 32
0.0
 14
0.0
 24
0.0
 34
0.0
 15
0.0
 25
0.0
 35
0.0
146
0.0
 13
0.0
 23
0.0
 33
0.0
 16
1.0
 26
0.0
 36
0.0
 17
0.0
 27
1.0
 37
0.0
 76
     0
330
18
  0
MLINESTYLE
  5
13
102
{ACAD_REACTORS
330
12
102
}
330
12
100
AcDbMlineStyle
  2
Standard
 70
     0
  3

 62
   256
 51
90.0
 52
90.0
 71
     2
 49
0.5
 62
   256
  6
BYLAYER
 49
-0.5
 62
   256
  6
BYLAYER
  0
ACDBPLACEHOLDER
  5
F
102
{ACAD_REACTORS
330
E
102
}
330
E
  0
XRECORD
  5
81C
102
{ACAD_REACTORS
330
81A
102
}
330
81A
100
AcDbXrecord
340
81B
  0
XRECORD
  5
81E
102
{ACAD_REACTORS
330
81A
102
}
330
81A
100
AcDbXrecord
340
81D
  0
DICTIONARY
  5
81F
330
17
100
AcDbDictionary
280
     1
281
     1
  3
ACAD_XREC_ROUNDTRIP
360
820
  0
DICTIONARY
  5
821
330
19
100
AcDbDictionary
280
     1
281
     1
  3
ACAD_XREC_ROUNDTRIP
360
822
  0
XRECORD
  5
820
102
{ACAD_REACTORS
330
81F
102
}
330
81F
100
AcDbXrecord
102
SHADEPLOT
 70
     0
102
SHADEPLOTRESLEVEL
 70
     0
102
SHADEPLOTCUSTOMDPI
 70
     0
  0
XRECORD
  5
822
102
{ACAD_REACTORS
330
821
102
}
330
821
100
AcDbXrecord
102
SHADEPLOT
 70
     0
102
SHADEPLOTRESLEVEL
 70
     0
102
SHADEPLOTCUSTOMDPI
 70
     0
  0
ENDSEC
  0
EOF
