  0
SECTION
  2
HEADER
  9
$ACADVER
  1
AC1015
  9
$ACADMAINTVER
 70
     6
  9
$DWGCODEPAGE
  3
ISO8859-1
  9
$INSBASE
 10
0.0
 20
0.0
 30
0.0
  9
$EXTMIN
 10
5.0
 20
5.0
 30
0.0
  9
$EXTMAX
 10
185.0
 20
185.0
 30
0.0
  9
$LIMMIN
 10
0.0
 20
0.0
  9
$LIMMAX
 10
190.0
 20
190.0
  9
$ORTHOMODE
 70
     0
  9
$REGENMODE
 70
     1
  9
$FILLMODE
 70
     1
  9
$QTEXTMODE
 70
     0
  9
$MIRRTEXT
 70
     1
  9
$LTSCALE
 40
10.0
  9
$ATTMODE
 70
     1
  9
$TEXTSIZE
 40
5.0
  9
$TRACEWID
 40
0.05
  9
$TEXTSTYLE
  7
STANDARD
  9
$CLAYER
  8
0
  9
$CELTYPE
  6
ByLayer
  9
$CECOLOR
 62
   256
  9
$CELTSCALE
 40
1.0
  9
$DISPSILH
 70
     0
  9
$DIMSCALE
 40
1.0
  9
$DIMASZ
 40
0.18
  9
$DIMEXO
 40
0.0625
  9
$DIMDLI
 40
0.38
  9
$DIMRND
 40
0.0
  9
$DIMDLE
 40
0.0
  9
$DIMEXE
 40
0.18
  9
$DIMTP
 40
0.0
  9
$DIMTM
 40
0.0
  9
$DIMTXT
 40
0.18
  9
$DIMCEN
 40
0.09
  9
$DIMTSZ
 40
0.0
  9
$DIMTOL
 70
     0
  9
$DIMLIM
 70
     0
  9
$DIMTIH
 70
     1
  9
$DIMTOH
 70
     1
  9
$DIMSE1
 70
     0
  9
$DIMSE2
 70
     0
  9
$DIMTAD
 70
     0
  9
$DIMZIN
 70
     0
  9
$DIMBLK
  1

  9
$DIMASO
 70
     1
  9
$DIMSHO
 70
     1
  9
$DIMPOST
  1

  9
$DIMAPOST
  1

  9
$DIMALT
 70
     0
  9
$DIMALTD
 70
     2
  9
$DIMALTF
 40
25.4
  9
$DIMLFAC
 40
1.0
  9
$DIMTOFL
 70
     0
  9
$DIMTVP
 40
0.0
  9
$DIMTIX
 70
     0
  9
$DIMSOXD
 70
     0
  9
$DIMSAH
 70
     0
  9
$DIMBLK1
  1

  9
$DIMBLK2
  1

  9
$DIMSTYLE
  2
Standard
  9
$DIMCLRD
 70
     0
  9
$DIMCLRE
 70
     0
  9
$DIMCLRT
 70
     0
  9
$DIMTFAC
 40
1.0
  9
$DIMGAP
 40
0.09
  9
$DIMJUST
 70
     0
  9
$DIMSD1
 70
     0
  9
$DIMSD2
 70
     0
  9
$DIMTOLJ
 70
     1
  9
$DIMTZIN
 70
     0
  9
$DIMALTZ
 70
     0
  9
$DIMALTTZ
 70
     0
  9
$DIMUPT
 70
     0
  9
$DIMDEC
 70
     4
  9
$DIMTDEC
 70
     4
  9
$DIMALTU
 70
     2
  9
$DIMALTTD
 70
     2
  9
$DIMTXSTY
  7
STANDARD
  9
$DIMAUNIT
 70
     0
  9
$DIMADEC
 70
     0
  9
$DIMALTRND
 40
0.0
  9
$DIMAZIN
 70
     0
  9
$DIMDSEP
 70
    46
  9
$DIMATFIT
 70
     3
  9
$DIMFRAC
 70
     0
  9
$DIMLDRBLK
  1

  9
$DIMLUNIT
 70
     2
  9
$DIMLWD
 70
    -2
  9
$DIMLWE
 70
    -2
  9
$DIMTMOVE
 70
     0
  9
$LUNITS
 70
     2
  9
$LUPREC
 70
     4
  9
$SKETCHINC
 40
0.1
  9
$FILLETRAD
 40
0.0
  9
$AUNITS
 70
     0
  9
$AUPREC
 70
     0
  9
$MENU
  1
acad
  9
$ELEVATION
 40
0.0
  9
$PELEVATION
 40
0.0
  9
$THICKNESS
 40
0.0
  9
$LIMCHECK
 70
     0
  9
$CHAMFERA
 40
0.0
  9
$CHAMFERB
 40
0.0
  9
$CHAMFERC
 40
1.0
  9
$CHAMFERD
 40
0.0
  9
$SKPOLY
 70
     0
  9
$TDCREATE
 40
2453955.561132963
  9
$TDUCREATE
 40
2453955.894466296
  9
$TDUPDATE
 40
2453955.602799641
  9
$TDUUPDATE
 40
2453955.894466308
  9
$TDINDWG
 40
0.0000000116
  9
$TDUSRTIMER
 40
0.0000000116
  9
$USRTIMER
 70
     1
  9
$ANGBASE
 50
0.0
  9
$ANGDIR
 70
     0
  9
$PDMODE
 70
     0
  9
$PDSIZE
 40
0.0
  9
$PLINEWID
 40
0.0
  9
$SPLFRAME
 70
     0
  9
$SPLINETYPE
 70
     6
  9
$SPLINESEGS
 70
     8
  9
$HANDSEED
  5
8C3
  9
$SURFTAB1
 70
     6
  9
$SURFTAB2
 70
     6
  9
$SURFTYPE
 70
     6
  9
$SURFU
 70
     6
  9
$SURFV
 70
     6
  9
$UCSBASE
  2

  9
$UCSNAME
  2

  9
$UCSORG
 10
0.0
 20
0.0
 30
0.0
  9
$UCSXDIR
 10
1.0
 20
0.0
 30
0.0
  9
$UCSYDIR
 10
0.0
 20
1.0
 30
0.0
  9
$UCSORTHOREF
  2

  9
$UCSORTHOVIEW
 70
     0
  9
$UCSORGTOP
 10
0.0
 20
0.0
 30
0.0
  9
$UCSORGBOTTOM
 10
0.0
 20
0.0
 30
0.0
  9
$UCSORGLEFT
 10
0.0
 20
0.0
 30
0.0
  9
$UCSORGRIGHT
 10
0.0
 20
0.0
 30
0.0
  9
$UCSORGFRONT
 10
0.0
 20
0.0
 30
0.0
  9
$UCSORGBACK
 10
0.0
 20
0.0
 30
0.0
  9
$PUCSBASE
  2

  9
$PUCSNAME
  2

  9
$PUCSORG
 10
0.0
 20
0.0
 30
0.0
  9
$PUCSXDIR
 10
1.0
 20
0.0
 30
0.0
  9
$PUCSYDIR
 10
0.0
 20
1.0
 30
0.0
  9
$PUCSORTHOREF
  2

  9
$PUCSORTHOVIEW
 70
     0
  9
$PUCSORGTOP
 10
0.0
 20
0.0
 30
0.0
  9
$PUCSORGBOTTOM
 10
0.0
 20
0.0
 30
0.0
  9
$PUCSORGLEFT
 10
0.0
 20
0.0
 30
0.0
  9
$PUCSORGRIGHT
 10
0.0
 20
0.0
 30
0.0
  9
$PUCSORGFRONT
 10
0.0
 20
0.0
 30
0.0
  9
$PUCSORGBACK
 10
0.0
 20
0.0
 30
0.0
  9
$USERI1
 70
     0
  9
$USERI2
 70
     0
  9
$USERI3
 70
     0
  9
$USERI4
 70
     0
  9
$USERI5
 70
     0
  9
$USERR1
 40
0.0
  9
$USERR2
 40
0.0
  9
$USERR3
 40
0.0
  9
$USERR4
 40
0.0
  9
$USERR5
 40
0.0
  9
$WORLDVIEW
 70
     1
  9
$SHADEDGE
 70
     3
  9
$SHADEDIF
 70
    70
  9
$TILEMODE
 70
     1
  9
$MAXACTVP
 70
    16
  9
$PINSBASE
 10
0.0
 20
0.0
 30
0.0
  9
$PLIMCHECK
 70
     0
  9
$PEXTMIN
 10
1.000000000000000E+20
 20
1.000000000000000E+20
 30
1.000000000000000E+20
  9
$PEXTMAX
 10
-1.000000000000000E+20
 20
-1.000000000000000E+20
 30
-1.000000000000000E+20
  9
$PLIMMIN
 10
0.0
 20
0.0
  9
$PLIMMAX
 10
12.0
 20
9.0
  9
$UNITMODE
 70
     0
  9
$VISRETAIN
 70
     0
  9
$PLINEGEN
 70
     0
  9
$PSLTSCALE
 70
     1
  9
$TREEDEPTH
 70
  3020
  9
$CMLSTYLE
  2
Standard
  9
$CMLJUST
 70
     0
  9
$CMLSCALE
 40
1.0
  9
$PROXYGRAPHICS
 70
     1
  9
$MEASUREMENT
 70
     0
  9
$CELWEIGHT
370
    -1
  9
$ENDCAPS
280
     0
  9
$JOINSTYLE
280
     0
  9
$LWDISPLAY
290
     0
  9
$INSUNITS
 70
     1
  9
$HYPERLINKBASE
  1

  9
$STYLESHEET
  1

  9
$XEDIT
290
     1
  9
$CEPSNTYPE
380
     0
  9
$PSTYLEMODE
290
     0
  9
$FINGERPRINTGUID
  2
{FAEB1C30-E019-11D5-929B-00C0DF256EC4}
  9
$VERSIONGUID
  2
{FAEB1C32-E019-11D5-929B-00C0DF256EC4}
  9
$EXTNAMES
290
     1
  9
$PSVPSCALE
 40
0.0
  9
$OLESTARTUP
290
     0
  0
ENDSEC
  0
SECTION
  2
CLASSES
  0
CLASS
  1
ACDBDICTIONARYWDFLT
  2
AcDbDictionaryWithDefault
  3
AutoCAD 2000
 90
        0
280
     0
281
     0
  0
CLASS
  1
ACDBPLACEHOLDER
  2
AcDbPlaceHolder
  3
ObjectDBX Classes
 90
        0
280
     0
281
     0
  0
CLASS
  1
LAYOUT
  2
AcDbLayout
  3
ObjectDBX Classes
 90
        0
280
     0
281
     0
  0
ENDSEC
  0
SECTION
  2
TABLES
  0
TABLE
  2
VPORT
  5
8
330
0
100
AcDbSymbolTable
 70
     2
  0
VPORT
  5
1F
330
8
100
AcDbSymbolTableRecord
100
AcDbViewportTableRecord
  2
*ACTIVE
 70
     0
 10
0.0
 20
0.0
 11
1.0
 21
1.0
 12
138.0077519379845
 22
95.0
 13
0.0
 23
0.0
 14
1.0
 24
1.0
 15
0.0
 25
0.0
 16
0.0
 26
0.0
 36
1.0
 17
0.0
 27
0.0
 37
0.0
 40
190.0
 41
0.6883671291355389
 42
50.0
 43
0.0
 44
0.0
 50
0.0
 51
0.0
 71
     0
 72
   100
 73
     1
 74
     0
 75
     0
 76
     0
 77
     0
 78
     0
281
     0
 65
     1
110
0.0
120
0.0
130
0.0
111
1.0
121
0.0
131
0.0
112
0.0
122
1.0
132
0.0
 79
     0
146
0.0
  0
ENDTAB
  0
TABLE
  2
LTYPE
  5
5
330
0
100
AcDbSymbolTable
 70
     2
  0
LTYPE
  5
10
330
5
100
AcDbSymbolTableRecord
100
AcDbLinetypeTableRecord
  2
ByBlock
 70
     0
  3

 72
    65
 73
     0
 40
0.0
  0
LTYPE
  5
11
330
5
100
AcDbSymbolTableRecord
100
AcDbLinetypeTableRecord
  2
ByLayer
 70
     0
  3

 72
    65
 73
     0
 40
0.0
  0
LTYPE
  5
1B
330
5
100
AcDbSymbolTableRecord
100
AcDbLinetypeTableRecord
  2
CONTINUOUS
 70
     0
  3
Solid line
 72
    65
 73
     0
 40
0.0
  0
LTYPE
  5
1C
330
5
100
AcDbSymbolTableRecord
100
AcDbLinetypeTableRecord
  2
HIDDEN
 70
     0
  3
__ __ __ __ __ __ __ __ __ __ __ __ __ __ __ __
 72
    65
 73
     2
 40
0.375
 49
0.25
 74
     0
 49
-0.125
 74
     0
  0
ENDTAB
  0
TABLE
  2
LAYER
  5
2
330
0
100
AcDbSymbolTable
 70
     1
  0
LAYER
  5
1D
330
2
100
AcDbSymbolTableRecord
100
AcDbLayerTableRecord
  2
0
 70
     0
 62
     7
  6
CONTINUOUS
370
    -3
390
F
  0
ENDTAB
  0
TABLE
  2
STYLE
  5
3
330
0
100
AcDbSymbolTable
 70
     1
  0
STYLE
  5
21
330
3
100
AcDbSymbolTableRecord
100
AcDbTextStyleTableRecord
  2
STANDARD
 70
     0
 40
0.0
 41
1.0
 50
0.0
 71
     0
 42
5.0
  3
ROMANS.SHX
  4

  0
ENDTAB
  0
TABLE
  2
VIEW
  5
6
330
0
100
AcDbSymbolTable
 70
     0
  0
ENDTAB
  0
TABLE
  2
UCS
  5
7
330
0
100
AcDbSymbolTable
 70
     0
  0
ENDTAB
  0
TABLE
  2
APPID
  5
9
330
0
100
AcDbSymbolTable
 70
     1
  0
APPID
  5
20
330
9
100
AcDbSymbolTableRecord
100
AcDbRegAppTableRecord
  2
ACAD
 70
     0
  0
ENDTAB
  0
TABLE
  2
DIMSTYLE
  5
A
330
0
100
AcDbSymbolTable
 70
     1
100
AcDbDimStyleTable
  0
DIMSTYLE
105
22
330
A
100
AcDbSymbolTableRecord
100
AcDbDimStyleTableRecord
  2
Standard
 70
     0
  3

  4

340
21
  0
ENDTAB
  0
TABLE
  2
BLOCK_RECORD
  5
1
330
0
100
AcDbSymbolTable
 70
     0
  0
BLOCK_RECORD
  5
18
330
1
100
AcDbSymbolTableRecord
100
AcDbBlockTableRecord
  2
*Model_Space
340
19
  0
BLOCK_RECORD
  5
16
330
1
100
AcDbSymbolTableRecord
100
AcDbBlockTableRecord
  2
*Paper_Space
340
17
  0
ENDTAB
  0
ENDSEC
  0
SECTION
  2
BLOCKS
  0
BLOCK
  5
8B8
330
18
100
AcDbEntity
  8
0
100
AcDbBlockBegin
  2
*Model_Space
 70
     0
 10
0.0
 20
0.0
 30
0.0
  3
*Model_Space
  1

  4

  0
ENDBLK
  5
8B9
330
18
100
AcDbEntity
  8
0
100
AcDbBlockEnd
  0
BLOCK
  5
8B6
330
16
100
AcDbEntity
 67
     1
  8
0
100
AcDbBlockBegin
  2
*Paper_Space
 70
     0
 10
0.0
 20
0.0
 30
0.0
  3
*Paper_Space
  1

  4

  0
ENDBLK
  5
8B7
330
16
100
AcDbEntity
 67
     1
  8
0
100
AcDbBlockEnd
  0
ENDSEC
  0
SECTION
  2
ENTITIES
  0
TEXT
  5
23
330
18
100
AcDbEntity
  8
0
100
AcDbText
 10
22.31842437374998
 20
16.32352871241147
 30
0.0
 40
5.5
  1
(2) MTS12
 72
     1
 11
44.58032913565474
 21
16.32352871241147
 31
0.0
100
AcDbText
  0
TEXT
  5
24
330
18
100
AcDbEntity
  8
0
100
AcDbText
 10
11.00138467846297
 20
28.89184264906268
 30
0.0
 40
5.5
  1
Simpson Strong-Tie
 72
     2
 11
94.81090848798681
 21
28.89184264906268
 31
0.0
100
AcDbText
  0
LWPOLYLINE
  5
25
330
18
100
AcDbEntity
  8
0
  6
Continuous
 62
     7
100
AcDbPolyline
 90
        2
 70
     0
 43
0.0
 10
56.529064
 20
126.92073
 10
76.29706400000001
 20
117.91773
  0
LWPOLYLINE
  5
2A
330
18
100
AcDbEntity
  8
0
  6
Continuous
 62
     7
100
AcDbPolyline
 90
        2
 70
     0
 43
0.0
 10
87.036064
 20
126.56873
 10
43.567064
 20
91.53373000000001
  0
LWPOLYLINE
  5
2F
330
18
100
AcDbEntity
  8
0
  6
Continuous
 62
     7
100
AcDbPolyline
 90
        2
 70
     0
 43
0.0
 10
52.055064
 20
87.65573000000001
 10
89.44906400000001
 20
118.92173
  0
LWPOLYLINE
  5
34
330
18
100
AcDbEntity
  8
0
  6
Continuous
 62
     7
100
AcDbPolyline
 90
        2
 70
     0
 43
0.0
 10
52.055064
 20
58.85773
 10
90.968064
 20
92.21073
  0
TEXT
  5
39
330
18
100
AcDbEntity
  8
0
100
AcDbText
 10
25.24482590476191
 20
157.91873
 30
0.0
 40
5.0
  1
INSTALL HALF OF
 72
     1
 11
58.340064
 21
157.91873
 31
0.0
100
AcDbText
  0
TEXT
  5
3A
330
18
100
AcDbEntity
  8
0
100
AcDbText
 10
20.00673066666667
 20
149.58573
 30
0.0
 40
5.0
  1
FASTENERS @ EACH
 72
     1
 11
58.340064
 21
149.58573
 31
0.0
100
AcDbText
  0
TEXT
  5
3B
330
18
100
AcDbEntity
  8
0
100
AcDbText
 10
29.6495878095238
 20
141.25273
 30
0.0
 40
5.0
  1
END OF STRAP
 72
     1
 11
58.340064
 21
141.25273
 31
0.0
100
AcDbText
  0
LWPOLYLINE
  5
3C
330
18
100
AcDbEntity
  8
0
  6
Continuous
 62
     7
100
AcDbPolyline
 90
        2
 70
     0
 43
0.0
 10
27.026064
 20
103.89873
 10
26.999064
 20
112.90173
  0
LWPOLYLINE
  5
41
330
18
100
AcDbEntity
  8
0
  6
Continuous
 62
     7
100
AcDbPolyline
 90
        2
 70
     0
 43
0.0
 10
26.999064
 20
112.90173
 10
53.844064
 20
99.83073
  0
LWPOLYLINE
  5
46
330
18
100
AcDbEntity
  8
0
  6
Continuous
 62
     7
100
AcDbPolyline
 90
        2
 70
     0
 43
0.0
 10
46.035064
 20
93.53973000000001
 10
27.026064
 20
103.89873
  0
LWPOLYLINE
  5
4B
330
18
100
AcDbEntity
  8
0
  6
Continuous
 62
     7
100
AcDbPolyline
 90
        2
 70
     0
 43
0.0
 10
52.055064
 20
81.41873000000001
 10
49.641064
 20
70.32773
  0
LWPOLYLINE
  5
50
330
18
100
AcDbEntity
  8
0
  6
Continuous
 62
     7
100
AcDbPolyline
 90
        2
 70
     0
 43
0.0
 10
51.865064
 20
87.73673000000001
 10
49.668064
 20
77.26973000000001
  0
LWPOLYLINE
  5
55
330
18
100
AcDbEntity
  8
0
  6
Continuous
 62
     7
100
AcDbPolyline
 90
        2
 70
     0
 43
0.0
 10
49.316064
 20
80.71373
 10
47.418064
 20
74.47673
  0
LWPOLYLINE
  5
5A
330
18
100
AcDbEntity
  8
0
  6
Continuous
 62
     7
100
AcDbPolyline
 90
        2
 70
     0
 43
0.0
 10
47.879064
 20
81.20173
 10
46.794064
 20
73.39173000000001
  0
LWPOLYLINE
  5
5F
330
18
100
AcDbEntity
  8
0
  6
Continuous
 62
     7
100
AcDbPolyline
 90
        2
 70
     0
 43
0.0
 10
46.523064
 20
81.01173
 10
45.275064
 20
75.45273
  0
LWPOLYLINE
  5
64
330
18
100
AcDbEntity
  8
0
  6
Continuous
 62
     7
100
AcDbPolyline
 90
        2
 70
     0
 43
0.0
 10
44.977064
 20
79.41173000000001
 10
44.028064
 20
76.23973000000001
  0
LWPOLYLINE
  5
69
330
18
100
AcDbEntity
  8
0
  6
Continuous
 62
     7
100
AcDbPolyline
 90
        2
 70
     0
 43
0.0
 10
52.055064
 20
87.65573000000001
 10
52.055064
 20
58.85773
  0
LWPOLYLINE
  5
6E
330
18
100
AcDbEntity
  8
0
  6
Continuous
 62
     7
100
AcDbPolyline
 90
        2
 70
     0
 43
0.0
 10
43.567064
 20
91.53373000000001
 10
44.435064
 20
63.06073000000001
  0
LWPOLYLINE
  5
73
330
18
100
AcDbEntity
  8
0
  6
Continuous
 62
     7
100
AcDbPolyline
 90
        2
 70
     0
 43
0.0
 10
51.350064
 20
69.26973000000001
 10
49.777064
 20
63.71073000000001
  0
LWPOLYLINE
  5
78
330
18
100
AcDbEntity
  8
0
  6
Continuous
 62
     7
100
AcDbPolyline
 90
        2
 70
     0
 43
0.0
 10
51.106064
 20
62.76173000000001
 10
50.292064
 20
59.83373
  0
LWPOLYLINE
  5
7D
330
18
100
AcDbEntity
  8
0
  6
Continuous
 62
     7
100
AcDbPolyline
 90
        2
 70
     0
 43
0.0
 10
44.435064
 20
63.06073000000001
 10
52.055064
 20
58.85773
  0
LWPOLYLINE
  5
82
330
18
100
AcDbEntity
  8
0
  6
Continuous
 62
     7
100
AcDbPolyline
 90
        2
 70
     0
 43
0.0
 10
48.719064
 20
63.90073
 10
48.421064
 20
60.86373
  0
LWPOLYLINE
  5
87
330
18
100
AcDbEntity
  8
0
  6
Continuous
 62
     7
100
AcDbPolyline
 90
        2
 70
     0
 43
0.0
 10
49.641064
 20
70.32773
 10
48.719064
 20
63.90073
  0
LWPOLYLINE
  5
8C
330
18
100
AcDbEntity
  8
0
  6
Continuous
 62
     7
100
AcDbPolyline
 90
        2
 70
     0
 43
0.0
 10
49.777064
 20
63.71073000000001
 10
49.289064
 20
60.37573
  0
LWPOLYLINE
  5
91
330
18
100
AcDbEntity
  8
0
  6
Continuous
 62
     7
100
AcDbPolyline
 90
        2
 70
     0
 43
0.0
 10
47.146064
 20
63.38573
 10
46.848064
 20
61.73173000000001
  0
LWPOLYLINE
  5
96
330
18
100
AcDbEntity
  8
0
  6
Continuous
 62
     7
100
AcDbPolyline
 90
        2
 70
     0
 43
0.0
 10
47.635064
 20
67.69773000000001
 10
47.146064
 20
63.38573
  0
LWPOLYLINE
  5
9B
330
18
100
AcDbEntity
  8
0
  6
Continuous
 62
     7
100
AcDbPolyline
 90
        2
 70
     0
 43
0.0
 10
48.638064
 20
72.11773000000001
 10
47.635064
 20
67.69773000000001
  0
LWPOLYLINE
  5
A0
330
18
100
AcDbEntity
  8
0
  6
Continuous
 62
     7
100
AcDbPolyline
 90
        2
 70
     0
 43
0.0
 10
49.668064
 20
77.26973000000001
 10
48.638064
 20
72.11773000000001
  0
LWPOLYLINE
  5
A5
330
18
100
AcDbEntity
  8
0
  6
Continuous
 62
     7
100
AcDbPolyline
 90
        2
 70
     0
 43
0.0
 10
45.818064
 20
62.89773
 10
45.655064
 20
62.38273
  0
LWPOLYLINE
  5
AA
330
18
100
AcDbEntity
  8
0
  6
Continuous
 62
     7
100
AcDbPolyline
 90
        2
 70
     0
 43
0.0
 10
46.414064
 20
67.34473
 10
45.818064
 20
62.89773
  0
LWPOLYLINE
  5
AF
330
18
100
AcDbEntity
  8
0
  6
Continuous
 62
     7
100
AcDbPolyline
 90
        2
 70
     0
 43
0.0
 10
47.418064
 20
74.47673
 10
46.414064
 20
67.34473
  0
LWPOLYLINE
  5
B4
330
18
100
AcDbEntity
  8
0
  6
Continuous
 62
     7
100
AcDbPolyline
 90
        2
 70
     0
 43
0.0
 10
45.194064
 20
65.58273
 10
44.408064
 20
63.68373
  0
LWPOLYLINE
  5
B9
330
18
100
AcDbEntity
  8
0
  6
Continuous
 62
     7
100
AcDbPolyline
 90
        2
 70
     0
 43
0.0
 10
45.899064
 20
68.91773000000001
 10
45.194064
 20
65.58273
  0
LWPOLYLINE
  5
BE
330
18
100
AcDbEntity
  8
0
  6
Continuous
 62
     7
100
AcDbPolyline
 90
        2
 70
     0
 43
0.0
 10
46.794064
 20
73.39173000000001
 10
45.899064
 20
68.91773000000001
  0
LWPOLYLINE
  5
C3
330
18
100
AcDbEntity
  8
0
  6
Continuous
 62
     7
100
AcDbPolyline
 90
        2
 70
     0
 43
0.0
 10
44.272064
 20
71.33073
 10
44.191064
 20
71.11373
  0
LWPOLYLINE
  5
C8
330
18
100
AcDbEntity
  8
0
  6
Continuous
 62
     7
100
AcDbPolyline
 90
        2
 70
     0
 43
0.0
 10
45.275064
 20
75.45273
 10
44.272064
 20
71.33073
  0
LWPOLYLINE
  5
CD
330
18
100
AcDbEntity
  8
0
  6
Continuous
 62
     7
100
AcDbPolyline
 90
        2
 70
     0
 43
0.0
 10
52.055064
 20
71.84673000000001
 10
51.350064
 20
69.26973000000001
  0
LWPOLYLINE
  5
D2
330
18
100
AcDbEntity
  8
0
  6
Continuous
 62
     7
100
AcDbPolyline
 90
        2
 70
     0
 43
0.0
 10
52.055064
 20
65.77173000000001
 10
51.106064
 20
62.76173000000001
  0
LWPOLYLINE
  5
D7
330
18
100
AcDbEntity
  8
0
  6
Continuous
 62
     7
100
AcDbPolyline
 90
        2
 70
     0
 43
0.0
 10
43.567064
 20
91.53373000000001
 10
52.055064
 20
87.65573000000001
  0
LWPOLYLINE
  5
DC
330
18
100
AcDbEntity
  8
0
  6
Continuous
 62
     7
100
AcDbPolyline
 90
        2
 70
     0
 43
0.0
 10
50.401064
 20
88.38773000000001
 10
49.316064
 20
80.71373
  0
LWPOLYLINE
  5
E1
330
18
100
AcDbEntity
  8
0
  6
Continuous
 62
     7
100
AcDbPolyline
 90
        2
 70
     0
 43
0.0
 10
49.126064
 20
88.98473
 10
47.879064
 20
81.20173
  0
LWPOLYLINE
  5
E6
330
18
100
AcDbEntity
  8
0
  6
Continuous
 62
     7
100
AcDbPolyline
 90
        2
 70
     0
 43
0.0
 10
46.957064
 20
84.21173
 10
46.523064
 20
81.01173
  0
LWPOLYLINE
  5
EB
330
18
100
AcDbEntity
  8
0
  6
Continuous
 62
     7
100
AcDbPolyline
 90
        2
 70
     0
 43
0.0
 10
47.472064
 20
89.74373
 10
46.957064
 20
84.21173
  0
LWPOLYLINE
  5
F0
330
18
100
AcDbEntity
  8
0
  6
Continuous
 62
     7
100
AcDbPolyline
 90
        2
 70
     0
 43
0.0
 10
45.601064
 20
83.61473000000001
 10
44.977064
 20
79.41173000000001
  0
LWPOLYLINE
  5
F5
330
18
100
AcDbEntity
  8
0
  6
Continuous
 62
     7
100
AcDbPolyline
 90
        2
 70
     0
 43
0.0
 10
46.279064
 20
90.28573
 10
45.601064
 20
83.61473000000001
  0
LWPOLYLINE
  5
FA
330
18
100
AcDbEntity
  8
0
  6
Continuous
 62
     7
100
AcDbPolyline
 90
        2
 70
     0
 43
0.0
 10
44.001064
 20
84.97073
 10
43.784064
 20
84.48273
  0
LWPOLYLINE
  5
FF
330
18
100
AcDbEntity
  8
0
  6
Continuous
 62
     7
100
AcDbPolyline
 90
        2
 70
     0
 43
0.0
 10
44.733064
 20
87.65573000000001
 10
44.001064
 20
84.97073
  0
LWPOLYLINE
  5
104
330
18
100
AcDbEntity
  8
0
  6
Continuous
 62
     7
100
AcDbPolyline
 90
        2
 70
     0
 43
0.0
 10
45.411064
 20
90.69273000000001
 10
44.733064
 20
87.65573000000001
  0
LWPOLYLINE
  5
109
330
18
100
AcDbEntity
  8
0
  6
Continuous
 62
     7
100
AcDbPolyline
 90
        2
 70
     0
 43
0.0
 10
31.446064
 20
119.68073
 10
42.509064
 20
122.88073
  0
LWPOLYLINE
  5
10E
330
18
100
AcDbEntity
  8
0
  6
Continuous
 62
     7
100
AcDbPolyline
 90
        2
 70
     0
 43
0.0
 10
31.446064
 20
119.68073
 10
61.166064
 20
105.71573
  0
LWPOLYLINE
  5
113
330
18
100
AcDbEntity
  8
0
  6
Continuous
 62
     7
100
AcDbPolyline
 90
        2
 70
     0
 43
0.0
 10
26.999064
 20
112.90173
 10
31.473064
 20
114.20273
  0
LWPOLYLINE
  5
118
330
18
100
AcDbEntity
  8
0
  6
Continuous
 62
     7
100
AcDbPolyline
 90
        2
 70
     0
 43
0.0
 10
31.473064
 20
110.73173
 10
31.446064
 20
119.68073
  0
LWPOLYLINE
  5
11D
330
18
100
AcDbEntity
  8
0
  6
Continuous
 62
     7
100
AcDbPolyline
 90
        2
 70
     0
 43
0.0
 10
46.523064
 20
124.01973
 10
56.529064
 20
126.92073
  0
LWPOLYLINE
  5
122
330
18
100
AcDbEntity
  8
0
  6
Continuous
 62
     7
100
AcDbPolyline
 90
        2
 70
     0
 43
0.0
 10
44.326064
 20
124.69773
 10
46.523064
 20
124.01973
  0
LWPOLYLINE
  5
127
330
18
100
AcDbEntity
  8
0
  6
Continuous
 62
     7
100
AcDbPolyline
 90
        2
 70
     0
 43
0.0
 10
42.509064
 20
122.88073
 10
45.140064
 20
122.52773
  0
LWPOLYLINE
  5
12C
330
18
100
AcDbEntity
  8
0
  6
Continuous
 62
     7
100
AcDbPolyline
 90
        2
 70
     0
 43
0.0
 10
44.137064
 20
123.99273
 10
44.408064
 20
122.63673
  0
LWPOLYLINE
  5
131
330
18
100
AcDbEntity
  8
0
  6
Continuous
 62
     7
100
AcDbPolyline
 90
        2
 70
     0
 43
0.0
 10
44.326064
 20
124.69773
 10
43.757064
 20
122.71773
  0
LWPOLYLINE
  5
136
330
18
100
AcDbEntity
  8
0
  6
Continuous
 62
     7
100
AcDbPolyline
 90
        2
 70
     0
 43
0.0
 10
45.140064
 20
122.52773
 10
44.326064
 20
124.69773
  0
LWPOLYLINE
  5
13B
330
18
100
AcDbEntity
  8
0
  6
Continuous
 62
     7
100
AcDbPolyline
 90
        2
 70
     0
 43
0.0
 10
132.945064
 20
52.80973
 10
137.744064
 20
53.21673000000001
  0
LWPOLYLINE
  5
140
330
18
100
AcDbEntity
  8
0
  6
Continuous
 62
     7
100
AcDbPolyline
 90
        2
 70
     0
 43
0.0
 10
130.179064
 20
48.47173
 10
142.463064
 20
53.67773
  0
LWPOLYLINE
  5
145
330
18
100
AcDbEntity
  8
0
  6
Continuous
 62
     7
100
AcDbPolyline
 90
        2
 70
     0
 43
0.0
 10
129.799064
 20
61.67773
 10
130.179064
 20
48.47173
  0
LINE
  5
14A
330
18
100
AcDbEntity
  8
0
100
AcDbLine
 10
99.580051
 20
64.768665
 30
0.0
 11
108.182098
 21
47.839397
 31
0.0
  0
LWPOLYLINE
  5
14B
330
18
100
AcDbEntity
  8
0
  6
Continuous
 62
     7
100
AcDbPolyline
 90
        2
 70
     0
 43
0.0
 10
100.323064
 20
64.68773
 10
130.179064
 20
48.47173
  0
LWPOLYLINE
  5
150
330
18
100
AcDbEntity
  8
0
  6
Continuous
 62
     7
100
AcDbPolyline
 90
        2
 70
     0
 43
0.0
 10
132.457064
 20
50.66773
 10
135.819064
 20
50.85773
  0
LINE
  5
155
330
18
100
AcDbEntity
  8
0
100
AcDbLine
 10
108.182098
 20
47.839397
 30
0.0
 11
103.182098
 21
47.839397
 31
0.0
  0
LWPOLYLINE
  5
156
330
18
100
AcDbEntity
  8
0
  6
Continuous
 62
     7
100
AcDbPolyline
 90
        2
 70
     0
 43
0.0
 10
130.070064
 20
52.26773
 10
132.945064
 20
52.80973
  0
LWPOLYLINE
  5
15B
330
18
100
AcDbEntity
  8
0
  6
Continuous
 62
     7
100
AcDbPolyline
 90
        2
 70
     0
 43
0.0
 10
130.125064
 20
50.28873
 10
132.457064
 20
50.66773
  0
LWPOLYLINE
  5
160
330
18
100
AcDbEntity
  8
0
  6
Continuous
 62
     7
100
AcDbPolyline
 90
        2
 70
     0
 43
0.0
 10
144.171064
 20
154.71573
 10
139.968064
 20
161.16973
  0
LWPOLYLINE
  5
165
330
18
100
AcDbEntity
  8
0
  6
Continuous
 62
     7
100
AcDbPolyline
 90
        2
 70
     0
 43
0.0
 10
97.828064
 20
125.91773
 10
139.968064
 20
161.16973
  0
LWPOLYLINE
  5
16A
330
18
100
AcDbEntity
  8
0
  6
Continuous
 62
     7
100
AcDbPolyline
 90
        2
 70
     0
 43
0.0
 10
132.782064
 20
163.42073
 10
94.52006400000001
 20
132.58873
  0
LWPOLYLINE
  5
16F
330
18
100
AcDbEntity
  8
0
  6
Continuous
 62
     7
100
AcDbPolyline
 90
        2
 70
     0
 43
0.0
 10
161.851064
 20
136.05973
 10
129.148064
 20
124.94173
  0
LWPOLYLINE
  5
174
330
18
100
AcDbEntity
  8
0
  6
Continuous
 62
     7
100
AcDbPolyline
 90
        2
 70
     0
 43
0.0
 10
135.494064
 20
68.67373000000001
 10
135.114064
 20
68.37573
  0
LWPOLYLINE
  5
179
330
18
100
AcDbEntity
  8
0
  6
Continuous
 62
     7
100
AcDbPolyline
 90
        2
 70
     0
 43
0.0
 10
135.033064
 20
70.86973
 10
135.385064
 20
58.85773
  0
LWPOLYLINE
  5
17E
330
18
100
AcDbEntity
  8
0
  6
Continuous
 62
     7
100
AcDbPolyline
 90
        2
 70
     0
 43
0.0
 10
133.948064
 20
58.01673
 10
137.772064
 20
58.39673000000001
  0
LWPOLYLINE
  5
183
330
18
100
AcDbEntity
  8
0
  6
Continuous
 62
     7
100
AcDbPolyline
 90
        2
 70
     0
 43
0.0
 10
133.053064
 20
55.87473000000001
 10
137.907064
 20
56.63373000000001
  0
LWPOLYLINE
  5
188
330
18
100
AcDbEntity
  8
0
  6
Continuous
 62
     7
100
AcDbPolyline
 90
        2
 70
     0
 43
0.0
 10
137.772064
 20
68.29373000000001
 10
135.168064
 20
66.53173000000001
  0
LWPOLYLINE
  5
18D
330
18
100
AcDbEntity
  8
0
  6
Continuous
 62
     7
100
AcDbPolyline
 90
        2
 70
     0
 43
0.0
 10
135.033064
 20
70.86973
 10
146.151064
 20
75.04573000000001
  0
LWPOLYLINE
  5
192
330
18
100
AcDbEntity
  8
0
  6
Continuous
 62
     7
100
AcDbPolyline
 90
        2
 70
     0
 43
0.0
 10
132.836064
 20
54.24773
 10
136.660064
 20
54.95273
  0
LWPOLYLINE
  5
197
330
18
100
AcDbEntity
  8
0
  6
Continuous
 62
     7
100
AcDbPolyline
 90
        2
 70
     0
 43
0.0
 10
100.052064
 20
76.72773000000001
 10
135.385064
 20
58.85773
  0
LWPOLYLINE
  5
19C
330
18
100
AcDbEntity
  8
0
  6
Continuous
 62
     7
100
AcDbPolyline
 90
        2
 70
     0
 43
0.0
 10
97.638064
 20
94.27173000000001
 10
162.882064
 20
115.77573
  0
LWPOLYLINE
  5
1A1
330
18
100
AcDbEntity
  8
0
  6
Continuous
 62
     7
100
AcDbPolyline
 90
        2
 70
     0
 43
0.0
 10
162.475064
 20
81.17473000000001
 10
117.108064
 20
100.67173
  0
LWPOLYLINE
  5
1A6
330
18
100
AcDbEntity
  8
0
  6
Continuous
 62
     7
100
AcDbPolyline
 90
        2
 70
     0
 43
0.0
 10
123.698064
 20
120.27773
 10
151.222064
 20
143.86873
  0
LWPOLYLINE
  5
1AB
330
18
100
AcDbEntity
  8
0
  6
Continuous
 62
     7
100
AcDbPolyline
 90
        2
 70
     0
 43
0.0
 10
109.570064
 20
105.14573
 10
109.570064
 20
104.52273
  0
LWPOLYLINE
  5
1B0
330
18
100
AcDbEntity
  8
0
  6
Continuous
 62
     7
100
AcDbPolyline
 90
        2
 70
     0
 43
0.0
 10
109.570064
 20
104.52273
 10
112.200064
 20
105.33573
  0
LWPOLYLINE
  5
1B5
330
18
100
AcDbEntity
  8
0
  6
Continuous
 62
     7
100
AcDbPolyline
 90
        2
 70
     0
 43
0.0
 10
97.93706400000001
 20
114.82673
 10
93.435064
 20
103.87173
  0
LWPOLYLINE
  5
1BA
330
18
100
AcDbEntity
  8
0
  6
Continuous
 62
     7
100
AcDbPolyline
 90
        2
 70
     0
 43
0.0
 10
99.64506400000001
 20
114.04073
 10
99.808064
 20
98.99073
  0
LWPOLYLINE
  5
1BF
330
18
100
AcDbEntity
  8
0
  6
Continuous
 62
     7
100
AcDbPolyline
 90
        2
 70
     0
 43
0.0
 10
100.486064
 20
113.41673
 10
100.648064
 20
98.36673
  0
LWPOLYLINE
  5
1C4
330
18
100
AcDbEntity
  8
0
  6
Continuous
 62
     7
100
AcDbPolyline
 90
        2
 70
     0
 43
0.0
 10
89.72006400000001
 20
94.62473
 10
88.96106400000001
 20
110.70473
  0
LWPOLYLINE
  5
1C9
330
18
100
AcDbEntity
  8
0
  6
Continuous
 62
     7
100
AcDbPolyline
 90
        2
 70
     0
 43
0.0
 10
89.097064
 20
110.18973
 10
98.777064
 20
89.44573000000001
  0
LWPOLYLINE
  5
1CE
330
18
100
AcDbEntity
  8
0
  6
Continuous
 62
     7
100
AcDbPolyline
 90
        3
 70
     0
 43
0.0
 10
89.96406400000001
 20
110.73173
 10
99.781064
 20
89.68973000000001
 10
100.323064
 20
64.68773
  0
LWPOLYLINE
  5
1D4
330
18
100
AcDbEntity
  8
0
  6
Continuous
 62
     7
100
AcDbPolyline
 90
        2
 70
     0
 43
0.0
 10
100.648064
 20
98.36673
 10
124.349064
 20
106.47473
  0
LWPOLYLINE
  5
1D9
330
18
100
AcDbEntity
  8
0
  6
HIDDEN
 62
     7
100
AcDbPolyline
 90
        2
 70
     0
 43
0.0
 10
99.683064
 20
89.89873
 10
102.322064
 20
91.08773000000001
  0
LWPOLYLINE
  5
1DE
330
18
100
AcDbEntity
  8
0
  6
HIDDEN
 62
     7
100
AcDbPolyline
 90
        2
 70
     0
 43
0.0
 10
109.748064
 20
86.64573
 10
99.950064
 20
81.87173
  0
ARC
  5
1E3
330
18
100
AcDbEntity
  8
0
  6
HIDDEN
 62
     7
100
AcDbCircle
 10
101.977064
 20
71.16873000000001
 30
0.0
 40
1.03
100
AcDbArc
 50
217.081
 51
241.546
  0
LWPOLYLINE
  5
1E4
330
18
100
AcDbEntity
  8
0
  6
HIDDEN
 62
     7
100
AcDbPolyline
 90
        2
 70
     0
 43
0.0
 10
98.316064
 20
71.38573000000001
 10
104.933064
 20
74.36773000000001
  0
LWPOLYLINE
  5
1E9
330
18
100
AcDbEntity
  8
0
  6
HIDDEN
 62
     7
100
AcDbPolyline
 90
        2
 70
     0
 43
0.0
 10
111.387064
 20
69.48673000000001
 10
100.757064
 20
64.30773000000001
  0
LWPOLYLINE
  5
1EE
330
18
100
AcDbEntity
  8
0
  6
Continuous
 62
     7
100
AcDbPolyline
 90
        2
 70
     0
 43
0.0
 10
100.106064
 20
87.49273000000001
 10
135.033064
 20
70.86973
  0
LWPOLYLINE
  5
1F3
330
18
100
AcDbEntity
  8
0
  6
Continuous
 62
     7
100
AcDbPolyline
 90
        2
 70
     0
 43
0.0
 10
91.890064
 20
90.33973
 10
92.242064
 20
68.99873000000001
  0
LWPOLYLINE
  5
1F8
330
18
100
AcDbEntity
  8
0
  6
Continuous
 62
     7
100
AcDbPolyline
 90
        2
 70
     0
 43
0.0
 10
98.777064
 20
89.44573000000001
 10
99.293064
 20
65.20273
  0
LWPOLYLINE
  5
1FD
330
18
100
AcDbEntity
  8
0
  6
Continuous
 62
     7
100
AcDbPolyline
 90
        2
 70
     0
 43
0.0
 10
74.914064
 20
78.46273000000001
 10
92.242064
 20
69.08073
  0
ARC
  5
202
330
18
100
AcDbEntity
  8
0
  6
HIDDEN
 62
     7
100
AcDbCircle
 10
101.625064
 20
70.89773000000001
 30
0.0
 40
0.569
100
AcDbArc
 50
212.932
 51
217.088
  0
ARC
  5
203
330
18
100
AcDbEntity
  8
0
  6
HIDDEN
 62
     7
100
AcDbCircle
 10
101.625064
 20
70.89773000000001
 30
0.0
 40
0.5670000000000001
100
AcDbArc
 50
151.477
 51
182.454
  0
ARC
  5
204
330
18
100
AcDbEntity
  8
0
  6
HIDDEN
 62
     7
100
AcDbCircle
 10
102.031064
 20
70.68073000000001
 30
0.0
 40
1.03
100
AcDbArc
 50
132.548
 51
151.414
  0
ARC
  5
205
330
18
100
AcDbEntity
  8
0
  6
Continuous
 62
     7
100
AcDbCircle
 10
96.744064
 20
70.70773
 30
0.0
 40
0.407
100
AcDbArc
 50
73.74
 51
106.627
  0
ARC
  5
206
330
18
100
AcDbEntity
  8
0
  6
Continuous
 62
     7
100
AcDbCircle
 10
96.662064
 20
70.38173000000001
 30
0.0
 40
0.759
100
AcDbArc
 50
49.19900000000001
 51
73.634
  0
ARC
  5
207
330
18
100
AcDbEntity
  8
0
  6
Continuous
 62
     7
100
AcDbCircle
 10
96.445064
 20
70.11073
 30
0.0
 40
1.112
100
AcDbArc
 50
31.443
 51
49.15600000000001
  0
ARC
  5
208
330
18
100
AcDbEntity
  8
0
  6
Continuous
 62
     7
100
AcDbCircle
 10
96.01106400000001
 20
69.86673
 30
0.0
 40
1.573
100
AcDbArc
 50
16.747
 51
31.523
  0
ARC
  5
209
330
18
100
AcDbEntity
  8
0
  6
Continuous
 62
     7
100
AcDbCircle
 10
96.01106400000001
 20
69.86673
 30
0.0
 40
1.573
100
AcDbArc
 50
2.074
 51
16.747
  0
ARC
  5
20A
330
18
100
AcDbEntity
  8
0
  6
Continuous
 62
     7
100
AcDbCircle
 10
96.499064
 20
69.89373000000001
 30
0.0
 40
1.112
100
AcDbArc
 50
344.439
 51
2.095
  0
ARC
  5
20B
330
18
100
AcDbEntity
  8
0
  6
Continuous
 62
     7
100
AcDbCircle
 10
96.825064
 20
69.78573
 30
0.0
 40
0.759
100
AcDbArc
 50
319.932
 51
344.476
  0
ARC
  5
20C
330
18
100
AcDbEntity
  8
0
  6
Continuous
 62
     7
100
AcDbCircle
 10
97.096064
 20
69.56873
 30
0.0
 40
0.407
100
AcDbArc
 50
286.627
 51
319.854
  0
ARC
  5
20D
330
18
100
AcDbEntity
  8
0
  6
Continuous
 62
     7
100
AcDbCircle
 10
97.096064
 20
69.56873
 30
0.0
 40
0.407
100
AcDbArc
 50
253.74
 51
286.627
  0
ARC
  5
20E
330
18
100
AcDbEntity
  8
0
  6
Continuous
 62
     7
100
AcDbCircle
 10
97.177064
 20
69.89373000000001
 30
0.0
 40
0.759
100
AcDbArc
 50
229.199
 51
253.634
  0
ARC
  5
20F
330
18
100
AcDbEntity
  8
0
  6
Continuous
 62
     7
100
AcDbCircle
 10
97.421064
 20
70.16473000000001
 30
0.0
 40
1.112
100
AcDbArc
 50
211.443
 51
229.156
  0
ARC
  5
210
330
18
100
AcDbEntity
  8
0
  6
Continuous
 62
     7
100
AcDbCircle
 10
97.828064
 20
70.40873000000001
 30
0.0
 40
1.573
100
AcDbArc
 50
196.747
 51
211.523
  0
ARC
  5
211
330
18
100
AcDbEntity
  8
0
  6
Continuous
 62
     7
100
AcDbCircle
 10
97.828064
 20
70.40873000000001
 30
0.0
 40
1.573
100
AcDbArc
 50
182.074
 51
196.747
  0
ARC
  5
212
330
18
100
AcDbEntity
  8
0
  6
Continuous
 62
     7
100
AcDbCircle
 10
97.340064
 20
70.38173000000001
 30
0.0
 40
1.112
100
AcDbArc
 50
164.438
 51
182.095
  0
ARC
  5
213
330
18
100
AcDbEntity
  8
0
  6
Continuous
 62
     7
100
AcDbCircle
 10
97.015064
 20
70.49073
 30
0.0
 40
0.759
100
AcDbArc
 50
139.932
 51
164.476
  0
ARC
  5
214
330
18
100
AcDbEntity
  8
0
  6
Continuous
 62
     7
100
AcDbCircle
 10
96.744064
 20
70.70773
 30
0.0
 40
0.407
100
AcDbArc
 50
106.627
 51
139.854
  0
ARC
  5
215
330
18
100
AcDbEntity
  8
0
  6
Continuous
 62
     7
100
AcDbCircle
 10
97.367064
 20
70.62573
 30
0.0
 40
0.759
100
AcDbArc
 50
139.932
 51
140.221
  0
ARC
  5
216
330
18
100
AcDbEntity
  8
0
  6
Continuous
 62
     7
100
AcDbCircle
 10
97.123064
 20
70.84273
 30
0.0
 40
0.407
100
AcDbArc
 50
106.627
 51
139.854
  0
ARC
  5
217
330
18
100
AcDbEntity
  8
0
  6
Continuous
 62
     7
100
AcDbCircle
 10
97.123064
 20
70.84273
 30
0.0
 40
0.407
100
AcDbArc
 50
73.74
 51
106.627
  0
ARC
  5
218
330
18
100
AcDbEntity
  8
0
  6
Continuous
 62
     7
100
AcDbCircle
 10
97.015064
 20
70.51773
 30
0.0
 40
0.759
100
AcDbArc
 50
49.19900000000001
 51
73.634
  0
ARC
  5
219
330
18
100
AcDbEntity
  8
0
  6
Continuous
 62
     7
100
AcDbCircle
 10
96.798064
 20
70.27373
 30
0.0
 40
1.112
100
AcDbArc
 50
31.443
 51
49.15600000000001
  0
ARC
  5
21A
330
18
100
AcDbEntity
  8
0
  6
Continuous
 62
     7
100
AcDbCircle
 10
96.391064
 20
70.00273
 30
0.0
 40
1.573
100
AcDbArc
 50
16.747
 51
31.523
  0
ARC
  5
21B
330
18
100
AcDbEntity
  8
0
  6
Continuous
 62
     7
100
AcDbCircle
 10
96.391064
 20
70.00273
 30
0.0
 40
1.573
100
AcDbArc
 50
2.074
 51
16.747
  0
ARC
  5
21C
330
18
100
AcDbEntity
  8
0
  6
Continuous
 62
     7
100
AcDbCircle
 10
96.879064
 20
70.02973
 30
0.0
 40
1.112
100
AcDbArc
 50
344.439
 51
2.095
  0
ARC
  5
21D
330
18
100
AcDbEntity
  8
0
  6
Continuous
 62
     7
100
AcDbCircle
 10
97.20506400000001
 20
69.94773000000001
 30
0.0
 40
0.759
100
AcDbArc
 50
319.932
 51
344.476
  0
ARC
  5
21E
330
18
100
AcDbEntity
  8
0
  6
Continuous
 62
     7
100
AcDbCircle
 10
97.47606400000001
 20
69.73073000000001
 30
0.0
 40
0.407
100
AcDbArc
 50
286.626
 51
319.853
  0
ARC
  5
21F
330
18
100
AcDbEntity
  8
0
  6
Continuous
 62
     7
100
AcDbCircle
 10
97.47606400000001
 20
69.73073000000001
 30
0.0
 40
0.407
100
AcDbArc
 50
263.112
 51
286.626
  0
ARC
  5
220
330
18
100
AcDbEntity
  8
0
  6
Continuous
 62
     7
100
AcDbCircle
 10
94.411064
 20
76.23973000000001
 30
0.0
 40
0.407
100
AcDbArc
 50
73.74
 51
106.626
  0
ARC
  5
221
330
18
100
AcDbEntity
  8
0
  6
Continuous
 62
     7
100
AcDbCircle
 10
94.33006400000001
 20
75.91373
 30
0.0
 40
0.759
100
AcDbArc
 50
49.19900000000001
 51
73.634
  0
ARC
  5
222
330
18
100
AcDbEntity
  8
0
  6
Continuous
 62
     7
100
AcDbCircle
 10
94.08606400000001
 20
75.64273
 30
0.0
 40
1.112
100
AcDbArc
 50
31.443
 51
49.15600000000001
  0
ARC
  5
223
330
18
100
AcDbEntity
  8
0
  6
Continuous
 62
     7
100
AcDbCircle
 10
93.679064
 20
75.39873
 30
0.0
 40
1.573
100
AcDbArc
 50
16.747
 51
31.523
  0
ARC
  5
224
330
18
100
AcDbEntity
  8
0
  6
Continuous
 62
     7
100
AcDbCircle
 10
93.679064
 20
75.39873
 30
0.0
 40
1.573
100
AcDbArc
 50
2.074
 51
16.747
  0
ARC
  5
225
330
18
100
AcDbEntity
  8
0
  6
Continuous
 62
     7
100
AcDbCircle
 10
94.167064
 20
75.42573
 30
0.0
 40
1.112
100
AcDbArc
 50
344.439
 51
2.095
  0
ARC
  5
226
330
18
100
AcDbEntity
  8
0
  6
Continuous
 62
     7
100
AcDbCircle
 10
94.493064
 20
75.31773000000001
 30
0.0
 40
0.759
100
AcDbArc
 50
319.932
 51
344.476
  0
ARC
  5
227
330
18
100
AcDbEntity
  8
0
  6
Continuous
 62
     7
100
AcDbCircle
 10
94.76406400000001
 20
75.10073
 30
0.0
 40
0.407
100
AcDbArc
 50
286.627
 51
319.854
  0
ARC
  5
228
330
18
100
AcDbEntity
  8
0
  6
Continuous
 62
     7
100
AcDbCircle
 10
94.76406400000001
 20
75.10073
 30
0.0
 40
0.407
100
AcDbArc
 50
253.74
 51
286.627
  0
ARC
  5
229
330
18
100
AcDbEntity
  8
0
  6
Continuous
 62
     7
100
AcDbCircle
 10
94.84506400000001
 20
75.42573
 30
0.0
 40
0.759
100
AcDbArc
 50
229.199
 51
253.634
  0
ARC
  5
22A
330
18
100
AcDbEntity
  8
0
  6
Continuous
 62
     7
100
AcDbCircle
 10
95.06206400000001
 20
75.69673
 30
0.0
 40
1.112
100
AcDbArc
 50
211.443
 51
229.156
  0
ARC
  5
22B
330
18
100
AcDbEntity
  8
0
  6
Continuous
 62
     7
100
AcDbCircle
 10
95.469064
 20
75.94073
 30
0.0
 40
1.573
100
AcDbArc
 50
196.747
 51
211.523
  0
ARC
  5
22C
330
18
100
AcDbEntity
  8
0
  6
Continuous
 62
     7
100
AcDbCircle
 10
95.469064
 20
75.94073
 30
0.0
 40
1.573
100
AcDbArc
 50
182.074
 51
196.747
  0
ARC
  5
22D
330
18
100
AcDbEntity
  8
0
  6
Continuous
 62
     7
100
AcDbCircle
 10
95.00806400000001
 20
75.94073
 30
0.0
 40
1.112
100
AcDbArc
 50
164.438
 51
182.095
  0
ARC
  5
22E
330
18
100
AcDbEntity
  8
0
  6
Continuous
 62
     7
100
AcDbCircle
 10
94.683064
 20
76.02273000000001
 30
0.0
 40
0.759
100
AcDbArc
 50
139.932
 51
164.476
  0
ARC
  5
22F
330
18
100
AcDbEntity
  8
0
  6
Continuous
 62
     7
100
AcDbCircle
 10
94.411064
 20
76.23973000000001
 30
0.0
 40
0.407
100
AcDbArc
 50
106.626
 51
139.853
  0
ARC
  5
230
330
18
100
AcDbEntity
  8
0
  6
Continuous
 62
     7
100
AcDbCircle
 10
95.03506400000001
 20
76.15773
 30
0.0
 40
0.759
100
AcDbArc
 50
139.932
 51
140.221
  0
ARC
  5
231
330
18
100
AcDbEntity
  8
0
  6
Continuous
 62
     7
100
AcDbCircle
 10
94.79106400000001
 20
76.37473
 30
0.0
 40
0.407
100
AcDbArc
 50
106.627
 51
139.854
  0
ARC
  5
232
330
18
100
AcDbEntity
  8
0
  6
Continuous
 62
     7
100
AcDbCircle
 10
94.79106400000001
 20
76.37473
 30
0.0
 40
0.407
100
AcDbArc
 50
73.74
 51
106.627
  0
ARC
  5
233
330
18
100
AcDbEntity
  8
0
  6
Continuous
 62
     7
100
AcDbCircle
 10
94.683064
 20
76.07673
 30
0.0
 40
0.759
100
AcDbArc
 50
49.19900000000001
 51
73.634
  0
ARC
  5
234
330
18
100
AcDbEntity
  8
0
  6
Continuous
 62
     7
100
AcDbCircle
 10
94.466064
 20
75.80573000000001
 30
0.0
 40
1.112
100
AcDbArc
 50
31.443
 51
49.15600000000001
  0
ARC
  5
235
330
18
100
AcDbEntity
  8
0
  6
Continuous
 62
     7
100
AcDbCircle
 10
94.05906400000001
 20
75.56173000000001
 30
0.0
 40
1.573
100
AcDbArc
 50
16.747
 51
31.523
  0
ARC
  5
236
330
18
100
AcDbEntity
  8
0
  6
Continuous
 62
     7
100
AcDbCircle
 10
94.05906400000001
 20
75.56173000000001
 30
0.0
 40
1.573
100
AcDbArc
 50
2.074
 51
16.747
  0
ARC
  5
237
330
18
100
AcDbEntity
  8
0
  6
Continuous
 62
     7
100
AcDbCircle
 10
94.52006400000001
 20
75.56173000000001
 30
0.0
 40
1.112
100
AcDbArc
 50
344.439
 51
2.095
  0
ARC
  5
238
330
18
100
AcDbEntity
  8
0
  6
Continuous
 62
     7
100
AcDbCircle
 10
94.872064
 20
75.47973
 30
0.0
 40
0.759
100
AcDbArc
 50
319.932
 51
344.476
  0
ARC
  5
239
330
18
100
AcDbEntity
  8
0
  6
Continuous
 62
     7
100
AcDbCircle
 10
95.117064
 20
75.26273000000001
 30
0.0
 40
0.407
100
AcDbArc
 50
286.627
 51
319.853
  0
ARC
  5
23A
330
18
100
AcDbEntity
  8
0
  6
Continuous
 62
     7
100
AcDbCircle
 10
95.117064
 20
75.26273000000001
 30
0.0
 40
0.407
100
AcDbArc
 50
263.113
 51
286.627
  0
LWPOLYLINE
  5
23B
330
18
100
AcDbEntity
  8
0
  6
HIDDEN
 62
     7
100
AcDbPolyline
 90
        2
 70
     0
 43
0.0
 10
92.784064
 20
68.89073000000001
 10
95.469064
 20
70.08373
  0
ARC
  5
240
330
18
100
AcDbEntity
  8
0
  6
Continuous
 62
     7
100
AcDbCircle
 10
93.245064
 20
69.02573000000001
 30
0.0
 40
1.03
100
AcDbArc
 50
180.905
 51
241.679
  0
LWPOLYLINE
  5
241
330
18
100
AcDbEntity
  8
0
  6
Continuous
 62
     7
100
AcDbPolyline
 90
        2
 70
     0
 43
0.0
 10
92.757064
 20
68.13173000000001
 10
99.835064
 20
64.30773000000001
  0
ARC
  5
246
330
18
100
AcDbEntity
  8
0
  6
Continuous
 62
     7
100
AcDbCircle
 10
100.323064
 20
65.20273
 30
0.0
 40
1.03
100
AcDbArc
 50
181.206
 51
296.093
  0
SOLID
  5
247
330
18
100
AcDbEntity
  8
0
100
AcDbTrace
 10
100.323051
 20
65.14566500000001
 30
0.0
 11
98.837051
 21
64.390665
 31
0.0
 12
97.315051
 22
69.22566500000001
 32
0.0
 13
97.315051
 23
69.22566500000001
 33
0.0
  0
LWPOLYLINE
  5
248
330
18
100
AcDbEntity
  8
0
  6
Continuous
 62
     7
100
AcDbPolyline
 90
        2
 70
     0
 43
0.0
 10
82.968064
 20
85.37773
 10
92.025064
 20
80.79473
  0
ARC
  5
24D
330
18
100
AcDbEntity
  8
0
  6
Continuous
 62
     7
100
AcDbCircle
 10
96.581064
 20
81.36473000000001
 30
0.0
 40
0.407
100
AcDbArc
 50
73.74
 51
106.627
  0
ARC
  5
24E
330
18
100
AcDbEntity
  8
0
  6
Continuous
 62
     7
100
AcDbCircle
 10
96.499064
 20
81.03873
 30
0.0
 40
0.759
100
AcDbArc
 50
49.19900000000001
 51
73.634
  0
ARC
  5
24F
330
18
100
AcDbEntity
  8
0
  6
Continuous
 62
     7
100
AcDbCircle
 10
96.255064
 20
80.76773
 30
0.0
 40
1.112
100
AcDbArc
 50
31.443
 51
49.15600000000001
  0
ARC
  5
250
330
18
100
AcDbEntity
  8
0
  6
Continuous
 62
     7
100
AcDbCircle
 10
95.849064
 20
80.52373
 30
0.0
 40
1.573
100
AcDbArc
 50
16.747
 51
31.523
  0
ARC
  5
251
330
18
100
AcDbEntity
  8
0
  6
Continuous
 62
     7
100
AcDbCircle
 10
95.849064
 20
80.52373
 30
0.0
 40
1.573
100
AcDbArc
 50
2.074
 51
16.747
  0
ARC
  5
252
330
18
100
AcDbEntity
  8
0
  6
Continuous
 62
     7
100
AcDbCircle
 10
96.337064
 20
80.55073
 30
0.0
 40
1.112
100
AcDbArc
 50
344.439
 51
2.095
  0
ARC
  5
253
330
18
100
AcDbEntity
  8
0
  6
Continuous
 62
     7
100
AcDbCircle
 10
96.662064
 20
80.44273000000001
 30
0.0
 40
0.759
100
AcDbArc
 50
319.932
 51
344.476
  0
ARC
  5
254
330
18
100
AcDbEntity
  8
0
  6
Continuous
 62
     7
100
AcDbCircle
 10
96.933064
 20
80.22573
 30
0.0
 40
0.407
100
AcDbArc
 50
286.626
 51
319.853
  0
ARC
  5
255
330
18
100
AcDbEntity
  8
0
  6
Continuous
 62
     7
100
AcDbCircle
 10
96.933064
 20
80.22573
 30
0.0
 40
0.407
100
AcDbArc
 50
263.112
 51
286.626
  0
ARC
  5
256
330
18
100
AcDbEntity
  8
0
  6
Continuous
 62
     7
100
AcDbCircle
 10
96.852064
 20
81.14773000000001
 30
0.0
 40
0.759
100
AcDbArc
 50
139.932
 51
140.221
  0
ARC
  5
257
330
18
100
AcDbEntity
  8
0
  6
Continuous
 62
     7
100
AcDbCircle
 10
96.581064
 20
81.36473000000001
 30
0.0
 40
0.407
100
AcDbArc
 50
106.627
 51
139.854
  0
ARC
  5
258
330
18
100
AcDbEntity
  8
0
  6
Continuous
 62
     7
100
AcDbCircle
 10
96.201064
 20
81.22873
 30
0.0
 40
0.407
100
AcDbArc
 50
73.73899999999999
 51
106.626
  0
ARC
  5
259
330
18
100
AcDbEntity
  8
0
  6
Continuous
 62
     7
100
AcDbCircle
 10
96.120064
 20
80.90373000000001
 30
0.0
 40
0.759
100
AcDbArc
 50
49.19900000000001
 51
73.634
  0
ARC
  5
25A
330
18
100
AcDbEntity
  8
0
  6
Continuous
 62
     7
100
AcDbCircle
 10
95.903064
 20
80.63273000000001
 30
0.0
 40
1.112
100
AcDbArc
 50
31.443
 51
49.15600000000001
  0
ARC
  5
25B
330
18
100
AcDbEntity
  8
0
  6
Continuous
 62
     7
100
AcDbCircle
 10
95.496064
 20
80.38773000000001
 30
0.0
 40
1.573
100
AcDbArc
 50
16.747
 51
31.523
  0
ARC
  5
25C
330
18
100
AcDbEntity
  8
0
  6
Continuous
 62
     7
100
AcDbCircle
 10
95.496064
 20
80.38773000000001
 30
0.0
 40
1.573
100
AcDbArc
 50
2.074
 51
16.747
  0
ARC
  5
25D
330
18
100
AcDbEntity
  8
0
  6
Continuous
 62
     7
100
AcDbCircle
 10
95.957064
 20
80.38773000000001
 30
0.0
 40
1.112
100
AcDbArc
 50
344.4380000000001
 51
2.095
  0
ARC
  5
25E
330
18
100
AcDbEntity
  8
0
  6
Continuous
 62
     7
100
AcDbCircle
 10
96.310064
 20
80.30673
 30
0.0
 40
0.759
100
AcDbArc
 50
319.932
 51
344.476
  0
ARC
  5
25F
330
18
100
AcDbEntity
  8
0
  6
Continuous
 62
     7
100
AcDbCircle
 10
96.554064
 20
80.08973
 30
0.0
 40
0.407
100
AcDbArc
 50
286.627
 51
319.853
  0
ARC
  5
260
330
18
100
AcDbEntity
  8
0
  6
Continuous
 62
     7
100
AcDbCircle
 10
96.554064
 20
80.08973
 30
0.0
 40
0.407
100
AcDbArc
 50
253.74
 51
286.627
  0
ARC
  5
261
330
18
100
AcDbEntity
  8
0
  6
Continuous
 62
     7
100
AcDbCircle
 10
96.662064
 20
80.41573000000001
 30
0.0
 40
0.759
100
AcDbArc
 50
229.199
 51
253.634
  0
ARC
  5
262
330
18
100
AcDbEntity
  8
0
  6
Continuous
 62
     7
100
AcDbCircle
 10
96.879064
 20
80.68673000000001
 30
0.0
 40
1.112
100
AcDbArc
 50
211.443
 51
229.156
  0
ARC
  5
263
330
18
100
AcDbEntity
  8
0
  6
Continuous
 62
     7
100
AcDbCircle
 10
97.286064
 20
80.93073000000001
 30
0.0
 40
1.573
100
AcDbArc
 50
196.747
 51
211.523
  0
ARC
  5
264
330
18
100
AcDbEntity
  8
0
  6
Continuous
 62
     7
100
AcDbCircle
 10
97.286064
 20
80.93073000000001
 30
0.0
 40
1.573
100
AcDbArc
 50
182.074
 51
196.747
  0
ARC
  5
265
330
18
100
AcDbEntity
  8
0
  6
Continuous
 62
     7
100
AcDbCircle
 10
96.798064
 20
80.90373000000001
 30
0.0
 40
1.112
100
AcDbArc
 50
164.438
 51
182.095
  0
ARC
  5
266
330
18
100
AcDbEntity
  8
0
  6
Continuous
 62
     7
100
AcDbCircle
 10
96.472064
 20
81.01173
 30
0.0
 40
0.759
100
AcDbArc
 50
139.932
 51
164.476
  0
ARC
  5
267
330
18
100
AcDbEntity
  8
0
  6
Continuous
 62
     7
100
AcDbCircle
 10
96.201064
 20
81.22873
 30
0.0
 40
0.407
100
AcDbArc
 50
106.626
 51
139.853
  0
LWPOLYLINE
  5
268
330
18
100
AcDbEntity
  8
0
  6
Continuous
 62
     7
100
AcDbPolyline
 90
        2
 70
     0
 43
0.0
 10
100.648064
 20
98.36673
 10
99.808064
 20
98.99073
  0
LWPOLYLINE
  5
26D
330
18
100
AcDbEntity
  8
0
  6
Continuous
 62
     7
100
AcDbPolyline
 90
        2
 70
     0
 43
0.0
 10
96.418064
 20
96.87573
 10
99.808064
 20
99.80373
  0
ARC
  5
272
330
18
100
AcDbEntity
  8
0
  6
Continuous
 62
     7
100
AcDbCircle
 10
90.534064
 20
90.31273
 30
0.0
 40
1.356
100
AcDbArc
 50
0.917
 51
30.826
  0
ARC
  5
273
330
18
100
AcDbEntity
  8
0
  6
Continuous
 62
     7
100
AcDbCircle
 10
91.076064
 20
94.70573
 30
0.0
 40
1.356
100
AcDbArc
 50
182.639
 51
210.826
  0
LWPOLYLINE
  5
274
330
18
100
AcDbEntity
  8
0
  6
Continuous
 62
     7
100
AcDbPolyline
 90
        2
 70
     0
 43
0.0
 10
89.91006400000001
 20
94.00073
 10
91.700064
 20
91.01773
  0
ARC
  5
279
330
18
100
AcDbEntity
  8
0
  6
HIDDEN
 62
     7
100
AcDbCircle
 10
109.299064
 20
71.14173000000001
 30
0.0
 40
1.033
100
AcDbArc
 50
306.991
 51
307.201
  0
ARC
  5
27A
330
18
100
AcDbEntity
  8
0
  6
HIDDEN
 62
     7
100
AcDbCircle
 10
109.028064
 20
71.49373
 30
0.0
 40
1.491
100
AcDbArc
 50
289.094
 51
307.016
  0
ARC
  5
27B
330
18
100
AcDbEntity
  8
0
  6
HIDDEN
 62
     7
100
AcDbCircle
 10
108.811064
 20
72.09073000000001
 30
0.0
 40
2.115
100
AcDbArc
 50
285.925
 51
289.155
  0
ARC
  5
27C
330
18
100
AcDbEntity
  8
0
  6
HIDDEN
 62
     7
100
AcDbCircle
 10
109.705064
 20
70.92473000000001
 30
0.0
 40
0.569
100
AcDbArc
 50
4.378
 51
31.197
  0
ARC
  5
27D
330
18
100
AcDbEntity
  8
0
  6
HIDDEN
 62
     7
100
AcDbCircle
 10
109.705064
 20
70.92473000000001
 30
0.0
 40
0.5670000000000001
100
AcDbArc
 50
331.477
 51
4.378
  0
ARC
  5
27E
330
18
100
AcDbEntity
  8
0
  6
HIDDEN
 62
     7
100
AcDbCircle
 10
109.299064
 20
71.14173000000001
 30
0.0
 40
1.03
100
AcDbArc
 50
328.234
 51
331.414
  0
ARC
  5
27F
330
18
100
AcDbEntity
  8
0
  6
HIDDEN
 62
     7
100
AcDbCircle
 10
109.000064
 20
69.62273
 30
0.0
 40
2.115
100
AcDbArc
 50
79.367
 51
80.10300000000001
  0
ARC
  5
280
330
18
100
AcDbEntity
  8
0
  6
HIDDEN
 62
     7
100
AcDbCircle
 10
109.109064
 20
70.24673
 30
0.0
 40
1.489
100
AcDbArc
 50
61.52300000000001
 51
79.32300000000001
  0
ARC
  5
281
330
18
100
AcDbEntity
  8
0
  6
HIDDEN
 62
     7
100
AcDbCircle
 10
109.326064
 20
70.65273000000001
 30
0.0
 40
1.03
100
AcDbArc
 50
48.09100000000001
 51
61.54600000000001
  0
ARC
  5
282
330
18
100
AcDbEntity
  8
0
  6
HIDDEN
 62
     7
100
AcDbCircle
 10
108.783064
 20
70.21973
 30
0.0
 40
1.491
100
AcDbArc
 50
109.093
 51
113.116
  0
ARC
  5
283
330
18
100
AcDbEntity
  8
0
  6
HIDDEN
 62
     7
100
AcDbCircle
 10
109.000064
 20
69.62273
 30
0.0
 40
2.115
100
AcDbArc
 50
94.264
 51
109.155
  0
ARC
  5
284
330
18
100
AcDbEntity
  8
0
  6
HIDDEN
 62
     7
100
AcDbCircle
 10
109.000064
 20
69.62273
 30
0.0
 40
2.115
100
AcDbArc
 50
92.64599999999999
 51
94.264
  0
ARC
  5
285
330
18
100
AcDbEntity
  8
0
  6
HIDDEN
 62
     7
100
AcDbCircle
 10
108.133064
 20
70.81573
 30
0.0
 40
0.5670000000000001
100
AcDbArc
 50
151.477
 51
182.454
  0
ARC
  5
286
330
18
100
AcDbEntity
  8
0
  6
HIDDEN
 62
     7
100
AcDbCircle
 10
108.512064
 20
70.59873
 30
0.0
 40
1.03
100
AcDbArc
 50
132.547
 51
151.413
  0
ARC
  5
287
330
18
100
AcDbEntity
  8
0
  6
HIDDEN
 62
     7
100
AcDbCircle
 10
108.702064
 20
71.46673
 30
0.0
 40
1.489
100
AcDbArc
 50
241.523
 51
245.858
  0
ARC
  5
288
330
18
100
AcDbEntity
  8
0
  6
HIDDEN
 62
     7
100
AcDbCircle
 10
108.485064
 20
71.08673
 30
0.0
 40
1.03
100
AcDbArc
 50
217.081
 51
241.546
  0
ARC
  5
289
330
18
100
AcDbEntity
  8
0
  6
HIDDEN
 62
     7
100
AcDbCircle
 10
108.133064
 20
70.81573
 30
0.0
 40
0.569
100
AcDbArc
 50
212.932
 51
217.088
  0
ARC
  5
28A
330
18
100
AcDbEntity
  8
0
  6
HIDDEN
 62
     7
100
AcDbCircle
 10
108.811064
 20
72.09073000000001
 30
0.0
 40
2.115
100
AcDbArc
 50
262.265
 51
272.793
  0
ARC
  5
28B
330
18
100
AcDbEntity
  8
0
  6
HIDDEN
 62
     7
100
AcDbCircle
 10
110.411064
 20
72.06373000000001
 30
0.0
 40
1.03
100
AcDbArc
 50
358.794
 51
62.424
  0
LWPOLYLINE
  5
28C
330
18
100
AcDbEntity
  8
0
  6
HIDDEN
 62
     7
100
AcDbPolyline
 90
        2
 70
     0
 43
0.0
 10
111.441064
 20
72.03573
 10
111.387064
 20
69.48673000000001
  0
LWPOLYLINE
  5
291
330
18
100
AcDbEntity
  8
0
  6
HIDDEN
 62
     7
100
AcDbPolyline
 90
        2
 70
     0
 43
0.0
 10
107.672064
 20
74.63973
 10
110.899064
 20
72.95773
  0
LWPOLYLINE
  5
296
330
18
100
AcDbEntity
  8
0
  6
HIDDEN
 62
     7
100
AcDbPolyline
 90
        2
 70
     0
 43
0.0
 10
104.933064
 20
74.36773000000001
 10
107.672064
 20
74.63973
  0
ARC
  5
29B
330
18
100
AcDbEntity
  8
0
  6
HIDDEN
 62
     7
100
AcDbCircle
 10
102.330064
 20
72.17173000000001
 30
0.0
 40
2.115
100
AcDbArc
 50
262.265
 51
272.793
  0
ARC
  5
29C
330
18
100
AcDbEntity
  8
0
  6
HIDDEN
 62
     7
100
AcDbCircle
 10
102.194064
 20
71.54773
 30
0.0
 40
1.489
100
AcDbArc
 50
241.523
 51
245.858
  0
ARC
  5
29D
330
18
100
AcDbEntity
  8
0
  6
HIDDEN
 62
     7
100
AcDbCircle
 10
102.303064
 20
70.30073
 30
0.0
 40
1.491
100
AcDbArc
 50
109.094
 51
113.117
  0
ARC
  5
29E
330
18
100
AcDbEntity
  8
0
  6
HIDDEN
 62
     7
100
AcDbCircle
 10
102.492064
 20
69.70373000000001
 30
0.0
 40
2.115
100
AcDbArc
 50
94.264
 51
109.155
  0
ARC
  5
29F
330
18
100
AcDbEntity
  8
0
  6
HIDDEN
 62
     7
100
AcDbCircle
 10
102.492064
 20
69.70373000000001
 30
0.0
 40
2.115
100
AcDbArc
 50
92.64599999999999
 51
94.264
  0
ARC
  5
2A0
330
18
100
AcDbEntity
  8
0
  6
HIDDEN
 62
     7
100
AcDbCircle
 10
102.492064
 20
69.70373000000001
 30
0.0
 40
2.115
100
AcDbArc
 50
79.367
 51
80.10300000000001
  0
ARC
  5
2A1
330
18
100
AcDbEntity
  8
0
  6
HIDDEN
 62
     7
100
AcDbCircle
 10
102.628064
 20
70.32773
 30
0.0
 40
1.489
100
AcDbArc
 50
61.52300000000001
 51
79.32300000000001
  0
ARC
  5
2A2
330
18
100
AcDbEntity
  8
0
  6
HIDDEN
 62
     7
100
AcDbCircle
 10
102.845064
 20
70.73473
 30
0.0
 40
1.03
100
AcDbArc
 50
48.09100000000001
 51
61.54600000000001
  0
ARC
  5
2A3
330
18
100
AcDbEntity
  8
0
  6
HIDDEN
 62
     7
100
AcDbCircle
 10
103.197064
 20
71.00573
 30
0.0
 40
0.569
100
AcDbArc
 50
4.378
 51
31.197
  0
ARC
  5
2A4
330
18
100
AcDbEntity
  8
0
  6
HIDDEN
 62
     7
100
AcDbCircle
 10
103.197064
 20
71.00573
 30
0.0
 40
0.5670000000000001
100
AcDbArc
 50
331.477
 51
4.378
  0
ARC
  5
2A5
330
18
100
AcDbEntity
  8
0
  6
HIDDEN
 62
     7
100
AcDbCircle
 10
102.791064
 20
71.22273
 30
0.0
 40
1.03
100
AcDbArc
 50
328.234
 51
331.414
  0
ARC
  5
2A6
330
18
100
AcDbEntity
  8
0
  6
HIDDEN
 62
     7
100
AcDbCircle
 10
102.791064
 20
71.22273
 30
0.0
 40
1.033
100
AcDbArc
 50
306.99
 51
307.201
  0
ARC
  5
2A7
330
18
100
AcDbEntity
  8
0
  6
HIDDEN
 62
     7
100
AcDbCircle
 10
102.519064
 20
71.57473
 30
0.0
 40
1.491
100
AcDbArc
 50
289.094
 51
307.016
  0
ARC
  5
2A8
330
18
100
AcDbEntity
  8
0
  6
HIDDEN
 62
     7
100
AcDbCircle
 10
102.330064
 20
72.17173000000001
 30
0.0
 40
2.115
100
AcDbArc
 50
285.925
 51
289.155
  0
LWPOLYLINE
  5
2A9
330
18
100
AcDbEntity
  8
0
  6
Continuous
 62
     7
100
AcDbPolyline
 90
        2
 70
     0
 43
0.0
 10
132.565064
 20
59.50773
 10
133.894064
 20
59.61673
  0
LWPOLYLINE
  5
2AE
330
18
100
AcDbEntity
  8
0
  6
Continuous
 62
     7
100
AcDbPolyline
 90
        2
 70
     0
 43
0.0
 10
129.881064
 20
58.96573000000001
 10
132.565064
 20
59.50773
  0
LWPOLYLINE
  5
2B3
330
18
100
AcDbEntity
  8
0
  6
Continuous
 62
     7
100
AcDbPolyline
 90
        2
 70
     0
 43
0.0
 10
129.853064
 20
59.72473000000001
 10
132.185064
 20
60.45673000000001
  0
LWPOLYLINE
  5
2B8
330
18
100
AcDbEntity
  8
0
  6
Continuous
 62
     7
100
AcDbPolyline
 90
        2
 70
     0
 43
0.0
 10
129.935064
 20
57.12173000000001
 10
133.948064
 20
58.01673
  0
LWPOLYLINE
  5
2BD
330
18
100
AcDbEntity
  8
0
  6
Continuous
 62
     7
100
AcDbPolyline
 90
        2
 70
     0
 43
0.0
 10
130.043064
 20
53.18973
 10
132.836064
 20
54.24773
  0
LWPOLYLINE
  5
2C2
330
18
100
AcDbEntity
  8
0
  6
Continuous
 62
     7
100
AcDbPolyline
 90
        2
 70
     0
 43
0.0
 10
129.989064
 20
55.16973
 10
133.053064
 20
55.87473000000001
  0
LWPOLYLINE
  5
2C7
330
18
100
AcDbEntity
  8
0
  6
Continuous
 62
     7
100
AcDbPolyline
 90
        2
 70
     0
 43
0.0
 10
107.617064
 20
104.44073
 10
108.377064
 20
104.03473
  0
LWPOLYLINE
  5
2CC
330
18
100
AcDbEntity
  8
0
  6
Continuous
 62
     7
100
AcDbPolyline
 90
        2
 70
     0
 43
0.0
 10
105.773064
 20
103.22073
 10
108.377064
 20
104.03473
  0
LWPOLYLINE
  5
2D1
330
18
100
AcDbEntity
  8
0
  6
Continuous
 62
     7
100
AcDbPolyline
 90
        2
 70
     0
 43
0.0
 10
105.746064
 20
103.84473
 10
108.106064
 20
104.57673
  0
LWPOLYLINE
  5
2D6
330
18
100
AcDbEntity
  8
0
  6
Continuous
 62
     7
100
AcDbPolyline
 90
        2
 70
     0
 43
0.0
 10
105.746064
 20
103.84473
 10
105.773064
 20
103.22073
  0
LWPOLYLINE
  5
2DB
330
18
100
AcDbEntity
  8
0
  6
Continuous
 62
     7
100
AcDbPolyline
 90
        2
 70
     0
 43
0.0
 10
101.950064
 20
102.54273
 10
101.950064
 20
101.91873
  0
LWPOLYLINE
  5
2E0
330
18
100
AcDbEntity
  8
0
  6
Continuous
 62
     7
100
AcDbPolyline
 90
        2
 70
     0
 43
0.0
 10
103.821064
 20
103.13973
 10
104.553064
 20
102.73273
  0
LWPOLYLINE
  5
2E5
330
18
100
AcDbEntity
  8
0
  6
Continuous
 62
     7
100
AcDbPolyline
 90
        2
 70
     0
 43
0.0
 10
101.950064
 20
102.54273
 10
104.282064
 20
103.27473
  0
LWPOLYLINE
  5
2EA
330
18
100
AcDbEntity
  8
0
  6
Continuous
 62
     7
100
AcDbPolyline
 90
        2
 70
     0
 43
0.0
 10
101.950064
 20
101.91873
 10
104.553064
 20
102.73273
  0
LINE
  5
2EF
330
18
100
AcDbEntity
  8
0
  6
HIDDEN
100
AcDbLine
 10
109.748064
 20
101.479797
 30
0.0
 11
109.748064
 21
86.64573
 31
0.0
  0
LINE
  5
2F0
330
18
100
AcDbEntity
  8
0
  6
HIDDEN
100
AcDbLine
 10
102.322064
 20
98.939397
 30
0.0
 11
102.322064
 21
91.08773000000001
 31
0.0
  0
LINE
  5
2F1
330
18
100
AcDbEntity
  8
0
  6
HIDDEN
100
AcDbLine
 10
109.748064
 20
86.64573
 30
0.0
 11
102.322064
 21
91.08773000000001
 31
0.0
  0
LWPOLYLINE
  5
2F2
330
18
100
AcDbEntity
  8
0
  6
Continuous
 62
     7
100
AcDbPolyline
 90
        2
 70
     0
 43
0.0
 10
122.857064
 20
121.41673
 10
99.64506400000001
 20
114.04073
  0
LWPOLYLINE
  5
2F7
330
18
100
AcDbEntity
  8
0
  6
Continuous
 62
     7
100
AcDbPolyline
 90
        2
 70
     0
 43
0.0
 10
123.671064
 20
120.81973
 10
100.486064
 20
113.41673
  0
ARC
  5
2FC
330
18
100
AcDbEntity
  8
0
  6
Continuous
 62
     7
100
AcDbCircle
 10
93.950064
 20
129.30773
 30
0.0
 40
1.79
100
AcDbArc
 50
101.191
 51
115.4
  0
ARC
  5
2FD
330
18
100
AcDbEntity
  8
0
  6
Continuous
 62
     7
100
AcDbCircle
 10
93.84206400000001
 20
129.84973
 30
0.0
 40
1.22
100
AcDbArc
 50
84.01100000000001
 51
101.16
  0
ARC
  5
2FE
330
18
100
AcDbEntity
  8
0
  6
Continuous
 62
     7
100
AcDbCircle
 10
93.869064
 20
130.25673
 30
0.0
 40
0.8140000000000001
100
AcDbArc
 50
59.59200000000001
 51
84.06100000000001
  0
LWPOLYLINE
  5
2FF
330
18
100
AcDbEntity
  8
0
  6
Continuous
 62
     7
100
AcDbPolyline
 90
        2
 70
     0
 43
0.0
 10
97.828064
 20
127.27373
 10
94.167064
 20
133.18473
  0
LWPOLYLINE
  5
304
330
18
100
AcDbEntity
  8
0
  6
Continuous
 62
     7
100
AcDbPolyline
 90
        2
 70
     0
 43
0.0
 10
86.710064
 20
127.16473
 10
94.167064
 20
133.18473
  0
ARC
  5
309
330
18
100
AcDbEntity
  8
0
  6
Continuous
 62
     7
100
AcDbCircle
 10
96.01106400000001
 20
123.12473
 30
0.0
 40
0.488
100
AcDbArc
 50
43.877
 51
75.887
  0
ARC
  5
30A
330
18
100
AcDbEntity
  8
0
  6
Continuous
 62
     7
100
AcDbCircle
 10
96.120064
 20
122.79873
 30
0.0
 40
0.8140000000000001
100
AcDbArc
 50
107.651
 51
132.158
  0
ARC
  5
30B
330
18
100
AcDbEntity
  8
0
  6
Continuous
 62
     7
100
AcDbCircle
 10
96.01106400000001
 20
123.12473
 30
0.0
 40
0.488
100
AcDbArc
 50
75.887
 51
107.732
  0
ARC
  5
30C
330
18
100
AcDbEntity
  8
0
  6
Continuous
 62
     7
100
AcDbCircle
 10
95.984064
 20
122.63673
 30
0.0
 40
1.166
100
AcDbArc
 50
132.076
 51
150.338
  0
ARC
  5
30D
330
18
100
AcDbEntity
  8
0
  6
Continuous
 62
     7
100
AcDbCircle
 10
95.76706400000001
 20
122.88073
 30
0.0
 40
0.8140000000000001
100
AcDbArc
 50
107.651
 51
132.158
  0
ARC
  5
30E
330
18
100
AcDbEntity
  8
0
  6
Continuous
 62
     7
100
AcDbCircle
 10
95.659064
 20
123.20573
 30
0.0
 40
0.488
100
AcDbArc
 50
75.887
 51
107.732
  0
ARC
  5
30F
330
18
100
AcDbEntity
  8
0
  6
Continuous
 62
     7
100
AcDbCircle
 10
95.659064
 20
123.20573
 30
0.0
 40
0.488
100
AcDbArc
 50
55.868
 51
75.887
  0
ARC
  5
310
330
18
100
AcDbEntity
  8
0
  6
Continuous
 62
     7
100
AcDbCircle
 10
94.08606400000001
 20
130.60873
 30
0.0
 40
0.407
100
AcDbArc
 50
351.166
 51
25.201
  0
ARC
  5
311
330
18
100
AcDbEntity
  8
0
  6
Continuous
 62
     7
100
AcDbCircle
 10
93.679064
 20
130.66273
 30
0.0
 40
0.8140000000000001
100
AcDbArc
 50
326.68
 51
351.167
  0
ARC
  5
312
330
18
100
AcDbEntity
  8
0
  6
Continuous
 62
     7
100
AcDbCircle
 10
93.35406400000001
 20
130.87973
 30
0.0
 40
1.22
100
AcDbArc
 50
309.496
 51
326.698
  0
ARC
  5
313
330
18
100
AcDbEntity
  8
0
  6
Continuous
 62
     7
100
AcDbCircle
 10
93.001064
 20
131.31373
 30
0.0
 40
1.79
100
AcDbArc
 50
295.4
 51
309.528
  0
ARC
  5
314
330
18
100
AcDbEntity
  8
0
  6
Continuous
 62
     7
100
AcDbCircle
 10
93.001064
 20
131.31373
 30
0.0
 40
1.79
100
AcDbArc
 50
281.191
 51
295.4
  0
ARC
  5
315
330
18
100
AcDbEntity
  8
0
  6
Continuous
 62
     7
100
AcDbCircle
 10
93.11006400000001
 20
130.77173
 30
0.0
 40
1.22
100
AcDbArc
 50
264.011
 51
281.16
  0
ARC
  5
316
330
18
100
AcDbEntity
  8
0
  6
Continuous
 62
     7
100
AcDbCircle
 10
93.05606400000001
 20
130.36473
 30
0.0
 40
0.8140000000000001
100
AcDbArc
 50
239.593
 51
264.061
  0
ARC
  5
317
330
18
100
AcDbEntity
  8
0
  6
Continuous
 62
     7
100
AcDbCircle
 10
92.86606399999999
 20
130.01273
 30
0.0
 40
0.407
100
AcDbArc
 50
205.201
 51
239.495
  0
ARC
  5
318
330
18
100
AcDbEntity
  8
0
  6
Continuous
 62
     7
100
AcDbCircle
 10
92.86606399999999
 20
130.01273
 30
0.0
 40
0.407
100
AcDbArc
 50
171.167
 51
205.201
  0
ARC
  5
319
330
18
100
AcDbEntity
  8
0
  6
Continuous
 62
     7
100
AcDbCircle
 10
93.245064
 20
129.95773
 30
0.0
 40
0.8140000000000001
100
AcDbArc
 50
146.68
 51
171.167
  0
ARC
  5
31A
330
18
100
AcDbEntity
  8
0
  6
Continuous
 62
     7
100
AcDbCircle
 10
93.57106400000001
 20
129.74073
 30
0.0
 40
1.22
100
AcDbArc
 50
129.496
 51
146.699
  0
ARC
  5
31B
330
18
100
AcDbEntity
  8
0
  6
Continuous
 62
     7
100
AcDbCircle
 10
93.950064
 20
129.30773
 30
0.0
 40
1.79
100
AcDbArc
 50
115.4
 51
129.528
  0
ARC
  5
31C
330
18
100
AcDbEntity
  8
0
  6
Continuous
 62
     7
100
AcDbCircle
 10
94.08606400000001
 20
130.60873
 30
0.0
 40
0.407
100
AcDbArc
 50
25.201
 51
59.496
  0
ARC
  5
31D
330
18
100
AcDbEntity
  8
0
  6
Continuous
 62
     7
100
AcDbCircle
 10
94.195064
 20
130.17473
 30
0.0
 40
0.407
100
AcDbArc
 50
25.202
 51
49.067
  0
ARC
  5
31E
330
18
100
AcDbEntity
  8
0
  6
Continuous
 62
     7
100
AcDbCircle
 10
94.195064
 20
130.17473
 30
0.0
 40
0.407
100
AcDbArc
 50
351.167
 51
25.202
  0
ARC
  5
31F
330
18
100
AcDbEntity
  8
0
  6
Continuous
 62
     7
100
AcDbCircle
 10
93.81506400000001
 20
130.22973
 30
0.0
 40
0.8140000000000001
100
AcDbArc
 50
326.68
 51
351.167
  0
ARC
  5
320
330
18
100
AcDbEntity
  8
0
  6
Continuous
 62
     7
100
AcDbCircle
 10
93.489064
 20
130.44573
 30
0.0
 40
1.22
100
AcDbArc
 50
309.496
 51
326.699
  0
ARC
  5
321
330
18
100
AcDbEntity
  8
0
  6
Continuous
 62
     7
100
AcDbCircle
 10
93.11006400000001
 20
130.87973
 30
0.0
 40
1.79
100
AcDbArc
 50
295.4
 51
309.528
  0
ARC
  5
322
330
18
100
AcDbEntity
  8
0
  6
Continuous
 62
     7
100
AcDbCircle
 10
93.11006400000001
 20
130.87973
 30
0.0
 40
1.79
100
AcDbArc
 50
281.191
 51
295.4
  0
ARC
  5
323
330
18
100
AcDbEntity
  8
0
  6
Continuous
 62
     7
100
AcDbCircle
 10
93.218064
 20
130.33773
 30
0.0
 40
1.22
100
AcDbArc
 50
264.011
 51
281.16
  0
ARC
  5
324
330
18
100
AcDbEntity
  8
0
  6
Continuous
 62
     7
100
AcDbCircle
 10
93.191064
 20
129.93073
 30
0.0
 40
0.8140000000000001
100
AcDbArc
 50
239.592
 51
264.061
  0
ARC
  5
325
330
18
100
AcDbEntity
  8
0
  6
Continuous
 62
     7
100
AcDbCircle
 10
93.001064
 20
129.57873
 30
0.0
 40
0.407
100
AcDbArc
 50
205.201
 51
239.495
  0
ARC
  5
326
330
18
100
AcDbEntity
  8
0
  6
Continuous
 62
     7
100
AcDbCircle
 10
93.001064
 20
129.57873
 30
0.0
 40
0.407
100
AcDbArc
 50
171.167
 51
205.201
  0
ARC
  5
327
330
18
100
AcDbEntity
  8
0
  6
Continuous
 62
     7
100
AcDbCircle
 10
93.381064
 20
129.52473
 30
0.0
 40
0.8140000000000001
100
AcDbArc
 50
167.306
 51
171.167
  0
ARC
  5
328
330
18
100
AcDbEntity
  8
0
  6
Continuous
 62
     7
100
AcDbCircle
 10
91.917064
 20
124.69773
 30
0.0
 40
0.407
100
AcDbArc
 50
351.167
 51
25.201
  0
ARC
  5
329
330
18
100
AcDbEntity
  8
0
  6
Continuous
 62
     7
100
AcDbCircle
 10
91.537064
 20
124.75173
 30
0.0
 40
0.8140000000000001
100
AcDbArc
 50
326.68
 51
351.167
  0
ARC
  5
32A
330
18
100
AcDbEntity
  8
0
  6
Continuous
 62
     7
100
AcDbCircle
 10
91.212064
 20
124.99573
 30
0.0
 40
1.22
100
AcDbArc
 50
309.496
 51
326.699
  0
ARC
  5
32B
330
18
100
AcDbEntity
  8
0
  6
Continuous
 62
     7
100
AcDbCircle
 10
90.832064
 20
125.42973
 30
0.0
 40
1.79
100
AcDbArc
 50
295.4
 51
309.528
  0
ARC
  5
32C
330
18
100
AcDbEntity
  8
0
  6
Continuous
 62
     7
100
AcDbCircle
 10
90.832064
 20
125.42973
 30
0.0
 40
1.79
100
AcDbArc
 50
281.191
 51
295.4
  0
ARC
  5
32D
330
18
100
AcDbEntity
  8
0
  6
Continuous
 62
     7
100
AcDbCircle
 10
90.94006400000001
 20
124.85973
 30
0.0
 40
1.22
100
AcDbArc
 50
264.011
 51
281.16
  0
ARC
  5
32E
330
18
100
AcDbEntity
  8
0
  6
Continuous
 62
     7
100
AcDbCircle
 10
90.91306400000001
 20
124.45373
 30
0.0
 40
0.8140000000000001
100
AcDbArc
 50
239.593
 51
264.061
  0
ARC
  5
32F
330
18
100
AcDbEntity
  8
0
  6
Continuous
 62
     7
100
AcDbCircle
 10
90.724064
 20
124.12773
 30
0.0
 40
0.407
100
AcDbArc
 50
205.201
 51
239.495
  0
ARC
  5
330
330
18
100
AcDbEntity
  8
0
  6
Continuous
 62
     7
100
AcDbCircle
 10
90.724064
 20
124.12773
 30
0.0
 40
0.407
100
AcDbArc
 50
171.167
 51
205.201
  0
ARC
  5
331
330
18
100
AcDbEntity
  8
0
  6
Continuous
 62
     7
100
AcDbCircle
 10
91.103064
 20
124.07373
 30
0.0
 40
0.8140000000000001
100
AcDbArc
 50
167.306
 51
171.167
  0
ARC
  5
332
330
18
100
AcDbEntity
  8
0
  6
Continuous
 62
     7
100
AcDbCircle
 10
91.917064
 20
124.69773
 30
0.0
 40
0.407
100
AcDbArc
 50
25.201
 51
49.06499999999999
  0
ARC
  5
333
330
18
100
AcDbEntity
  8
0
  6
Continuous
 62
     7
100
AcDbCircle
 10
91.808064
 20
125.13173
 30
0.0
 40
0.407
100
AcDbArc
 50
351.167
 51
25.201
  0
ARC
  5
334
330
18
100
AcDbEntity
  8
0
  6
Continuous
 62
     7
100
AcDbCircle
 10
91.40106400000001
 20
125.18573
 30
0.0
 40
0.8140000000000001
100
AcDbArc
 50
326.68
 51
351.167
  0
ARC
  5
335
330
18
100
AcDbEntity
  8
0
  6
Continuous
 62
     7
100
AcDbCircle
 10
91.076064
 20
125.40273
 30
0.0
 40
1.22
100
AcDbArc
 50
309.496
 51
326.699
  0
ARC
  5
336
330
18
100
AcDbEntity
  8
0
  6
Continuous
 62
     7
100
AcDbCircle
 10
90.724064
 20
125.86373
 30
0.0
 40
1.79
100
AcDbArc
 50
295.4
 51
309.528
  0
ARC
  5
337
330
18
100
AcDbEntity
  8
0
  6
Continuous
 62
     7
100
AcDbCircle
 10
90.724064
 20
125.86373
 30
0.0
 40
1.79
100
AcDbArc
 50
281.191
 51
295.4
  0
ARC
  5
338
330
18
100
AcDbEntity
  8
0
  6
Continuous
 62
     7
100
AcDbCircle
 10
90.832064
 20
125.29373
 30
0.0
 40
1.22
100
AcDbArc
 50
264.011
 51
281.16
  0
ARC
  5
339
330
18
100
AcDbEntity
  8
0
  6
Continuous
 62
     7
100
AcDbCircle
 10
90.778064
 20
124.88673
 30
0.0
 40
0.8140000000000001
100
AcDbArc
 50
239.592
 51
264.061
  0
ARC
  5
33A
330
18
100
AcDbEntity
  8
0
  6
Continuous
 62
     7
100
AcDbCircle
 10
90.588064
 20
124.56173
 30
0.0
 40
0.407
100
AcDbArc
 50
205.201
 51
239.496
  0
ARC
  5
33B
330
18
100
AcDbEntity
  8
0
  6
Continuous
 62
     7
100
AcDbCircle
 10
90.588064
 20
124.56173
 30
0.0
 40
0.407
100
AcDbArc
 50
171.166
 51
205.201
  0
ARC
  5
33C
330
18
100
AcDbEntity
  8
0
  6
Continuous
 62
     7
100
AcDbCircle
 10
90.968064
 20
124.50773
 30
0.0
 40
0.8140000000000001
100
AcDbArc
 50
146.68
 51
171.167
  0
ARC
  5
33D
330
18
100
AcDbEntity
  8
0
  6
Continuous
 62
     7
100
AcDbCircle
 10
91.293064
 20
124.26373
 30
0.0
 40
1.22
100
AcDbArc
 50
129.496
 51
146.698
  0
ARC
  5
33E
330
18
100
AcDbEntity
  8
0
  6
Continuous
 62
     7
100
AcDbCircle
 10
91.673064
 20
123.82973
 30
0.0
 40
1.79
100
AcDbArc
 50
115.4
 51
129.528
  0
ARC
  5
33F
330
18
100
AcDbEntity
  8
0
  6
Continuous
 62
     7
100
AcDbCircle
 10
91.673064
 20
123.82973
 30
0.0
 40
1.79
100
AcDbArc
 50
101.191
 51
115.4
  0
ARC
  5
340
330
18
100
AcDbEntity
  8
0
  6
Continuous
 62
     7
100
AcDbCircle
 10
91.564064
 20
124.39873
 30
0.0
 40
1.22
100
AcDbArc
 50
84.01100000000001
 51
101.16
  0
ARC
  5
341
330
18
100
AcDbEntity
  8
0
  6
Continuous
 62
     7
100
AcDbCircle
 10
91.591064
 20
124.80573
 30
0.0
 40
0.8140000000000001
100
AcDbArc
 50
59.593
 51
84.06100000000001
  0
ARC
  5
342
330
18
100
AcDbEntity
  8
0
  6
Continuous
 62
     7
100
AcDbCircle
 10
91.808064
 20
125.13173
 30
0.0
 40
0.407
100
AcDbArc
 50
25.201
 51
59.496
  0
ARC
  5
343
330
18
100
AcDbEntity
  8
0
  6
Continuous
 62
     7
100
AcDbCircle
 10
95.00806400000001
 20
122.77173
 30
0.0
 40
1.627
100
AcDbArc
 50
345.825
 51
1.241
  0
ARC
  5
344
330
18
100
AcDbEntity
  8
0
  6
Continuous
 62
     7
100
AcDbCircle
 10
95.00806400000001
 20
122.77173
 30
0.0
 40
1.63
100
AcDbArc
 50
330.362
 51
345.825
  0
ARC
  5
345
330
18
100
AcDbEntity
  8
0
  6
Continuous
 62
     7
100
AcDbCircle
 10
95.415064
 20
122.55473
 30
0.0
 40
1.166
100
AcDbArc
 50
312.076
 51
330.338
  0
ARC
  5
346
330
18
100
AcDbEntity
  8
0
  6
Continuous
 62
     7
100
AcDbCircle
 10
95.632064
 20
122.28373
 30
0.0
 40
0.8140000000000001
100
AcDbArc
 50
287.65
 51
312.158
  0
ARC
  5
347
330
18
100
AcDbEntity
  8
0
  6
Continuous
 62
     7
100
AcDbCircle
 10
95.740064
 20
121.98573
 30
0.0
 40
0.488
100
AcDbArc
 50
255.887
 51
287.733
  0
ARC
  5
348
330
18
100
AcDbEntity
  8
0
  6
Continuous
 62
     7
100
AcDbCircle
 10
95.740064
 20
121.98573
 30
0.0
 40
0.488
100
AcDbArc
 50
223.877
 51
255.887
  0
ARC
  5
349
330
18
100
AcDbEntity
  8
0
  6
Continuous
 62
     7
100
AcDbCircle
 10
95.984064
 20
122.20273
 30
0.0
 40
0.8140000000000001
100
AcDbArc
 50
199.461
 51
223.919
  0
ARC
  5
34A
330
18
100
AcDbEntity
  8
0
  6
Continuous
 62
     7
100
AcDbCircle
 10
96.283064
 20
122.31073
 30
0.0
 40
1.166
100
AcDbArc
 50
181.199
 51
199.573
  0
ARC
  5
34B
330
18
100
AcDbEntity
  8
0
  6
Continuous
 62
     7
100
AcDbCircle
 10
96.744064
 20
122.33773
 30
0.0
 40
1.627
100
AcDbArc
 50
165.825
 51
181.241
  0
ARC
  5
34C
330
18
100
AcDbEntity
  8
0
  6
Continuous
 62
     7
100
AcDbCircle
 10
96.744064
 20
122.33773
 30
0.0
 40
1.63
100
AcDbArc
 50
150.362
 51
165.825
  0
ARC
  5
34D
330
18
100
AcDbEntity
  8
0
  6
Continuous
 62
     7
100
AcDbCircle
 10
95.361064
 20
122.03973
 30
0.0
 40
0.488
100
AcDbArc
 50
255.887
 51
280.874
  0
ARC
  5
34E
330
18
100
AcDbEntity
  8
0
  6
Continuous
 62
     7
100
AcDbCircle
 10
95.361064
 20
122.03973
 30
0.0
 40
0.488
100
AcDbArc
 50
223.877
 51
255.887
  0
ARC
  5
34F
330
18
100
AcDbEntity
  8
0
  6
Continuous
 62
     7
100
AcDbCircle
 10
95.605064
 20
122.28373
 30
0.0
 40
0.8140000000000001
100
AcDbArc
 50
199.462
 51
223.919
  0
ARC
  5
350
330
18
100
AcDbEntity
  8
0
  6
Continuous
 62
     7
100
AcDbCircle
 10
95.930064
 20
122.39273
 30
0.0
 40
1.166
100
AcDbArc
 50
181.199
 51
199.573
  0
ARC
  5
351
330
18
100
AcDbEntity
  8
0
  6
Continuous
 62
     7
100
AcDbCircle
 10
96.391064
 20
122.39273
 30
0.0
 40
1.627
100
AcDbArc
 50
165.825
 51
181.241
  0
ARC
  5
352
330
18
100
AcDbEntity
  8
0
  6
Continuous
 62
     7
100
AcDbCircle
 10
93.35406400000001
 20
119.30073
 30
0.0
 40
0.488
100
AcDbArc
 50
55.869
 51
75.887
  0
ARC
  5
353
330
18
100
AcDbEntity
  8
0
  6
Continuous
 62
     7
100
AcDbCircle
 10
93.05606400000001
 20
118.13473
 30
0.0
 40
0.488
100
AcDbArc
 50
255.887
 51
280.874
  0
ARC
  5
354
330
18
100
AcDbEntity
  8
0
  6
Continuous
 62
     7
100
AcDbCircle
 10
93.05606400000001
 20
118.13473
 30
0.0
 40
0.488
100
AcDbArc
 50
223.877
 51
255.887
  0
ARC
  5
355
330
18
100
AcDbEntity
  8
0
  6
Continuous
 62
     7
100
AcDbCircle
 10
93.30006400000001
 20
118.37873
 30
0.0
 40
0.8140000000000001
100
AcDbArc
 50
199.461
 51
223.919
  0
ARC
  5
356
330
18
100
AcDbEntity
  8
0
  6
Continuous
 62
     7
100
AcDbCircle
 10
93.625064
 20
118.48773
 30
0.0
 40
1.166
100
AcDbArc
 50
181.199
 51
199.573
  0
ARC
  5
357
330
18
100
AcDbEntity
  8
0
  6
Continuous
 62
     7
100
AcDbCircle
 10
94.08606400000001
 20
118.48773
 30
0.0
 40
1.627
100
AcDbArc
 50
165.825
 51
181.241
  0
ARC
  5
358
330
18
100
AcDbEntity
  8
0
  6
Continuous
 62
     7
100
AcDbCircle
 10
94.08606400000001
 20
118.48773
 30
0.0
 40
1.63
100
AcDbArc
 50
150.362
 51
165.825
  0
ARC
  5
359
330
18
100
AcDbEntity
  8
0
  6
Continuous
 62
     7
100
AcDbCircle
 10
93.679064
 20
118.73173
 30
0.0
 40
1.166
100
AcDbArc
 50
132.077
 51
150.338
  0
ARC
  5
35A
330
18
100
AcDbEntity
  8
0
  6
Continuous
 62
     7
100
AcDbCircle
 10
93.462064
 20
118.97573
 30
0.0
 40
0.8140000000000001
100
AcDbArc
 50
107.65
 51
132.158
  0
ARC
  5
35B
330
18
100
AcDbEntity
  8
0
  6
Continuous
 62
     7
100
AcDbCircle
 10
93.35406400000001
 20
119.30073
 30
0.0
 40
0.488
100
AcDbArc
 50
75.887
 51
107.733
  0
ARC
  5
35C
330
18
100
AcDbEntity
  8
0
  6
Continuous
 62
     7
100
AcDbCircle
 10
93.734064
 20
119.21973
 30
0.0
 40
0.488
100
AcDbArc
 50
43.877
 51
75.887
  0
ARC
  5
35D
330
18
100
AcDbEntity
  8
0
  6
Continuous
 62
     7
100
AcDbCircle
 10
93.489064
 20
118.97573
 30
0.0
 40
0.8140000000000001
100
AcDbArc
 50
19.461
 51
43.919
  0
ARC
  5
35E
330
18
100
AcDbEntity
  8
0
  6
Continuous
 62
     7
100
AcDbCircle
 10
93.164064
 20
118.86773
 30
0.0
 40
1.166
100
AcDbArc
 50
1.199
 51
19.573
  0
ARC
  5
35F
330
18
100
AcDbEntity
  8
0
  6
Continuous
 62
     7
100
AcDbCircle
 10
92.703064
 20
118.86773
 30
0.0
 40
1.627
100
AcDbArc
 50
345.825
 51
1.241
  0
ARC
  5
360
330
18
100
AcDbEntity
  8
0
  6
Continuous
 62
     7
100
AcDbCircle
 10
92.703064
 20
118.86773
 30
0.0
 40
1.63
100
AcDbArc
 50
330.362
 51
345.825
  0
ARC
  5
361
330
18
100
AcDbEntity
  8
0
  6
Continuous
 62
     7
100
AcDbCircle
 10
93.11006400000001
 20
118.65073
 30
0.0
 40
1.166
100
AcDbArc
 50
312.076
 51
330.338
  0
ARC
  5
362
330
18
100
AcDbEntity
  8
0
  6
Continuous
 62
     7
100
AcDbCircle
 10
93.32706400000001
 20
118.37873
 30
0.0
 40
0.8140000000000001
100
AcDbArc
 50
287.65
 51
312.158
  0
ARC
  5
363
330
18
100
AcDbEntity
  8
0
  6
Continuous
 62
     7
100
AcDbCircle
 10
93.435064
 20
118.08073
 30
0.0
 40
0.488
100
AcDbArc
 50
255.887
 51
287.733
  0
ARC
  5
364
330
18
100
AcDbEntity
  8
0
  6
Continuous
 62
     7
100
AcDbCircle
 10
93.435064
 20
118.08073
 30
0.0
 40
0.488
100
AcDbArc
 50
223.876
 51
255.887
  0
ARC
  5
365
330
18
100
AcDbEntity
  8
0
  6
Continuous
 62
     7
100
AcDbCircle
 10
93.679064
 20
118.29773
 30
0.0
 40
0.8140000000000001
100
AcDbArc
 50
199.461
 51
223.919
  0
ARC
  5
366
330
18
100
AcDbEntity
  8
0
  6
Continuous
 62
     7
100
AcDbCircle
 10
94.005064
 20
118.40673
 30
0.0
 40
1.166
100
AcDbArc
 50
181.199
 51
199.573
  0
ARC
  5
367
330
18
100
AcDbEntity
  8
0
  6
Continuous
 62
     7
100
AcDbCircle
 10
94.439064
 20
118.43373
 30
0.0
 40
1.627
100
AcDbArc
 50
165.825
 51
181.241
  0
ARC
  5
368
330
18
100
AcDbEntity
  8
0
  6
Continuous
 62
     7
100
AcDbCircle
 10
94.439064
 20
118.43373
 30
0.0
 40
1.63
100
AcDbArc
 50
150.362
 51
165.825
  0
ARC
  5
369
330
18
100
AcDbEntity
  8
0
  6
Continuous
 62
     7
100
AcDbCircle
 10
94.05906400000001
 20
118.65073
 30
0.0
 40
1.166
100
AcDbArc
 50
132.077
 51
150.338
  0
ARC
  5
36A
330
18
100
AcDbEntity
  8
0
  6
Continuous
 62
     7
100
AcDbCircle
 10
93.81506400000001
 20
118.89473
 30
0.0
 40
0.8140000000000001
100
AcDbArc
 50
107.65
 51
132.158
  0
ARC
  5
36B
330
18
100
AcDbEntity
  8
0
  6
Continuous
 62
     7
100
AcDbCircle
 10
93.734064
 20
119.21973
 30
0.0
 40
0.488
100
AcDbArc
 50
75.887
 51
107.733
  0
LWPOLYLINE
  5
36C
330
18
100
AcDbEntity
  8
0
  6
Continuous
 62
     7
100
AcDbPolyline
 90
        2
 70
     0
 43
0.0
 10
100.486064
 20
113.41673
 10
99.64506400000001
 20
114.04073
  0
ARC
  5
371
330
18
100
AcDbEntity
  8
0
  6
Continuous
 62
     7
100
AcDbCircle
 10
89.23206400000001
 20
120.60273
 30
0.0
 40
1.03
100
AcDbArc
 50
0.904
 51
29.333
  0
ARC
  5
372
330
18
100
AcDbEntity
  8
0
  6
Continuous
 62
     7
100
AcDbCircle
 10
89.341064
 20
112.38673
 30
0.0
 40
1.03
100
AcDbArc
 50
335.593
 51
0.904
  0
ARC
  5
373
330
18
100
AcDbEntity
  8
0
  6
Continuous
 62
     7
100
AcDbCircle
 10
90.561064
 20
111.00373
 30
0.0
 40
0.6779999999999999
100
AcDbArc
 50
155.689
 51
205.128
  0
LWPOLYLINE
  5
374
330
18
100
AcDbEntity
  8
0
  6
Continuous
 62
     7
100
AcDbPolyline
 90
        2
 70
     0
 43
0.0
 10
90.263064
 20
111.97973
 10
89.96406400000001
 20
111.30173
  0
LWPOLYLINE
  5
379
330
18
100
AcDbEntity
  8
0
  6
Continuous
 62
     7
100
AcDbPolyline
 90
        2
 70
     0
 43
0.0
 10
90.23506400000001
 20
120.60273
 10
90.344064
 20
112.41373
  0
ARC
  5
37E
330
18
100
AcDbEntity
  8
0
  6
Continuous
 62
     7
100
AcDbCircle
 10
88.066064
 20
120.43973
 30
0.0
 40
1.356
100
AcDbArc
 50
0.8020000000000002
 51
22.822
  0
ARC
  5
37F
330
18
100
AcDbEntity
  8
0
  6
Continuous
 62
     7
100
AcDbCircle
 10
90.317064
 20
110.75973
 30
0.0
 40
1.356
100
AcDbArc
 50
155.537
 51
205.079
  0
LWPOLYLINE
  5
380
330
18
100
AcDbEntity
  8
0
  6
Continuous
 62
     7
100
AcDbPolyline
 90
        2
 70
     0
 43
0.0
 10
89.530064
 20
112.35873
 10
89.069064
 20
111.32873
  0
LWPOLYLINE
  5
385
330
18
100
AcDbEntity
  8
0
  6
Continuous
 62
     7
100
AcDbPolyline
 90
        2
 70
     0
 43
0.0
 10
89.42206400000001
 20
120.43973
 10
89.530064
 20
112.35873
  0
ARC
  5
38A
330
18
100
AcDbEntity
  8
0
  6
Continuous
 62
     7
100
AcDbCircle
 10
95.76706400000001
 20
122.88073
 30
0.0
 40
0.8140000000000001
100
AcDbArc
 50
19.461
 51
43.919
  0
ARC
  5
38B
330
18
100
AcDbEntity
  8
0
  6
Continuous
 62
     7
100
AcDbCircle
 10
95.469064
 20
122.77173
 30
0.0
 40
1.166
100
AcDbArc
 50
1.199
 51
19.573
  0
ARC
  5
38C
330
18
100
AcDbEntity
  8
0
  6
Continuous
 62
     7
100
AcDbCircle
 10
96.337064
 20
122.55473
 30
0.0
 40
1.166
100
AcDbArc
 50
132.077
 51
150.338
  0
ARC
  5
38D
330
18
100
AcDbEntity
  8
0
  6
Continuous
 62
     7
100
AcDbCircle
 10
96.391064
 20
122.39273
 30
0.0
 40
1.63
100
AcDbArc
 50
150.362
 51
165.825
  0
LWPOLYLINE
  5
38E
330
18
100
AcDbEntity
  8
0
  6
Continuous
 62
     7
100
AcDbPolyline
 90
        2
 70
     0
 43
0.0
 10
96.825064
 20
124.80573
 10
91.510064
 20
120.57573
  0
LWPOLYLINE
  5
393
330
18
100
AcDbEntity
  8
0
  6
Continuous
 62
     7
100
AcDbPolyline
 90
        2
 70
     0
 43
0.0
 10
91.076064
 20
120.84673
 10
96.635064
 20
125.45673
  0
LWPOLYLINE
  5
398
330
18
100
AcDbEntity
  8
0
  6
Continuous
 62
     7
100
AcDbPolyline
 90
        2
 70
     0
 43
0.0
 10
90.100064
 20
121.09073
 10
86.710064
 20
127.16473
  0
LWPOLYLINE
  5
39D
330
18
100
AcDbEntity
  8
0
  6
Continuous
 62
     7
100
AcDbPolyline
 90
        2
 70
     0
 43
0.0
 10
97.93706400000001
 20
114.82673
 10
97.828064
 20
127.27373
  0
LWPOLYLINE
  5
3A2
330
18
100
AcDbEntity
  8
0
  6
Continuous
 62
     7
100
AcDbPolyline
 90
        2
 70
     0
 43
0.0
 10
86.710064
 20
127.16473
 10
89.313064
 20
120.95573
  0
LWPOLYLINE
  5
3A7
330
18
100
AcDbEntity
  8
0
  6
HIDDEN
 62
     7
100
AcDbPolyline
 90
        2
 70
     0
 43
0.0
 10
106.224064
 20
132.94173
 10
117.233064
 20
127.04373
  0
LWPOLYLINE
  5
3AC
330
18
100
AcDbEntity
  8
0
  6
HIDDEN
 62
     7
100
AcDbPolyline
 90
        2
 70
     0
 43
0.0
 10
105.578064
 20
132.16573
 10
116.587064
 20
126.26873
  0
ARC
  5
3B1
330
18
100
AcDbEntity
  8
0
  6
Continuous
 62
     7
100
AcDbCircle
 10
116.885064
 20
130.54973
 30
0.0
 40
1.63
100
AcDbArc
 50
150.362
 51
165.825
  0
ARC
  5
3B2
330
18
100
AcDbEntity
  8
0
  6
Continuous
 62
     7
100
AcDbCircle
 10
115.611064
 20
130.98373
 30
0.0
 40
1.166
100
AcDbArc
 50
1.199
 51
19.573
  0
ARC
  5
3B3
330
18
100
AcDbEntity
  8
0
  6
Continuous
 62
     7
100
AcDbCircle
 10
116.533064
 20
130.60473
 30
0.0
 40
1.63
100
AcDbArc
 50
150.362
 51
165.825
  0
LWPOLYLINE
  5
3B4
330
18
100
AcDbEntity
  8
0
  6
HIDDEN
 62
     7
100
AcDbPolyline
 90
        2
 70
     0
 43
0.0
 10
119.511064
 20
127.04373
 10
122.304064
 20
131.62673
  0
LINE
  5
3B9
330
18
100
AcDbEntity
  8
0
100
AcDbLine
 10
119.985064
 20
126.21573
 30
0.0
 11
122.978064
 21
131.46173
 31
0.0
  0
LWPOLYLINE
  5
3BA
330
18
100
AcDbEntity
  8
0
  6
HIDDEN
 62
     7
100
AcDbPolyline
 90
        2
 70
     0
 43
0.0
 10
117.233064
 20
127.04373
 10
119.511064
 20
127.04373
  0
LINE
  5
3BF
330
18
100
AcDbEntity
  8
0
100
AcDbLine
 10
116.587064
 20
126.26873
 30
0.0
 11
119.985064
 21
126.21573
 31
0.0
  0
LWPOLYLINE
  5
3C0
330
18
100
AcDbEntity
  8
0
  6
Continuous
 62
     7
100
AcDbPolyline
 90
        2
 70
     0
 43
0.0
 10
117.081064
 20
117.56573
 10
119.440064
 20
118.29773
  0
LWPOLYLINE
  5
3C5
330
18
100
AcDbEntity
  8
0
  6
Continuous
 62
     7
100
AcDbPolyline
 90
        2
 70
     0
 43
0.0
 10
117.108064
 20
116.94173
 10
119.712064
 20
117.75573
  0
LWPOLYLINE
  5
3CA
330
18
100
AcDbEntity
  8
0
  6
Continuous
 62
     7
100
AcDbPolyline
 90
        2
 70
     0
 43
0.0
 10
117.136064
 20
113.66073
 10
119.739064
 20
114.50173
  0
LWPOLYLINE
  5
3CF
330
18
100
AcDbEntity
  8
0
  6
Continuous
 62
     7
100
AcDbPolyline
 90
        2
 70
     0
 43
0.0
 10
117.136064
 20
114.28473
 10
119.468064
 20
115.04373
  0
LWPOLYLINE
  5
3D4
330
18
100
AcDbEntity
  8
0
  6
Continuous
 62
     7
100
AcDbPolyline
 90
        2
 70
     0
 43
0.0
 10
117.163064
 20
111.03073
 10
119.495064
 20
111.76273
  0
LWPOLYLINE
  5
3D9
330
18
100
AcDbEntity
  8
0
  6
Continuous
 62
     7
100
AcDbPolyline
 90
        2
 70
     0
 43
0.0
 10
117.163064
 20
110.37973
 10
119.766064
 20
111.22073
  0
LWPOLYLINE
  5
3DE
330
18
100
AcDbEntity
  8
0
  6
Continuous
 62
     7
100
AcDbPolyline
 90
        2
 70
     0
 43
0.0
 10
117.190064
 20
107.74973
 10
119.549064
 20
108.50873
  0
LWPOLYLINE
  5
3E3
330
18
100
AcDbEntity
  8
0
  6
Continuous
 62
     7
100
AcDbPolyline
 90
        2
 70
     0
 43
0.0
 10
117.217064
 20
107.12573
 10
119.820064
 20
107.93873
  0
ARC
  5
3E8
330
18
100
AcDbEntity
  8
0
  6
Continuous
 62
     7
100
AcDbCircle
 10
116.885064
 20
130.54973
 30
0.0
 40
1.627
100
AcDbArc
 50
165.825
 51
181.241
  0
ARC
  5
3E9
330
18
100
AcDbEntity
  8
0
  6
Continuous
 62
     7
100
AcDbCircle
 10
116.451064
 20
130.52273
 30
0.0
 40
1.166
100
AcDbArc
 50
181.199
 51
199.573
  0
ARC
  5
3EA
330
18
100
AcDbEntity
  8
0
  6
Continuous
 62
     7
100
AcDbCircle
 10
116.126064
 20
130.41473
 30
0.0
 40
0.8140000000000001
100
AcDbArc
 50
199.461
 51
223.919
  0
ARC
  5
3EB
330
18
100
AcDbEntity
  8
0
  6
Continuous
 62
     7
100
AcDbCircle
 10
115.882064
 20
130.19773
 30
0.0
 40
0.488
100
AcDbArc
 50
223.876
 51
255.887
  0
ARC
  5
3EC
330
18
100
AcDbEntity
  8
0
  6
Continuous
 62
     7
100
AcDbCircle
 10
115.882064
 20
130.19773
 30
0.0
 40
0.488
100
AcDbArc
 50
255.887
 51
287.733
  0
ARC
  5
3ED
330
18
100
AcDbEntity
  8
0
  6
Continuous
 62
     7
100
AcDbCircle
 10
115.773064
 20
130.49573
 30
0.0
 40
0.8140000000000001
100
AcDbArc
 50
287.65
 51
312.158
  0
ARC
  5
3EE
330
18
100
AcDbEntity
  8
0
  6
Continuous
 62
     7
100
AcDbCircle
 10
115.556064
 20
130.76673
 30
0.0
 40
1.166
100
AcDbArc
 50
312.076
 51
330.338
  0
ARC
  5
3EF
330
18
100
AcDbEntity
  8
0
  6
Continuous
 62
     7
100
AcDbCircle
 10
115.150064
 20
130.98373
 30
0.0
 40
1.63
100
AcDbArc
 50
330.362
 51
345.825
  0
ARC
  5
3F0
330
18
100
AcDbEntity
  8
0
  6
Continuous
 62
     7
100
AcDbCircle
 10
115.150064
 20
130.98373
 30
0.0
 40
1.627
100
AcDbArc
 50
345.825
 51
1.241
  0
ARC
  5
3F1
330
18
100
AcDbEntity
  8
0
  6
Continuous
 62
     7
100
AcDbCircle
 10
116.533064
 20
130.60473
 30
0.0
 40
1.627
100
AcDbArc
 50
165.825
 51
181.241
  0
ARC
  5
3F2
330
18
100
AcDbEntity
  8
0
  6
Continuous
 62
     7
100
AcDbCircle
 10
116.072064
 20
130.60473
 30
0.0
 40
1.166
100
AcDbArc
 50
181.199
 51
199.573
  0
ARC
  5
3F3
330
18
100
AcDbEntity
  8
0
  6
Continuous
 62
     7
100
AcDbCircle
 10
115.746064
 20
130.49573
 30
0.0
 40
0.8140000000000001
100
AcDbArc
 50
199.461
 51
223.919
  0
ARC
  5
3F4
330
18
100
AcDbEntity
  8
0
  6
Continuous
 62
     7
100
AcDbCircle
 10
115.502064
 20
130.25173
 30
0.0
 40
0.488
100
AcDbArc
 50
223.877
 51
255.887
  0
ARC
  5
3F5
330
18
100
AcDbEntity
  8
0
  6
Continuous
 62
     7
100
AcDbCircle
 10
115.502064
 20
130.25173
 30
0.0
 40
0.488
100
AcDbArc
 50
255.887
 51
280.874
  0
LWPOLYLINE
  5
3F6
330
18
100
AcDbEntity
  8
0
  6
Continuous
 62
     7
100
AcDbPolyline
 90
        2
 70
     0
 43
0.0
 10
117.081064
 20
117.56573
 10
117.108064
 20
116.94173
  0
LWPOLYLINE
  5
3FB
330
18
100
AcDbEntity
  8
0
  6
Continuous
 62
     7
100
AcDbPolyline
 90
        2
 70
     0
 43
0.0
 10
117.136064
 20
114.28473
 10
117.136064
 20
113.66073
  0
LWPOLYLINE
  5
400
330
18
100
AcDbEntity
  8
0
  6
Continuous
 62
     7
100
AcDbPolyline
 90
        2
 70
     0
 43
0.0
 10
117.163064
 20
111.03073
 10
117.163064
 20
110.37973
  0
LWPOLYLINE
  5
405
330
18
100
AcDbEntity
  8
0
  6
Continuous
 62
     7
100
AcDbPolyline
 90
        2
 70
     0
 43
0.0
 10
117.190064
 20
107.74973
 10
117.217064
 20
107.12573
  0
LWPOLYLINE
  5
40A
330
18
100
AcDbEntity
  8
0
  6
Continuous
 62
     7
100
AcDbPolyline
 90
        2
 70
     0
 43
0.0
 10
113.285064
 20
116.26373
 10
113.285064
 20
115.64073
  0
LWPOLYLINE
  5
40F
330
18
100
AcDbEntity
  8
0
  6
Continuous
 62
     7
100
AcDbPolyline
 90
        2
 70
     0
 43
0.0
 10
113.285064
 20
116.26373
 10
115.617064
 20
116.99573
  0
LWPOLYLINE
  5
414
330
18
100
AcDbEntity
  8
0
  6
Continuous
 62
     7
100
AcDbPolyline
 90
        2
 70
     0
 43
0.0
 10
113.285064
 20
115.64073
 10
115.888064
 20
116.45373
  0
LWPOLYLINE
  5
419
330
18
100
AcDbEntity
  8
0
  6
Continuous
 62
     7
100
AcDbPolyline
 90
        2
 70
     0
 43
0.0
 10
115.129064
 20
116.86073
 10
115.888064
 20
116.45373
  0
LWPOLYLINE
  5
41E
330
18
100
AcDbEntity
  8
0
  6
Continuous
 62
     7
100
AcDbPolyline
 90
        2
 70
     0
 43
0.0
 10
113.312064
 20
112.35873
 10
115.942064
 20
113.19973
  0
LWPOLYLINE
  5
423
330
18
100
AcDbEntity
  8
0
  6
Continuous
 62
     7
100
AcDbPolyline
 90
        2
 70
     0
 43
0.0
 10
113.312064
 20
112.98273
 10
115.644064
 20
113.74173
  0
LWPOLYLINE
  5
428
330
18
100
AcDbEntity
  8
0
  6
Continuous
 62
     7
100
AcDbPolyline
 90
        2
 70
     0
 43
0.0
 10
113.312064
 20
112.98273
 10
113.312064
 20
112.35873
  0
LWPOLYLINE
  5
42D
330
18
100
AcDbEntity
  8
0
  6
Continuous
 62
     7
100
AcDbPolyline
 90
        2
 70
     0
 43
0.0
 10
115.183064
 20
113.57973
 10
115.942064
 20
113.19973
  0
LWPOLYLINE
  5
432
330
18
100
AcDbEntity
  8
0
  6
Continuous
 62
     7
100
AcDbPolyline
 90
        2
 70
     0
 43
0.0
 10
113.339064
 20
109.72873
 10
113.366064
 20
109.07773
  0
LWPOLYLINE
  5
437
330
18
100
AcDbEntity
  8
0
  6
Continuous
 62
     7
100
AcDbPolyline
 90
        2
 70
     0
 43
0.0
 10
113.339064
 20
109.72873
 10
115.698064
 20
110.46073
  0
LWPOLYLINE
  5
43C
330
18
100
AcDbEntity
  8
0
  6
Continuous
 62
     7
100
AcDbPolyline
 90
        2
 70
     0
 43
0.0
 10
113.366064
 20
109.07773
 10
115.969064
 20
109.91873
  0
LWPOLYLINE
  5
441
330
18
100
AcDbEntity
  8
0
  6
Continuous
 62
     7
100
AcDbPolyline
 90
        2
 70
     0
 43
0.0
 10
115.210064
 20
110.29873
 10
115.969064
 20
109.91873
  0
LWPOLYLINE
  5
446
330
18
100
AcDbEntity
  8
0
  6
Continuous
 62
     7
100
AcDbPolyline
 90
        2
 70
     0
 43
0.0
 10
113.393064
 20
106.44773
 10
113.393064
 20
105.82373
  0
LWPOLYLINE
  5
44B
330
18
100
AcDbEntity
  8
0
  6
Continuous
 62
     7
100
AcDbPolyline
 90
        2
 70
     0
 43
0.0
 10
113.393064
 20
106.44773
 10
115.725064
 20
107.20673
  0
LWPOLYLINE
  5
450
330
18
100
AcDbEntity
  8
0
  6
Continuous
 62
     7
100
AcDbPolyline
 90
        2
 70
     0
 43
0.0
 10
113.393064
 20
105.82373
 10
115.997064
 20
106.63773
  0
LWPOLYLINE
  5
455
330
18
100
AcDbEntity
  8
0
  6
Continuous
 62
     7
100
AcDbPolyline
 90
        2
 70
     0
 43
0.0
 10
115.237064
 20
107.04373
 10
115.997064
 20
106.63773
  0
LWPOLYLINE
  5
45A
330
18
100
AcDbEntity
  8
0
  6
Continuous
 62
     7
100
AcDbPolyline
 90
        2
 70
     0
 43
0.0
 10
109.461064
 20
114.96273
 10
109.461064
 20
114.31173
  0
LWPOLYLINE
  5
45F
330
18
100
AcDbEntity
  8
0
  6
Continuous
 62
     7
100
AcDbPolyline
 90
        2
 70
     0
 43
0.0
 10
109.461064
 20
114.96273
 10
111.821064
 20
115.69473
  0
LWPOLYLINE
  5
464
330
18
100
AcDbEntity
  8
0
  6
Continuous
 62
     7
100
AcDbPolyline
 90
        2
 70
     0
 43
0.0
 10
109.461064
 20
114.31173
 10
112.092064
 20
115.15173
  0
LWPOLYLINE
  5
469
330
18
100
AcDbEntity
  8
0
  6
Continuous
 62
     7
100
AcDbPolyline
 90
        2
 70
     0
 43
0.0
 10
111.332064
 20
115.55873
 10
112.092064
 20
115.15173
  0
LWPOLYLINE
  5
46E
330
18
100
AcDbEntity
  8
0
  6
Continuous
 62
     7
100
AcDbPolyline
 90
        2
 70
     0
 43
0.0
 10
109.516064
 20
111.05773
 10
112.119064
 20
111.87073
  0
LWPOLYLINE
  5
473
330
18
100
AcDbEntity
  8
0
  6
Continuous
 62
     7
100
AcDbPolyline
 90
        2
 70
     0
 43
0.0
 10
109.489064
 20
111.68173
 10
111.848064
 20
112.44073
  0
LWPOLYLINE
  5
478
330
18
100
AcDbEntity
  8
0
  6
Continuous
 62
     7
100
AcDbPolyline
 90
        2
 70
     0
 43
0.0
 10
109.489064
 20
111.68173
 10
109.516064
 20
111.05773
  0
LWPOLYLINE
  5
47D
330
18
100
AcDbEntity
  8
0
  6
Continuous
 62
     7
100
AcDbPolyline
 90
        2
 70
     0
 43
0.0
 10
111.360064
 20
112.27773
 10
112.119064
 20
111.87073
  0
LWPOLYLINE
  5
482
330
18
100
AcDbEntity
  8
0
  6
Continuous
 62
     7
100
AcDbPolyline
 90
        2
 70
     0
 43
0.0
 10
109.543064
 20
108.42673
 10
109.543064
 20
107.77673
  0
LWPOLYLINE
  5
487
330
18
100
AcDbEntity
  8
0
  6
Continuous
 62
     7
100
AcDbPolyline
 90
        2
 70
     0
 43
0.0
 10
109.543064
 20
108.42673
 10
111.875064
 20
109.15973
  0
LWPOLYLINE
  5
48C
330
18
100
AcDbEntity
  8
0
  6
Continuous
 62
     7
100
AcDbPolyline
 90
        2
 70
     0
 43
0.0
 10
109.543064
 20
107.77673
 10
112.146064
 20
108.61673
  0
LWPOLYLINE
  5
491
330
18
100
AcDbEntity
  8
0
  6
Continuous
 62
     7
100
AcDbPolyline
 90
        2
 70
     0
 43
0.0
 10
111.387064
 20
108.99673
 10
112.146064
 20
108.61673
  0
LWPOLYLINE
  5
496
330
18
100
AcDbEntity
  8
0
  6
Continuous
 62
     7
100
AcDbPolyline
 90
        2
 70
     0
 43
0.0
 10
109.570064
 20
105.14573
 10
111.902064
 20
105.87773
  0
LWPOLYLINE
  5
49B
330
18
100
AcDbEntity
  8
0
  6
Continuous
 62
     7
100
AcDbPolyline
 90
        2
 70
     0
 43
0.0
 10
111.441064
 20
105.74273
 10
112.200064
 20
105.33573
  0
LWPOLYLINE
  5
4A0
330
18
100
AcDbEntity
  8
0
  6
Continuous
 62
     7
100
AcDbPolyline
 90
        2
 70
     0
 43
0.0
 10
107.590064
 20
107.69473
 10
108.350064
 20
107.31573
  0
LWPOLYLINE
  5
4A5
330
18
100
AcDbEntity
  8
0
  6
Continuous
 62
     7
100
AcDbPolyline
 90
        2
 70
     0
 43
0.0
 10
105.719064
 20
106.47473
 10
108.350064
 20
107.31573
  0
LWPOLYLINE
  5
4AA
330
18
100
AcDbEntity
  8
0
  6
Continuous
 62
     7
100
AcDbPolyline
 90
        2
 70
     0
 43
0.0
 10
105.719064
 20
107.12573
 10
108.078064
 20
107.85773
  0
LWPOLYLINE
  5
4AF
330
18
100
AcDbEntity
  8
0
  6
Continuous
 62
     7
100
AcDbPolyline
 90
        2
 70
     0
 43
0.0
 10
105.719064
 20
107.12573
 10
105.719064
 20
106.47473
  0
LWPOLYLINE
  5
4B4
330
18
100
AcDbEntity
  8
0
  6
Continuous
 62
     7
100
AcDbPolyline
 90
        2
 70
     0
 43
0.0
 10
107.563064
 20
110.97573
 10
108.295064
 20
110.56973
  0
LWPOLYLINE
  5
4B9
330
18
100
AcDbEntity
  8
0
  6
Continuous
 62
     7
100
AcDbPolyline
 90
        2
 70
     0
 43
0.0
 10
105.692064
 20
110.37973
 10
105.692064
 20
109.75573
  0
LWPOLYLINE
  5
4BE
330
18
100
AcDbEntity
  8
0
  6
Continuous
 62
     7
100
AcDbPolyline
 90
        2
 70
     0
 43
0.0
 10
105.692064
 20
110.37973
 10
108.024064
 20
111.13873
  0
LWPOLYLINE
  5
4C3
330
18
100
AcDbEntity
  8
0
  6
Continuous
 62
     7
100
AcDbPolyline
 90
        2
 70
     0
 43
0.0
 10
105.692064
 20
109.75573
 10
108.295064
 20
110.56973
  0
LWPOLYLINE
  5
4C8
330
18
100
AcDbEntity
  8
0
  6
Continuous
 62
     7
100
AcDbPolyline
 90
        2
 70
     0
 43
0.0
 10
107.509064
 20
114.25773
 10
108.268064
 20
113.85073
  0
LWPOLYLINE
  5
4CD
330
18
100
AcDbEntity
  8
0
  6
Continuous
 62
     7
100
AcDbPolyline
 90
        2
 70
     0
 43
0.0
 10
105.665064
 20
113.00973
 10
108.268064
 20
113.85073
  0
LWPOLYLINE
  5
4D2
330
18
100
AcDbEntity
  8
0
  6
Continuous
 62
     7
100
AcDbPolyline
 90
        2
 70
     0
 43
0.0
 10
105.665064
 20
113.66073
 10
107.997064
 20
114.39273
  0
LWPOLYLINE
  5
4D7
330
18
100
AcDbEntity
  8
0
  6
Continuous
 62
     7
100
AcDbPolyline
 90
        2
 70
     0
 43
0.0
 10
105.665064
 20
113.66073
 10
105.665064
 20
113.00973
  0
LWPOLYLINE
  5
4DC
330
18
100
AcDbEntity
  8
0
  6
Continuous
 62
     7
100
AcDbPolyline
 90
        2
 70
     0
 43
0.0
 10
101.896064
 20
105.79673
 10
101.923064
 20
105.17273
  0
LWPOLYLINE
  5
4E1
330
18
100
AcDbEntity
  8
0
  6
Continuous
 62
     7
100
AcDbPolyline
 90
        2
 70
     0
 43
0.0
 10
101.869064
 20
109.07773
 10
101.869064
 20
108.45473
  0
LWPOLYLINE
  5
4E6
330
18
100
AcDbEntity
  8
0
  6
Continuous
 62
     7
100
AcDbPolyline
 90
        2
 70
     0
 43
0.0
 10
101.842064
 20
112.35873
 10
101.842064
 20
111.70873
  0
LWPOLYLINE
  5
4EB
330
18
100
AcDbEntity
  8
0
  6
Continuous
 62
     7
100
AcDbPolyline
 90
        2
 70
     0
 43
0.0
 10
103.767064
 20
106.39373
 10
104.526064
 20
106.01373
  0
LWPOLYLINE
  5
4F0
330
18
100
AcDbEntity
  8
0
  6
Continuous
 62
     7
100
AcDbPolyline
 90
        2
 70
     0
 43
0.0
 10
101.896064
 20
105.79673
 10
104.255064
 20
106.55573
  0
LWPOLYLINE
  5
4F5
330
18
100
AcDbEntity
  8
0
  6
Continuous
 62
     7
100
AcDbPolyline
 90
        2
 70
     0
 43
0.0
 10
101.923064
 20
105.17273
 10
104.526064
 20
106.01373
  0
LWPOLYLINE
  5
4FA
330
18
100
AcDbEntity
  8
0
  6
Continuous
 62
     7
100
AcDbPolyline
 90
        2
 70
     0
 43
0.0
 10
103.740064
 20
109.67473
 10
104.499064
 20
109.26773
  0
LWPOLYLINE
  5
4FF
330
18
100
AcDbEntity
  8
0
  6
Continuous
 62
     7
100
AcDbPolyline
 90
        2
 70
     0
 43
0.0
 10
101.869064
 20
108.45473
 10
104.499064
 20
109.26773
  0
LWPOLYLINE
  5
504
330
18
100
AcDbEntity
  8
0
  6
Continuous
 62
     7
100
AcDbPolyline
 90
        2
 70
     0
 43
0.0
 10
101.869064
 20
109.07773
 10
104.228064
 20
109.83773
  0
LWPOLYLINE
  5
509
330
18
100
AcDbEntity
  8
0
  6
Continuous
 62
     7
100
AcDbPolyline
 90
        2
 70
     0
 43
0.0
 10
103.713064
 20
112.95573
 10
104.445064
 20
112.54873
  0
LWPOLYLINE
  5
50E
330
18
100
AcDbEntity
  8
0
  6
Continuous
 62
     7
100
AcDbPolyline
 90
        2
 70
     0
 43
0.0
 10
101.842064
 20
112.35873
 10
104.174064
 20
113.09173
  0
LWPOLYLINE
  5
513
330
18
100
AcDbEntity
  8
0
  6
Continuous
 62
     7
100
AcDbPolyline
 90
        2
 70
     0
 43
0.0
 10
101.842064
 20
111.70873
 10
104.445064
 20
112.54873
  0
LWPOLYLINE
  5
518
330
18
100
AcDbEntity
  8
0
  6
Continuous
 62
     7
100
AcDbPolyline
 90
        2
 70
     0
 43
0.0
 10
120.905064
 20
118.86773
 10
120.905064
 20
118.24373
  0
LWPOLYLINE
  5
51D
330
18
100
AcDbEntity
  8
0
  6
Continuous
 62
     7
100
AcDbPolyline
 90
        2
 70
     0
 43
0.0
 10
120.905064
 20
118.86773
 10
123.237064
 20
119.59973
  0
LWPOLYLINE
  5
522
330
18
100
AcDbEntity
  8
0
  6
Continuous
 62
     7
100
AcDbPolyline
 90
        2
 70
     0
 43
0.0
 10
120.905064
 20
118.24373
 10
123.508064
 20
119.05673
  0
LWPOLYLINE
  5
527
330
18
100
AcDbEntity
  8
0
  6
Continuous
 62
     7
100
AcDbPolyline
 90
        2
 70
     0
 43
0.0
 10
122.776064
 20
119.46373
 10
123.508064
 20
119.05673
  0
LWPOLYLINE
  5
52C
330
18
100
AcDbEntity
  8
0
  6
Continuous
 62
     7
100
AcDbPolyline
 90
        2
 70
     0
 43
0.0
 10
120.959064
 20
114.96273
 10
123.562064
 20
115.80273
  0
LWPOLYLINE
  5
531
330
18
100
AcDbEntity
  8
0
  6
Continuous
 62
     7
100
AcDbPolyline
 90
        2
 70
     0
 43
0.0
 10
120.932064
 20
115.58573
 10
123.291064
 20
116.34573
  0
LWPOLYLINE
  5
536
330
18
100
AcDbEntity
  8
0
  6
Continuous
 62
     7
100
AcDbPolyline
 90
        2
 70
     0
 43
0.0
 10
120.932064
 20
115.58573
 10
120.959064
 20
114.96273
  0
LWPOLYLINE
  5
53B
330
18
100
AcDbEntity
  8
0
  6
Continuous
 62
     7
100
AcDbPolyline
 90
        2
 70
     0
 43
0.0
 10
122.803064
 20
116.18273
 10
123.562064
 20
115.80273
  0
LWPOLYLINE
  5
540
330
18
100
AcDbEntity
  8
0
  6
Continuous
 62
     7
100
AcDbPolyline
 90
        2
 70
     0
 43
0.0
 10
120.986064
 20
112.33173
 10
120.986064
 20
111.68173
  0
LWPOLYLINE
  5
545
330
18
100
AcDbEntity
  8
0
  6
Continuous
 62
     7
100
AcDbPolyline
 90
        2
 70
     0
 43
0.0
 10
120.986064
 20
112.33173
 10
123.318064
 20
113.06373
  0
LWPOLYLINE
  5
54A
330
18
100
AcDbEntity
  8
0
  6
Continuous
 62
     7
100
AcDbPolyline
 90
        2
 70
     0
 43
0.0
 10
120.986064
 20
111.68173
 10
123.589064
 20
112.52173
  0
LWPOLYLINE
  5
54F
330
18
100
AcDbEntity
  8
0
  6
Continuous
 62
     7
100
AcDbPolyline
 90
        2
 70
     0
 43
0.0
 10
122.830064
 20
112.92873
 10
123.589064
 20
112.52173
  0
LWPOLYLINE
  5
554
330
18
100
AcDbEntity
  8
0
  6
Continuous
 62
     7
100
AcDbPolyline
 90
        2
 70
     0
 43
0.0
 10
121.013064
 20
109.05073
 10
121.013064
 20
108.42673
  0
LWPOLYLINE
  5
559
330
18
100
AcDbEntity
  8
0
  6
Continuous
 62
     7
100
AcDbPolyline
 90
        2
 70
     0
 43
0.0
 10
121.013064
 20
109.05073
 10
123.345064
 20
109.80973
  0
LWPOLYLINE
  5
55E
330
18
100
AcDbEntity
  8
0
  6
Continuous
 62
     7
100
AcDbPolyline
 90
        2
 70
     0
 43
0.0
 10
121.013064
 20
108.42673
 10
123.616064
 20
109.24073
  0
LWPOLYLINE
  5
563
330
18
100
AcDbEntity
  8
0
  6
Continuous
 62
     7
100
AcDbPolyline
 90
        2
 70
     0
 43
0.0
 10
122.884064
 20
109.64773
 10
123.616064
 20
109.24073
  0
LWPOLYLINE
  5
568
330
18
100
AcDbEntity
  8
0
  6
Continuous
 62
     7
100
AcDbPolyline
 90
        2
 70
     0
 43
0.0
 10
123.671064
 20
120.81973
 10
122.857064
 20
121.41673
  0
LWPOLYLINE
  5
56D
330
18
100
AcDbEntity
  8
0
  6
Continuous
 62
     7
100
AcDbPolyline
 90
        2
 70
     0
 43
0.0
 10
124.349064
 20
106.47473
 10
123.671064
 20
120.81973
  0
LWPOLYLINE
  5
572
330
18
100
AcDbEntity
  8
0
  6
Continuous
 62
     7
100
AcDbPolyline
 90
        2
 70
     0
 43
0.0
 10
118.952064
 20
118.16173
 10
119.712064
 20
117.75573
  0
LWPOLYLINE
  5
577
330
18
100
AcDbEntity
  8
0
  6
Continuous
 62
     7
100
AcDbPolyline
 90
        2
 70
     0
 43
0.0
 10
118.979064
 20
114.88073
 10
119.739064
 20
114.50173
  0
LWPOLYLINE
  5
57C
330
18
100
AcDbEntity
  8
0
  6
Continuous
 62
     7
100
AcDbPolyline
 90
        2
 70
     0
 43
0.0
 10
119.034064
 20
111.62673
 10
119.766064
 20
111.22073
  0
LWPOLYLINE
  5
581
330
18
100
AcDbEntity
  8
0
  6
Continuous
 62
     7
100
AcDbPolyline
 90
        2
 70
     0
 43
0.0
 10
119.061064
 20
108.34573
 10
119.820064
 20
107.93873
  0
ARC
  5
586
330
18
100
AcDbEntity
  8
0
  6
Continuous
 62
     7
100
AcDbCircle
 10
117.893064
 20
133.99373
 30
0.0
 40
0.8140000000000001
100
AcDbArc
 50
287.65
 51
312.158
  0
ARC
  5
587
330
18
100
AcDbEntity
  8
0
  6
Continuous
 62
     7
100
AcDbCircle
 10
118.300064
 20
134.83373
 30
0.0
 40
0.488
100
AcDbArc
 50
75.887
 51
107.733
  0
LWPOLYLINE
  5
588
330
18
100
AcDbEntity
  8
0
  6
HIDDEN
 62
     7
100
AcDbPolyline
 90
        2
 70
     0
 43
0.0
 10
121.301064
 20
134.82673
 10
113.925064
 20
139.16473
  0
ARC
  5
58D
330
18
100
AcDbEntity
  8
0
  6
Continuous
 62
     7
100
AcDbCircle
 10
105.329064
 20
132.49373
 30
0.0
 40
1.03
100
AcDbArc
 50
0.904
 51
29.333
  0
ARC
  5
58E
330
18
100
AcDbEntity
  8
0
  6
Continuous
 62
     7
100
AcDbCircle
 10
107.905064
 20
137.02273
 30
0.0
 40
0.407
100
AcDbArc
 50
25.201
 51
59.496
  0
ARC
  5
58F
330
18
100
AcDbEntity
  8
0
  6
Continuous
 62
     7
100
AcDbCircle
 10
107.688064
 20
136.69773
 30
0.0
 40
0.8140000000000001
100
AcDbArc
 50
59.593
 51
84.06100000000001
  0
ARC
  5
590
330
18
100
AcDbEntity
  8
0
  6
Continuous
 62
     7
100
AcDbCircle
 10
107.661064
 20
136.29073
 30
0.0
 40
1.22
100
AcDbArc
 50
84.01100000000001
 51
101.16
  0
ARC
  5
591
330
18
100
AcDbEntity
  8
0
  6
Continuous
 62
     7
100
AcDbCircle
 10
107.769064
 20
135.72073
 30
0.0
 40
1.79
100
AcDbArc
 50
101.191
 51
115.4
  0
ARC
  5
592
330
18
100
AcDbEntity
  8
0
  6
Continuous
 62
     7
100
AcDbCircle
 10
107.769064
 20
135.72073
 30
0.0
 40
1.79
100
AcDbArc
 50
115.4
 51
129.528
  0
ARC
  5
593
330
18
100
AcDbEntity
  8
0
  6
Continuous
 62
     7
100
AcDbCircle
 10
107.390064
 20
136.15473
 30
0.0
 40
1.22
100
AcDbArc
 50
129.496
 51
146.698
  0
ARC
  5
594
330
18
100
AcDbEntity
  8
0
  6
Continuous
 62
     7
100
AcDbCircle
 10
107.064064
 20
136.39873
 30
0.0
 40
0.8140000000000001
100
AcDbArc
 50
146.68
 51
171.167
  0
ARC
  5
595
330
18
100
AcDbEntity
  8
0
  6
Continuous
 62
     7
100
AcDbCircle
 10
106.685064
 20
136.45373
 30
0.0
 40
0.407
100
AcDbArc
 50
171.166
 51
205.201
  0
ARC
  5
596
330
18
100
AcDbEntity
  8
0
  6
Continuous
 62
     7
100
AcDbCircle
 10
106.685064
 20
136.45373
 30
0.0
 40
0.407
100
AcDbArc
 50
205.201
 51
239.496
  0
ARC
  5
597
330
18
100
AcDbEntity
  8
0
  6
Continuous
 62
     7
100
AcDbCircle
 10
106.874064
 20
136.77873
 30
0.0
 40
0.8140000000000001
100
AcDbArc
 50
239.592
 51
264.061
  0
ARC
  5
598
330
18
100
AcDbEntity
  8
0
  6
Continuous
 62
     7
100
AcDbCircle
 10
106.929064
 20
137.18573
 30
0.0
 40
1.22
100
AcDbArc
 50
264.011
 51
281.16
  0
ARC
  5
599
330
18
100
AcDbEntity
  8
0
  6
Continuous
 62
     7
100
AcDbCircle
 10
106.820064
 20
137.75473
 30
0.0
 40
1.79
100
AcDbArc
 50
281.191
 51
295.4
  0
ARC
  5
59A
330
18
100
AcDbEntity
  8
0
  6
Continuous
 62
     7
100
AcDbCircle
 10
106.820064
 20
137.75473
 30
0.0
 40
1.79
100
AcDbArc
 50
295.4
 51
309.528
  0
ARC
  5
59B
330
18
100
AcDbEntity
  8
0
  6
Continuous
 62
     7
100
AcDbCircle
 10
107.173064
 20
137.29373
 30
0.0
 40
1.22
100
AcDbArc
 50
309.496
 51
326.699
  0
ARC
  5
59C
330
18
100
AcDbEntity
  8
0
  6
Continuous
 62
     7
100
AcDbCircle
 10
107.498064
 20
137.07673
 30
0.0
 40
0.8140000000000001
100
AcDbArc
 50
326.68
 51
351.167
  0
ARC
  5
59D
330
18
100
AcDbEntity
  8
0
  6
Continuous
 62
     7
100
AcDbCircle
 10
107.905064
 20
137.02273
 30
0.0
 40
0.407
100
AcDbArc
 50
351.167
 51
25.201
  0
ARC
  5
59E
330
18
100
AcDbEntity
  8
0
  6
Continuous
 62
     7
100
AcDbCircle
 10
108.013064
 20
136.58873
 30
0.0
 40
0.407
100
AcDbArc
 50
25.201
 51
49.06499999999999
  0
ARC
  5
59F
330
18
100
AcDbEntity
  8
0
  6
Continuous
 62
     7
100
AcDbCircle
 10
107.200064
 20
135.96473
 30
0.0
 40
0.8140000000000001
100
AcDbArc
 50
167.306
 51
171.167
  0
ARC
  5
5A0
330
18
100
AcDbEntity
  8
0
  6
Continuous
 62
     7
100
AcDbCircle
 10
106.820064
 20
136.01973
 30
0.0
 40
0.407
100
AcDbArc
 50
171.167
 51
205.201
  0
ARC
  5
5A1
330
18
100
AcDbEntity
  8
0
  6
Continuous
 62
     7
100
AcDbCircle
 10
106.820064
 20
136.01973
 30
0.0
 40
0.407
100
AcDbArc
 50
205.201
 51
239.495
  0
ARC
  5
5A2
330
18
100
AcDbEntity
  8
0
  6
Continuous
 62
     7
100
AcDbCircle
 10
107.010064
 20
136.34473
 30
0.0
 40
0.8140000000000001
100
AcDbArc
 50
239.593
 51
264.061
  0
ARC
  5
5A3
330
18
100
AcDbEntity
  8
0
  6
Continuous
 62
     7
100
AcDbCircle
 10
107.037064
 20
136.75173
 30
0.0
 40
1.22
100
AcDbArc
 50
264.011
 51
281.16
  0
ARC
  5
5A4
330
18
100
AcDbEntity
  8
0
  6
Continuous
 62
     7
100
AcDbCircle
 10
106.929064
 20
137.32073
 30
0.0
 40
1.79
100
AcDbArc
 50
281.191
 51
295.4
  0
ARC
  5
5A5
330
18
100
AcDbEntity
  8
0
  6
Continuous
 62
     7
100
AcDbCircle
 10
106.929064
 20
137.32073
 30
0.0
 40
1.79
100
AcDbArc
 50
295.4
 51
309.528
  0
ARC
  5
5A6
330
18
100
AcDbEntity
  8
0
  6
Continuous
 62
     7
100
AcDbCircle
 10
107.308064
 20
136.88673
 30
0.0
 40
1.22
100
AcDbArc
 50
309.496
 51
326.699
  0
ARC
  5
5A7
330
18
100
AcDbEntity
  8
0
  6
Continuous
 62
     7
100
AcDbCircle
 10
107.634064
 20
136.64273
 30
0.0
 40
0.8140000000000001
100
AcDbArc
 50
326.68
 51
351.167
  0
ARC
  5
5A8
330
18
100
AcDbEntity
  8
0
  6
Continuous
 62
     7
100
AcDbCircle
 10
108.013064
 20
136.58873
 30
0.0
 40
0.407
100
AcDbArc
 50
351.167
 51
25.201
  0
ARC
  5
5A9
330
18
100
AcDbEntity
  8
0
  6
Continuous
 62
     7
100
AcDbCircle
 10
109.478064
 20
141.41573
 30
0.0
 40
0.8140000000000001
100
AcDbArc
 50
167.306
 51
171.167
  0
ARC
  5
5AA
330
18
100
AcDbEntity
  8
0
  6
Continuous
 62
     7
100
AcDbCircle
 10
109.098064
 20
141.46973
 30
0.0
 40
0.407
100
AcDbArc
 50
171.167
 51
205.201
  0
ARC
  5
5AB
330
18
100
AcDbEntity
  8
0
  6
Continuous
 62
     7
100
AcDbCircle
 10
109.098064
 20
141.46973
 30
0.0
 40
0.407
100
AcDbArc
 50
205.201
 51
239.495
  0
ARC
  5
5AC
330
18
100
AcDbEntity
  8
0
  6
Continuous
 62
     7
100
AcDbCircle
 10
109.288064
 20
141.82273
 30
0.0
 40
0.8140000000000001
100
AcDbArc
 50
239.592
 51
264.061
  0
ARC
  5
5AD
330
18
100
AcDbEntity
  8
0
  6
Continuous
 62
     7
100
AcDbCircle
 10
109.315064
 20
142.22873
 30
0.0
 40
1.22
100
AcDbArc
 50
264.011
 51
281.16
  0
ARC
  5
5AE
330
18
100
AcDbEntity
  8
0
  6
Continuous
 62
     7
100
AcDbCircle
 10
109.206064
 20
142.77173
 30
0.0
 40
1.79
100
AcDbArc
 50
281.191
 51
295.4
  0
ARC
  5
5AF
330
18
100
AcDbEntity
  8
0
  6
Continuous
 62
     7
100
AcDbCircle
 10
109.206064
 20
142.77173
 30
0.0
 40
1.79
100
AcDbArc
 50
295.4
 51
309.528
  0
ARC
  5
5B0
330
18
100
AcDbEntity
  8
0
  6
Continuous
 62
     7
100
AcDbCircle
 10
109.586064
 20
142.33773
 30
0.0
 40
1.22
100
AcDbArc
 50
309.496
 51
326.699
  0
ARC
  5
5B1
330
18
100
AcDbEntity
  8
0
  6
Continuous
 62
     7
100
AcDbCircle
 10
109.911064
 20
142.12073
 30
0.0
 40
0.8140000000000001
100
AcDbArc
 50
326.68
 51
351.167
  0
ARC
  5
5B2
330
18
100
AcDbEntity
  8
0
  6
Continuous
 62
     7
100
AcDbCircle
 10
110.291064
 20
142.06673
 30
0.0
 40
0.407
100
AcDbArc
 50
351.167
 51
25.202
  0
ARC
  5
5B3
330
18
100
AcDbEntity
  8
0
  6
Continuous
 62
     7
100
AcDbCircle
 10
110.291064
 20
142.06673
 30
0.0
 40
0.407
100
AcDbArc
 50
25.202
 51
49.067
  0
ARC
  5
5B4
330
18
100
AcDbEntity
  8
0
  6
Continuous
 62
     7
100
AcDbCircle
 10
110.183064
 20
142.50073
 30
0.0
 40
0.407
100
AcDbArc
 50
25.201
 51
59.496
  0
ARC
  5
5B5
330
18
100
AcDbEntity
  8
0
  6
Continuous
 62
     7
100
AcDbCircle
 10
109.966064
 20
142.14773
 30
0.0
 40
0.8140000000000001
100
AcDbArc
 50
59.59200000000001
 51
84.06100000000001
  0
ARC
  5
5B6
330
18
100
AcDbEntity
  8
0
  6
Continuous
 62
     7
100
AcDbCircle
 10
109.939064
 20
141.74073
 30
0.0
 40
1.22
100
AcDbArc
 50
84.01100000000001
 51
101.16
  0
ARC
  5
5B7
330
18
100
AcDbEntity
  8
0
  6
Continuous
 62
     7
100
AcDbCircle
 10
110.047064
 20
141.19873
 30
0.0
 40
1.79
100
AcDbArc
 50
101.191
 51
115.4
  0
ARC
  5
5B8
330
18
100
AcDbEntity
  8
0
  6
Continuous
 62
     7
100
AcDbCircle
 10
110.047064
 20
141.19873
 30
0.0
 40
1.79
100
AcDbArc
 50
115.4
 51
129.528
  0
ARC
  5
5B9
330
18
100
AcDbEntity
  8
0
  6
Continuous
 62
     7
100
AcDbCircle
 10
109.667064
 20
141.63273
 30
0.0
 40
1.22
100
AcDbArc
 50
129.496
 51
146.699
  0
ARC
  5
5BA
330
18
100
AcDbEntity
  8
0
  6
Continuous
 62
     7
100
AcDbCircle
 10
109.342064
 20
141.84973
 30
0.0
 40
0.8140000000000001
100
AcDbArc
 50
146.68
 51
171.167
  0
ARC
  5
5BB
330
18
100
AcDbEntity
  8
0
  6
Continuous
 62
     7
100
AcDbCircle
 10
108.962064
 20
141.90373
 30
0.0
 40
0.407
100
AcDbArc
 50
171.167
 51
205.201
  0
ARC
  5
5BC
330
18
100
AcDbEntity
  8
0
  6
Continuous
 62
     7
100
AcDbCircle
 10
108.962064
 20
141.90373
 30
0.0
 40
0.407
100
AcDbArc
 50
205.201
 51
239.495
  0
ARC
  5
5BD
330
18
100
AcDbEntity
  8
0
  6
Continuous
 62
     7
100
AcDbCircle
 10
109.152064
 20
142.25673
 30
0.0
 40
0.8140000000000001
100
AcDbArc
 50
239.593
 51
264.061
  0
ARC
  5
5BE
330
18
100
AcDbEntity
  8
0
  6
Continuous
 62
     7
100
AcDbCircle
 10
109.206064
 20
142.66273
 30
0.0
 40
1.22
100
AcDbArc
 50
264.011
 51
281.16
  0
ARC
  5
5BF
330
18
100
AcDbEntity
  8
0
  6
Continuous
 62
     7
100
AcDbCircle
 10
109.098064
 20
143.20573
 30
0.0
 40
1.79
100
AcDbArc
 50
281.191
 51
295.4
  0
ARC
  5
5C0
330
18
100
AcDbEntity
  8
0
  6
Continuous
 62
     7
100
AcDbCircle
 10
109.098064
 20
143.20573
 30
0.0
 40
1.79
100
AcDbArc
 50
295.4
 51
309.528
  0
ARC
  5
5C1
330
18
100
AcDbEntity
  8
0
  6
Continuous
 62
     7
100
AcDbCircle
 10
109.451064
 20
142.77173
 30
0.0
 40
1.22
100
AcDbArc
 50
309.496
 51
326.698
  0
ARC
  5
5C2
330
18
100
AcDbEntity
  8
0
  6
Continuous
 62
     7
100
AcDbCircle
 10
109.776064
 20
142.55473
 30
0.0
 40
0.8140000000000001
100
AcDbArc
 50
326.68
 51
351.167
  0
ARC
  5
5C3
330
18
100
AcDbEntity
  8
0
  6
Continuous
 62
     7
100
AcDbCircle
 10
110.183064
 20
142.50073
 30
0.0
 40
0.407
100
AcDbArc
 50
351.166
 51
25.201
  0
ARC
  5
5C4
330
18
100
AcDbEntity
  8
0
  6
Continuous
 62
     7
100
AcDbCircle
 10
111.755064
 20
135.09773
 30
0.0
 40
0.488
100
AcDbArc
 50
55.868
 51
75.887
  0
ARC
  5
5C5
330
18
100
AcDbEntity
  8
0
  6
Continuous
 62
     7
100
AcDbCircle
 10
111.755064
 20
135.09773
 30
0.0
 40
0.488
100
AcDbArc
 50
75.887
 51
107.732
  0
ARC
  5
5C6
330
18
100
AcDbEntity
  8
0
  6
Continuous
 62
     7
100
AcDbCircle
 10
111.864064
 20
134.77173
 30
0.0
 40
0.8140000000000001
100
AcDbArc
 50
107.651
 51
132.158
  0
ARC
  5
5C7
330
18
100
AcDbEntity
  8
0
  6
Continuous
 62
     7
100
AcDbCircle
 10
112.081064
 20
134.52773
 30
0.0
 40
1.166
100
AcDbArc
 50
132.076
 51
150.338
  0
ARC
  5
5C8
330
18
100
AcDbEntity
  8
0
  6
Continuous
 62
     7
100
AcDbCircle
 10
112.488064
 20
134.28373
 30
0.0
 40
1.63
100
AcDbArc
 50
150.362
 51
165.825
  0
ARC
  5
5C9
330
18
100
AcDbEntity
  8
0
  6
Continuous
 62
     7
100
AcDbCircle
 10
112.488064
 20
134.28373
 30
0.0
 40
1.627
100
AcDbArc
 50
165.825
 51
181.241
  0
ARC
  5
5CA
330
18
100
AcDbEntity
  8
0
  6
Continuous
 62
     7
100
AcDbCircle
 10
112.027064
 20
134.28373
 30
0.0
 40
1.166
100
AcDbArc
 50
181.199
 51
199.573
  0
ARC
  5
5CB
330
18
100
AcDbEntity
  8
0
  6
Continuous
 62
     7
100
AcDbCircle
 10
111.701064
 20
134.17573
 30
0.0
 40
0.8140000000000001
100
AcDbArc
 50
199.462
 51
223.919
  0
ARC
  5
5CC
330
18
100
AcDbEntity
  8
0
  6
Continuous
 62
     7
100
AcDbCircle
 10
111.457064
 20
133.93173
 30
0.0
 40
0.488
100
AcDbArc
 50
223.877
 51
255.887
  0
ARC
  5
5CD
330
18
100
AcDbEntity
  8
0
  6
Continuous
 62
     7
100
AcDbCircle
 10
111.457064
 20
133.93173
 30
0.0
 40
0.488
100
AcDbArc
 50
255.887
 51
280.874
  0
ARC
  5
5CE
330
18
100
AcDbEntity
  8
0
  6
Continuous
 62
     7
100
AcDbCircle
 10
112.108064
 20
135.01573
 30
0.0
 40
0.488
100
AcDbArc
 50
75.887
 51
107.732
  0
ARC
  5
5CF
330
18
100
AcDbEntity
  8
0
  6
Continuous
 62
     7
100
AcDbCircle
 10
112.216064
 20
134.69073
 30
0.0
 40
0.8140000000000001
100
AcDbArc
 50
107.651
 51
132.158
  0
ARC
  5
5D0
330
18
100
AcDbEntity
  8
0
  6
Continuous
 62
     7
100
AcDbCircle
 10
112.433064
 20
134.44673
 30
0.0
 40
1.166
100
AcDbArc
 50
132.077
 51
150.338
  0
ARC
  5
5D1
330
18
100
AcDbEntity
  8
0
  6
Continuous
 62
     7
100
AcDbCircle
 10
112.840064
 20
134.22973
 30
0.0
 40
1.63
100
AcDbArc
 50
150.362
 51
165.825
  0
ARC
  5
5D2
330
18
100
AcDbEntity
  8
0
  6
Continuous
 62
     7
100
AcDbCircle
 10
112.840064
 20
134.22973
 30
0.0
 40
1.627
100
AcDbArc
 50
165.825
 51
181.241
  0
ARC
  5
5D3
330
18
100
AcDbEntity
  8
0
  6
Continuous
 62
     7
100
AcDbCircle
 10
112.379064
 20
134.20273
 30
0.0
 40
1.166
100
AcDbArc
 50
181.199
 51
199.573
  0
ARC
  5
5D4
330
18
100
AcDbEntity
  8
0
  6
Continuous
 62
     7
100
AcDbCircle
 10
112.081064
 20
134.09373
 30
0.0
 40
0.8140000000000001
100
AcDbArc
 50
199.461
 51
223.919
  0
ARC
  5
5D5
330
18
100
AcDbEntity
  8
0
  6
Continuous
 62
     7
100
AcDbCircle
 10
111.837064
 20
133.87673
 30
0.0
 40
0.488
100
AcDbArc
 50
223.877
 51
255.887
  0
ARC
  5
5D6
330
18
100
AcDbEntity
  8
0
  6
Continuous
 62
     7
100
AcDbCircle
 10
111.837064
 20
133.87673
 30
0.0
 40
0.488
100
AcDbArc
 50
255.887
 51
287.733
  0
ARC
  5
5D7
330
18
100
AcDbEntity
  8
0
  6
Continuous
 62
     7
100
AcDbCircle
 10
111.728064
 20
134.17573
 30
0.0
 40
0.8140000000000001
100
AcDbArc
 50
287.65
 51
312.158
  0
ARC
  5
5D8
330
18
100
AcDbEntity
  8
0
  6
Continuous
 62
     7
100
AcDbCircle
 10
111.511064
 20
134.44673
 30
0.0
 40
1.166
100
AcDbArc
 50
312.076
 51
330.338
  0
ARC
  5
5D9
330
18
100
AcDbEntity
  8
0
  6
Continuous
 62
     7
100
AcDbCircle
 10
111.105064
 20
134.66373
 30
0.0
 40
1.63
100
AcDbArc
 50
330.362
 51
345.825
  0
ARC
  5
5DA
330
18
100
AcDbEntity
  8
0
  6
Continuous
 62
     7
100
AcDbCircle
 10
111.105064
 20
134.66373
 30
0.0
 40
1.627
100
AcDbArc
 50
345.825
 51
1.241
  0
ARC
  5
5DB
330
18
100
AcDbEntity
  8
0
  6
Continuous
 62
     7
100
AcDbCircle
 10
111.566064
 20
134.66373
 30
0.0
 40
1.166
100
AcDbArc
 50
1.199
 51
19.573
  0
ARC
  5
5DC
330
18
100
AcDbEntity
  8
0
  6
Continuous
 62
     7
100
AcDbCircle
 10
111.864064
 20
134.77173
 30
0.0
 40
0.8140000000000001
100
AcDbArc
 50
19.461
 51
43.919
  0
ARC
  5
5DD
330
18
100
AcDbEntity
  8
0
  6
Continuous
 62
     7
100
AcDbCircle
 10
112.108064
 20
135.01573
 30
0.0
 40
0.488
100
AcDbArc
 50
43.877
 51
75.887
  0
ARC
  5
5DE
330
18
100
AcDbEntity
  8
0
  6
Continuous
 62
     7
100
AcDbCircle
 10
116.180064
 20
131.33673
 30
0.0
 40
0.488
100
AcDbArc
 50
75.887
 51
107.733
  0
ARC
  5
5DF
330
18
100
AcDbEntity
  8
0
  6
Continuous
 62
     7
100
AcDbCircle
 10
116.261064
 20
131.01073
 30
0.0
 40
0.8140000000000001
100
AcDbArc
 50
107.65
 51
132.158
  0
ARC
  5
5E0
330
18
100
AcDbEntity
  8
0
  6
Continuous
 62
     7
100
AcDbCircle
 10
116.505064
 20
130.76673
 30
0.0
 40
1.166
100
AcDbArc
 50
132.077
 51
150.338
  0
ARC
  5
5E1
330
18
100
AcDbEntity
  8
0
  6
Continuous
 62
     7
100
AcDbCircle
 10
115.936064
 20
131.09273
 30
0.0
 40
0.8140000000000001
100
AcDbArc
 50
19.461
 51
43.919
  0
ARC
  5
5E2
330
18
100
AcDbEntity
  8
0
  6
Continuous
 62
     7
100
AcDbCircle
 10
116.180064
 20
131.33673
 30
0.0
 40
0.488
100
AcDbArc
 50
43.877
 51
75.887
  0
ARC
  5
5E3
330
18
100
AcDbEntity
  8
0
  6
Continuous
 62
     7
100
AcDbCircle
 10
115.800064
 20
131.41773
 30
0.0
 40
0.488
100
AcDbArc
 50
75.887
 51
107.733
  0
ARC
  5
5E4
330
18
100
AcDbEntity
  8
0
  6
Continuous
 62
     7
100
AcDbCircle
 10
115.909064
 20
131.09273
 30
0.0
 40
0.8140000000000001
100
AcDbArc
 50
107.65
 51
132.158
  0
ARC
  5
5E5
330
18
100
AcDbEntity
  8
0
  6
Continuous
 62
     7
100
AcDbCircle
 10
116.126064
 20
130.84873
 30
0.0
 40
1.166
100
AcDbArc
 50
132.077
 51
150.338
  0
ARC
  5
5E6
330
18
100
AcDbEntity
  8
0
  6
Continuous
 62
     7
100
AcDbCircle
 10
115.800064
 20
131.41773
 30
0.0
 40
0.488
100
AcDbArc
 50
55.869
 51
75.887
  0
ARC
  5
5E7
330
18
100
AcDbEntity
  8
0
  6
Continuous
 62
     7
100
AcDbCircle
 10
117.920064
 20
134.91573
 30
0.0
 40
0.488
100
AcDbArc
 50
55.869
 51
75.887
  0
ARC
  5
5E8
330
18
100
AcDbEntity
  8
0
  6
Continuous
 62
     7
100
AcDbCircle
 10
117.622064
 20
133.74973
 30
0.0
 40
0.488
100
AcDbArc
 50
255.887
 51
280.874
  0
ARC
  5
5E9
330
18
100
AcDbEntity
  8
0
  6
Continuous
 62
     7
100
AcDbCircle
 10
117.622064
 20
133.74973
 30
0.0
 40
0.488
100
AcDbArc
 50
223.877
 51
255.887
  0
ARC
  5
5EA
330
18
100
AcDbEntity
  8
0
  6
Continuous
 62
     7
100
AcDbCircle
 10
117.866064
 20
133.99373
 30
0.0
 40
0.8140000000000001
100
AcDbArc
 50
199.461
 51
223.919
  0
ARC
  5
5EB
330
18
100
AcDbEntity
  8
0
  6
Continuous
 62
     7
100
AcDbCircle
 10
118.192064
 20
134.10173
 30
0.0
 40
1.166
100
AcDbArc
 50
181.199
 51
199.573
  0
ARC
  5
5EC
330
18
100
AcDbEntity
  8
0
  6
Continuous
 62
     7
100
AcDbCircle
 10
118.653064
 20
134.10173
 30
0.0
 40
1.627
100
AcDbArc
 50
165.825
 51
181.241
  0
ARC
  5
5ED
330
18
100
AcDbEntity
  8
0
  6
Continuous
 62
     7
100
AcDbCircle
 10
118.653064
 20
134.10173
 30
0.0
 40
1.63
100
AcDbArc
 50
150.362
 51
165.825
  0
ARC
  5
5EE
330
18
100
AcDbEntity
  8
0
  6
Continuous
 62
     7
100
AcDbCircle
 10
118.246064
 20
134.34573
 30
0.0
 40
1.166
100
AcDbArc
 50
132.077
 51
150.338
  0
ARC
  5
5EF
330
18
100
AcDbEntity
  8
0
  6
Continuous
 62
     7
100
AcDbCircle
 10
118.029064
 20
134.58973
 30
0.0
 40
0.8140000000000001
100
AcDbArc
 50
107.65
 51
132.158
  0
ARC
  5
5F0
330
18
100
AcDbEntity
  8
0
  6
Continuous
 62
     7
100
AcDbCircle
 10
117.920064
 20
134.91573
 30
0.0
 40
0.488
100
AcDbArc
 50
75.887
 51
107.733
  0
ARC
  5
5F1
330
18
100
AcDbEntity
  8
0
  6
Continuous
 62
     7
100
AcDbCircle
 10
118.002064
 20
133.69473
 30
0.0
 40
0.488
100
AcDbArc
 50
255.887
 51
287.733
  0
ARC
  5
5F2
330
18
100
AcDbEntity
  8
0
  6
Continuous
 62
     7
100
AcDbCircle
 10
118.002064
 20
133.69473
 30
0.0
 40
0.488
100
AcDbArc
 50
223.876
 51
255.887
  0
ARC
  5
5F3
330
18
100
AcDbEntity
  8
0
  6
Continuous
 62
     7
100
AcDbCircle
 10
118.246064
 20
133.91173
 30
0.0
 40
0.8140000000000001
100
AcDbArc
 50
199.461
 51
223.919
  0
ARC
  5
5F4
330
18
100
AcDbEntity
  8
0
  6
Continuous
 62
     7
100
AcDbCircle
 10
118.571064
 20
134.02073
 30
0.0
 40
1.166
100
AcDbArc
 50
181.199
 51
199.573
  0
ARC
  5
5F5
330
18
100
AcDbEntity
  8
0
  6
Continuous
 62
     7
100
AcDbCircle
 10
119.005064
 20
134.04773
 30
0.0
 40
1.627
100
AcDbArc
 50
165.825
 51
181.241
  0
ARC
  5
5F6
330
18
100
AcDbEntity
  8
0
  6
Continuous
 62
     7
100
AcDbCircle
 10
119.005064
 20
134.04773
 30
0.0
 40
1.63
100
AcDbArc
 50
150.362
 51
165.825
  0
ARC
  5
5F7
330
18
100
AcDbEntity
  8
0
  6
Continuous
 62
     7
100
AcDbCircle
 10
118.625064
 20
134.26473
 30
0.0
 40
1.166
100
AcDbArc
 50
132.077
 51
150.338
  0
ARC
  5
5F8
330
18
100
AcDbEntity
  8
0
  6
Continuous
 62
     7
100
AcDbCircle
 10
118.381064
 20
134.50873
 30
0.0
 40
0.8140000000000001
100
AcDbArc
 50
107.65
 51
132.158
  0
LINE
  5
5F9
330
18
100
AcDbEntity
  8
0
  6
HIDDEN
100
AcDbLine
 10
102.322064
 20
139.92573
 30
0.0
 11
102.322064
 21
114.891391
 31
0.0
  0
LWPOLYLINE
  5
5FA
330
18
100
AcDbEntity
  8
0
  6
Continuous
 62
     7
100
AcDbPolyline
 90
        2
 70
     0
 43
0.0
 10
106.196064
 20
132.98273
 10
102.322064
 20
139.92573
  0
LINE
  5
5FF
330
18
100
AcDbEntity
  8
0
100
AcDbLine
 10
105.578064
 20
132.16573
 30
0.0
 11
102.322064
 21
139.92573
 31
0.0
  0
LWPOLYLINE
  5
600
330
18
100
AcDbEntity
  8
0
  6
Continuous
 62
     7
100
AcDbPolyline
 90
        2
 70
     0
 43
0.0
 10
113.925064
 20
139.16473
 10
109.748064
 20
145.90973
  0
LWPOLYLINE
  5
605
330
18
100
AcDbEntity
  8
0
  6
Continuous
 62
     7
100
AcDbPolyline
 90
        2
 70
     0
 43
0.0
 10
109.748064
 20
145.90973
 10
102.322064
 20
139.92573
  0
LINE
  5
60A
330
18
100
AcDbEntity
  8
0
  6
HIDDEN
100
AcDbLine
 10
109.748064
 20
145.90973
 30
0.0
 11
109.748064
 21
117.251126
 31
0.0
  0
LWPOLYLINE
  5
60B
330
18
100
AcDbEntity
  8
0
  6
HIDDEN
 62
     7
100
AcDbPolyline
 90
        2
 70
     0
 43
0.0
 10
122.304064
 20
131.62673
 10
121.301064
 20
134.82673
  0
LINE
  5
610
330
18
100
AcDbEntity
  8
0
100
AcDbLine
 10
122.978064
 20
131.46173
 30
0.0
 11
121.232064
 21
135.08473
 31
0.0
  0
ARC
  5
611
330
18
100
AcDbEntity
  8
0
  6
Continuous
 62
     7
100
AcDbCircle
 10
118.300064
 20
134.83373
 30
0.0
 40
0.488
100
AcDbArc
 50
43.877
 51
75.887
  0
ARC
  5
612
330
18
100
AcDbEntity
  8
0
  6
Continuous
 62
     7
100
AcDbCircle
 10
118.056064
 20
134.58973
 30
0.0
 40
0.8140000000000001
100
AcDbArc
 50
19.461
 51
43.919
  0
ARC
  5
613
330
18
100
AcDbEntity
  8
0
  6
Continuous
 62
     7
100
AcDbCircle
 10
117.731064
 20
134.48173
 30
0.0
 40
1.166
100
AcDbArc
 50
1.199
 51
19.573
  0
ARC
  5
614
330
18
100
AcDbEntity
  8
0
  6
Continuous
 62
     7
100
AcDbCircle
 10
117.270064
 20
134.48173
 30
0.0
 40
1.627
100
AcDbArc
 50
345.825
 51
1.241
  0
ARC
  5
615
330
18
100
AcDbEntity
  8
0
  6
Continuous
 62
     7
100
AcDbCircle
 10
117.270064
 20
134.48173
 30
0.0
 40
1.63
100
AcDbArc
 50
330.362
 51
345.825
  0
ARC
  5
616
330
18
100
AcDbEntity
  8
0
  6
Continuous
 62
     7
100
AcDbCircle
 10
117.676064
 20
134.26473
 30
0.0
 40
1.166
100
AcDbArc
 50
312.076
 51
330.338
  0
LWPOLYLINE
  5
617
330
18
100
AcDbEntity
  8
0
  6
Continuous
 62
     7
100
AcDbPolyline
 90
        2
 70
     0
 43
0.0
 10
160.197064
 20
78.84273
 10
162.475064
 20
80.65973000000001
  0
LWPOLYLINE
  5
61C
330
18
100
AcDbEntity
  8
0
  6
Continuous
 62
     7
100
AcDbPolyline
 90
        2
 70
     0
 43
0.0
 10
156.564064
 20
78.02873000000001
 10
158.055064
 20
79.52073
  0
LWPOLYLINE
  5
621
330
18
100
AcDbEntity
  8
0
  6
Continuous
 62
     7
100
AcDbPolyline
 90
        2
 70
     0
 43
0.0
 10
152.523064
 20
77.43273000000001
 10
162.475064
 20
81.17473000000001
  0
LWPOLYLINE
  5
626
330
18
100
AcDbEntity
  8
0
  6
Continuous
 62
     7
100
AcDbPolyline
 90
        2
 70
     0
 43
0.0
 10
162.665064
 20
69.81273
 10
162.475064
 20
81.17473000000001
  0
LWPOLYLINE
  5
62B
330
18
100
AcDbEntity
  8
0
  6
Continuous
 62
     7
100
AcDbPolyline
 90
        2
 70
     0
 43
0.0
 10
150.273064
 20
61.24373000000001
 10
153.906064
 20
61.37873
  0
LWPOLYLINE
  5
630
330
18
100
AcDbEntity
  8
0
  6
Continuous
 62
     7
100
AcDbPolyline
 90
        2
 70
     0
 43
0.0
 10
150.245064
 20
59.64373000000001
 10
153.960064
 20
59.77973000000001
  0
LWPOLYLINE
  5
635
330
18
100
AcDbEntity
  8
0
  6
Continuous
 62
     7
100
AcDbPolyline
 90
        2
 70
     0
 43
0.0
 10
150.273064
 20
64.79573000000001
 10
153.852064
 20
64.87773
  0
LWPOLYLINE
  5
63A
330
18
100
AcDbEntity
  8
0
  6
Continuous
 62
     7
100
AcDbPolyline
 90
        2
 70
     0
 43
0.0
 10
152.605064
 20
74.66673
 10
150.435064
 20
75.64273
  0
LWPOLYLINE
  5
63F
330
18
100
AcDbEntity
  8
0
  6
Continuous
 62
     7
100
AcDbPolyline
 90
        2
 70
     0
 43
0.0
 10
150.245064
 20
58.12473000000001
 10
152.903064
 20
58.09773000000001
  0
LWPOLYLINE
  5
644
330
18
100
AcDbEntity
  8
0
  6
Continuous
 62
     7
100
AcDbPolyline
 90
        2
 70
     0
 43
0.0
 10
152.903064
 20
67.12773
 10
150.734064
 20
67.72473000000001
  0
LWPOLYLINE
  5
649
330
18
100
AcDbEntity
  8
0
  6
Continuous
 62
     7
100
AcDbPolyline
 90
        2
 70
     0
 43
0.0
 10
152.822064
 20
69.05373
 10
150.679064
 20
69.67673000000001
  0
LWPOLYLINE
  5
64E
330
18
100
AcDbEntity
  8
0
  6
Continuous
 62
     7
100
AcDbPolyline
 90
        2
 70
     0
 43
0.0
 10
152.767064
 20
70.57173
 10
150.598064
 20
71.24973
  0
LWPOLYLINE
  5
653
330
18
100
AcDbEntity
  8
0
  6
Continuous
 62
     7
100
AcDbPolyline
 90
        2
 70
     0
 43
0.0
 10
152.686064
 20
72.87673000000001
 10
150.517064
 20
73.52773000000001
  0
LWPOLYLINE
  5
658
330
18
100
AcDbEntity
  8
0
  6
Continuous
 62
     7
100
AcDbPolyline
 90
        2
 70
     0
 43
0.0
 10
152.550064
 20
76.53773000000001
 10
150.381064
 20
77.37773
  0
LWPOLYLINE
  5
65D
330
18
100
AcDbEntity
  8
0
  6
Continuous
 62
     7
100
AcDbPolyline
 90
        2
 70
     0
 43
0.0
 10
150.788064
 20
66.74873000000001
 10
152.930064
 20
66.09773
  0
LWPOLYLINE
  5
662
330
18
100
AcDbEntity
  8
0
  6
Continuous
 62
     7
100
AcDbPolyline
 90
        2
 70
     0
 43
0.0
 10
150.354064
 20
78.08373
 10
152.523064
 20
77.43273000000001
  0
LWPOLYLINE
  5
667
330
18
100
AcDbEntity
  8
0
  6
Continuous
 62
     7
100
AcDbPolyline
 90
        2
 70
     0
 43
0.0
 10
150.327064
 20
65.69073
 10
154.584064
 20
65.82673
  0
LWPOLYLINE
  5
66C
330
18
100
AcDbEntity
  8
0
  6
Continuous
 62
     7
100
AcDbPolyline
 90
        2
 70
     0
 43
0.0
 10
150.273064
 20
63.76573000000001
 10
154.828064
 20
63.81973000000001
  0
LWPOLYLINE
  5
671
330
18
100
AcDbEntity
  8
0
  6
Continuous
 62
     7
100
AcDbPolyline
 90
        2
 70
     0
 43
0.0
 10
150.273064
 20
62.40973
 10
156.021064
 20
62.62673
  0
LWPOLYLINE
  5
676
330
18
100
AcDbEntity
  8
0
  6
Continuous
 62
     7
100
AcDbPolyline
 90
        2
 70
     0
 43
0.0
 10
150.245064
 20
56.98573
 10
158.164064
 20
60.34873
  0
LWPOLYLINE
  5
67B
330
18
100
AcDbEntity
  8
0
  6
Continuous
 62
     7
100
AcDbPolyline
 90
        2
 70
     0
 43
0.0
 10
141.920064
 20
60.05073
 10
142.490064
 20
60.21273000000001
  0
LWPOLYLINE
  5
680
330
18
100
AcDbEntity
  8
0
  6
Continuous
 62
     7
100
AcDbPolyline
 90
        2
 70
     0
 43
0.0
 10
139.643064
 20
60.05073
 10
141.920064
 20
60.05073
  0
LWPOLYLINE
  5
685
330
18
100
AcDbEntity
  8
0
  6
Continuous
 62
     7
100
AcDbPolyline
 90
        2
 70
     0
 43
0.0
 10
137.853064
 20
59.94173000000001
 10
139.643064
 20
60.05073
  0
LWPOLYLINE
  5
68A
330
18
100
AcDbEntity
  8
0
  6
Continuous
 62
     7
100
AcDbPolyline
 90
        2
 70
     0
 43
0.0
 10
140.293064
 20
58.45073000000001
 10
142.463064
 20
58.45073000000001
  0
LWPOLYLINE
  5
68F
330
18
100
AcDbEntity
  8
0
  6
Continuous
 62
     7
100
AcDbPolyline
 90
        2
 70
     0
 43
0.0
 10
137.772064
 20
58.39673000000001
 10
140.293064
 20
58.45073000000001
  0
LWPOLYLINE
  5
694
330
18
100
AcDbEntity
  8
0
  6
Continuous
 62
     7
100
AcDbPolyline
 90
        2
 70
     0
 43
0.0
 10
141.893064
 20
56.98573
 10
142.463064
 20
57.04073
  0
LWPOLYLINE
  5
699
330
18
100
AcDbEntity
  8
0
  6
Continuous
 62
     7
100
AcDbPolyline
 90
        2
 70
     0
 43
0.0
 10
137.907064
 20
56.63373000000001
 10
141.893064
 20
56.98573
  0
LWPOLYLINE
  5
69E
330
18
100
AcDbEntity
  8
0
  6
Continuous
 62
     7
100
AcDbPolyline
 90
        2
 70
     0
 43
0.0
 10
138.938064
 20
61.05373
 10
137.717064
 20
59.88773000000001
  0
LWPOLYLINE
  5
6A3
330
18
100
AcDbEntity
  8
0
  6
Continuous
 62
     7
100
AcDbPolyline
 90
        2
 70
     0
 43
0.0
 10
142.273064
 20
63.73873
 10
138.938064
 20
61.05373
  0
LWPOLYLINE
  5
6A8
330
18
100
AcDbEntity
  8
0
  6
Continuous
 62
     7
100
AcDbPolyline
 90
        2
 70
     0
 43
0.0
 10
146.476064
 20
66.47673
 10
142.273064
 20
63.73873
  0
LWPOLYLINE
  5
6AD
330
18
100
AcDbEntity
  8
0
  6
Continuous
 62
     7
100
AcDbPolyline
 90
        2
 70
     0
 43
0.0
 10
146.530064
 20
65.17573
 10
142.924064
 20
62.13873
  0
LWPOLYLINE
  5
6B2
330
18
100
AcDbEntity
  8
0
  6
Continuous
 62
     7
100
AcDbPolyline
 90
        2
 70
     0
 43
0.0
 10
143.005064
 20
73.85273000000001
 10
141.243064
 20
72.30773000000001
  0
LWPOLYLINE
  5
6B7
330
18
100
AcDbEntity
  8
0
  6
Continuous
 62
     7
100
AcDbPolyline
 90
        2
 70
     0
 43
0.0
 10
141.514064
 20
70.49073
 10
137.772064
 20
68.29373000000001
  0
LWPOLYLINE
  5
6BC
330
18
100
AcDbEntity
  8
0
  6
Continuous
 62
     7
100
AcDbPolyline
 90
        2
 70
     0
 43
0.0
 10
146.205064
 20
73.96173
 10
141.514064
 20
70.49073
  0
LWPOLYLINE
  5
6C1
330
18
100
AcDbEntity
  8
0
  6
Continuous
 62
     7
100
AcDbPolyline
 90
        2
 70
     0
 43
0.0
 10
141.080064
 20
68.59273
 10
138.205064
 20
66.55873000000001
  0
LWPOLYLINE
  5
6C6
330
18
100
AcDbEntity
  8
0
  6
Continuous
 62
     7
100
AcDbPolyline
 90
        2
 70
     0
 43
0.0
 10
146.259064
 20
72.17173000000001
 10
141.080064
 20
68.59273
  0
LWPOLYLINE
  5
6CB
330
18
100
AcDbEntity
  8
0
  6
Continuous
 62
     7
100
AcDbPolyline
 90
        2
 70
     0
 43
0.0
 10
146.395064
 20
68.40273000000001
 10
140.890064
 20
64.09073000000001
  0
LWPOLYLINE
  5
6D0
330
18
100
AcDbEntity
  8
0
  6
Continuous
 62
     7
100
AcDbPolyline
 90
        2
 70
     0
 43
0.0
 10
141.514064
 20
67.07373
 10
138.314064
 20
64.93173
  0
LWPOLYLINE
  5
6D5
330
18
100
AcDbEntity
  8
0
  6
Continuous
 62
     7
100
AcDbPolyline
 90
        2
 70
     0
 43
0.0
 10
146.341064
 20
70.38173000000001
 10
141.514064
 20
67.07373
  0
LWPOLYLINE
  5
6DA
330
18
100
AcDbEntity
  8
0
  6
Continuous
 62
     7
100
AcDbPolyline
 90
        2
 70
     0
 43
0.0
 10
144.551064
 20
61.10773
 10
147.751064
 20
60.64673000000001
  0
LWPOLYLINE
  5
6DF
330
18
100
AcDbEntity
  8
0
  6
Continuous
 62
     7
100
AcDbPolyline
 90
        2
 70
     0
 43
0.0
 10
144.551064
 20
61.83973
 10
142.490064
 20
60.40273000000001
  0
LWPOLYLINE
  5
6E4
330
18
100
AcDbEntity
  8
0
  6
Continuous
 62
     7
100
AcDbPolyline
 90
        2
 70
     0
 43
0.0
 10
144.524064
 20
60.29473
 10
142.463064
 20
59.01973
  0
LWPOLYLINE
  5
6E9
330
18
100
AcDbEntity
  8
0
  6
Continuous
 62
     7
100
AcDbPolyline
 90
        2
 70
     0
 43
0.0
 10
144.524064
 20
58.64073000000001
 10
142.463064
 20
57.31173
  0
LWPOLYLINE
  5
6EE
330
18
100
AcDbEntity
  8
0
  6
Continuous
 62
     7
100
AcDbPolyline
 90
        2
 70
     0
 43
0.0
 10
144.930064
 20
62.73473000000001
 10
147.778064
 20
61.81273
  0
LWPOLYLINE
  5
6F3
330
18
100
AcDbEntity
  8
0
  6
Continuous
 62
     7
100
AcDbPolyline
 90
        2
 70
     0
 43
0.0
 10
144.524064
 20
59.48073
 10
147.751064
 20
58.99273
  0
LWPOLYLINE
  5
6F8
330
18
100
AcDbEntity
  8
0
  6
Continuous
 62
     7
100
AcDbPolyline
 90
        2
 70
     0
 43
0.0
 10
144.524064
 20
58.12473000000001
 10
147.751064
 20
57.55573
  0
LWPOLYLINE
  5
6FD
330
18
100
AcDbEntity
  8
0
  6
Continuous
 62
     7
100
AcDbPolyline
 90
        2
 70
     0
 43
0.0
 10
144.524064
 20
56.60673000000001
 10
147.751064
 20
56.22673
  0
LWPOLYLINE
  5
702
330
18
100
AcDbEntity
  8
0
  6
Continuous
 62
     7
100
AcDbPolyline
 90
        2
 70
     0
 43
0.0
 10
150.273064
 20
63.49473
 10
147.778064
 20
60.80973
  0
LWPOLYLINE
  5
707
330
18
100
AcDbEntity
  8
0
  6
Continuous
 62
     7
100
AcDbPolyline
 90
        2
 70
     0
 43
0.0
 10
150.273064
 20
62.35573
 10
147.751064
 20
59.15573000000001
  0
LWPOLYLINE
  5
70C
330
18
100
AcDbEntity
  8
0
  6
Continuous
 62
     7
100
AcDbPolyline
 90
        2
 70
     0
 43
0.0
 10
150.273064
 20
60.78273000000001
 10
147.751064
 20
57.52873
  0
LWPOLYLINE
  5
711
330
18
100
AcDbEntity
  8
0
  6
Continuous
 62
     7
100
AcDbPolyline
 90
        2
 70
     0
 43
0.0
 10
148.944064
 20
73.66273000000001
 10
150.435064
 20
76.26673000000001
  0
LWPOLYLINE
  5
716
330
18
100
AcDbEntity
  8
0
  6
Continuous
 62
     7
100
AcDbPolyline
 90
        2
 70
     0
 43
0.0
 10
149.025064
 20
71.68373000000001
 10
150.489064
 20
74.28673000000001
  0
LWPOLYLINE
  5
71B
330
18
100
AcDbEntity
  8
0
  6
Continuous
 62
     7
100
AcDbPolyline
 90
        2
 70
     0
 43
0.0
 10
149.106064
 20
69.32473
 10
150.571064
 20
71.92773000000001
  0
LWPOLYLINE
  5
720
330
18
100
AcDbEntity
  8
0
  6
Continuous
 62
     7
100
AcDbPolyline
 90
        2
 70
     0
 43
0.0
 10
149.188064
 20
67.18173
 10
150.652064
 20
69.78573
  0
LWPOLYLINE
  5
725
330
18
100
AcDbEntity
  8
0
  6
Continuous
 62
     7
100
AcDbPolyline
 90
        2
 70
     0
 43
0.0
 10
149.269064
 20
64.63273000000001
 10
150.761064
 20
67.26373000000001
  0
LWPOLYLINE
  5
72A
330
18
100
AcDbEntity
  8
0
  6
Continuous
 62
     7
100
AcDbPolyline
 90
        2
 70
     0
 43
0.0
 10
146.205064
 20
73.96173
 10
148.944064
 20
73.69073
  0
LWPOLYLINE
  5
72F
330
18
100
AcDbEntity
  8
0
  6
Continuous
 62
     7
100
AcDbPolyline
 90
        2
 70
     0
 43
0.0
 10
146.259064
 20
72.17173000000001
 10
148.998064
 20
72.09073000000001
  0
LWPOLYLINE
  5
734
330
18
100
AcDbEntity
  8
0
  6
Continuous
 62
     7
100
AcDbPolyline
 90
        2
 70
     0
 43
0.0
 10
146.341064
 20
70.38173000000001
 10
149.079064
 20
70.27373
  0
LWPOLYLINE
  5
739
330
18
100
AcDbEntity
  8
0
  6
Continuous
 62
     7
100
AcDbPolyline
 90
        2
 70
     0
 43
0.0
 10
146.395064
 20
68.40273000000001
 10
149.134064
 20
68.21273000000001
  0
LWPOLYLINE
  5
73E
330
18
100
AcDbEntity
  8
0
  6
Continuous
 62
     7
100
AcDbPolyline
 90
        2
 70
     0
 43
0.0
 10
146.476064
 20
66.47673
 10
149.215064
 20
66.53173000000001
  0
LWPOLYLINE
  5
743
330
18
100
AcDbEntity
  8
0
  6
Continuous
 62
     7
100
AcDbPolyline
 90
        2
 70
     0
 43
0.0
 10
146.585064
 20
63.79273000000001
 10
149.296064
 20
63.79273000000001
  0
LWPOLYLINE
  5
748
330
18
100
AcDbEntity
  8
0
  6
Continuous
 62
     7
100
AcDbPolyline
 90
        2
 70
     0
 43
0.0
 10
146.530064
 20
65.17573
 10
149.269064
 20
65.14873
  0
LWPOLYLINE
  5
74D
330
18
100
AcDbEntity
  8
0
  6
Continuous
 62
     7
100
AcDbPolyline
 90
        2
 70
     0
 43
0.0
 10
144.524064
 20
56.11873000000001
 10
144.551064
 20
62.81673000000001
  0
LWPOLYLINE
  5
752
330
18
100
AcDbEntity
  8
0
  6
Continuous
 62
     7
100
AcDbPolyline
 90
        2
 70
     0
 43
0.0
 10
150.245064
 20
56.98573
 10
150.273064
 20
65.52773000000001
  0
LWPOLYLINE
  5
757
330
18
100
AcDbEntity
  8
0
  6
Continuous
 62
     7
100
AcDbPolyline
 90
        2
 70
     0
 43
0.0
 10
147.778064
 20
62.57273000000001
 10
148.591064
 20
63.35873
  0
LWPOLYLINE
  5
75C
330
18
100
AcDbEntity
  8
0
  6
Continuous
 62
     7
100
AcDbPolyline
 90
        2
 70
     0
 43
0.0
 10
145.961064
 20
63.43973
 10
147.778064
 20
62.57273000000001
  0
LWPOLYLINE
  5
761
330
18
100
AcDbEntity
  8
0
  6
Continuous
 62
     7
100
AcDbPolyline
 90
        2
 70
     0
 43
0.0
 10
150.354064
 20
78.08373
 10
150.788064
 20
66.74873000000001
  0
LWPOLYLINE
  5
766
330
18
100
AcDbEntity
  8
0
  6
Continuous
 62
     7
100
AcDbPolyline
 90
        2
 70
     0
 43
0.0
 10
146.151064
 20
75.04573000000001
 10
146.585064
 20
63.71073000000001
  0
LWPOLYLINE
  5
76B
330
18
100
AcDbEntity
  8
0
  6
Continuous
 62
     7
100
AcDbPolyline
 90
        2
 70
     0
 43
0.0
 10
149.323064
 20
63.25073
 10
150.788064
 20
66.74873000000001
  0
LWPOLYLINE
  5
770
330
18
100
AcDbEntity
  8
0
  6
Continuous
 62
     7
100
AcDbPolyline
 90
        2
 70
     0
 43
0.0
 10
146.585064
 20
63.71073000000001
 10
149.323064
 20
63.25073
  0
LWPOLYLINE
  5
775
330
18
100
AcDbEntity
  8
0
  6
Continuous
 62
     7
100
AcDbPolyline
 90
        2
 70
     0
 43
0.0
 10
148.917064
 20
74.58473000000001
 10
149.323064
 20
63.25073
  0
LWPOLYLINE
  5
77A
330
18
100
AcDbEntity
  8
0
  6
Continuous
 62
     7
100
AcDbPolyline
 90
        2
 70
     0
 43
0.0
 10
148.917064
 20
74.58473000000001
 10
150.354064
 20
78.08373
  0
LWPOLYLINE
  5
77F
330
18
100
AcDbEntity
  8
0
  6
Continuous
 62
     7
100
AcDbPolyline
 90
        2
 70
     0
 43
0.0
 10
146.151064
 20
75.04573000000001
 10
148.917064
 20
74.58473000000001
  0
LWPOLYLINE
  5
784
330
18
100
AcDbEntity
  8
0
  6
Continuous
 62
     7
100
AcDbPolyline
 90
        2
 70
     0
 43
0.0
 10
137.528064
 20
69.94773000000001
 10
135.494064
 20
68.67373000000001
  0
LWPOLYLINE
  5
789
330
18
100
AcDbEntity
  8
0
  6
Continuous
 62
     7
100
AcDbPolyline
 90
        2
 70
     0
 43
0.0
 10
137.148064
 20
61.65073
 10
135.331064
 20
60.40273000000001
  0
LWPOLYLINE
  5
78E
330
18
100
AcDbEntity
  8
0
  6
Continuous
 62
     7
100
AcDbPolyline
 90
        2
 70
     0
 43
0.0
 10
141.243064
 20
72.30773000000001
 10
137.528064
 20
69.94773000000001
  0
LWPOLYLINE
  5
793
330
18
100
AcDbEntity
  8
0
  6
Continuous
 62
     7
100
AcDbPolyline
 90
        2
 70
     0
 43
0.0
 10
138.205064
 20
66.55873000000001
 10
135.223064
 20
64.55173000000001
  0
LWPOLYLINE
  5
798
330
18
100
AcDbEntity
  8
0
  6
Continuous
 62
     7
100
AcDbPolyline
 90
        2
 70
     0
 43
0.0
 10
140.890064
 20
64.09073000000001
 10
137.148064
 20
61.65073
  0
LWPOLYLINE
  5
79D
330
18
100
AcDbEntity
  8
0
  6
Continuous
 62
     7
100
AcDbPolyline
 90
        2
 70
     0
 43
0.0
 10
138.314064
 20
64.93173
 10
135.277064
 20
62.73473000000001
  0
LWPOLYLINE
  5
7A2
330
18
100
AcDbEntity
  8
0
  6
Continuous
 62
     7
100
AcDbPolyline
 90
        2
 70
     0
 43
0.0
 10
135.385064
 20
58.85773
 10
146.585064
 20
63.71073000000001
  0
LWPOLYLINE
  5
7A7
330
18
100
AcDbEntity
  8
0
  6
Continuous
 62
     7
100
AcDbPolyline
 90
        2
 70
     0
 43
0.0
 10
140.212064
 20
55.25073
 10
142.463064
 20
55.27773000000001
  0
LWPOLYLINE
  5
7AC
330
18
100
AcDbEntity
  8
0
  6
Continuous
 62
     7
100
AcDbPolyline
 90
        2
 70
     0
 43
0.0
 10
137.744064
 20
53.21673000000001
 10
141.459064
 20
53.24373000000001
  0
LWPOLYLINE
  5
7B1
330
18
100
AcDbEntity
  8
0
  6
Continuous
 62
     7
100
AcDbPolyline
 90
        2
 70
     0
 43
0.0
 10
136.660064
 20
54.95273
 10
140.212064
 20
55.25073
  0
LWPOLYLINE
  5
7B6
330
18
100
AcDbEntity
  8
0
  6
Continuous
 62
     7
100
AcDbPolyline
 90
        2
 70
     0
 43
0.0
 10
144.524064
 20
56.79673
 10
142.463064
 20
55.49473
  0
LWPOLYLINE
  5
7BB
330
18
100
AcDbEntity
  8
0
  6
Continuous
 62
     7
100
AcDbPolyline
 90
        2
 70
     0
 43
0.0
 10
150.245064
 20
58.99273
 10
147.751064
 20
55.46773
  0
LWPOLYLINE
  5
7C0
330
18
100
AcDbEntity
  8
0
  6
Continuous
 62
     7
100
AcDbPolyline
 90
        2
 70
     0
 43
0.0
 10
142.463064
 20
53.67773
 10
142.490064
 20
61.92173
  0
LWPOLYLINE
  5
7C5
330
18
100
AcDbEntity
  8
0
  6
Continuous
 62
     7
100
AcDbPolyline
 90
        2
 70
     0
 43
0.0
 10
147.751064
 20
54.54573000000001
 10
147.778064
 20
62.57273000000001
  0
LWPOLYLINE
  5
7CA
330
18
100
AcDbEntity
  8
0
  6
Continuous
 62
     7
100
AcDbPolyline
 90
        2
 70
     0
 43
0.0
 10
147.751064
 20
54.54573000000001
 10
150.245064
 20
56.98573
  0
LWPOLYLINE
  5
7CF
330
18
100
AcDbEntity
  8
0
  6
Continuous
 62
     7
100
AcDbPolyline
 90
        2
 70
     0
 43
0.0
 10
144.524064
 20
56.11873000000001
 10
147.751064
 20
54.54573000000001
  0
LWPOLYLINE
  5
7D4
330
18
100
AcDbEntity
  8
0
  6
Continuous
 62
     7
100
AcDbPolyline
 90
        2
 70
     0
 43
0.0
 10
142.463064
 20
53.67773
 10
144.524064
 20
56.11873000000001
  0
LWPOLYLINE
  5
7D9
330
18
100
AcDbEntity
  8
0
  6
Continuous
 62
     7
100
AcDbPolyline
 90
        2
 70
     0
 43
0.0
 10
154.584064
 20
65.82673
 10
157.730064
 20
65.98873
  0
LWPOLYLINE
  5
7DE
330
18
100
AcDbEntity
  8
0
  6
Continuous
 62
     7
100
AcDbPolyline
 90
        2
 70
     0
 43
0.0
 10
157.323064
 20
67.29073000000001
 10
157.621064
 20
67.29073000000001
  0
LWPOLYLINE
  5
7E3
330
18
100
AcDbEntity
  8
0
  6
Continuous
 62
     7
100
AcDbPolyline
 90
        2
 70
     0
 43
0.0
 10
155.804064
 20
67.18173
 10
157.323064
 20
67.29073000000001
  0
LWPOLYLINE
  5
7E8
330
18
100
AcDbEntity
  8
0
  6
Continuous
 62
     7
100
AcDbPolyline
 90
        2
 70
     0
 43
0.0
 10
154.828064
 20
63.81973000000001
 10
157.892064
 20
63.73873
  0
LWPOLYLINE
  5
7ED
330
18
100
AcDbEntity
  8
0
  6
Continuous
 62
     7
100
AcDbPolyline
 90
        2
 70
     0
 43
0.0
 10
156.021064
 20
62.62673
 10
157.974064
 20
62.89773
  0
LWPOLYLINE
  5
7F2
330
18
100
AcDbEntity
  8
0
  6
Continuous
 62
     7
100
AcDbPolyline
 90
        2
 70
     0
 43
0.0
 10
157.838064
 20
60.99973000000001
 10
158.136064
 20
60.99973000000001
  0
LWPOLYLINE
  5
7F7
330
18
100
AcDbEntity
  8
0
  6
Continuous
 62
     7
100
AcDbPolyline
 90
        2
 70
     0
 43
0.0
 10
161.418064
 20
70.08373
 10
162.638064
 20
70.92473000000001
  0
LWPOLYLINE
  5
7FC
330
18
100
AcDbEntity
  8
0
  6
Continuous
 62
     7
100
AcDbPolyline
 90
        2
 70
     0
 43
0.0
 10
160.224064
 20
68.86373
 10
161.418064
 20
70.08373
  0
LWPOLYLINE
  5
801
330
18
100
AcDbEntity
  8
0
  6
Continuous
 62
     7
100
AcDbPolyline
 90
        2
 70
     0
 43
0.0
 10
158.082064
 20
75.23573
 10
160.794064
 20
77.43273000000001
  0
LWPOLYLINE
  5
806
330
18
100
AcDbEntity
  8
0
  6
Continuous
 62
     7
100
AcDbPolyline
 90
        2
 70
     0
 43
0.0
 10
161.174064
 20
75.80573000000001
 10
162.557064
 20
76.72773000000001
  0
LWPOLYLINE
  5
80B
330
18
100
AcDbEntity
  8
0
  6
Continuous
 62
     7
100
AcDbPolyline
 90
        2
 70
     0
 43
0.0
 10
158.950064
 20
74.01573000000001
 10
161.174064
 20
75.80573000000001
  0
LWPOLYLINE
  5
810
330
18
100
AcDbEntity
  8
0
  6
Continuous
 62
     7
100
AcDbPolyline
 90
        2
 70
     0
 43
0.0
 10
160.767064
 20
74.12373000000001
 10
162.584064
 20
75.31773000000001
  0
LWPOLYLINE
  5
815
330
18
100
AcDbEntity
  8
0
  6
Continuous
 62
     7
100
AcDbPolyline
 90
        2
 70
     0
 43
0.0
 10
157.513064
 20
71.52073
 10
160.767064
 20
74.12373000000001
  0
LWPOLYLINE
  5
81A
330
18
100
AcDbEntity
  8
0
  6
Continuous
 62
     7
100
AcDbPolyline
 90
        2
 70
     0
 43
0.0
 10
159.709064
 20
70.68073000000001
 10
162.611064
 20
72.60573000000001
  0
LWPOLYLINE
  5
81F
330
18
100
AcDbEntity
  8
0
  6
Continuous
 62
     7
100
AcDbPolyline
 90
        2
 70
     0
 43
0.0
 10
158.164064
 20
60.34873
 10
157.594064
 20
67.77873000000001
  0
LWPOLYLINE
  5
824
330
18
100
AcDbEntity
  8
0
  6
Continuous
 62
     7
100
AcDbPolyline
 90
        2
 70
     0
 43
0.0
 10
152.550064
 20
76.59173
 10
154.150064
 20
78.05573000000001
  0
LWPOLYLINE
  5
829
330
18
100
AcDbEntity
  8
0
  6
Continuous
 62
     7
100
AcDbPolyline
 90
        2
 70
     0
 43
0.0
 10
152.523064
 20
77.43273000000001
 10
152.930064
 20
66.09773
  0
LWPOLYLINE
  5
82E
330
18
100
AcDbEntity
  8
0
  6
Continuous
 62
     7
100
AcDbPolyline
 90
        2
 70
     0
 43
0.0
 10
153.906064
 20
61.37873
 10
157.838064
 20
60.99973000000001
  0
LWPOLYLINE
  5
833
330
18
100
AcDbEntity
  8
0
  6
Continuous
 62
     7
100
AcDbPolyline
 90
        2
 70
     0
 43
0.0
 10
153.960064
 20
59.77973000000001
 10
156.808064
 20
59.75173
  0
LWPOLYLINE
  5
838
330
18
100
AcDbEntity
  8
0
  6
Continuous
 62
     7
100
AcDbPolyline
 90
        2
 70
     0
 43
0.0
 10
153.852064
 20
64.87773
 10
157.784064
 20
65.12173
  0
LWPOLYLINE
  5
83D
330
18
100
AcDbEntity
  8
0
  6
Continuous
 62
     7
100
AcDbPolyline
 90
        2
 70
     0
 43
0.0
 10
152.686064
 20
72.87673000000001
 10
157.838064
 20
76.99873000000001
  0
LWPOLYLINE
  5
842
330
18
100
AcDbEntity
  8
0
  6
Continuous
 62
     7
100
AcDbPolyline
 90
        2
 70
     0
 43
0.0
 10
152.605064
 20
74.66673
 10
156.564064
 20
78.02873000000001
  0
LWPOLYLINE
  5
847
330
18
100
AcDbEntity
  8
0
  6
Continuous
 62
     7
100
AcDbPolyline
 90
        2
 70
     0
 43
0.0
 10
152.767064
 20
70.57173
 10
158.082064
 20
75.23573
  0
LWPOLYLINE
  5
84C
330
18
100
AcDbEntity
  8
0
  6
Continuous
 62
     7
100
AcDbPolyline
 90
        2
 70
     0
 43
0.0
 10
152.822064
 20
69.05373
 10
158.950064
 20
74.01573000000001
  0
LWPOLYLINE
  5
851
330
18
100
AcDbEntity
  8
0
  6
Continuous
 62
     7
100
AcDbPolyline
 90
        2
 70
     0
 43
0.0
 10
152.903064
 20
67.12773
 10
157.513064
 20
71.52073
  0
LWPOLYLINE
  5
856
330
18
100
AcDbEntity
  8
0
  6
Continuous
 62
     7
100
AcDbPolyline
 90
        2
 70
     0
 43
0.0
 10
154.232064
 20
66.58573
 10
159.709064
 20
70.68073000000001
  0
LWPOLYLINE
  5
85B
330
18
100
AcDbEntity
  8
0
  6
Continuous
 62
     7
100
AcDbPolyline
 90
        2
 70
     0
 43
0.0
 10
152.930064
 20
66.09773
 10
162.665064
 20
69.81273
  0
LWPOLYLINE
  5
860
330
18
100
AcDbEntity
  8
0
  6
Continuous
 62
     7
100
AcDbPolyline
 90
        2
 70
     0
 43
0.0
 10
157.838064
 20
76.99873000000001
 10
160.197064
 20
78.84273
  0
LWPOLYLINE
  5
865
330
18
100
AcDbEntity
  8
0
  6
Continuous
 62
     7
100
AcDbPolyline
 90
        2
 70
     0
 43
0.0
 10
160.794064
 20
77.43273000000001
 10
162.529064
 20
78.62573
  0
LWPOLYLINE
  5
86A
330
18
100
AcDbEntity
  8
0
  6
Continuous
 62
     7
100
AcDbPolyline
 90
        2
 70
     0
 43
0.0
 10
162.231064
 20
128.60273
 10
161.851064
 20
136.05973
  0
LWPOLYLINE
  5
86F
330
18
100
AcDbEntity
  8
0
  6
Continuous
 62
     7
100
AcDbPolyline
 90
        2
 70
     0
 43
0.0
 10
163.289064
 20
125.21273
 10
162.475064
 20
123.63973
  0
LWPOLYLINE
  5
874
330
18
100
AcDbEntity
  8
0
  6
Continuous
 62
     7
100
AcDbPolyline
 90
        2
 70
     0
 43
0.0
 10
160.577064
 20
125.94473
 10
163.289064
 20
125.21273
  0
LWPOLYLINE
  5
879
330
18
100
AcDbEntity
  8
0
  6
Continuous
 62
     7
100
AcDbPolyline
 90
        2
 70
     0
 43
0.0
 10
162.231064
 20
128.60273
 10
160.577064
 20
125.94473
  0
LWPOLYLINE
  5
87E
330
18
100
AcDbEntity
  8
0
  6
Continuous
 62
     7
100
AcDbPolyline
 90
        2
 70
     0
 43
0.0
 10
162.882064
 20
115.77573
 10
162.475064
 20
123.63973
  0
LWPOLYLINE
  5
883
330
18
100
AcDbEntity
  8
0
  6
Continuous
 62
     7
100
AcDbPolyline
 90
        2
 70
     0
 43
0.0
 10
155.289064
 20
139.09673
 10
138.965064
 20
133.34773
  0
LWPOLYLINE
  5
888
330
18
100
AcDbEntity
  8
0
  6
Continuous
 62
     7
100
AcDbPolyline
 90
        2
 70
     0
 43
0.0
 10
145.120064
 20
153.84773
 10
144.117064
 20
153.35973
  0
LWPOLYLINE
  5
88D
330
18
100
AcDbEntity
  8
0
  6
Continuous
 62
     7
100
AcDbPolyline
 90
        2
 70
     0
 43
0.0
 10
146.178064
 20
153.54973
 10
144.090064
 20
152.51973
  0
LWPOLYLINE
  5
892
330
18
100
AcDbEntity
  8
0
  6
Continuous
 62
     7
100
AcDbPolyline
 90
        2
 70
     0
 43
0.0
 10
147.154064
 20
153.27873
 10
144.144064
 20
154.11973
  0
LWPOLYLINE
  5
897
330
18
100
AcDbEntity
  8
0
  6
Continuous
 62
     7
100
AcDbPolyline
 90
        2
 70
     0
 43
0.0
 10
147.154064
 20
153.27873
 10
146.829064
 20
150.64873
  0
LWPOLYLINE
  5
89C
330
18
100
AcDbEntity
  8
0
  6
Continuous
 62
     7
100
AcDbPolyline
 90
        2
 70
     0
 43
0.0
 10
144.063064
 20
151.75973
 10
147.154064
 20
153.27873
  0
LWPOLYLINE
  5
8A1
330
18
100
AcDbEntity
  8
0
  6
Continuous
 62
     7
100
AcDbPolyline
 90
        2
 70
     0
 43
0.0
 10
144.171064
 20
154.71573
 10
144.063064
 20
151.75973
  0
LWPOLYLINE
  5
8A6
330
18
100
AcDbEntity
  8
0
  6
Continuous
 62
     7
100
AcDbPolyline
 90
        2
 70
     0
 43
0.0
 10
151.222064
 20
143.86873
 10
146.829064
 20
150.64873
  0
LWPOLYLINE
  5
8AB
330
18
100
AcDbEntity
  8
0
  6
Continuous
 62
     7
100
AcDbPolyline
 90
        2
 70
     0
 43
0.0
 10
161.851064
 20
136.05973
 10
155.289064
 20
139.09673
  0
LWPOLYLINE
  5
8B0
330
18
100
AcDbEntity
  8
0
  6
Continuous
 62
     7
100
AcDbPolyline
 90
        2
 70
     0
 43
0.0
 10
139.968064
 20
161.16973
 10
132.782064
 20
163.42073
  0
TEXT
  5
8B5
330
18
100
AcDbEntity
  8
0
100
AcDbText
 10
18.22352904761907
 20
45.193955
 30
0.0
 40
5.0
  1
14-10d EACH STRAP
 72
     2
 11
99.17591
 21
45.193955
 31
0.0
100
AcDbText
  0
ENDSEC
  0
SECTION
  2
OBJECTS
  0
DICTIONARY
  5
C
330
0
100
AcDbDictionary
281
     1
  3
ACAD_COLOR
350
8BB
  3
ACAD_GROUP
350
D
  3
ACAD_LAYOUT
350
15
  3
ACAD_MATERIAL
350
8BD
  3
ACAD_MLINESTYLE
350
12
  3
ACAD_PLOTSETTINGS
350
14
  3
ACAD_PLOTSTYLENAME
350
E
  3
ACDBHEADERROUNDTRIPXREC
350
8BA
  0
DICTIONARY
  5
8BB
102
{ACAD_REACTORS
330
C
102
}
330
C
100
AcDbDictionary
281
     1
  0
DICTIONARY
  5
D
102
{ACAD_REACTORS
330
C
102
}
330
C
100
AcDbDictionary
281
     1
  0
DICTIONARY
  5
15
102
{ACAD_REACTORS
330
C
102
}
330
C
100
AcDbDictionary
281
     1
  3
Layout1
350
17
  3
Model
350
19
  0
DICTIONARY
  5
8BD
102
{ACAD_REACTORS
330
C
102
}
330
C
100
AcDbDictionary
281
     1
  0
DICTIONARY
  5
12
102
{ACAD_REACTORS
330
C
102
}
330
C
100
AcDbDictionary
281
     1
  3
Standard
350
13
  0
DICTIONARY
  5
14
102
{ACAD_REACTORS
330
C
102
}
330
C
100
AcDbDictionary
281
     1
  0
ACDBDICTIONARYWDFLT
  5
E
102
{ACAD_REACTORS
330
C
102
}
330
C
100
AcDbDictionary
281
     1
  3
Normal
350
F
100
AcDbDictionaryWithDefault
340
F
  0
DICTIONARY
  5
8BA
102
{ACAD_REACTORS
330
C
102
}
330
C
100
AcDbDictionary
281
     1
  3
COLORDICT
350
8BC
  3
MATERIALDICT
350
8BE
  0
LAYOUT
  5
17
102
{ACAD_REACTORS
330
15
102
}
102
{ACAD_XDICTIONARY
360
8BF
102
}
330
15
100
AcDbPlotSettings
  1

  2

  4

  6

 40
0.0
 41
0.0
 42
0.0
 43
0.0
 44
0.0
 45
0.0
 46
0.0
 47
0.0
 48
0.0
 49
0.0
140
0.0
141
0.0
142
1.0
143
1.0
 70
   688
 72
     0
 73
     0
 74
     5
  7

 75
    16
147
1.0
148
0.0
149
0.0
100
AcDbLayout
  1
Layout1
 70
     1
 71
     1
 10
0.0
 20
0.0
 11
12.0
 21
9.0
 12
0.0
 22
0.0
 32
0.0
 14
1.000000000000000E+20
 24
1.000000000000000E+20
 34
1.000000000000000E+20
 15
-1.000000000000000E+20
 25
-1.000000000000000E+20
 35
-1.000000000000000E+20
146
0.0
 13
0.0
 23
0.0
 33
0.0
 16
1.0
 26
0.0
 36
0.0
 17
0.0
 27
1.0
 37
0.0
 76
     0
330
16
  0
LAYOUT
  5
19
102
{ACAD_REACTORS
330
15
102
}
102
{ACAD_XDICTIONARY
360
8C1
102
}
330
15
100
AcDbPlotSettings
  1

  2

  4

  6

 40
0.0
 41
0.0
 42
0.0
 43
0.0
 44
0.0
 45
0.0
 46
0.0
 47
0.0
 48
0.0
 49
0.0
140
0.0
141
0.0
142
1.0
143
1.0
 70
  1712
 72
     0
 73
     0
 74
     0
  7

 75
     0
147
1.0
148
0.0
149
0.0
100
AcDbLayout
  1
Model
 70
     1
 71
     0
 10
0.0
 20
0.0
 11
0.0
 21
0.0
 12
0.0
 22
0.0
 32
0.0
 14
0.0
 24
0.0
 34
0.0
 15
0.0
 25
0.0
 35
0.0
146
0.0
 13
0.0
 23
0.0
 33
0.0
 16
1.0
 26
0.0
 36
0.0
 17
0.0
 27
1.0
 37
0.0
 76
     0
330
18
  0
MLINESTYLE
  5
13
102
{ACAD_REACTORS
330
12
102
}
330
12
100
AcDbMlineStyle
  2
Standard
 70
     0
  3

 62
   256
 51
90.0
 52
90.0
 71
     2
 49
0.5
 62
   256
  6
BYLAYER
 49
-0.5
 62
   256
  6
BYLAYER
  0
ACDBPLACEHOLDER
  5
F
102
{ACAD_REACTORS
330
E
102
}
330
E
  0
XRECORD
  5
8BC
102
{ACAD_REACTORS
330
8BA
102
}
330
8BA
100
AcDbXrecord
340
8BB
  0
XRECORD
  5
8BE
102
{ACAD_REACTORS
330
8BA
102
}
330
8BA
100
AcDbXrecord
340
8BD
  0
DICTIONARY
  5
8BF
330
17
100
AcDbDictionary
280
     1
281
     1
  3
ACAD_XREC_ROUNDTRIP
360
8C0
  0
DICTIONARY
  5
8C1
330
19
100
AcDbDictionary
280
     1
281
     1
  3
ACAD_XREC_ROUNDTRIP
360
8C2
  0
XRECORD
  5
8C0
102
{ACAD_REACTORS
330
8BF
102
}
330
8BF
100
AcDbXrecord
102
SHADEPLOT
 70
     0
102
SHADEPLOTRESLEVEL
 70
     0
102
SHADEPLOTCUSTOMDPI
 70
     0
  0
XRECORD
  5
8C2
102
{ACAD_REACTORS
330
8C1
102
}
330
8C1
100
AcDbXrecord
102
SHADEPLOT
 70
     0
102
SHADEPLOTRESLEVEL
 70
     0
102
SHADEPLOTCUSTOMDPI
 70
     0
  0
ENDSEC
  0
EOF
