  0
SECTION
  2
HEADER
  9
$ACADVER
  1
AC1015
  9
$ACADMAINTVER
 70
     6
  9
$DWGCODEPAGE
  3
ASCII
  9
$INSBASE
 10
0.0
 20
0.0
 30
0.0
  9
$EXTMIN
 10
0.2430818465434502
 20
0.8023359999999999
 30
0.0
  9
$EXTMAX
 10
9.611658857142853
 20
10.245367
 30
0.0
  9
$LIMMIN
 10
0.0
 20
0.0
  9
$LIMMAX
 10
8.5
 20
11.0
  9
$ORTHOMODE
 70
     0
  9
$REGENMODE
 70
     1
  9
$FILLMODE
 70
     1
  9
$QTEXTMODE
 70
     0
  9
$MIRRTEXT
 70
     1
  9
$LTSCALE
 40
0.25
  9
$ATTMODE
 70
     1
  9
$TEXTSIZE
 40
0.2
  9
$TRACEWID
 40
0.05
  9
$TEXTSTYLE
  7
STANDARD
  9
$CLAYER
  8
0
  9
$CELTYPE
  6
ByLayer
  9
$CECOLOR
 62
   256
  9
$CELTSCALE
 40
1.0
  9
$DISPSILH
 70
     0
  9
$DIMSCALE
 40
1.0
  9
$DIMASZ
 40
0.1
  9
$DIMEXO
 40
0.0625
  9
$DIMDLI
 40
0.38
  9
$DIMRND
 40
0.0
  9
$DIMDLE
 40
0.0
  9
$DIMEXE
 40
0.05
  9
$DIMTP
 40
0.0
  9
$DIMTM
 40
0.0
  9
$DIMTXT
 40
0.1
  9
$DIMCEN
 40
0.09
  9
$DIMTSZ
 40
0.0
  9
$DIMTOL
 70
     0
  9
$DIMLIM
 70
     0
  9
$DIMTIH
 70
     1
  9
$DIMTOH
 70
     1
  9
$DIMSE1
 70
     0
  9
$DIMSE2
 70
     0
  9
$DIMTAD
 70
     0
  9
$DIMZIN
 70
     0
  9
$DIMBLK
  1

  9
$DIMASO
 70
     1
  9
$DIMSHO
 70
     1
  9
$DIMPOST
  1

  9
$DIMAPOST
  1

  9
$DIMALT
 70
     0
  9
$DIMALTD
 70
     2
  9
$DIMALTF
 40
25.4
  9
$DIMLFAC
 40
1.0
  9
$DIMTOFL
 70
     0
  9
$DIMTVP
 40
0.0
  9
$DIMTIX
 70
     0
  9
$DIMSOXD
 70
     0
  9
$DIMSAH
 70
     0
  9
$DIMBLK1
  1

  9
$DIMBLK2
  1

  9
$DIMSTYLE
  2
Standard
  9
$DIMCLRD
 70
     0
  9
$DIMCLRE
 70
     0
  9
$DIMCLRT
 70
     0
  9
$DIMTFAC
 40
1.0
  9
$DIMGAP
 40
0.09
  9
$DIMJUST
 70
     0
  9
$DIMSD1
 70
     0
  9
$DIMSD2
 70
     0
  9
$DIMTOLJ
 70
     1
  9
$DIMTZIN
 70
     0
  9
$DIMALTZ
 70
     0
  9
$DIMALTTZ
 70
     0
  9
$DIMUPT
 70
     0
  9
$DIMDEC
 70
     4
  9
$DIMTDEC
 70
     4
  9
$DIMALTU
 70
     2
  9
$DIMALTTD
 70
     2
  9
$DIMTXSTY
  7
STANDARD
  9
$DIMAUNIT
 70
     0
  9
$DIMADEC
 70
     0
  9
$DIMALTRND
 40
0.0
  9
$DIMAZIN
 70
     0
  9
$DIMDSEP
 70
    46
  9
$DIMATFIT
 70
     3
  9
$DIMFRAC
 70
     0
  9
$DIMLDRBLK
  1

  9
$DIMLUNIT
 70
     2
  9
$DIMLWD
 70
    -2
  9
$DIMLWE
 70
    -2
  9
$DIMTMOVE
 70
     0
  9
$LUNITS
 70
     2
  9
$LUPREC
 70
     4
  9
$SKETCHINC
 40
0.1
  9
$FILLETRAD
 40
0.0
  9
$AUNITS
 70
     0
  9
$AUPREC
 70
     0
  9
$MENU
  1
acad
  9
$ELEVATION
 40
0.0
  9
$PELEVATION
 40
0.0
  9
$THICKNESS
 40
0.0
  9
$LIMCHECK
 70
     0
  9
$CHAMFERA
 40
0.0
  9
$CHAMFERB
 40
0.0
  9
$CHAMFERC
 40
1.0
  9
$CHAMFERD
 40
0.0
  9
$SKPOLY
 70
     0
  9
$TDCREATE
 40
2453955.56114544
  9
$TDUCREATE
 40
2453955.894478773
  9
$TDUPDATE
 40
2453955.602812118
  9
$TDUUPDATE
 40
2453955.894478785
  9
$TDINDWG
 40
0.0000000116
  9
$TDUSRTIMER
 40
0.0000000116
  9
$USRTIMER
 70
     1
  9
$ANGBASE
 50
0.0
  9
$ANGDIR
 70
     0
  9
$PDMODE
 70
     0
  9
$PDSIZE
 40
0.0
  9
$PLINEWID
 40
0.0
  9
$SPLFRAME
 70
     0
  9
$SPLINETYPE
 70
     6
  9
$SPLINESEGS
 70
     8
  9
$HANDSEED
  5
AED
  9
$SURFTAB1
 70
     6
  9
$SURFTAB2
 70
     6
  9
$SURFTYPE
 70
     6
  9
$SURFU
 70
     6
  9
$SURFV
 70
     6
  9
$UCSBASE
  2

  9
$UCSNAME
  2

  9
$UCSORG
 10
0.0
 20
0.0
 30
0.0
  9
$UCSXDIR
 10
1.0
 20
0.0
 30
0.0
  9
$UCSYDIR
 10
0.0
 20
1.0
 30
0.0
  9
$UCSORTHOREF
  2

  9
$UCSORTHOVIEW
 70
     0
  9
$UCSORGTOP
 10
0.0
 20
0.0
 30
0.0
  9
$UCSORGBOTTOM
 10
0.0
 20
0.0
 30
0.0
  9
$UCSORGLEFT
 10
0.0
 20
0.0
 30
0.0
  9
$UCSORGRIGHT
 10
0.0
 20
0.0
 30
0.0
  9
$UCSORGFRONT
 10
0.0
 20
0.0
 30
0.0
  9
$UCSORGBACK
 10
0.0
 20
0.0
 30
0.0
  9
$PUCSBASE
  2

  9
$PUCSNAME
  2

  9
$PUCSORG
 10
0.0
 20
0.0
 30
0.0
  9
$PUCSXDIR
 10
1.0
 20
0.0
 30
0.0
  9
$PUCSYDIR
 10
0.0
 20
1.0
 30
0.0
  9
$PUCSORTHOREF
  2

  9
$PUCSORTHOVIEW
 70
     0
  9
$PUCSORGTOP
 10
0.0
 20
0.0
 30
0.0
  9
$PUCSORGBOTTOM
 10
0.0
 20
0.0
 30
0.0
  9
$PUCSORGLEFT
 10
0.0
 20
0.0
 30
0.0
  9
$PUCSORGRIGHT
 10
0.0
 20
0.0
 30
0.0
  9
$PUCSORGFRONT
 10
0.0
 20
0.0
 30
0.0
  9
$PUCSORGBACK
 10
0.0
 20
0.0
 30
0.0
  9
$USERI1
 70
     0
  9
$USERI2
 70
     0
  9
$USERI3
 70
     0
  9
$USERI4
 70
     0
  9
$USERI5
 70
     0
  9
$USERR1
 40
0.0
  9
$USERR2
 40
0.0
  9
$USERR3
 40
0.0
  9
$USERR4
 40
0.0
  9
$USERR5
 40
0.0
  9
$WORLDVIEW
 70
     1
  9
$SHADEDGE
 70
     3
  9
$SHADEDIF
 70
    70
  9
$TILEMODE
 70
     1
  9
$MAXACTVP
 70
    16
  9
$PINSBASE
 10
0.0
 20
0.0
 30
0.0
  9
$PLIMCHECK
 70
     0
  9
$PEXTMIN
 10
1.000000000000000E+20
 20
1.000000000000000E+20
 30
1.000000000000000E+20
  9
$PEXTMAX
 10
-1.000000000000000E+20
 20
-1.000000000000000E+20
 30
-1.000000000000000E+20
  9
$PLIMMIN
 10
0.0
 20
0.0
  9
$PLIMMAX
 10
12.0
 20
9.0
  9
$UNITMODE
 70
     0
  9
$VISRETAIN
 70
     0
  9
$PLINEGEN
 70
     0
  9
$PSLTSCALE
 70
     1
  9
$TREEDEPTH
 70
  3020
  9
$CMLSTYLE
  2
Standard
  9
$CMLJUST
 70
     0
  9
$CMLSCALE
 40
1.0
  9
$PROXYGRAPHICS
 70
     1
  9
$MEASUREMENT
 70
     0
  9
$CELWEIGHT
370
    -1
  9
$ENDCAPS
280
     0
  9
$JOINSTYLE
280
     0
  9
$LWDISPLAY
290
     0
  9
$INSUNITS
 70
     1
  9
$HYPERLINKBASE
  1

  9
$STYLESHEET
  1

  9
$XEDIT
290
     1
  9
$CEPSNTYPE
380
     0
  9
$PSTYLEMODE
290
     0
  9
$FINGERPRINTGUID
  2
{FAEB1C30-E019-11D5-929B-00C0DF256EC4}
  9
$VERSIONGUID
  2
{FAEB1C32-E019-11D5-929B-00C0DF256EC4}
  9
$EXTNAMES
290
     1
  9
$PSVPSCALE
 40
0.0
  9
$OLESTARTUP
290
     0
  0
ENDSEC
  0
SECTION
  2
CLASSES
  0
CLASS
  1
ACDBDICTIONARYWDFLT
  2
AcDbDictionaryWithDefault
  3
AutoCAD 2000
 90
        0
280
     0
281
     0
  0
CLASS
  1
ACDBPLACEHOLDER
  2
AcDbPlaceHolder
  3
ObjectDBX Classes
 90
        0
280
     0
281
     0
  0
CLASS
  1
LAYOUT
  2
AcDbLayout
  3
ObjectDBX Classes
 90
        0
280
     0
281
     0
  0
ENDSEC
  0
SECTION
  2
TABLES
  0
TABLE
  2
VPORT
  5
8
330
0
100
AcDbSymbolTable
 70
     2
  0
VPORT
  5
1F
330
8
100
AcDbSymbolTableRecord
100
AcDbViewportTableRecord
  2
*ACTIVE
 70
     0
 10
0.0
 20
0.0
 11
1.0
 21
1.0
 12
7.11323501709623
 22
5.743969123056227
 13
0.0
 23
0.0
 14
1.0
 24
1.0
 15
0.0
 25
0.0
 16
0.0
 26
0.0
 36
1.0
 17
0.0
 27
0.0
 37
0.0
 40
11.02249787952421
 41
0.6891025641025641
 42
50.0
 43
0.0
 44
0.0
 50
0.0
 51
0.0
 71
     0
 72
  2000
 73
     1
 74
     0
 75
     0
 76
     0
 77
     0
 78
     0
281
     0
 65
     1
110
0.0
120
0.0
130
0.0
111
1.0
121
0.0
131
0.0
112
0.0
122
1.0
132
0.0
 79
     0
146
0.0
  0
ENDTAB
  0
TABLE
  2
LTYPE
  5
5
330
0
100
AcDbSymbolTable
 70
     2
  0
LTYPE
  5
10
330
5
100
AcDbSymbolTableRecord
100
AcDbLinetypeTableRecord
  2
ByBlock
 70
     0
  3

 72
    65
 73
     0
 40
0.0
  0
LTYPE
  5
11
330
5
100
AcDbSymbolTableRecord
100
AcDbLinetypeTableRecord
  2
ByLayer
 70
     0
  3

 72
    65
 73
     0
 40
0.0
  0
LTYPE
  5
1B
330
5
100
AcDbSymbolTableRecord
100
AcDbLinetypeTableRecord
  2
CONTINUOUS
 70
     0
  3
Solid line
 72
    65
 73
     0
 40
0.0
  0
LTYPE
  5
1C
330
5
100
AcDbSymbolTableRecord
100
AcDbLinetypeTableRecord
  2
HIDDEN
 70
     0
  3
__ __ __ __ __ __ __ __ __ __ __ __ __ __ __ __
 72
    65
 73
     2
 40
0.375
 49
0.25
 74
     0
 49
-0.125
 74
     0
  0
ENDTAB
  0
TABLE
  2
LAYER
  5
2
330
0
100
AcDbSymbolTable
 70
     1
  0
LAYER
  5
1D
330
2
100
AcDbSymbolTableRecord
100
AcDbLayerTableRecord
  2
0
 70
     0
 62
     7
  6
CONTINUOUS
370
    -3
390
F
  0
ENDTAB
  0
TABLE
  2
STYLE
  5
3
330
0
100
AcDbSymbolTable
 70
     1
  0
STYLE
  5
22
330
3
100
AcDbSymbolTableRecord
100
AcDbTextStyleTableRecord
  2
STANDARD
 70
     0
 40
0.0
 41
1.0
 50
0.0
 71
     0
 42
0.2
  3
ROMANS.SHX
  4

  0
ENDTAB
  0
TABLE
  2
VIEW
  5
6
330
0
100
AcDbSymbolTable
 70
     1
  0
VIEW
  5
21
330
6
100
AcDbSymbolTableRecord
100
AcDbViewTableRecord
  2
1
 70
     0
 40
11.0
 10
7.225941000000001
 20
5.5
 41
14.451883
 11
0.0
 21
0.0
 31
1.0
 12
0.0
 22
0.0
 32
0.0
 42
50.0
 43
0.0
 44
0.0
 50
0.0
 71
     0
281
     0
 72
     0
  0
ENDTAB
  0
TABLE
  2
UCS
  5
7
330
0
100
AcDbSymbolTable
 70
     0
  0
ENDTAB
  0
TABLE
  2
APPID
  5
9
330
0
100
AcDbSymbolTable
 70
     1
  0
APPID
  5
20
330
9
100
AcDbSymbolTableRecord
100
AcDbRegAppTableRecord
  2
ACAD
 70
     0
  0
ENDTAB
  0
TABLE
  2
DIMSTYLE
  5
A
330
0
100
AcDbSymbolTable
 70
     1
100
AcDbDimStyleTable
  0
DIMSTYLE
105
23
330
A
100
AcDbSymbolTableRecord
100
AcDbDimStyleTableRecord
  2
Standard
 70
     0
  3

  4

340
22
  0
ENDTAB
  0
TABLE
  2
BLOCK_RECORD
  5
1
330
0
100
AcDbSymbolTable
 70
     0
  0
BLOCK_RECORD
  5
18
330
1
100
AcDbSymbolTableRecord
100
AcDbBlockTableRecord
  2
*Model_Space
340
19
  0
BLOCK_RECORD
  5
16
330
1
100
AcDbSymbolTableRecord
100
AcDbBlockTableRecord
  2
*Paper_Space
340
17
  0
ENDTAB
  0
ENDSEC
  0
SECTION
  2
BLOCKS
  0
BLOCK
  5
AE2
330
18
100
AcDbEntity
  8
0
100
AcDbBlockBegin
  2
*Model_Space
 70
     0
 10
0.0
 20
0.0
 30
0.0
  3
*Model_Space
  1

  4

  0
ENDBLK
  5
AE3
330
18
100
AcDbEntity
  8
0
100
AcDbBlockEnd
  0
BLOCK
  5
AE0
330
16
100
AcDbEntity
 67
     1
  8
0
100
AcDbBlockBegin
  2
*Paper_Space
 70
     0
 10
0.0
 20
0.0
 30
0.0
  3
*Paper_Space
  1

  4

  0
ENDBLK
  5
AE1
330
16
100
AcDbEntity
 67
     1
  8
0
100
AcDbBlockEnd
  0
ENDSEC
  0
SECTION
  2
ENTITIES
  0
LINE
  5
24
330
18
100
AcDbEntity
  8
0
100
AcDbLine
 10
2.183476
 20
3.112764
 30
0.0
 11
2.183476
 21
1.328695
 31
0.0
  0
LINE
  5
25
330
18
100
AcDbEntity
  8
0
100
AcDbLine
 10
2.183476
 20
1.328695
 30
0.0
 11
3.203587
 21
2.011558
 31
0.0
  0
LINE
  5
26
330
18
100
AcDbEntity
  8
0
100
AcDbLine
 10
3.203587
 20
2.011558
 30
0.0
 11
3.203587
 21
3.702497
 31
0.0
  0
LINE
  5
27
330
18
100
AcDbEntity
  8
0
100
AcDbLine
 10
1.146477
 20
3.987791000000001
 30
0.0
 11
1.145508061669558
 21
3.37457103789622
 31
0.0
  0
LINE
  5
28
330
18
100
AcDbEntity
  8
0
100
AcDbLine
 10
1.144145
 20
2.511919
 30
0.0
 11
2.481024
 21
3.284779
 31
0.0
  0
LINE
  5
29
330
18
100
AcDbEntity
  8
0
100
AcDbLine
 10
7.991389999999999
 20
6.470358999999999
 30
0.0
 11
7.991389999999999
 21
6.782556
 31
0.0
  0
LINE
  5
2A
330
18
100
AcDbEntity
  8
0
100
AcDbLine
 10
1.144145
 20
2.511919
 30
0.0
 11
0.383473
 21
3.003865
 31
0.0
  0
LINE
  5
2B
330
18
100
AcDbEntity
  8
0
100
AcDbLine
 10
1.146477
 20
3.987791000000001
 30
0.0
 11
0.385805
 21
4.479737
 31
0.0
  0
LINE
  5
2C
330
18
100
AcDbEntity
  8
0
100
AcDbLine
 10
0.385805
 20
4.479737
 30
0.0
 11
0.3848152851184765
 21
3.853368011310506
 31
0.0
  0
LINE
  5
2D
330
18
100
AcDbEntity
  8
0
100
AcDbLine
 10
1.146477
 20
3.987791000000001
 30
0.0
 11
3.421554
 21
5.13554
 31
0.0
  0
LINE
  5
2E
330
18
100
AcDbEntity
  8
0
100
AcDbLine
 10
0.766141
 20
4.233764
 30
0.0
 11
0.7651720616695581
 21
3.620544037896219
 31
0.0
  0
LINE
  5
2F
330
18
100
AcDbEntity
  8
0
100
AcDbLine
 10
0.956309
 20
4.110778
 30
0.0
 11
0.9553400608803232
 21
3.497557538406637
 31
0.0
  0
LINE
  5
30
330
18
100
AcDbEntity
  8
0
100
AcDbLine
 10
0.575973
 20
4.35675
 30
0.0
 11
0.5750040618029441
 21
3.743530537809955
 31
0.0
  0
LINE
  5
31
330
18
100
AcDbEntity
  8
0
100
AcDbLine
 10
0.956309
 20
4.110778
 30
0.0
 11
3.299589
 21
5.263
 31
0.0
  0
LINE
  5
32
330
18
100
AcDbEntity
  8
0
100
AcDbLine
 10
0.766141
 20
4.233764
 30
0.0
 11
3.099127
 21
5.35291
 31
0.0
  0
LINE
  5
33
330
18
100
AcDbEntity
  8
0
100
AcDbLine
 10
0.575973
 20
4.35675
 30
0.0
 11
2.904632
 21
5.440143
 31
0.0
  0
LINE
  5
34
330
18
100
AcDbEntity
  8
0
100
AcDbLine
 10
0.385805
 20
4.479737
 30
0.0
 11
2.273549
 21
5.295074
 31
0.0
  0
LINE
  5
35
330
18
100
AcDbEntity
  8
0
100
AcDbLine
 10
2.273549
 20
5.295074
 30
0.0
 11
2.273549
 21
5.760095
 31
0.0
  0
LINE
  5
36
330
18
100
AcDbEntity
  8
0
100
AcDbLine
 10
2.273549
 20
6.398732
 30
0.0
 11
3.883704
 21
7.048838000000001
 31
0.0
  0
LINE
  5
37
330
18
100
AcDbEntity
  8
0
100
AcDbLine
 10
3.883704
 20
7.048838000000001
 30
0.0
 11
3.883704
 21
7.143896000000001
 31
0.0
  0
LINE
  5
38
330
18
100
AcDbEntity
  8
0
100
AcDbLine
 10
3.883704
 20
7.143896000000001
 30
0.0
 11
4.09775
 21
7.22704
 31
0.0
  0
LINE
  5
39
330
18
100
AcDbEntity
  8
0
100
AcDbLine
 10
4.09775
 20
7.22704
 30
0.0
 11
4.09775
 21
7.427159
 31
0.0
  0
LINE
  5
3A
330
18
100
AcDbEntity
  8
0
100
AcDbLine
 10
4.09775
 20
7.427159
 30
0.0
 11
4.740579
 21
7.674486
 31
0.0
  0
LINE
  5
3B
330
18
100
AcDbEntity
  8
0
100
AcDbLine
 10
2.183476
 20
1.328695
 30
0.0
 11
1.793947
 21
1.585776
 31
0.0
  0
LINE
  5
3C
330
18
100
AcDbEntity
  8
0
100
AcDbLine
 10
1.168392
 20
1.998628
 30
0.0
 11
1.168392
 21
2.525937
 31
0.0
  0
LINE
  5
3D
330
18
100
AcDbEntity
  8
0
100
AcDbLine
 10
1.793947
 20
1.585776
 30
0.0
 11
1.770835
 21
1.804786
 31
0.0
  0
LINE
  5
3E
330
18
100
AcDbEntity
  8
0
100
AcDbLine
 10
1.770835
 20
1.804786
 30
0.0
 11
1.579827
 21
1.573563
 31
0.0
  0
LINE
  5
3F
330
18
100
AcDbEntity
  8
0
100
AcDbLine
 10
1.579827
 20
1.573563
 30
0.0
 11
1.565148
 21
1.736777
 31
0.0
  0
LINE
  5
40
330
18
100
AcDbEntity
  8
0
100
AcDbLine
 10
1.565148
 20
1.736777
 30
0.0
 11
1.168392
 21
1.998628
 31
0.0
  0
LINE
  5
41
330
18
100
AcDbEntity
  8
0
100
AcDbLine
 10
1.173024
 20
5.021413
 30
0.0
 11
1.173024
 21
4.819744999999999
 31
0.0
  0
LINE
  5
42
330
18
100
AcDbEntity
  8
0
100
AcDbLine
 10
1.173024
 20
5.021413
 30
0.0
 11
2.167399
 21
5.48914
 31
0.0
  0
LINE
  5
43
330
18
100
AcDbEntity
  8
0
100
AcDbLine
 10
2.167399
 20
5.48914
 30
0.0
 11
2.273549
 21
5.443158
 31
0.0
  0
LINE
  5
44
330
18
100
AcDbEntity
  8
0
100
AcDbLine
 10
1.173024
 20
5.021413
 30
0.0
 11
1.409184
 21
4.921745
 31
0.0
  0
LINE
  5
45
330
18
100
AcDbEntity
  8
0
100
AcDbLine
 10
2.998254
 20
4.683041
 30
0.0
 11
2.998254
 21
2.588809
 31
0.0
  0
LINE
  5
46
330
18
100
AcDbEntity
  8
0
100
AcDbLine
 10
2.998254
 20
2.588809
 30
0.0
 11
2.956234
 21
2.467715
 31
0.0
  0
LINE
  5
47
330
18
100
AcDbEntity
  8
0
100
AcDbLine
 10
2.956234
 20
2.467715
 30
0.0
 11
2.590123
 21
2.235412
 31
0.0
  0
LINE
  5
48
330
18
100
AcDbEntity
  8
0
100
AcDbLine
 10
2.590123
 20
2.235412
 30
0.0
 11
2.481024
 21
2.312408
 31
0.0
  0
LINE
  5
49
330
18
100
AcDbEntity
  8
0
100
AcDbLine
 10
2.481024
 20
2.312408
 30
0.0
 11
2.481024
 21
4.433653
 31
0.0
  0
LINE
  5
4A
330
18
100
AcDbEntity
  8
0
100
AcDbLine
 10
2.481024
 20
4.433653
 30
0.0
 11
2.510026
 21
4.551742
 31
0.0
  0
LINE
  5
4B
330
18
100
AcDbEntity
  8
0
100
AcDbLine
 10
2.510026
 20
4.551742
 30
0.0
 11
2.90317
 21
4.745034
 31
0.0
  0
LINE
  5
4C
330
18
100
AcDbEntity
  8
0
100
AcDbLine
 10
2.90317
 20
4.745034
 30
0.0
 11
2.998254
 21
4.683041
 31
0.0
  0
LINE
  5
4D
330
18
100
AcDbEntity
  8
0
100
AcDbLine
 10
2.458061
 20
5.232379
 30
0.0
 11
2.458061
 21
5.6974
 31
0.0
  0
LINE
  5
4E
330
18
100
AcDbEntity
  8
0
100
AcDbLine
 10
2.273549
 20
5.295074
 30
0.0
 11
2.458061
 21
5.232379
 31
0.0
  0
LINE
  5
4F
330
18
100
AcDbEntity
  8
0
100
AcDbLine
 10
2.273549
 20
6.398732
 30
0.0
 11
2.458061
 21
6.336037
 31
0.0
  0
LINE
  5
50
330
18
100
AcDbEntity
  8
0
100
AcDbLine
 10
2.458061
 20
6.336037
 30
0.0
 11
4.213825
 21
7.030023
 31
0.0
  0
LINE
  5
51
330
18
100
AcDbEntity
  8
0
100
AcDbLine
 10
2.458061
 20
5.940547000000001
 30
0.0
 11
2.539452
 21
5.856525
 31
0.0
  0
LINE
  5
52
330
18
100
AcDbEntity
  8
0
100
AcDbLine
 10
2.539452
 20
5.856525
 30
0.0
 11
2.417423
 21
5.760413
 31
0.0
  0
LINE
  5
53
330
18
100
AcDbEntity
  8
0
100
AcDbLine
 10
2.417423
 20
5.760413
 30
0.0
 11
2.458061
 21
5.6974
 31
0.0
  0
LINE
  5
54
330
18
100
AcDbEntity
  8
0
100
AcDbLine
 10
2.35494
 20
5.91922
 30
0.0
 11
2.232912
 21
5.823108
 31
0.0
  0
LINE
  5
55
330
18
100
AcDbEntity
  8
0
100
AcDbLine
 10
2.232912
 20
5.823108
 30
0.0
 11
2.273549
 21
5.760095
 31
0.0
  0
LINE
  5
56
330
18
100
AcDbEntity
  8
0
100
AcDbLine
 10
2.273549
 20
6.003241
 30
0.0
 11
2.35494
 21
5.91922
 31
0.0
  0
LINE
  5
57
330
18
100
AcDbEntity
  8
0
100
AcDbLine
 10
2.458061
 20
5.940547000000001
 30
0.0
 11
2.458061
 21
6.336037
 31
0.0
  0
LINE
  5
58
330
18
100
AcDbEntity
  8
0
100
AcDbLine
 10
2.273549
 20
6.003241
 30
0.0
 11
2.273549
 21
6.398732
 31
0.0
  0
LINE
  5
59
330
18
100
AcDbEntity
  8
0
100
AcDbLine
 10
2.273549
 20
6.003241
 30
0.0
 11
2.458061
 21
5.940547000000001
 31
0.0
  0
LINE
  5
5A
330
18
100
AcDbEntity
  8
0
100
AcDbLine
 10
2.35494
 20
5.91922
 30
0.0
 11
2.539452
 21
5.856525
 31
0.0
  0
LINE
  5
5B
330
18
100
AcDbEntity
  8
0
100
AcDbLine
 10
2.232912
 20
5.823108
 30
0.0
 11
2.417423
 21
5.760413
 31
0.0
  0
LINE
  5
5C
330
18
100
AcDbEntity
  8
0
100
AcDbLine
 10
2.273549
 20
5.760095
 30
0.0
 11
2.458061
 21
5.6974
 31
0.0
  0
LWPOLYLINE
  5
5D
330
18
100
AcDbEntity
  8
0
100
AcDbPolyline
 90
        6
 70
   128
 43
0.0
 10
2.332246
 20
5.275129
 10
2.326566
 20
5.328117
 10
2.317534
 20
5.387148000000001
 10
2.308506
 20
5.435172000000001
 10
2.310466
 20
5.526227
 10
2.273549
 20
5.619267
  0
LWPOLYLINE
  5
66
330
18
100
AcDbEntity
  8
0
100
AcDbPolyline
 90
       17
 70
   128
 43
0.0
 10
2.384664
 20
5.257318
 10
2.366582
 20
5.344145
 10
2.36155
 20
5.40718
 10
2.351508
 20
5.488223000000001
 10
2.346475
 20
5.55426
 10
2.341454
 20
5.59328
 10
2.324409
 20
5.670318
 10
2.310383
 20
5.709335
 10
2.291277
 20
5.754071
 10
2.266104
 20
5.811830000000001
 10
2.387273
 20
5.908233999999999
 10
2.317818
 20
5.988199
 10
2.329245
 20
6.038537
 10
2.327227
 20
6.076559
 10
2.314187
 20
6.147595
 10
2.287141
 20
6.212621
 10
2.273549
 20
6.236629
  0
LWPOLYLINE
  5
7A
330
18
100
AcDbEntity
  8
0
100
AcDbPolyline
 90
       10
 70
   128
 43
0.0
 10
2.437693
 20
5.2393
 10
2.435606
 20
5.380197
 10
2.440575
 20
5.455244
 10
2.436543
 20
5.521281
 10
2.4145
 20
5.58831
 10
2.410471
 20
5.646343
 10
2.394432
 20
5.710373000000001
 10
2.387088
 20
5.721516
 10
2.355102
 20
5.781589
 10
2.484343
 20
5.875251
  0
LWPOLYLINE
  5
87
330
18
100
AcDbEntity
  8
0
100
AcDbPolyline
 90
        3
 70
   128
 43
0.0
 10
2.325168
 20
5.791761
 10
2.447196
 20
5.887873
 10
2.365805
 20
5.971894
  0
LWPOLYLINE
  5
8D
330
18
100
AcDbEntity
  8
0
100
AcDbPolyline
 90
       11
 70
   128
 43
0.0
 10
2.365805
 20
5.971894
 10
2.366277
 20
6.017542
 10
2.382253
 20
6.090592
 10
2.38224
 20
6.118608999999999
 10
2.372213
 20
6.165632
 10
2.365193
 20
6.200648999999999
 10
2.364179
 20
6.230667
 10
2.364167
 20
6.255681
 10
2.365157
 20
6.278695
 10
2.357136
 20
6.316714
 10
2.341111
 20
6.375775
  0
LWPOLYLINE
  5
9B
330
18
100
AcDbEntity
  8
0
100
AcDbPolyline
 90
        7
 70
   128
 43
0.0
 10
2.418456
 20
5.954004
 10
2.420315
 20
6.002557
 10
2.413288
 20
6.053584
 10
2.412262
 20
6.109617
 10
2.408204
 20
6.232688
 10
2.412172
 20
6.308733999999999
 10
2.399521
 20
6.355928
  0
LWPOLYLINE
  5
A5
330
18
100
AcDbEntity
  8
0
100
AcDbPolyline
 90
        2
 70
   128
 43
0.0
 10
2.305966
 20
5.798285
 10
2.343409
 20
5.736357
  0
LWPOLYLINE
  5
AA
330
18
100
AcDbEntity
  8
0
100
AcDbPolyline
 90
        5
 70
   128
 43
0.0
 10
1.059453
 20
2.566692
 10
1.083062
 20
2.613952
 10
1.086026
 20
2.697002
 10
1.116017
 20
2.758052
 10
1.144627
 20
2.817117
  0
LWPOLYLINE
  5
B2
330
18
100
AcDbEntity
  8
0
100
AcDbPolyline
 90
        5
 70
   128
 43
0.0
 10
1.145985
 20
3.67659
 10
1.111535
 20
3.813673000000001
 10
1.101498
 20
3.88371
 10
1.081457
 20
3.947738
 10
1.06739
 20
4.038939
  0
LWPOLYLINE
  5
BA
330
18
100
AcDbEntity
  8
0
100
AcDbPolyline
 90
        5
 70
   128
 43
0.0
 10
0.8365889999999999
 20
2.710824
 10
0.8358270000000001
 20
2.810956
 10
0.797766
 20
2.89699
 10
0.7697149999999999
 20
2.972021
 10
0.7641600000000001
 20
2.980031
  0
LWPOLYLINE
  5
C2
330
18
100
AcDbEntity
  8
0
100
AcDbPolyline
 90
        9
 70
   128
 43
0.0
 10
0.901859
 20
2.668612
 10
0.887883
 20
2.755947
 10
0.856825
 20
2.843985
 10
0.84178
 20
2.922024
 10
0.8377549999999999
 20
2.973053
 10
0.814711
 20
3.039081
 10
0.8056909999999999
 20
3.073097
 10
0.796671
 20
3.104111
 10
0.764501
 20
3.196155
  0
LWPOLYLINE
  5
CE
330
18
100
AcDbEntity
  8
0
100
AcDbPolyline
 90
       11
 70
   128
 43
0.0
 10
0.9553700000000001
 20
3.516415
 10
0.93553
 20
3.596465
 10
0.9204969999999999
 20
3.649489
 10
0.885444
 20
3.720515
 10
0.8493959999999999
 20
3.779534
 10
0.823365
 20
3.814543
 10
0.806325
 20
3.879573
 10
0.799299
 20
3.927598
 10
0.7912630000000001
 20
3.997636
 10
0.781226
 20
4.066672000000001
 10
0.7660399999999999
 20
4.169731
  0
LWPOLYLINE
  5
DC
330
18
100
AcDbEntity
  8
0
100
AcDbPolyline
 90
        6
 70
   128
 43
0.0
 10
0.9557559999999999
 20
3.760572
 10
0.9123959999999999
 20
3.862611
 10
0.863331
 20
3.940635
 10
0.828282
 20
4.004657
 10
0.815244
 20
4.07069
 10
0.813485
 20
4.203145
  0
LWPOLYLINE
  5
E5
330
18
100
AcDbEntity
  8
0
100
AcDbPolyline
 90
        4
 70
   128
 43
0.0
 10
0.956084
 20
3.968666
 10
0.9043040000000001
 20
4.054721
 10
0.8802559999999999
 20
4.128754
 10
0.8705809999999999
 20
4.16622
  0
LWPOLYLINE
  5
EC
330
18
100
AcDbEntity
  8
0
100
AcDbPolyline
 90
        5
 70
   128
 43
0.0
 10
0.7656460000000001
 20
3.92057
 10
0.722209
 20
4.027622
 10
0.686134
 20
4.144675
 10
0.663078
 20
4.23772
 10
0.647424
 20
4.310541000000001
  0
LWPOLYLINE
  5
F4
330
18
100
AcDbEntity
  8
0
100
AcDbPolyline
 90
        4
 70
   128
 43
0.0
 10
0.765942
 20
4.107676000000001
 10
0.724142
 20
4.177712000000001
 10
0.7020880000000001
 20
4.267755
 10
0.693855
 20
4.280513
  0
LWPOLYLINE
  5
FB
330
18
100
AcDbEntity
  8
0
100
AcDbPolyline
 90
        4
 70
   128
 43
0.0
 10
0.48148
 20
2.940481
 10
0.504553
 20
2.983908
 10
0.5125350000000001
 20
3.034942
 10
0.5739890000000001
 20
3.101
  0
LWPOLYLINE
  5
102
330
18
100
AcDbEntity
  8
0
100
AcDbPolyline
 90
        5
 70
   128
 43
0.0
 10
0.403099
 20
2.991172
 10
0.430474
 20
3.06192
 10
0.461458
 20
3.13898
 10
0.50444
 20
3.233055
 10
0.5743642099696661
 20
3.33858252536072
  0
LWPOLYLINE
  5
10A
330
18
100
AcDbEntity
  8
0
100
AcDbPolyline
 90
        7
 70
   128
 43
0.0
 10
0.384815
 20
3.853367
 10
0.398075
 20
3.9004
 10
0.426065
 20
3.958447
 10
0.4370520000000001
 20
4.002478
 10
0.423015
 20
4.065509
 10
0.409987
 20
4.110530000000001
 10
0.385342
 20
4.186553
  0
LWPOLYLINE
  5
114
330
18
100
AcDbEntity
  8
0
100
AcDbPolyline
 90
        4
 70
   128
 43
0.0
 10
0.575435
 20
4.016532
 10
0.553063
 20
4.127605
 10
0.537994
 20
4.261677
 10
0.527842
 20
4.387878
  0
LINE
  5
11B
330
18
100
AcDbEntity
  8
0
100
AcDbLine
 10
2.540919
 20
4.541245
 30
0.0
 11
2.92563
 21
4.730391
 31
0.0
  0
LINE
  5
11C
330
18
100
AcDbEntity
  8
0
100
AcDbLine
 10
2.511917
 20
4.423156
 30
0.0
 11
2.540919
 21
4.541245
 31
0.0
  0
LINE
  5
11D
330
18
100
AcDbEntity
  8
0
100
AcDbLine
 10
2.511917
 20
2.301911
 30
0.0
 11
2.511917
 21
4.423156
 31
0.0
  0
LINE
  5
11E
330
18
100
AcDbEntity
  8
0
100
AcDbLine
 10
2.598558
 20
2.240764
 30
0.0
 11
2.511917
 21
2.301911
 31
0.0
  0
LINE
  5
11F
330
18
100
AcDbEntity
  8
0
100
AcDbLine
 10
2.998254
 20
3.583793
 30
0.0
 11
4.765569999999999
 21
4.605490000000001
 31
0.0
  0
LINE
  5
120
330
18
100
AcDbEntity
  8
0
100
AcDbLine
 10
1.579827
 20
1.573563
 30
0.0
 11
1.781023
 21
1.708244
 31
0.0
  0
LINE
  5
121
330
18
100
AcDbEntity
  8
0
100
AcDbLine
 10
2.904632
 20
5.440143
 30
0.0
 11
3.453207
 21
5.194101
 31
0.0
  0
LINE
  5
122
330
18
100
AcDbEntity
  8
0
100
AcDbLine
 10
6.409637
 20
3.868107
 30
0.0
 11
6.409637
 21
4.396424
 31
0.0
  0
LINE
  5
123
330
18
100
AcDbEntity
  8
0
100
AcDbLine
 10
6.409637
 20
5.125844
 30
0.0
 11
6.609125
 21
5.256016000000001
 31
0.0
  0
LINE
  5
124
330
18
100
AcDbEntity
  8
0
100
AcDbLine
 10
6.609125
 20
5.256016000000001
 30
0.0
 11
6.609125
 21
4.801753
 31
0.0
  0
LINE
  5
125
330
18
100
AcDbEntity
  8
0
100
AcDbLine
 10
6.609125
 20
4.012283999999999
 30
0.0
 11
6.409637
 21
3.868107
 31
0.0
  0
LINE
  5
126
330
18
100
AcDbEntity
  8
0
100
AcDbLine
 10
6.409637
 20
5.125844
 30
0.0
 11
2.904632
 21
6.51255
 31
0.0
  0
LINE
  5
127
330
18
100
AcDbEntity
  8
0
100
AcDbLine
 10
6.609125
 20
5.256016000000001
 30
0.0
 11
3.113546
 21
6.595125
 31
0.0
  0
LINE
  5
128
330
18
100
AcDbEntity
  8
0
100
AcDbLine
 10
2.904632
 20
5.440143
 30
0.0
 11
2.904632
 21
5.908722
 31
0.0
  0
LINE
  5
129
330
18
100
AcDbEntity
  8
0
100
AcDbLine
 10
4.36045
 20
6.117453
 30
0.0
 11
4.481244
 21
6.173652
 31
0.0
  0
LINE
  5
12A
330
18
100
AcDbEntity
  8
0
100
AcDbLine
 10
4.545292
 20
6.046643
 30
0.0
 11
4.666076
 21
6.104583
 31
0.0
  0
LINE
  5
12B
330
18
100
AcDbEntity
  8
0
100
AcDbLine
 10
4.740895
 20
5.97171
 30
0.0
 11
4.862128
 21
6.031322
 31
0.0
  0
LINE
  5
12C
330
18
100
AcDbEntity
  8
0
100
AcDbLine
 10
2.898468
 20
6.287943
 30
0.0
 11
2.715393
 21
6.214816000000001
 31
0.0
  0
LINE
  5
12D
330
18
100
AcDbEntity
  8
0
100
AcDbLine
 10
2.715393
 20
6.214816000000001
 30
0.0
 11
2.715393
 21
6.135773
 31
0.0
  0
LINE
  5
12E
330
18
100
AcDbEntity
  8
0
100
AcDbLine
 10
2.715393
 20
6.135773
 30
0.0
 11
2.778475
 21
6.115787
 31
0.0
  0
LINE
  5
12F
330
18
100
AcDbEntity
  8
0
100
AcDbLine
 10
2.778475
 20
6.115787
 30
0.0
 11
2.78451
 21
6.046749
 31
0.0
  0
LINE
  5
130
330
18
100
AcDbEntity
  8
0
100
AcDbLine
 10
2.78451
 20
6.046749
 30
0.0
 11
2.728509
 21
5.975681
 31
0.0
  0
LINE
  5
131
330
18
100
AcDbEntity
  8
0
100
AcDbLine
 10
2.728509
 20
5.975681
 30
0.0
 11
2.728509
 21
5.851607
 31
0.0
  0
LINE
  5
132
330
18
100
AcDbEntity
  8
0
100
AcDbLine
 10
2.728509
 20
5.851607
 30
0.0
 11
2.781592
 21
5.862639
 31
0.0
  0
LINE
  5
133
330
18
100
AcDbEntity
  8
0
100
AcDbLine
 10
2.781592
 20
5.862639
 30
0.0
 11
2.778624
 21
5.788594
 31
0.0
  0
LINE
  5
134
330
18
100
AcDbEntity
  8
0
100
AcDbLine
 10
2.778624
 20
5.788594
 30
0.0
 11
2.721623
 21
5.716525
 31
0.0
  0
LINE
  5
135
330
18
100
AcDbEntity
  8
0
100
AcDbLine
 10
2.721623
 20
5.716525
 30
0.0
 11
2.721623
 21
5.626478
 31
0.0
  0
LINE
  5
136
330
18
100
AcDbEntity
  8
0
100
AcDbLine
 10
2.904697
 20
5.699604
 30
0.0
 11
2.721623
 21
5.626478
 31
0.0
  0
LINE
  5
137
330
18
100
AcDbEntity
  8
0
100
AcDbLine
 10
2.904632
 20
5.699578
 30
0.0
 11
3.043841
 21
5.653633999999999
 31
0.0
  0
LINE
  5
138
330
18
100
AcDbEntity
  8
0
100
AcDbLine
 10
3.043841
 20
5.653633999999999
 30
0.0
 11
3.043841
 21
5.687656
 31
0.0
  0
LINE
  5
139
330
18
100
AcDbEntity
  8
0
100
AcDbLine
 10
3.043841
 20
5.687656
 30
0.0
 11
3.114854
 21
5.717704
 31
0.0
  0
LINE
  5
13A
330
18
100
AcDbEntity
  8
0
100
AcDbLine
 10
3.114854
 20
5.717704
 30
0.0
 11
3.114854
 21
5.855783
 31
0.0
  0
LINE
  5
13B
330
18
100
AcDbEntity
  8
0
100
AcDbLine
 10
3.114854
 20
5.855783
 30
0.0
 11
3.042742
 21
5.871762
 31
0.0
  0
LINE
  5
13C
330
18
100
AcDbEntity
  8
0
100
AcDbLine
 10
3.042742
 20
5.871762
 30
0.0
 11
3.042742
 21
5.971815
 31
0.0
  0
LINE
  5
13D
330
18
100
AcDbEntity
  8
0
100
AcDbLine
 10
3.042742
 20
5.971815
 30
0.0
 11
3.116718
 21
6.020884
 31
0.0
  0
LINE
  5
13E
330
18
100
AcDbEntity
  8
0
100
AcDbLine
 10
3.116718
 20
6.020884
 30
0.0
 11
3.116718
 21
6.091922
 31
0.0
  0
LINE
  5
13F
330
18
100
AcDbEntity
  8
0
100
AcDbLine
 10
3.116718
 20
6.091922
 30
0.0
 11
3.0376
 21
6.17694
 31
0.0
  0
LINE
  5
140
330
18
100
AcDbEntity
  8
0
100
AcDbLine
 10
3.0376
 20
6.17694
 30
0.0
 11
3.0376
 21
6.22897
 31
0.0
  0
LINE
  5
141
330
18
100
AcDbEntity
  8
0
100
AcDbLine
 10
3.0376
 20
6.22897
 30
0.0
 11
2.898468
 21
6.287943
 31
0.0
  0
LINE
  5
142
330
18
100
AcDbEntity
  8
0
100
AcDbLine
 10
2.904632
 20
5.964757
 30
0.0
 11
2.904632
 21
6.235913
 31
0.0
  0
LINE
  5
143
330
18
100
AcDbEntity
  8
0
100
AcDbLine
 10
2.904632
 20
6.287943
 30
0.0
 11
2.904632
 21
6.51255
 31
0.0
  0
LINE
  5
144
330
18
100
AcDbEntity
  8
0
100
AcDbLine
 10
2.829535
 20
6.050771
 30
0.0
 11
2.829535
 21
5.960719
 31
0.0
  0
LINE
  5
145
330
18
100
AcDbEntity
  8
0
100
AcDbLine
 10
2.858551
 20
6.053786
 30
0.0
 11
2.858551
 21
5.975741
 31
0.0
  0
LWPOLYLINE
  5
146
330
18
100
AcDbEntity
  8
0
100
AcDbPolyline
 90
       16
 70
   129
 43
0.0
 10
2.775432
 20
6.198833000000001
 42
0.169353
 10
2.771326
 20
6.197401999999999
 42
0.105107
 10
2.766942
 20
6.192093
 42
0.06711
 10
2.764418
 20
6.185109
 42
0.053257
 10
2.763425
 20
6.17582
 42
0.053257
 10
2.764418
 20
6.166531
 42
0.06711
 10
2.766942
 20
6.159548
 42
0.105107
 10
2.771326
 20
6.154239
 42
0.169353
 10
2.775432
 20
6.152807
 42
0.169353
 10
2.779537
 20
6.154239
 42
0.105107
 10
2.783921
 20
6.159548
 42
0.06711
 10
2.786446
 20
6.166531
 42
0.053257
 10
2.787438
 20
6.17582
 42
0.053257
 10
2.786446
 20
6.185109
 42
0.06711
 10
2.783921
 20
6.192093
 42
0.105107
 10
2.779537
 20
6.197401999999999
 42
0.169353
  0
LWPOLYLINE
  5
159
330
18
100
AcDbEntity
  8
0
100
AcDbPolyline
 90
       16
 70
   129
 43
0.0
 10
2.775432
 20
5.963707
 42
0.169353
 10
2.771326
 20
5.962276
 42
0.105107
 10
2.766942
 20
5.956967
 42
0.06711
 10
2.764418
 20
5.949983000000001
 42
0.053257
 10
2.763425
 20
5.940694000000001
 42
0.053257
 10
2.764418
 20
5.931405000000001
 42
0.06711
 10
2.766942
 20
5.924422
 42
0.105107
 10
2.771326
 20
5.919112999999999
 42
0.169353
 10
2.775432
 20
5.917681
 42
0.169353
 10
2.779537
 20
5.919112999999999
 42
0.105107
 10
2.783921
 20
5.924422
 42
0.06711
 10
2.786446
 20
5.931405000000001
 42
0.053257
 10
2.787438
 20
5.940694000000001
 42
0.053257
 10
2.786446
 20
5.949983000000001
 42
0.06711
 10
2.783921
 20
5.956967
 42
0.105107
 10
2.779537
 20
5.962276
 42
0.169353
  0
LWPOLYLINE
  5
16C
330
18
100
AcDbEntity
  8
0
100
AcDbPolyline
 90
       16
 70
   129
 43
0.0
 10
2.775432
 20
5.727599
 42
0.169353
 10
2.771326
 20
5.726167
 42
0.105107
 10
2.766942
 20
5.720858
 42
0.06711
 10
2.764418
 20
5.713874
 42
0.053257
 10
2.763425
 20
5.704585
 42
0.053257
 10
2.764418
 20
5.695296
 42
0.06711
 10
2.766942
 20
5.688313
 42
0.105107
 10
2.771326
 20
5.683004
 42
0.169353
 10
2.775432
 20
5.681572
 42
0.169353
 10
2.779537
 20
5.683004
 42
0.105107
 10
2.783921
 20
5.688313
 42
0.06711
 10
2.786446
 20
5.695296
 42
0.053257
 10
2.787438
 20
5.704585
 42
0.053257
 10
2.786446
 20
5.713874
 42
0.06711
 10
2.783921
 20
5.720858
 42
0.105107
 10
2.779537
 20
5.726167
 42
0.169353
  0
LWPOLYLINE
  5
17F
330
18
100
AcDbEntity
  8
0
100
AcDbPolyline
 90
       16
 70
   129
 43
0.0
 10
2.831627
 20
5.841648
 42
0.169353
 10
2.827521
 20
5.840217
 42
0.105107
 10
2.823137
 20
5.834908
 42
0.06711
 10
2.820613
 20
5.827923999999999
 42
0.053257
 10
2.819621
 20
5.818635
 42
0.053257
 10
2.820613
 20
5.809346
 42
0.06711
 10
2.823137
 20
5.802362000000001
 42
0.105107
 10
2.827521
 20
5.797053
 42
0.169353
 10
2.831627
 20
5.795622
 42
0.169353
 10
2.835732
 20
5.797053
 42
0.105107
 10
2.840116
 20
5.802362000000001
 42
0.06711
 10
2.842641
 20
5.809346
 42
0.053257
 10
2.843633
 20
5.818635
 42
0.053257
 10
2.842641
 20
5.827923999999999
 42
0.06711
 10
2.840116
 20
5.834908
 42
0.105107
 10
2.835732
 20
5.840217
 42
0.169353
  0
LWPOLYLINE
  5
192
330
18
100
AcDbEntity
  8
0
100
AcDbPolyline
 90
       16
 70
   129
 43
0.0
 10
2.860669
 20
5.786629000000001
 42
0.169353
 10
2.856563
 20
5.785197
 42
0.105107
 10
2.852179
 20
5.779888
 42
0.06711
 10
2.849655
 20
5.772905000000001
 42
0.053257
 10
2.848663
 20
5.763616000000001
 42
0.053257
 10
2.849655
 20
5.754327
 42
0.06711
 10
2.852179
 20
5.747343
 42
0.105107
 10
2.856563
 20
5.742033999999999
 42
0.169353
 10
2.860669
 20
5.740603
 42
0.169353
 10
2.864774
 20
5.742033999999999
 42
0.105107
 10
2.869158
 20
5.747343
 42
0.06711
 10
2.871683
 20
5.754327
 42
0.053257
 10
2.872675
 20
5.763616000000001
 42
0.053257
 10
2.871683
 20
5.772905000000001
 42
0.06711
 10
2.869158
 20
5.779888
 42
0.105107
 10
2.864774
 20
5.785197
 42
0.169353
  0
LWPOLYLINE
  5
1A5
330
18
100
AcDbEntity
  8
0
100
AcDbPolyline
 90
       16
 70
   129
 43
0.0
 10
3.000777
 20
5.730658999999999
 42
0.169353
 10
2.996672
 20
5.729228
 42
0.105107
 10
2.992287
 20
5.723919
 42
0.06711
 10
2.989763
 20
5.716934999999999
 42
0.053257
 10
2.988771
 20
5.707646
 42
0.053257
 10
2.989763
 20
5.698357
 42
0.06711
 10
2.992287
 20
5.691373000000001
 42
0.105107
 10
2.996672
 20
5.686065
 42
0.169353
 10
3.000777
 20
5.684633
 42
0.169353
 10
3.004882
 20
5.686065
 42
0.105107
 10
3.009266
 20
5.691373000000001
 42
0.06711
 10
3.011791
 20
5.698357
 42
0.053257
 10
3.012783
 20
5.707646
 42
0.053257
 10
3.011791
 20
5.716934999999999
 42
0.06711
 10
3.009266
 20
5.723919
 42
0.105107
 10
3.004882
 20
5.729228
 42
0.169353
  0
LWPOLYLINE
  5
1B8
330
18
100
AcDbEntity
  8
0
100
AcDbPolyline
 90
       16
 70
   129
 43
0.0
 10
3.016755
 20
5.798707
 42
0.169353
 10
3.01265
 20
5.797275
 42
0.105107
 10
3.008266
 20
5.791966
 42
0.06711
 10
3.005741
 20
5.784983
 42
0.053257
 10
3.004749
 20
5.775694000000001
 42
0.053257
 10
3.005741
 20
5.766405000000001
 42
0.06711
 10
3.008266
 20
5.759421
 42
0.105107
 10
3.01265
 20
5.754112
 42
0.169353
 10
3.016755
 20
5.752680000000001
 42
0.169353
 10
3.020861
 20
5.754112
 42
0.105107
 10
3.025245
 20
5.759421
 42
0.06711
 10
3.027769
 20
5.766405000000001
 42
0.053257
 10
3.028762
 20
5.775694000000001
 42
0.053257
 10
3.027769
 20
5.784983
 42
0.06711
 10
3.025245
 20
5.791966
 42
0.105107
 10
3.020861
 20
5.797275
 42
0.169353
  0
LWPOLYLINE
  5
1CB
330
18
100
AcDbEntity
  8
0
100
AcDbPolyline
 90
       16
 70
   129
 43
0.0
 10
3.071771
 20
5.835754
 42
0.169353
 10
3.067666
 20
5.834322
 42
0.105107
 10
3.063281
 20
5.829013
 42
0.06711
 10
3.060757
 20
5.822029
 42
0.053257
 10
3.059765
 20
5.81274
 42
0.053257
 10
3.060757
 20
5.803451
 42
0.06711
 10
3.063281
 20
5.796468
 42
0.105107
 10
3.067666
 20
5.791159
 42
0.169353
 10
3.071771
 20
5.789727
 42
0.169353
 10
3.075876
 20
5.791159
 42
0.105107
 10
3.080261
 20
5.796468
 42
0.06711
 10
3.082785
 20
5.803451
 42
0.053257
 10
3.083777
 20
5.81274
 42
0.053257
 10
3.082785
 20
5.822029
 42
0.06711
 10
3.080261
 20
5.829013
 42
0.105107
 10
3.075876
 20
5.834322
 42
0.169353
  0
LWPOLYLINE
  5
1DE
330
18
100
AcDbEntity
  8
0
100
AcDbPolyline
 90
       16
 70
   129
 43
0.0
 10
3.071771
 20
6.097894
 42
0.169353
 10
3.067666
 20
6.096462
 42
0.105107
 10
3.063281
 20
6.091153
 42
0.06711
 10
3.060757
 20
6.084169999999999
 42
0.053257
 10
3.059765
 20
6.07488
 42
0.053257
 10
3.060757
 20
6.065591
 42
0.06711
 10
3.063281
 20
6.058608
 42
0.105107
 10
3.067666
 20
6.053299
 42
0.169353
 10
3.071771
 20
6.051867
 42
0.169353
 10
3.075876
 20
6.053299
 42
0.105107
 10
3.080261
 20
6.058608
 42
0.06711
 10
3.082785
 20
6.065591
 42
0.053257
 10
3.083777
 20
6.07488
 42
0.053257
 10
3.082785
 20
6.084169999999999
 42
0.06711
 10
3.080261
 20
6.091153
 42
0.105107
 10
3.075876
 20
6.096462
 42
0.169353
  0
LWPOLYLINE
  5
1F1
330
18
100
AcDbEntity
  8
0
100
AcDbPolyline
 90
       16
 70
   129
 43
0.0
 10
2.978659
 20
6.224926
 42
0.169353
 10
2.974553
 20
6.223495
 42
0.105107
 10
2.970169
 20
6.218186
 42
0.06711
 10
2.967645
 20
6.211202
 42
0.053257
 10
2.966652
 20
6.201912999999999
 42
0.053257
 10
2.967645
 20
6.192624
 42
0.06711
 10
2.970169
 20
6.18564
 42
0.105107
 10
2.974553
 20
6.180332
 42
0.169353
 10
2.978659
 20
6.1789
 42
0.169353
 10
2.982764
 20
6.180332
 42
0.105107
 10
2.987148
 20
6.18564
 42
0.06711
 10
2.989673
 20
6.192624
 42
0.053257
 10
2.990665
 20
6.201912999999999
 42
0.053257
 10
2.989673
 20
6.211202
 42
0.06711
 10
2.987148
 20
6.218186
 42
0.105107
 10
2.982764
 20
6.223495
 42
0.169353
  0
LWPOLYLINE
  5
204
330
18
100
AcDbEntity
  8
0
100
AcDbPolyline
 90
       16
 70
   129
 43
0.0
 10
2.993786
 20
5.962779
 42
0.169353
 10
2.989681
 20
5.961347
 42
0.105107
 10
2.985297
 20
5.956038
 42
0.06711
 10
2.982772
 20
5.949054
 42
0.053257
 10
2.98178
 20
5.939765
 42
0.053257
 10
2.982772
 20
5.930476000000001
 42
0.06711
 10
2.985297
 20
5.923493
 42
0.105107
 10
2.989681
 20
5.918183999999999
 42
0.169353
 10
2.993786
 20
5.916752
 42
0.169353
 10
2.997892
 20
5.918183999999999
 42
0.105107
 10
3.002276
 20
5.923493
 42
0.06711
 10
3.0048
 20
5.930476000000001
 42
0.053257
 10
3.005793
 20
5.939765
 42
0.053257
 10
3.0048
 20
5.949054
 42
0.06711
 10
3.002276
 20
5.956038
 42
0.105107
 10
2.997892
 20
5.961347
 42
0.169353
  0
LINE
  5
217
330
18
100
AcDbEntity
  8
0
100
AcDbLine
 10
3.552988
 20
5.993065000000001
 30
0.0
 11
3.552988
 21
5.378706
 31
0.0
  0
LINE
  5
218
330
18
100
AcDbEntity
  8
0
100
AcDbLine
 10
3.552988
 20
5.378706
 30
0.0
 11
3.317641000000001
 21
4.943291
 31
0.0
  0
LINE
  5
219
330
18
100
AcDbEntity
  8
0
100
AcDbLine
 10
3.326323
 20
4.959353
 30
0.0
 11
3.326323
 21
4.254942
 31
0.0
  0
LINE
  5
21A
330
18
100
AcDbEntity
  8
0
100
AcDbLine
 10
3.326323
 20
4.254942
 30
0.0
 11
3.392696
 21
4.222948000000001
 31
0.0
  0
LINE
  5
21B
330
18
100
AcDbEntity
  8
0
100
AcDbLine
 10
3.380067
 20
4.215837000000001
 30
0.0
 11
3.520739
 21
4.295049
 31
0.0
  0
LINE
  5
21C
330
18
100
AcDbEntity
  8
0
100
AcDbLine
 10
3.520739
 20
4.295049
 30
0.0
 11
3.526727
 21
4.328071
 31
0.0
  0
LINE
  5
21D
330
18
100
AcDbEntity
  8
0
100
AcDbLine
 10
3.526727
 20
4.328071
 30
0.0
 11
3.526727
 21
5.041490000000001
 31
0.0
  0
LINE
  5
21E
330
18
100
AcDbEntity
  8
0
100
AcDbLine
 10
3.526727
 20
5.041490000000001
 30
0.0
 11
3.749415
 21
5.306749
 31
0.0
  0
LINE
  5
21F
330
18
100
AcDbEntity
  8
0
100
AcDbLine
 10
3.749415
 20
5.306749
 30
0.0
 11
3.749415
 21
5.918111
 31
0.0
  0
LINE
  5
220
330
18
100
AcDbEntity
  8
0
100
AcDbLine
 10
3.749415
 20
5.918111
 30
0.0
 11
3.70709
 21
5.969121
 31
0.0
  0
LINE
  5
221
330
18
100
AcDbEntity
  8
0
100
AcDbLine
 10
3.70709
 20
5.969121
 30
0.0
 11
3.583993
 21
6.021096
 31
0.0
  0
LINE
  5
222
330
18
100
AcDbEntity
  8
0
100
AcDbLine
 10
3.583993
 20
6.021096
 30
0.0
 11
3.552988
 21
5.993065000000001
 31
0.0
  0
LINE
  5
223
330
18
100
AcDbEntity
  8
0
100
AcDbLine
 10
3.552292
 20
5.321669
 30
0.0
 11
3.552292
 21
5.114547
 31
0.0
  0
LINE
  5
224
330
18
100
AcDbEntity
  8
0
100
AcDbLine
 10
3.59969
 20
5.128401
 30
0.0
 11
6.409637
 21
3.868107
 31
0.0
  0
LINE
  5
225
330
18
100
AcDbEntity
  8
0
100
AcDbLine
 10
6.177114
 20
5.421514
 30
0.0
 11
6.301534999999999
 21
5.493442
 31
0.0
  0
LINE
  5
226
330
18
100
AcDbEntity
  8
0
100
AcDbLine
 10
3.737605
 20
5.292682
 30
0.0
 11
3.737605
 21
5.911283999999999
 31
0.0
  0
LINE
  5
227
330
18
100
AcDbEntity
  8
0
100
AcDbLine
 10
3.69528
 20
5.962294
 30
0.0
 11
3.575086
 21
6.013043
 31
0.0
  0
LINE
  5
228
330
18
100
AcDbEntity
  8
0
100
AcDbLine
 10
3.737605
 20
5.911283999999999
 30
0.0
 11
3.69528
 21
5.962294
 31
0.0
  0
LINE
  5
229
330
18
100
AcDbEntity
  8
0
100
AcDbLine
 10
3.317641000000001
 20
4.943291
 30
0.0
 11
3.317641000000001
 21
4.245928
 31
0.0
  0
LINE
  5
22A
330
18
100
AcDbEntity
  8
0
100
AcDbLine
 10
3.317641000000001
 20
4.245928
 30
0.0
 11
3.380067
 21
4.215837000000001
 31
0.0
  0
LWPOLYLINE
  5
22B
330
18
100
AcDbEntity
  8
0
100
AcDbPolyline
 90
       16
 70
   129
 43
0.0
 10
3.695215
 20
5.930077
 42
0.169353
 10
3.69111
 20
5.928646
 42
0.105107
 10
3.686725
 20
5.923337
 42
0.06711
 10
3.684201
 20
5.916353
 42
0.053257
 10
3.683209
 20
5.907064
 42
0.053257
 10
3.684201
 20
5.897775
 42
0.06711
 10
3.686725
 20
5.890791
 42
0.105107
 10
3.69111
 20
5.885483
 42
0.169353
 10
3.695215
 20
5.884051
 42
0.169353
 10
3.69932
 20
5.885483
 42
0.105107
 10
3.703705
 20
5.890791
 42
0.06711
 10
3.706229
 20
5.897775
 42
0.053257
 10
3.707221
 20
5.907064
 42
0.053257
 10
3.706229
 20
5.916353
 42
0.06711
 10
3.703705
 20
5.923337
 42
0.105107
 10
3.69932
 20
5.928646
 42
0.169353
  0
LWPOLYLINE
  5
23E
330
18
100
AcDbEntity
  8
0
100
AcDbPolyline
 90
       16
 70
   129
 43
0.0
 10
3.638077
 20
5.906053
 42
0.131568
 10
3.627874
 20
5.90332
 42
0.106609
 10
3.618266
 20
5.894623
 42
0.083601
 10
3.612308
 20
5.882471
 42
0.072394
 10
3.61006
 20
5.867031
 42
0.072394
 10
3.612308
 20
5.851591
 42
0.083601
 10
3.618266
 20
5.839438
 42
0.106609
 10
3.627874
 20
5.830741000000001
 42
0.131568
 10
3.638077
 20
5.828009
 42
0.131568
 10
3.648281
 20
5.830741000000001
 42
0.106609
 10
3.657889
 20
5.839438
 42
0.083601
 10
3.663847
 20
5.851591
 42
0.072394
 10
3.666095
 20
5.867031
 42
0.072394
 10
3.663847
 20
5.882471
 42
0.083601
 10
3.657889
 20
5.894623
 42
0.106609
 10
3.648281
 20
5.90332
 42
0.131568
  0
LWPOLYLINE
  5
251
330
18
100
AcDbEntity
  8
0
100
AcDbPolyline
 90
       16
 70
   129
 43
0.0
 10
3.584192
 20
5.836972
 42
0.169353
 10
3.580086
 20
5.83554
 42
0.105107
 10
3.575702
 20
5.830232
 42
0.06711
 10
3.573178
 20
5.823248
 42
0.053257
 10
3.572186
 20
5.813959
 42
0.053257
 10
3.573178
 20
5.80467
 42
0.06711
 10
3.575702
 20
5.797686
 42
0.105107
 10
3.580086
 20
5.792377
 42
0.169353
 10
3.584192
 20
5.790946
 42
0.169353
 10
3.588297
 20
5.792377
 42
0.105107
 10
3.592681
 20
5.797686
 42
0.06711
 10
3.595206
 20
5.80467
 42
0.053257
 10
3.596198
 20
5.813959
 42
0.053257
 10
3.595206
 20
5.823248
 42
0.06711
 10
3.592681
 20
5.830232
 42
0.105107
 10
3.588297
 20
5.83554
 42
0.169353
  0
LWPOLYLINE
  5
264
330
18
100
AcDbEntity
  8
0
100
AcDbPolyline
 90
       16
 70
   129
 43
0.0
 10
3.699294
 20
5.760979
 42
0.169353
 10
3.695189
 20
5.759548000000001
 42
0.105107
 10
3.690804
 20
5.754239
 42
0.06711
 10
3.68828
 20
5.747255
 42
0.053257
 10
3.687288
 20
5.737966
 42
0.053257
 10
3.68828
 20
5.728676999999999
 42
0.06711
 10
3.690804
 20
5.721693
 42
0.105107
 10
3.695189
 20
5.716385
 42
0.169353
 10
3.699294
 20
5.714953
 42
0.169353
 10
3.703399
 20
5.716385
 42
0.105107
 10
3.707784
 20
5.721693
 42
0.06711
 10
3.710308
 20
5.728676999999999
 42
0.053257
 10
3.7113
 20
5.737966
 42
0.053257
 10
3.710308
 20
5.747255
 42
0.06711
 10
3.707784
 20
5.754239
 42
0.105107
 10
3.703399
 20
5.759548000000001
 42
0.169353
  0
LWPOLYLINE
  5
277
330
18
100
AcDbEntity
  8
0
100
AcDbPolyline
 90
        8
 70
   128
 43
0.0
 10
3.628647
 20
5.903744000000001
 42
0.076901
 10
3.623308999999999
 20
5.892482
 42
0.072394
 10
3.621062
 20
5.877041999999999
 42
0.072394
 10
3.623308999999999
 20
5.861601
 42
0.083601
 10
3.629268
 20
5.849449
 42
0.106609
 10
3.638876
 20
5.840751999999999
 42
0.131568
 10
3.649079
 20
5.838019999999999
 42
0.120601
 10
3.65851
 20
5.840328
 42
0.106609
  0
LWPOLYLINE
  5
282
330
18
100
AcDbEntity
  8
0
100
AcDbPolyline
 90
       16
 70
   129
 43
0.0
 10
3.699294
 20
5.628902
 42
0.169353
 10
3.695189
 20
5.62747
 42
0.105107
 10
3.690804
 20
5.622161
 42
0.06711
 10
3.68828
 20
5.615178
 42
0.053257
 10
3.687288
 20
5.605889
 42
0.053257
 10
3.68828
 20
5.5966
 42
0.06711
 10
3.690804
 20
5.589616
 42
0.105107
 10
3.695189
 20
5.584307
 42
0.169353
 10
3.699294
 20
5.582876000000001
 42
0.169353
 10
3.703399
 20
5.584307
 42
0.105107
 10
3.707784
 20
5.589616
 42
0.06711
 10
3.710308
 20
5.5966
 42
0.053257
 10
3.7113
 20
5.605889
 42
0.053257
 10
3.710308
 20
5.615178
 42
0.06711
 10
3.707784
 20
5.622161
 42
0.105107
 10
3.703399
 20
5.62747
 42
0.169353
  0
LWPOLYLINE
  5
295
330
18
100
AcDbEntity
  8
0
100
AcDbPolyline
 90
       16
 70
   129
 43
0.0
 10
3.584192
 20
5.704895
 42
0.169353
 10
3.580086
 20
5.703463
 42
0.105107
 10
3.575702
 20
5.698154
 42
0.06711
 10
3.573178
 20
5.69117
 42
0.053257
 10
3.572186
 20
5.681881
 42
0.053257
 10
3.573178
 20
5.672592
 42
0.06711
 10
3.575702
 20
5.665609
 42
0.105107
 10
3.580086
 20
5.6603
 42
0.169353
 10
3.584192
 20
5.658868
 42
0.169353
 10
3.588297
 20
5.6603
 42
0.105107
 10
3.592681
 20
5.665609
 42
0.06711
 10
3.595206
 20
5.672592
 42
0.053257
 10
3.596198
 20
5.681881
 42
0.053257
 10
3.595206
 20
5.69117
 42
0.06711
 10
3.592681
 20
5.698154
 42
0.105107
 10
3.588297
 20
5.703463
 42
0.169353
  0
LWPOLYLINE
  5
2A8
330
18
100
AcDbEntity
  8
0
100
AcDbPolyline
 90
       16
 70
   129
 43
0.0
 10
3.699294
 20
5.491817
 42
0.169353
 10
3.695189
 20
5.490385
 42
0.105107
 10
3.690804
 20
5.485077
 42
0.06711
 10
3.68828
 20
5.478093
 42
0.053257
 10
3.687288
 20
5.468804
 42
0.053257
 10
3.68828
 20
5.459515000000001
 42
0.06711
 10
3.690804
 20
5.452531
 42
0.105107
 10
3.695189
 20
5.447222
 42
0.169353
 10
3.699294
 20
5.445791000000001
 42
0.169353
 10
3.703399
 20
5.447222
 42
0.105107
 10
3.707784
 20
5.452531
 42
0.06711
 10
3.710308
 20
5.459515000000001
 42
0.053257
 10
3.7113
 20
5.468804
 42
0.053257
 10
3.710308
 20
5.478093
 42
0.06711
 10
3.707784
 20
5.485077
 42
0.105107
 10
3.703399
 20
5.490385
 42
0.169353
  0
LWPOLYLINE
  5
2BB
330
18
100
AcDbEntity
  8
0
100
AcDbPolyline
 90
       16
 70
   129
 43
0.0
 10
3.584192
 20
5.56781
 42
0.169353
 10
3.580086
 20
5.566378
 42
0.105107
 10
3.575702
 20
5.561069
 42
0.06711
 10
3.573178
 20
5.554086
 42
0.053257
 10
3.572186
 20
5.544796
 42
0.053257
 10
3.573178
 20
5.535507
 42
0.06711
 10
3.575702
 20
5.528524
 42
0.105107
 10
3.580086
 20
5.523215
 42
0.169353
 10
3.584192
 20
5.521783
 42
0.169353
 10
3.588297
 20
5.523215
 42
0.105107
 10
3.592681
 20
5.528524
 42
0.06711
 10
3.595206
 20
5.535507
 42
0.053257
 10
3.596198
 20
5.544796
 42
0.053257
 10
3.595206
 20
5.554086
 42
0.06711
 10
3.592681
 20
5.561069
 42
0.105107
 10
3.588297
 20
5.566378
 42
0.169353
  0
LWPOLYLINE
  5
2CE
330
18
100
AcDbEntity
  8
0
100
AcDbPolyline
 90
       16
 70
   129
 43
0.0
 10
3.436639
 20
4.404075
 42
0.131568
 10
3.426436
 20
4.401343
 42
0.106609
 10
3.416828
 20
4.392646
 42
0.083601
 10
3.41087
 20
4.380493
 42
0.072394
 10
3.408622
 20
4.365053
 42
0.072394
 10
3.41087
 20
4.349613
 42
0.083601
 10
3.416828
 20
4.337461
 42
0.106609
 10
3.426436
 20
4.328764
 42
0.131568
 10
3.436639
 20
4.326031
 42
0.131568
 10
3.446843
 20
4.328764
 42
0.106609
 10
3.456451
 20
4.337461
 42
0.083601
 10
3.462409
 20
4.349613
 42
0.072394
 10
3.464657
 20
4.365053
 42
0.072394
 10
3.462409
 20
4.380493
 42
0.083601
 10
3.456451
 20
4.392646
 42
0.106609
 10
3.446843
 20
4.401343
 42
0.131568
  0
LWPOLYLINE
  5
2E1
330
18
100
AcDbEntity
  8
0
100
AcDbPolyline
 90
       16
 70
   129
 43
0.0
 10
3.381644
 20
4.305973000000001
 42
0.169353
 10
3.377539
 20
4.304542
 42
0.105107
 10
3.373155
 20
4.299233
 42
0.06711
 10
3.37063
 20
4.292249
 42
0.053257
 10
3.369638
 20
4.28296
 42
0.053257
 10
3.37063
 20
4.273671
 42
0.06711
 10
3.373155
 20
4.266687
 42
0.105107
 10
3.377539
 20
4.261379
 42
0.169353
 10
3.381644
 20
4.259947
 42
0.169353
 10
3.38575
 20
4.261379
 42
0.105107
 10
3.390134
 20
4.266687
 42
0.06711
 10
3.392658
 20
4.273671
 42
0.053257
 10
3.39365
 20
4.28296
 42
0.053257
 10
3.392658
 20
4.292249
 42
0.06711
 10
3.390134
 20
4.299233
 42
0.105107
 10
3.38575
 20
4.304542
 42
0.169353
  0
LWPOLYLINE
  5
2F4
330
18
100
AcDbEntity
  8
0
100
AcDbPolyline
 90
        8
 70
   128
 43
0.0
 10
3.425168
 20
4.329537
 42
0.074913
 10
3.430832
 20
4.331758
 42
0.106609
 10
3.44044
 20
4.340455
 42
0.083601
 10
3.446399
 20
4.352608
 42
0.072394
 10
3.448646
 20
4.368048
 42
0.072394
 10
3.446399
 20
4.383488
 42
0.083601
 10
3.44044
 20
4.39564
 42
0.094402
 10
3.4321
 20
4.403564
 42
0.131568
  0
LWPOLYLINE
  5
2FF
330
18
100
AcDbEntity
  8
0
100
AcDbPolyline
 90
       16
 70
   129
 43
0.0
 10
3.36556
 20
4.471063
 42
0.169353
 10
3.361455
 20
4.469632
 42
0.105107
 10
3.35707
 20
4.464323
 42
0.06711
 10
3.354546
 20
4.457339
 42
0.053257
 10
3.353554
 20
4.44805
 42
0.053257
 10
3.354546
 20
4.438761
 42
0.06711
 10
3.35707
 20
4.431778
 42
0.105107
 10
3.361455
 20
4.426469
 42
0.169353
 10
3.36556
 20
4.425037000000001
 42
0.169353
 10
3.369665
 20
4.426469
 42
0.105107
 10
3.37405
 20
4.431778
 42
0.06711
 10
3.376574
 20
4.438761
 42
0.053257
 10
3.377566
 20
4.44805
 42
0.053257
 10
3.376574
 20
4.457339
 42
0.06711
 10
3.37405
 20
4.464323
 42
0.105107
 10
3.369665
 20
4.469632
 42
0.169353
  0
LWPOLYLINE
  5
312
330
18
100
AcDbEntity
  8
0
100
AcDbPolyline
 90
       16
 70
   129
 43
0.0
 10
3.485635
 20
4.461112
 42
0.169353
 10
3.48153
 20
4.459680000000001
 42
0.105107
 10
3.477146
 20
4.454372
 42
0.06711
 10
3.474621
 20
4.447388
 42
0.053257
 10
3.473629
 20
4.438099
 42
0.053257
 10
3.474621
 20
4.42881
 42
0.06711
 10
3.477146
 20
4.421826
 42
0.105107
 10
3.48153
 20
4.416517
 42
0.169353
 10
3.485635
 20
4.415086
 42
0.169353
 10
3.489741
 20
4.416517
 42
0.105107
 10
3.494125
 20
4.421826
 42
0.06711
 10
3.496649
 20
4.42881
 42
0.053257
 10
3.497641
 20
4.438099
 42
0.053257
 10
3.496649
 20
4.447388
 42
0.06711
 10
3.494125
 20
4.454372
 42
0.105107
 10
3.489741
 20
4.459680000000001
 42
0.169353
  0
LWPOLYLINE
  5
325
330
18
100
AcDbEntity
  8
0
100
AcDbPolyline
 90
       16
 70
   129
 43
0.0
 10
3.485635
 20
4.585189
 42
0.169353
 10
3.48153
 20
4.583757
 42
0.105107
 10
3.477146
 20
4.578448000000001
 42
0.06711
 10
3.474621
 20
4.571465
 42
0.053257
 10
3.473629
 20
4.562176
 42
0.053257
 10
3.474621
 20
4.552887
 42
0.06711
 10
3.477146
 20
4.545903
 42
0.105107
 10
3.48153
 20
4.540594000000001
 42
0.169353
 10
3.485635
 20
4.539162999999999
 42
0.169353
 10
3.489741
 20
4.540594000000001
 42
0.105107
 10
3.494125
 20
4.545903
 42
0.06711
 10
3.496649
 20
4.552887
 42
0.053257
 10
3.497641
 20
4.562176
 42
0.053257
 10
3.496649
 20
4.571465
 42
0.06711
 10
3.494125
 20
4.578448000000001
 42
0.105107
 10
3.489741
 20
4.583757
 42
0.169353
  0
LWPOLYLINE
  5
338
330
18
100
AcDbEntity
  8
0
100
AcDbPolyline
 90
       16
 70
   129
 43
0.0
 10
3.36556
 20
4.59514
 42
0.169353
 10
3.361455
 20
4.593709
 42
0.105107
 10
3.35707
 20
4.5884
 42
0.06711
 10
3.354546
 20
4.581416
 42
0.053257
 10
3.353554
 20
4.572127
 42
0.053257
 10
3.354546
 20
4.562838
 42
0.06711
 10
3.35707
 20
4.555854
 42
0.105107
 10
3.361455
 20
4.550545
 42
0.169353
 10
3.36556
 20
4.549114
 42
0.169353
 10
3.369665
 20
4.550545
 42
0.105107
 10
3.37405
 20
4.555854
 42
0.06711
 10
3.376574
 20
4.562838
 42
0.053257
 10
3.377566
 20
4.572127
 42
0.053257
 10
3.376574
 20
4.581416
 42
0.06711
 10
3.37405
 20
4.5884
 42
0.105107
 10
3.369665
 20
4.593709
 42
0.169353
  0
LWPOLYLINE
  5
34B
330
18
100
AcDbEntity
  8
0
100
AcDbPolyline
 90
       16
 70
   129
 43
0.0
 10
3.485635
 20
4.720273000000001
 42
0.169353
 10
3.48153
 20
4.718841
 42
0.105107
 10
3.477146
 20
4.713533
 42
0.06711
 10
3.474621
 20
4.706549
 42
0.053257
 10
3.473629
 20
4.69726
 42
0.053257
 10
3.474621
 20
4.687971
 42
0.06711
 10
3.477146
 20
4.680987
 42
0.105107
 10
3.48153
 20
4.675678
 42
0.169353
 10
3.485635
 20
4.674247
 42
0.169353
 10
3.489741
 20
4.675678
 42
0.105107
 10
3.494125
 20
4.680987
 42
0.06711
 10
3.496649
 20
4.687971
 42
0.053257
 10
3.497641
 20
4.69726
 42
0.053257
 10
3.496649
 20
4.706549
 42
0.06711
 10
3.494125
 20
4.713533
 42
0.105107
 10
3.489741
 20
4.718841
 42
0.169353
  0
LWPOLYLINE
  5
35E
330
18
100
AcDbEntity
  8
0
100
AcDbPolyline
 90
       16
 70
   129
 43
0.0
 10
3.36556
 20
4.730224
 42
0.169353
 10
3.361455
 20
4.728793000000001
 42
0.105107
 10
3.35707
 20
4.723484
 42
0.06711
 10
3.354546
 20
4.7165
 42
0.053257
 10
3.353554
 20
4.707211
 42
0.053257
 10
3.354546
 20
4.697922
 42
0.06711
 10
3.35707
 20
4.690939
 42
0.105107
 10
3.361455
 20
4.685630000000001
 42
0.169353
 10
3.36556
 20
4.684198
 42
0.169353
 10
3.369665
 20
4.685630000000001
 42
0.105107
 10
3.37405
 20
4.690939
 42
0.06711
 10
3.376574
 20
4.697922
 42
0.053257
 10
3.377566
 20
4.707211
 42
0.053257
 10
3.376574
 20
4.7165
 42
0.06711
 10
3.37405
 20
4.723484
 42
0.105107
 10
3.369665
 20
4.728793000000001
 42
0.169353
  0
LINE
  5
371
330
18
100
AcDbEntity
  8
0
100
AcDbLine
 10
6.409637
 20
4.671582
 30
0.0
 11
6.51438
 21
4.569568
 31
0.0
  0
LINE
  5
372
330
18
100
AcDbEntity
  8
0
100
AcDbLine
 10
6.51438
 20
4.569568
 30
0.0
 11
6.320293
 21
4.510445
 31
0.0
  0
LINE
  5
373
330
18
100
AcDbEntity
  8
0
100
AcDbLine
 10
6.320293
 20
4.510445
 30
0.0
 11
6.409637
 21
4.396424
 31
0.0
  0
LINE
  5
374
330
18
100
AcDbEntity
  8
0
100
AcDbLine
 10
6.554791000000001
 20
4.595937
 30
0.0
 11
6.609125
 21
4.526595
 31
0.0
  0
LINE
  5
375
330
18
100
AcDbEntity
  8
0
100
AcDbLine
 10
6.609125
 20
4.801753
 30
0.0
 11
6.713869
 21
4.69974
 31
0.0
  0
LINE
  5
376
330
18
100
AcDbEntity
  8
0
100
AcDbLine
 10
6.609125
 20
4.526595
 30
0.0
 11
6.609125
 21
4.012283999999999
 31
0.0
  0
LINE
  5
377
330
18
100
AcDbEntity
  8
0
100
AcDbLine
 10
6.409637
 20
4.671582
 30
0.0
 11
6.409637
 21
5.125844
 31
0.0
  0
LINE
  5
378
330
18
100
AcDbEntity
  8
0
100
AcDbLine
 10
6.409637
 20
4.671582
 30
0.0
 11
6.609125
 21
4.801753
 31
0.0
  0
LINE
  5
379
330
18
100
AcDbEntity
  8
0
100
AcDbLine
 10
6.51438
 20
4.569568
 30
0.0
 11
6.713869
 21
4.69974
 31
0.0
  0
LINE
  5
37A
330
18
100
AcDbEntity
  8
0
100
AcDbLine
 10
6.409637
 20
4.396424
 30
0.0
 11
6.609125
 21
4.526595
 31
0.0
  0
LWPOLYLINE
  5
37B
330
18
100
AcDbEntity
  8
0
100
AcDbPolyline
 90
        4
 70
   128
 43
0.0
 10
6.458687
 20
3.903557
 10
6.442609
 20
3.971182
 10
6.436574
 20
4.041221
 10
6.409637
 20
4.111248000000001
  0
LWPOLYLINE
  5
382
330
18
100
AcDbEntity
  8
0
100
AcDbPolyline
 90
        8
 70
   128
 43
0.0
 10
6.503283000000001
 20
3.935788
 10
6.487604
 20
4.040244
 10
6.478573
 20
4.097273
 10
6.469533
 20
4.174314
 10
6.4645
 20
4.241352
 10
6.449465
 20
4.299379
 10
6.433439
 20
4.335393
 10
6.409637
 20
4.378403
  0
LWPOLYLINE
  5
38D
330
18
100
AcDbEntity
  8
0
100
AcDbPolyline
 90
        7
 70
   128
 43
0.0
 10
6.547368
 20
3.96765
 10
6.519597
 20
4.097292
 10
6.512562
 20
4.166329
 10
6.492502
 20
4.272383000000001
 10
6.480464
 20
4.340417
 10
6.470437
 20
4.387441
 10
6.459666
 20
4.429069999999999
  0
LWPOLYLINE
  5
397
330
18
100
AcDbEntity
  8
0
100
AcDbPolyline
 90
        6
 70
   128
 43
0.0
 10
6.586228999999999
 20
3.995736
 10
6.562608999999999
 20
4.12833
 10
6.550552
 20
4.238389
 10
6.539505
 20
4.326436
 10
6.524462000000001
 20
4.402474
 10
6.502239
 20
4.456849
  0
LWPOLYLINE
  5
3A0
330
18
100
AcDbEntity
  8
0
100
AcDbPolyline
 90
        4
 70
   128
 43
0.0
 10
6.609125
 20
4.270429
 10
6.586514
 20
4.369483
 10
6.558458
 20
4.455521
 10
6.54661
 20
4.485802
  0
LWPOLYLINE
  5
3A7
330
18
100
AcDbEntity
  8
0
100
AcDbPolyline
 90
        2
 70
   128
 43
0.0
 10
6.460093
 20
4.429348
 10
6.369621
 20
4.525471
  0
LWPOLYLINE
  5
3AC
330
18
100
AcDbEntity
  8
0
100
AcDbPolyline
 90
        2
 70
   128
 43
0.0
 10
6.508219
 20
4.460751
 10
6.428904
 20
4.543530000000001
  0
LWPOLYLINE
  5
3B1
330
18
100
AcDbEntity
  8
0
100
AcDbPolyline
 90
        2
 70
   128
 43
0.0
 10
6.54661
 20
4.485802
 10
6.488942
 20
4.561819
  0
LWPOLYLINE
  5
3B6
330
18
100
AcDbEntity
  8
0
100
AcDbPolyline
 90
        5
 70
   128
 43
0.0
 10
6.475144
 20
4.714327
 10
6.448255000000001
 20
4.760651
 10
6.440230000000001
 20
4.803673000000001
 10
6.428207
 20
4.838687999999999
 10
6.409637
 20
4.871699
  0
LWPOLYLINE
  5
3BE
330
18
100
AcDbEntity
  8
0
100
AcDbPolyline
 90
        8
 70
   128
 43
0.0
 10
6.516432
 20
4.741269
 10
6.488253
 20
4.815701
 10
6.471223
 20
4.859719999999999
 10
6.464184
 20
4.936762
 10
6.464161
 20
4.988793
 10
6.457129
 20
5.048825
 10
6.446098
 20
5.102852
 10
6.443964
 20
5.148244
  0
LWPOLYLINE
  5
3C9
330
18
100
AcDbEntity
  8
0
100
AcDbPolyline
 90
        7
 70
   128
 43
0.0
 10
6.551282
 20
4.76401
 10
6.533275
 20
4.825728
 10
6.523244
 20
4.881756
 10
6.516196
 20
4.97781
 10
6.509144999999999
 20
5.081868
 10
6.509119999999999
 20
5.1359
 10
6.509380999999999
 20
5.190930000000001
  0
LWPOLYLINE
  5
3D3
330
18
100
AcDbEntity
  8
0
100
AcDbPolyline
 90
        7
 70
   128
 43
0.0
 10
6.584364
 20
4.785597
 10
6.590294
 20
4.858773
 10
6.578255
 20
4.92981
 10
6.569211999999999
 20
5.012854
 10
6.554153
 20
5.122913
 10
6.549122000000001
 20
5.184947
 10
6.558436
 20
5.22294
  0
LWPOLYLINE
  5
3DD
330
18
100
AcDbEntity
  8
0
100
AcDbPolyline
 90
        2
 70
   128
 43
0.0
 10
6.475144
 20
4.714327
 10
6.570774
 20
4.606366
  0
LWPOLYLINE
  5
3E2
330
18
100
AcDbEntity
  8
0
100
AcDbPolyline
 90
        2
 70
   128
 43
0.0
 10
6.516432
 20
4.741269
 10
6.614125
 20
4.634654
  0
LWPOLYLINE
  5
3E7
330
18
100
AcDbEntity
  8
0
100
AcDbPolyline
 90
        2
 70
   128
 43
0.0
 10
6.551282
 20
4.76401
 10
6.650150999999999
 20
4.658162
  0
LINE
  5
3EC
330
18
100
AcDbEntity
  8
0
100
AcDbLine
 10
7.856516
 20
6.018031
 30
0.0
 11
7.856516
 21
5.619795
 31
0.0
  0
LINE
  5
3ED
330
18
100
AcDbEntity
  8
0
100
AcDbLine
 10
7.856516
 20
4.912374
 30
0.0
 11
8.063086
 21
5.02754
 31
0.0
  0
LINE
  5
3EE
330
18
100
AcDbEntity
  8
0
100
AcDbLine
 10
8.063086
 20
5.02754
 30
0.0
 11
8.063086
 21
5.448796
 31
0.0
  0
LINE
  5
3EF
330
18
100
AcDbEntity
  8
0
100
AcDbLine
 10
7.856516
 20
6.018031
 30
0.0
 11
8.063086
 21
6.133197
 31
0.0
  0
LINE
  5
3F0
330
18
100
AcDbEntity
  8
0
100
AcDbLine
 10
7.856516
 20
4.912374
 30
0.0
 11
5.155694
 21
5.921622
 31
0.0
  0
LINE
  5
3F1
330
18
100
AcDbEntity
  8
0
100
AcDbLine
 10
7.856516
 20
6.018031
 30
0.0
 11
4.862809
 21
6.993035000000001
 31
0.0
  0
LINE
  5
3F2
330
18
100
AcDbEntity
  8
0
100
AcDbLine
 10
8.063086
 20
6.133197
 30
0.0
 11
5.446364
 21
6.959776
 31
0.0
  0
LINE
  5
3F3
330
18
100
AcDbEntity
  8
0
100
AcDbLine
 10
3.883704
 20
7.048838000000001
 30
0.0
 11
6.496313
 21
6.899935
 31
0.0
  0
LINE
  5
3F4
330
18
100
AcDbEntity
  8
0
100
AcDbLine
 10
6.496313
 20
6.899935
 30
0.0
 11
8.240133999999999
 21
7.357996000000001
 31
0.0
  0
LINE
  5
3F5
330
18
100
AcDbEntity
  8
0
100
AcDbLine
 10
6.496313
 20
6.899935
 30
0.0
 11
6.496313
 21
6.994992
 31
0.0
  0
LINE
  5
3F6
330
18
100
AcDbEntity
  8
0
100
AcDbLine
 10
8.240133999999999
 20
7.357996000000001
 30
0.0
 11
8.240133999999999
 21
7.453053
 31
0.0
  0
LINE
  5
3F7
330
18
100
AcDbEntity
  8
0
100
AcDbLine
 10
3.883704
 20
7.143896000000001
 30
0.0
 11
6.496313
 21
6.994992
 31
0.0
  0
LINE
  5
3F8
330
18
100
AcDbEntity
  8
0
100
AcDbLine
 10
6.496313
 20
6.994992
 30
0.0
 11
8.240133999999999
 21
7.453053
 31
0.0
  0
LINE
  5
3F9
330
18
100
AcDbEntity
  8
0
100
AcDbLine
 10
8.240133999999999
 20
7.453053
 30
0.0
 11
7.181118
 21
8.290749999999999
 31
0.0
  0
LINE
  5
3FA
330
18
100
AcDbEntity
  8
0
100
AcDbLine
 10
4.481244
 20
6.173652
 30
0.0
 11
4.481244
 21
6.604846
 31
0.0
  0
LINE
  5
3FB
330
18
100
AcDbEntity
  8
0
100
AcDbLine
 10
6.424876
 20
6.65068
 30
0.0
 11
7.378057000000001
 21
7.131548
 31
0.0
  0
LINE
  5
3FC
330
18
100
AcDbEntity
  8
0
100
AcDbLine
 10
6.240296
 20
6.708986
 30
0.0
 11
6.780378999999999
 21
6.974552
 31
0.0
  0
LINE
  5
3FD
330
18
100
AcDbEntity
  8
0
100
AcDbLine
 10
6.050803
 20
6.768844000000001
 30
0.0
 11
6.342366999999999
 21
6.908709
 31
0.0
  0
LINE
  5
3FE
330
18
100
AcDbEntity
  8
0
100
AcDbLine
 10
5.877930999999999
 20
6.823451
 30
0.0
 11
6.091872
 21
6.922986
 31
0.0
  0
LINE
  5
3FF
330
18
100
AcDbEntity
  8
0
100
AcDbLine
 10
7.639580000000001
 20
6.266975
 30
0.0
 11
7.991389999999999
 21
6.470358999999999
 31
0.0
  0
LINE
  5
400
330
18
100
AcDbEntity
  8
0
100
AcDbLine
 10
4.450866
 20
6.940582000000001
 30
0.0
 11
4.285022000000001
 21
6.870914999999999
 31
0.0
  0
LINE
  5
401
330
18
100
AcDbEntity
  8
0
100
AcDbLine
 10
4.285022000000001
 20
6.870914999999999
 30
0.0
 11
4.285022000000001
 21
6.795875
 31
0.0
  0
LINE
  5
402
330
18
100
AcDbEntity
  8
0
100
AcDbLine
 10
4.285022000000001
 20
6.795875
 30
0.0
 11
4.36011
 21
6.772891
 31
0.0
  0
LINE
  5
403
330
18
100
AcDbEntity
  8
0
100
AcDbLine
 10
4.36011
 20
6.772891
 30
0.0
 11
4.36011
 21
6.732866000000001
 31
0.0
  0
LINE
  5
404
330
18
100
AcDbEntity
  8
0
100
AcDbLine
 10
4.36011
 20
6.732866000000001
 30
0.0
 11
4.277127
 21
6.628769
 31
0.0
  0
LINE
  5
405
330
18
100
AcDbEntity
  8
0
100
AcDbLine
 10
4.277127
 20
6.628769
 30
0.0
 11
4.277127
 21
6.526711
 31
0.0
  0
LINE
  5
406
330
18
100
AcDbEntity
  8
0
100
AcDbLine
 10
4.277127
 20
6.526711
 30
0.0
 11
4.346208
 21
6.539748
 31
0.0
  0
LINE
  5
407
330
18
100
AcDbEntity
  8
0
100
AcDbLine
 10
4.346208
 20
6.539748
 30
0.0
 11
4.346208
 21
6.484718
 31
0.0
  0
LINE
  5
408
330
18
100
AcDbEntity
  8
0
100
AcDbLine
 10
4.346208
 20
6.484718
 30
0.0
 11
4.275221
 21
6.418644000000001
 31
0.0
  0
LINE
  5
409
330
18
100
AcDbEntity
  8
0
100
AcDbLine
 10
4.275221
 20
6.418644000000001
 30
0.0
 11
4.275221
 21
6.344607
 31
0.0
  0
LINE
  5
40A
330
18
100
AcDbEntity
  8
0
100
AcDbLine
 10
4.275221
 20
6.344607
 30
0.0
 11
4.474343
 21
6.408728
 31
0.0
  0
LINE
  5
40B
330
18
100
AcDbEntity
  8
0
100
AcDbLine
 10
4.474343
 20
6.408728
 30
0.0
 11
4.615437
 21
6.383778
 31
0.0
  0
LINE
  5
40C
330
18
100
AcDbEntity
  8
0
100
AcDbLine
 10
4.615437
 20
6.383778
 30
0.0
 11
4.615437
 21
6.451817
 31
0.0
  0
LINE
  5
40D
330
18
100
AcDbEntity
  8
0
100
AcDbLine
 10
4.615437
 20
6.451817
 30
0.0
 11
4.679428
 21
6.488869
 31
0.0
  0
LINE
  5
40E
330
18
100
AcDbEntity
  8
0
100
AcDbLine
 10
4.679428
 20
6.488869
 30
0.0
 11
4.679428
 21
6.581922000000001
 31
0.0
  0
LINE
  5
40F
330
18
100
AcDbEntity
  8
0
100
AcDbLine
 10
4.679428
 20
6.581922000000001
 30
0.0
 11
4.614341000000001
 21
6.595902000000001
 31
0.0
  0
LINE
  5
410
330
18
100
AcDbEntity
  8
0
100
AcDbLine
 10
4.614341000000001
 20
6.595902000000001
 30
0.0
 11
4.614341000000001
 21
6.654935000000001
 31
0.0
  0
LINE
  5
411
330
18
100
AcDbEntity
  8
0
100
AcDbLine
 10
4.614341000000001
 20
6.654935000000001
 30
0.0
 11
4.668322
 21
6.707992999999999
 31
0.0
  0
LINE
  5
412
330
18
100
AcDbEntity
  8
0
100
AcDbLine
 10
4.668322
 20
6.707992999999999
 30
0.0
 11
4.668322
 21
6.783036
 31
0.0
  0
LINE
  5
413
330
18
100
AcDbEntity
  8
0
100
AcDbLine
 10
4.668322
 20
6.783036
 30
0.0
 11
4.611233
 21
6.830039
 31
0.0
  0
LINE
  5
414
330
18
100
AcDbEntity
  8
0
100
AcDbLine
 10
4.611233
 20
6.830039
 30
0.0
 11
4.611233
 21
6.883071000000001
 31
0.0
  0
LINE
  5
415
330
18
100
AcDbEntity
  8
0
100
AcDbLine
 10
4.611233
 20
6.883071000000001
 30
0.0
 11
4.450866
 21
6.940582000000001
 31
0.0
  0
LINE
  5
416
330
18
100
AcDbEntity
  8
0
100
AcDbLine
 10
4.398166000000001
 20
6.699866
 30
0.0
 11
4.398166000000001
 21
6.616819000000001
 31
0.0
  0
LINE
  5
417
330
18
100
AcDbEntity
  8
0
100
AcDbLine
 10
4.429192
 20
6.69888
 30
0.0
 11
4.429192
 21
6.631842999999999
 31
0.0
  0
LWPOLYLINE
  5
418
330
18
100
AcDbEntity
  8
0
100
AcDbPolyline
 90
       16
 70
   129
 43
0.0
 10
4.331053
 20
6.854925
 42
0.169353
 10
4.326948000000001
 20
6.853492999999999
 42
0.105107
 10
4.322564
 20
6.848184
 42
0.06711
 10
4.320039
 20
6.841201
 42
0.053257
 10
4.319047
 20
6.831911999999999
 42
0.053257
 10
4.320039
 20
6.822622999999999
 42
0.06711
 10
4.322564
 20
6.815639
 42
0.105107
 10
4.326948000000001
 20
6.81033
 42
0.169353
 10
4.331053
 20
6.808899
 42
0.169353
 10
4.335159
 20
6.81033
 42
0.105107
 10
4.339543
 20
6.815639
 42
0.06711
 10
4.342067
 20
6.822622999999999
 42
0.053257
 10
4.34306
 20
6.831911999999999
 42
0.053257
 10
4.342067
 20
6.841201
 42
0.06711
 10
4.339543
 20
6.848184
 42
0.105107
 10
4.335159
 20
6.853492999999999
 42
0.169353
  0
LWPOLYLINE
  5
42B
330
18
100
AcDbEntity
  8
0
100
AcDbPolyline
 90
       16
 70
   129
 43
0.0
 10
4.331053
 20
6.616785
 42
0.169353
 10
4.326948000000001
 20
6.615353999999999
 42
0.105107
 10
4.322564
 20
6.610045
 42
0.06711
 10
4.320039
 20
6.603061
 42
0.053257
 10
4.319047
 20
6.593772
 42
0.053257
 10
4.320039
 20
6.584483000000001
 42
0.06711
 10
4.322564
 20
6.577499
 42
0.105107
 10
4.326948000000001
 20
6.572191
 42
0.169353
 10
4.331053
 20
6.570759
 42
0.169353
 10
4.335159
 20
6.572191
 42
0.105107
 10
4.339543
 20
6.577499
 42
0.06711
 10
4.342067
 20
6.584483000000001
 42
0.053257
 10
4.34306
 20
6.593772
 42
0.053257
 10
4.342067
 20
6.603061
 42
0.06711
 10
4.339543
 20
6.610045
 42
0.105107
 10
4.335159
 20
6.615353999999999
 42
0.169353
  0
LWPOLYLINE
  5
43E
330
18
100
AcDbEntity
  8
0
100
AcDbPolyline
 90
       16
 70
   129
 43
0.0
 10
4.331053
 20
6.434677
 42
0.169353
 10
4.326948000000001
 20
6.433244999999999
 42
0.105107
 10
4.322564
 20
6.427937
 42
0.06711
 10
4.320039
 20
6.420953
 42
0.053257
 10
4.319047
 20
6.411664
 42
0.053257
 10
4.320039
 20
6.402375
 42
0.06711
 10
4.322564
 20
6.395391
 42
0.105107
 10
4.326948000000001
 20
6.390082
 42
0.169353
 10
4.331053
 20
6.388651
 42
0.169353
 10
4.335159
 20
6.390082
 42
0.105107
 10
4.339543
 20
6.395391
 42
0.06711
 10
4.342067
 20
6.402375
 42
0.053257
 10
4.34306
 20
6.411664
 42
0.053257
 10
4.342067
 20
6.420953
 42
0.06711
 10
4.339543
 20
6.427937
 42
0.105107
 10
4.335159
 20
6.433244999999999
 42
0.169353
  0
LWPOLYLINE
  5
451
330
18
100
AcDbEntity
  8
0
100
AcDbPolyline
 90
       16
 70
   129
 43
0.0
 10
4.412131
 20
6.550783
 42
0.169353
 10
4.408026
 20
6.549352
 42
0.105107
 10
4.403642
 20
6.544043
 42
0.06711
 10
4.401117
 20
6.537058999999999
 42
0.053257
 10
4.400125
 20
6.527769999999999
 42
0.053257
 10
4.401117
 20
6.518481
 42
0.06711
 10
4.403642
 20
6.511497
 42
0.105107
 10
4.408026
 20
6.506188
 42
0.169353
 10
4.412131
 20
6.504757
 42
0.169353
 10
4.416236000000001
 20
6.506188
 42
0.105107
 10
4.420621
 20
6.511497
 42
0.06711
 10
4.423145
 20
6.518481
 42
0.053257
 10
4.424137
 20
6.527769999999999
 42
0.053257
 10
4.423145
 20
6.537058999999999
 42
0.06711
 10
4.420621
 20
6.544043
 42
0.105107
 10
4.416236000000001
 20
6.549352
 42
0.169353
  0
LWPOLYLINE
  5
464
330
18
100
AcDbEntity
  8
0
100
AcDbPolyline
 90
       16
 70
   129
 43
0.0
 10
4.432173000000001
 20
6.484753
 42
0.169353
 10
4.428068
 20
6.483322
 42
0.105107
 10
4.423683000000001
 20
6.478013
 42
0.06711
 10
4.421158999999999
 20
6.471029
 42
0.053257
 10
4.420167
 20
6.46174
 42
0.053257
 10
4.421158999999999
 20
6.452451
 42
0.06711
 10
4.423683000000001
 20
6.445467
 42
0.105107
 10
4.428068
 20
6.440158
 42
0.169353
 10
4.432173000000001
 20
6.438727
 42
0.169353
 10
4.436278
 20
6.440158
 42
0.105107
 10
4.440663
 20
6.445467
 42
0.06711
 10
4.443187
 20
6.452451
 42
0.053257
 10
4.444179
 20
6.46174
 42
0.053257
 10
4.443187
 20
6.471029
 42
0.06711
 10
4.440663
 20
6.478013
 42
0.105107
 10
4.436278
 20
6.483322
 42
0.169353
  0
LWPOLYLINE
  5
477
330
18
100
AcDbEntity
  8
0
100
AcDbPolyline
 90
       16
 70
   129
 43
0.0
 10
4.575273
 20
6.449797
 42
0.169353
 10
4.571168
 20
6.448366
 42
0.105107
 10
4.566783999999999
 20
6.443057
 42
0.06711
 10
4.564259
 20
6.436073
 42
0.053257
 10
4.563267
 20
6.426784
 42
0.053257
 10
4.564259
 20
6.417495
 42
0.06711
 10
4.566783999999999
 20
6.410512000000001
 42
0.105107
 10
4.571168
 20
6.405203
 42
0.169353
 10
4.575273
 20
6.403771
 42
0.169353
 10
4.579379
 20
6.405203
 42
0.105107
 10
4.583762999999999
 20
6.410512000000001
 42
0.06711
 10
4.586287
 20
6.417495
 42
0.053257
 10
4.587279
 20
6.426784
 42
0.053257
 10
4.586287
 20
6.436073
 42
0.06711
 10
4.583762999999999
 20
6.443057
 42
0.105107
 10
4.579379
 20
6.448366
 42
0.169353
  0
LWPOLYLINE
  5
48A
330
18
100
AcDbEntity
  8
0
100
AcDbPolyline
 90
       16
 70
   129
 43
0.0
 10
4.575273
 20
6.509837
 42
0.169353
 10
4.571168
 20
6.508406
 42
0.105107
 10
4.566783999999999
 20
6.503097
 42
0.06711
 10
4.564259
 20
6.496112999999999
 42
0.053257
 10
4.563267
 20
6.486824
 42
0.053257
 10
4.564259
 20
6.477535
 42
0.06711
 10
4.566783999999999
 20
6.470552
 42
0.105107
 10
4.571168
 20
6.465243
 42
0.169353
 10
4.575273
 20
6.463811
 42
0.169353
 10
4.579379
 20
6.465243
 42
0.105107
 10
4.583762999999999
 20
6.470552
 42
0.06711
 10
4.586287
 20
6.477535
 42
0.053257
 10
4.587279
 20
6.486824
 42
0.053257
 10
4.586287
 20
6.496112999999999
 42
0.06711
 10
4.583762999999999
 20
6.503097
 42
0.105107
 10
4.579379
 20
6.508406
 42
0.169353
  0
LWPOLYLINE
  5
49D
330
18
100
AcDbEntity
  8
0
100
AcDbPolyline
 90
       16
 70
   129
 43
0.0
 10
4.575273
 20
6.645917999999999
 42
0.169353
 10
4.571168
 20
6.644487
 42
0.105107
 10
4.566783999999999
 20
6.639178
 42
0.06711
 10
4.564259
 20
6.632194
 42
0.053257
 10
4.563267
 20
6.622905
 42
0.053257
 10
4.564259
 20
6.613616
 42
0.06711
 10
4.566783999999999
 20
6.606632
 42
0.105107
 10
4.571168
 20
6.601323
 42
0.169353
 10
4.575273
 20
6.599892
 42
0.169353
 10
4.579379
 20
6.601323
 42
0.105107
 10
4.583762999999999
 20
6.606632
 42
0.06711
 10
4.586287
 20
6.613616
 42
0.053257
 10
4.587279
 20
6.622905
 42
0.053257
 10
4.586287
 20
6.632194
 42
0.06711
 10
4.583762999999999
 20
6.639178
 42
0.105107
 10
4.579379
 20
6.644487
 42
0.169353
  0
LWPOLYLINE
  5
4B0
330
18
100
AcDbEntity
  8
0
100
AcDbPolyline
 90
       16
 70
   129
 43
0.0
 10
4.575273
 20
6.86905
 42
0.169353
 10
4.571168
 20
6.867619
 42
0.105107
 10
4.566783999999999
 20
6.862310000000001
 42
0.06711
 10
4.564259
 20
6.855326
 42
0.053257
 10
4.563267
 20
6.846037
 42
0.053257
 10
4.564259
 20
6.836747999999999
 42
0.06711
 10
4.566783999999999
 20
6.829764
 42
0.105107
 10
4.571168
 20
6.824455
 42
0.169353
 10
4.575273
 20
6.823024
 42
0.169353
 10
4.579379
 20
6.824455
 42
0.105107
 10
4.583762999999999
 20
6.829764
 42
0.06711
 10
4.586287
 20
6.836747999999999
 42
0.053257
 10
4.587279
 20
6.846037
 42
0.053257
 10
4.586287
 20
6.855326
 42
0.06711
 10
4.583762999999999
 20
6.862310000000001
 42
0.105107
 10
4.579379
 20
6.867619
 42
0.169353
  0
LWPOLYLINE
  5
4C3
330
18
100
AcDbEntity
  8
0
100
AcDbPolyline
 90
       16
 70
   129
 43
0.0
 10
4.626353
 20
6.760008999999999
 42
0.169353
 10
4.622247
 20
6.758577000000001
 42
0.105107
 10
4.617863
 20
6.753269
 42
0.06711
 10
4.615339
 20
6.746285
 42
0.053257
 10
4.614347
 20
6.736996
 42
0.053257
 10
4.615339
 20
6.727707000000001
 42
0.06711
 10
4.617863
 20
6.720723
 42
0.105107
 10
4.622247
 20
6.715414
 42
0.169353
 10
4.626353
 20
6.713983
 42
0.169353
 10
4.630458
 20
6.715414
 42
0.105107
 10
4.634842
 20
6.720723
 42
0.06711
 10
4.637367
 20
6.727707000000001
 42
0.053257
 10
4.638359
 20
6.736996
 42
0.053257
 10
4.637367
 20
6.746285
 42
0.06711
 10
4.634842
 20
6.753269
 42
0.105107
 10
4.630458
 20
6.758577000000001
 42
0.169353
  0
LWPOLYLINE
  5
4D6
330
18
100
AcDbEntity
  8
0
100
AcDbPolyline
 90
       16
 70
   129
 43
0.0
 10
4.626353
 20
6.547896
 42
0.169353
 10
4.622247
 20
6.546464
 42
0.105107
 10
4.617863
 20
6.541155000000001
 42
0.06711
 10
4.615339
 20
6.534172
 42
0.053257
 10
4.614347
 20
6.524883
 42
0.053257
 10
4.615339
 20
6.515593
 42
0.06711
 10
4.617863
 20
6.50861
 42
0.105107
 10
4.622247
 20
6.503301
 42
0.169353
 10
4.626353
 20
6.501869
 42
0.169353
 10
4.630458
 20
6.503301
 42
0.105107
 10
4.634842
 20
6.50861
 42
0.06711
 10
4.637367
 20
6.515593
 42
0.053257
 10
4.638359
 20
6.524883
 42
0.053257
 10
4.637367
 20
6.534172
 42
0.06711
 10
4.634842
 20
6.541155000000001
 42
0.105107
 10
4.630458
 20
6.546464
 42
0.169353
  0
LINE
  5
4E9
330
18
100
AcDbEntity
  8
0
100
AcDbLine
 10
4.481244
 20
6.632863
 30
0.0
 11
4.481244
 21
6.900021000000001
 31
0.0
  0
LINE
  5
4EA
330
18
100
AcDbEntity
  8
0
100
AcDbLine
 10
4.481244
 20
6.929687
 30
0.0
 11
4.481244
 21
7.014782
 31
0.0
  0
LINE
  5
4EB
330
18
100
AcDbEntity
  8
0
100
AcDbLine
 10
5.128622
 20
6.644164
 30
0.0
 11
5.128622
 21
6.221921
 31
0.0
  0
LINE
  5
4EC
330
18
100
AcDbEntity
  8
0
100
AcDbLine
 10
5.128622
 20
6.221921
 30
0.0
 11
4.923511
 21
5.901752
 31
0.0
  0
LINE
  5
4ED
330
18
100
AcDbEntity
  8
0
100
AcDbLine
 10
5.094245
 20
5.841673
 30
0.0
 11
5.321966000000001
 21
6.137953
 31
0.0
  0
LINE
  5
4EE
330
18
100
AcDbEntity
  8
0
100
AcDbLine
 10
5.321966000000001
 20
6.137953
 30
0.0
 11
5.321966000000001
 21
6.588212
 31
0.0
  0
LINE
  5
4EF
330
18
100
AcDbEntity
  8
0
100
AcDbLine
 10
5.321966000000001
 20
6.588212
 30
0.0
 11
5.299723
 21
6.645242
 31
0.0
  0
LINE
  5
4F0
330
18
100
AcDbEntity
  8
0
100
AcDbLine
 10
5.299723
 20
6.645242
 30
0.0
 11
5.169626999999999
 21
6.687208
 31
0.0
  0
LINE
  5
4F1
330
18
100
AcDbEntity
  8
0
100
AcDbLine
 10
5.169626999999999
 20
6.687208
 30
0.0
 11
5.128622
 21
6.644164
 31
0.0
  0
LINE
  5
4F2
330
18
100
AcDbEntity
  8
0
100
AcDbLine
 10
5.30998
 20
6.122358999999999
 30
0.0
 11
5.30998
 21
6.582165
 31
0.0
  0
LINE
  5
4F3
330
18
100
AcDbEntity
  8
0
100
AcDbLine
 10
5.287737
 20
6.639196000000001
 30
0.0
 11
5.162404
 21
6.679625
 31
0.0
  0
LINE
  5
4F4
330
18
100
AcDbEntity
  8
0
100
AcDbLine
 10
5.30998
 20
6.582165
 30
0.0
 11
5.287737
 21
6.639196000000001
 31
0.0
  0
LINE
  5
4F5
330
18
100
AcDbEntity
  8
0
100
AcDbLine
 10
5.123862
 20
6.109846
 30
0.0
 11
5.123862
 21
5.935748
 31
0.0
  0
LINE
  5
4F6
330
18
100
AcDbEntity
  8
0
100
AcDbLine
 10
4.978629
 20
5.987788
 30
0.0
 11
4.481244
 21
6.173652
 31
0.0
  0
LWPOLYLINE
  5
4F7
330
18
100
AcDbEntity
  8
0
  6
HIDDEN
100
AcDbPolyline
 90
       16
 70
   129
 43
0.0
 10
5.05797
 20
5.355403
 42
0.169353
 10
5.053865
 20
5.353972
 42
0.105107
 10
5.04948
 20
5.348663
 42
0.06711
 10
5.046956
 20
5.341679
 42
0.053257
 10
5.045964
 20
5.33239
 42
0.053257
 10
5.046956
 20
5.323101
 42
0.06711
 10
5.04948
 20
5.316117
 42
0.105107
 10
5.053865
 20
5.310808
 42
0.169353
 10
5.05797
 20
5.309377
 42
0.169353
 10
5.062075
 20
5.310808
 42
0.105107
 10
5.066459
 20
5.316117
 42
0.06711
 10
5.068984
 20
5.323101
 42
0.053257
 10
5.069976000000001
 20
5.33239
 42
0.053257
 10
5.068984
 20
5.341679
 42
0.06711
 10
5.066459
 20
5.348663
 42
0.105107
 10
5.062075
 20
5.353972
 42
0.169353
  0
LWPOLYLINE
  5
50A
330
18
100
AcDbEntity
  8
0
  6
HIDDEN
100
AcDbPolyline
 90
       16
 70
   129
 43
0.0
 10
4.937894
 20
5.365354
 42
0.169353
 10
4.933789
 20
5.363923000000001
 42
0.105107
 10
4.929405
 20
5.358614
 42
0.06711
 10
4.926881
 20
5.35163
 42
0.053257
 10
4.925888
 20
5.342341
 42
0.053257
 10
4.926881
 20
5.333052
 42
0.06711
 10
4.929405
 20
5.326069
 42
0.105107
 10
4.933789
 20
5.32076
 42
0.169353
 10
4.937894
 20
5.319328
 42
0.169353
 10
4.942
 20
5.32076
 42
0.105107
 10
4.946383999999999
 20
5.326069
 42
0.06711
 10
4.948908
 20
5.333052
 42
0.053257
 10
4.949901000000001
 20
5.342341
 42
0.053257
 10
4.948908
 20
5.35163
 42
0.06711
 10
4.946383999999999
 20
5.358614
 42
0.105107
 10
4.942
 20
5.363923000000001
 42
0.169353
  0
LWPOLYLINE
  5
51D
330
18
100
AcDbEntity
  8
0
  6
HIDDEN
100
AcDbPolyline
 90
        8
 70
   128
 43
0.0
 10
4.997502
 20
5.223828
 42
0.074913
 10
5.003167
 20
5.226049
 42
0.106609
 10
5.012773999999999
 20
5.234746
 42
0.083601
 10
5.018733
 20
5.246899
 42
0.072394
 10
5.020980000000001
 20
5.262339
 42
0.072394
 10
5.018733
 20
5.277779
 42
0.083601
 10
5.012773999999999
 20
5.289932
 42
0.094402
 10
5.004435
 20
5.297855
 42
0.131568
  0
LWPOLYLINE
  5
528
330
18
100
AcDbEntity
  8
0
  6
HIDDEN
100
AcDbPolyline
 90
       16
 70
   129
 43
0.0
 10
5.008973999999999
 20
5.298366000000001
 42
0.131568
 10
4.998771
 20
5.295634
 42
0.106609
 10
4.989163
 20
5.286937
 42
0.083601
 10
4.983204
 20
5.274785
 42
0.072394
 10
4.980957
 20
5.259344000000001
 42
0.072394
 10
4.983204
 20
5.243904
 42
0.083601
 10
4.989163
 20
5.231751999999999
 42
0.106609
 10
4.998771
 20
5.223055
 42
0.131568
 10
5.008973999999999
 20
5.220322
 42
0.131568
 10
5.019177
 20
5.223055
 42
0.106609
 10
5.028785
 20
5.231751999999999
 42
0.083601
 10
5.034744
 20
5.243904
 42
0.072394
 10
5.036991
 20
5.259344000000001
 42
0.072394
 10
5.034744
 20
5.274785
 42
0.083601
 10
5.028785
 20
5.286937
 42
0.106609
 10
5.019177
 20
5.295634
 42
0.131568
  0
LWPOLYLINE
  5
53B
330
18
100
AcDbEntity
  8
0
  6
HIDDEN
100
AcDbPolyline
 90
       16
 70
   129
 43
0.0
 10
4.953979
 20
5.200264
 42
0.169353
 10
4.949873999999999
 20
5.198833000000001
 42
0.105107
 10
4.945489
 20
5.193524
 42
0.06711
 10
4.942965
 20
5.18654
 42
0.053257
 10
4.941973
 20
5.177251
 42
0.053257
 10
4.942965
 20
5.167962
 42
0.06711
 10
4.945489
 20
5.160979
 42
0.105107
 10
4.949873999999999
 20
5.15567
 42
0.169353
 10
4.953979
 20
5.154237999999999
 42
0.169353
 10
4.958084
 20
5.15567
 42
0.105107
 10
4.962468
 20
5.160979
 42
0.06711
 10
4.964993
 20
5.167962
 42
0.053257
 10
4.965985
 20
5.177251
 42
0.053257
 10
4.964993
 20
5.18654
 42
0.06711
 10
4.962468
 20
5.193524
 42
0.105107
 10
4.958084
 20
5.198833000000001
 42
0.169353
  0
LWPOLYLINE
  5
54E
330
18
100
AcDbEntity
  8
0
  6
HIDDEN
100
AcDbPolyline
 90
       16
 70
   129
 43
0.0
 10
5.05797
 20
5.614564
 42
0.169353
 10
5.053865
 20
5.613133
 42
0.105107
 10
5.04948
 20
5.607824
 42
0.06711
 10
5.046956
 20
5.60084
 42
0.053257
 10
5.045964
 20
5.591551
 42
0.053257
 10
5.046956
 20
5.582262
 42
0.06711
 10
5.04948
 20
5.575278
 42
0.105107
 10
5.053865
 20
5.569969
 42
0.169353
 10
5.05797
 20
5.568537999999999
 42
0.169353
 10
5.062075
 20
5.569969
 42
0.105107
 10
5.066459
 20
5.575278
 42
0.06711
 10
5.068984
 20
5.582262
 42
0.053257
 10
5.069976000000001
 20
5.591551
 42
0.053257
 10
5.068984
 20
5.60084
 42
0.06711
 10
5.066459
 20
5.607824
 42
0.105107
 10
5.062075
 20
5.613133
 42
0.169353
  0
LWPOLYLINE
  5
561
330
18
100
AcDbEntity
  8
0
  6
HIDDEN
100
AcDbPolyline
 90
       16
 70
   129
 43
0.0
 10
5.05797
 20
5.479480000000001
 42
0.169353
 10
5.053865
 20
5.478048
 42
0.105107
 10
5.04948
 20
5.472739
 42
0.06711
 10
5.046956
 20
5.465756
 42
0.053257
 10
5.045964
 20
5.456467
 42
0.053257
 10
5.046956
 20
5.447178
 42
0.06711
 10
5.04948
 20
5.440194
 42
0.105107
 10
5.053865
 20
5.434885
 42
0.169353
 10
5.05797
 20
5.433454
 42
0.169353
 10
5.062075
 20
5.434885
 42
0.105107
 10
5.066459
 20
5.440194
 42
0.06711
 10
5.068984
 20
5.447178
 42
0.053257
 10
5.069976000000001
 20
5.456467
 42
0.053257
 10
5.068984
 20
5.465756
 42
0.06711
 10
5.066459
 20
5.472739
 42
0.105107
 10
5.062075
 20
5.478048
 42
0.169353
  0
LWPOLYLINE
  5
574
330
18
100
AcDbEntity
  8
0
  6
HIDDEN
100
AcDbPolyline
 90
       16
 70
   129
 43
0.0
 10
4.937894
 20
5.624516000000001
 42
0.169353
 10
4.933789
 20
5.623084
 42
0.105107
 10
4.929405
 20
5.617775
 42
0.06711
 10
4.926881
 20
5.610791000000001
 42
0.053257
 10
4.925888
 20
5.601502
 42
0.053257
 10
4.926881
 20
5.592213
 42
0.06711
 10
4.929405
 20
5.58523
 42
0.105107
 10
4.933789
 20
5.579921
 42
0.169353
 10
4.937894
 20
5.578489
 42
0.169353
 10
4.942
 20
5.579921
 42
0.105107
 10
4.946383999999999
 20
5.58523
 42
0.06711
 10
4.948908
 20
5.592213
 42
0.053257
 10
4.949901000000001
 20
5.601502
 42
0.053257
 10
4.948908
 20
5.610791000000001
 42
0.06711
 10
4.946383999999999
 20
5.617775
 42
0.105107
 10
4.942
 20
5.623084
 42
0.169353
  0
LWPOLYLINE
  5
587
330
18
100
AcDbEntity
  8
0
  6
HIDDEN
100
AcDbPolyline
 90
       16
 70
   129
 43
0.0
 10
4.937894
 20
5.489431
 42
0.169353
 10
4.933789
 20
5.488
 42
0.105107
 10
4.929405
 20
5.482691
 42
0.06711
 10
4.926881
 20
5.475707
 42
0.053257
 10
4.925888
 20
5.466418
 42
0.053257
 10
4.926881
 20
5.457129
 42
0.06711
 10
4.929405
 20
5.450145
 42
0.105107
 10
4.933789
 20
5.444837000000001
 42
0.169353
 10
4.937894
 20
5.443405
 42
0.169353
 10
4.942
 20
5.444837000000001
 42
0.105107
 10
4.946383999999999
 20
5.450145
 42
0.06711
 10
4.948908
 20
5.457129
 42
0.053257
 10
4.949901000000001
 20
5.466418
 42
0.053257
 10
4.948908
 20
5.475707
 42
0.06711
 10
4.946383999999999
 20
5.482691
 42
0.105107
 10
4.942
 20
5.488
 42
0.169353
  0
LWPOLYLINE
  5
59A
330
18
100
AcDbEntity
  8
0
  6
HIDDEN
100
AcDbPolyline
 90
        7
 70
   128
 43
0.0
 10
4.923511
 20
5.901752
 10
4.90484
 20
5.872607
 10
4.90484
 20
5.143171
 10
4.949214
 20
5.106175
 10
5.066255
 20
5.167264
 10
5.094245
 20
5.225311000000001
 10
5.094245
 20
5.841673
  0
LWPOLYLINE
  5
5A4
330
18
100
AcDbEntity
  8
0
100
AcDbPolyline
 90
       16
 70
   129
 43
0.0
 10
5.269836
 20
6.610192
 42
0.169353
 10
5.265730000000001
 20
6.608761
 42
0.105107
 10
5.261346
 20
6.603452000000001
 42
0.06711
 10
5.258822
 20
6.596467999999999
 42
0.053257
 10
5.25783
 20
6.587178999999999
 42
0.053257
 10
5.258822
 20
6.577889999999999
 42
0.06711
 10
5.261346
 20
6.570906
 42
0.105107
 10
5.265730000000001
 20
6.565598
 42
0.169353
 10
5.269836
 20
6.564166
 42
0.169353
 10
5.273941000000001
 20
6.565598
 42
0.105107
 10
5.278325
 20
6.570906
 42
0.06711
 10
5.28085
 20
6.577889999999999
 42
0.053257
 10
5.281842
 20
6.587178999999999
 42
0.053257
 10
5.28085
 20
6.596467999999999
 42
0.06711
 10
5.278325
 20
6.603452000000001
 42
0.105107
 10
5.273941000000001
 20
6.608761
 42
0.169353
  0
LWPOLYLINE
  5
5B7
330
18
100
AcDbEntity
  8
0
100
AcDbPolyline
 90
       16
 70
   129
 43
0.0
 10
5.273915000000001
 20
6.210956
 42
0.169353
 10
5.269809
 20
6.209524
 42
0.105107
 10
5.265425
 20
6.204216000000001
 42
0.06711
 10
5.262901
 20
6.197232
 42
0.053257
 10
5.261908999999999
 20
6.187943
 42
0.053257
 10
5.262901
 20
6.178654
 42
0.06711
 10
5.265425
 20
6.17167
 42
0.105107
 10
5.269809
 20
6.166361
 42
0.169353
 10
5.273915000000001
 20
6.16493
 42
0.169353
 10
5.27802
 20
6.166361
 42
0.105107
 10
5.282404
 20
6.17167
 42
0.06711
 10
5.284929
 20
6.178654
 42
0.053257
 10
5.285921
 20
6.187943
 42
0.053257
 10
5.284929
 20
6.197232
 42
0.06711
 10
5.282404
 20
6.204216000000001
 42
0.105107
 10
5.27802
 20
6.209524
 42
0.169353
  0
LWPOLYLINE
  5
5CA
330
18
100
AcDbEntity
  8
0
100
AcDbPolyline
 90
       16
 70
   129
 43
0.0
 10
5.273915000000001
 20
6.4491
 42
0.169353
 10
5.269809
 20
6.447668
 42
0.105107
 10
5.265425
 20
6.442359
 42
0.06711
 10
5.262901
 20
6.435376
 42
0.053257
 10
5.261908999999999
 20
6.426086
 42
0.053257
 10
5.262901
 20
6.416797
 42
0.06711
 10
5.265425
 20
6.409814
 42
0.105107
 10
5.269809
 20
6.404505
 42
0.169353
 10
5.273915000000001
 20
6.403073
 42
0.169353
 10
5.27802
 20
6.404505
 42
0.105107
 10
5.282404
 20
6.409814
 42
0.06711
 10
5.284929
 20
6.416797
 42
0.053257
 10
5.285921
 20
6.426086
 42
0.053257
 10
5.284929
 20
6.435376
 42
0.06711
 10
5.282404
 20
6.442359
 42
0.105107
 10
5.27802
 20
6.447668
 42
0.169353
  0
LWPOLYLINE
  5
5DD
330
18
100
AcDbEntity
  8
0
100
AcDbPolyline
 90
       16
 70
   129
 43
0.0
 10
5.158812
 20
6.286949
 42
0.169353
 10
5.154707
 20
6.285517
 42
0.105107
 10
5.150323
 20
6.280208
 42
0.06711
 10
5.147798000000001
 20
6.273225
 42
0.053257
 10
5.146806
 20
6.263935
 42
0.053257
 10
5.147798000000001
 20
6.254646
 42
0.06711
 10
5.150323
 20
6.247662999999999
 42
0.105107
 10
5.154707
 20
6.242354
 42
0.169353
 10
5.158812
 20
6.240922
 42
0.169353
 10
5.162918
 20
6.242354
 42
0.105107
 10
5.167301999999999
 20
6.247662999999999
 42
0.06711
 10
5.169826000000001
 20
6.254646
 42
0.053257
 10
5.170819
 20
6.263935
 42
0.053257
 10
5.169826000000001
 20
6.273225
 42
0.06711
 10
5.167301999999999
 20
6.280208
 42
0.105107
 10
5.162918
 20
6.285517
 42
0.169353
  0
LWPOLYLINE
  5
5F0
330
18
100
AcDbEntity
  8
0
100
AcDbPolyline
 90
       16
 70
   129
 43
0.0
 10
5.158812
 20
6.415028
 42
0.169353
 10
5.154707
 20
6.413597
 42
0.105107
 10
5.150323
 20
6.408288
 42
0.06711
 10
5.147798000000001
 20
6.401304
 42
0.053257
 10
5.146806
 20
6.392015
 42
0.053257
 10
5.147798000000001
 20
6.382726
 42
0.06711
 10
5.150323
 20
6.375742
 42
0.105107
 10
5.154707
 20
6.370434
 42
0.169353
 10
5.158812
 20
6.369002
 42
0.169353
 10
5.162918
 20
6.370434
 42
0.105107
 10
5.167301999999999
 20
6.375742
 42
0.06711
 10
5.169826000000001
 20
6.382726
 42
0.053257
 10
5.170819
 20
6.392015
 42
0.053257
 10
5.169826000000001
 20
6.401304
 42
0.06711
 10
5.167301999999999
 20
6.408288
 42
0.105107
 10
5.162918
 20
6.413597
 42
0.169353
  0
LWPOLYLINE
  5
603
330
18
100
AcDbEntity
  8
0
100
AcDbPolyline
 90
       16
 70
   129
 43
0.0
 10
5.273915000000001
 20
6.339036
 42
0.169353
 10
5.269809
 20
6.337604
 42
0.105107
 10
5.265425
 20
6.332294999999999
 42
0.06711
 10
5.262901
 20
6.325312
 42
0.053257
 10
5.261908999999999
 20
6.316022
 42
0.053257
 10
5.262901
 20
6.306733
 42
0.06711
 10
5.265425
 20
6.29975
 42
0.105107
 10
5.269809
 20
6.294441
 42
0.169353
 10
5.273915000000001
 20
6.293009
 42
0.169353
 10
5.27802
 20
6.294441
 42
0.105107
 10
5.282404
 20
6.29975
 42
0.06711
 10
5.284929
 20
6.306733
 42
0.053257
 10
5.285921
 20
6.316022
 42
0.053257
 10
5.284929
 20
6.325312
 42
0.06711
 10
5.282404
 20
6.332294999999999
 42
0.105107
 10
5.27802
 20
6.337604
 42
0.169353
  0
LWPOLYLINE
  5
616
330
18
100
AcDbEntity
  8
0
100
AcDbPolyline
 90
       16
 70
   129
 43
0.0
 10
5.158812
 20
6.525092
 42
0.169353
 10
5.154707
 20
6.523661
 42
0.105107
 10
5.150323
 20
6.518351999999999
 42
0.06711
 10
5.147798000000001
 20
6.511368
 42
0.053257
 10
5.146806
 20
6.502079
 42
0.053257
 10
5.147798000000001
 20
6.49279
 42
0.06711
 10
5.150323
 20
6.485806
 42
0.105107
 10
5.154707
 20
6.480498000000001
 42
0.169353
 10
5.158812
 20
6.479066
 42
0.169353
 10
5.162918
 20
6.480498000000001
 42
0.105107
 10
5.167301999999999
 20
6.485806
 42
0.06711
 10
5.169826000000001
 20
6.49279
 42
0.053257
 10
5.170819
 20
6.502079
 42
0.053257
 10
5.169826000000001
 20
6.511368
 42
0.06711
 10
5.167301999999999
 20
6.518351999999999
 42
0.105107
 10
5.162918
 20
6.523661
 42
0.169353
  0
LWPOLYLINE
  5
629
330
18
100
AcDbEntity
  8
0
100
AcDbPolyline
 90
        8
 70
   128
 43
0.0
 10
5.209269
 20
6.583860000000001
 42
0.076901
 10
5.203931
 20
6.572597
 42
0.072394
 10
5.201683999999999
 20
6.557157000000001
 42
0.072394
 10
5.203931
 20
6.541717
 42
0.083601
 10
5.209890000000001
 20
6.529564
 42
0.106609
 10
5.219498000000001
 20
6.520867
 42
0.131568
 10
5.229701
 20
6.518135
 42
0.120601
 10
5.239132
 20
6.520443
 42
0.106609
  0
LWPOLYLINE
  5
634
330
18
100
AcDbEntity
  8
0
100
AcDbPolyline
 90
       16
 70
   129
 43
0.0
 10
5.218699
 20
6.586167999999999
 42
0.131568
 10
5.208496
 20
6.583436
 42
0.106609
 10
5.198888
 20
6.574738000000001
 42
0.083601
 10
5.192930000000001
 20
6.562586000000001
 42
0.072394
 10
5.190682
 20
6.547146
 42
0.072394
 10
5.192930000000001
 20
6.531706
 42
0.083601
 10
5.198888
 20
6.519553
 42
0.106609
 10
5.208496
 20
6.510856
 42
0.131568
 10
5.218699
 20
6.508124
 42
0.131568
 10
5.228903
 20
6.510856
 42
0.106609
 10
5.238511
 20
6.519553
 42
0.083601
 10
5.244469000000001
 20
6.531706
 42
0.072394
 10
5.246716999999999
 20
6.547146
 42
0.072394
 10
5.244469000000001
 20
6.562586000000001
 42
0.083601
 10
5.238511
 20
6.574738000000001
 42
0.106609
 10
5.228903
 20
6.583436
 42
0.131568
  0
LINE
  5
647
330
18
100
AcDbEntity
  8
0
100
AcDbLine
 10
7.991389999999999
 20
7.120741000000001
 30
0.0
 11
7.909091
 21
7.023648
 31
0.0
  0
LINE
  5
648
330
18
100
AcDbEntity
  8
0
100
AcDbLine
 10
7.909091
 20
7.023648
 30
0.0
 11
8.069229
 21
6.926664
 31
0.0
  0
LINE
  5
649
330
18
100
AcDbEntity
  8
0
100
AcDbLine
 10
8.069229
 20
6.926664
 30
0.0
 11
7.991389999999999
 21
6.782556
 31
0.0
  0
LINE
  5
64A
330
18
100
AcDbEntity
  8
0
100
AcDbLine
 10
7.991389999999999
 20
7.120741000000001
 30
0.0
 11
7.991389999999999
 21
7.292656
 31
0.0
  0
LINE
  5
64B
330
18
100
AcDbEntity
  8
0
100
AcDbLine
 10
4.09775
 20
7.22704
 30
0.0
 11
4.210757
 21
7.197091
 31
0.0
  0
LINE
  5
64C
330
18
100
AcDbEntity
  8
0
100
AcDbLine
 10
4.501036
 20
7.12016
 30
0.0
 11
7.181118
 21
8.221024999999999
 31
0.0
  0
LINE
  5
64D
330
18
100
AcDbEntity
  8
0
100
AcDbLine
 10
4.501036
 20
7.12016
 30
0.0
 11
4.501036
 21
7.320278999999999
 31
0.0
  0
LINE
  5
64E
330
18
100
AcDbEntity
  8
0
100
AcDbLine
 10
4.09775
 20
7.427159
 30
0.0
 11
4.208015000000001
 21
7.397937
 31
0.0
  0
LINE
  5
64F
330
18
100
AcDbEntity
  8
0
100
AcDbLine
 10
4.501036
 20
7.320278999999999
 30
0.0
 11
7.181118
 21
8.378829
 31
0.0
  0
LINE
  5
650
330
18
100
AcDbEntity
  8
0
100
AcDbLine
 10
4.208015000000001
 20
7.397937
 30
0.0
 11
4.210757
 21
7.358169
 31
0.0
  0
LINE
  5
651
330
18
100
AcDbEntity
  8
0
100
AcDbLine
 10
4.210757
 20
7.358169
 30
0.0
 11
4.409859
 21
7.392278999999999
 31
0.0
  0
LINE
  5
652
330
18
100
AcDbEntity
  8
0
100
AcDbLine
 10
4.409859
 20
7.392278999999999
 30
0.0
 11
4.397965
 21
7.347595
 31
0.0
  0
LINE
  5
653
330
18
100
AcDbEntity
  8
0
100
AcDbLine
 10
4.210757
 20
7.15805
 30
0.0
 11
4.397965
 21
7.190123
 31
0.0
  0
LINE
  5
654
330
18
100
AcDbEntity
  8
0
100
AcDbLine
 10
4.397965
 20
7.147475999999999
 30
0.0
 11
4.501036
 21
7.12016
 31
0.0
  0
LINE
  5
655
330
18
100
AcDbEntity
  8
0
100
AcDbLine
 10
4.397965
 20
7.347595
 30
0.0
 11
4.501036
 21
7.320278999999999
 31
0.0
  0
LINE
  5
656
330
18
100
AcDbEntity
  8
0
100
AcDbLine
 10
4.210757
 20
7.15805
 30
0.0
 11
4.210757
 21
7.358169
 31
0.0
  0
LINE
  5
657
330
18
100
AcDbEntity
  8
0
100
AcDbLine
 10
4.397965
 20
7.147475999999999
 30
0.0
 11
4.397965
 21
7.347595
 31
0.0
  0
LINE
  5
658
330
18
100
AcDbEntity
  8
0
100
AcDbLine
 10
4.09775
 20
7.3271
 30
0.0
 11
4.210757
 21
7.29715
 31
0.0
  0
LINE
  5
659
330
18
100
AcDbEntity
  8
0
100
AcDbLine
 10
4.210757
 20
7.25811
 30
0.0
 11
4.397965
 21
7.290182000000001
 31
0.0
  0
LINE
  5
65A
330
18
100
AcDbEntity
  8
0
100
AcDbLine
 10
4.397965
 20
7.247536
 30
0.0
 11
4.501036
 21
7.220219999999999
 31
0.0
  0
LINE
  5
65B
330
18
100
AcDbEntity
  8
0
100
AcDbLine
 10
4.09775
 20
7.374128
 30
0.0
 11
4.210757
 21
7.344178
 31
0.0
  0
LINE
  5
65C
330
18
100
AcDbEntity
  8
0
100
AcDbLine
 10
4.09775
 20
7.27807
 30
0.0
 11
4.210757
 21
7.248121
 31
0.0
  0
LINE
  5
65D
330
18
100
AcDbEntity
  8
0
100
AcDbLine
 10
4.210757
 20
7.303137
 30
0.0
 11
4.397965
 21
7.335209
 31
0.0
  0
LINE
  5
65E
330
18
100
AcDbEntity
  8
0
100
AcDbLine
 10
4.210757
 20
7.213083999999999
 30
0.0
 11
4.397965
 21
7.245156
 31
0.0
  0
LINE
  5
65F
330
18
100
AcDbEntity
  8
0
100
AcDbLine
 10
4.397965
 20
7.290487
 30
0.0
 11
4.501036
 21
7.263171000000001
 31
0.0
  0
LINE
  5
660
330
18
100
AcDbEntity
  8
0
100
AcDbLine
 10
4.397965
 20
7.204539
 30
0.0
 11
4.501036
 21
7.177223
 31
0.0
  0
LINE
  5
661
330
18
100
AcDbEntity
  8
0
100
AcDbLine
 10
7.856516
 20
5.619795
 30
0.0
 11
7.935786
 21
5.523775
 31
0.0
  0
LINE
  5
662
330
18
100
AcDbEntity
  8
0
100
AcDbLine
 10
7.935786
 20
5.523775
 30
0.0
 11
7.730697
 21
5.454642
 31
0.0
  0
LINE
  5
663
330
18
100
AcDbEntity
  8
0
100
AcDbLine
 10
7.730697
 20
5.454642
 30
0.0
 11
7.856516
 21
5.33363
 31
0.0
  0
LINE
  5
664
330
18
100
AcDbEntity
  8
0
100
AcDbLine
 10
7.856516
 20
5.33363
 30
0.0
 11
7.856516
 21
4.912374
 31
0.0
  0
LINE
  5
665
330
18
100
AcDbEntity
  8
0
100
AcDbLine
 10
7.967022
 20
5.54119
 30
0.0
 11
8.063086
 21
5.448796
 31
0.0
  0
LINE
  5
666
330
18
100
AcDbEntity
  8
0
100
AcDbLine
 10
8.063086
 20
5.734961
 30
0.0
 11
8.142357000000001
 21
5.638941
 31
0.0
  0
LINE
  5
667
330
18
100
AcDbEntity
  8
0
100
AcDbLine
 10
8.063086
 20
5.734961
 30
0.0
 11
8.063086
 21
6.133197
 31
0.0
  0
LINE
  5
668
330
18
100
AcDbEntity
  8
0
100
AcDbLine
 10
7.935786
 20
5.523775
 30
0.0
 11
8.142357000000001
 21
5.638941
 31
0.0
  0
LINE
  5
669
330
18
100
AcDbEntity
  8
0
100
AcDbLine
 10
7.856516
 20
5.33363
 30
0.0
 11
8.063086
 21
5.448796
 31
0.0
  0
LINE
  5
66A
330
18
100
AcDbEntity
  8
0
100
AcDbLine
 10
7.856516
 20
5.619795
 30
0.0
 11
8.063086
 21
5.734961
 31
0.0
  0
LWPOLYLINE
  5
66B
330
18
100
AcDbEntity
  8
0
100
AcDbPolyline
 90
        4
 70
   128
 43
0.0
 10
7.916058000000001
 20
4.94557
 10
7.900005
 20
4.995447
 10
7.88197
 20
5.048471
 10
7.856516
 20
5.089487
  0
LWPOLYLINE
  5
672
330
18
100
AcDbEntity
  8
0
100
AcDbPolyline
 90
        8
 70
   128
 43
0.0
 10
7.936779
 20
4.957122
 10
7.922999999999999
 20
5.036482
 10
7.915961
 20
5.112524
 10
7.907926
 20
5.17956
 10
7.905895
 20
5.244597
 10
7.900866000000001
 20
5.302629000000001
 10
7.893846000000001
 20
5.338647
 10
7.894366000000001
 20
5.354732
  0
LWPOLYLINE
  5
67D
330
18
100
AcDbEntity
  8
0
100
AcDbPolyline
 90
        7
 70
   128
 43
0.0
 10
7.974480000000001
 20
4.978141
 10
7.966009
 20
5.072523
 10
7.956977999999999
 20
5.127551
 10
7.94795
 20
5.178577
 10
7.943915
 20
5.251618
 10
7.934862
 20
5.356676
 10
7.937653999999999
 20
5.378866
  0
LWPOLYLINE
  5
687
330
18
100
AcDbEntity
  8
0
100
AcDbPolyline
 90
        7
 70
   128
 43
0.0
 10
8.02609
 20
5.006914
 10
8.018034
 20
5.083553
 10
8.007999
 20
5.149587
 10
7.991950999999999
 20
5.233630000000001
 10
7.985912
 20
5.312674
 10
7.983876
 20
5.387716999999999
 10
7.990626
 20
5.408398
  0
LWPOLYLINE
  5
691
330
18
100
AcDbEntity
  8
0
100
AcDbPolyline
 90
        5
 70
   128
 43
0.0
 10
8.063086
 20
5.199641000000001
 10
8.046972
 20
5.258669
 10
8.033924000000001
 20
5.348717
 10
8.029896000000001
 20
5.404748000000001
 10
8.026512
 20
5.428405000000001
  0
LWPOLYLINE
  5
699
330
18
100
AcDbEntity
  8
0
100
AcDbPolyline
 90
        2
 70
   128
 43
0.0
 10
7.959801
 20
5.391213
 10
7.861406
 20
5.498702
  0
LWPOLYLINE
  5
69E
330
18
100
AcDbEntity
  8
0
100
AcDbPolyline
 90
        2
 70
   128
 43
0.0
 10
7.900386999999999
 20
5.358089
 10
7.804446
 20
5.479502
  0
LWPOLYLINE
  5
6A3
330
18
100
AcDbEntity
  8
0
100
AcDbPolyline
 90
        2
 70
   128
 43
0.0
 10
8.001905000000001
 20
5.414686
 10
7.917796000000001
 20
5.517711
  0
LWPOLYLINE
  5
6A8
330
18
100
AcDbEntity
  8
0
100
AcDbPolyline
 90
        2
 70
   128
 43
0.0
 10
8.039072000000001
 20
5.581358
 10
7.959801
 20
5.677378
  0
LWPOLYLINE
  5
6AD
330
18
100
AcDbEntity
  8
0
100
AcDbPolyline
 90
        2
 70
   128
 43
0.0
 10
7.977982000000001
 20
5.5473
 10
7.907838000000001
 20
5.648408
  0
LWPOLYLINE
  5
6B2
330
18
100
AcDbEntity
  8
0
100
AcDbPolyline
 90
        2
 70
   128
 43
0.0
 10
8.099622
 20
5.615116
 10
8.017764
 20
5.709693
  0
LWPOLYLINE
  5
6B7
330
18
100
AcDbEntity
  8
0
100
AcDbPolyline
 90
        8
 70
   128
 43
0.0
 10
7.907838000000001
 20
5.648408
 10
7.902674
 20
5.728880999999999
 10
7.89865
 20
5.775907
 10
7.885617999999999
 20
5.829933000000001
 10
7.879597
 20
5.867953
 10
7.873573
 20
5.913977
 10
7.871544
 20
5.974012
 10
7.869418
 20
6.025224
  0
LWPOLYLINE
  5
6C2
330
18
100
AcDbEntity
  8
0
100
AcDbPolyline
 90
        8
 70
   128
 43
0.0
 10
7.959801
 20
5.677378
 10
7.943681
 20
5.766922
 10
7.946654
 20
5.829961
 10
7.948633
 20
5.877990000000001
 10
7.950614999999999
 20
5.921016000000001
 10
7.939578999999999
 20
5.98705
 10
7.936556
 20
6.033076
 10
7.936143
 20
6.062424
  0
LWPOLYLINE
  5
6CD
330
18
100
AcDbEntity
  8
0
100
AcDbPolyline
 90
        7
 70
   128
 43
0.0
 10
8.017764
 20
5.709693
 10
8.004733999999999
 20
5.729928
 10
8.003701
 20
5.80097
 10
8.001675000000001
 20
5.856001
 10
8.006611
 20
6.00309
 10
8.005580999999999
 20
6.068128
 10
8.001157000000001
 20
6.098671
  0
LINE
  5
6D7
330
18
100
AcDbEntity
  8
0
100
AcDbLine
 10
4.740579
 20
7.674486
 30
0.0
 11
4.740579
 21
9.204495
 31
0.0
  0
LINE
  5
6D8
330
18
100
AcDbEntity
  8
0
100
AcDbLine
 10
5.133301
 20
7.570003999999999
 30
0.0
 11
5.133301
 21
9.142636
 31
0.0
  0
LINE
  5
6D9
330
18
100
AcDbEntity
  8
0
100
AcDbLine
 10
4.740579
 20
7.674486
 30
0.0
 11
5.133301
 21
7.570003999999999
 31
0.0
  0
LINE
  5
6DA
330
18
100
AcDbEntity
  8
0
100
AcDbLine
 10
5.338202
 20
7.650934
 30
0.0
 11
5.338202
 21
9.202759
 31
0.0
  0
LINE
  5
6DB
330
18
100
AcDbEntity
  8
0
100
AcDbLine
 10
5.338202
 20
9.202759
 30
0.0
 11
5.133301
 21
9.142636
 31
0.0
  0
LINE
  5
6DC
330
18
100
AcDbEntity
  8
0
100
AcDbLine
 10
5.133301
 20
9.142636
 30
0.0
 11
5.039556
 21
9.157402000000001
 31
0.0
  0
LINE
  5
6DD
330
18
100
AcDbEntity
  8
0
100
AcDbLine
 10
4.883962
 20
9.18191
 30
0.0
 11
4.915307
 21
9.268616
 31
0.0
  0
LINE
  5
6DE
330
18
100
AcDbEntity
  8
0
100
AcDbLine
 10
4.915307
 20
9.268616
 30
0.0
 11
4.995436
 21
9.086544
 31
0.0
  0
LINE
  5
6DF
330
18
100
AcDbEntity
  8
0
100
AcDbLine
 10
4.995436
 20
9.086544
 30
0.0
 11
5.039556
 21
9.157402000000001
 31
0.0
  0
LINE
  5
6E0
330
18
100
AcDbEntity
  8
0
100
AcDbLine
 10
5.338202
 20
9.202759
 30
0.0
 11
5.244457
 21
9.217525999999999
 31
0.0
  0
LINE
  5
6E1
330
18
100
AcDbEntity
  8
0
100
AcDbLine
 10
5.120207
 20
9.328739000000001
 30
0.0
 11
5.177765
 21
9.197956
 31
0.0
  0
LINE
  5
6E2
330
18
100
AcDbEntity
  8
0
100
AcDbLine
 10
4.91011
 20
9.254239999999999
 30
0.0
 11
4.740579
 21
9.204495
 31
0.0
  0
LINE
  5
6E3
330
18
100
AcDbEntity
  8
0
100
AcDbLine
 10
4.883962
 20
9.18191
 30
0.0
 11
4.740579
 21
9.204495
 31
0.0
  0
LINE
  5
6E4
330
18
100
AcDbEntity
  8
0
100
AcDbLine
 10
4.915307
 20
9.268616
 30
0.0
 11
5.120207
 21
9.328739000000001
 31
0.0
  0
LINE
  5
6E5
330
18
100
AcDbEntity
  8
0
100
AcDbLine
 10
5.039556
 20
9.157402000000001
 30
0.0
 11
5.244457
 21
9.217525999999999
 31
0.0
  0
LINE
  5
6E6
330
18
100
AcDbEntity
  8
0
100
AcDbLine
 10
5.235752
 20
9.172698000000001
 30
0.0
 11
5.142005999999999
 21
9.187464
 31
0.0
  0
LINE
  5
6E7
330
18
100
AcDbEntity
  8
0
100
AcDbLine
 10
4.846026
 20
9.235436
 30
0.0
 11
4.901293
 21
9.229852000000001
 31
0.0
  0
LINE
  5
6E8
330
18
100
AcDbEntity
  8
0
100
AcDbLine
 10
5.017757
 20
9.298677
 30
0.0
 11
5.083434
 21
9.170277000000001
 31
0.0
  0
LWPOLYLINE
  5
6E9
330
18
100
AcDbEntity
  8
0
100
AcDbPolyline
 90
        2
 70
   128
 43
0.0
 10
4.791840000000001
 20
9.219536
 10
4.893336
 20
9.207839999999999
  0
LWPOLYLINE
  5
6EE
330
18
100
AcDbEntity
  8
0
100
AcDbPolyline
 90
        2
 70
   128
 43
0.0
 10
4.87967
 20
9.245308
 10
4.905744
 20
9.242164000000001
  0
LWPOLYLINE
  5
6F3
330
18
100
AcDbEntity
  8
0
100
AcDbPolyline
 90
        2
 70
   128
 43
0.0
 10
4.965043
 20
9.28321
 10
5.033166000000001
 20
9.147138999999999
  0
LWPOLYLINE
  5
6F8
330
18
100
AcDbEntity
  8
0
100
AcDbPolyline
 90
        2
 70
   128
 43
0.0
 10
5.067504000000001
 20
9.313274
 10
5.133012
 20
9.184825
  0
LWPOLYLINE
  5
6FD
330
18
100
AcDbEntity
  8
0
100
AcDbPolyline
 90
        2
 70
   128
 43
0.0
 10
5.179911
 20
9.156313000000001
 10
5.093569000000001
 20
9.173250999999999
  0
LWPOLYLINE
  5
702
330
18
100
AcDbEntity
  8
0
100
AcDbPolyline
 90
        2
 70
   128
 43
0.0
 10
5.282642
 20
9.186457000000001
 10
5.196411
 20
9.203428000000001
  0
LINE
  5
707
330
18
100
AcDbEntity
  8
0
100
AcDbLine
 10
5.338202
 20
7.90442
 30
0.0
 11
6.188528
 21
8.231581
 31
0.0
  0
LWPOLYLINE
  5
708
330
18
100
AcDbEntity
  8
0
  6
HIDDEN
100
AcDbPolyline
 90
       13
 70
   128
 43
0.0
 10
4.918367
 20
7.626647
 10
5.100004
 20
7.970934
 10
5.100004
 20
8.752392
 10
5.070612000000001
 20
8.797408000000001
 10
4.934519
 20
8.825363000000001
 10
4.914516000000001
 20
8.805342
 10
4.914516000000001
 20
7.987864
 10
4.766227
 20
7.667663
 10
4.766227
 20
6.87213
 10
4.794337000000001
 20
6.839127
 10
4.903376000000001
 20
6.895210000000001
 10
4.918367
 20
6.934239999999999
 10
4.918367
 20
7.960846000000001
  0
LWPOLYLINE
  5
718
330
18
100
AcDbEntity
  8
0
  6
HIDDEN
100
AcDbPolyline
 90
       16
 70
   129
 43
0.0
 10
5.05832
 20
8.239055000000001
 42
0.169353
 10
5.054214
 20
8.237624
 42
0.105107
 10
5.04983
 20
8.232315
 42
0.06711
 10
5.047306
 20
8.225331000000001
 42
0.053257
 10
5.046313
 20
8.216042
 42
0.053257
 10
5.047306
 20
8.206752999999999
 42
0.06711
 10
5.04983
 20
8.199769
 42
0.105107
 10
5.054214
 20
8.194461
 42
0.169353
 10
5.05832
 20
8.193028999999999
 42
0.169353
 10
5.062425
 20
8.194461
 42
0.105107
 10
5.066808999999999
 20
8.199769
 42
0.06711
 10
5.069334
 20
8.206752999999999
 42
0.053257
 10
5.070326000000001
 20
8.216042
 42
0.053257
 10
5.069334
 20
8.225331000000001
 42
0.06711
 10
5.066808999999999
 20
8.232315
 42
0.105107
 10
5.062425
 20
8.237624
 42
0.169353
  0
LWPOLYLINE
  5
72B
330
18
100
AcDbEntity
  8
0
  6
HIDDEN
100
AcDbPolyline
 90
       16
 70
   129
 43
0.0
 10
5.05832
 20
8.528233
 42
0.169353
 10
5.054214
 20
8.526802
 42
0.105107
 10
5.04983
 20
8.521493
 42
0.06711
 10
5.047306
 20
8.514509
 42
0.053257
 10
5.046313
 20
8.50522
 42
0.053257
 10
5.047306
 20
8.495931000000001
 42
0.06711
 10
5.04983
 20
8.488947
 42
0.105107
 10
5.054214
 20
8.483638000000001
 42
0.169353
 10
5.05832
 20
8.482207000000001
 42
0.169353
 10
5.062425
 20
8.483638000000001
 42
0.105107
 10
5.066808999999999
 20
8.488947
 42
0.06711
 10
5.069334
 20
8.495931000000001
 42
0.053257
 10
5.070326000000001
 20
8.50522
 42
0.053257
 10
5.069334
 20
8.514509
 42
0.06711
 10
5.066808999999999
 20
8.521493
 42
0.105107
 10
5.062425
 20
8.526802
 42
0.169353
  0
LWPOLYLINE
  5
73E
330
18
100
AcDbEntity
  8
0
  6
HIDDEN
100
AcDbPolyline
 90
       16
 70
   129
 43
0.0
 10
4.950223
 20
8.315047999999999
 42
0.169353
 10
4.946117
 20
8.313616
 42
0.105107
 10
4.941733
 20
8.308308
 42
0.06711
 10
4.939209
 20
8.301324000000001
 42
0.053257
 10
4.938217
 20
8.292035
 42
0.053257
 10
4.939209
 20
8.282746000000001
 42
0.06711
 10
4.941733
 20
8.275762
 42
0.105107
 10
4.946117
 20
8.270453
 42
0.169353
 10
4.950223
 20
8.269022
 42
0.169353
 10
4.954328
 20
8.270453
 42
0.105107
 10
4.958712
 20
8.275762
 42
0.06711
 10
4.961237000000001
 20
8.282746000000001
 42
0.053257
 10
4.962229
 20
8.292035
 42
0.053257
 10
4.961237000000001
 20
8.301324000000001
 42
0.06711
 10
4.958712
 20
8.308308
 42
0.105107
 10
4.954328
 20
8.313616
 42
0.169353
  0
LWPOLYLINE
  5
751
330
18
100
AcDbEntity
  8
0
  6
HIDDEN
100
AcDbPolyline
 90
       16
 70
   129
 43
0.0
 10
4.950223
 20
8.47214
 42
0.169353
 10
4.946117
 20
8.470708
 42
0.105107
 10
4.941733
 20
8.465399
 42
0.06711
 10
4.939209
 20
8.458416
 42
0.053257
 10
4.938217
 20
8.449127000000001
 42
0.053257
 10
4.939209
 20
8.439836999999999
 42
0.06711
 10
4.941733
 20
8.432853999999999
 42
0.105107
 10
4.946117
 20
8.427545
 42
0.169353
 10
4.950223
 20
8.426113000000001
 42
0.169353
 10
4.954328
 20
8.427545
 42
0.105107
 10
4.958712
 20
8.432853999999999
 42
0.06711
 10
4.961237000000001
 20
8.439836999999999
 42
0.053257
 10
4.962229
 20
8.449127000000001
 42
0.053257
 10
4.961237000000001
 20
8.458416
 42
0.06711
 10
4.958712
 20
8.465399
 42
0.105107
 10
4.954328
 20
8.470708
 42
0.169353
  0
LWPOLYLINE
  5
764
330
18
100
AcDbEntity
  8
0
  6
HIDDEN
100
AcDbPolyline
 90
       16
 70
   129
 43
0.0
 10
5.05832
 20
8.396147000000001
 42
0.169353
 10
5.054214
 20
8.394715
 42
0.105107
 10
5.04983
 20
8.389407
 42
0.06711
 10
5.047306
 20
8.382422999999999
 42
0.053257
 10
5.046313
 20
8.373134
 42
0.053257
 10
5.047306
 20
8.363845
 42
0.06711
 10
5.04983
 20
8.356861
 42
0.105107
 10
5.054214
 20
8.351552
 42
0.169353
 10
5.05832
 20
8.350121000000002
 42
0.169353
 10
5.062425
 20
8.351552
 42
0.105107
 10
5.066808999999999
 20
8.356861
 42
0.06711
 10
5.069334
 20
8.363845
 42
0.053257
 10
5.070326000000001
 20
8.373134
 42
0.053257
 10
5.069334
 20
8.382422999999999
 42
0.06711
 10
5.066808999999999
 20
8.389407
 42
0.105107
 10
5.062425
 20
8.394715
 42
0.169353
  0
LWPOLYLINE
  5
777
330
18
100
AcDbEntity
  8
0
  6
HIDDEN
100
AcDbPolyline
 90
        8
 70
   128
 43
0.0
 10
4.99143
 20
8.700241999999999
 42
0.076901
 10
4.986092
 20
8.688980000000001
 42
0.072394
 10
4.983845
 20
8.673539999999999
 42
0.072394
 10
4.986092
 20
8.658099999999999
 42
0.083601
 10
4.992051
 20
8.645947
 42
0.106609
 10
5.001659
 20
8.63725
 42
0.131568
 10
5.011862000000001
 20
8.634518
 42
0.120601
 10
5.021292
 20
8.636825999999999
 42
0.106609
  0
LWPOLYLINE
  5
782
330
18
100
AcDbEntity
  8
0
  6
HIDDEN
100
AcDbPolyline
 90
       16
 70
   129
 43
0.0
 10
4.950223
 20
8.604225999999999
 42
0.169353
 10
4.946117
 20
8.602793999999999
 42
0.105107
 10
4.941733
 20
8.597485000000001
 42
0.06711
 10
4.939209
 20
8.590502000000001
 42
0.053257
 10
4.938217
 20
8.581213
 42
0.053257
 10
4.939209
 20
8.571924000000001
 42
0.06711
 10
4.941733
 20
8.56494
 42
0.105107
 10
4.946117
 20
8.559631
 42
0.169353
 10
4.950223
 20
8.558199
 42
0.169353
 10
4.954328
 20
8.559631
 42
0.105107
 10
4.958712
 20
8.56494
 42
0.06711
 10
4.961237000000001
 20
8.571924000000001
 42
0.053257
 10
4.962229
 20
8.581213
 42
0.053257
 10
4.961237000000001
 20
8.590502000000001
 42
0.06711
 10
4.958712
 20
8.597485000000001
 42
0.105107
 10
4.954328
 20
8.602793999999999
 42
0.169353
  0
LWPOLYLINE
  5
795
330
18
100
AcDbEntity
  8
0
  6
HIDDEN
100
AcDbPolyline
 90
       16
 70
   129
 43
0.0
 10
5.054241
 20
8.745353999999999
 42
0.169353
 10
5.050135
 20
8.743922999999999
 42
0.105107
 10
5.045751
 20
8.738614
 42
0.06711
 10
5.043227
 20
8.731630000000001
 42
0.053257
 10
5.042234
 20
8.722341
 42
0.053257
 10
5.043227
 20
8.713052000000001
 42
0.06711
 10
5.045751
 20
8.706068
 42
0.105107
 10
5.050135
 20
8.700760000000001
 42
0.169353
 10
5.054241
 20
8.699328
 42
0.169353
 10
5.058346
 20
8.700760000000001
 42
0.105107
 10
5.06273
 20
8.706068
 42
0.06711
 10
5.065255000000001
 20
8.713052000000001
 42
0.053257
 10
5.066247
 20
8.722341
 42
0.053257
 10
5.065255000000001
 20
8.731630000000001
 42
0.06711
 10
5.06273
 20
8.738614
 42
0.105107
 10
5.058346
 20
8.743922999999999
 42
0.169353
  0
LWPOLYLINE
  5
7A8
330
18
100
AcDbEntity
  8
0
  6
HIDDEN
100
AcDbPolyline
 90
       16
 70
   129
 43
0.0
 10
5.000859999999999
 20
8.702551
 42
0.131568
 10
4.990657
 20
8.699819
 42
0.106609
 10
4.981049
 20
8.691121000000001
 42
0.083601
 10
4.97509
 20
8.678969
 42
0.072394
 10
4.972843
 20
8.663528999999999
 42
0.072394
 10
4.97509
 20
8.648089000000001
 42
0.083601
 10
4.981049
 20
8.635936000000001
 42
0.106609
 10
4.990657
 20
8.627238999999999
 42
0.131568
 10
5.000859999999999
 20
8.624507000000001
 42
0.131568
 10
5.011063
 20
8.627238999999999
 42
0.106609
 10
5.020671
 20
8.635936000000001
 42
0.083601
 10
5.02663
 20
8.648089000000001
 42
0.072394
 10
5.028877
 20
8.663528999999999
 42
0.072394
 10
5.02663
 20
8.678969
 42
0.083601
 10
5.020671
 20
8.691121000000001
 42
0.106609
 10
5.011063
 20
8.699819
 42
0.131568
  0
LWPOLYLINE
  5
7BB
330
18
100
AcDbEntity
  8
0
  6
HIDDEN
100
AcDbPolyline
 90
        8
 70
   128
 43
0.0
 10
4.837614
 20
6.975289
 42
0.074913
 10
4.843278
 20
6.977510000000001
 42
0.106609
 10
4.852886
 20
6.986207
 42
0.083601
 10
4.858845
 20
6.998360000000001
 42
0.072394
 10
4.861092
 20
7.0138
 42
0.072394
 10
4.858845
 20
7.02924
 42
0.083601
 10
4.852886
 20
7.041392
 42
0.094402
 10
4.844547
 20
7.049316
 42
0.131568
  0
LWPOLYLINE
  5
7C6
330
18
100
AcDbEntity
  8
0
  6
HIDDEN
100
AcDbPolyline
 90
       16
 70
   129
 43
0.0
 10
4.849086
 20
7.049827000000001
 42
0.131568
 10
4.838882
 20
7.047095
 42
0.106609
 10
4.829275
 20
7.038398
 42
0.083601
 10
4.823316
 20
7.026244999999999
 42
0.072394
 10
4.821069000000001
 20
7.010805
 42
0.072394
 10
4.823316
 20
6.995365
 42
0.083601
 10
4.829275
 20
6.983213
 42
0.106609
 10
4.838882
 20
6.974516
 42
0.131568
 10
4.849086
 20
6.971783
 42
0.131568
 10
4.859289
 20
6.974516
 42
0.106609
 10
4.868897000000001
 20
6.983213
 42
0.083601
 10
4.874855999999999
 20
6.995365
 42
0.072394
 10
4.877103
 20
7.010805
 42
0.072394
 10
4.874855999999999
 20
7.026244999999999
 42
0.083601
 10
4.868897000000001
 20
7.038398
 42
0.106609
 10
4.859289
 20
7.047095
 42
0.131568
  0
LWPOLYLINE
  5
7D9
330
18
100
AcDbEntity
  8
0
  6
HIDDEN
100
AcDbPolyline
 90
       16
 70
   129
 43
0.0
 10
4.79409
 20
6.951725
 42
0.169353
 10
4.789985
 20
6.950294
 42
0.105107
 10
4.785601
 20
6.944985000000001
 42
0.06711
 10
4.783077
 20
6.938001
 42
0.053257
 10
4.782083999999999
 20
6.928711999999999
 42
0.053257
 10
4.783077
 20
6.919422999999999
 42
0.06711
 10
4.785601
 20
6.912439
 42
0.105107
 10
4.789985
 20
6.907131
 42
0.169353
 10
4.79409
 20
6.905699
 42
0.169353
 10
4.798196
 20
6.907131
 42
0.105107
 10
4.80258
 20
6.912439
 42
0.06711
 10
4.805104
 20
6.919422999999999
 42
0.053257
 10
4.806097
 20
6.928711999999999
 42
0.053257
 10
4.805104
 20
6.938001
 42
0.06711
 10
4.80258
 20
6.944985000000001
 42
0.105107
 10
4.798196
 20
6.950294
 42
0.169353
  0
LWPOLYLINE
  5
7EC
330
18
100
AcDbEntity
  8
0
  6
HIDDEN
100
AcDbPolyline
 90
       16
 70
   129
 43
0.0
 10
4.890954
 20
7.397469
 42
0.169353
 10
4.886849
 20
7.396037
 42
0.105107
 10
4.882464
 20
7.390728999999999
 42
0.06711
 10
4.87994
 20
7.383744999999999
 42
0.053257
 10
4.878948
 20
7.374456
 42
0.053257
 10
4.87994
 20
7.365167
 42
0.06711
 10
4.882464
 20
7.358183
 42
0.105107
 10
4.886849
 20
7.352874000000001
 42
0.169353
 10
4.890954
 20
7.351443
 42
0.169353
 10
4.895059
 20
7.352874000000001
 42
0.105107
 10
4.899444
 20
7.358183
 42
0.06711
 10
4.901968
 20
7.365167
 42
0.053257
 10
4.90296
 20
7.374456
 42
0.053257
 10
4.901968
 20
7.383744999999999
 42
0.06711
 10
4.899444
 20
7.390728999999999
 42
0.105107
 10
4.895059
 20
7.396037
 42
0.169353
  0
LWPOLYLINE
  5
7FF
330
18
100
AcDbEntity
  8
0
  6
HIDDEN
100
AcDbPolyline
 90
       16
 70
   129
 43
0.0
 10
4.792261
 20
7.419760000000001
 42
0.169353
 10
4.788156
 20
7.418328999999999
 42
0.105107
 10
4.783772
 20
7.41302
 42
0.06711
 10
4.781247000000001
 20
7.406036
 42
0.053257
 10
4.780255
 20
7.396747
 42
0.053257
 10
4.781247000000001
 20
7.387458000000001
 42
0.06711
 10
4.783772
 20
7.380475
 42
0.105107
 10
4.788156
 20
7.375166
 42
0.169353
 10
4.792261
 20
7.373734
 42
0.169353
 10
4.796367
 20
7.375166
 42
0.105107
 10
4.800751
 20
7.380475
 42
0.06711
 10
4.803275
 20
7.387458000000001
 42
0.053257
 10
4.804268
 20
7.396747
 42
0.053257
 10
4.803275
 20
7.406036
 42
0.06711
 10
4.800751
 20
7.41302
 42
0.105107
 10
4.796367
 20
7.418328999999999
 42
0.169353
  0
LWPOLYLINE
  5
812
330
18
100
AcDbEntity
  8
0
  6
HIDDEN
100
AcDbPolyline
 90
       16
 70
   129
 43
0.0
 10
4.890954
 20
7.247389
 42
0.169353
 10
4.886849
 20
7.245957000000001
 42
0.105107
 10
4.882464
 20
7.240649
 42
0.06711
 10
4.87994
 20
7.233664999999999
 42
0.053257
 10
4.878948
 20
7.224376
 42
0.053257
 10
4.87994
 20
7.215087
 42
0.06711
 10
4.882464
 20
7.208103
 42
0.105107
 10
4.886849
 20
7.202794
 42
0.169353
 10
4.890954
 20
7.201363000000001
 42
0.169353
 10
4.895059
 20
7.202794
 42
0.105107
 10
4.899444
 20
7.208103
 42
0.06711
 10
4.901968
 20
7.215087
 42
0.053257
 10
4.90296
 20
7.224376
 42
0.053257
 10
4.901968
 20
7.233664999999999
 42
0.06711
 10
4.899444
 20
7.240649
 42
0.105107
 10
4.895059
 20
7.245957000000001
 42
0.169353
  0
LWPOLYLINE
  5
825
330
18
100
AcDbEntity
  8
0
  6
HIDDEN
100
AcDbPolyline
 90
       16
 70
   129
 43
0.0
 10
4.792261
 20
7.269680999999999
 42
0.169353
 10
4.788156
 20
7.268249000000001
 42
0.105107
 10
4.783772
 20
7.26294
 42
0.06711
 10
4.781247000000001
 20
7.255957
 42
0.053257
 10
4.780255
 20
7.246667
 42
0.053257
 10
4.781247000000001
 20
7.237378
 42
0.06711
 10
4.783772
 20
7.230395
 42
0.105107
 10
4.788156
 20
7.225086
 42
0.169353
 10
4.792261
 20
7.223654
 42
0.169353
 10
4.796367
 20
7.225086
 42
0.105107
 10
4.800751
 20
7.230395
 42
0.06711
 10
4.803275
 20
7.237378
 42
0.053257
 10
4.804268
 20
7.246667
 42
0.053257
 10
4.803275
 20
7.255957
 42
0.06711
 10
4.800751
 20
7.26294
 42
0.105107
 10
4.796367
 20
7.268249000000001
 42
0.169353
  0
LWPOLYLINE
  5
838
330
18
100
AcDbEntity
  8
0
  6
HIDDEN
100
AcDbPolyline
 90
       16
 70
   129
 43
0.0
 10
4.890954
 20
7.112301
 42
0.169353
 10
4.886849
 20
7.110869
 42
0.105107
 10
4.882464
 20
7.105560000000001
 42
0.06711
 10
4.87994
 20
7.098577000000001
 42
0.053257
 10
4.878948
 20
7.089288000000001
 42
0.053257
 10
4.87994
 20
7.079999000000001
 42
0.06711
 10
4.882464
 20
7.073015
 42
0.105107
 10
4.886849
 20
7.067705999999999
 42
0.169353
 10
4.890954
 20
7.066274000000001
 42
0.169353
 10
4.895059
 20
7.067705999999999
 42
0.105107
 10
4.899444
 20
7.073015
 42
0.06711
 10
4.901968
 20
7.079999000000001
 42
0.053257
 10
4.90296
 20
7.089288000000001
 42
0.053257
 10
4.901968
 20
7.098577000000001
 42
0.06711
 10
4.899444
 20
7.105560000000001
 42
0.105107
 10
4.895059
 20
7.110869
 42
0.169353
  0
LWPOLYLINE
  5
84B
330
18
100
AcDbEntity
  8
0
  6
HIDDEN
100
AcDbPolyline
 90
       16
 70
   129
 43
0.0
 10
4.792261
 20
7.134592
 42
0.169353
 10
4.788156
 20
7.133161
 42
0.105107
 10
4.783772
 20
7.127852000000001
 42
0.06711
 10
4.781247000000001
 20
7.120867999999999
 42
0.053257
 10
4.780255
 20
7.111578999999999
 42
0.053257
 10
4.781247000000001
 20
7.102289999999999
 42
0.06711
 10
4.783772
 20
7.095306
 42
0.105107
 10
4.788156
 20
7.089998
 42
0.169353
 10
4.792261
 20
7.088566
 42
0.169353
 10
4.796367
 20
7.089998
 42
0.105107
 10
4.800751
 20
7.095306
 42
0.06711
 10
4.803275
 20
7.102289999999999
 42
0.053257
 10
4.804268
 20
7.111578999999999
 42
0.053257
 10
4.803275
 20
7.120867999999999
 42
0.06711
 10
4.800751
 20
7.127852000000001
 42
0.105107
 10
4.796367
 20
7.133161
 42
0.169353
  0
LINE
  5
85E
330
18
100
AcDbEntity
  8
0
100
AcDbLine
 10
6.188528
 20
8.231581
 30
0.0
 11
6.188528
 21
9.659431
 31
0.0
  0
LINE
  5
85F
330
18
100
AcDbEntity
  8
0
100
AcDbLine
 10
6.567333000000001
 20
8.136403
 30
0.0
 11
6.567333000000001
 21
9.574539999999999
 31
0.0
  0
LINE
  5
860
330
18
100
AcDbEntity
  8
0
100
AcDbLine
 10
6.567333000000001
 20
9.574539999999999
 30
0.0
 11
6.723205999999999
 21
9.636652
 31
0.0
  0
LINE
  5
861
330
18
100
AcDbEntity
  8
0
100
AcDbLine
 10
6.723205999999999
 20
9.636652
 30
0.0
 11
6.723205999999999
 21
8.197968
 31
0.0
  0
LINE
  5
862
330
18
100
AcDbEntity
  8
0
100
AcDbLine
 10
6.188528
 20
8.231581
 30
0.0
 11
6.567333000000001
 21
8.136403
 31
0.0
  0
LINE
  5
863
330
18
100
AcDbEntity
  8
0
100
AcDbLine
 10
6.567333000000001
 20
9.574539999999999
 30
0.0
 11
6.188528
 21
9.659431
 31
0.0
  0
LWPOLYLINE
  5
864
330
18
100
AcDbEntity
  8
0
  6
HIDDEN
100
AcDbPolyline
 90
       13
 70
   128
 43
0.0
 10
6.413953
 20
8.307724
 10
6.541613
 20
8.503902
 10
6.541613
 20
9.223325000000001
 10
6.530255
 20
9.278352999999999
 10
6.438193
 20
9.296322
 10
6.410194000000001
 20
9.256285999999999
 10
6.410194000000001
 20
8.513849
 10
6.224555000000001
 20
8.21959
 10
6.224555000000001
 20
7.517174000000001
 10
6.256908
 20
7.48217
 10
6.388958000000001
 20
7.544266
 10
6.413953
 20
7.588303999999999
 10
6.413953
 20
8.451807000000001
  0
LWPOLYLINE
  5
874
330
18
100
AcDbEntity
  8
0
  6
HIDDEN
100
AcDbPolyline
 90
       16
 70
   129
 43
0.0
 10
6.511932
 20
9.070212
 42
0.169353
 10
6.507826000000001
 20
9.06878
 42
0.105107
 10
6.503442
 20
9.063471
 42
0.06711
 10
6.500918
 20
9.056488
 42
0.053257
 10
6.499925
 20
9.047199000000001
 42
0.053257
 10
6.500918
 20
9.03791
 42
0.06711
 10
6.503442
 20
9.030925999999999
 42
0.105107
 10
6.507826000000001
 20
9.025617
 42
0.169353
 10
6.511932
 20
9.024186
 42
0.169353
 10
6.516037
 20
9.025617
 42
0.105107
 10
6.520421
 20
9.030925999999999
 42
0.06711
 10
6.522946
 20
9.03791
 42
0.053257
 10
6.523937999999999
 20
9.047199000000001
 42
0.053257
 10
6.522946
 20
9.056488
 42
0.06711
 10
6.520421
 20
9.063471
 42
0.105107
 10
6.516037
 20
9.06878
 42
0.169353
  0
LWPOLYLINE
  5
887
330
18
100
AcDbEntity
  8
0
  6
HIDDEN
100
AcDbPolyline
 90
       16
 70
   129
 43
0.0
 10
6.443878
 20
9.102197
 42
0.169353
 10
6.439773000000001
 20
9.100764999999999
 42
0.105107
 10
6.435389
 20
9.095456
 42
0.06711
 10
6.432864
 20
9.088473000000001
 42
0.053257
 10
6.431872
 20
9.079184
 42
0.053257
 10
6.432864
 20
9.069894
 42
0.06711
 10
6.435389
 20
9.062911
 42
0.105107
 10
6.439773000000001
 20
9.057602000000001
 42
0.169353
 10
6.443878
 20
9.05617
 42
0.169353
 10
6.447984
 20
9.057602000000001
 42
0.105107
 10
6.452368
 20
9.062911
 42
0.06711
 10
6.454892
 20
9.069894
 42
0.053257
 10
6.455883999999999
 20
9.079184
 42
0.053257
 10
6.454892
 20
9.088473000000001
 42
0.06711
 10
6.452368
 20
9.095456
 42
0.105107
 10
6.447984
 20
9.100764999999999
 42
0.169353
  0
LWPOLYLINE
  5
89A
330
18
100
AcDbEntity
  8
0
  6
HIDDEN
100
AcDbPolyline
 90
        8
 70
   128
 43
0.0
 10
6.471080000000001
 20
9.206225999999999
 42
0.076901
 10
6.465743
 20
9.194964000000001
 42
0.072394
 10
6.463495
 20
9.179523
 42
0.072394
 10
6.465743
 20
9.164083
 42
0.083601
 10
6.471701
 20
9.151930999999999
 42
0.106609
 10
6.481309
 20
9.143234
 42
0.131568
 10
6.491512
 20
9.140500999999999
 42
0.120601
 10
6.500943
 20
9.142810000000001
 42
0.106609
  0
LWPOLYLINE
  5
8A5
330
18
100
AcDbEntity
  8
0
  6
HIDDEN
100
AcDbPolyline
 90
       16
 70
   129
 43
0.0
 10
6.48051
 20
9.208534
 42
0.131568
 10
6.470307
 20
9.205802
 42
0.106609
 10
6.460699
 20
9.197105000000001
 42
0.083601
 10
6.454741
 20
9.184953
 42
0.072394
 10
6.452493
 20
9.169511999999999
 42
0.072394
 10
6.454741
 20
9.154071999999999
 42
0.083601
 10
6.460699
 20
9.141919999999999
 42
0.106609
 10
6.470307
 20
9.133222999999999
 42
0.131568
 10
6.48051
 20
9.130491000000001
 42
0.131568
 10
6.490714
 20
9.133222999999999
 42
0.106609
 10
6.500322
 20
9.141919999999999
 42
0.083601
 10
6.50628
 20
9.154071999999999
 42
0.072394
 10
6.508528
 20
9.169511999999999
 42
0.072394
 10
6.50628
 20
9.184953
 42
0.083601
 10
6.500322
 20
9.197105000000001
 42
0.106609
 10
6.490714
 20
9.205802
 42
0.131568
  0
LWPOLYLINE
  5
8B8
330
18
100
AcDbEntity
  8
0
  6
HIDDEN
100
AcDbPolyline
 90
       16
 70
   129
 43
0.0
 10
6.511932
 20
9.253295
 42
0.169353
 10
6.507826000000001
 20
9.251863
 42
0.105107
 10
6.503442
 20
9.246554
 42
0.06711
 10
6.500918
 20
9.239571
 42
0.053257
 10
6.499925
 20
9.230282000000001
 42
0.053257
 10
6.500918
 20
9.220993
 42
0.06711
 10
6.503442
 20
9.214008999999999
 42
0.105107
 10
6.507826000000001
 20
9.2087
 42
0.169353
 10
6.511932
 20
9.207269
 42
0.169353
 10
6.516037
 20
9.2087
 42
0.105107
 10
6.520421
 20
9.214008999999999
 42
0.06711
 10
6.522946
 20
9.220993
 42
0.053257
 10
6.523937999999999
 20
9.230282000000001
 42
0.053257
 10
6.522946
 20
9.239571
 42
0.06711
 10
6.520421
 20
9.246554
 42
0.105107
 10
6.516037
 20
9.251863
 42
0.169353
  0
LWPOLYLINE
  5
8CB
330
18
100
AcDbEntity
  8
0
  6
HIDDEN
100
AcDbPolyline
 90
       16
 70
   129
 43
0.0
 10
6.511932
 20
8.959146000000001
 42
0.169353
 10
6.507826000000001
 20
8.957714999999999
 42
0.105107
 10
6.503442
 20
8.952406
 42
0.06711
 10
6.500918
 20
8.945422000000001
 42
0.053257
 10
6.499925
 20
8.936133
 42
0.053257
 10
6.500918
 20
8.926844000000001
 42
0.06711
 10
6.503442
 20
8.91986
 42
0.105107
 10
6.507826000000001
 20
8.914552000000001
 42
0.169353
 10
6.511932
 20
8.913119999999999
 42
0.169353
 10
6.516037
 20
8.914552000000001
 42
0.105107
 10
6.520421
 20
8.91986
 42
0.06711
 10
6.522946
 20
8.926844000000001
 42
0.053257
 10
6.523937999999999
 20
8.936133
 42
0.053257
 10
6.522946
 20
8.945422000000001
 42
0.06711
 10
6.520421
 20
8.952406
 42
0.105107
 10
6.516037
 20
8.957714999999999
 42
0.169353
  0
LWPOLYLINE
  5
8DE
330
18
100
AcDbEntity
  8
0
  6
HIDDEN
100
AcDbPolyline
 90
       16
 70
   129
 43
0.0
 10
6.443878
 20
8.991130999999999
 42
0.169353
 10
6.439773000000001
 20
8.989699999999999
 42
0.105107
 10
6.435389
 20
8.984391000000001
 42
0.06711
 10
6.432864
 20
8.977407000000001
 42
0.053257
 10
6.431872
 20
8.968117999999999
 42
0.053257
 10
6.432864
 20
8.958829
 42
0.06711
 10
6.435389
 20
8.951845000000001
 42
0.105107
 10
6.439773000000001
 20
8.946536
 42
0.169353
 10
6.443878
 20
8.945105
 42
0.169353
 10
6.447984
 20
8.946536
 42
0.105107
 10
6.452368
 20
8.951845000000001
 42
0.06711
 10
6.454892
 20
8.958829
 42
0.053257
 10
6.455883999999999
 20
8.968117999999999
 42
0.053257
 10
6.454892
 20
8.977407000000001
 42
0.06711
 10
6.452368
 20
8.984391000000001
 42
0.105107
 10
6.447984
 20
8.989699999999999
 42
0.169353
  0
LWPOLYLINE
  5
8F1
330
18
100
AcDbEntity
  8
0
  6
HIDDEN
100
AcDbPolyline
 90
       16
 70
   129
 43
0.0
 10
6.511932
 20
8.846079
 42
0.169353
 10
6.507826000000001
 20
8.844647
 42
0.105107
 10
6.503442
 20
8.839338
 42
0.06711
 10
6.500918
 20
8.832355
 42
0.053257
 10
6.499925
 20
8.823066000000001
 42
0.053257
 10
6.500918
 20
8.813777
 42
0.06711
 10
6.503442
 20
8.806792999999999
 42
0.105107
 10
6.507826000000001
 20
8.801484
 42
0.169353
 10
6.511932
 20
8.800052000000001
 42
0.169353
 10
6.516037
 20
8.801484
 42
0.105107
 10
6.520421
 20
8.806792999999999
 42
0.06711
 10
6.522946
 20
8.813777
 42
0.053257
 10
6.523937999999999
 20
8.823066000000001
 42
0.053257
 10
6.522946
 20
8.832355
 42
0.06711
 10
6.520421
 20
8.839338
 42
0.105107
 10
6.516037
 20
8.844647
 42
0.169353
  0
LWPOLYLINE
  5
904
330
18
100
AcDbEntity
  8
0
  6
HIDDEN
100
AcDbPolyline
 90
       16
 70
   129
 43
0.0
 10
6.443878
 20
8.878064
 42
0.169353
 10
6.439773000000001
 20
8.876632000000001
 42
0.105107
 10
6.435389
 20
8.871323
 42
0.06711
 10
6.432864
 20
8.864339999999999
 42
0.053257
 10
6.431872
 20
8.85505
 42
0.053257
 10
6.432864
 20
8.845761
 42
0.06711
 10
6.435389
 20
8.838778
 42
0.105107
 10
6.439773000000001
 20
8.833469000000001
 42
0.169353
 10
6.443878
 20
8.832037
 42
0.169353
 10
6.447984
 20
8.833469000000001
 42
0.105107
 10
6.452368
 20
8.838778
 42
0.06711
 10
6.454892
 20
8.845761
 42
0.053257
 10
6.455883999999999
 20
8.85505
 42
0.053257
 10
6.454892
 20
8.864339999999999
 42
0.06711
 10
6.452368
 20
8.871323
 42
0.105107
 10
6.447984
 20
8.876632000000001
 42
0.169353
  0
LWPOLYLINE
  5
917
330
18
100
AcDbEntity
  8
0
  6
HIDDEN
100
AcDbPolyline
 90
        8
 70
   128
 43
0.0
 10
6.311691000000001
 20
7.589319000000001
 42
0.074913
 10
6.317355
 20
7.591541
 42
0.106609
 10
6.326963
 20
7.600238
 42
0.083601
 10
6.332922
 20
7.61239
 42
0.072394
 10
6.335169000000001
 20
7.62783
 42
0.072394
 10
6.332922
 20
7.643269999999999
 42
0.083601
 10
6.326963
 20
7.655423
 42
0.094402
 10
6.318624
 20
7.663347
 42
0.131568
  0
LWPOLYLINE
  5
922
330
18
100
AcDbEntity
  8
0
  6
HIDDEN
100
AcDbPolyline
 90
       16
 70
   129
 43
0.0
 10
6.323163
 20
7.663858
 42
0.131568
 10
6.312958999999999
 20
7.661125
 42
0.106609
 10
6.303351
 20
7.652428
 42
0.083601
 10
6.297393000000001
 20
7.640275999999999
 42
0.072394
 10
6.295145
 20
7.624836
 42
0.072394
 10
6.297393000000001
 20
7.609396
 42
0.083601
 10
6.303351
 20
7.597242999999999
 42
0.106609
 10
6.312958999999999
 20
7.588546000000001
 42
0.131568
 10
6.323163
 20
7.585814
 42
0.131568
 10
6.333366000000001
 20
7.588546000000001
 42
0.106609
 10
6.342974
 20
7.597242999999999
 42
0.083601
 10
6.348932
 20
7.609396
 42
0.072394
 10
6.35118
 20
7.624836
 42
0.072394
 10
6.348932
 20
7.640275999999999
 42
0.083601
 10
6.342974
 20
7.652428
 42
0.106609
 10
6.333366000000001
 20
7.661125
 42
0.131568
  0
LWPOLYLINE
  5
935
330
18
100
AcDbEntity
  8
0
  6
HIDDEN
100
AcDbPolyline
 90
       16
 70
   129
 43
0.0
 10
6.268167
 20
7.597775
 42
0.169353
 10
6.264062
 20
7.596342999999999
 42
0.105107
 10
6.259678
 20
7.591034
 42
0.06711
 10
6.257153
 20
7.584051
 42
0.053257
 10
6.256161
 20
7.574762
 42
0.053257
 10
6.257153
 20
7.565472
 42
0.06711
 10
6.259678
 20
7.558489
 42
0.105107
 10
6.264062
 20
7.55318
 42
0.169353
 10
6.268167
 20
7.551748
 42
0.169353
 10
6.272273
 20
7.55318
 42
0.105107
 10
6.276657
 20
7.558489
 42
0.06711
 10
6.279181
 20
7.565472
 42
0.053257
 10
6.280174
 20
7.574762
 42
0.053257
 10
6.279181
 20
7.584051
 42
0.06711
 10
6.276657
 20
7.591034
 42
0.105107
 10
6.272273
 20
7.596342999999999
 42
0.169353
  0
LWPOLYLINE
  5
948
330
18
100
AcDbEntity
  8
0
  6
HIDDEN
100
AcDbPolyline
 90
       16
 70
   129
 43
0.0
 10
6.365031
 20
7.845412
 42
0.169353
 10
6.360925
 20
7.843980999999999
 42
0.105107
 10
6.356541
 20
7.838672
 42
0.06711
 10
6.354017
 20
7.831688000000001
 42
0.053257
 10
6.353025
 20
7.822399000000001
 42
0.053257
 10
6.354017
 20
7.813110000000001
 42
0.06711
 10
6.356541
 20
7.806127
 42
0.105107
 10
6.360925
 20
7.800818
 42
0.169353
 10
6.365031
 20
7.799386
 42
0.169353
 10
6.369136
 20
7.800818
 42
0.105107
 10
6.37352
 20
7.806127
 42
0.06711
 10
6.376045
 20
7.813110000000001
 42
0.053257
 10
6.377037000000001
 20
7.822399000000001
 42
0.053257
 10
6.376045
 20
7.831688000000001
 42
0.06711
 10
6.37352
 20
7.838672
 42
0.105107
 10
6.369136
 20
7.843980999999999
 42
0.169353
  0
LWPOLYLINE
  5
95B
330
18
100
AcDbEntity
  8
0
  6
HIDDEN
100
AcDbPolyline
 90
       16
 70
   129
 43
0.0
 10
6.365031
 20
7.720337
 42
0.169353
 10
6.360925
 20
7.718906
 42
0.105107
 10
6.356541
 20
7.713597
 42
0.06711
 10
6.354017
 20
7.706613000000001
 42
0.053257
 10
6.353025
 20
7.697324000000001
 42
0.053257
 10
6.354017
 20
7.688035
 42
0.06711
 10
6.356541
 20
7.681050999999999
 42
0.105107
 10
6.360925
 20
7.675742999999999
 42
0.169353
 10
6.365031
 20
7.674311
 42
0.169353
 10
6.369136
 20
7.675742999999999
 42
0.105107
 10
6.37352
 20
7.681050999999999
 42
0.06711
 10
6.376045
 20
7.688035
 42
0.053257
 10
6.377037000000001
 20
7.697324000000001
 42
0.053257
 10
6.376045
 20
7.706613000000001
 42
0.06711
 10
6.37352
 20
7.713597
 42
0.105107
 10
6.369136
 20
7.718906
 42
0.169353
  0
LWPOLYLINE
  5
96E
330
18
100
AcDbEntity
  8
0
  6
HIDDEN
100
AcDbPolyline
 90
       16
 70
   129
 43
0.0
 10
6.266337999999999
 20
7.742628999999999
 42
0.169353
 10
6.262233
 20
7.741197000000001
 42
0.105107
 10
6.257849
 20
7.735888
 42
0.06711
 10
6.255324
 20
7.728905
 42
0.053257
 10
6.254332
 20
7.719616
 42
0.053257
 10
6.255324
 20
7.710327
 42
0.06711
 10
6.257849
 20
7.703342999999999
 42
0.105107
 10
6.262233
 20
7.698034
 42
0.169353
 10
6.266337999999999
 20
7.696603
 42
0.169353
 10
6.270444
 20
7.698034
 42
0.105107
 10
6.274828
 20
7.703342999999999
 42
0.06711
 10
6.277352
 20
7.710327
 42
0.053257
 10
6.278344000000001
 20
7.719616
 42
0.053257
 10
6.277352
 20
7.728905
 42
0.06711
 10
6.274828
 20
7.735888
 42
0.105107
 10
6.270444
 20
7.741197000000001
 42
0.169353
  0
LWPOLYLINE
  5
981
330
18
100
AcDbEntity
  8
0
  6
HIDDEN
100
AcDbPolyline
 90
       16
 70
   129
 43
0.0
 10
6.266337999999999
 20
7.867703999999999
 42
0.169353
 10
6.262233
 20
7.866272
 42
0.105107
 10
6.257849
 20
7.860964
 42
0.06711
 10
6.255324
 20
7.85398
 42
0.053257
 10
6.254332
 20
7.844691
 42
0.053257
 10
6.255324
 20
7.835402
 42
0.06711
 10
6.257849
 20
7.828417999999999
 42
0.105107
 10
6.262233
 20
7.823109
 42
0.169353
 10
6.266337999999999
 20
7.821678
 42
0.169353
 10
6.270444
 20
7.823109
 42
0.105107
 10
6.274828
 20
7.828417999999999
 42
0.06711
 10
6.277352
 20
7.835402
 42
0.053257
 10
6.278344000000001
 20
7.844691
 42
0.053257
 10
6.277352
 20
7.85398
 42
0.06711
 10
6.274828
 20
7.860964
 42
0.105107
 10
6.270444
 20
7.866272
 42
0.169353
  0
LWPOLYLINE
  5
994
330
18
100
AcDbEntity
  8
0
  6
HIDDEN
100
AcDbPolyline
 90
       16
 70
   129
 43
0.0
 10
6.365031
 20
7.978491
 42
0.169353
 10
6.360925
 20
7.977059
 42
0.105107
 10
6.356541
 20
7.97175
 42
0.06711
 10
6.354017
 20
7.964767
 42
0.053257
 10
6.353025
 20
7.955478
 42
0.053257
 10
6.354017
 20
7.946189
 42
0.06711
 10
6.356541
 20
7.939205
 42
0.105107
 10
6.360925
 20
7.933896000000001
 42
0.169353
 10
6.365031
 20
7.932465
 42
0.169353
 10
6.369136
 20
7.933896000000001
 42
0.105107
 10
6.37352
 20
7.939205
 42
0.06711
 10
6.376045
 20
7.946189
 42
0.053257
 10
6.377037000000001
 20
7.955478
 42
0.053257
 10
6.376045
 20
7.964767
 42
0.06711
 10
6.37352
 20
7.97175
 42
0.105107
 10
6.369136
 20
7.977059
 42
0.169353
  0
LWPOLYLINE
  5
9A7
330
18
100
AcDbEntity
  8
0
  6
HIDDEN
100
AcDbPolyline
 90
       16
 70
   129
 43
0.0
 10
6.266337999999999
 20
8.000782000000001
 42
0.169353
 10
6.262233
 20
7.999351
 42
0.105107
 10
6.257849
 20
7.994041999999999
 42
0.06711
 10
6.255324
 20
7.987058
 42
0.053257
 10
6.254332
 20
7.977769
 42
0.053257
 10
6.255324
 20
7.968480000000001
 42
0.06711
 10
6.257849
 20
7.961497000000001
 42
0.105107
 10
6.262233
 20
7.956188
 42
0.169353
 10
6.266337999999999
 20
7.954756
 42
0.169353
 10
6.270444
 20
7.956188
 42
0.105107
 10
6.274828
 20
7.961497000000001
 42
0.06711
 10
6.277352
 20
7.968480000000001
 42
0.053257
 10
6.278344000000001
 20
7.977769
 42
0.053257
 10
6.277352
 20
7.987058
 42
0.06711
 10
6.274828
 20
7.994041999999999
 42
0.105107
 10
6.270444
 20
7.999351
 42
0.169353
  0
LINE
  5
9BA
330
18
100
AcDbEntity
  8
0
100
AcDbLine
 10
7.181118
 20
8.221024999999999
 30
0.0
 11
7.181118
 21
8.378829
 31
0.0
  0
LINE
  5
9BB
330
18
100
AcDbEntity
  8
0
100
AcDbLine
 10
7.181118
 20
8.378829
 30
0.0
 11
7.072673
 21
8.402453999999999
 31
0.0
  0
LINE
  5
9BC
330
18
100
AcDbEntity
  8
0
100
AcDbLine
 10
6.794781
 20
8.462992
 30
0.0
 11
6.723205999999999
 21
8.438945
 31
0.0
  0
LINE
  5
9BD
330
18
100
AcDbEntity
  8
0
100
AcDbLine
 10
7.072673
 20
8.402453999999999
 30
0.0
 11
7.088964
 21
8.442113000000001
 31
0.0
  0
LINE
  5
9BE
330
18
100
AcDbEntity
  8
0
100
AcDbLine
 10
7.088964
 20
8.442113000000001
 30
0.0
 11
6.868860000000001
 21
8.384980000000001
 31
0.0
  0
LINE
  5
9BF
330
18
100
AcDbEntity
  8
0
100
AcDbLine
 10
6.868860000000001
 20
8.384980000000001
 30
0.0
 11
6.878526
 21
8.444749
 31
0.0
  0
LINE
  5
9C0
330
18
100
AcDbEntity
  8
0
100
AcDbLine
 10
6.878526
 20
8.444749
 30
0.0
 11
6.794781
 21
8.462992
 31
0.0
  0
TEXT
  5
9C1
330
18
100
AcDbEntity
  8
0
100
AcDbText
 10
2.375165
 20
0.8023359999999999
 30
0.0
 40
0.2
  1
PS418
 41
0.8
100
AcDbText
  0
TEXT
  5
9C2
330
18
100
AcDbEntity
  8
0
100
AcDbText
 10
3.465197
 20
3.20473
 30
0.0
 40
0.2
  1
MTS12
 41
0.8
100
AcDbText
  0
TEXT
  5
9C3
330
18
100
AcDbEntity
  8
0
100
AcDbText
 10
3.927631
 20
7.877111999999999
 30
0.0
 40
0.2
  1
A35
 41
0.8
100
AcDbText
  0
TEXT
  5
9C4
330
18
100
AcDbEntity
  8
0
100
AcDbText
 10
4.785057
 20
3.725971
 30
0.0
 40
0.2
  1
LTS12
 41
0.8
100
AcDbText
  0
TEXT
  5
9C5
330
18
100
AcDbEntity
  8
0
100
AcDbText
 10
4.526261
 20
9.690567
 30
0.0
 40
0.2
  1
MTS16
 41
0.8
100
AcDbText
  0
TEXT
  5
9C6
330
18
100
AcDbEntity
  8
0
100
AcDbText
 10
6.060715
 20
10.045367
 30
0.0
 40
0.2
  1
LTS16
 41
0.8
100
AcDbText
  0
TEXT
  5
9C7
330
18
100
AcDbEntity
  8
0
100
AcDbText
 10
2.711684
 20
7.089586
 30
0.0
 40
0.2
  1
A35
 41
0.8
100
AcDbText
  0
LWPOLYLINE
  5
9C8
330
18
100
AcDbEntity
  8
0
100
AcDbPolyline
 90
        2
 70
   128
 43
0.0
 10
1.675211
 20
1.637414
 10
1.775667
 20
1.758994
  0
LWPOLYLINE
  5
9CD
330
18
100
AcDbEntity
  8
0
100
AcDbPolyline
 90
        2
 70
   128
 43
0.0
 10
1.753003
 20
1.689487
 10
1.779459
 20
1.723063
  0
LWPOLYLINE
  5
9D2
330
18
100
AcDbEntity
  8
0
100
AcDbPolyline
 90
        6
 70
     1
 43
0.0
 10
2.782451
 20
2.666766
 10
2.723155
 20
2.627267
 10
2.723155
 20
2.548269
 10
2.782451
 20
2.508771
 10
2.835668
 20
2.548269
 10
2.835668
 20
2.627267
  0
LINE
  5
9DB
330
18
100
AcDbEntity
  8
0
100
AcDbLine
 10
2.782451
 20
2.666766
 30
0.0
 11
2.737013
 21
2.682205
 31
0.0
  0
LINE
  5
9DC
330
18
100
AcDbEntity
  8
0
100
AcDbLine
 10
2.723155
 20
2.627267
 30
0.0
 11
2.677717
 21
2.642706
 31
0.0
  0
LINE
  5
9DD
330
18
100
AcDbEntity
  8
0
100
AcDbLine
 10
2.723155
 20
2.548269
 30
0.0
 11
2.677717
 21
2.563708
 31
0.0
  0
LINE
  5
9DE
330
18
100
AcDbEntity
  8
0
100
AcDbLine
 10
2.782451
 20
2.508771
 30
0.0
 11
2.737013
 21
2.52421
 31
0.0
  0
LWPOLYLINE
  5
9DF
330
18
100
AcDbEntity
  8
0
100
AcDbPolyline
 90
        4
 70
     0
 43
0.0
 10
2.737013
 20
2.682205
 10
2.677717
 20
2.642706
 10
2.677717
 20
2.563708
 10
2.737013
 20
2.52421
  0
LWPOLYLINE
  5
9E6
330
18
100
AcDbEntity
  8
0
100
AcDbPolyline
 90
        4
 70
     0
 43
0.0
 10
2.737013
 20
2.910082
 10
2.677717
 20
2.870584
 10
2.677717
 20
2.791586
 10
2.737013
 20
2.752087
  0
LWPOLYLINE
  5
9ED
330
18
100
AcDbEntity
  8
0
100
AcDbPolyline
 90
        6
 70
     1
 43
0.0
 10
2.782451
 20
2.894643
 10
2.723155
 20
2.855144
 10
2.723155
 20
2.776147
 10
2.782451
 20
2.736648
 10
2.835668
 20
2.776147
 10
2.835668
 20
2.855144
  0
LINE
  5
9F6
330
18
100
AcDbEntity
  8
0
100
AcDbLine
 10
2.723155
 20
2.776147
 30
0.0
 11
2.677717
 21
2.791586
 31
0.0
  0
LINE
  5
9F7
330
18
100
AcDbEntity
  8
0
100
AcDbLine
 10
2.782451
 20
2.736648
 30
0.0
 11
2.737013
 21
2.752087
 31
0.0
  0
LINE
  5
9F8
330
18
100
AcDbEntity
  8
0
100
AcDbLine
 10
2.723155
 20
2.855144
 30
0.0
 11
2.677717
 21
2.870584
 31
0.0
  0
LINE
  5
9F9
330
18
100
AcDbEntity
  8
0
100
AcDbLine
 10
2.782451
 20
2.894643
 30
0.0
 11
2.737013
 21
2.910082
 31
0.0
  0
LWPOLYLINE
  5
9FA
330
18
100
AcDbEntity
  8
0
100
AcDbPolyline
 90
        4
 70
     0
 43
0.0
 10
2.737013
 20
4.532608
 10
2.677717
 20
4.493109
 10
2.677717
 20
4.414112
 10
2.737013
 20
4.374613
  0
LWPOLYLINE
  5
A01
330
18
100
AcDbEntity
  8
0
100
AcDbPolyline
 90
        6
 70
     1
 43
0.0
 10
2.782451
 20
4.517169
 10
2.723155
 20
4.47767
 10
2.723155
 20
4.398673000000001
 10
2.782451
 20
4.359173999999999
 10
2.835668
 20
4.398673000000001
 10
2.835668
 20
4.47767
  0
LWPOLYLINE
  5
A0A
330
18
100
AcDbEntity
  8
0
100
AcDbPolyline
 90
        6
 70
     1
 43
0.0
 10
2.782451
 20
4.289292
 10
2.723155
 20
4.249793
 10
2.723155
 20
4.170795
 10
2.782451
 20
4.131296
 10
2.835668
 20
4.170795
 10
2.835668
 20
4.249793
  0
LWPOLYLINE
  5
A13
330
18
100
AcDbEntity
  8
0
100
AcDbPolyline
 90
        4
 70
     0
 43
0.0
 10
2.737013
 20
4.304730999999999
 10
2.677717
 20
4.265232
 10
2.677717
 20
4.186234
 10
2.737013
 20
4.146736
  0
LINE
  5
A1A
330
18
100
AcDbEntity
  8
0
100
AcDbLine
 10
2.782451
 20
4.131296
 30
0.0
 11
2.737013
 21
4.146736
 31
0.0
  0
LINE
  5
A1B
330
18
100
AcDbEntity
  8
0
100
AcDbLine
 10
2.723155
 20
4.170795
 30
0.0
 11
2.677717
 21
4.186234
 31
0.0
  0
LINE
  5
A1C
330
18
100
AcDbEntity
  8
0
100
AcDbLine
 10
2.782451
 20
4.289292
 30
0.0
 11
2.737013
 21
4.304730999999999
 31
0.0
  0
LINE
  5
A1D
330
18
100
AcDbEntity
  8
0
100
AcDbLine
 10
2.723155
 20
4.249793
 30
0.0
 11
2.677717
 21
4.265232
 31
0.0
  0
LINE
  5
A1E
330
18
100
AcDbEntity
  8
0
100
AcDbLine
 10
2.723155
 20
4.398673000000001
 30
0.0
 11
2.677717
 21
4.414112
 31
0.0
  0
LINE
  5
A1F
330
18
100
AcDbEntity
  8
0
100
AcDbLine
 10
2.782451
 20
4.359173999999999
 30
0.0
 11
2.737013
 21
4.374613
 31
0.0
  0
LINE
  5
A20
330
18
100
AcDbEntity
  8
0
100
AcDbLine
 10
2.723155
 20
4.47767
 30
0.0
 11
2.677717
 21
4.493109
 31
0.0
  0
LINE
  5
A21
330
18
100
AcDbEntity
  8
0
100
AcDbLine
 10
2.782451
 20
4.517169
 30
0.0
 11
2.737013
 21
4.532608
 31
0.0
  0
TEXT
  5
A22
330
18
100
AcDbEntity
  8
0
100
AcDbText
 10
4.954516
 20
1.662582
 30
0.0
 40
0.2
  1
Simpson Strong-Tie
100
AcDbText
  0
TEXT
  5
A23
330
18
100
AcDbEntity
  8
0
100
AcDbText
 10
4.954516
 20
1.338772
 30
0.0
 40
0.2
  1
Pile to Girder Connections
100
AcDbText
  0
LINE
  5
A24
330
18
100
AcDbEntity
  8
0
100
AcDbLine
 10
1.146477
 20
3.373944400743928
 30
0.0
 11
0.3848360616695581
 21
3.866517037896219
 31
0.0
  0
LINE
  5
A25
330
18
100
AcDbEntity
  8
0
100
AcDbLine
 10
1.146477
 20
3.036761050162032
 30
0.0
 11
0.384303827927184
 21
3.529677896461795
 31
0.0
  0
LINE
  5
A26
330
18
100
AcDbEntity
  8
0
100
AcDbLine
 10
1.085927796897076
 20
3.239935622245685
 30
0.0
 11
0.3252557968970765
 21
3.731881622245685
 31
0.0
  0
LINE
  5
A27
330
18
100
AcDbEntity
  8
0
100
AcDbLine
 10
0.384815
 20
3.853367
 30
0.0
 11
0.3252557968970765
 21
3.731881622245685
 31
0.0
  0
LINE
  5
A28
330
18
100
AcDbEntity
  8
0
100
AcDbLine
 10
1.146477
 20
3.373944400743928
 30
0.0
 11
1.085927796897076
 21
3.239935622245685
 31
0.0
  0
LINE
  5
A29
330
18
100
AcDbEntity
  8
0
100
AcDbLine
 10
1.144975827927184
 20
3.037731896461796
 30
0.0
 11
1.144145
 21
2.511919
 31
0.0
  0
LINE
  5
A2A
330
18
100
AcDbEntity
  8
0
100
AcDbLine
 10
0.384303827927184
 20
3.529677896461795
 30
0.0
 11
0.383473
 21
3.003865
 31
0.0
  0
LWPOLYLINE
  5
A2B
330
18
100
AcDbEntity
  8
0
100
AcDbPolyline
 90
        3
 70
   128
 43
0.0
 10
0.954535
 20
2.988131
 10
0.977793
 20
3.071174
 10
0.9831039328605767
 20
3.142418583089458
  0
LWPOLYLINE
  5
A31
330
18
100
AcDbEntity
  8
0
100
AcDbPolyline
 90
        7
 70
   128
 43
0.0
 10
0.995181
 20
2.608258
 10
0.999969
 20
2.711972
 10
1.014944
 20
2.787023
 10
1.043918
 20
2.881092
 10
1.056905
 20
2.927125
 10
1.072876
 20
3.011182
 10
1.084697552202898
 20
3.07671539609036
  0
LWPOLYLINE
  5
A3B
330
18
100
AcDbEntity
  8
0
100
AcDbPolyline
 90
        6
 70
   128
 43
0.0
 10
0.38378
 20
3.198007
 10
0.425376
 20
3.271042
 10
0.457377
 20
3.311080000000001
 10
0.472355
 20
3.379127
 10
0.493335
 20
3.451179
 10
0.4958701242087086
 20
3.457525124714563
  0
LWPOLYLINE
  5
A44
330
18
100
AcDbEntity
  8
0
100
AcDbPolyline
 90
        8
 70
   128
 43
0.0
 10
0.643184
 20
2.835904
 10
0.636644
 20
2.954951
 10
0.638598
 20
3.059013
 10
0.649574
 20
3.126058
 10
0.654543
 20
3.202105
 10
0.649514
 20
3.260137
 10
0.6464810000000001
 20
3.327175
 10
0.6505124530133201
 20
3.357513983136967
  0
LWPOLYLINE
  5
A4F
330
18
100
AcDbEntity
  8
0
100
AcDbPolyline
 90
        8
 70
   128
 43
0.0
 10
0.763907
 20
2.819933
 10
0.728708
 20
2.93398
 10
0.7216590000000001
 20
3.034036
 10
0.705629
 20
3.079055
 10
0.696593
 20
3.147091
 10
0.695577
 20
3.181111
 10
0.703546
 20
3.260161
 10
0.7178648001034876
 20
3.313955500976956
  0
LWPOLYLINE
  5
A5A
330
18
100
AcDbEntity
  8
0
100
AcDbPolyline
 90
        2
 70
   128
 43
0.0
 10
0.7641560170501377
 20
3.448033646109561
 10
0.765752
 20
3.453503
  0
LWPOLYLINE
  5
A5F
330
18
100
AcDbEntity
  8
0
100
AcDbPolyline
 90
        6
 70
   128
 43
0.0
 10
0.9542040000000001
 20
2.778964
 10
0.8928020000000001
 20
2.941059
 10
0.884758
 20
3.027106
 10
0.858685
 20
3.15517
 10
0.832633
 20
3.235205
 10
0.83149405539084
 20
3.240468560979701
  0
LWPOLYLINE
  5
A68
330
18
100
AcDbEntity
  8
0
100
AcDbPolyline
 90
        2
 70
   128
 43
0.0
 10
0.7700103344170417
 20
3.444247509625795
 10
0.764911
 20
3.455332
  0
LINE
  5
A6D
330
18
100
AcDbEntity
  8
0
100
AcDbLine
 10
0.5744718271379491
 20
3.406690396972214
 30
0.0
 11
0.72197313535068
 21
3.47531439250291
 31
0.0
  0
LINE
  5
A6E
330
18
100
AcDbEntity
  8
0
100
AcDbLine
 10
0.7646398271379491
 20
3.283704396972214
 30
0.0
 11
0.9102469405285809
 21
3.353552916647288
 31
0.0
  0
LINE
  5
A6F
330
18
100
AcDbEntity
  8
0
100
AcDbLine
 10
0.9548078271379491
 20
3.160718396972214
 30
0.0
 11
1.114291222620635
 21
3.239138507633275
 31
0.0
  0
LINE
  5
A70
330
18
100
AcDbEntity
  8
0
100
AcDbLine
 10
0.5744718277003146
 20
3.406691396608518
 30
0.0
 11
0.573641
 21
2.880879
 31
0.0
  0
LINE
  5
A71
330
18
100
AcDbEntity
  8
0
100
AcDbLine
 10
0.764639827927184
 20
3.283704896461796
 30
0.0
 11
0.763809
 21
2.757892
 31
0.0
  0
LINE
  5
A72
330
18
100
AcDbEntity
  8
0
100
AcDbLine
 10
0.9548078271379491
 20
3.160718396972214
 30
0.0
 11
0.9539770000000001
 21
2.634906
 31
0.0
  0
LINE
  5
A73
330
18
100
AcDbEntity
  8
0
100
AcDbLine
 10
0.9553400608803232
 20
3.497557538406638
 30
0.0
 11
0.8947908577773996
 21
3.363548759908395
 31
0.0
  0
LINE
  5
A74
330
18
100
AcDbEntity
  8
0
100
AcDbLine
 10
0.7651720616695581
 20
3.620544037896219
 30
0.0
 11
0.7046228585666345
 21
3.486535259397976
 31
0.0
  0
LINE
  5
A75
330
18
100
AcDbEntity
  8
0
100
AcDbLine
 10
0.5750040618029441
 20
3.743530537809955
 30
0.0
 11
0.5144548587000205
 21
3.609521759311712
 31
0.0
  0
LWPOLYLINE
  5
A76
330
18
100
AcDbEntity
  8
0
100
AcDbPolyline
 90
       11
 70
   128
 43
0.0
 10
0.4531040854463843
 20
3.649198870470047
 10
0.463218
 20
3.670294
 10
0.487202
 20
3.736344
 10
0.49819
 20
3.776373
 10
0.480126
 20
3.894434
 10
0.460072
 20
3.98748
 10
0.443025
 20
4.06852
 10
0.433984
 20
4.148562999999999
 10
0.424954
 20
4.20159
 10
0.417929
 20
4.248615
 10
0.385562
 20
4.325652
  0
LINE
  5
A84
330
18
100
AcDbEntity
  8
0
100
AcDbLine
 10
0.384303827927184
 20
3.529677896461795
 30
0.0
 11
0.5318051361399149
 21
3.598301891992491
 31
0.0
  0
LWPOLYLINE
  5
A85
330
18
100
AcDbEntity
  8
0
100
AcDbPolyline
 90
        8
 70
   128
 43
0.0
 10
0.5389869589682398
 20
3.766823717618232
 10
0.538211
 20
3.782394
 10
0.5321739999999999
 20
3.856435
 10
0.529143
 20
3.921472
 10
0.504038
 20
4.120578
 10
0.490982
 20
4.227636
 10
0.477926
 20
4.332692
 10
0.474766
 20
4.422204
  0
LWPOLYLINE
  5
A90
330
18
100
AcDbEntity
  8
0
100
AcDbPolyline
 90
        7
 70
   128
 43
0.0
 10
0.6092140237068504
 20
3.721406082172335
 10
0.6342600000000001
 20
3.799448
 10
0.667242
 20
3.882512
 10
0.6792189999999999
 20
3.948556
 10
0.635157
 20
4.028584
 10
0.594089
 20
4.124622000000001
 10
0.5756790000000001
 20
4.170641000000001
  0
LWPOLYLINE
  5
A9A
330
18
100
AcDbEntity
  8
0
100
AcDbPolyline
 90
       11
 70
   128
 43
0.0
 10
0.7095438754457493
 20
3.656520205942444
 10
0.713364
 20
3.673409
 10
0.733349
 20
3.731453
 10
0.739333
 20
3.776482
 10
0.748319
 20
3.818511
 10
0.737278
 20
3.894551
 10
0.7112229999999999
 20
3.98059
 10
0.651137
 20
4.093629
 10
0.632088
 20
4.17667
 10
0.6020340000000001
 20
4.255703
 10
0.5758850000000001
 20
4.300732
  0
LWPOLYLINE
  5
AA8
330
18
100
AcDbEntity
  8
0
100
AcDbPolyline
 90
        4
 70
   128
 43
0.0
 10
0.8030903818342502
 20
3.59602129230845
 10
0.802451
 20
3.597405
 10
0.777402
 20
3.672438
 10
0.765297
 20
3.699471
  0
LWPOLYLINE
  5
AAF
330
18
100
AcDbEntity
  8
0
100
AcDbPolyline
 90
       10
 70
   128
 43
0.0
 10
1.006463582971279
 20
3.464494651645251
 10
1.014616
 20
3.509449
 10
1.018586
 20
3.581494
 10
1.035558
 20
3.66455
 10
1.040537
 20
3.718583999999999
 10
1.042516
 20
3.765613
 10
1.01647
 20
3.833641000000001
 10
0.997432
 20
3.893668
 10
0.9934069999999999
 20
3.942695
 10
0.956197
 20
4.039744000000001
  0
LWPOLYLINE
  5
ABC
330
18
100
AcDbEntity
  8
0
100
AcDbPolyline
 90
       11
 70
   128
 43
0.0
 10
1.046682860076434
 20
3.438483818467781
 10
1.057654
 20
3.482453
 10
1.076636
 20
3.546499
 10
1.095633
 20
3.577526
 10
1.090596
 20
3.653569
 10
1.082562
 20
3.717603
 10
1.078533
 20
3.776636
 10
1.058487
 20
3.850671
 10
1.054459
 20
3.908703
 10
1.009374
 20
4.036758
 10
0.999878
 20
4.0826
  0
LINE
  5
ACA
330
18
100
AcDbEntity
  8
0
100
AcDbLine
 10
0.5389869589682398
 20
3.766823717618232
 30
0.0
 11
0.5262417688928603
 21
3.694934100175351
 31
0.0
  0
LINE
  5
ACB
330
18
100
AcDbEntity
  8
0
100
AcDbLine
 10
0.5262417688928603
 20
3.694934100175351
 30
0.0
 11
0.4956732675680339
 21
3.621668293732614
 31
0.0
  0
LINE
  5
ACC
330
18
100
AcDbEntity
  8
0
100
AcDbLine
 10
0.6092140237068504
 20
3.721406082172335
 30
0.0
 11
0.5215851417867189
 21
3.604910423225503
 31
0.0
  0
LINE
  5
ACD
330
18
100
AcDbEntity
  8
0
100
AcDbLine
 10
0.7095438754457493
 20
3.656520205942444
 30
0.0
 11
0.61133559171011
 21
3.546866516209059
 31
0.0
  0
LINE
  5
ACE
330
18
100
AcDbEntity
  8
0
100
AcDbLine
 10
0.8030903818342502
 20
3.59602129230845
 30
0.0
 11
0.8128334658643126
 21
3.520333735696029
 31
0.0
  0
LINE
  5
ACF
330
18
100
AcDbEntity
  8
0
100
AcDbLine
 10
0.8128334658643126
 20
3.520333735696029
 30
0.0
 11
0.7886780685265232
 21
3.432174609447765
 31
0.0
  0
LINE
  5
AD0
330
18
100
AcDbEntity
  8
0
100
AcDbLine
 10
1.006463582971279
 20
3.464494651645251
 30
0.0
 11
0.9024158757901913
 21
3.358617466116431
 31
0.0
  0
LINE
  5
AD1
330
18
100
AcDbEntity
  8
0
100
AcDbLine
 10
1.046682860076434
 20
3.438483818467781
 30
0.0
 11
1.025730139114705
 21
3.367558407485054
 31
0.0
  0
LINE
  5
AD2
330
18
100
AcDbEntity
  8
0
100
AcDbLine
 10
1.025730139114705
 20
3.367558407485054
 30
0.0
 11
0.983224217183119
 21
3.30635664895097
 31
0.0
  0
LINE
  5
AD3
330
18
100
AcDbEntity
  8
0
100
AcDbLine
 10
1.085927796897076
 20
3.239935622245685
 30
0.0
 11
1.301404021757465
 21
3.233879962779967
 31
0.0
  0
LINE
  5
AD4
330
18
100
AcDbEntity
  8
0
100
AcDbLine
 10
1.301404021757465
 20
3.233879962779967
 30
0.0
 11
1.146477
 21
3.036761050162032
 31
0.0
  0
LINE
  5
AD5
330
18
100
AcDbEntity
  8
0
100
AcDbLine
 10
0.4958701242087086
 20
3.457525124714563
 30
0.0
 11
0.5398889996374567
 21
3.523061851292221
 31
0.0
  0
LINE
  5
AD6
330
18
100
AcDbEntity
  8
0
100
AcDbLine
 10
0.5398889996374567
 20
3.523061851292221
 30
0.0
 11
0.5846262800799364
 21
3.564140109846286
 31
0.0
  0
LINE
  5
AD7
330
18
100
AcDbEntity
  8
0
100
AcDbLine
 10
0.6505124530133201
 20
3.357513983136967
 30
0.0
 11
0.6872790099133082
 21
3.405752211663097
 31
0.0
  0
LINE
  5
AD8
330
18
100
AcDbEntity
  8
0
100
AcDbLine
 10
0.6872790099133082
 20
3.405752211663097
 30
0.0
 11
0.7663813388605574
 21
3.446594473689189
 31
0.0
  0
LINE
  5
AD9
330
18
100
AcDbEntity
  8
0
100
AcDbLine
 10
0.7178648001034876
 20
3.313955500976956
 30
0.0
 11
0.7664329036324457
 21
3.3621021391264
 31
0.0
  0
LINE
  5
ADA
330
18
100
AcDbEntity
  8
0
100
AcDbLine
 10
0.7664329036324457
 20
3.3621021391264
 30
0.0
 11
0.8535267790961005
 21
3.390235292935705
 31
0.0
  0
LINE
  5
ADB
330
18
100
AcDbEntity
  8
0
100
AcDbLine
 10
0.832633
 20
3.235205
 30
0.0
 11
0.8592340280961796
 21
3.29935510875128
 31
0.0
  0
LINE
  5
ADC
330
18
100
AcDbEntity
  8
0
100
AcDbLine
 10
0.8592340280961796
 20
3.29935510875128
 30
0.0
 11
0.8880071650951146
 21
3.34288437610857
 31
0.0
  0
LINE
  5
ADD
330
18
100
AcDbEntity
  8
0
100
AcDbLine
 10
0.9831039328605767
 20
3.142418583089458
 30
0.0
 11
1.034549524879292
 21
3.199928452302745
 31
0.0
  0
LINE
  5
ADE
330
18
100
AcDbEntity
  8
0
100
AcDbLine
 10
1.084697552202898
 20
3.07671539609036
 30
0.0
 11
1.140366817903286
 21
3.149307896136499
 31
0.0
  0
LINE
  5
ADF
330
18
100
AcDbEntity
  8
0
100
AcDbLine
 10
1.140366817903286
 20
3.149307896136499
 30
0.0
 11
1.268666650780468
 21
3.234800001037403
 31
0.0
  0
ENDSEC
  0
SECTION
  2
OBJECTS
  0
DICTIONARY
  5
C
330
0
100
AcDbDictionary
281
     1
  3
ACAD_COLOR
350
AE5
  3
ACAD_GROUP
350
D
  3
ACAD_LAYOUT
350
15
  3
ACAD_MATERIAL
350
AE7
  3
ACAD_MLINESTYLE
350
12
  3
ACAD_PLOTSETTINGS
350
14
  3
ACAD_PLOTSTYLENAME
350
E
  3
ACDBHEADERROUNDTRIPXREC
350
AE4
  0
DICTIONARY
  5
AE5
102
{ACAD_REACTORS
330
C
102
}
330
C
100
AcDbDictionary
281
     1
  0
DICTIONARY
  5
D
102
{ACAD_REACTORS
330
C
102
}
330
C
100
AcDbDictionary
281
     1
  0
DICTIONARY
  5
15
102
{ACAD_REACTORS
330
C
102
}
330
C
100
AcDbDictionary
281
     1
  3
Layout1
350
17
  3
Model
350
19
  0
DICTIONARY
  5
AE7
102
{ACAD_REACTORS
330
C
102
}
330
C
100
AcDbDictionary
281
     1
  0
DICTIONARY
  5
12
102
{ACAD_REACTORS
330
C
102
}
330
C
100
AcDbDictionary
281
     1
  3
Standard
350
13
  0
DICTIONARY
  5
14
102
{ACAD_REACTORS
330
C
102
}
330
C
100
AcDbDictionary
281
     1
  0
ACDBDICTIONARYWDFLT
  5
E
102
{ACAD_REACTORS
330
C
102
}
330
C
100
AcDbDictionary
281
     1
  3
Normal
350
F
100
AcDbDictionaryWithDefault
340
F
  0
DICTIONARY
  5
AE4
102
{ACAD_REACTORS
330
C
102
}
330
C
100
AcDbDictionary
281
     1
  3
COLORDICT
350
AE6
  3
MATERIALDICT
350
AE8
  0
LAYOUT
  5
17
102
{ACAD_REACTORS
330
15
102
}
102
{ACAD_XDICTIONARY
360
AE9
102
}
330
15
100
AcDbPlotSettings
  1

  2

  4

  6

 40
0.0
 41
0.0
 42
0.0
 43
0.0
 44
0.0
 45
0.0
 46
0.0
 47
0.0
 48
0.0
 49
0.0
140
0.0
141
0.0
142
1.0
143
1.0
 70
   688
 72
     0
 73
     0
 74
     5
  7

 75
    16
147
1.0
148
0.0
149
0.0
100
AcDbLayout
  1
Layout1
 70
     1
 71
     1
 10
0.0
 20
0.0
 11
12.0
 21
9.0
 12
0.0
 22
0.0
 32
0.0
 14
1.000000000000000E+20
 24
1.000000000000000E+20
 34
1.000000000000000E+20
 15
-1.000000000000000E+20
 25
-1.000000000000000E+20
 35
-1.000000000000000E+20
146
0.0
 13
0.0
 23
0.0
 33
0.0
 16
1.0
 26
0.0
 36
0.0
 17
0.0
 27
1.0
 37
0.0
 76
     0
330
16
  0
LAYOUT
  5
19
102
{ACAD_REACTORS
330
15
102
}
102
{ACAD_XDICTIONARY
360
AEB
102
}
330
15
100
AcDbPlotSettings
  1

  2

  4

  6

 40
0.0
 41
0.0
 42
0.0
 43
0.0
 44
0.0
 45
0.0
 46
0.0
 47
0.0
 48
0.0
 49
0.0
140
0.0
141
0.0
142
1.0
143
1.0
 70
  1712
 72
     0
 73
     0
 74
     0
  7

 75
     0
147
1.0
148
0.0
149
0.0
100
AcDbLayout
  1
Model
 70
     1
 71
     0
 10
0.0
 20
0.0
 11
0.0
 21
0.0
 12
0.0
 22
0.0
 32
0.0
 14
0.0
 24
0.0
 34
0.0
 15
0.0
 25
0.0
 35
0.0
146
0.0
 13
0.0
 23
0.0
 33
0.0
 16
1.0
 26
0.0
 36
0.0
 17
0.0
 27
1.0
 37
0.0
 76
     0
330
18
  0
MLINESTYLE
  5
13
102
{ACAD_REACTORS
330
12
102
}
330
12
100
AcDbMlineStyle
  2
Standard
 70
     0
  3

 62
   256
 51
90.0
 52
90.0
 71
     2
 49
0.5
 62
   256
  6
BYLAYER
 49
-0.5
 62
   256
  6
BYLAYER
  0
ACDBPLACEHOLDER
  5
F
102
{ACAD_REACTORS
330
E
102
}
330
E
  0
XRECORD
  5
AE6
102
{ACAD_REACTORS
330
AE4
102
}
330
AE4
100
AcDbXrecord
340
AE5
  0
XRECORD
  5
AE8
102
{ACAD_REACTORS
330
AE4
102
}
330
AE4
100
AcDbXrecord
340
AE7
  0
DICTIONARY
  5
AE9
330
17
100
AcDbDictionary
280
     1
281
     1
  3
ACAD_XREC_ROUNDTRIP
360
AEA
  0
DICTIONARY
  5
AEB
330
19
100
AcDbDictionary
280
     1
281
     1
  3
ACAD_XREC_ROUNDTRIP
360
AEC
  0
XRECORD
  5
AEA
102
{ACAD_REACTORS
330
AE9
102
}
330
AE9
100
AcDbXrecord
102
SHADEPLOT
 70
     0
102
SHADEPLOTRESLEVEL
 70
     0
102
SHADEPLOTCUSTOMDPI
 70
     0
  0
XRECORD
  5
AEC
102
{ACAD_REACTORS
330
AEB
102
}
330
AEB
100
AcDbXrecord
102
SHADEPLOT
 70
     0
102
SHADEPLOTRESLEVEL
 70
     0
102
SHADEPLOTCUSTOMDPI
 70
     0
  0
ENDSEC
  0
EOF
