  0
SECTION
  2
HEADER
  9
$ACADVER
  1
AC1015
  9
$ACADMAINTVER
 70
     6
  9
$DWGCODEPAGE
  3
ANSI_1252
  9
$INSBASE
 10
0.0
 20
0.0
 30
0.0
  9
$EXTMIN
 10
0.454
 20
0.5770000000000001
 30
0.0
  9
$EXTMAX
 10
3.284761904761904
 20
3.113
 30
0.0
  9
$LIMMIN
 10
0.0
 20
0.0
  9
$LIMMAX
 10
12.0
 20
17.0
  9
$ORTHOMODE
 70
     1
  9
$REGENMODE
 70
     0
  9
$FILLMODE
 70
     1
  9
$QTEXTMODE
 70
     0
  9
$MIRRTEXT
 70
     1
  9
$LTSCALE
 40
0.25
  9
$ATTMODE
 70
     1
  9
$TEXTSIZE
 40
0.125
  9
$TRACEWID
 40
0.05
  9
$TEXTSTYLE
  7
STANDARD
  9
$CLAYER
  8
0
  9
$CELTYPE
  6
ByLayer
  9
$CECOLOR
 62
   256
  9
$CELTSCALE
 40
1.0
  9
$DISPSILH
 70
     0
  9
$DIMSCALE
 40
1.0
  9
$DIMASZ
 40
0.125
  9
$DIMEXO
 40
0.063
  9
$DIMDLI
 40
0.38
  9
$DIMRND
 40
0.0
  9
$DIMDLE
 40
0.0
  9
$DIMEXE
 40
0.18
  9
$DIMTP
 40
0.0
  9
$DIMTM
 40
0.0
  9
$DIMTXT
 40
0.1
  9
$DIMCEN
 40
0.09
  9
$DIMTSZ
 40
0.0
  9
$DIMTOL
 70
     0
  9
$DIMLIM
 70
     0
  9
$DIMTIH
 70
     1
  9
$DIMTOH
 70
     1
  9
$DIMSE1
 70
     0
  9
$DIMSE2
 70
     0
  9
$DIMTAD
 70
     0
  9
$DIMZIN
 70
     0
  9
$DIMBLK
  1

  9
$DIMASO
 70
     0
  9
$DIMSHO
 70
     0
  9
$DIMPOST
  1

  9
$DIMAPOST
  1

  9
$DIMALT
 70
     0
  9
$DIMALTD
 70
     2
  9
$DIMALTF
 40
25.4
  9
$DIMLFAC
 40
1.0
  9
$DIMTOFL
 70
     0
  9
$DIMTVP
 40
0.0
  9
$DIMTIX
 70
     0
  9
$DIMSOXD
 70
     0
  9
$DIMSAH
 70
     0
  9
$DIMBLK1
  1

  9
$DIMBLK2
  1

  9
$DIMSTYLE
  2
Standard
  9
$DIMCLRD
 70
     0
  9
$DIMCLRE
 70
     0
  9
$DIMCLRT
 70
     0
  9
$DIMTFAC
 40
1.0
  9
$DIMGAP
 40
0.09
  9
$DIMJUST
 70
     0
  9
$DIMSD1
 70
     0
  9
$DIMSD2
 70
     0
  9
$DIMTOLJ
 70
     1
  9
$DIMTZIN
 70
     0
  9
$DIMALTZ
 70
     0
  9
$DIMALTTZ
 70
     0
  9
$DIMUPT
 70
     0
  9
$DIMDEC
 70
     4
  9
$DIMTDEC
 70
     4
  9
$DIMALTU
 70
     2
  9
$DIMALTTD
 70
     2
  9
$DIMTXSTY
  7
STANDARD
  9
$DIMAUNIT
 70
     0
  9
$DIMADEC
 70
     0
  9
$DIMALTRND
 40
0.0
  9
$DIMAZIN
 70
     0
  9
$DIMDSEP
 70
    46
  9
$DIMATFIT
 70
     3
  9
$DIMFRAC
 70
     0
  9
$DIMLDRBLK
  1

  9
$DIMLUNIT
 70
     2
  9
$DIMLWD
 70
    -2
  9
$DIMLWE
 70
    -2
  9
$DIMTMOVE
 70
     0
  9
$LUNITS
 70
     2
  9
$LUPREC
 70
     4
  9
$SKETCHINC
 40
0.1
  9
$FILLETRAD
 40
0.0
  9
$AUNITS
 70
     0
  9
$AUPREC
 70
     0
  9
$MENU
  1
acad
  9
$ELEVATION
 40
0.0
  9
$PELEVATION
 40
0.0
  9
$THICKNESS
 40
0.0
  9
$LIMCHECK
 70
     0
  9
$CHAMFERA
 40
0.0
  9
$CHAMFERB
 40
0.0
  9
$CHAMFERC
 40
1.0
  9
$CHAMFERD
 40
0.0
  9
$SKPOLY
 70
     0
  9
$TDCREATE
 40
2453955.561094086
  9
$TDUCREATE
 40
2453955.894427419
  9
$TDUPDATE
 40
2453955.602760764
  9
$TDUUPDATE
 40
2453955.89442743
  9
$TDINDWG
 40
0.0000000116
  9
$TDUSRTIMER
 40
0.0000000116
  9
$USRTIMER
 70
     1
  9
$ANGBASE
 50
0.0
  9
$ANGDIR
 70
     0
  9
$PDMODE
 70
     0
  9
$PDSIZE
 40
0.0
  9
$PLINEWID
 40
0.0
  9
$SPLFRAME
 70
     0
  9
$SPLINETYPE
 70
     6
  9
$SPLINESEGS
 70
     8
  9
$HANDSEED
  5
1FC
  9
$SURFTAB1
 70
     6
  9
$SURFTAB2
 70
     6
  9
$SURFTYPE
 70
     6
  9
$SURFU
 70
     6
  9
$SURFV
 70
     6
  9
$UCSBASE
  2

  9
$UCSNAME
  2

  9
$UCSORG
 10
0.0
 20
0.0
 30
0.0
  9
$UCSXDIR
 10
1.0
 20
0.0
 30
0.0
  9
$UCSYDIR
 10
0.0
 20
1.0
 30
0.0
  9
$UCSORTHOREF
  2

  9
$UCSORTHOVIEW
 70
     0
  9
$UCSORGTOP
 10
0.0
 20
0.0
 30
0.0
  9
$UCSORGBOTTOM
 10
0.0
 20
0.0
 30
0.0
  9
$UCSORGLEFT
 10
0.0
 20
0.0
 30
0.0
  9
$UCSORGRIGHT
 10
0.0
 20
0.0
 30
0.0
  9
$UCSORGFRONT
 10
0.0
 20
0.0
 30
0.0
  9
$UCSORGBACK
 10
0.0
 20
0.0
 30
0.0
  9
$PUCSBASE
  2

  9
$PUCSNAME
  2

  9
$PUCSORG
 10
0.0
 20
0.0
 30
0.0
  9
$PUCSXDIR
 10
1.0
 20
0.0
 30
0.0
  9
$PUCSYDIR
 10
0.0
 20
1.0
 30
0.0
  9
$PUCSORTHOREF
  2

  9
$PUCSORTHOVIEW
 70
     0
  9
$PUCSORGTOP
 10
0.0
 20
0.0
 30
0.0
  9
$PUCSORGBOTTOM
 10
0.0
 20
0.0
 30
0.0
  9
$PUCSORGLEFT
 10
0.0
 20
0.0
 30
0.0
  9
$PUCSORGRIGHT
 10
0.0
 20
0.0
 30
0.0
  9
$PUCSORGFRONT
 10
0.0
 20
0.0
 30
0.0
  9
$PUCSORGBACK
 10
0.0
 20
0.0
 30
0.0
  9
$USERI1
 70
     0
  9
$USERI2
 70
     0
  9
$USERI3
 70
     0
  9
$USERI4
 70
     0
  9
$USERI5
 70
     0
  9
$USERR1
 40
0.0
  9
$USERR2
 40
0.0
  9
$USERR3
 40
0.0
  9
$USERR4
 40
0.0
  9
$USERR5
 40
0.0
  9
$WORLDVIEW
 70
     1
  9
$SHADEDGE
 70
     3
  9
$SHADEDIF
 70
    70
  9
$TILEMODE
 70
     1
  9
$MAXACTVP
 70
    16
  9
$PINSBASE
 10
0.0
 20
0.0
 30
0.0
  9
$PLIMCHECK
 70
     0
  9
$PEXTMIN
 10
1.000000000000000E+20
 20
1.000000000000000E+20
 30
1.000000000000000E+20
  9
$PEXTMAX
 10
-1.000000000000000E+20
 20
-1.000000000000000E+20
 30
-1.000000000000000E+20
  9
$PLIMMIN
 10
0.0
 20
0.0
  9
$PLIMMAX
 10
12.0
 20
9.0
  9
$UNITMODE
 70
     0
  9
$VISRETAIN
 70
     0
  9
$PLINEGEN
 70
     0
  9
$PSLTSCALE
 70
     0
  9
$TREEDEPTH
 70
  3020
  9
$CMLSTYLE
  2
Standard
  9
$CMLJUST
 70
     0
  9
$CMLSCALE
 40
1.0
  9
$PROXYGRAPHICS
 70
     1
  9
$MEASUREMENT
 70
     0
  9
$CELWEIGHT
370
    -1
  9
$ENDCAPS
280
     0
  9
$JOINSTYLE
280
     0
  9
$LWDISPLAY
290
     0
  9
$INSUNITS
 70
     1
  9
$HYPERLINKBASE
  1

  9
$STYLESHEET
  1

  9
$XEDIT
290
     1
  9
$CEPSNTYPE
380
     0
  9
$PSTYLEMODE
290
     0
  9
$FINGERPRINTGUID
  2
{FAEB1C30-E019-11D5-929B-00C0DF256EC4}
  9
$VERSIONGUID
  2
{FAEB1C32-E019-11D5-929B-00C0DF256EC4}
  9
$EXTNAMES
290
     1
  9
$PSVPSCALE
 40
0.0
  9
$OLESTARTUP
290
     0
  0
ENDSEC
  0
SECTION
  2
CLASSES
  0
CLASS
  1
ACDBDICTIONARYWDFLT
  2
AcDbDictionaryWithDefault
  3
AutoCAD 2000
 90
        0
280
     0
281
     0
  0
CLASS
  1
ACDBPLACEHOLDER
  2
AcDbPlaceHolder
  3
ObjectDBX Classes
 90
        0
280
     0
281
     0
  0
CLASS
  1
LAYOUT
  2
AcDbLayout
  3
ObjectDBX Classes
 90
        0
280
     0
281
     0
  0
ENDSEC
  0
SECTION
  2
TABLES
  0
TABLE
  2
VPORT
  5
8
330
0
100
AcDbSymbolTable
 70
     2
  0
VPORT
  5
1F
330
8
100
AcDbSymbolTableRecord
100
AcDbViewportTableRecord
  2
*ACTIVE
 70
     0
 10
0.0
 20
0.0
 11
1.0
 21
1.0
 12
11.79297820823245
 22
8.5
 13
0.0
 23
0.0
 14
0.025
 24
0.025
 15
0.0
 25
0.0
 16
0.0
 26
0.0
 36
1.0
 17
0.0
 27
0.0
 37
0.0
 40
17.0
 41
0.7207678883071553
 42
50.0
 43
0.0
 44
0.0
 50
0.0
 51
0.0
 71
     0
 72
  2000
 73
     1
 74
     0
 75
     0
 76
     0
 77
     0
 78
     2
281
     0
 65
     1
110
0.0
120
0.0
130
0.0
111
1.0
121
0.0
131
0.0
112
0.0
122
1.0
132
0.0
 79
     0
146
0.0
  0
ENDTAB
  0
TABLE
  2
LTYPE
  5
5
330
0
100
AcDbSymbolTable
 70
     2
  0
LTYPE
  5
10
330
5
100
AcDbSymbolTableRecord
100
AcDbLinetypeTableRecord
  2
ByBlock
 70
     0
  3

 72
    65
 73
     0
 40
0.0
  0
LTYPE
  5
11
330
5
100
AcDbSymbolTableRecord
100
AcDbLinetypeTableRecord
  2
ByLayer
 70
     0
  3

 72
    65
 73
     0
 40
0.0
  0
LTYPE
  5
1B
330
5
100
AcDbSymbolTableRecord
100
AcDbLinetypeTableRecord
  2
CONTINUOUS
 70
     0
  3
Solid line
 72
    65
 73
     0
 40
0.0
  0
LTYPE
  5
1C
330
5
100
AcDbSymbolTableRecord
100
AcDbLinetypeTableRecord
  2
PHANTOM
 70
     0
  3
______  __  __  ______  __  __  ______  __  __ 
 72
    65
 73
     6
 40
2.5
 49
1.25
 74
     0
 49
-0.25
 74
     0
 49
0.25
 74
     0
 49
-0.25
 74
     0
 49
0.25
 74
     0
 49
-0.25
 74
     0
  0
ENDTAB
  0
TABLE
  2
LAYER
  5
2
330
0
100
AcDbSymbolTable
 70
     1
  0
LAYER
  5
1D
330
2
100
AcDbSymbolTableRecord
100
AcDbLayerTableRecord
  2
0
 70
     0
 62
     7
  6
CONTINUOUS
370
    -3
390
F
  0
ENDTAB
  0
TABLE
  2
STYLE
  5
3
330
0
100
AcDbSymbolTable
 70
     1
  0
STYLE
  5
21
330
3
100
AcDbSymbolTableRecord
100
AcDbTextStyleTableRecord
  2
STANDARD
 70
     0
 40
0.0
 41
1.0
 50
0.0
 71
     0
 42
0.125
  3
romans
  4

  0
ENDTAB
  0
TABLE
  2
VIEW
  5
6
330
0
100
AcDbSymbolTable
 70
     0
  0
ENDTAB
  0
TABLE
  2
UCS
  5
7
330
0
100
AcDbSymbolTable
 70
     0
  0
ENDTAB
  0
TABLE
  2
APPID
  5
9
330
0
100
AcDbSymbolTable
 70
     1
  0
APPID
  5
20
330
9
100
AcDbSymbolTableRecord
100
AcDbRegAppTableRecord
  2
ACAD
 70
     0
  0
ENDTAB
  0
TABLE
  2
DIMSTYLE
  5
A
330
0
100
AcDbSymbolTable
 70
     1
100
AcDbDimStyleTable
  0
DIMSTYLE
105
22
330
A
100
AcDbSymbolTableRecord
100
AcDbDimStyleTableRecord
  2
Standard
 70
     0
  3

  4

340
21
  0
ENDTAB
  0
TABLE
  2
BLOCK_RECORD
  5
1
330
0
100
AcDbSymbolTable
 70
     0
  0
BLOCK_RECORD
  5
18
330
1
100
AcDbSymbolTableRecord
100
AcDbBlockTableRecord
  2
*Model_Space
340
19
  0
BLOCK_RECORD
  5
16
330
1
100
AcDbSymbolTableRecord
100
AcDbBlockTableRecord
  2
*Paper_Space
340
17
  0
ENDTAB
  0
ENDSEC
  0
SECTION
  2
BLOCKS
  0
BLOCK
  5
1F1
330
18
100
AcDbEntity
  8
0
100
AcDbBlockBegin
  2
*Model_Space
 70
     0
 10
0.0
 20
0.0
 30
0.0
  3
*Model_Space
  1

  4

  0
ENDBLK
  5
1F2
330
18
100
AcDbEntity
  8
0
100
AcDbBlockEnd
  0
BLOCK
  5
1EF
330
16
100
AcDbEntity
 67
     1
  8
0
100
AcDbBlockBegin
  2
*Paper_Space
 70
     0
 10
0.0
 20
0.0
 30
0.0
  3
*Paper_Space
  1

  4

  0
ENDBLK
  5
1F0
330
16
100
AcDbEntity
 67
     1
  8
0
100
AcDbBlockEnd
  0
ENDSEC
  0
SECTION
  2
ENTITIES
  0
ARC
  5
23
330
18
100
AcDbEntity
  8
0
  6
PHANTOM
100
AcDbCircle
 10
1.374
 20
1.737
 30
0.0
 40
0.014
100
AcDbArc
 50
55.315
 51
87.38600000000001
  0
ARC
  5
24
330
18
100
AcDbEntity
  8
0
  6
PHANTOM
100
AcDbCircle
 10
1.369
 20
1.729
 30
0.0
 40
0.025
100
AcDbArc
 50
30.853
 51
55.315
  0
ARC
  5
25
330
18
100
AcDbEntity
  8
0
  6
PHANTOM
100
AcDbCircle
 10
1.36
 20
1.724
 30
0.0
 40
0.035
100
AcDbArc
 50
12.699
 51
30.853
  0
ARC
  5
26
330
18
100
AcDbEntity
  8
0
  6
PHANTOM
100
AcDbCircle
 10
1.346
 20
1.721
 30
0.0
 40
0.049
100
AcDbArc
 50
357.386
 51
12.699
  0
ARC
  5
27
330
18
100
AcDbEntity
  8
0
  6
PHANTOM
100
AcDbCircle
 10
1.346
 20
1.721
 30
0.0
 40
0.049
100
AcDbArc
 50
342.073
 51
357.386
  0
ARC
  5
28
330
18
100
AcDbEntity
  8
0
  6
PHANTOM
100
AcDbCircle
 10
1.359
 20
1.716
 30
0.0
 40
0.035
100
AcDbArc
 50
323.92
 51
342.073
  0
ARC
  5
29
330
18
100
AcDbEntity
  8
0
  6
PHANTOM
100
AcDbCircle
 10
1.368
 20
1.71
 30
0.0
 40
0.025
100
AcDbArc
 50
299.458
 51
323.92
  0
ARC
  5
2A
330
18
100
AcDbEntity
  8
0
  6
PHANTOM
100
AcDbCircle
 10
1.373
 20
1.702
 30
0.0
 40
0.014
100
AcDbArc
 50
267.386
 51
299.458
  0
ARC
  5
2B
330
18
100
AcDbEntity
  8
0
  6
PHANTOM
100
AcDbCircle
 10
1.373
 20
1.702
 30
0.0
 40
0.014
100
AcDbArc
 50
235.315
 51
267.386
  0
ARC
  5
2C
330
18
100
AcDbEntity
  8
0
  6
PHANTOM
100
AcDbCircle
 10
1.378
 20
1.71
 30
0.0
 40
0.025
100
AcDbArc
 50
210.853
 51
235.315
  0
ARC
  5
2D
330
18
100
AcDbEntity
  8
0
  6
PHANTOM
100
AcDbCircle
 10
1.387
 20
1.715
 30
0.0
 40
0.035
100
AcDbArc
 50
192.699
 51
210.853
  0
ARC
  5
2E
330
18
100
AcDbEntity
  8
0
  6
PHANTOM
100
AcDbCircle
 10
1.401
 20
1.718
 30
0.0
 40
0.049
100
AcDbArc
 50
177.386
 51
192.699
  0
ARC
  5
2F
330
18
100
AcDbEntity
  8
0
  6
PHANTOM
100
AcDbCircle
 10
1.401
 20
1.718
 30
0.0
 40
0.049
100
AcDbArc
 50
162.073
 51
177.386
  0
ARC
  5
30
330
18
100
AcDbEntity
  8
0
  6
PHANTOM
100
AcDbCircle
 10
1.388
 20
1.723
 30
0.0
 40
0.035
100
AcDbArc
 50
143.92
 51
162.073
  0
ARC
  5
31
330
18
100
AcDbEntity
  8
0
  6
PHANTOM
100
AcDbCircle
 10
1.379
 20
1.729
 30
0.0
 40
0.025
100
AcDbArc
 50
119.458
 51
143.92
  0
ARC
  5
32
330
18
100
AcDbEntity
  8
0
  6
PHANTOM
100
AcDbCircle
 10
1.374
 20
1.737
 30
0.0
 40
0.014
100
AcDbArc
 50
87.38600000000001
 51
119.458
  0
ARC
  5
33
330
18
100
AcDbEntity
  8
0
100
AcDbCircle
 10
1.36
 20
1.703
 30
0.0
 40
0.014
100
AcDbArc
 50
267.386
 51
288.28
  0
ARC
  5
34
330
18
100
AcDbEntity
  8
0
100
AcDbCircle
 10
1.36
 20
1.703
 30
0.0
 40
0.014
100
AcDbArc
 50
235.315
 51
267.386
  0
ARC
  5
35
330
18
100
AcDbEntity
  8
0
100
AcDbCircle
 10
1.366
 20
1.712
 30
0.0
 40
0.025
100
AcDbArc
 50
210.853
 51
235.315
  0
ARC
  5
36
330
18
100
AcDbEntity
  8
0
100
AcDbCircle
 10
1.375
 20
1.717
 30
0.0
 40
0.035
100
AcDbArc
 50
192.699
 51
210.853
  0
ARC
  5
37
330
18
100
AcDbEntity
  8
0
100
AcDbCircle
 10
1.388
 20
1.72
 30
0.0
 40
0.049
100
AcDbArc
 50
177.386
 51
192.699
  0
ARC
  5
38
330
18
100
AcDbEntity
  8
0
100
AcDbCircle
 10
1.388
 20
1.72
 30
0.0
 40
0.049
100
AcDbArc
 50
162.073
 51
177.386
  0
ARC
  5
39
330
18
100
AcDbEntity
  8
0
100
AcDbCircle
 10
1.375
 20
1.724
 30
0.0
 40
0.035
100
AcDbArc
 50
143.92
 51
162.073
  0
ARC
  5
3A
330
18
100
AcDbEntity
  8
0
100
AcDbCircle
 10
1.367
 20
1.73
 30
0.0
 40
0.025
100
AcDbArc
 50
119.458
 51
143.92
  0
ARC
  5
3B
330
18
100
AcDbEntity
  8
0
100
AcDbCircle
 10
1.362
 20
1.739
 30
0.0
 40
0.014
100
AcDbArc
 50
87.38600000000001
 51
119.458
  0
ARC
  5
3C
330
18
100
AcDbEntity
  8
0
100
AcDbCircle
 10
1.362
 20
1.739
 30
0.0
 40
0.014
100
AcDbArc
 50
56.61600000000001
 51
87.38600000000001
  0
ARC
  5
3D
330
18
100
AcDbEntity
  8
0
100
AcDbCircle
 10
1.348
 20
1.949
 30
0.0
 40
0.014
100
AcDbArc
 50
56.61600000000001
 51
87.38600000000001
  0
ARC
  5
3E
330
18
100
AcDbEntity
  8
0
100
AcDbCircle
 10
1.346
 20
1.913
 30
0.0
 40
0.014
100
AcDbArc
 50
267.386
 51
288.28
  0
ARC
  5
3F
330
18
100
AcDbEntity
  8
0
100
AcDbCircle
 10
1.346
 20
1.913
 30
0.0
 40
0.014
100
AcDbArc
 50
235.315
 51
267.386
  0
ARC
  5
40
330
18
100
AcDbEntity
  8
0
100
AcDbCircle
 10
1.352
 20
1.922
 30
0.0
 40
0.025
100
AcDbArc
 50
210.853
 51
235.315
  0
ARC
  5
41
330
18
100
AcDbEntity
  8
0
100
AcDbCircle
 10
1.361
 20
1.927
 30
0.0
 40
0.035
100
AcDbArc
 50
192.699
 51
210.853
  0
ARC
  5
42
330
18
100
AcDbEntity
  8
0
100
AcDbCircle
 10
1.374
 20
1.93
 30
0.0
 40
0.049
100
AcDbArc
 50
177.386
 51
192.699
  0
ARC
  5
43
330
18
100
AcDbEntity
  8
0
100
AcDbCircle
 10
1.374
 20
1.93
 30
0.0
 40
0.049
100
AcDbArc
 50
162.073
 51
177.386
  0
ARC
  5
44
330
18
100
AcDbEntity
  8
0
100
AcDbCircle
 10
1.361
 20
1.934
 30
0.0
 40
0.035
100
AcDbArc
 50
143.92
 51
162.073
  0
ARC
  5
45
330
18
100
AcDbEntity
  8
0
100
AcDbCircle
 10
1.353
 20
1.94
 30
0.0
 40
0.025
100
AcDbArc
 50
119.458
 51
143.92
  0
ARC
  5
46
330
18
100
AcDbEntity
  8
0
100
AcDbCircle
 10
1.348
 20
1.949
 30
0.0
 40
0.014
100
AcDbArc
 50
87.38600000000001
 51
119.458
  0
ARC
  5
47
330
18
100
AcDbEntity
  8
0
  6
PHANTOM
100
AcDbCircle
 10
1.36
 20
1.947
 30
0.0
 40
0.014
100
AcDbArc
 50
55.315
 51
87.38600000000001
  0
ARC
  5
48
330
18
100
AcDbEntity
  8
0
  6
PHANTOM
100
AcDbCircle
 10
1.355
 20
1.939
 30
0.0
 40
0.025
100
AcDbArc
 50
30.853
 51
55.315
  0
ARC
  5
49
330
18
100
AcDbEntity
  8
0
  6
PHANTOM
100
AcDbCircle
 10
1.346
 20
1.934
 30
0.0
 40
0.035
100
AcDbArc
 50
12.699
 51
30.853
  0
ARC
  5
4A
330
18
100
AcDbEntity
  8
0
  6
PHANTOM
100
AcDbCircle
 10
1.332
 20
1.931
 30
0.0
 40
0.049
100
AcDbArc
 50
357.386
 51
12.699
  0
ARC
  5
4B
330
18
100
AcDbEntity
  8
0
  6
PHANTOM
100
AcDbCircle
 10
1.332
 20
1.931
 30
0.0
 40
0.049
100
AcDbArc
 50
342.073
 51
357.386
  0
ARC
  5
4C
330
18
100
AcDbEntity
  8
0
  6
PHANTOM
100
AcDbCircle
 10
1.345
 20
1.926
 30
0.0
 40
0.035
100
AcDbArc
 50
323.92
 51
342.073
  0
ARC
  5
4D
330
18
100
AcDbEntity
  8
0
  6
PHANTOM
100
AcDbCircle
 10
1.354
 20
1.92
 30
0.0
 40
0.025
100
AcDbArc
 50
299.458
 51
323.92
  0
ARC
  5
4E
330
18
100
AcDbEntity
  8
0
  6
PHANTOM
100
AcDbCircle
 10
1.359
 20
1.912
 30
0.0
 40
0.014
100
AcDbArc
 50
267.386
 51
299.458
  0
ARC
  5
4F
330
18
100
AcDbEntity
  8
0
  6
PHANTOM
100
AcDbCircle
 10
1.359
 20
1.912
 30
0.0
 40
0.014
100
AcDbArc
 50
235.315
 51
267.386
  0
ARC
  5
50
330
18
100
AcDbEntity
  8
0
  6
PHANTOM
100
AcDbCircle
 10
1.364
 20
1.92
 30
0.0
 40
0.025
100
AcDbArc
 50
210.853
 51
235.315
  0
ARC
  5
51
330
18
100
AcDbEntity
  8
0
  6
PHANTOM
100
AcDbCircle
 10
1.373
 20
1.925
 30
0.0
 40
0.035
100
AcDbArc
 50
192.699
 51
210.853
  0
ARC
  5
52
330
18
100
AcDbEntity
  8
0
  6
PHANTOM
100
AcDbCircle
 10
1.387
 20
1.928
 30
0.0
 40
0.049
100
AcDbArc
 50
177.386
 51
192.699
  0
ARC
  5
53
330
18
100
AcDbEntity
  8
0
  6
PHANTOM
100
AcDbCircle
 10
1.387
 20
1.928
 30
0.0
 40
0.049
100
AcDbArc
 50
162.073
 51
177.386
  0
ARC
  5
54
330
18
100
AcDbEntity
  8
0
  6
PHANTOM
100
AcDbCircle
 10
1.374
 20
1.933
 30
0.0
 40
0.035
100
AcDbArc
 50
143.92
 51
162.073
  0
ARC
  5
55
330
18
100
AcDbEntity
  8
0
  6
PHANTOM
100
AcDbCircle
 10
1.365
 20
1.939
 30
0.0
 40
0.025
100
AcDbArc
 50
119.458
 51
143.92
  0
ARC
  5
56
330
18
100
AcDbEntity
  8
0
  6
PHANTOM
100
AcDbCircle
 10
1.36
 20
1.947
 30
0.0
 40
0.014
100
AcDbArc
 50
87.38600000000001
 51
119.458
  0
ARC
  5
57
330
18
100
AcDbEntity
  8
0
100
AcDbCircle
 10
1.042
 20
2.539
 30
0.0
 40
0.013
100
AcDbArc
 50
93.809
 51
125.795
  0
ARC
  5
58
330
18
100
AcDbEntity
  8
0
100
AcDbCircle
 10
1.042
 20
2.53
 30
0.0
 40
0.021
100
AcDbArc
 50
69.34899999999999
 51
93.809
  0
ARC
  5
59
330
18
100
AcDbEntity
  8
0
100
AcDbCircle
 10
1.039
 20
2.522
 30
0.0
 40
0.03
100
AcDbArc
 50
51.157
 51
69.34899999999999
  0
ARC
  5
5A
330
18
100
AcDbEntity
  8
0
100
AcDbCircle
 10
1.032
 20
2.513
 30
0.0
 40
0.042
100
AcDbArc
 50
35.795
 51
51.157
  0
ARC
  5
5B
330
18
100
AcDbEntity
  8
0
100
AcDbCircle
 10
1.032
 20
2.513
 30
0.0
 40
0.042
100
AcDbArc
 50
20.434
 51
35.795
  0
ARC
  5
5C
330
18
100
AcDbEntity
  8
0
100
AcDbCircle
 10
1.043
 20
2.517
 30
0.0
 40
0.03
100
AcDbArc
 50
2.242
 51
20.434
  0
ARC
  5
5D
330
18
100
AcDbEntity
  8
0
100
AcDbCircle
 10
1.052
 20
2.517
 30
0.0
 40
0.021
100
AcDbArc
 50
337.782
 51
2.242
  0
ARC
  5
5E
330
18
100
AcDbEntity
  8
0
100
AcDbCircle
 10
1.06
 20
2.514
 30
0.0
 40
0.013
100
AcDbArc
 50
305.795
 51
337.782
  0
ARC
  5
5F
330
18
100
AcDbEntity
  8
0
100
AcDbCircle
 10
1.06
 20
2.514
 30
0.0
 40
0.013
100
AcDbArc
 50
273.809
 51
305.795
  0
ARC
  5
60
330
18
100
AcDbEntity
  8
0
100
AcDbCircle
 10
1.059
 20
2.523
 30
0.0
 40
0.021
100
AcDbArc
 50
249.349
 51
273.809
  0
ARC
  5
61
330
18
100
AcDbEntity
  8
0
100
AcDbCircle
 10
1.062
 20
2.531
 30
0.0
 40
0.03
100
AcDbArc
 50
231.157
 51
249.349
  0
ARC
  5
62
330
18
100
AcDbEntity
  8
0
100
AcDbCircle
 10
1.07
 20
2.54
 30
0.0
 40
0.042
100
AcDbArc
 50
215.795
 51
231.157
  0
ARC
  5
63
330
18
100
AcDbEntity
  8
0
100
AcDbCircle
 10
1.07
 20
2.54
 30
0.0
 40
0.042
100
AcDbArc
 50
200.434
 51
215.795
  0
ARC
  5
64
330
18
100
AcDbEntity
  8
0
100
AcDbCircle
 10
1.059
 20
2.536
 30
0.0
 40
0.03
100
AcDbArc
 50
182.242
 51
200.434
  0
ARC
  5
65
330
18
100
AcDbEntity
  8
0
100
AcDbCircle
 10
1.05
 20
2.536
 30
0.0
 40
0.021
100
AcDbArc
 50
157.782
 51
182.242
  0
ARC
  5
66
330
18
100
AcDbEntity
  8
0
100
AcDbCircle
 10
1.042
 20
2.539
 30
0.0
 40
0.013
100
AcDbArc
 50
125.795
 51
157.782
  0
ARC
  5
67
330
18
100
AcDbEntity
  8
0
100
AcDbCircle
 10
1.05
 20
2.545
 30
0.0
 40
0.013
100
AcDbArc
 50
125.795
 51
152.234
  0
ARC
  5
68
330
18
100
AcDbEntity
  8
0
100
AcDbCircle
 10
1.05
 20
2.545
 30
0.0
 40
0.013
100
AcDbArc
 50
93.809
 51
125.795
  0
ARC
  5
69
330
18
100
AcDbEntity
  8
0
100
AcDbCircle
 10
1.051
 20
2.537
 30
0.0
 40
0.021
100
AcDbArc
 50
69.34899999999999
 51
93.809
  0
ARC
  5
6A
330
18
100
AcDbEntity
  8
0
100
AcDbCircle
 10
1.048
 20
2.528
 30
0.0
 40
0.03
100
AcDbArc
 50
51.157
 51
69.34899999999999
  0
ARC
  5
6B
330
18
100
AcDbEntity
  8
0
100
AcDbCircle
 10
1.04
 20
2.519
 30
0.0
 40
0.042
100
AcDbArc
 50
35.795
 51
51.157
  0
ARC
  5
6C
330
18
100
AcDbEntity
  8
0
100
AcDbCircle
 10
1.04
 20
2.519
 30
0.0
 40
0.042
100
AcDbArc
 50
20.434
 51
35.795
  0
ARC
  5
6D
330
18
100
AcDbEntity
  8
0
100
AcDbCircle
 10
1.052
 20
2.523
 30
0.0
 40
0.03
100
AcDbArc
 50
2.242
 51
20.434
  0
ARC
  5
6E
330
18
100
AcDbEntity
  8
0
100
AcDbCircle
 10
1.06
 20
2.524
 30
0.0
 40
0.021
100
AcDbArc
 50
337.782
 51
2.242
  0
ARC
  5
6F
330
18
100
AcDbEntity
  8
0
100
AcDbCircle
 10
1.068
 20
2.52
 30
0.0
 40
0.013
100
AcDbArc
 50
305.795
 51
337.782
  0
ARC
  5
70
330
18
100
AcDbEntity
  8
0
100
AcDbCircle
 10
1.068
 20
2.52
 30
0.0
 40
0.013
100
AcDbArc
 50
281.851
 51
305.795
  0
ARC
  5
71
330
18
100
AcDbEntity
  8
0
100
AcDbCircle
 10
1.672
 20
2.188
 30
0.0
 40
0.013
100
AcDbArc
 50
93.809
 51
125.795
  0
ARC
  5
72
330
18
100
AcDbEntity
  8
0
100
AcDbCircle
 10
1.673
 20
2.179
 30
0.0
 40
0.021
100
AcDbArc
 50
69.34899999999999
 51
93.809
  0
ARC
  5
73
330
18
100
AcDbEntity
  8
0
100
AcDbCircle
 10
1.67
 20
2.171
 30
0.0
 40
0.03
100
AcDbArc
 50
51.157
 51
69.34899999999999
  0
ARC
  5
74
330
18
100
AcDbEntity
  8
0
100
AcDbCircle
 10
1.662
 20
2.162
 30
0.0
 40
0.042
100
AcDbArc
 50
35.795
 51
51.157
  0
ARC
  5
75
330
18
100
AcDbEntity
  8
0
100
AcDbCircle
 10
1.662
 20
2.162
 30
0.0
 40
0.042
100
AcDbArc
 50
20.434
 51
35.795
  0
ARC
  5
76
330
18
100
AcDbEntity
  8
0
100
AcDbCircle
 10
1.673
 20
2.166
 30
0.0
 40
0.03
100
AcDbArc
 50
2.242
 51
20.434
  0
ARC
  5
77
330
18
100
AcDbEntity
  8
0
100
AcDbCircle
 10
1.682
 20
2.166
 30
0.0
 40
0.021
100
AcDbArc
 50
337.782
 51
2.242
  0
ARC
  5
78
330
18
100
AcDbEntity
  8
0
100
AcDbCircle
 10
1.69
 20
2.163
 30
0.0
 40
0.013
100
AcDbArc
 50
305.795
 51
337.782
  0
ARC
  5
79
330
18
100
AcDbEntity
  8
0
100
AcDbCircle
 10
1.69
 20
2.163
 30
0.0
 40
0.013
100
AcDbArc
 50
281.851
 51
305.795
  0
ARC
  5
7A
330
18
100
AcDbEntity
  8
0
100
AcDbCircle
 10
1.672
 20
2.188
 30
0.0
 40
0.013
100
AcDbArc
 50
125.795
 51
152.234
  0
ARC
  5
7B
330
18
100
AcDbEntity
  8
0
100
AcDbCircle
 10
1.664
 20
2.181
 30
0.0
 40
0.013
100
AcDbArc
 50
93.809
 51
125.795
  0
ARC
  5
7C
330
18
100
AcDbEntity
  8
0
100
AcDbCircle
 10
1.664
 20
2.173
 30
0.0
 40
0.021
100
AcDbArc
 50
69.34899999999999
 51
93.809
  0
ARC
  5
7D
330
18
100
AcDbEntity
  8
0
100
AcDbCircle
 10
1.661
 20
2.164
 30
0.0
 40
0.03
100
AcDbArc
 50
51.157
 51
69.34899999999999
  0
ARC
  5
7E
330
18
100
AcDbEntity
  8
0
100
AcDbCircle
 10
1.654
 20
2.155
 30
0.0
 40
0.042
100
AcDbArc
 50
35.795
 51
51.157
  0
ARC
  5
7F
330
18
100
AcDbEntity
  8
0
100
AcDbCircle
 10
1.654
 20
2.155
 30
0.0
 40
0.042
100
AcDbArc
 50
20.434
 51
35.795
  0
ARC
  5
80
330
18
100
AcDbEntity
  8
0
100
AcDbCircle
 10
1.665
 20
2.159
 30
0.0
 40
0.03
100
AcDbArc
 50
2.242
 51
20.434
  0
ARC
  5
81
330
18
100
AcDbEntity
  8
0
100
AcDbCircle
 10
1.674
 20
2.16
 30
0.0
 40
0.021
100
AcDbArc
 50
337.782
 51
2.242
  0
ARC
  5
82
330
18
100
AcDbEntity
  8
0
100
AcDbCircle
 10
1.682
 20
2.156
 30
0.0
 40
0.013
100
AcDbArc
 50
305.795
 51
337.782
  0
ARC
  5
83
330
18
100
AcDbEntity
  8
0
100
AcDbCircle
 10
1.682
 20
2.156
 30
0.0
 40
0.013
100
AcDbArc
 50
273.809
 51
305.795
  0
ARC
  5
84
330
18
100
AcDbEntity
  8
0
100
AcDbCircle
 10
1.681
 20
2.165
 30
0.0
 40
0.021
100
AcDbArc
 50
249.349
 51
273.809
  0
ARC
  5
85
330
18
100
AcDbEntity
  8
0
100
AcDbCircle
 10
1.684
 20
2.173
 30
0.0
 40
0.03
100
AcDbArc
 50
231.157
 51
249.349
  0
ARC
  5
86
330
18
100
AcDbEntity
  8
0
100
AcDbCircle
 10
1.692
 20
2.183
 30
0.0
 40
0.042
100
AcDbArc
 50
215.795
 51
231.157
  0
ARC
  5
87
330
18
100
AcDbEntity
  8
0
100
AcDbCircle
 10
1.692
 20
2.183
 30
0.0
 40
0.042
100
AcDbArc
 50
200.434
 51
215.795
  0
ARC
  5
88
330
18
100
AcDbEntity
  8
0
100
AcDbCircle
 10
1.68
 20
2.178
 30
0.0
 40
0.03
100
AcDbArc
 50
182.242
 51
200.434
  0
ARC
  5
89
330
18
100
AcDbEntity
  8
0
100
AcDbCircle
 10
1.672
 20
2.178
 30
0.0
 40
0.021
100
AcDbArc
 50
157.782
 51
182.242
  0
ARC
  5
8A
330
18
100
AcDbEntity
  8
0
100
AcDbCircle
 10
1.664
 20
2.181
 30
0.0
 40
0.013
100
AcDbArc
 50
125.795
 51
157.782
  0
ARC
  5
8B
330
18
100
AcDbEntity
  8
0
100
AcDbCircle
 10
1.584
 20
2.539
 30
0.0
 40
0.012
100
AcDbArc
 50
140.753
 51
172.349
  0
ARC
  5
8C
330
18
100
AcDbEntity
  8
0
100
AcDbCircle
 10
1.59
 20
2.534
 30
0.0
 40
0.02
100
AcDbArc
 50
116.305
 51
140.753
  0
ARC
  5
8D
330
18
100
AcDbEntity
  8
0
100
AcDbCircle
 10
1.594
 20
2.527
 30
0.0
 40
0.028
100
AcDbArc
 50
97.934
 51
116.305
  0
ARC
  5
8E
330
18
100
AcDbEntity
  8
0
100
AcDbCircle
 10
1.595
 20
2.516
 30
0.0
 40
0.039
100
AcDbArc
 50
82.34899999999999
 51
97.934
  0
ARC
  5
8F
330
18
100
AcDbEntity
  8
0
100
AcDbCircle
 10
1.595
 20
2.516
 30
0.0
 40
0.039
100
AcDbArc
 50
66.76300000000001
 51
82.34899999999999
  0
ARC
  5
90
330
18
100
AcDbEntity
  8
0
100
AcDbCircle
 10
1.599
 20
2.526
 30
0.0
 40
0.028
100
AcDbArc
 50
48.39199999999999
 51
66.76300000000001
  0
ARC
  5
91
330
18
100
AcDbEntity
  8
0
100
AcDbCircle
 10
1.605
 20
2.532
 30
0.0
 40
0.02
100
AcDbArc
 50
23.944
 51
48.39199999999999
  0
ARC
  5
92
330
18
100
AcDbEntity
  8
0
100
AcDbCircle
 10
1.612
 20
2.536
 30
0.0
 40
0.012
100
AcDbArc
 50
352.349
 51
23.944
  0
ARC
  5
93
330
18
100
AcDbEntity
  8
0
100
AcDbCircle
 10
1.612
 20
2.536
 30
0.0
 40
0.012
100
AcDbArc
 50
320.753
 51
352.349
  0
ARC
  5
94
330
18
100
AcDbEntity
  8
0
100
AcDbCircle
 10
1.606
 20
2.541
 30
0.0
 40
0.02
100
AcDbArc
 50
296.305
 51
320.753
  0
ARC
  5
95
330
18
100
AcDbEntity
  8
0
100
AcDbCircle
 10
1.602
 20
2.548
 30
0.0
 40
0.028
100
AcDbArc
 50
277.934
 51
296.305
  0
ARC
  5
96
330
18
100
AcDbEntity
  8
0
100
AcDbCircle
 10
1.601
 20
2.559
 30
0.0
 40
0.039
100
AcDbArc
 50
262.349
 51
277.934
  0
ARC
  5
97
330
18
100
AcDbEntity
  8
0
100
AcDbCircle
 10
1.601
 20
2.559
 30
0.0
 40
0.039
100
AcDbArc
 50
246.763
 51
262.349
  0
ARC
  5
98
330
18
100
AcDbEntity
  8
0
100
AcDbCircle
 10
1.596
 20
2.549
 30
0.0
 40
0.028
100
AcDbArc
 50
228.392
 51
246.763
  0
ARC
  5
99
330
18
100
AcDbEntity
  8
0
100
AcDbCircle
 10
1.591
 20
2.543
 30
0.0
 40
0.02
100
AcDbArc
 50
203.944
 51
228.392
  0
ARC
  5
9A
330
18
100
AcDbEntity
  8
0
100
AcDbCircle
 10
1.584
 20
2.539
 30
0.0
 40
0.012
100
AcDbArc
 50
172.349
 51
203.944
  0
ARC
  5
9B
330
18
100
AcDbEntity
  8
0
100
AcDbCircle
 10
1.611
 20
2.527
 30
0.0
 40
0.012
100
AcDbArc
 50
352.349
 51
16.412
  0
ARC
  5
9C
330
18
100
AcDbEntity
  8
0
100
AcDbCircle
 10
1.611
 20
2.527
 30
0.0
 40
0.012
100
AcDbArc
 50
320.753
 51
352.349
  0
ARC
  5
9D
330
18
100
AcDbEntity
  8
0
100
AcDbCircle
 10
1.605
 20
2.532
 30
0.0
 40
0.02
100
AcDbArc
 50
296.305
 51
320.753
  0
ARC
  5
9E
330
18
100
AcDbEntity
  8
0
100
AcDbCircle
 10
1.601
 20
2.539
 30
0.0
 40
0.028
100
AcDbArc
 50
277.934
 51
296.305
  0
ARC
  5
9F
330
18
100
AcDbEntity
  8
0
100
AcDbCircle
 10
1.6
 20
2.55
 30
0.0
 40
0.039
100
AcDbArc
 50
262.349
 51
277.934
  0
ARC
  5
A0
330
18
100
AcDbEntity
  8
0
100
AcDbCircle
 10
1.6
 20
2.55
 30
0.0
 40
0.039
100
AcDbArc
 50
246.763
 51
262.349
  0
ARC
  5
A1
330
18
100
AcDbEntity
  8
0
100
AcDbCircle
 10
1.596
 20
2.54
 30
0.0
 40
0.028
100
AcDbArc
 50
228.392
 51
246.763
  0
ARC
  5
A2
330
18
100
AcDbEntity
  8
0
100
AcDbCircle
 10
1.59
 20
2.534
 30
0.0
 40
0.02
100
AcDbArc
 50
203.944
 51
228.392
  0
ARC
  5
A3
330
18
100
AcDbEntity
  8
0
100
AcDbCircle
 10
1.583
 20
2.53
 30
0.0
 40
0.012
100
AcDbArc
 50
172.349
 51
203.944
  0
ARC
  5
A4
330
18
100
AcDbEntity
  8
0
100
AcDbCircle
 10
1.583
 20
2.53
 30
0.0
 40
0.012
100
AcDbArc
 50
152.916
 51
172.349
  0
ARC
  5
A5
330
18
100
AcDbEntity
  8
0
100
AcDbCircle
 10
1.195
 20
2.81
 30
0.0
 40
0.012
100
AcDbArc
 50
140.753
 51
172.349
  0
ARC
  5
A6
330
18
100
AcDbEntity
  8
0
100
AcDbCircle
 10
1.201
 20
2.805
 30
0.0
 40
0.02
100
AcDbArc
 50
116.305
 51
140.753
  0
ARC
  5
A7
330
18
100
AcDbEntity
  8
0
100
AcDbCircle
 10
1.205
 20
2.798
 30
0.0
 40
0.028
100
AcDbArc
 50
97.934
 51
116.305
  0
ARC
  5
A8
330
18
100
AcDbEntity
  8
0
100
AcDbCircle
 10
1.206
 20
2.787
 30
0.0
 40
0.039
100
AcDbArc
 50
82.34899999999999
 51
97.934
  0
ARC
  5
A9
330
18
100
AcDbEntity
  8
0
100
AcDbCircle
 10
1.206
 20
2.787
 30
0.0
 40
0.039
100
AcDbArc
 50
66.76300000000001
 51
82.34899999999999
  0
ARC
  5
AA
330
18
100
AcDbEntity
  8
0
100
AcDbCircle
 10
1.21
 20
2.797
 30
0.0
 40
0.028
100
AcDbArc
 50
48.39199999999999
 51
66.76300000000001
  0
ARC
  5
AB
330
18
100
AcDbEntity
  8
0
100
AcDbCircle
 10
1.216
 20
2.803
 30
0.0
 40
0.02
100
AcDbArc
 50
23.944
 51
48.39199999999999
  0
ARC
  5
AC
330
18
100
AcDbEntity
  8
0
100
AcDbCircle
 10
1.223
 20
2.806
 30
0.0
 40
0.012
100
AcDbArc
 50
352.349
 51
23.944
  0
ARC
  5
AD
330
18
100
AcDbEntity
  8
0
100
AcDbCircle
 10
1.223
 20
2.806
 30
0.0
 40
0.012
100
AcDbArc
 50
320.753
 51
352.349
  0
ARC
  5
AE
330
18
100
AcDbEntity
  8
0
100
AcDbCircle
 10
1.217
 20
2.811
 30
0.0
 40
0.02
100
AcDbArc
 50
296.305
 51
320.753
  0
ARC
  5
AF
330
18
100
AcDbEntity
  8
0
100
AcDbCircle
 10
1.213
 20
2.819
 30
0.0
 40
0.028
100
AcDbArc
 50
277.934
 51
296.305
  0
ARC
  5
B0
330
18
100
AcDbEntity
  8
0
100
AcDbCircle
 10
1.212
 20
2.829
 30
0.0
 40
0.039
100
AcDbArc
 50
262.349
 51
277.934
  0
ARC
  5
B1
330
18
100
AcDbEntity
  8
0
100
AcDbCircle
 10
1.212
 20
2.829
 30
0.0
 40
0.039
100
AcDbArc
 50
246.763
 51
262.349
  0
ARC
  5
B2
330
18
100
AcDbEntity
  8
0
100
AcDbCircle
 10
1.208
 20
2.819
 30
0.0
 40
0.028
100
AcDbArc
 50
228.392
 51
246.763
  0
ARC
  5
B3
330
18
100
AcDbEntity
  8
0
100
AcDbCircle
 10
1.202
 20
2.813
 30
0.0
 40
0.02
100
AcDbArc
 50
203.944
 51
228.392
  0
ARC
  5
B4
330
18
100
AcDbEntity
  8
0
100
AcDbCircle
 10
1.195
 20
2.81
 30
0.0
 40
0.012
100
AcDbArc
 50
172.349
 51
203.944
  0
ARC
  5
B5
330
18
100
AcDbEntity
  8
0
100
AcDbCircle
 10
1.222
 20
2.797
 30
0.0
 40
0.012
100
AcDbArc
 50
352.349
 51
16.412
  0
ARC
  5
B6
330
18
100
AcDbEntity
  8
0
100
AcDbCircle
 10
1.222
 20
2.797
 30
0.0
 40
0.012
100
AcDbArc
 50
320.753
 51
352.349
  0
ARC
  5
B7
330
18
100
AcDbEntity
  8
0
100
AcDbCircle
 10
1.216
 20
2.802
 30
0.0
 40
0.02
100
AcDbArc
 50
296.305
 51
320.753
  0
ARC
  5
B8
330
18
100
AcDbEntity
  8
0
100
AcDbCircle
 10
1.213
 20
2.809
 30
0.0
 40
0.028
100
AcDbArc
 50
277.934
 51
296.305
  0
ARC
  5
B9
330
18
100
AcDbEntity
  8
0
100
AcDbCircle
 10
1.211
 20
2.82
 30
0.0
 40
0.039
100
AcDbArc
 50
262.349
 51
277.934
  0
ARC
  5
BA
330
18
100
AcDbEntity
  8
0
100
AcDbCircle
 10
1.211
 20
2.82
 30
0.0
 40
0.039
100
AcDbArc
 50
246.763
 51
262.349
  0
ARC
  5
BB
330
18
100
AcDbEntity
  8
0
100
AcDbCircle
 10
1.207
 20
2.81
 30
0.0
 40
0.028
100
AcDbArc
 50
228.392
 51
246.763
  0
ARC
  5
BC
330
18
100
AcDbEntity
  8
0
100
AcDbCircle
 10
1.201
 20
2.804
 30
0.0
 40
0.02
100
AcDbArc
 50
203.944
 51
228.392
  0
ARC
  5
BD
330
18
100
AcDbEntity
  8
0
100
AcDbCircle
 10
1.194
 20
2.801
 30
0.0
 40
0.012
100
AcDbArc
 50
172.349
 51
203.944
  0
ARC
  5
BE
330
18
100
AcDbEntity
  8
0
100
AcDbCircle
 10
1.194
 20
2.801
 30
0.0
 40
0.012
100
AcDbArc
 50
152.916
 51
172.349
  0
ARC
  5
BF
330
18
100
AcDbEntity
  8
0
100
AcDbCircle
 10
1.413
 20
2.706
 30
0.0
 40
0.012
100
AcDbArc
 50
140.753
 51
172.349
  0
ARC
  5
C0
330
18
100
AcDbEntity
  8
0
100
AcDbCircle
 10
1.419
 20
2.701
 30
0.0
 40
0.02
100
AcDbArc
 50
116.305
 51
140.753
  0
ARC
  5
C1
330
18
100
AcDbEntity
  8
0
100
AcDbCircle
 10
1.422
 20
2.693
 30
0.0
 40
0.028
100
AcDbArc
 50
97.934
 51
116.305
  0
ARC
  5
C2
330
18
100
AcDbEntity
  8
0
100
AcDbCircle
 10
1.424
 20
2.683
 30
0.0
 40
0.039
100
AcDbArc
 50
82.34899999999999
 51
97.934
  0
ARC
  5
C3
330
18
100
AcDbEntity
  8
0
100
AcDbCircle
 10
1.424
 20
2.683
 30
0.0
 40
0.039
100
AcDbArc
 50
66.76300000000001
 51
82.34899999999999
  0
ARC
  5
C4
330
18
100
AcDbEntity
  8
0
100
AcDbCircle
 10
1.428
 20
2.693
 30
0.0
 40
0.028
100
AcDbArc
 50
48.39199999999999
 51
66.76300000000001
  0
ARC
  5
C5
330
18
100
AcDbEntity
  8
0
100
AcDbCircle
 10
1.434
 20
2.699
 30
0.0
 40
0.02
100
AcDbArc
 50
23.944
 51
48.39199999999999
  0
ARC
  5
C6
330
18
100
AcDbEntity
  8
0
100
AcDbCircle
 10
1.441
 20
2.702
 30
0.0
 40
0.012
100
AcDbArc
 50
352.349
 51
23.944
  0
ARC
  5
C7
330
18
100
AcDbEntity
  8
0
100
AcDbCircle
 10
1.441
 20
2.702
 30
0.0
 40
0.012
100
AcDbArc
 50
320.753
 51
352.349
  0
ARC
  5
C8
330
18
100
AcDbEntity
  8
0
100
AcDbCircle
 10
1.435
 20
2.707
 30
0.0
 40
0.02
100
AcDbArc
 50
296.305
 51
320.753
  0
ARC
  5
C9
330
18
100
AcDbEntity
  8
0
100
AcDbCircle
 10
1.431
 20
2.714
 30
0.0
 40
0.028
100
AcDbArc
 50
277.934
 51
296.305
  0
ARC
  5
CA
330
18
100
AcDbEntity
  8
0
100
AcDbCircle
 10
1.43
 20
2.725
 30
0.0
 40
0.039
100
AcDbArc
 50
262.349
 51
277.934
  0
ARC
  5
CB
330
18
100
AcDbEntity
  8
0
100
AcDbCircle
 10
1.43
 20
2.725
 30
0.0
 40
0.039
100
AcDbArc
 50
246.763
 51
262.349
  0
ARC
  5
CC
330
18
100
AcDbEntity
  8
0
100
AcDbCircle
 10
1.425
 20
2.715
 30
0.0
 40
0.028
100
AcDbArc
 50
228.392
 51
246.763
  0
ARC
  5
CD
330
18
100
AcDbEntity
  8
0
100
AcDbCircle
 10
1.42
 20
2.709
 30
0.0
 40
0.02
100
AcDbArc
 50
203.944
 51
228.392
  0
ARC
  5
CE
330
18
100
AcDbEntity
  8
0
100
AcDbCircle
 10
1.413
 20
2.706
 30
0.0
 40
0.012
100
AcDbArc
 50
172.349
 51
203.944
  0
ARC
  5
CF
330
18
100
AcDbEntity
  8
0
100
AcDbCircle
 10
1.44
 20
2.693
 30
0.0
 40
0.012
100
AcDbArc
 50
352.349
 51
16.412
  0
ARC
  5
D0
330
18
100
AcDbEntity
  8
0
100
AcDbCircle
 10
1.44
 20
2.693
 30
0.0
 40
0.012
100
AcDbArc
 50
320.753
 51
352.349
  0
ARC
  5
D1
330
18
100
AcDbEntity
  8
0
100
AcDbCircle
 10
1.434
 20
2.698
 30
0.0
 40
0.02
100
AcDbArc
 50
296.305
 51
320.753
  0
ARC
  5
D2
330
18
100
AcDbEntity
  8
0
100
AcDbCircle
 10
1.43
 20
2.705
 30
0.0
 40
0.028
100
AcDbArc
 50
277.934
 51
296.305
  0
ARC
  5
D3
330
18
100
AcDbEntity
  8
0
100
AcDbCircle
 10
1.429
 20
2.716
 30
0.0
 40
0.039
100
AcDbArc
 50
262.349
 51
277.934
  0
ARC
  5
D4
330
18
100
AcDbEntity
  8
0
100
AcDbCircle
 10
1.429
 20
2.716
 30
0.0
 40
0.039
100
AcDbArc
 50
246.763
 51
262.349
  0
ARC
  5
D5
330
18
100
AcDbEntity
  8
0
100
AcDbCircle
 10
1.425
 20
2.706
 30
0.0
 40
0.028
100
AcDbArc
 50
228.392
 51
246.763
  0
ARC
  5
D6
330
18
100
AcDbEntity
  8
0
100
AcDbCircle
 10
1.419
 20
2.7
 30
0.0
 40
0.02
100
AcDbArc
 50
203.944
 51
228.392
  0
ARC
  5
D7
330
18
100
AcDbEntity
  8
0
100
AcDbCircle
 10
1.412
 20
2.697
 30
0.0
 40
0.012
100
AcDbArc
 50
172.349
 51
203.944
  0
ARC
  5
D8
330
18
100
AcDbEntity
  8
0
100
AcDbCircle
 10
1.412
 20
2.697
 30
0.0
 40
0.012
100
AcDbArc
 50
152.916
 51
172.349
  0
ARC
  5
D9
330
18
100
AcDbEntity
  8
0
100
AcDbCircle
 10
1.828
 20
2.453
 30
0.0
 40
0.012
100
AcDbArc
 50
152.916
 51
172.349
  0
ARC
  5
DA
330
18
100
AcDbEntity
  8
0
100
AcDbCircle
 10
1.857
 20
2.449
 30
0.0
 40
0.012
100
AcDbArc
 50
352.349
 51
16.412
  0
ARC
  5
DB
330
18
100
AcDbEntity
  8
0
100
AcDbCircle
 10
1.857
 20
2.449
 30
0.0
 40
0.012
100
AcDbArc
 50
320.753
 51
352.349
  0
ARC
  5
DC
330
18
100
AcDbEntity
  8
0
100
AcDbCircle
 10
1.85
 20
2.454
 30
0.0
 40
0.02
100
AcDbArc
 50
296.305
 51
320.753
  0
ARC
  5
DD
330
18
100
AcDbEntity
  8
0
100
AcDbCircle
 10
1.847
 20
2.461
 30
0.0
 40
0.028
100
AcDbArc
 50
277.934
 51
296.305
  0
ARC
  5
DE
330
18
100
AcDbEntity
  8
0
100
AcDbCircle
 10
1.845
 20
2.472
 30
0.0
 40
0.039
100
AcDbArc
 50
262.349
 51
277.934
  0
ARC
  5
DF
330
18
100
AcDbEntity
  8
0
100
AcDbCircle
 10
1.845
 20
2.472
 30
0.0
 40
0.039
100
AcDbArc
 50
246.763
 51
262.349
  0
ARC
  5
E0
330
18
100
AcDbEntity
  8
0
100
AcDbCircle
 10
1.841
 20
2.462
 30
0.0
 40
0.028
100
AcDbArc
 50
228.392
 51
246.763
  0
ARC
  5
E1
330
18
100
AcDbEntity
  8
0
100
AcDbCircle
 10
1.836
 20
2.456
 30
0.0
 40
0.02
100
AcDbArc
 50
203.944
 51
228.392
  0
ARC
  5
E2
330
18
100
AcDbEntity
  8
0
100
AcDbCircle
 10
1.828
 20
2.453
 30
0.0
 40
0.012
100
AcDbArc
 50
172.349
 51
203.944
  0
ARC
  5
E3
330
18
100
AcDbEntity
  8
0
100
AcDbCircle
 10
1.829
 20
2.462
 30
0.0
 40
0.012
100
AcDbArc
 50
140.753
 51
172.349
  0
ARC
  5
E4
330
18
100
AcDbEntity
  8
0
100
AcDbCircle
 10
1.835
 20
2.457
 30
0.0
 40
0.02
100
AcDbArc
 50
116.305
 51
140.753
  0
ARC
  5
E5
330
18
100
AcDbEntity
  8
0
100
AcDbCircle
 10
1.839
 20
2.45
 30
0.0
 40
0.028
100
AcDbArc
 50
97.934
 51
116.305
  0
ARC
  5
E6
330
18
100
AcDbEntity
  8
0
100
AcDbCircle
 10
1.84
 20
2.439
 30
0.0
 40
0.039
100
AcDbArc
 50
82.34899999999999
 51
97.934
  0
ARC
  5
E7
330
18
100
AcDbEntity
  8
0
100
AcDbCircle
 10
1.84
 20
2.439
 30
0.0
 40
0.039
100
AcDbArc
 50
66.76300000000001
 51
82.34899999999999
  0
ARC
  5
E8
330
18
100
AcDbEntity
  8
0
100
AcDbCircle
 10
1.845
 20
2.449
 30
0.0
 40
0.028
100
AcDbArc
 50
48.39199999999999
 51
66.76300000000001
  0
ARC
  5
E9
330
18
100
AcDbEntity
  8
0
100
AcDbCircle
 10
1.85
 20
2.455
 30
0.0
 40
0.02
100
AcDbArc
 50
23.944
 51
48.39199999999999
  0
ARC
  5
EA
330
18
100
AcDbEntity
  8
0
100
AcDbCircle
 10
1.857
 20
2.458
 30
0.0
 40
0.012
100
AcDbArc
 50
352.349
 51
23.944
  0
ARC
  5
EB
330
18
100
AcDbEntity
  8
0
100
AcDbCircle
 10
1.857
 20
2.458
 30
0.0
 40
0.012
100
AcDbArc
 50
320.753
 51
352.349
  0
ARC
  5
EC
330
18
100
AcDbEntity
  8
0
100
AcDbCircle
 10
1.851
 20
2.463
 30
0.0
 40
0.02
100
AcDbArc
 50
296.305
 51
320.753
  0
ARC
  5
ED
330
18
100
AcDbEntity
  8
0
100
AcDbCircle
 10
1.848
 20
2.47
 30
0.0
 40
0.028
100
AcDbArc
 50
277.934
 51
296.305
  0
ARC
  5
EE
330
18
100
AcDbEntity
  8
0
100
AcDbCircle
 10
1.846
 20
2.481
 30
0.0
 40
0.039
100
AcDbArc
 50
262.349
 51
277.934
  0
ARC
  5
EF
330
18
100
AcDbEntity
  8
0
100
AcDbCircle
 10
1.846
 20
2.481
 30
0.0
 40
0.039
100
AcDbArc
 50
246.763
 51
262.349
  0
ARC
  5
F0
330
18
100
AcDbEntity
  8
0
100
AcDbCircle
 10
1.842
 20
2.471
 30
0.0
 40
0.028
100
AcDbArc
 50
228.392
 51
246.763
  0
ARC
  5
F1
330
18
100
AcDbEntity
  8
0
100
AcDbCircle
 10
1.836
 20
2.465
 30
0.0
 40
0.02
100
AcDbArc
 50
203.944
 51
228.392
  0
ARC
  5
F2
330
18
100
AcDbEntity
  8
0
100
AcDbCircle
 10
1.829
 20
2.462
 30
0.0
 40
0.012
100
AcDbArc
 50
172.349
 51
203.944
  0
LINE
  5
F3
330
18
100
AcDbEntity
  8
0
100
AcDbLine
 10
0.795
 20
1.204
 30
0.0
 11
0.741
 21
1.31
 31
0.0
  0
LINE
  5
F4
330
18
100
AcDbEntity
  8
0
100
AcDbLine
 10
0.759
 20
1.225
 30
0.0
 11
0.6990000000000001
 21
1.334
 31
0.0
  0
LINE
  5
F5
330
18
100
AcDbEntity
  8
0
100
AcDbLine
 10
0.7090000000000001
 20
1.253
 30
0.0
 11
0.654
 21
1.359
 31
0.0
  0
LINE
  5
F6
330
18
100
AcDbEntity
  8
0
100
AcDbLine
 10
0.6709999999999999
 20
1.275
 30
0.0
 11
0.621
 21
1.377
 31
0.0
  0
LINE
  5
F7
330
18
100
AcDbEntity
  8
0
100
AcDbLine
 10
0.638
 20
1.293
 30
0.0
 11
0.583
 21
1.399
 31
0.0
  0
LINE
  5
F8
330
18
100
AcDbEntity
  8
0
100
AcDbLine
 10
0.602
 20
1.313
 30
0.0
 11
0.5489999999999999
 21
1.418
 31
0.0
  0
LINE
  5
F9
330
18
100
AcDbEntity
  8
0
100
AcDbLine
 10
0.747
 20
1.001
 30
0.0
 11
0.732
 21
1.054
 31
0.0
  0
LINE
  5
FA
330
18
100
AcDbEntity
  8
0
100
AcDbLine
 10
0.518
 20
1.135
 30
0.0
 11
0.516
 21
1.209
 31
0.0
  0
LINE
  5
FB
330
18
100
AcDbEntity
  8
0
100
AcDbLine
 10
0.6870000000000001
 20
1.098
 30
0.0
 11
0.6850000000000001
 21
1.114
 31
0.0
  0
LINE
  5
FC
330
18
100
AcDbEntity
  8
0
100
AcDbLine
 10
0.693
 20
1.07
 30
0.0
 11
0.6870000000000001
 21
1.098
 31
0.0
  0
LINE
  5
FD
330
18
100
AcDbEntity
  8
0
100
AcDbLine
 10
0.6990000000000001
 20
1.028
 30
0.0
 11
0.693
 21
1.07
 31
0.0
  0
LINE
  5
FE
330
18
100
AcDbEntity
  8
0
100
AcDbLine
 10
0.6579999999999999
 20
1.051
 30
0.0
 11
0.643
 21
1.137
 31
0.0
  0
LINE
  5
FF
330
18
100
AcDbEntity
  8
0
100
AcDbLine
 10
0.62
 20
1.073
 30
0.0
 11
0.603
 21
1.16
 31
0.0
  0
LINE
  5
100
330
18
100
AcDbEntity
  8
0
100
AcDbLine
 10
0.574
 20
1.098
 30
0.0
 11
0.5589999999999999
 21
1.184
 31
0.0
  0
LINE
  5
101
330
18
100
AcDbEntity
  8
0
100
AcDbLine
 10
0.731
 20
1.598
 30
0.0
 11
0.777
 21
1.49
 31
0.0
  0
LINE
  5
102
330
18
100
AcDbEntity
  8
0
100
AcDbLine
 10
0.723
 20
1.616
 30
0.0
 11
0.731
 21
1.598
 31
0.0
  0
LINE
  5
103
330
18
100
AcDbEntity
  8
0
100
AcDbLine
 10
0.535
 20
1.517
 30
0.0
 11
0.518
 21
1.534
 31
0.0
  0
LINE
  5
104
330
18
100
AcDbEntity
  8
0
100
AcDbLine
 10
0.5660000000000001
 20
1.464
 30
0.0
 11
0.535
 21
1.517
 31
0.0
  0
LINE
  5
105
330
18
100
AcDbEntity
  8
0
100
AcDbLine
 10
0.585
 20
1.398
 30
0.0
 11
0.5660000000000001
 21
1.464
 31
0.0
  0
LINE
  5
106
330
18
100
AcDbEntity
  8
0
100
AcDbLine
 10
0.525
 20
1.634
 30
0.0
 11
0.518
 21
1.646
 31
0.0
  0
LINE
  5
107
330
18
100
AcDbEntity
  8
0
100
AcDbLine
 10
0.5510000000000001
 20
1.591
 30
0.0
 11
0.525
 21
1.634
 31
0.0
  0
LINE
  5
108
330
18
100
AcDbEntity
  8
0
100
AcDbLine
 10
0.58
 20
1.511
 30
0.0
 11
0.5510000000000001
 21
1.591
 31
0.0
  0
LINE
  5
109
330
18
100
AcDbEntity
  8
0
100
AcDbLine
 10
0.621
 20
1.377
 30
0.0
 11
0.58
 21
1.511
 31
0.0
  0
LINE
  5
10A
330
18
100
AcDbEntity
  8
0
100
AcDbLine
 10
0.5560000000000001
 20
1.71
 30
0.0
 11
0.545
 21
1.729
 31
0.0
  0
LINE
  5
10B
330
18
100
AcDbEntity
  8
0
100
AcDbLine
 10
0.59
 20
1.652
 30
0.0
 11
0.5560000000000001
 21
1.71
 31
0.0
  0
LINE
  5
10C
330
18
100
AcDbEntity
  8
0
100
AcDbLine
 10
0.622
 20
1.549
 30
0.0
 11
0.59
 21
1.652
 31
0.0
  0
LINE
  5
10D
330
18
100
AcDbEntity
  8
0
100
AcDbLine
 10
0.6629999999999999
 20
1.354
 30
0.0
 11
0.622
 21
1.549
 31
0.0
  0
LINE
  5
10E
330
18
100
AcDbEntity
  8
0
100
AcDbLine
 10
0.643
 20
1.617
 30
0.0
 11
0.632
 21
1.674
 31
0.0
  0
LINE
  5
10F
330
18
100
AcDbEntity
  8
0
100
AcDbLine
 10
0.667
 20
1.513
 30
0.0
 11
0.643
 21
1.617
 31
0.0
  0
LINE
  5
110
330
18
100
AcDbEntity
  8
0
100
AcDbLine
 10
0.698
 20
1.334
 30
0.0
 11
0.667
 21
1.513
 31
0.0
  0
LINE
  5
111
330
18
100
AcDbEntity
  8
0
100
AcDbLine
 10
0.691
 20
1.602
 30
0.0
 11
0.6709999999999999
 21
1.649
 31
0.0
  0
LINE
  5
112
330
18
100
AcDbEntity
  8
0
100
AcDbLine
 10
0.727
 20
1.484
 30
0.0
 11
0.691
 21
1.602
 31
0.0
  0
LINE
  5
113
330
18
100
AcDbEntity
  8
0
100
AcDbLine
 10
0.7390000000000001
 20
1.311
 30
0.0
 11
0.727
 21
1.484
 31
0.0
  0
LINE
  5
114
330
18
100
AcDbEntity
  8
0
100
AcDbLine
 10
0.741
 20
0.79
 30
0.0
 11
0.701
 21
0.711
 31
0.0
  0
LINE
  5
115
330
18
100
AcDbEntity
  8
0
100
AcDbLine
 10
0.775
 20
0.846
 30
0.0
 11
0.741
 21
0.79
 31
0.0
  0
LINE
  5
116
330
18
100
AcDbEntity
  8
0
100
AcDbLine
 10
0.524
 20
1.001
 30
0.0
 11
0.523
 21
1.0
 31
0.0
  0
LINE
  5
117
330
18
100
AcDbEntity
  8
0
100
AcDbLine
 10
0.574
 20
1.098
 30
0.0
 11
0.524
 21
1.001
 31
0.0
  0
LINE
  5
118
330
18
100
AcDbEntity
  8
0
100
AcDbLine
 10
0.542
 20
0.9059999999999999
 30
0.0
 11
0.524
 21
0.877
 31
0.0
  0
LINE
  5
119
330
18
100
AcDbEntity
  8
0
100
AcDbLine
 10
0.578
 20
0.975
 30
0.0
 11
0.542
 21
0.9059999999999999
 31
0.0
  0
LINE
  5
11A
330
18
100
AcDbEntity
  8
0
100
AcDbLine
 10
0.62
 20
1.073
 30
0.0
 11
0.578
 21
0.975
 31
0.0
  0
LINE
  5
11B
330
18
100
AcDbEntity
  8
0
100
AcDbLine
 10
0.58
 20
0.84
 30
0.0
 11
0.5529999999999999
 21
0.795
 31
0.0
  0
LINE
  5
11C
330
18
100
AcDbEntity
  8
0
100
AcDbLine
 10
0.609
 20
0.92
 30
0.0
 11
0.58
 21
0.84
 31
0.0
  0
LINE
  5
11D
330
18
100
AcDbEntity
  8
0
100
AcDbLine
 10
0.6579999999999999
 20
1.051
 30
0.0
 11
0.609
 21
0.92
 31
0.0
  0
LINE
  5
11E
330
18
100
AcDbEntity
  8
0
100
AcDbLine
 10
0.664
 20
0.867
 30
0.0
 11
0.602
 21
0.767
 31
0.0
  0
LINE
  5
11F
330
18
100
AcDbEntity
  8
0
100
AcDbLine
 10
0.6990000000000001
 20
1.028
 30
0.0
 11
0.664
 21
0.867
 31
0.0
  0
LINE
  5
120
330
18
100
AcDbEntity
  8
0
100
AcDbLine
 10
0.6770000000000001
 20
0.78
 30
0.0
 11
0.6579999999999999
 21
0.735
 31
0.0
  0
LINE
  5
121
330
18
100
AcDbEntity
  8
0
100
AcDbLine
 10
0.708
 20
0.8740000000000001
 30
0.0
 11
0.6770000000000001
 21
0.78
 31
0.0
  0
LINE
  5
122
330
18
100
AcDbEntity
  8
0
100
AcDbLine
 10
0.747
 20
1.001
 30
0.0
 11
0.708
 21
0.8740000000000001
 31
0.0
  0
LINE
  5
123
330
18
100
AcDbEntity
  8
0
100
AcDbLine
 10
2.772
 20
1.816
 30
0.0
 11
2.793
 21
1.795
 31
0.0
  0
LINE
  5
124
330
18
100
AcDbEntity
  8
0
100
AcDbLine
 10
2.725
 20
1.879
 30
0.0
 11
2.772
 21
1.816
 31
0.0
  0
LINE
  5
125
330
18
100
AcDbEntity
  8
0
100
AcDbLine
 10
2.692
 20
1.939
 30
0.0
 11
2.725
 21
1.879
 31
0.0
  0
LINE
  5
126
330
18
100
AcDbEntity
  8
0
100
AcDbLine
 10
2.675
 20
1.97
 30
0.0
 11
2.692
 21
1.939
 31
0.0
  0
LINE
  5
127
330
18
100
AcDbEntity
  8
0
100
AcDbLine
 10
2.76
 20
1.997
 30
0.0
 11
2.795
 21
1.966
 31
0.0
  0
LINE
  5
128
330
18
100
AcDbEntity
  8
0
100
AcDbLine
 10
2.747
 20
2.016
 30
0.0
 11
2.76
 21
1.997
 31
0.0
  0
LINE
  5
129
330
18
100
AcDbEntity
  8
0
100
AcDbLine
 10
2.765
 20
1.956
 30
0.0
 11
2.795
 21
1.93
 31
0.0
  0
LINE
  5
12A
330
18
100
AcDbEntity
  8
0
100
AcDbLine
 10
2.732
 20
2.006
 30
0.0
 11
2.765
 21
1.956
 31
0.0
  0
LINE
  5
12B
330
18
100
AcDbEntity
  8
0
100
AcDbLine
 10
2.785
 20
1.896
 30
0.0
 11
2.794
 21
1.888
 31
0.0
  0
LINE
  5
12C
330
18
100
AcDbEntity
  8
0
100
AcDbLine
 10
2.736
 20
1.956
 30
0.0
 11
2.785
 21
1.896
 31
0.0
  0
LINE
  5
12D
330
18
100
AcDbEntity
  8
0
100
AcDbLine
 10
2.71
 20
1.992
 30
0.0
 11
2.736
 21
1.956
 31
0.0
  0
LINE
  5
12E
330
18
100
AcDbEntity
  8
0
100
AcDbLine
 10
2.768
 20
1.863
 30
0.0
 11
2.793
 21
1.82
 31
0.0
  0
LINE
  5
12F
330
18
100
AcDbEntity
  8
0
100
AcDbLine
 10
2.71
 20
1.949
 30
0.0
 11
2.768
 21
1.863
 31
0.0
  0
LINE
  5
130
330
18
100
AcDbEntity
  8
0
100
AcDbLine
 10
2.692
 20
1.981
 30
0.0
 11
2.71
 21
1.949
 31
0.0
  0
LINE
  5
131
330
18
100
AcDbEntity
  8
0
100
AcDbLine
 10
2.778
 20
1.77
 30
0.0
 11
2.792
 21
1.758
 31
0.0
  0
LINE
  5
132
330
18
100
AcDbEntity
  8
0
100
AcDbLine
 10
2.721
 20
1.841
 30
0.0
 11
2.778
 21
1.77
 31
0.0
  0
LINE
  5
133
330
18
100
AcDbEntity
  8
0
100
AcDbLine
 10
2.678
 20
1.917
 30
0.0
 11
2.721
 21
1.841
 31
0.0
  0
LINE
  5
134
330
18
100
AcDbEntity
  8
0
100
AcDbLine
 10
2.657
 20
1.959
 30
0.0
 11
2.678
 21
1.917
 31
0.0
  0
ARC
  5
135
330
18
100
AcDbEntity
  8
0
100
AcDbCircle
 10
3.112
 20
2.073
 30
0.0
 40
0.484
100
AcDbArc
 50
227.71
 51
228.597
  0
ARC
  5
136
330
18
100
AcDbEntity
  8
0
100
AcDbCircle
 10
2.914
 20
1.855
 30
0.0
 40
0.19
100
AcDbArc
 50
214.454
 51
227.71
  0
ARC
  5
137
330
18
100
AcDbEntity
  8
0
100
AcDbCircle
 10
6.7
 20
4.453
 30
0.0
 40
4.782
100
AcDbArc
 50
213.674
 51
214.454
  0
ARC
  5
138
330
18
100
AcDbEntity
  8
0
100
AcDbCircle
 10
2.894
 20
1.917
 30
0.0
 40
0.208
100
AcDbArc
 50
209.937
 51
213.674
  0
ARC
  5
139
330
18
100
AcDbEntity
  8
0
100
AcDbCircle
 10
3.665
 20
2.361
 30
0.0
 40
1.098
100
AcDbArc
 50
208.169
 51
209.937
  0
ARC
  5
13A
330
18
100
AcDbEntity
  8
0
100
AcDbCircle
 10
-1.102
 20
-0.192
 30
0.0
 40
4.31
100
AcDbArc
 50
28.169
 51
29.062
  0
ARC
  5
13B
330
18
100
AcDbEntity
  8
0
100
AcDbCircle
 10
2.173
 20
1.628
 30
0.0
 40
0.5629999999999999
100
AcDbArc
 50
29.062
 51
32.167
  0
ARC
  5
13C
330
18
100
AcDbEntity
  8
0
100
AcDbCircle
 10
0.857
 20
0.8
 30
0.0
 40
2.118
100
AcDbArc
 50
32.167
 51
32.766
  0
ARC
  5
13D
330
18
100
AcDbEntity
  8
0
100
AcDbCircle
 10
3.659
 20
2.478
 30
0.0
 40
1.208
100
AcDbArc
 50
222.05
 51
223.997
  0
ARC
  5
13E
330
18
100
AcDbEntity
  8
0
100
AcDbCircle
 10
3.084
 20
1.96
 30
0.0
 40
0.433
100
AcDbArc
 50
215.624
 51
222.05
  0
ARC
  5
13F
330
18
100
AcDbEntity
  8
0
100
AcDbCircle
 10
5.14
 20
3.433
 30
0.0
 40
2.962
100
AcDbArc
 50
214.373
 51
215.624
  0
ARC
  5
140
330
18
100
AcDbEntity
  8
0
100
AcDbCircle
 10
5.112
 20
3.413
 30
0.0
 40
2.928
100
AcDbArc
 50
213.115
 51
214.373
  0
ARC
  5
141
330
18
100
AcDbEntity
  8
0
100
AcDbCircle
 10
2.9
 20
1.971
 30
0.0
 40
0.287
100
AcDbArc
 50
203.075
 51
213.115
  0
ARC
  5
142
330
18
100
AcDbEntity
  8
0
100
AcDbCircle
 10
3.422
 20
2.193
 30
0.0
 40
0.855
100
AcDbArc
 50
198.028
 51
203.075
  0
ARC
  5
143
330
18
100
AcDbEntity
  8
0
100
AcDbCircle
 10
3.164
 20
1.687
 30
0.0
 40
0.494
100
AcDbArc
 50
214.895
 51
220.077
  0
ARC
  5
144
330
18
100
AcDbEntity
  8
0
100
AcDbCircle
 10
7.997999999999999
 20
5.058
 30
0.0
 40
6.387000000000001
100
AcDbArc
 50
214.373
 51
214.895
  0
ARC
  5
145
330
18
100
AcDbEntity
  8
0
100
AcDbCircle
 10
2.787
 20
1.494
 30
0.0
 40
0.073
100
AcDbArc
 50
209.49
 51
214.373
  0
ARC
  5
146
330
18
100
AcDbEntity
  8
0
100
AcDbCircle
 10
2.952
 20
1.587
 30
0.0
 40
0.264
100
AcDbArc
 50
201.314
 51
209.49
  0
ARC
  5
147
330
18
100
AcDbEntity
  8
0
100
AcDbCircle
 10
2.216
 20
1.3
 30
0.0
 40
0.527
100
AcDbArc
 50
21.314
 51
27.097
  0
ARC
  5
148
330
18
100
AcDbEntity
  8
0
100
AcDbCircle
 10
1.892
 20
1.134
 30
0.0
 40
0.8909999999999999
100
AcDbArc
 50
27.097
 51
31.809
  0
ARC
  5
149
330
18
100
AcDbEntity
  8
0
100
AcDbCircle
 10
3.094
 20
1.88
 30
0.0
 40
0.524
100
AcDbArc
 50
205.663
 51
211.809
  0
ARC
  5
14A
330
18
100
AcDbEntity
  8
0
100
AcDbCircle
 10
2.872
 20
1.773
 30
0.0
 40
0.277
100
AcDbArc
 50
203.3690000000001
 51
205.663
  0
ARC
  5
14B
330
18
100
AcDbEntity
  8
0
100
AcDbCircle
 10
17.777
 20
8.214
 30
0.0
 40
16.514
100
AcDbArc
 50
203.072
 51
203.3690000000001
  0
ARC
  5
14C
330
18
100
AcDbEntity
  8
0
100
AcDbCircle
 10
3.228
 20
2.016
 30
0.0
 40
0.7
100
AcDbArc
 50
199.453
 51
203.072
  0
ARC
  5
14D
330
18
100
AcDbEntity
  8
0
100
AcDbCircle
 10
4.428
 20
2.44
 30
0.0
 40
1.973
100
AcDbArc
 50
196.428
 51
199.453
  0
LINE
  5
14E
330
18
100
AcDbEntity
  8
0
100
AcDbLine
 10
2.584
 20
1.193
 30
0.0
 11
2.61
 21
1.147
 31
0.0
  0
LINE
  5
14F
330
18
100
AcDbEntity
  8
0
100
AcDbLine
 10
2.527
 20
1.287
 30
0.0
 11
2.584
 21
1.193
 31
0.0
  0
ARC
  5
150
330
18
100
AcDbEntity
  8
0
100
AcDbCircle
 10
3.372
 20
1.686
 30
0.0
 40
0.887
100
AcDbArc
 50
212.626
 51
215.294
  0
ARC
  5
151
330
18
100
AcDbEntity
  8
0
100
AcDbCircle
 10
3.372
 20
1.686
 30
0.0
 40
0.887
100
AcDbArc
 50
208.459
 51
212.626
  0
ARC
  5
152
330
18
100
AcDbEntity
  8
0
100
AcDbCircle
 10
3.372
 20
1.686
 30
0.0
 40
0.887
100
AcDbArc
 50
203.947
 51
208.459
  0
ARC
  5
153
330
18
100
AcDbEntity
  8
0
100
AcDbCircle
 10
3.372
 20
1.686
 30
0.0
 40
0.887
100
AcDbArc
 50
197.923
 51
203.947
  0
ARC
  5
154
330
18
100
AcDbEntity
  8
0
100
AcDbCircle
 10
3.162
 20
1.435
 30
0.0
 40
0.5579999999999999
100
AcDbArc
 50
202.266
 51
206.653
  0
ARC
  5
155
330
18
100
AcDbEntity
  8
0
100
AcDbCircle
 10
13.905
 20
5.832999999999999
 30
0.0
 40
12.166
100
AcDbArc
 50
202.0
 51
202.266
  0
ARC
  5
156
330
18
100
AcDbEntity
  8
0
100
AcDbCircle
 10
-9.009
 20
-3.424
 30
0.0
 40
12.547
100
AcDbArc
 50
22.0
 51
22.262
  0
ARC
  5
157
330
18
100
AcDbEntity
  8
0
100
AcDbCircle
 10
0.7959999999999999
 20
0.59
 30
0.0
 40
1.952
100
AcDbArc
 50
22.262
 51
23.912
  0
ARC
  5
158
330
18
100
AcDbEntity
  8
0
100
AcDbCircle
 10
-2.211
 20
-0.7440000000000001
 30
0.0
 40
5.242000000000001
100
AcDbArc
 50
23.912
 51
25.321
  0
ARC
  5
159
330
18
100
AcDbEntity
  8
0
100
AcDbCircle
 10
31.973
 20
15.545
 30
0.0
 40
32.59
100
AcDbArc
 50
206.053
 51
206.088
  0
ARC
  5
15A
330
18
100
AcDbEntity
  8
0
100
AcDbCircle
 10
7.946000000000001
 20
3.799
 30
0.0
 40
5.846
100
AcDbArc
 50
205.725
 51
206.053
  0
ARC
  5
15B
330
18
100
AcDbEntity
  8
0
100
AcDbCircle
 10
96.286
 20
46.361
 30
0.0
 40
103.905
100
AcDbArc
 50
205.677
 51
205.725
  0
ARC
  5
15C
330
18
100
AcDbEntity
  8
0
100
AcDbCircle
 10
139.633
 20
67.2
 30
0.0
 40
152.0
100
AcDbArc
 50
205.637
 51
205.677
  0
ARC
  5
15D
330
18
100
AcDbEntity
  8
0
100
AcDbCircle
 10
3.106
 20
1.679
 30
0.0
 40
0.5660000000000001
100
AcDbArc
 50
200.767
 51
205.637
  0
ARC
  5
15E
330
18
100
AcDbEntity
  8
0
100
AcDbCircle
 10
5.19
 20
2.469
 30
0.0
 40
2.794
100
AcDbArc
 50
197.646
 51
200.767
  0
ARC
  5
15F
330
18
100
AcDbEntity
  8
0
100
AcDbCircle
 10
5.678
 20
3.022
 30
0.0
 40
3.431
100
AcDbArc
 50
210.028
 51
211.239
  0
ARC
  5
160
330
18
100
AcDbEntity
  8
0
100
AcDbCircle
 10
3.493
 20
1.759
 30
0.0
 40
0.907
100
AcDbArc
 50
206.579
 51
210.028
  0
ARC
  5
161
330
18
100
AcDbEntity
  8
0
100
AcDbCircle
 10
16.125
 20
8.079000000000001
 30
0.0
 40
15.032
100
AcDbArc
 50
206.243
 51
206.579
  0
ARC
  5
162
330
18
100
AcDbEntity
  8
0
100
AcDbCircle
 10
18.008
 20
9.007
 30
0.0
 40
17.131
100
AcDbArc
 50
205.928
 51
206.243
  0
ARC
  5
163
330
18
100
AcDbEntity
  8
0
100
AcDbCircle
 10
3.279
 20
1.846
 30
0.0
 40
0.754
100
AcDbArc
 50
201.312
 51
205.928
  0
ARC
  5
164
330
18
100
AcDbEntity
  8
0
100
AcDbCircle
 10
5.122999999999999
 20
2.566
 30
0.0
 40
2.734
100
AcDbArc
 50
198.26
 51
201.312
  0
ARC
  5
165
330
18
100
AcDbEntity
  8
0
100
AcDbCircle
 10
4.212
 20
2.05
 30
0.0
 40
1.633
100
AcDbArc
 50
207.284
 51
208.6240000000001
  0
ARC
  5
166
330
18
100
AcDbEntity
  8
0
100
AcDbCircle
 10
58.097
 20
29.843
 30
0.0
 40
62.26300000000001
100
AcDbArc
 50
207.232
 51
207.284
  0
ARC
  5
167
330
18
100
AcDbEntity
  8
0
100
AcDbCircle
 10
-5.007
 20
-2.633
 30
0.0
 40
8.707000000000001
100
AcDbArc
 50
27.232
 51
27.371
  0
ARC
  5
168
330
18
100
AcDbEntity
  8
0
100
AcDbCircle
 10
-0.017
 20
-0.049
 30
0.0
 40
3.089
100
AcDbArc
 50
27.371
 51
29.16
  0
ARC
  5
169
330
18
100
AcDbEntity
  8
0
100
AcDbCircle
 10
3.567
 20
1.95
 30
0.0
 40
1.015
100
AcDbArc
 50
206.04
 51
209.16
  0
ARC
  5
16A
330
18
100
AcDbEntity
  8
0
100
AcDbCircle
 10
2.926
 20
1.637
 30
0.0
 40
0.302
100
AcDbArc
 50
200.451
 51
206.04
  0
ARC
  5
16B
330
18
100
AcDbEntity
  8
0
100
AcDbCircle
 10
-4.147
 20
-1.001
 30
0.0
 40
7.247000000000001
100
AcDbArc
 50
20.451
 51
21.592
  0
ARC
  5
16C
330
18
100
AcDbEntity
  8
0
100
AcDbCircle
 10
0.7290000000000001
 20
0.9290000000000001
 30
0.0
 40
2.003
100
AcDbArc
 50
21.592
 51
22.935
  0
ARC
  5
16D
330
18
100
AcDbEntity
  8
0
100
AcDbCircle
 10
-4.55
 20
-1.305
 30
0.0
 40
7.735
100
AcDbArc
 50
22.935
 51
23.795
  0
ARC
  5
16E
330
18
100
AcDbEntity
  8
0
100
AcDbCircle
 10
3.568
 20
2.034
 30
0.0
 40
0.987
100
AcDbArc
 50
216.791
 51
217.726
  0
ARC
  5
16F
330
18
100
AcDbEntity
  8
0
100
AcDbCircle
 10
3.096
 20
1.681
 30
0.0
 40
0.397
100
AcDbArc
 50
207.864
 51
216.791
  0
ARC
  5
170
330
18
100
AcDbEntity
  8
0
100
AcDbCircle
 10
11.695
 20
6.227
 30
0.0
 40
10.124
100
AcDbArc
 50
207.334
 51
207.864
  0
ARC
  5
171
330
18
100
AcDbEntity
  8
0
100
AcDbCircle
 10
2.878
 20
1.67
 30
0.0
 40
0.2
100
AcDbArc
 50
203.559
 51
207.334
  0
ARC
  5
172
330
18
100
AcDbEntity
  8
0
100
AcDbCircle
 10
3.808
 20
2.075
 30
0.0
 40
1.214
100
AcDbArc
 50
201.761
 51
203.559
  0
ARC
  5
173
330
18
100
AcDbEntity
  8
0
100
AcDbCircle
 10
-5.847
 20
-1.779
 30
0.0
 40
9.182
100
AcDbArc
 50
21.761
 51
22.415
  0
ARC
  5
174
330
18
100
AcDbEntity
  8
0
100
AcDbCircle
 10
1.228
 20
1.139
 30
0.0
 40
1.529
100
AcDbArc
 50
22.415
 51
24.702
  0
ARC
  5
175
330
18
100
AcDbEntity
  8
0
100
AcDbCircle
 10
-1.524
 20
-0.126
 30
0.0
 40
4.558
100
AcDbArc
 50
24.702
 51
26.362
  0
ARC
  5
176
330
18
100
AcDbEntity
  8
0
100
AcDbCircle
 10
3.125
 20
1.908
 30
0.0
 40
0.501
100
AcDbArc
 50
225.542
 51
227.871
  0
ARC
  5
177
330
18
100
AcDbEntity
  8
0
100
AcDbCircle
 10
2.9
 20
1.679
 30
0.0
 40
0.18
100
AcDbArc
 50
212.222
 51
225.542
  0
ARC
  5
178
330
18
100
AcDbEntity
  8
0
100
AcDbCircle
 10
7.587999999999999
 20
4.633
 30
0.0
 40
5.721
100
AcDbArc
 50
211.533
 51
212.222
  0
ARC
  5
179
330
18
100
AcDbEntity
  8
0
100
AcDbCircle
 10
2.958
 20
1.792
 30
0.0
 40
0.289
100
AcDbArc
 50
208.467
 51
211.533
  0
ARC
  5
17A
330
18
100
AcDbEntity
  8
0
100
AcDbCircle
 10
4.037
 20
2.377
 30
0.0
 40
1.516
100
AcDbArc
 50
207.595
 51
208.467
  0
ARC
  5
17B
330
18
100
AcDbEntity
  8
0
100
AcDbCircle
 10
33.468
 20
17.76
 30
0.0
 40
34.726
100
AcDbArc
 50
207.412
 51
207.595
  0
ARC
  5
17C
330
18
100
AcDbEntity
  8
0
100
AcDbCircle
 10
3.497
 20
2.216
 30
0.0
 40
0.963
100
AcDbArc
 50
205.105
 51
207.412
  0
ARC
  5
17D
330
18
100
AcDbEntity
  8
0
100
AcDbCircle
 10
6.091
 20
3.432
 30
0.0
 40
3.828
100
AcDbArc
 50
203.433
 51
205.105
  0
TEXT
  5
17E
330
18
100
AcDbEntity
  8
0
100
AcDbText
 10
1.38
 20
0.5770000000000001
 30
0.0
 40
0.125
  1
RR
100
AcDbText
  0
LINE
  5
17F
330
18
100
AcDbEntity
  8
0
100
AcDbLine
 10
1.499
 20
1.684
 30
0.0
 11
1.497
 21
1.834
 31
0.0
  0
LINE
  5
180
330
18
100
AcDbEntity
  8
0
100
AcDbLine
 10
1.846
 20
2.357
 30
0.0
 11
2.031
 21
2.477
 31
0.0
  0
LINE
  5
181
330
18
100
AcDbEntity
  8
0
100
AcDbLine
 10
1.845
 20
2.384
 30
0.0
 11
2.018
 21
2.496
 31
0.0
  0
LINE
  5
182
330
18
100
AcDbEntity
  8
0
100
AcDbLine
 10
1.818
 20
2.366
 30
0.0
 11
1.818
 21
2.339
 31
0.0
  0
LINE
  5
183
330
18
100
AcDbEntity
  8
0
100
AcDbLine
 10
1.232
 20
2.836
 30
0.0
 11
1.311
 21
2.787
 31
0.0
  0
LINE
  5
184
330
18
100
AcDbEntity
  8
0
100
AcDbLine
 10
1.232
 20
2.863
 30
0.0
 11
1.232
 21
2.836
 31
0.0
  0
LINE
  5
185
330
18
100
AcDbEntity
  8
0
100
AcDbLine
 10
1.317
 20
2.678
 30
0.0
 11
1.476
 21
2.588
 31
0.0
  0
LINE
  5
186
330
18
100
AcDbEntity
  8
0
100
AcDbLine
 10
1.476
 20
2.588
 30
0.0
 11
1.588
 21
2.59
 31
0.0
  0
LINE
  5
187
330
18
100
AcDbEntity
  8
0
100
AcDbLine
 10
1.588
 20
2.59
 30
0.0
 11
1.758
 21
2.485
 31
0.0
  0
LINE
  5
188
330
18
100
AcDbEntity
  8
0
100
AcDbLine
 10
1.316
 20
2.705
 30
0.0
 11
1.317
 21
2.678
 31
0.0
  0
LINE
  5
189
330
18
100
AcDbEntity
  8
0
100
AcDbLine
 10
1.587
 20
2.617
 30
0.0
 11
1.588
 21
2.59
 31
0.0
  0
LINE
  5
18A
330
18
100
AcDbEntity
  8
0
100
AcDbLine
 10
1.475
 20
2.614
 30
0.0
 11
1.476
 21
2.588
 31
0.0
  0
LINE
  5
18B
330
18
100
AcDbEntity
  8
0
100
AcDbLine
 10
1.77
 20
2.423
 30
0.0
 11
1.771
 21
2.396
 31
0.0
  0
LINE
  5
18C
330
18
100
AcDbEntity
  8
0
100
AcDbLine
 10
1.771
 20
2.396
 30
0.0
 11
1.846
 21
2.357
 31
0.0
  0
LINE
  5
18D
330
18
100
AcDbEntity
  8
0
100
AcDbLine
 10
1.845
 20
2.384
 30
0.0
 11
1.846
 21
2.357
 31
0.0
  0
LINE
  5
18E
330
18
100
AcDbEntity
  8
0
100
AcDbLine
 10
1.77
 20
2.423
 30
0.0
 11
1.845
 21
2.384
 31
0.0
  0
LINE
  5
18F
330
18
100
AcDbEntity
  8
0
100
AcDbLine
 10
1.752
 20
2.515
 30
0.0
 11
1.77
 21
2.423
 31
0.0
  0
LINE
  5
190
330
18
100
AcDbEntity
  8
0
100
AcDbLine
 10
1.587
 20
2.617
 30
0.0
 11
1.752
 21
2.515
 31
0.0
  0
LINE
  5
191
330
18
100
AcDbEntity
  8
0
100
AcDbLine
 10
1.475
 20
2.614
 30
0.0
 11
1.587
 21
2.617
 31
0.0
  0
LINE
  5
192
330
18
100
AcDbEntity
  8
0
100
AcDbLine
 10
1.316
 20
2.705
 30
0.0
 11
1.475
 21
2.614
 31
0.0
  0
LINE
  5
193
330
18
100
AcDbEntity
  8
0
100
AcDbLine
 10
1.31
 20
2.814
 30
0.0
 11
1.316
 21
2.705
 31
0.0
  0
LINE
  5
194
330
18
100
AcDbEntity
  8
0
100
AcDbLine
 10
1.232
 20
2.863
 30
0.0
 11
1.31
 21
2.814
 31
0.0
  0
LINE
  5
195
330
18
100
AcDbEntity
  8
0
100
AcDbLine
 10
1.588
 20
2.395
 30
0.0
 11
1.712
 21
2.321
 31
0.0
  0
LINE
  5
196
330
18
100
AcDbEntity
  8
0
100
AcDbLine
 10
1.276
 20
2.578
 30
0.0
 11
1.455
 21
2.474
 31
0.0
  0
LINE
  5
197
330
18
100
AcDbEntity
  8
0
100
AcDbLine
 10
1.035
 20
2.714
 30
0.0
 11
1.175
 21
2.628
 31
0.0
  0
ARC
  5
198
330
18
100
AcDbEntity
  8
0
100
AcDbCircle
 10
1.233
 20
2.596
 30
0.0
 40
0.014
100
AcDbArc
 50
308.973
 51
156.316
  0
LINE
  5
199
330
18
100
AcDbEntity
  8
0
100
AcDbLine
 10
1.286
 20
2.894
 30
0.0
 11
0.897
 21
3.113
 31
0.0
  0
ARC
  5
19A
330
18
100
AcDbEntity
  8
0
100
AcDbCircle
 10
2.025
 20
2.485
 30
0.0
 40
0.013
100
AcDbArc
 50
3.678999999999999
 51
122.91
  0
LINE
  5
19B
330
18
100
AcDbEntity
  8
0
100
AcDbLine
 10
2.038
 20
2.473
 30
0.0
 11
2.037
 21
2.486
 31
0.0
  0
ARC
  5
19C
330
18
100
AcDbEntity
  8
0
100
AcDbCircle
 10
1.303
 20
2.847
 30
0.0
 40
0.05
100
AcDbArc
 50
60.732
 51
120.494
  0
LINE
  5
19D
330
18
100
AcDbEntity
  8
0
100
AcDbLine
 10
1.328
 20
2.891
 30
0.0
 11
2.031
 21
2.496
 31
0.0
  0
ARC
  5
19E
330
18
100
AcDbEntity
  8
0
100
AcDbCircle
 10
1.048
 20
2.697
 30
0.0
 40
0.05
100
AcDbArc
 50
120.494
 51
177.928
  0
LINE
  5
19F
330
18
100
AcDbEntity
  8
0
100
AcDbLine
 10
1.088
 20
2.467
 30
0.0
 11
1.22
 21
2.602
 31
0.0
  0
LINE
  5
1A0
330
18
100
AcDbEntity
  8
0
100
AcDbLine
 10
0.991
 20
2.516
 30
0.0
 11
1.088
 21
2.467
 31
0.0
  0
LINE
  5
1A1
330
18
100
AcDbEntity
  8
0
100
AcDbLine
 10
0.998
 20
2.699
 30
0.0
 11
0.991
 21
2.516
 31
0.0
  0
LINE
  5
1A2
330
18
100
AcDbEntity
  8
0
100
AcDbLine
 10
1.278
 20
2.89
 30
0.0
 11
1.022
 21
2.74
 31
0.0
  0
LINE
  5
1A3
330
18
100
AcDbEntity
  8
0
100
AcDbLine
 10
1.771
 20
2.306
 30
0.0
 11
2.527
 21
1.877
 31
0.0
  0
ARC
  5
1A4
330
18
100
AcDbEntity
  8
0
100
AcDbCircle
 10
1.52
 20
2.432
 30
0.0
 40
0.027
100
AcDbArc
 50
336.156
 51
140.504
  0
LINE
  5
1A5
330
18
100
AcDbEntity
  8
0
100
AcDbLine
 10
1.738
 20
2.104
 30
0.0
 11
1.761
 21
2.118
 31
0.0
  0
ARC
  5
1A6
330
18
100
AcDbEntity
  8
0
100
AcDbCircle
 10
1.79
 20
2.291
 30
0.0
 40
0.025
100
AcDbArc
 50
122.91
 51
178.54
  0
LINE
  5
1A7
330
18
100
AcDbEntity
  8
0
100
AcDbLine
 10
1.761
 20
2.118
 30
0.0
 11
1.765
 21
2.292
 31
0.0
  0
ARC
  5
1A8
330
18
100
AcDbEntity
  8
0
100
AcDbCircle
 10
1.792
 20
2.29
 30
0.0
 40
0.05
100
AcDbArc
 50
122.91
 51
178.54
  0
LINE
  5
1A9
330
18
100
AcDbEntity
  8
0
100
AcDbLine
 10
1.765
 20
2.332
 30
0.0
 11
1.818
 21
2.366
 31
0.0
  0
LINE
  5
1AA
330
18
100
AcDbEntity
  8
0
100
AcDbLine
 10
1.777
 20
2.312
 30
0.0
 11
1.818
 21
2.339
 31
0.0
  0
ARC
  5
1AB
330
18
100
AcDbEntity
  8
0
100
AcDbCircle
 10
1.67
 20
2.164
 30
0.0
 40
0.025
100
AcDbArc
 50
200.977
 51
244.555
  0
LINE
  5
1AC
330
18
100
AcDbEntity
  8
0
100
AcDbLine
 10
1.738
 20
2.104
 30
0.0
 11
1.742
 21
2.291
 31
0.0
  0
LINE
  5
1AD
330
18
100
AcDbEntity
  8
0
100
AcDbLine
 10
1.659
 20
2.141
 30
0.0
 11
1.738
 21
2.104
 31
0.0
  0
LINE
  5
1AE
330
18
100
AcDbEntity
  8
0
100
AcDbLine
 10
1.544
 20
2.421
 30
0.0
 11
1.646
 21
2.155
 31
0.0
  0
ARC
  5
1AF
330
18
100
AcDbEntity
  8
0
100
AcDbCircle
 10
1.327
 20
1.976
 30
0.0
 40
0.038
100
AcDbArc
 50
153.061
 51
181.774
  0
LINE
  5
1B0
330
18
100
AcDbEntity
  8
0
100
AcDbLine
 10
1.52
 20
2.438
 30
0.0
 11
1.293
 21
1.993
 31
0.0
  0
LINE
  5
1B1
330
18
100
AcDbEntity
  8
0
100
AcDbLine
 10
1.289
 20
1.975
 30
0.0
 11
1.304
 21
1.511
 31
0.0
  0
ARC
  5
1B2
330
18
100
AcDbEntity
  8
0
100
AcDbCircle
 10
1.316
 20
1.978
 30
0.0
 40
0.05
100
AcDbArc
 50
153.061
 51
181.774
  0
ARC
  5
1B3
330
18
100
AcDbEntity
  8
0
100
AcDbCircle
 10
1.396
 20
1.715
 30
0.0
 40
0.05
100
AcDbArc
 50
322.674
 51
347.26
  0
ARC
  5
1B4
330
18
100
AcDbEntity
  8
0
100
AcDbCircle
 10
1.511
 20
1.771
 30
0.0
 40
0.05
100
AcDbArc
 50
142.109
 51
167.26
  0
LINE
  5
1B5
330
18
100
AcDbEntity
  8
0
100
AcDbLine
 10
1.532
 20
1.879
 30
0.0
 11
1.52
 21
2.438
 31
0.0
  0
LINE
  5
1B6
330
18
100
AcDbEntity
  8
0
100
AcDbLine
 10
1.472
 20
1.801
 30
0.0
 11
1.532
 21
1.879
 31
0.0
  0
LINE
  5
1B7
330
18
100
AcDbEntity
  8
0
100
AcDbLine
 10
1.462
 20
1.782
 30
0.0
 11
1.445
 21
1.704
 31
0.0
  0
LINE
  5
1B8
330
18
100
AcDbEntity
  8
0
100
AcDbLine
 10
1.304
 20
1.511
 30
0.0
 11
1.436
 21
1.685
 31
0.0
  0
LINE
  5
1B9
330
18
100
AcDbEntity
  8
0
100
AcDbLine
 10
1.281
 20
1.51
 30
0.0
 11
1.304
 21
1.511
 31
0.0
  0
LINE
  5
1BA
330
18
100
AcDbEntity
  8
0
100
AcDbLine
 10
1.266
 20
1.976
 30
0.0
 11
1.281
 21
1.51
 31
0.0
  0
LINE
  5
1BB
330
18
100
AcDbEntity
  8
0
100
AcDbLine
 10
1.499
 20
2.448
 30
0.0
 11
1.272
 21
2.001
 31
0.0
  0
LINE
  5
1BC
330
18
100
AcDbEntity
  8
0
100
AcDbLine
 10
1.499
 20
1.684
 30
0.0
 11
2.527
 21
1.087
 31
0.0
  0
LINE
  5
1BD
330
18
100
AcDbEntity
  8
0
100
AcDbLine
 10
0.63
 20
2.46
 30
0.0
 11
0.631
 21
2.187
 31
0.0
  0
LINE
  5
1BE
330
18
100
AcDbEntity
  8
0
100
AcDbLine
 10
0.519
 20
2.576
 30
0.0
 11
0.63
 21
2.46
 31
0.0
  0
LINE
  5
1BF
330
18
100
AcDbEntity
  8
0
100
AcDbLine
 10
0.6809999999999999
 20
2.667
 30
0.0
 11
0.519
 21
2.576
 31
0.0
  0
LINE
  5
1C0
330
18
100
AcDbEntity
  8
0
100
AcDbLine
 10
0.628
 20
2.726
 30
0.0
 11
0.6809999999999999
 21
2.667
 31
0.0
  0
ARC
  5
1C1
330
18
100
AcDbEntity
  8
0
100
AcDbCircle
 10
0.7759999999999999
 20
0.9209999999999999
 30
0.0
 40
0.339
100
AcDbArc
 50
101.327
 51
129.213
  0
ARC
  5
1C2
330
18
100
AcDbEntity
  8
0
100
AcDbCircle
 10
0.9790000000000001
 20
0.508
 30
0.0
 40
0.889
100
AcDbArc
 50
115.129
 51
125.094
  0
ARC
  5
1C3
330
18
100
AcDbEntity
  8
0
100
AcDbCircle
 10
0.857
 20
0.6809999999999999
 30
0.0
 40
0.65
100
AcDbArc
 50
109.679
 51
123.842
  0
ARC
  5
1C4
330
18
100
AcDbEntity
  8
0
100
AcDbCircle
 10
0.9570000000000001
 20
0.443
 30
0.0
 40
0.88
100
AcDbArc
 50
109.021
 51
119.784
  0
ARC
  5
1C5
330
18
100
AcDbEntity
  8
0
100
AcDbCircle
 10
0.902
 20
0.667
 30
0.0
 40
0.5760000000000001
100
AcDbArc
 50
104.424
 51
121.23
  0
LINE
  5
1C6
330
18
100
AcDbEntity
  8
0
100
AcDbLine
 10
0.795
 20
1.204
 30
0.0
 11
0.647
 21
1.135
 31
0.0
  0
LINE
  5
1C7
330
18
100
AcDbEntity
  8
0
100
AcDbLine
 10
0.7709999999999999
 20
0.987
 30
0.0
 11
0.522
 21
1.128
 31
0.0
  0
LINE
  5
1C8
330
18
100
AcDbEntity
  8
0
100
AcDbLine
 10
0.7759999999999999
 20
1.29
 30
0.0
 11
0.519
 21
1.435
 31
0.0
  0
LINE
  5
1C9
330
18
100
AcDbEntity
  8
0
100
AcDbLine
 10
0.8340000000000001
 20
1.182
 30
0.0
 11
0.584
 21
1.323
 31
0.0
  0
LINE
  5
1CA
330
18
100
AcDbEntity
  8
0
100
AcDbLine
 10
0.519
 20
1.435
 30
0.0
 11
0.517
 21
1.747
 31
0.0
  0
LINE
  5
1CB
330
18
100
AcDbEntity
  8
0
100
AcDbLine
 10
0.519
 20
1.435
 30
0.0
 11
0.584
 21
1.323
 31
0.0
  0
LINE
  5
1CC
330
18
100
AcDbEntity
  8
0
100
AcDbLine
 10
0.584
 20
1.323
 30
0.0
 11
0.454
 21
1.244
 31
0.0
  0
LINE
  5
1CD
330
18
100
AcDbEntity
  8
0
100
AcDbLine
 10
0.454
 20
1.244
 30
0.0
 11
0.522
 21
1.128
 31
0.0
  0
LINE
  5
1CE
330
18
100
AcDbEntity
  8
0
100
AcDbLine
 10
0.7040000000000001
 20
1.103
 30
0.0
 11
0.454
 21
1.244
 31
0.0
  0
LINE
  5
1CF
330
18
100
AcDbEntity
  8
0
100
AcDbLine
 10
0.775
 20
0.981
 30
0.0
 11
0.774
 21
0.67
 31
0.0
  0
LINE
  5
1D0
330
18
100
AcDbEntity
  8
0
100
AcDbLine
 10
0.7040000000000001
 20
1.103
 30
0.0
 11
0.775
 21
0.981
 31
0.0
  0
LINE
  5
1D1
330
18
100
AcDbEntity
  8
0
100
AcDbLine
 10
0.8340000000000001
 20
1.182
 30
0.0
 11
0.7040000000000001
 21
1.103
 31
0.0
  0
LINE
  5
1D2
330
18
100
AcDbEntity
  8
0
100
AcDbLine
 10
0.7759999999999999
 20
1.29
 30
0.0
 11
0.8340000000000001
 21
1.182
 31
0.0
  0
LINE
  5
1D3
330
18
100
AcDbEntity
  8
0
100
AcDbLine
 10
2.527
 20
1.146
 30
0.0
 11
2.558
 21
1.109
 31
0.0
  0
LINE
  5
1D4
330
18
100
AcDbEntity
  8
0
100
AcDbLine
 10
2.527
 20
1.205
 30
0.0
 11
2.591
 21
1.132
 31
0.0
  0
LINE
  5
1D5
330
18
100
AcDbEntity
  8
0
100
AcDbLine
 10
2.623
 20
2.215
 30
0.0
 11
2.622
 21
2.145
 31
0.0
  0
LINE
  5
1D6
330
18
100
AcDbEntity
  8
0
100
AcDbLine
 10
2.718
 20
2.306
 30
0.0
 11
2.623
 21
2.215
 31
0.0
  0
LINE
  5
1D7
330
18
100
AcDbEntity
  8
0
100
AcDbLine
 10
2.565
 20
2.396
 30
0.0
 11
2.718
 21
2.306
 31
0.0
  0
LINE
  5
1D8
330
18
100
AcDbEntity
  8
0
100
AcDbLine
 10
2.628
 20
2.454
 30
0.0
 11
2.565
 21
2.396
 31
0.0
  0
LINE
  5
1D9
330
18
100
AcDbEntity
  8
0
100
AcDbLine
 10
1.499
 20
1.684
 30
0.0
 11
0.774
 21
0.67
 31
0.0
  0
LINE
  5
1DA
330
18
100
AcDbEntity
  8
0
100
AcDbLine
 10
0.777
 20
1.582
 30
0.0
 11
0.7759999999999999
 21
1.29
 31
0.0
  0
LINE
  5
1DB
330
18
100
AcDbEntity
  8
0
100
AcDbLine
 10
1.226
 20
2.587
 30
0.0
 11
0.517
 21
1.747
 31
0.0
  0
LINE
  5
1DC
330
18
100
AcDbEntity
  8
0
100
AcDbLine
 10
1.474
 20
2.439
 30
0.0
 11
1.226
 21
2.587
 31
0.0
  0
LINE
  5
1DD
330
18
100
AcDbEntity
  8
0
100
AcDbLine
 10
0.777
 20
1.582
 30
0.0
 11
1.474
 21
2.439
 31
0.0
  0
LINE
  5
1DE
330
18
100
AcDbEntity
  8
0
100
AcDbLine
 10
0.517
 20
1.747
 30
0.0
 11
0.777
 21
1.582
 31
0.0
  0
LINE
  5
1DF
330
18
100
AcDbEntity
  8
0
100
AcDbLine
 10
0.524
 20
0.8109999999999999
 30
0.0
 11
0.522
 21
1.128
 31
0.0
  0
LINE
  5
1E0
330
18
100
AcDbEntity
  8
0
100
AcDbLine
 10
0.774
 20
0.67
 30
0.0
 11
0.524
 21
0.8109999999999999
 31
0.0
  0
LINE
  5
1E1
330
18
100
AcDbEntity
  8
0
100
AcDbLine
 10
2.631
 20
2.628
 30
0.0
 11
2.628
 21
2.454
 31
0.0
  0
LINE
  5
1E2
330
18
100
AcDbEntity
  8
0
100
AcDbLine
 10
2.393
 20
2.772
 30
0.0
 11
1.583
 21
2.748
 31
0.0
  0
LINE
  5
1E3
330
18
100
AcDbEntity
  8
0
100
AcDbLine
 10
2.631
 20
2.628
 30
0.0
 11
2.393
 21
2.772
 31
0.0
  0
LINE
  5
1E4
330
18
100
AcDbEntity
  8
0
100
AcDbLine
 10
1.834
 20
2.607
 30
0.0
 11
2.631
 21
2.628
 31
0.0
  0
LINE
  5
1E5
330
18
100
AcDbEntity
  8
0
100
AcDbLine
 10
2.527
 20
1.877
 30
0.0
 11
2.527
 21
1.087
 31
0.0
  0
LINE
  5
1E6
330
18
100
AcDbEntity
  8
0
100
AcDbLine
 10
2.785
 20
1.272
 30
0.0
 11
2.797
 21
2.047
 31
0.0
  0
LINE
  5
1E7
330
18
100
AcDbEntity
  8
0
100
AcDbLine
 10
2.527
 20
1.087
 30
0.0
 11
2.785
 21
1.272
 31
0.0
  0
LINE
  5
1E8
330
18
100
AcDbEntity
  8
0
100
AcDbLine
 10
0.631
 20
2.187
 30
0.0
 11
0.8040000000000001
 21
2.087
 31
0.0
  0
LINE
  5
1E9
330
18
100
AcDbEntity
  8
0
100
AcDbLine
 10
0.627
 20
2.956
 30
0.0
 11
0.628
 21
2.726
 31
0.0
  0
LINE
  5
1EA
330
18
100
AcDbEntity
  8
0
100
AcDbLine
 10
0.897
 20
3.113
 30
0.0
 11
0.627
 21
2.956
 31
0.0
  0
LINE
  5
1EB
330
18
100
AcDbEntity
  8
0
100
AcDbLine
 10
2.797
 20
2.047
 30
0.0
 11
2.031
 21
2.477
 31
0.0
  0
LINE
  5
1EC
330
18
100
AcDbEntity
  8
0
100
AcDbLine
 10
2.527
 20
1.877
 30
0.0
 11
2.797
 21
2.047
 31
0.0
  0
LINE
  5
1ED
330
18
100
AcDbEntity
  8
0
100
AcDbLine
 10
0.627
 20
2.956
 30
0.0
 11
1.015
 21
2.735
 31
0.0
  0
TEXT
  5
1EE
330
18
100
AcDbEntity
  8
0
100
AcDbText
 10
1.38
 20
0.764
 30
0.0
 40
0.125
  1
Simpson Strong-Tie
100
AcDbText
  0
ENDSEC
  0
SECTION
  2
OBJECTS
  0
DICTIONARY
  5
C
330
0
100
AcDbDictionary
281
     1
  3
ACAD_COLOR
350
1F4
  3
ACAD_GROUP
350
D
  3
ACAD_LAYOUT
350
15
  3
ACAD_MATERIAL
350
1F6
  3
ACAD_MLINESTYLE
350
12
  3
ACAD_PLOTSETTINGS
350
14
  3
ACAD_PLOTSTYLENAME
350
E
  3
ACDBHEADERROUNDTRIPXREC
350
1F3
  0
DICTIONARY
  5
1F4
102
{ACAD_REACTORS
330
C
102
}
330
C
100
AcDbDictionary
281
     1
  0
DICTIONARY
  5
D
102
{ACAD_REACTORS
330
C
102
}
330
C
100
AcDbDictionary
281
     1
  0
DICTIONARY
  5
15
102
{ACAD_REACTORS
330
C
102
}
330
C
100
AcDbDictionary
281
     1
  3
Layout1
350
17
  3
Model
350
19
  0
DICTIONARY
  5
1F6
102
{ACAD_REACTORS
330
C
102
}
330
C
100
AcDbDictionary
281
     1
  0
DICTIONARY
  5
12
102
{ACAD_REACTORS
330
C
102
}
330
C
100
AcDbDictionary
281
     1
  3
Standard
350
13
  0
DICTIONARY
  5
14
102
{ACAD_REACTORS
330
C
102
}
330
C
100
AcDbDictionary
281
     1
  0
ACDBDICTIONARYWDFLT
  5
E
102
{ACAD_REACTORS
330
C
102
}
330
C
100
AcDbDictionary
281
     1
  3
Normal
350
F
100
AcDbDictionaryWithDefault
340
F
  0
DICTIONARY
  5
1F3
102
{ACAD_REACTORS
330
C
102
}
330
C
100
AcDbDictionary
281
     1
  3
COLORDICT
350
1F5
  3
MATERIALDICT
350
1F7
  0
LAYOUT
  5
17
102
{ACAD_REACTORS
330
15
102
}
102
{ACAD_XDICTIONARY
360
1F8
102
}
330
15
100
AcDbPlotSettings
  1

  2

  4

  6

 40
0.0
 41
0.0
 42
0.0
 43
0.0
 44
0.0
 45
0.0
 46
0.0
 47
0.0
 48
0.0
 49
0.0
140
0.0
141
0.0
142
1.0
143
1.0
 70
   688
 72
     0
 73
     0
 74
     5
  7

 75
    16
147
1.0
148
0.0
149
0.0
100
AcDbLayout
  1
Layout1
 70
     1
 71
     1
 10
0.0
 20
0.0
 11
12.0
 21
9.0
 12
0.0
 22
0.0
 32
0.0
 14
1.000000000000000E+20
 24
1.000000000000000E+20
 34
1.000000000000000E+20
 15
-1.000000000000000E+20
 25
-1.000000000000000E+20
 35
-1.000000000000000E+20
146
0.0
 13
0.0
 23
0.0
 33
0.0
 16
1.0
 26
0.0
 36
0.0
 17
0.0
 27
1.0
 37
0.0
 76
     0
330
16
  0
LAYOUT
  5
19
102
{ACAD_REACTORS
330
15
102
}
102
{ACAD_XDICTIONARY
360
1FA
102
}
330
15
100
AcDbPlotSettings
  1

  2

  4

  6

 40
0.0
 41
0.0
 42
0.0
 43
0.0
 44
0.0
 45
0.0
 46
0.0
 47
0.0
 48
0.0
 49
0.0
140
0.0
141
0.0
142
1.0
143
1.0
 70
  1712
 72
     0
 73
     0
 74
     0
  7

 75
     0
147
1.0
148
0.0
149
0.0
100
AcDbLayout
  1
Model
 70
     1
 71
     0
 10
0.0
 20
0.0
 11
0.0
 21
0.0
 12
0.0
 22
0.0
 32
0.0
 14
0.0
 24
0.0
 34
0.0
 15
0.0
 25
0.0
 35
0.0
146
0.0
 13
0.0
 23
0.0
 33
0.0
 16
1.0
 26
0.0
 36
0.0
 17
0.0
 27
1.0
 37
0.0
 76
     0
330
18
  0
MLINESTYLE
  5
13
102
{ACAD_REACTORS
330
12
102
}
330
12
100
AcDbMlineStyle
  2
Standard
 70
     0
  3

 62
   256
 51
90.0
 52
90.0
 71
     2
 49
0.5
 62
   256
  6
BYLAYER
 49
-0.5
 62
   256
  6
BYLAYER
  0
ACDBPLACEHOLDER
  5
F
102
{ACAD_REACTORS
330
E
102
}
330
E
  0
XRECORD
  5
1F5
102
{ACAD_REACTORS
330
1F3
102
}
330
1F3
100
AcDbXrecord
340
1F4
  0
XRECORD
  5
1F7
102
{ACAD_REACTORS
330
1F3
102
}
330
1F3
100
AcDbXrecord
340
1F6
  0
DICTIONARY
  5
1F8
330
17
100
AcDbDictionary
280
     1
281
     1
  3
ACAD_XREC_ROUNDTRIP
360
1F9
  0
DICTIONARY
  5
1FA
330
19
100
AcDbDictionary
280
     1
281
     1
  3
ACAD_XREC_ROUNDTRIP
360
1FB
  0
XRECORD
  5
1F9
102
{ACAD_REACTORS
330
1F8
102
}
330
1F8
100
AcDbXrecord
102
SHADEPLOT
 70
 26392
102
SHADEPLOTRESLEVEL
 70
 26624
102
SHADEPLOTCUSTOMDPI
 70
 26664
  0
XRECORD
  5
1FB
102
{ACAD_REACTORS
330
1FA
102
}
330
1FA
100
AcDbXrecord
102
SHADEPLOT
 70
     0
102
SHADEPLOTRESLEVEL
 70
     0
102
SHADEPLOTCUSTOMDPI
 70
     0
  0
ENDSEC
  0
EOF
