  0
SECTION
  2
HEADER
  9
$ACADVER
  1
AC1015
  9
$ACADMAINTVER
 70
     6
  9
$DWGCODEPAGE
  3
ANSI_1252
  9
$INSBASE
 10
0.0
 20
0.0
 30
0.0
  9
$EXTMIN
 10
-22.4683976085383
 20
3.631289832950881
 30
-0.0015258207003612
  9
$EXTMAX
 10
120.5939100163745
 20
146.5248710873897
 30
0.0000000349246008
  9
$LIMMIN
 10
7.116533745659722
 20
3.502973090277778
  9
$LIMMAX
 10
120.720452202691
 20
127.1698432074653
  9
$ORTHOMODE
 70
     0
  9
$REGENMODE
 70
     1
  9
$FILLMODE
 70
     1
  9
$QTEXTMODE
 70
     0
  9
$MIRRTEXT
 70
     1
  9
$LTSCALE
 40
1.0
  9
$ATTMODE
 70
     1
  9
$TEXTSIZE
 40
0.2
  9
$TRACEWID
 40
0.05
  9
$TEXTSTYLE
  7
STANDARD
  9
$CLAYER
  8
0
  9
$CELTYPE
  6
CONTINUOUS
  9
$CECOLOR
 62
   256
  9
$CELTSCALE
 40
1.0
  9
$DISPSILH
 70
     0
  9
$DIMSCALE
 40
1.0
  9
$DIMASZ
 40
0.18
  9
$DIMEXO
 40
0.0625
  9
$DIMDLI
 40
0.38
  9
$DIMRND
 40
0.0
  9
$DIMDLE
 40
0.0
  9
$DIMEXE
 40
0.18
  9
$DIMTP
 40
0.0
  9
$DIMTM
 40
0.0
  9
$DIMTXT
 40
0.18
  9
$DIMCEN
 40
0.09
  9
$DIMTSZ
 40
0.0
  9
$DIMTOL
 70
     0
  9
$DIMLIM
 70
     0
  9
$DIMTIH
 70
     1
  9
$DIMTOH
 70
     1
  9
$DIMSE1
 70
     0
  9
$DIMSE2
 70
     0
  9
$DIMTAD
 70
     0
  9
$DIMZIN
 70
     0
  9
$DIMBLK
  1

  9
$DIMASO
 70
     1
  9
$DIMSHO
 70
     1
  9
$DIMPOST
  1

  9
$DIMAPOST
  1

  9
$DIMALT
 70
     0
  9
$DIMALTD
 70
     2
  9
$DIMALTF
 40
25.4
  9
$DIMLFAC
 40
1.0
  9
$DIMTOFL
 70
     0
  9
$DIMTVP
 40
0.0
  9
$DIMTIX
 70
     0
  9
$DIMSOXD
 70
     0
  9
$DIMSAH
 70
     0
  9
$DIMBLK1
  1

  9
$DIMBLK2
  1

  9
$DIMSTYLE
  2
STANDARD
  9
$DIMCLRD
 70
     0
  9
$DIMCLRE
 70
     0
  9
$DIMCLRT
 70
     0
  9
$DIMTFAC
 40
1.0
  9
$DIMGAP
 40
0.09
  9
$DIMJUST
 70
     0
  9
$DIMSD1
 70
     0
  9
$DIMSD2
 70
     0
  9
$DIMTOLJ
 70
     1
  9
$DIMTZIN
 70
     0
  9
$DIMALTZ
 70
     0
  9
$DIMALTTZ
 70
     0
  9
$DIMUPT
 70
     0
  9
$DIMDEC
 70
     4
  9
$DIMTDEC
 70
     4
  9
$DIMALTU
 70
     2
  9
$DIMALTTD
 70
     2
  9
$DIMTXSTY
  7
STANDARD
  9
$DIMAUNIT
 70
     0
  9
$DIMADEC
 70
     0
  9
$DIMALTRND
 40
0.0
  9
$DIMAZIN
 70
     0
  9
$DIMDSEP
 70
    46
  9
$DIMATFIT
 70
     3
  9
$DIMFRAC
 70
     0
  9
$DIMLDRBLK
  1

  9
$DIMLUNIT
 70
     2
  9
$DIMLWD
 70
    -2
  9
$DIMLWE
 70
    -2
  9
$DIMTMOVE
 70
     0
  9
$LUNITS
 70
     2
  9
$LUPREC
 70
     4
  9
$SKETCHINC
 40
0.1
  9
$FILLETRAD
 40
0.0
  9
$AUNITS
 70
     0
  9
$AUPREC
 70
     0
  9
$MENU
  1
acad
  9
$ELEVATION
 40
0.0
  9
$PELEVATION
 40
0.0
  9
$THICKNESS
 40
0.0
  9
$LIMCHECK
 70
     0
  9
$CHAMFERA
 40
0.0
  9
$CHAMFERB
 40
0.0
  9
$CHAMFERC
 40
0.0
  9
$CHAMFERD
 40
0.0
  9
$SKPOLY
 70
     0
  9
$TDCREATE
 40
2444971.666666667
  9
$TDUCREATE
 40
2444972.0
  9
$TDUPDATE
 40
2452219.395820139
  9
$TDUUPDATE
 40
2452219.729153472
  9
$TDINDWG
 40
0.0005594907
  9
$TDUSRTIMER
 40
0.0005594907
  9
$USRTIMER
 70
     1
  9
$ANGBASE
 50
0.0
  9
$ANGDIR
 70
     0
  9
$PDMODE
 70
     0
  9
$PDSIZE
 40
0.0
  9
$PLINEWID
 40
0.0
  9
$SPLFRAME
 70
     0
  9
$SPLINETYPE
 70
     6
  9
$SPLINESEGS
 70
     8
  9
$HANDSEED
  5
FB
  9
$SURFTAB1
 70
     6
  9
$SURFTAB2
 70
     6
  9
$SURFTYPE
 70
     6
  9
$SURFU
 70
     6
  9
$SURFV
 70
     6
  9
$UCSBASE
  2

  9
$UCSNAME
  2

  9
$UCSORG
 10
0.0
 20
0.0
 30
0.0
  9
$UCSXDIR
 10
1.0
 20
0.0
 30
0.0
  9
$UCSYDIR
 10
0.0
 20
1.0
 30
0.0
  9
$UCSORTHOREF
  2

  9
$UCSORTHOVIEW
 70
     0
  9
$UCSORGTOP
 10
0.0
 20
0.0
 30
0.0
  9
$UCSORGBOTTOM
 10
0.0
 20
0.0
 30
0.0
  9
$UCSORGLEFT
 10
0.0
 20
0.0
 30
0.0
  9
$UCSORGRIGHT
 10
0.0
 20
0.0
 30
0.0
  9
$UCSORGFRONT
 10
0.0
 20
0.0
 30
0.0
  9
$UCSORGBACK
 10
0.0
 20
0.0
 30
0.0
  9
$PUCSBASE
  2

  9
$PUCSNAME
  2

  9
$PUCSORG
 10
0.0
 20
0.0
 30
0.0
  9
$PUCSXDIR
 10
1.0
 20
0.0
 30
0.0
  9
$PUCSYDIR
 10
0.0
 20
1.0
 30
0.0
  9
$PUCSORTHOREF
  2

  9
$PUCSORTHOVIEW
 70
     0
  9
$PUCSORGTOP
 10
0.0
 20
0.0
 30
0.0
  9
$PUCSORGBOTTOM
 10
0.0
 20
0.0
 30
0.0
  9
$PUCSORGLEFT
 10
0.0
 20
0.0
 30
0.0
  9
$PUCSORGRIGHT
 10
0.0
 20
0.0
 30
0.0
  9
$PUCSORGFRONT
 10
0.0
 20
0.0
 30
0.0
  9
$PUCSORGBACK
 10
0.0
 20
0.0
 30
0.0
  9
$USERI1
 70
     0
  9
$USERI2
 70
     0
  9
$USERI3
 70
     0
  9
$USERI4
 70
     0
  9
$USERI5
 70
     0
  9
$USERR1
 40
0.0
  9
$USERR2
 40
0.0
  9
$USERR3
 40
0.0
  9
$USERR4
 40
0.0
  9
$USERR5
 40
0.0
  9
$WORLDVIEW
 70
     1
  9
$SHADEDGE
 70
     3
  9
$SHADEDIF
 70
    70
  9
$TILEMODE
 70
     1
  9
$MAXACTVP
 70
    16
  9
$PINSBASE
 10
0.0
 20
0.0
 30
0.0
  9
$PLIMCHECK
 70
     0
  9
$PEXTMIN
 10
1.000000000000000E+20
 20
1.000000000000000E+20
 30
1.000000000000000E+20
  9
$PEXTMAX
 10
-1.000000000000000E+20
 20
-1.000000000000000E+20
 30
-1.000000000000000E+20
  9
$PLIMMIN
 10
0.0
 20
0.0
  9
$PLIMMAX
 10
12.0
 20
9.0
  9
$UNITMODE
 70
     0
  9
$VISRETAIN
 70
     0
  9
$PLINEGEN
 70
     1
  9
$PSLTSCALE
 70
     0
  9
$TREEDEPTH
 70
  3020
  9
$CMLSTYLE
  2
STANDARD
  9
$CMLJUST
 70
     0
  9
$CMLSCALE
 40
1.0
  9
$PROXYGRAPHICS
 70
     0
  9
$MEASUREMENT
 70
     0
  9
$CELWEIGHT
370
    -1
  9
$ENDCAPS
280
     0
  9
$JOINSTYLE
280
     0
  9
$LWDISPLAY
290
     0
  9
$INSUNITS
 70
     0
  9
$HYPERLINKBASE
  1

  9
$STYLESHEET
  1

  9
$XEDIT
290
     1
  9
$CEPSNTYPE
380
     0
  9
$PSTYLEMODE
290
     1
  9
$FINGERPRINTGUID
  2
{0AE0CFA8-D1C7-11D5-923F-00805F198AD5}
  9
$VERSIONGUID
  2
{0AE0CFAA-D1C7-11D5-923F-00805F198AD5}
  9
$EXTNAMES
290
     1
  9
$PSVPSCALE
 40
0.0
  9
$OLESTARTUP
290
     0
  0
ENDSEC
  0
SECTION
  2
CLASSES
  0
CLASS
  1
LWPOLYLINE
  2
AcDbPolyline
  3
AutoCAD 2000
 90
        0
280
     0
281
     1
  0
CLASS
  1
IMAGE
  2
AcDbRasterImage
  3
ISM
 90
      127
280
     0
281
     1
  0
CLASS
  1
OLE2FRAME
  2
AcDbOle2Frame
  3
AutoCAD 2000
 90
        0
280
     0
281
     1
  0
CLASS
  1
HATCH
  2
AcDbHatch
  3
AutoCAD 2000
 90
        0
280
     0
281
     1
  0
CLASS
  1
DICTIONARYVAR
  2
AcDbDictionaryVar
  3
AutoCAD 2000
 90
        0
280
     0
281
     0
  0
CLASS
  1
RASTERVARIABLES
  2
AcDbRasterVariables
  3
ISM
 90
        0
280
     0
281
     0
  0
CLASS
  1
IMAGEDEF
  2
AcDbRasterImageDef
  3
ISM
 90
        0
280
     0
281
     0
  0
CLASS
  1
IMAGEDEF_REACTOR
  2
AcDbRasterImageDefReactor
  3
ISM
 90
        1
280
     0
281
     0
  0
CLASS
  1
IDBUFFER
  2
AcDbIdBuffer
  3
AutoCAD 2000
 90
        0
280
     0
281
     0
  0
CLASS
  1
SPATIAL_FILTER
  2
AcDbSpatialFilter
  3
AutoCAD 2000
 90
        0
280
     0
281
     0
  0
CLASS
  1
XRECORD
  2
AcDbXrecord
  3
AutoCAD 2000
 90
        0
280
     0
281
     0
  0
CLASS
  1
SORTENTSTABLE
  2
AcDbSortentsTable
  3
AutoCAD 2000
 90
        0
280
     0
281
     0
  0
CLASS
  1
LAYER_INDEX
  2
AcDbLayerIndex
  3
AutoCAD 2000
 90
        0
280
     0
281
     0
  0
CLASS
  1
SPATIAL_INDEX
  2
AcDbSpatialIndex
  3
AutoCAD 2000
 90
        0
280
     0
281
     0
  0
CLASS
  1
OBJECT_PTR
  2
CAseDLPNTableRecord
  3
ASE-LPNTableRecord
 90
        1
280
     1
281
     0
  0
CLASS
  1
LAYOUT
  2
AcDbLayout
  3
ObjectDBX Classes
 90
        0
280
     0
281
     0
  0
CLASS
  1
PLOTSETTINGS
  2
AcDbPlotSettings
  3
AutoCAD 2000
 90
        0
280
     0
281
     0
  0
CLASS
  1
ACDBDICTIONARYWDFLT
  2
AcDbDictionaryWithDefault
  3
AutoCAD 2000
 90
        0
280
     0
281
     0
  0
CLASS
  1
ACDBPLACEHOLDER
  2
AcDbPlaceHolder
  3
ObjectDBX Classes
 90
        0
280
     0
281
     0
  0
CLASS
  1
VBAPROJECT
  2
AcDbVbaProject
  3
ObjectDBX Classes
 90
        0
280
     0
281
     0
  0
CLASS
  1
WIPEOUT
  2
AcDbWipeout
  3
WipeOut|AutoCAD Express Tool|expresstools@autodesk.com
 90
      127
280
     0
281
     1
  0
CLASS
  1
WIPEOUTVARIABLES
  2
AcDbWipeoutVariables
  3
WipeOut|AutoCAD Express Tool|expresstools@autodesk.com
 90
        0
280
     0
281
     0
  0
CLASS
  1
RTEXT
  2
RText
  3
RText|AutoCAD Express Tool|expresstools@autodesk.com
 90
        0
280
     0
281
     1
  0
CLASS
  1
ARCALIGNEDTEXT
  2
AcDbArcAlignedText
  3
ATEXT|AutoCAD Express Tool|expresstools@autodesk.com
 90
        0
280
     0
281
     1
  0
CLASS
  1
LONG_TRANSACTION
  2
AcDbLongTransaction
  3
AutoCAD 2000
 90
        0
280
     1
281
     0
  0
CLASS
  1
LWPOLYLINE
  2
AcDbPolyline
  3
AutoCAD 2000
 90
        0
280
     0
281
     1
  0
CLASS
  1
HATCH
  2
AcDbHatch
  3
AutoCAD 2000
 90
        0
280
     0
281
     1
  0
CLASS
  1
XRECORD
  2
AcDbXrecord
  3
AutoCAD 2000
 90
        0
280
     0
281
     0
  0
ENDSEC
  0
SECTION
  2
TABLES
  0
TABLE
  2
VPORT
  5
7
330
0
100
AcDbSymbolTable
 70
     2
  0
VPORT
  5
C7
330
7
100
AcDbSymbolTableRecord
100
AcDbViewportTableRecord
  2
*Active
 70
     0
 10
0.0
 20
0.0
 11
1.0
 21
1.0
 12
49.0627562039181
 22
75.07808046017031
 13
0.0
 23
0.0
 14
1.0
 24
1.0
 15
0.0
 25
0.0
 16
0.0
 26
0.0
 36
1.0
 17
0.0
 27
0.0
 37
0.0
 40
145.143873872619
 41
1.836842105263158
 42
50.0
 43
0.0
 44
0.0
 50
0.0
 51
0.0
 71
     0
 72
   100
 73
     1
 74
     1
 75
     0
 76
     0
 77
     0
 78
     0
281
     0
 65
     1
110
0.0
120
0.0
130
0.0
111
1.0
121
0.0
131
0.0
112
0.0
122
1.0
132
0.0
 79
     0
146
0.0
  0
ENDTAB
  0
TABLE
  2
LTYPE
  5
4
330
0
100
AcDbSymbolTable
 70
     1
  0
LTYPE
  5
11
330
4
100
AcDbSymbolTableRecord
100
AcDbLinetypeTableRecord
  2
BYBLOCK
 70
     0
  3

 72
    65
 73
     0
 40
0.0
  0
LTYPE
  5
12
330
4
100
AcDbSymbolTableRecord
100
AcDbLinetypeTableRecord
  2
BYLAYER
 70
     0
  3

 72
    65
 73
     0
 40
0.0
  0
LTYPE
  5
13
330
4
100
AcDbSymbolTableRecord
100
AcDbLinetypeTableRecord
  2
CONTINUOUS
 70
     0
  3
Solid line
 72
    65
 73
     0
 40
0.0
  0
ENDTAB
  0
TABLE
  2
LAYER
  5
2
330
0
100
AcDbSymbolTable
 70
     2
  0
LAYER
  5
14
330
2
100
AcDbSymbolTableRecord
100
AcDbLayerTableRecord
  2
0
 70
     0
 62
     7
  6
CONTINUOUS
370
    -3
390
0
  0
LAYER
  5
21
330
2
100
AcDbSymbolTableRecord
100
AcDbLayerTableRecord
  2
LAYER_1
 70
     0
 62
     5
  6
CONTINUOUS
370
    -3
390
0
  0
ENDTAB
  0
TABLE
  2
STYLE
  5
3
330
0
100
AcDbSymbolTable
 70
     5
  0
STYLE
  5
17
330
3
100
AcDbSymbolTableRecord
100
AcDbTextStyleTableRecord
  2
STANDARD
 70
     0
 40
0.0
 41
1.0
 50
0.0
 71
     0
 42
0.2
  3
txt
  4

  0
STYLE
  5
1D
330
3
100
AcDbSymbolTableRecord
100
AcDbTextStyleTableRecord
  2
STD
 70
     0
 40
0.0
 41
1.0
 50
0.0
 71
     0
 42
0.2
  3
txt
  4

  0
STYLE
  5
1E
330
3
100
AcDbSymbolTableRecord
100
AcDbTextStyleTableRecord
  2
TATESTD
 70
     4
 40
0.0
 41
1.0
 50
0.0
 71
     0
 42
0.2
  3
txt
  4

  0
STYLE
  5
1F
330
3
100
AcDbSymbolTableRecord
100
AcDbTextStyleTableRecord
  2
KANJISTD
 70
     0
 40
0.0
 41
1.0
 50
0.0
 71
     0
 42
0.2
  3
txt
  4
extfont
  0
STYLE
  5
20
330
3
100
AcDbSymbolTableRecord
100
AcDbTextStyleTableRecord
  2
KANJITATE
 70
     4
 40
0.0
 41
1.0
 50
0.0
 71
     0
 42
0.2
  3
txt
  4
extfont
  0
ENDTAB
  0
TABLE
  2
VIEW
  5
5
330
0
100
AcDbSymbolTable
 70
     0
  0
ENDTAB
  0
TABLE
  2
UCS
  5
6
330
0
100
AcDbSymbolTable
 70
     0
  0
ENDTAB
  0
TABLE
  2
APPID
  5
8
330
0
100
AcDbSymbolTable
 70
     1
  0
APPID
  5
16
330
8
100
AcDbSymbolTableRecord
100
AcDbRegAppTableRecord
  2
ACAD
 70
     0
  0
ENDTAB
  0
TABLE
  2
DIMSTYLE
  5
9
330
0
100
AcDbSymbolTable
 70
     1
100
AcDbDimStyleTable
  0
DIMSTYLE
105
18
330
9
100
AcDbSymbolTableRecord
100
AcDbDimStyleTableRecord
  2
STANDARD
 70
     0
  3

  4

289
     0
340
17
  0
ENDTAB
  0
TABLE
  2
BLOCK_RECORD
  5
1
330
0
100
AcDbSymbolTable
 70
     0
  0
BLOCK_RECORD
  5
A
330
1
100
AcDbSymbolTableRecord
100
AcDbBlockTableRecord
  2
*MODEL_SPACE
340
C2
  0
BLOCK_RECORD
  5
B
330
1
100
AcDbSymbolTableRecord
100
AcDbBlockTableRecord
  2
*PAPER_SPACE
340
C3
  0
ENDTAB
  0
ENDSEC
  0
SECTION
  2
BLOCKS
  0
BLOCK
  5
D
330
A
100
AcDbEntity
  8
0
100
AcDbBlockBegin
  2
*MODEL_SPACE
 70
     0
 10
0.0
 20
0.0
 30
0.0
  3
*MODEL_SPACE
  1

  4

  0
ENDBLK
  5
E
330
A
100
AcDbEntity
  8
0
100
AcDbBlockEnd
  0
BLOCK
  5
F
330
B
100
AcDbEntity
 67
     1
  8
0
100
AcDbBlockBegin
  2
*PAPER_SPACE
 70
     0
 10
0.0
 20
0.0
 30
0.0
  3
*PAPER_SPACE
  1

  4

  0
ENDBLK
  5
10
330
B
100
AcDbEntity
 67
     1
  8
0
100
AcDbBlockEnd
  0
ENDSEC
  0
SECTION
  2
ENTITIES
  0
LWPOLYLINE
  5
A8
330
A
100
AcDbEntity
  8
LAYER_1
 62
     7
100
AcDbPolyline
 90
       19
 70
     1
 43
0.0
 10
7.425558810763889
 20
108.859332953559
 10
107.3657118055556
 20
127.0375515407986
 10
116.5935723198785
 20
117.2278143988715
 10
116.5935723198785
 20
109.9972479926215
 10
120.5881605360243
 20
105.8006049262153
 10
113.9389539930556
 20
103.2973985460069
 10
116.6188937717014
 20
100.5414944118924
 10
116.3915174696181
 20
91.36427680121527
 10
44.26155327690972
 20
81.04914415147569
 10
43.95821261935763
 20
8.439105902777778
 10
35.46364067925347
 20
7.983836534288193
 10
31.87316216362847
 20
9.197199164496526
 10
29.04181043836805
 20
3.635264756944444
 10
17.4626722547743
 20
7.174583604600694
 10
16.90663384331597
 20
8.287177191840277
 10
7.248825412326388
 20
11.11852891710069
 10
7.400237358940972
 20
84.48769395616318
 10
7.703578016493055
 20
84.84167751736111
 10
7.298951551649305
 20
85.29643012152776
  0
SPLINE
  5
A7
330
A
100
AcDbEntity
  8
LAYER_1
 62
     7
100
AcDbSpline
210
0.0
220
0.0
230
1.0
 70
     8
 71
     3
 72
    74
 73
    70
 74
     0
 42
0.0000000001
 43
0.0000000001
 40
0.0
 40
0.0
 40
0.0
 40
0.0
 40
1.0
 40
1.0
 40
1.0
 40
2.0
 40
2.0
 40
2.0
 40
3.0
 40
3.0
 40
3.0
 40
4.0
 40
4.0
 40
4.0
 40
5.0
 40
5.0
 40
5.0
 40
6.0
 40
6.0
 40
6.0
 40
7.0
 40
7.0
 40
7.0
 40
8.0
 40
8.0
 40
8.0
 40
9.0
 40
9.0
 40
9.0
 40
10.0
 40
10.0
 40
10.0
 40
11.0
 40
11.0
 40
11.0
 40
12.0
 40
12.0
 40
12.0
 40
13.0
 40
13.0
 40
13.0
 40
14.0
 40
14.0
 40
14.0
 40
15.0
 40
15.0
 40
15.0
 40
16.0
 40
16.0
 40
16.0
 40
17.0
 40
17.0
 40
17.0
 40
18.0
 40
18.0
 40
18.0
 40
19.0
 40
19.0
 40
19.0
 40
20.0
 40
20.0
 40
20.0
 40
21.0
 40
21.0
 40
21.0
 40
22.0
 40
22.0
 40
22.0
 40
23.0
 40
23.0
 40
23.0
 40
23.0
 10
53.87181939019096
 20
85.44508599175346
 30
0.0
 10
46.03112657335069
 20
86.49601236979166
 30
0.0
 10
36.57485622829861
 20
87.76604682074652
 30
0.0
 10
36.22173394097222
 20
87.82495795355902
 30
0.0
 10
35.61505262586805
 20
87.92624376085068
 30
0.0
 10
35.16030002170139
 20
87.66372748480902
 30
0.0
 10
34.50297580295138
 20
88.43163926866319
 30
0.0
 10
32.68241509331597
 20
90.55554063585069
 30
0.0
 10
30.20504692925347
 20
87.06634792751736
 30
0.0
 10
31.87316216362847
 20
86.30773790147569
 30
0.0
 10
33.21623263888888
 20
85.69950629340276
 30
0.0
 10
32.68241509331597
 20
85.95375434027777
 30
0.0
 10
33.08704155815972
 20
85.09437527126735
 30
0.0
 10
33.49166802300347
 20
84.23499620225694
 30
0.0
 10
43.75615776909722
 20
59.91296657986111
 30
0.0
 10
43.75615776909722
 20
59.91296657986111
 30
0.0
 10
43.75615776909722
 20
59.91296657986111
 30
0.0
 10
43.60422905815972
 20
24.72079942491319
 30
0.0
 10
43.60422905815972
 20
24.72079942491319
 30
0.0
 10
43.60422905815972
 20
24.72079942491319
 30
0.0
 10
40.92428927951389
 20
18.40025499131944
 30
0.0
 10
40.92428927951389
 20
18.40025499131944
 30
0.0
 10
40.92428927951389
 20
18.40025499131944
 30
0.0
 10
39.40758599175347
 20
17.84369981553819
 30
0.0
 10
39.40758599175347
 20
17.84369981553819
 30
0.0
 10
39.40758599175347
 20
17.84369981553819
 30
0.0
 10
36.0196790907118
 20
19.20899115668403
 30
0.0
 10
36.0196790907118
 20
19.20899115668403
 30
0.0
 10
36.0196790907118
 20
19.20899115668403
 30
0.0
 10
32.93511284722222
 20
31.44545355902778
 30
0.0
 10
32.5811292860243
 20
32.50740424262153
 30
0.0
 10
32.22714572482639
 20
33.56935492621528
 30
0.0
 10
31.62046440972222
 20
34.58066270616319
 30
0.0
 10
30.86185438368055
 20
35.28862982855902
 30
0.0
 10
30.1037611219618
 20
35.99659695095486
 30
0.0
 10
11.34418267144097
 20
51.82302110460069
 30
0.0
 10
11.34418267144097
 20
51.82302110460069
 30
0.0
 10
11.34418267144097
 20
51.82302110460069
 30
0.0
 10
11.24341362847222
 20
102.9940578884549
 30
0.0
 10
11.24341362847222
 20
102.9940578884549
 30
0.0
 10
11.24341362847222
 20
102.9940578884549
 30
0.0
 10
14.22669406467014
 20
106.0279812282986
 30
0.0
 10
14.22669406467014
 20
106.0279812282986
 30
0.0
 10
14.22669406467014
 20
106.0279812282986
 30
0.0
 10
65.54914279513888
 20
115.1798773871528
 30
0.0
 10
65.54914279513888
 20
115.1798773871528
 30
0.0
 10
65.54914279513888
 20
115.1798773871528
 30
0.0
 10
83.95422092013888
 20
98.99946967230902
 30
0.0
 10
84.56141899956596
 20
98.44343126085069
 30
0.0
 10
85.16810031467013
 20
97.88739284939236
 30
0.0
 10
85.7747816297743
 20
97.3308376736111
 30
0.0
 10
87.54418267144096
 20
97.12878282335069
 30
0.0
 10
89.31410047743054
 20
96.92621120876736
 30
0.0
 10
101.651848687066
 20
95.76349148220486
 30
0.0
 10
101.651848687066
 20
95.76349148220486
 30
0.0
 10
101.651848687066
 20
95.76349148220486
 30
0.0
 10
104.584486219618
 20
92.93162299262151
 30
0.0
 10
104.584486219618
 20
92.93162299262151
 30
0.0
 10
104.584486219618
 20
92.93162299262151
 30
0.0
 10
104.4330742730035
 20
91.97095811631944
 30
0.0
 10
104.4330742730035
 20
91.97095811631944
 30
0.0
 10
104.4330742730035
 20
91.97095811631944
 30
0.0
 10
99.85747070312499
 20
89.54302707248263
 30
0.0
 10
99.85747070312499
 20
89.54302707248263
 30
0.0
 10
99.85747070312499
 20
89.54302707248263
 30
0.0
 10
64.11736111111111
 20
84.40208333333332
 30
0.0
 10
64.11736111111111
 20
84.40208333333332
 30
0.0
 10
64.11736111111111
 20
84.40208333333332
 30
0.0
 10
62.0492702907986
 20
84.34954562717013
 30
0.0
 10
58.82948404947916
 20
84.78069932725694
 30
0.0
  0
SPLINE
  5
A6
330
A
100
AcDbEntity
  8
LAYER_1
 62
     7
100
AcDbSpline
210
0.0
220
0.0
230
1.0
 70
    11
 71
     3
 72
    41
 73
    37
 74
     0
 42
0.0000000001
 43
0.0000000001
 40
0.0
 40
0.0
 40
0.0
 40
0.0
 40
1.0
 40
1.0
 40
1.0
 40
2.0
 40
2.0
 40
2.0
 40
3.0
 40
3.0
 40
3.0
 40
4.0
 40
4.0
 40
4.0
 40
5.0
 40
5.0
 40
5.0
 40
6.0
 40
6.0
 40
6.0
 40
7.0
 40
7.0
 40
7.0
 40
8.0
 40
8.0
 40
8.0
 40
9.0
 40
9.0
 40
9.0
 40
10.0
 40
10.0
 40
10.0
 40
11.0
 40
11.0
 40
11.0
 40
12.0
 40
12.0
 40
12.0
 40
12.0
 10
67.67304416232638
 20
105.244049750434
 30
0.0
 10
67.67304416232638
 20
105.244049750434
 30
0.0
 10
68.05183241102429
 20
105.0166734483507
 30
0.0
 10
68.15311821831597
 20
105.0166734483507
 30
0.0
 10
68.25440402560763
 20
105.0166734483507
 30
0.0
 10
68.45645887586805
 20
105.1686021592882
 30
0.0
 10
68.43113742404513
 20
105.4466213650174
 30
0.0
 10
68.40581597222221
 20
105.7246405707465
 30
0.0
 10
68.17843967013889
 20
106.1039455837674
 30
0.0
 10
68.17843967013889
 20
106.1039455837674
 30
0.0
 10
68.17843967013889
 20
106.1039455837674
 30
0.0
 10
68.43113742404513
 20
106.7612698025174
 30
0.0
 10
68.43113742404513
 20
106.7612698025174
 30
0.0
 10
68.43113742404513
 20
106.7612698025174
 30
0.0
 10
68.02651095920139
 20
106.9886461046007
 30
0.0
 10
68.02651095920139
 20
106.9886461046007
 30
0.0
 10
68.02651095920139
 20
106.9886461046007
 30
0.0
 10
67.59707980685764
 20
106.5085720486111
 30
0.0
 10
67.49579399956596
 20
106.4072862413194
 30
0.0
 10
67.3945081922743
 20
106.3060004340278
 30
0.0
 10
66.88911268446179
 20
106.2553575303819
 30
0.0
 10
66.88911268446179
 20
106.2553575303819
 30
0.0
 10
66.88911268446179
 20
106.2553575303819
 30
0.0
 10
66.68654106987847
 20
105.6486762152778
 30
0.0
 10
66.68654106987847
 20
105.6486762152778
 30
0.0
 10
66.68654106987847
 20
105.6486762152778
 30
0.0
 10
66.96507703993055
 20
105.4466213650174
 30
0.0
 10
66.96507703993055
 20
105.4466213650174
 30
0.0
 10
66.96507703993055
 20
105.4466213650174
 30
0.0
 10
66.81314832899305
 20
104.8146185980903
 30
0.0
 10
66.81314832899305
 20
104.8146185980903
 30
0.0
 10
66.81314832899305
 20
104.8146185980903
 30
0.0
 10
67.3945081922743
 20
104.7386542426215
 30
0.0
 10
67.3945081922743
 20
104.7386542426215
 30
0.0
 10
67.3945081922743
 20
104.7386542426215
 30
0.0
 10
67.67304416232638
 20
105.244049750434
 30
0.0
 10
67.67304416232638
 20
105.244049750434
 30
0.0
  0
SPLINE
  5
A5
330
A
100
AcDbEntity
  8
LAYER_1
 62
     7
100
AcDbSpline
210
0.0
220
0.0
230
1.0
 70
     8
 71
     3
 72
     8
 73
     4
 74
     0
 42
0.0000000001
 43
0.0000000001
 40
0.0
 40
0.0
 40
0.0
 40
0.0
 40
1.0
 40
1.0
 40
1.0
 40
1.0
 10
71.23768446180554
 20
105.9773383246528
 30
0.0
 10
71.18704155815972
 20
105.3959784613715
 30
0.0
 10
71.01030815972221
 20
101.7553738064236
 30
0.0
 10
67.67304416232638
 20
102.0080715603299
 30
0.0
  0
SPLINE
  5
A4
330
A
100
AcDbEntity
  8
LAYER_1
 62
     7
100
AcDbSpline
210
0.0
220
0.0
230
1.0
 70
     8
 71
     3
 72
     8
 73
     4
 74
     0
 42
0.0000000001
 43
0.0000000001
 40
0.0
 40
0.0
 40
0.0
 40
0.0
 40
1.0
 40
1.0
 40
1.0
 40
1.0
 10
69.29103325737847
 20
108.7332424587674
 30
0.0
 10
70.04912651909721
 20
108.505866156684
 30
0.0
 10
70.85837944878472
 20
107.5700059678819
 30
0.0
 10
70.95966525607638
 20
107.1405748155382
 30
0.0
  0
SPLINE
  5
A3
330
A
100
AcDbEntity
  8
LAYER_1
 62
     7
100
AcDbSpline
210
0.0
220
0.0
230
1.0
 70
     8
 71
     3
 72
    11
 73
     7
 74
     0
 42
0.0000000001
 43
0.0000000001
 40
0.0
 40
0.0
 40
0.0
 40
0.0
 40
1.0
 40
1.0
 40
1.0
 40
2.0
 40
2.0
 40
2.0
 40
2.0
 10
69.44244520399305
 20
106.8119127061632
 30
0.0
 10
68.25440402560763
 20
108.6572781032986
 30
0.0
 10
65.79098849826389
 20
106.9509223090278
 30
0.0
 10
66.10518120659722
 20
105.0673163519965
 30
0.0
 10
66.47208387586805
 20
102.8695176866319
 30
0.0
 10
69.29103325737847
 20
102.6400743272569
 30
0.0
 10
69.6703382703993
 20
106.0533026801215
 30
0.0
  0
SPLINE
  5
A2
330
A
100
AcDbEntity
  8
LAYER_1
 62
     7
100
AcDbSpline
210
0.0
220
0.0
230
1.0
 70
    11
 71
     3
 72
    14
 73
    10
 74
     0
 42
0.0000000001
 43
0.0000000001
 40
0.0
 40
0.0
 40
0.0
 40
0.0
 40
1.0
 40
1.0
 40
1.0
 40
2.0
 40
2.0
 40
2.0
 40
3.0
 40
3.0
 40
3.0
 40
3.0
 10
69.13910454644096
 20
101.7553738064236
 30
0.0
 10
71.65316297743055
 20
101.777594672309
 30
0.0
 10
72.34356011284721
 20
105.5427395290799
 30
0.0
 10
71.36377495659721
 20
107.0899319118924
 30
0.0
 10
68.96237114800347
 20
110.8819485134548
 30
0.0
 10
65.80184054904514
 20
107.191217719184
 30
0.0
 10
65.72587619357638
 20
105.5980333116319
 30
0.0
 10
65.65042860243055
 20
104.0053656684028
 30
0.0
 10
66.11034884982638
 20
101.7269517686632
 30
0.0
 10
69.13910454644096
 20
101.7553738064236
 30
0.0
  0
SPLINE
  5
A1
330
A
100
AcDbEntity
  8
LAYER_1
 62
     7
100
AcDbSpline
210
0.0
220
0.0
230
1.0
 70
    11
 71
     3
 72
    41
 73
    37
 74
     0
 42
0.0000000001
 43
0.0000000001
 40
0.0
 40
0.0
 40
0.0
 40
0.0
 40
1.0
 40
1.0
 40
1.0
 40
2.0
 40
2.0
 40
2.0
 40
3.0
 40
3.0
 40
3.0
 40
4.0
 40
4.0
 40
4.0
 40
5.0
 40
5.0
 40
5.0
 40
6.0
 40
6.0
 40
6.0
 40
7.0
 40
7.0
 40
7.0
 40
8.0
 40
8.0
 40
8.0
 40
9.0
 40
9.0
 40
9.0
 40
10.0
 40
10.0
 40
10.0
 40
11.0
 40
11.0
 40
11.0
 40
12.0
 40
12.0
 40
12.0
 40
12.0
 10
45.2346204969618
 20
99.97718777126735
 30
0.0
 10
45.2346204969618
 20
99.97718777126735
 30
0.0
 10
45.61392550998264
 20
99.7492947048611
 30
0.0
 10
45.7152113172743
 20
99.7492947048611
 30
0.0
 10
45.81598036024305
 20
99.7492947048611
 30
0.0
 10
46.01855197482639
 20
99.9012234157986
 30
0.0
 10
45.99323052300347
 20
100.1792426215278
 30
0.0
 10
45.96790907118055
 20
100.4572618272569
 30
0.0
 10
45.74053276909722
 20
100.8365668402778
 30
0.0
 10
45.74053276909722
 20
100.8365668402778
 30
0.0
 10
45.74053276909722
 20
100.8365668402778
 30
0.0
 10
45.99323052300347
 20
101.4938910590278
 30
0.0
 10
45.99323052300347
 20
101.4938910590278
 30
0.0
 10
45.99323052300347
 20
101.4938910590278
 30
0.0
 10
45.58860405815972
 20
101.7212673611111
 30
0.0
 10
45.58860405815972
 20
101.7212673611111
 30
0.0
 10
45.58860405815972
 20
101.7212673611111
 30
0.0
 10
45.15865614149305
 20
101.2411933051215
 30
0.0
 10
45.0578870985243
 20
101.1399074978299
 30
0.0
 10
44.95660129123264
 20
101.0391384548611
 30
0.0
 10
44.45120578342014
 20
100.9884955512153
 30
0.0
 10
44.45120578342014
 20
100.9884955512153
 30
0.0
 10
44.45120578342014
 20
100.9884955512153
 30
0.0
 10
44.2486341688368
 20
100.3818142361111
 30
0.0
 10
44.2486341688368
 20
100.3818142361111
 30
0.0
 10
44.2486341688368
 20
100.3818142361111
 30
0.0
 10
44.52665337456597
 20
100.1792426215278
 30
0.0
 10
44.52665337456597
 20
100.1792426215278
 30
0.0
 10
44.52665337456597
 20
100.1792426215278
 30
0.0
 10
44.37524142795139
 20
99.54723985460069
 30
0.0
 10
44.37524142795139
 20
99.54723985460069
 30
0.0
 10
44.37524142795139
 20
99.54723985460069
 30
0.0
 10
44.95660129123264
 20
99.47127549913193
 30
0.0
 10
44.95660129123264
 20
99.47127549913193
 30
0.0
 10
44.95660129123264
 20
99.47127549913193
 30
0.0
 10
45.2346204969618
 20
99.97718777126735
 30
0.0
 10
45.2346204969618
 20
99.97718777126735
 30
0.0
  0
SPLINE
  5
A0
330
A
100
AcDbEntity
  8
LAYER_1
 62
     7
100
AcDbSpline
210
0.0
220
0.0
230
1.0
 70
     8
 71
     3
 72
     8
 73
     4
 74
     0
 42
0.0000000001
 43
0.0000000001
 40
0.0
 40
0.0
 40
0.0
 40
0.0
 40
1.0
 40
1.0
 40
1.0
 40
1.0
 10
48.79977756076389
 20
100.7104763454861
 30
0.0
 10
48.74913465711805
 20
100.1285997178819
 30
0.0
 10
48.57188449435763
 20
96.48799506293402
 30
0.0
 10
45.2346204969618
 20
96.74069281684027
 30
0.0
  0
SPLINE
  5
9F
330
A
100
AcDbEntity
  8
LAYER_1
 62
     7
100
AcDbSpline
210
0.0
220
0.0
230
1.0
 70
     8
 71
     3
 72
     8
 73
     4
 74
     0
 42
0.0000000001
 43
0.0000000001
 40
0.0
 40
0.0
 40
0.0
 40
0.0
 40
1.0
 40
1.0
 40
1.0
 40
1.0
 10
46.85260959201388
 20
103.4658637152778
 30
0.0
 10
47.61121961805555
 20
103.2384874131944
 30
0.0
 10
48.42047254774305
 20
102.3031439887153
 30
0.0
 10
48.5212415907118
 20
101.8731960720486
 30
0.0
  0
SPLINE
  5
9E
330
A
100
AcDbEntity
  8
LAYER_1
 62
     7
100
AcDbSpline
210
0.0
220
0.0
230
1.0
 70
     8
 71
     3
 72
    11
 73
     7
 74
     0
 42
0.0000000001
 43
0.0000000001
 40
0.0
 40
0.0
 40
0.0
 40
0.0
 40
1.0
 40
1.0
 40
1.0
 40
2.0
 40
2.0
 40
2.0
 40
2.0
 10
47.00453830295138
 20
101.5445339626736
 30
0.0
 10
45.81598036024305
 20
103.3904161241319
 30
0.0
 10
43.35308159722222
 20
101.6835435655382
 30
0.0
 10
43.66727430555555
 20
99.79993760850694
 30
0.0
 10
44.03366021050347
 20
97.60213894314235
 30
0.0
 10
46.85260959201388
 20
97.37321234809026
 30
0.0
 10
47.23191460503472
 20
100.7859239366319
 30
0.0
  0
SPLINE
  5
9D
330
A
100
AcDbEntity
  8
LAYER_1
 62
     7
100
AcDbSpline
210
0.0
220
0.0
230
1.0
 70
    11
 71
     3
 72
    14
 73
    10
 74
     0
 42
0.0000000001
 43
0.0000000001
 40
0.0
 40
0.0
 40
0.0
 40
0.0
 40
1.0
 40
1.0
 40
1.0
 40
2.0
 40
2.0
 40
2.0
 40
3.0
 40
3.0
 40
3.0
 40
3.0
 10
46.7011976453993
 20
96.48799506293402
 30
0.0
 10
49.21525607638888
 20
96.51021592881943
 30
0.0
 10
49.90565321180555
 20
100.2758775499132
 30
0.0
 10
48.92586805555555
 20
101.8225531684028
 30
0.0
 10
46.52394748263888
 20
105.6150865342882
 30
0.0
 10
43.36393364800347
 20
101.9238389756944
 30
0.0
 10
43.28796929253472
 20
100.3311713324653
 30
0.0
 10
43.21200493706597
 20
98.73798692491319
 30
0.0
 10
43.6719251844618
 20
96.4595730251736
 30
0.0
 10
46.7011976453993
 20
96.48799506293402
 30
0.0
  0
SPLINE
  5
9C
330
A
100
AcDbEntity
  8
LAYER_1
 62
     7
100
AcDbSpline
210
0.0
220
0.0
230
1.0
 70
    11
 71
     3
 72
    41
 73
    37
 74
     0
 42
0.0000000001
 43
0.0000000001
 40
0.0
 40
0.0
 40
0.0
 40
0.0
 40
1.0
 40
1.0
 40
1.0
 40
2.0
 40
2.0
 40
2.0
 40
3.0
 40
3.0
 40
3.0
 40
4.0
 40
4.0
 40
4.0
 40
5.0
 40
5.0
 40
5.0
 40
6.0
 40
6.0
 40
6.0
 40
7.0
 40
7.0
 40
7.0
 40
8.0
 40
8.0
 40
8.0
 40
9.0
 40
9.0
 40
9.0
 40
10.0
 40
10.0
 40
10.0
 40
11.0
 40
11.0
 40
11.0
 40
12.0
 40
12.0
 40
12.0
 40
12.0
 10
21.42728814019097
 20
74.58959011501736
 30
0.0
 10
21.42728814019097
 20
74.58959011501736
 30
0.0
 10
21.8065931532118
 20
74.36169704861111
 30
0.0
 10
21.90787896050347
 20
74.36169704861111
 30
0.0
 10
22.00864800347222
 20
74.36169704861111
 30
0.0
 10
22.21121961805556
 20
74.5136257595486
 30
0.0
 10
22.18589816623264
 20
74.79164496527777
 30
0.0
 10
22.16057671440972
 20
75.06966417100693
 30
0.0
 10
21.93268364800347
 20
75.44896918402777
 30
0.0
 10
21.93268364800347
 20
75.44896918402777
 30
0.0
 10
21.93268364800347
 20
75.44896918402777
 30
0.0
 10
22.18589816623264
 20
76.10629340277777
 30
0.0
 10
22.18589816623264
 20
76.10629340277777
 30
0.0
 10
22.18589816623264
 20
76.10629340277777
 30
0.0
 10
21.78127170138889
 20
76.33366970486111
 30
0.0
 10
21.78127170138889
 20
76.33366970486111
 30
0.0
 10
21.78127170138889
 20
76.33366970486111
 30
0.0
 10
21.35132378472222
 20
75.85359564887152
 30
0.0
 10
21.25055474175347
 20
75.75230984157986
 30
0.0
 10
21.14926893446181
 20
75.65154079861111
 30
0.0
 10
20.64335666232639
 20
75.60089789496527
 30
0.0
 10
20.64335666232639
 20
75.60089789496527
 30
0.0
 10
20.64335666232639
 20
75.60089789496527
 30
0.0
 10
20.44130181206597
 20
74.99369981553819
 30
0.0
 10
20.44130181206597
 20
74.99369981553819
 30
0.0
 10
20.44130181206597
 20
74.99369981553819
 30
0.0
 10
20.71932101779514
 20
74.79164496527777
 30
0.0
 10
20.71932101779514
 20
74.79164496527777
 30
0.0
 10
20.71932101779514
 20
74.79164496527777
 30
0.0
 10
20.56739230685764
 20
74.15964219835068
 30
0.0
 10
20.56739230685764
 20
74.15964219835068
 30
0.0
 10
20.56739230685764
 20
74.15964219835068
 30
0.0
 10
21.14926893446181
 20
74.08367784288194
 30
0.0
 10
21.14926893446181
 20
74.08367784288194
 30
0.0
 10
21.14926893446181
 20
74.08367784288194
 30
0.0
 10
21.42728814019097
 20
74.58959011501736
 30
0.0
 10
21.42728814019097
 20
74.58959011501736
 30
0.0
  0
SPLINE
  5
9B
330
A
100
AcDbEntity
  8
LAYER_1
 62
     7
100
AcDbSpline
210
0.0
220
0.0
230
1.0
 70
     8
 71
     3
 72
     8
 73
     4
 74
     0
 42
0.0000000001
 43
0.0000000001
 40
0.0
 40
0.0
 40
0.0
 40
0.0
 40
1.0
 40
1.0
 40
1.0
 40
1.0
 10
24.99192843967014
 20
75.32236192491318
 30
0.0
 10
24.9412855360243
 20
74.74100206163193
 30
0.0
 10
24.7645521375868
 20
71.10039740668402
 30
0.0
 10
21.42728814019097
 20
71.35309516059027
 30
0.0
  0
SPLINE
  5
9A
330
A
100
AcDbEntity
  8
LAYER_1
 62
     7
100
AcDbSpline
210
0.0
220
0.0
230
1.0
 70
     8
 71
     3
 72
     8
 73
     4
 74
     0
 42
0.0000000001
 43
0.0000000001
 40
0.0
 40
0.0
 40
0.0
 40
0.0
 40
1.0
 40
1.0
 40
1.0
 40
1.0
 10
23.04527723524305
 20
78.07826605902777
 30
0.0
 10
23.80388726128472
 20
77.85088975694444
 30
0.0
 10
24.6126234266493
 20
76.91554633246527
 30
0.0
 10
24.71390923394097
 20
76.48559841579861
 30
0.0
  0
SPLINE
  5
99
330
A
100
AcDbEntity
  8
LAYER_1
 62
     7
100
AcDbSpline
210
0.0
220
0.0
230
1.0
 70
     8
 71
     3
 72
    11
 73
     7
 74
     0
 42
0.0000000001
 43
0.0000000001
 40
0.0
 40
0.0
 40
0.0
 40
0.0
 40
1.0
 40
1.0
 40
1.0
 40
2.0
 40
2.0
 40
2.0
 40
2.0
 10
23.19668918185764
 20
76.1569363064236
 30
0.0
 10
22.00864800347222
 20
78.00230170355903
 30
0.0
 10
19.54523247612847
 20
76.29594590928819
 30
0.0
 10
19.85994194878472
 20
74.41233995225694
 30
0.0
 10
20.22632785373264
 20
72.21454128689236
 30
0.0
 10
23.04527723524305
 20
71.98509792751736
 30
0.0
 10
23.42458224826389
 20
75.39832628038194
 30
0.0
  0
SPLINE
  5
98
330
A
100
AcDbEntity
  8
LAYER_1
 62
     7
100
AcDbSpline
210
0.0
220
0.0
230
1.0
 70
    11
 71
     3
 72
    14
 73
    10
 74
     0
 42
0.0000000001
 43
0.0000000001
 40
0.0
 40
0.0
 40
0.0
 40
0.0
 40
1.0
 40
1.0
 40
1.0
 40
2.0
 40
2.0
 40
2.0
 40
3.0
 40
3.0
 40
3.0
 40
3.0
 10
22.89334852430556
 20
71.10039740668402
 30
0.0
 10
25.40740695529514
 20
71.12261827256944
 30
0.0
 10
26.09832085503472
 20
74.88827989366318
 30
0.0
 10
25.11853569878472
 20
76.43495551215277
 30
0.0
 10
22.71661512586805
 20
80.22748887803819
 30
0.0
 10
19.55608452690972
 20
76.53624131944444
 30
0.0
 10
19.48063693576389
 20
74.94357367621527
 30
0.0
 10
19.40467258029514
 20
73.3509060329861
 30
0.0
 10
19.86459282769097
 20
71.0719753689236
 30
0.0
 10
22.89334852430556
 20
71.10039740668402
 30
0.0
  0
SPLINE
  5
97
330
A
100
AcDbEntity
  8
LAYER_1
 62
     7
100
AcDbSpline
210
0.0
220
0.0
230
1.0
 70
    11
 71
     3
 72
    41
 73
    37
 74
     0
 42
0.0000000001
 43
0.0000000001
 40
0.0
 40
0.0
 40
0.0
 40
0.0
 40
1.0
 40
1.0
 40
1.0
 40
2.0
 40
2.0
 40
2.0
 40
3.0
 40
3.0
 40
3.0
 40
4.0
 40
4.0
 40
4.0
 40
5.0
 40
5.0
 40
5.0
 40
6.0
 40
6.0
 40
6.0
 40
7.0
 40
7.0
 40
7.0
 40
8.0
 40
8.0
 40
8.0
 40
9.0
 40
9.0
 40
9.0
 40
10.0
 40
10.0
 40
10.0
 40
11.0
 40
11.0
 40
11.0
 40
12.0
 40
12.0
 40
12.0
 40
12.0
 10
19.53127983940972
 20
50.36057807074652
 30
0.0
 10
19.53127983940972
 20
50.36057807074652
 30
0.0
 10
19.91006808810764
 20
50.13320176866319
 30
0.0
 10
20.0113538953993
 20
50.13320176866319
 30
0.0
 10
20.11263970269097
 20
50.13320176866319
 30
0.0
 10
20.31469455295139
 20
50.28461371527777
 30
0.0
 10
20.28937310112847
 20
50.56263292100694
 30
0.0
 10
20.26456841362847
 20
50.84065212673611
 30
0.0
 10
20.03667534722222
 20
51.21995713975694
 30
0.0
 10
20.03667534722222
 20
51.21995713975694
 30
0.0
 10
20.03667534722222
 20
51.21995713975694
 30
0.0
 10
20.28937310112847
 20
51.87728135850694
 30
0.0
 10
20.28937310112847
 20
51.87728135850694
 30
0.0
 10
20.28937310112847
 20
51.87728135850694
 30
0.0
 10
19.88526340060764
 20
52.10517442491319
 30
0.0
 10
19.88526340060764
 20
52.10517442491319
 30
0.0
 10
19.88526340060764
 20
52.10517442491319
 30
0.0
 10
19.45531548394097
 20
51.62458360460069
 30
0.0
 10
19.3540296766493
 20
51.52329779730902
 30
0.0
 10
19.25274386935764
 20
51.42252875434027
 30
0.0
 10
18.74734836154514
 20
51.37188585069444
 30
0.0
 10
18.74734836154514
 20
51.37188585069444
 30
0.0
 10
18.74734836154514
 20
51.37188585069444
 30
0.0
 10
18.54477674696181
 20
50.76520453559027
 30
0.0
 10
18.54477674696181
 20
50.76520453559027
 30
0.0
 10
18.54477674696181
 20
50.76520453559027
 30
0.0
 10
18.82331271701389
 20
50.56263292100694
 30
0.0
 10
18.82331271701389
 20
50.56263292100694
 30
0.0
 10
18.82331271701389
 20
50.56263292100694
 30
0.0
 10
18.67138400607639
 20
49.93063015407986
 30
0.0
 10
18.67138400607639
 20
49.93063015407986
 30
0.0
 10
18.67138400607639
 20
49.93063015407986
 30
0.0
 10
19.25274386935764
 20
49.85466579861111
 30
0.0
 10
19.25274386935764
 20
49.85466579861111
 30
0.0
 10
19.25274386935764
 20
49.85466579861111
 30
0.0
 10
19.53127983940972
 20
50.36057807074652
 30
0.0
 10
19.53127983940972
 20
50.36057807074652
 30
0.0
  0
SPLINE
  5
96
330
A
100
AcDbEntity
  8
LAYER_1
 62
     7
100
AcDbSpline
210
0.0
220
0.0
230
1.0
 70
     8
 71
     3
 72
     8
 73
     4
 74
     0
 42
0.0000000001
 43
0.0000000001
 40
0.0
 40
0.0
 40
0.0
 40
0.0
 40
1.0
 40
1.0
 40
1.0
 40
1.0
 10
23.09592013888889
 20
51.09386664496527
 30
0.0
 10
23.04527723524305
 20
50.51250678168402
 30
0.0
 10
22.86854383680555
 20
46.87138536241319
 30
0.0
 10
19.53127983940972
 20
47.12408311631944
 30
0.0
  0
SPLINE
  5
95
330
A
100
AcDbEntity
  8
LAYER_1
 62
     7
100
AcDbSpline
210
0.0
220
0.0
230
1.0
 70
     8
 71
     3
 72
     8
 73
     4
 74
     0
 42
0.0000000001
 43
0.0000000001
 40
0.0
 40
0.0
 40
0.0
 40
0.0
 40
1.0
 40
1.0
 40
1.0
 40
1.0
 10
21.14926893446181
 20
53.84925401475694
 30
0.0
 10
21.90736219618055
 20
53.62187771267361
 30
0.0
 10
22.71661512586805
 20
52.68653428819444
 30
0.0
 10
22.81790093315972
 20
52.25658637152777
 30
0.0
  0
SPLINE
  5
94
330
A
100
AcDbEntity
  8
LAYER_1
 62
     7
100
AcDbSpline
210
0.0
220
0.0
230
1.0
 70
     8
 71
     3
 72
    11
 73
     7
 74
     0
 42
0.0000000001
 43
0.0000000001
 40
0.0
 40
0.0
 40
0.0
 40
0.0
 40
1.0
 40
1.0
 40
1.0
 40
2.0
 40
2.0
 40
2.0
 40
2.0
 10
21.30068088107639
 20
51.92792426215277
 30
0.0
 10
20.11263970269097
 20
53.77380642361111
 30
0.0
 10
17.64922417534722
 20
52.06693386501735
 30
0.0
 10
17.96341688368056
 20
50.1833279079861
 30
0.0
 10
18.33031955295139
 20
47.98552924262152
 30
0.0
 10
21.14926893446181
 20
47.75660264756944
 30
0.0
 10
21.52805718315972
 20
51.16931423611111
 30
0.0
  0
SPLINE
  5
93
330
A
100
AcDbEntity
  8
LAYER_1
 62
     7
100
AcDbSpline
210
0.0
220
0.0
230
1.0
 70
    11
 71
     3
 72
    14
 73
    10
 74
     0
 42
0.0000000001
 43
0.0000000001
 40
0.0
 40
0.0
 40
0.0
 40
0.0
 40
1.0
 40
1.0
 40
1.0
 40
2.0
 40
2.0
 40
2.0
 40
3.0
 40
3.0
 40
3.0
 40
3.0
 10
20.9973402235243
 20
46.87138536241319
 30
0.0
 10
23.51139865451389
 20
46.89360622829861
 30
0.0
 10
24.20179578993055
 20
50.65926784939236
 30
0.0
 10
23.22201063368055
 20
52.20594346788194
 30
0.0
 10
20.8206068250868
 20
55.99847683376736
 30
0.0
 10
17.66007622612847
 20
52.3072292751736
 30
0.0
 10
17.58411187065972
 20
50.71456163194444
 30
0.0
 10
17.50866427951389
 20
49.12137722439235
 30
0.0
 10
17.9680677625868
 20
46.84296332465277
 30
0.0
 10
20.9973402235243
 20
46.87138536241319
 30
0.0
  0
SPLINE
  5
92
330
A
100
AcDbEntity
  8
LAYER_1
 62
     7
100
AcDbSpline
210
0.0
220
0.0
230
1.0
 70
     8
 71
     3
 72
     8
 73
     4
 74
     0
 42
0.0000000001
 43
0.0000000001
 40
0.0
 40
0.0
 40
0.0
 40
0.0
 40
1.0
 40
1.0
 40
1.0
 40
1.0
 10
116.416838921441
 20
95.13148871527777
 30
0.0
 10
116.1388197157118
 20
94.27159288194444
 30
0.0
 10
115.6329074435764
 20
93.03290879991319
 30
0.0
 10
115.6582288953993
 20
92.14820827907985
 30
0.0
  0
SPLINE
  5
91
330
A
100
AcDbEntity
  8
LAYER_1
 62
     7
100
AcDbSpline
210
0.0
220
0.0
230
1.0
 70
     8
 71
     3
 72
    11
 73
     7
 74
     0
 42
0.0000000001
 43
0.0000000001
 40
0.0
 40
0.0
 40
0.0
 40
0.0
 40
1.0
 40
1.0
 40
1.0
 40
2.0
 40
2.0
 40
2.0
 40
2.0
 10
115.2282809787326
 20
102.0333930121528
 30
0.0
 10
115.2789238823785
 20
101.0980495876736
 30
0.0
 10
115.1523166232639
 20
99.32813178168402
 30
0.0
 10
115.0515475802951
 20
98.01348334418402
 30
0.0
 10
114.9502617730035
 20
96.69883490668401
 30
0.0
 10
114.7482069227431
 20
93.84216172960069
 30
0.0
 10
114.4701877170139
 20
93.26028510199652
 30
0.0
  0
SPLINE
  5
90
330
A
100
AcDbEntity
  8
LAYER_1
 62
     7
100
AcDbSpline
210
0.0
220
0.0
230
1.0
 70
     8
 71
     3
 72
    11
 73
     7
 74
     0
 42
0.0000000001
 43
0.0000000001
 40
0.0
 40
0.0
 40
0.0
 40
0.0
 40
1.0
 40
1.0
 40
1.0
 40
2.0
 40
2.0
 40
2.0
 40
2.0
 10
113.7115776909722
 20
103.5247748480903
 30
0.0
 10
113.5849704318576
 20
102.0840359157986
 30
0.0
 10
113.458879937066
 20
101.4520331488715
 30
0.0
 10
113.5090060763889
 20
100.2381537543403
 30
0.0
 10
113.5596489800347
 20
99.02479112413194
 30
0.0
 10
113.1297010633681
 20
94.90359564887152
 30
0.0
 10
113.0542534722222
 20
94.5248074001736
 30
0.0
  0
SPLINE
  5
8F
330
A
100
AcDbEntity
  8
LAYER_1
 62
     7
100
AcDbSpline
210
0.0
220
0.0
230
1.0
 70
     8
 71
     3
 72
    11
 73
     7
 74
     0
 42
0.0000000001
 43
0.0000000001
 40
0.0
 40
0.0
 40
0.0
 40
0.0
 40
1.0
 40
1.0
 40
1.0
 40
2.0
 40
2.0
 40
2.0
 40
2.0
 10
111.8910169813368
 20
105.2693712022569
 30
0.0
 10
111.9416598849826
 20
104.1820990668403
 30
0.0
 10
111.790247938368
 20
103.0447007921007
 30
0.0
 10
111.6636406792535
 20
101.6540879991319
 30
0.0
 10
111.5370334201389
 20
100.2634752061632
 30
0.0
 10
111.6383192274305
 20
96.92621120876736
 30
0.0
 10
111.3349785698785
 20
96.29420844184027
 30
0.0
  0
SPLINE
  5
8E
330
A
100
AcDbEntity
  8
LAYER_1
 62
     7
100
AcDbSpline
210
0.0
220
0.0
230
1.0
 70
     8
 71
     3
 72
    11
 73
     7
 74
     0
 42
0.0000000001
 43
0.0000000001
 40
0.0
 40
0.0
 40
0.0
 40
0.0
 40
1.0
 40
1.0
 40
1.0
 40
2.0
 40
2.0
 40
2.0
 40
2.0
 10
110.1717420789931
 20
106.9886461046007
 30
0.0
 10
110.2477064344618
 20
105.8512478298611
 30
0.0
 10
109.8430799696181
 20
105.4719428168403
 30
0.0
 10
109.7423109266493
 20
104.0560085720486
 30
0.0
 10
109.6410251193576
 20
102.6400743272569
 30
0.0
 10
109.7929538302951
 20
98.57003851996527
 30
0.0
 10
109.4896131727431
 20
97.96284044053819
 30
0.0
  0
SPLINE
  5
8D
330
A
100
AcDbEntity
  8
LAYER_1
 62
     7
100
AcDbSpline
210
0.0
220
0.0
230
1.0
 70
     8
 71
     3
 72
    11
 73
     7
 74
     0
 42
0.0000000001
 43
0.0000000001
 40
0.0
 40
0.0
 40
0.0
 40
0.0
 40
1.0
 40
1.0
 40
1.0
 40
2.0
 40
2.0
 40
2.0
 40
2.0
 10
108.6297173394097
 20
108.505866156684
 30
0.0
 10
108.6803602430556
 20
107.0899319118924
 30
0.0
 10
108.7310031467014
 20
106.4072862413194
 30
0.0
 10
108.5031100802951
 20
105.2946926540799
 30
0.0
 10
108.2757337782118
 20
104.1820990668403
 30
0.0
 10
108.3516981336805
 20
100.0867418077257
 30
0.0
 10
108.0483574761285
 20
99.27748887803818
 30
0.0
  0
SPLINE
  5
8C
330
A
100
AcDbEntity
  8
LAYER_1
 62
     7
100
AcDbSpline
210
0.0
220
0.0
230
1.0
 70
     8
 71
     3
 72
    11
 73
     7
 74
     0
 42
0.0000000001
 43
0.0000000001
 40
0.0
 40
0.0
 40
0.0
 40
0.0
 40
1.0
 40
1.0
 40
1.0
 40
2.0
 40
2.0
 40
2.0
 40
2.0
 10
112.4475721571181
 20
104.7386542426215
 30
0.0
 10
113.6356133355035
 20
105.3453355577257
 30
0.0
 10
114.8236545138889
 20
106.2047146267361
 30
0.0
 10
115.6582288953993
 20
106.3060004340278
 30
0.0
 10
116.4922865125868
 20
106.4072862413194
 30
0.0
 10
117.9841851128472
 20
106.0786241319444
 30
0.0
 10
118.8688856336806
 20
107.4945583767361
 30
0.0
  0
SPLINE
  5
8B
330
A
100
AcDbEntity
  8
LAYER_1
 62
     7
100
AcDbSpline
210
0.0
220
0.0
230
1.0
 70
     8
 71
     3
 72
    11
 73
     7
 74
     0
 42
0.0000000001
 43
0.0000000001
 40
0.0
 40
0.0
 40
0.0
 40
0.0
 40
1.0
 40
1.0
 40
1.0
 40
2.0
 40
2.0
 40
2.0
 40
2.0
 10
117.7061659071181
 20
108.7585639105903
 30
0.0
 10
116.3408745659722
 20
108.3286159939236
 30
0.0
 10
116.112981499566
 20
108.2273301866319
 30
0.0
 10
115.430852593316
 20
107.8738633897569
 30
0.0
 10
114.7482069227431
 20
107.5193630642361
 30
0.0
 10
111.4362643771701
 20
106.6853054470486
 30
0.0
 10
111.1076022677951
 20
106.1799099392361
 30
0.0
  0
SPLINE
  5
8A
330
A
100
AcDbEntity
  8
LAYER_1
 62
     7
100
AcDbSpline
210
0.0
220
0.0
230
1.0
 70
     8
 71
     3
 72
    11
 73
     7
 74
     0
 42
0.0000000001
 43
0.0000000001
 40
0.0
 40
0.0
 40
0.0
 40
0.0
 40
1.0
 40
1.0
 40
1.0
 40
2.0
 40
2.0
 40
2.0
 40
2.0
 10
109.6663465711805
 20
107.5700059678819
 30
0.0
 10
110.8797092013889
 20
108.3286159939236
 30
0.0
 10
112.1695529513889
 20
108.7332424587674
 30
0.0
 10
113.2056654188368
 20
109.0872260199653
 30
0.0
 10
114.2422946506076
 20
109.4412095811632
 30
0.0
 10
115.6075859917535
 20
110.0985337999132
 30
0.0
 10
115.9109266493056
 20
110.5031602647569
 30
0.0
  0
LINE
  5
89
330
A
100
AcDbEntity
  8
LAYER_1
 62
     7
100
AcDbLine
 10
107.2644259982639
 20
109.8706407335069
 30
0.0
 11
113.9389539930556
 21
103.3227199978299
 31
0.0
  0
SPLINE
  5
88
330
A
100
AcDbEntity
  8
LAYER_1
 62
     7
100
AcDbSpline
210
0.0
220
0.0
230
1.0
 70
     8
 71
     3
 72
    11
 73
     7
 74
     0
 42
0.0000000001
 43
0.0000000001
 40
0.0
 40
0.0
 40
0.0
 40
0.0
 40
1.0
 40
1.0
 40
1.0
 40
2.0
 40
2.0
 40
2.0
 40
2.0
 10
114.9249403211805
 20
111.5392727322049
 30
0.0
 10
114.3182590060764
 20
111.2359320746528
 30
0.0
 10
114.4195448133681
 20
111.2106106228299
 30
0.0
 10
113.155022515191
 20
110.8318223741319
 30
0.0
 10
111.8910169813368
 20
110.4525173611111
 30
0.0
 10
108.7056816948785
 20
109.2133165147569
 30
0.0
 10
108.4529839409722
 20
108.9859402126736
 30
0.0
  0
SPLINE
  5
87
330
A
100
AcDbEntity
  8
LAYER_1
 62
     7
100
AcDbSpline
210
0.0
220
0.0
230
1.0
 70
     8
 71
     3
 72
    11
 73
     7
 74
     0
 42
0.0000000001
 43
0.0000000001
 40
0.0
 40
0.0
 40
0.0
 40
0.0
 40
1.0
 40
1.0
 40
1.0
 40
2.0
 40
2.0
 40
2.0
 40
2.0
 10
106.8096733940972
 20
110.149176703559
 30
0.0
 10
107.4669976128472
 20
110.5279649522569
 30
0.0
 10
109.539739312066
 20
111.4131822374132
 30
0.0
 10
110.3489922417535
 20
111.5645941840278
 30
0.0
 10
111.157728407118
 20
111.7165228949653
 30
0.0
 10
113.3829155815972
 20
112.3485256618924
 30
0.0
 10
113.7368991427951
 20
112.7025092230903
 30
0.0
  0
SPLINE
  5
86
330
A
100
AcDbEntity
  8
LAYER_1
 62
     7
100
AcDbSpline
210
0.0
220
0.0
230
1.0
 70
     8
 71
     3
 72
    11
 73
     7
 74
     0
 42
0.0000000001
 43
0.0000000001
 40
0.0
 40
0.0
 40
0.0
 40
0.0
 40
1.0
 40
1.0
 40
1.0
 40
2.0
 40
2.0
 40
2.0
 40
2.0
 10
112.2450005425347
 20
114.2197292751736
 30
0.0
 10
111.486907280816
 20
113.9158718532986
 30
0.0
 10
110.7531019422743
 20
113.5618882921007
 30
0.0
 10
109.6157036675347
 20
113.1324571397569
 30
0.0
 10
108.4777886284722
 20
112.7025092230903
 30
0.0
 10
104.8630221896701
 20
111.8932562934028
 30
0.0
 10
104.5085218641493
 20
111.2865749782986
 30
0.0
  0
SPLINE
  5
85
330
A
100
AcDbEntity
  8
LAYER_1
 62
     7
100
AcDbSpline
210
0.0
220
0.0
230
1.0
 70
     8
 71
     3
 72
    11
 73
     7
 74
     0
 42
0.0000000001
 43
0.0000000001
 40
0.0
 40
0.0
 40
0.0
 40
0.0
 40
1.0
 40
1.0
 40
1.0
 40
2.0
 40
2.0
 40
2.0
 40
2.0
 10
112.6496270073785
 20
121.3743313259549
 30
0.0
 10
112.3209648980035
 20
120.3883449978299
 30
0.0
 10
112.4475721571181
 20
120.0850043402778
 30
0.0
 10
112.497698296441
 20
118.7956773546007
 30
0.0
 10
112.5483412000868
 20
117.5058336046007
 30
0.0
 10
112.8770033094618
 20
114.6491604275173
 30
0.0
 10
112.5230197482639
 20
114.093122016059
 30
0.0
  0
SPLINE
  5
84
330
A
100
AcDbEntity
  8
LAYER_1
 62
     7
100
AcDbSpline
210
0.0
220
0.0
230
1.0
 70
     8
 71
     3
 72
    11
 73
     7
 74
     0
 42
0.0000000001
 43
0.0000000001
 40
0.0
 40
0.0
 40
0.0
 40
0.0
 40
1.0
 40
1.0
 40
1.0
 40
2.0
 40
2.0
 40
2.0
 40
2.0
 10
114.5709567599826
 20
119.351715766059
 30
0.0
 10
114.0903659396701
 20
118.3150865342882
 30
0.0
 10
114.4195448133681
 20
117.7590481228299
 30
0.0
 10
114.3182590060764
 20
116.7477403428819
 30
0.0
 10
114.2169731987847
 20
115.736432562934
 30
0.0
 10
114.2929375542535
 20
112.8544379340278
 30
0.0
 10
114.0402398003472
 20
112.5505805121528
 30
0.0
  0
SPLINE
  5
83
330
A
100
AcDbEntity
  8
LAYER_1
 62
     7
100
AcDbSpline
210
0.0
220
0.0
230
1.0
 70
     8
 71
     3
 72
    11
 73
     7
 74
     0
 42
0.0000000001
 43
0.0000000001
 40
0.0
 40
0.0
 40
0.0
 40
0.0
 40
1.0
 40
1.0
 40
1.0
 40
2.0
 40
2.0
 40
2.0
 40
2.0
 10
116.1636244032118
 20
117.708405219184
 30
0.0
 10
115.9109266493056
 20
117.0004380967882
 30
0.0
 10
115.8602837456597
 20
116.4443996853299
 30
0.0
 10
115.7848361545139
 20
115.5338609483507
 30
0.0
 10
115.7088717990451
 20
114.6238389756944
 30
0.0
 10
115.3042453342014
 20
111.8684516059028
 30
0.0
 10
115.126995171441
 20
111.4891465928819
 30
0.0
  0
LINE
  5
82
330
A
100
AcDbEntity
  8
LAYER_1
 62
     7
100
AcDbLine
 10
111.157728407118
 20
115.3064846462674
 30
0.0
 11
116.5935723198785
 21
109.9719265407986
 31
0.0
  0
SPLINE
  5
81
330
A
100
AcDbEntity
  8
LAYER_1
 62
     7
100
AcDbSpline
210
0.0
220
0.0
230
1.0
 70
     8
 71
     3
 72
    14
 73
    10
 74
     0
 42
0.0000000001
 43
0.0000000001
 40
0.0
 40
0.0
 40
0.0
 40
0.0
 40
1.0
 40
1.0
 40
1.0
 40
2.0
 40
2.0
 40
2.0
 40
3.0
 40
3.0
 40
3.0
 40
3.0
 10
110.9809950086806
 20
123.0936062282986
 30
0.0
 10
110.9809950086806
 20
122.2843532986111
 30
0.0
 10
111.0569593641493
 20
121.3996527777778
 30
0.0
 10
110.9303521050347
 20
120.6916856553819
 30
0.0
 10
110.8042616102431
 20
119.9837185329861
 30
0.0
 10
110.6270114474826
 20
119.2757514105903
 30
0.0
 10
110.6523328993056
 20
118.7450344509549
 30
0.0
 10
110.6776543511285
 20
118.2143174913194
 30
0.0
 10
111.0063164605035
 20
116.5451687282986
 30
0.0
 10
110.6523328993056
 20
115.7111111111111
 30
0.0
  0
SPLINE
  5
80
330
A
100
AcDbEntity
  8
LAYER_1
 62
     7
100
AcDbSpline
210
0.0
220
0.0
230
1.0
 70
     8
 71
     3
 72
    14
 73
    10
 74
     0
 42
0.0000000001
 43
0.0000000001
 40
0.0
 40
0.0
 40
0.0
 40
0.0
 40
1.0
 40
1.0
 40
1.0
 40
2.0
 40
2.0
 40
2.0
 40
3.0
 40
3.0
 40
3.0
 40
3.0
 10
109.0343438042535
 20
125.2423122829861
 30
0.0
 10
108.8570936414931
 20
124.1803615993924
 30
0.0
 10
109.0090223524306
 20
124.1803615993924
 30
0.0
 10
109.1356296115451
 20
123.4723944769965
 30
0.0
 10
109.2617201063368
 20
122.7649441189236
 30
0.0
 10
109.4136488172743
 20
120.9697048611111
 30
0.0
 10
109.1356296115451
 20
119.8571112738715
 30
0.0
 10
108.8570936414931
 20
118.7450344509549
 30
0.0
 10
108.882415093316
 20
117.5058336046007
 30
0.0
 10
109.0849867078993
 20
116.5704901801215
 30
0.0
  0
LWPOLYLINE
  5
77
330
A
100
AcDbEntity
  8
LAYER_1
 62
     7
100
AcDbPolyline
 90
        7
 70
     0
 43
0.0
 10
116.3661960177951
 20
91.38959825303819
 10
107.1130140516493
 20
100.2381537543403
 10
107.2644259982639
 20
109.8706407335069
 10
102.8398898654514
 20
112.0958279079861
 10
111.183049858941
 20
115.3064846462674
 10
107.3657118055556
 20
117.5817979600694
 10
107.3403903537326
 20
127.0122300889757
  0
SPLINE
  5
76
330
A
100
AcDbEntity
  8
LAYER_1
 62
     7
100
AcDbSpline
210
0.0
220
0.0
230
1.0
 70
     8
 71
     3
 72
     8
 73
     4
 74
     0
 42
0.0000000001
 43
0.0000000001
 40
0.0
 40
0.0
 40
0.0
 40
0.0
 40
1.0
 40
1.0
 40
1.0
 40
1.0
 10
100.2612358940972
 20
93.18483751085068
 30
0.0
 10
101.0451673719618
 20
92.93162299262151
 30
0.0
 10
101.7531344943576
 20
92.67892523871527
 30
0.0
 10
101.8037773980035
 20
92.19885118272569
 30
0.0
  0
SPLINE
  5
75
330
A
100
AcDbEntity
  8
LAYER_1
 62
     7
100
AcDbSpline
210
0.0
220
0.0
230
1.0
 70
     8
 71
     3
 72
     8
 73
     4
 74
     0
 42
0.0000000001
 43
0.0000000001
 40
0.0
 40
0.0
 40
0.0
 40
0.0
 40
1.0
 40
1.0
 40
1.0
 40
1.0
 10
94.85123019748264
 20
91.54101019965277
 30
0.0
 10
94.24454888237847
 20
93.63959011501736
 30
0.0
 10
98.36522759331596
 20
93.66491156684027
 30
0.0
 10
98.99723036024305
 20
93.46285671657985
 30
0.0
  0
SPLINE
  5
74
330
A
100
AcDbEntity
  8
LAYER_1
 62
     7
100
AcDbSpline
210
0.0
220
0.0
230
1.0
 70
    11
 71
     3
 72
    23
 73
    19
 74
     0
 42
0.0000000001
 43
0.0000000001
 40
0.0
 40
0.0
 40
0.0
 40
0.0
 40
1.0
 40
1.0
 40
1.0
 40
2.0
 40
2.0
 40
2.0
 40
3.0
 40
3.0
 40
3.0
 40
4.0
 40
4.0
 40
4.0
 40
5.0
 40
5.0
 40
5.0
 40
6.0
 40
6.0
 40
6.0
 40
6.0
 10
98.56728244357637
 20
90.95965033637152
 30
0.0
 10
98.69388970269097
 20
91.06093614366318
 30
0.0
 10
99.12383761935763
 20
91.49088406032985
 30
0.0
 10
99.14915907118055
 20
91.61697455512152
 30
0.0
 10
99.17448052300347
 20
91.74358181423611
 30
0.0
 10
100.0338595920139
 20
91.46556260850694
 30
0.0
 10
99.52846408420137
 20
90.83355984157986
 30
0.0
 10
99.02255181206597
 20
90.20155707465277
 30
0.0
 10
98.79517550998263
 20
90.40361192491319
 30
0.0
 10
98.66856825086805
 20
90.40361192491319
 30
0.0
 10
98.54196099175347
 20
90.40361192491319
 30
0.0
 10
97.67638075086805
 20
90.54882269965277
 30
0.0
 10
97.48052707248263
 20
90.73227403428818
 30
0.0
 10
96.69659559461805
 20
91.46556260850694
 30
0.0
 10
97.45520562065971
 20
91.61697455512152
 30
0.0
 10
97.68258192274304
 20
91.46556260850694
 30
0.0
 10
97.90995822482638
 20
91.31363389756943
 30
0.0
 10
98.44119194878472
 20
90.85888129340277
 30
0.0
 10
98.56728244357637
 20
90.95965033637152
 30
0.0
  0
SPLINE
  5
73
330
A
100
AcDbEntity
  8
LAYER_1
 62
     7
100
AcDbSpline
210
0.0
220
0.0
230
1.0
 70
     8
 71
     3
 72
     8
 73
     4
 74
     0
 42
0.0000000001
 43
0.0000000001
 40
0.0
 40
0.0
 40
0.0
 40
0.0
 40
1.0
 40
1.0
 40
1.0
 40
1.0
 10
99.95789523654513
 20
92.14820827907985
 30
0.0
 10
100.6405409071181
 20
91.97095811631944
 30
0.0
 10
101.5510796440972
 20
91.31363389756943
 30
0.0
 10
100.7924696180556
 20
90.88420274522569
 30
0.0
  0
SPLINE
  5
72
330
A
100
AcDbEntity
  8
LAYER_1
 62
     7
100
AcDbSpline
210
0.0
220
0.0
230
1.0
 70
     8
 71
     3
 72
     8
 73
     4
 74
     0
 42
0.0000000001
 43
0.0000000001
 40
0.0
 40
0.0
 40
0.0
 40
0.0
 40
1.0
 40
1.0
 40
1.0
 40
1.0
 10
95.93798556857638
 20
90.9095241970486
 30
0.0
 10
95.10392795138888
 20
91.64229600694443
 30
0.0
 10
96.51986219618054
 20
92.98226589626735
 30
0.0
 10
98.94658745659721
 20
92.62828233506944
 30
0.0
  0
SPLINE
  5
71
330
A
100
AcDbEntity
  8
LAYER_1
 62
     7
100
AcDbSpline
210
0.0
220
0.0
230
1.0
 70
    11
 71
     3
 72
    23
 73
    19
 74
     0
 42
0.0000000001
 43
0.0000000001
 40
0.0
 40
0.0
 40
0.0
 40
0.0
 40
1.0
 40
1.0
 40
1.0
 40
2.0
 40
2.0
 40
2.0
 40
3.0
 40
3.0
 40
3.0
 40
4.0
 40
4.0
 40
4.0
 40
5.0
 40
5.0
 40
5.0
 40
6.0
 40
6.0
 40
6.0
 40
6.0
 10
99.70519748263888
 20
90.53021918402777
 30
0.0
 10
100.3118787977431
 20
90.65630967881944
 30
0.0
 10
101.5257581922743
 20
90.85888129340277
 30
0.0
 10
101.7278130425347
 20
91.69293891059027
 30
0.0
 10
101.9298678927951
 20
92.52699652777777
 30
0.0
 10
101.9567396375868
 20
93.3124782986111
 30
0.0
 10
101.1970960828993
 20
93.7155544704861
 30
0.0
 10
99.85660942925347
 20
94.42352159288194
 30
0.0
 10
97.22782931857638
 20
94.87879096137152
 30
0.0
 10
95.10392795138888
 20
93.58894721137152
 30
0.0
 10
94.52876925998262
 20
93.23858100043402
 30
0.0
 10
94.37063937717014
 20
91.86967230902776
 30
0.0
 10
94.87655164930554
 20
91.36427680121527
 30
0.0
 10
95.20779758029514
 20
91.03251410590276
 30
0.0
 10
96.56998833550347
 20
90.50489773220485
 30
0.0
 10
97.20250786675346
 20
90.40361192491319
 30
0.0
 10
97.83451063368055
 20
90.30232611762152
 30
0.0
 10
99.09851616753471
 20
90.40361192491319
 30
0.0
 10
99.70519748263888
 20
90.53021918402777
 30
0.0
  0
LINE
  5
70
330
A
100
AcDbEntity
  8
LAYER_1
 62
     7
100
AcDbLine
 10
87.84804009331596
 20
97.12878282335069
 30
0.0
 11
107.1130140516493
 21
100.2634752061632
 31
0.0
  0
LINE
  5
6F
330
A
100
AcDbEntity
  8
LAYER_1
 62
     7
100
AcDbLine
 10
101.3991509331597
 20
95.81413438585068
 30
0.0
 11
101.2472222222222
 21
94.8534695095486
 31
0.0
  0
SPLINE
  5
6E
330
A
100
AcDbEntity
  8
LAYER_1
 62
     7
100
AcDbSpline
210
0.0
220
0.0
230
1.0
 70
     8
 71
     3
 72
    14
 73
    10
 74
     0
 42
0.0000000001
 43
0.0000000001
 40
0.0
 40
0.0
 40
0.0
 40
0.0
 40
1.0
 40
1.0
 40
1.0
 40
2.0
 40
2.0
 40
2.0
 40
3.0
 40
3.0
 40
3.0
 40
3.0
 10
85.1174574110243
 20
97.98816189236111
 30
0.0
 10
85.57272677951389
 20
97.28019476996526
 30
0.0
 10
85.72413872612846
 20
96.52210150824652
 30
0.0
 10
87.29148491753472
 20
96.31952989366319
 30
0.0
 10
88.85934787326389
 20
96.11747504340276
 30
0.0
 10
101.297865125868
 20
94.80282660590277
 30
0.0
 10
101.297865125868
 20
94.80282660590277
 30
0.0
 10
101.297865125868
 20
94.80282660590277
 30
0.0
 10
104.4222222222222
 20
91.98680555555555
 30
0.0
 10
104.4222222222222
 20
91.98680555555555
 30
0.0
  0
LINE
  5
6D
330
A
100
AcDbEntity
  8
LAYER_1
 62
     7
100
AcDbLine
 10
39.9760267469618
 20
88.9437527126736
 30
0.0
 11
82.03444146050346
 21
95.39503851996527
 31
0.0
  0
LINE
  5
6C
330
A
100
AcDbEntity
  8
LAYER_1
 62
     7
100
AcDbLine
 10
37.63766818576389
 20
88.58305121527776
 30
0.0
 11
38.90839165581597
 21
88.78097195095485
 31
0.0
  0
LINE
  5
6B
330
A
100
AcDbEntity
  8
LAYER_1
 62
     7
100
AcDbLine
 10
83.39818250868055
 20
95.60226101345485
 30
0.0
 11
84.4601331922743
 21
95.76349148220486
 31
0.0
  0
LINE
  5
6A
330
A
100
AcDbEntity
  8
LAYER_1
 62
     7
100
AcDbLine
 10
38.60970187717014
 20
89.61502956814235
 30
0.0
 11
81.88457980685763
 21
96.23581407335068
 31
0.0
  0
LINE
  5
69
330
A
100
AcDbEntity
  8
LAYER_1
 62
     7
100
AcDbLine
 10
36.17109103732638
 20
89.24037543402777
 30
0.0
 11
37.1792982313368
 21
89.39695502387151
 31
0.0
  0
LINE
  5
68
330
A
100
AcDbEntity
  8
LAYER_1
 62
     7
100
AcDbLine
 10
82.89588758680554
 20
96.38929307725694
 30
0.0
 11
84.10614963107638
 21
96.57222764756943
 31
0.0
  0
SPLINE
  5
67
330
A
100
AcDbEntity
  8
LAYER_1
 62
     7
100
AcDbSpline
210
0.0
220
0.0
230
1.0
 70
    11
 71
     3
 72
    20
 73
    16
 74
     0
 42
0.0000000001
 43
0.0000000001
 40
0.0
 40
0.0
 40
0.0
 40
0.0
 40
1.0
 40
1.0
 40
1.0
 40
2.0
 40
2.0
 40
2.0
 40
3.0
 40
3.0
 40
3.0
 40
4.0
 40
4.0
 40
4.0
 40
5.0
 40
5.0
 40
5.0
 40
5.0
 10
57.30726860894097
 20
88.73497992621527
 30
0.0
 10
59.38001030815972
 20
88.6336941189236
 30
0.0
 10
61.35249972873263
 20
87.92624376085068
 30
0.0
 10
60.89723036024305
 20
86.61107855902777
 30
0.0
 10
60.44196099175347
 20
85.29643012152776
 30
0.0
 10
58.72320285373263
 20
84.63910590277777
 30
0.0
 10
57.61060926649305
 20
84.58846299913193
 30
0.0
 10
56.49801567925347
 20
84.53833685980902
 30
0.0
 10
54.37463107638889
 20
85.09437527126735
 30
0.0
 10
54.07077365451389
 20
85.44835883246527
 30
0.0
 10
53.76794976128472
 20
85.80234239366318
 30
0.0
 10
53.51473524305555
 20
86.71236436631943
 30
0.0
 10
53.9193617078993
 20
87.42033148871526
 30
0.0
 10
54.32398817274305
 20
88.12829861111111
 30
0.0
 10
55.2340101453993
 20
88.83626573350693
 30
0.0
 10
57.30726860894097
 20
88.73497992621527
 30
0.0
  0
LINE
  5
66
330
A
100
AcDbEntity
  8
LAYER_1
 62
     7
100
AcDbLine
 10
31.6664564344618
 20
39.53746609157986
 30
0.0
 11
31.62046440972222
 21
83.73063422309028
 31
0.0
  0
LINE
  5
65
330
A
100
AcDbEntity
  8
LAYER_1
 62
     7
100
AcDbLine
 10
31.67110731336805
 20
37.05803087022569
 30
0.0
 11
31.6664564344618
 21
38.52615831163194
 31
0.0
  0
LINE
  5
64
330
A
100
AcDbEntity
  8
LAYER_1
 62
     7
100
AcDbLine
 10
32.67776421440972
 20
39.38605414496527
 30
0.0
 11
32.63177218967014
 21
83.02266710069443
 31
0.0
  0
LINE
  5
63
330
A
100
AcDbEntity
  8
LAYER_1
 62
     7
100
AcDbLine
 10
32.68241509331597
 20
36.50199245876735
 30
0.0
 11
32.67776421440972
 21
38.17217475043402
 31
0.0
  0
LINE
  5
62
330
A
100
AcDbEntity
  8
LAYER_1
 62
     7
100
AcDbLine
 10
32.63177218967014
 20
83.88256293402777
 30
0.0
 11
32.63177218967014
 21
84.84167751736111
 31
0.0
  0
LINE
  5
61
330
A
100
AcDbEntity
  8
LAYER_1
 62
     7
100
AcDbLine
 10
31.62046440972222
 20
84.33731553819443
 30
0.0
 11
31.62046440972222
 21
85.39771592881944
 31
0.0
  0
LINE
  5
60
330
A
100
AcDbEntity
  8
LAYER_1
 62
     7
100
AcDbLine
 10
31.4184095594618
 20
12.73651801215278
 30
0.0
 11
31.51917860243055
 21
34.37860785590277
 31
0.0
  0
SPLINE
  5
5F
330
A
100
AcDbEntity
  8
LAYER_1
 62
     7
100
AcDbSpline
210
0.0
220
0.0
230
1.0
 70
     8
 71
     3
 72
    11
 73
     7
 74
     0
 42
0.0000000001
 43
0.0000000001
 40
0.0
 40
0.0
 40
0.0
 40
0.0
 40
1.0
 40
1.0
 40
1.0
 40
2.0
 40
2.0
 40
2.0
 40
2.0
 10
14.15072970920139
 20
9.071108669704861
 30
0.0
 10
14.83337537977431
 20
9.449896918402777
 30
0.0
 10
14.78273247612847
 20
9.677789984809026
 30
0.0
 10
15.41473524305556
 20
9.627147081163194
 30
0.0
 10
16.04673800998264
 20
9.576504177517361
 30
0.0
 10
16.02141655815972
 20
9.50053982204861
 30
0.0
 10
16.12270236545139
 20
9.627147081163194
 30
0.0
  0
SPLINE
  5
5E
330
A
100
AcDbEntity
  8
LAYER_1
 62
     7
100
AcDbSpline
210
0.0
220
0.0
230
1.0
 70
     8
 71
     3
 72
    11
 73
     7
 74
     0
 42
0.0000000001
 43
0.0000000001
 40
0.0
 40
0.0
 40
0.0
 40
0.0
 40
1.0
 40
1.0
 40
1.0
 40
2.0
 40
2.0
 40
2.0
 40
2.0
 10
11.16744927300347
 20
9.98113064236111
 30
0.0
 10
12.5327406141493
 20
10.15786404079861
 30
0.0
 10
12.83608127170139
 20
10.41107855902778
 30
0.0
 10
13.6954603407118
 20
10.38575710720486
 30
0.0
 10
14.55535617404514
 20
10.36043565538194
 30
0.0
 10
15.51602105034722
 20
10.56249050564236
 30
0.0
 10
15.6674329969618
 20
10.66377631293403
 30
0.0
  0
SPLINE
  5
5D
330
A
100
AcDbEntity
  8
LAYER_1
 62
     7
100
AcDbSpline
210
0.0
220
0.0
230
1.0
 70
     8
 71
     3
 72
    11
 73
     7
 74
     0
 42
0.0000000001
 43
0.0000000001
 40
0.0
 40
0.0
 40
0.0
 40
0.0
 40
1.0
 40
1.0
 40
1.0
 40
2.0
 40
2.0
 40
2.0
 40
2.0
 10
22.19830050998264
 20
14.49093288845486
 30
0.0
 10
21.38904758029514
 20
14.00104031032986
 30
0.0
 10
20.29402398003472
 20
11.76035020616319
 30
0.0
 10
20.12504204644097
 20
10.95109727647569
 30
0.0
 10
19.95606011284722
 20
10.14236111111111
 30
0.0
 10
18.71065809461805
 20
7.12549099392361
 30
0.0
 10
18.47398003472222
 20
6.855740017361111
 30
0.0
  0
SPLINE
  5
5C
330
A
100
AcDbEntity
  8
LAYER_1
 62
     7
100
AcDbSpline
210
0.0
220
0.0
230
1.0
 70
     8
 71
     3
 72
    11
 73
     7
 74
     0
 42
0.0000000001
 43
0.0000000001
 40
0.0
 40
0.0
 40
0.0
 40
0.0
 40
1.0
 40
1.0
 40
1.0
 40
2.0
 40
2.0
 40
2.0
 40
2.0
 10
20.29402398003472
 20
6.282131618923611
 30
0.0
 10
20.58031141493055
 20
7.326512315538194
 30
0.0
 10
20.7492933485243
 20
8.75794949001736
 30
0.0
 10
21.25520562065972
 20
9.349127875434027
 30
0.0
 10
21.76060112847222
 20
9.939789496527776
 30
0.0
 10
22.56778700086806
 20
12.82230088975694
 30
0.0
 10
22.83857150607639
 20
13.36076931423611
 30
0.0
  0
SPLINE
  5
5B
330
A
100
AcDbEntity
  8
LAYER_1
 62
     7
100
AcDbSpline
210
0.0
220
0.0
230
1.0
 70
     8
 71
     3
 72
    11
 73
     7
 74
     0
 42
0.0000000001
 43
0.0000000001
 40
0.0
 40
0.0
 40
0.0
 40
0.0
 40
1.0
 40
1.0
 40
1.0
 40
2.0
 40
2.0
 40
2.0
 40
2.0
 10
24.49118381076389
 20
11.72572699652778
 30
0.0
 10
24.0359144422743
 20
10.79968532986111
 30
0.0
 10
23.63128797743055
 20
10.53096788194444
 30
0.0
 10
23.51294894748264
 20
9.434393988715277
 30
0.0
 10
23.39460991753472
 20
8.33782009548611
 30
0.0
 10
22.78741183810764
 20
6.131753200954861
 30
0.0
 10
22.19830050998264
 20
5.743146430121527
 30
0.0
  0
SPLINE
  5
5A
330
A
100
AcDbEntity
  8
LAYER_1
 62
     7
100
AcDbSpline
210
0.0
220
0.0
230
1.0
 70
     8
 71
     3
 72
    11
 73
     7
 74
     0
 42
0.0000000001
 43
0.0000000001
 40
0.0
 40
0.0
 40
0.0
 40
0.0
 40
1.0
 40
1.0
 40
1.0
 40
2.0
 40
2.0
 40
2.0
 40
2.0
 10
26.04096001519097
 20
11.20431179470486
 30
0.0
 10
25.68697645399305
 20
10.20850694444444
 30
0.0
 10
25.4187757703993
 20
10.20850694444444
 30
0.0
 10
25.40120578342014
 20
9.518109809027777
 30
0.0
 10
25.38363579644097
 20
8.82771267361111
 30
0.0
 10
24.23796929253472
 20
5.540574815538194
 30
0.0
 10
24.01886121961805
 20
5.237750922309028
 30
0.0
  0
SPLINE
  5
59
330
A
100
AcDbEntity
  8
LAYER_1
 62
     7
100
AcDbSpline
210
0.0
220
0.0
230
1.0
 70
     8
 71
     3
 72
    11
 73
     7
 74
     0
 42
0.0000000001
 43
0.0000000001
 40
0.0
 40
0.0
 40
0.0
 40
0.0
 40
1.0
 40
1.0
 40
1.0
 40
2.0
 40
2.0
 40
2.0
 40
2.0
 10
28.16486138237847
 20
10.46120469835069
 30
0.0
 10
27.6418958875868
 20
9.670038519965276
 30
0.0
 10
27.35715874565972
 20
9.230272081163193
 30
0.0
 10
27.17112358940972
 20
8.439105902777778
 30
0.0
 10
26.9845716688368
 20
7.647422960069444
 30
0.0
 10
26.36187065972222
 20
5.103392198350694
 30
0.0
 10
25.70454644097222
 20
4.681195746527777
 30
0.0
  0
SPLINE
  5
58
330
A
100
AcDbEntity
  8
LAYER_1
 62
     7
100
AcDbSpline
210
0.0
220
0.0
230
1.0
 70
     8
 71
     3
 72
    20
 73
    16
 74
     0
 42
0.0000000001
 43
0.0000000001
 40
0.0
 40
0.0
 40
0.0
 40
0.0
 40
1.0
 40
1.0
 40
1.0
 40
2.0
 40
2.0
 40
2.0
 40
3.0
 40
3.0
 40
3.0
 40
4.0
 40
4.0
 40
4.0
 40
5.0
 40
5.0
 40
5.0
 40
5.0
 10
27.37317843967014
 20
4.107587348090277
 30
0.0
 10
27.67651909722222
 20
4.815554470486111
 30
0.0
 10
28.01293267144097
 20
5.38916286892361
 30
0.0
 10
28.26614718967014
 20
6.079560004340277
 30
0.0
 10
28.51884494357639
 20
6.769957139756944
 30
0.0
 10
29.05783013237847
 20
8.372443305121527
 30
0.0
 10
29.59784884982639
 20
10.00645209418403
 30
0.0
 10
29.88568657769097
 20
10.32529568142361
 30
0.0
 10
31.40083957248264
 20
10.42813178168403
 30
0.0
 10
31.99046766493055
 20
10.63018663194444
 30
0.0
 10
32.57957899305556
 20
10.83275824652778
 30
0.0
 10
33.4058851453993
 20
10.91647406684028
 30
0.0
 10
34.24976128472222
 20
10.78211534288194
 30
0.0
 10
35.09363742404513
 20
10.64775661892361
 30
0.0
 10
35.29465874565972
 20
10.86583116319444
 30
0.0
 10
35.96903618706597
 20
11.15366889105903
 30
0.0
  0
SPLINE
  5
57
330
A
100
AcDbEntity
  8
LAYER_1
 62
     7
100
AcDbSpline
210
0.0
220
0.0
230
1.0
 70
     8
 71
     3
 72
    11
 73
     7
 74
     0
 42
0.0000000001
 43
0.0000000001
 40
0.0
 40
0.0
 40
0.0
 40
0.0
 40
1.0
 40
1.0
 40
1.0
 40
2.0
 40
2.0
 40
2.0
 40
2.0
 10
34.03013644748263
 20
8.473729112413194
 30
0.0
 10
34.72105034722222
 20
9.012714301215278
 30
0.0
 10
36.44187554253472
 20
9.16257595486111
 30
0.0
 10
36.87905815972222
 20
9.146556260850694
 30
0.0
 10
37.31675754123263
 20
9.131053331163194
 30
0.0
 10
39.62411024305555
 20
8.811692979600693
 30
0.0
 10
40.48503960503472
 20
9.620945909288194
 30
0.0
  0
SPLINE
  5
56
330
A
100
AcDbEntity
  8
LAYER_1
 62
     7
100
AcDbSpline
210
0.0
220
0.0
230
1.0
 70
     8
 71
     3
 72
    14
 73
    10
 74
     0
 42
0.0000000001
 43
0.0000000001
 40
0.0
 40
0.0
 40
0.0
 40
0.0
 40
1.0
 40
1.0
 40
1.0
 40
2.0
 40
2.0
 40
2.0
 40
3.0
 40
3.0
 40
3.0
 40
3.0
 10
38.49756401909722
 20
10.30979275173611
 30
0.0
 10
37.84023980034722
 20
10.02350531684028
 30
0.0
 10
37.89036593967013
 20
9.823000759548611
 30
0.0
 10
37.13227267795138
 20
9.889146592881943
 30
0.0
 10
36.37366265190972
 20
9.955809190538194
 30
0.0
 10
36.13801812065972
 20
9.870543077256944
 30
0.0
 10
35.46364067925347
 20
9.753754340277776
 30
0.0
 10
34.78874647352431
 20
9.636448838975694
 30
0.0
 10
32.26228569878472
 20
9.788377549913193
 30
0.0
 10
31.62046440972222
 20
9.265412055121526
 30
0.0
  0
SPLINE
  5
55
330
A
100
AcDbEntity
  8
LAYER_1
 62
     7
100
AcDbSpline
210
0.0
220
0.0
230
1.0
 70
     8
 71
     3
 72
    14
 73
    10
 74
     0
 42
0.0000000001
 43
0.0000000001
 40
0.0
 40
0.0
 40
0.0
 40
0.0
 40
1.0
 40
1.0
 40
1.0
 40
2.0
 40
2.0
 40
2.0
 40
3.0
 40
3.0
 40
3.0
 40
3.0
 10
33.77743869357639
 20
11.91176215277778
 30
0.0
 10
32.61471896701389
 20
11.60842149522569
 30
0.0
 10
32.24471571180555
 20
11.50765245225694
 30
0.0
 10
31.62046440972222
 20
11.50765245225694
 30
0.0
 10
30.9967298719618
 20
11.50765245225694
 30
0.0
 10
29.74822726779514
 20
11.59136827256944
 30
0.0
 10
29.36117078993055
 20
11.43943956163194
 30
0.0
 10
28.97411431206597
 20
11.28802761501736
 30
0.0
 10
27.34010552300347
 20
11.40636664496528
 30
0.0
 10
27.01919487847222
 20
10.90045437282986
 30
0.0
  0
LINE
  5
54
330
A
100
AcDbEntity
  8
LAYER_1
 62
     7
100
AcDbLine
 10
31.85610894097222
 20
9.197199164496526
 30
0.0
 11
23.56359185112847
 21
12.04612087673611
 31
0.0
  0
LWPOLYLINE
  5
4D
330
A
100
AcDbEntity
  8
LAYER_1
 62
     7
100
AcDbPolyline
 90
        5
 70
     0
 43
0.0
 10
17.4626722547743
 20
7.174583604600694
 10
21.35597466362847
 20
16.12442491319444
 10
23.56359185112847
 20
12.02906765407986
 10
31.4184095594618
 20
12.72101508246528
 10
43.94064263237847
 20
8.456159125434027
  0
LWPOLYLINE
  5
48
330
A
100
AcDbEntity
  8
LAYER_1
 62
     7
100
AcDbPolyline
 90
        3
 70
     0
 43
0.0
 10
7.298951551649305
 20
11.11852891710069
 10
15.13671603732639
 20
11.57379828559028
 10
16.90663384331597
 20
8.287177191840277
  0
SPLINE
  5
47
330
A
100
AcDbEntity
  8
LAYER_1
 62
     7
100
AcDbSpline
210
0.0
220
0.0
230
1.0
 70
     8
 71
     3
 72
    41
 73
    37
 74
     0
 42
0.0000000001
 43
0.0000000001
 40
0.0
 40
0.0
 40
0.0
 40
0.0
 40
1.0
 40
1.0
 40
1.0
 40
2.0
 40
2.0
 40
2.0
 40
3.0
 40
3.0
 40
3.0
 40
4.0
 40
4.0
 40
4.0
 40
5.0
 40
5.0
 40
5.0
 40
6.0
 40
6.0
 40
6.0
 40
7.0
 40
7.0
 40
7.0
 40
8.0
 40
8.0
 40
8.0
 40
9.0
 40
9.0
 40
9.0
 40
10.0
 40
10.0
 40
10.0
 40
11.0
 40
11.0
 40
11.0
 40
12.0
 40
12.0
 40
12.0
 40
12.0
 10
39.71092664930555
 20
67.09340684678818
 30
0.0
 10
39.71092664930555
 20
67.09340684678818
 30
0.0
 10
39.88766004774305
 20
66.63865424262153
 30
0.0
 10
39.88766004774305
 20
66.43608262803819
 30
0.0
 10
39.66028374565972
 20
66.36011827256944
 30
0.0
 10
39.71092664930555
 20
65.93068712022568
 30
0.0
 10
39.78637424045139
 20
65.72811550564235
 30
0.0
 10
39.86233859592014
 20
65.52606065538194
 30
0.0
 10
39.88766004774305
 20
65.1467556423611
 30
0.0
 10
39.88766004774305
 20
65.1467556423611
 30
0.0
 10
39.88766004774305
 20
65.1467556423611
 30
0.0
 10
39.66028374565972
 20
64.86873643663193
 30
0.0
 10
39.66028374565972
 20
64.86873643663193
 30
0.0
 10
39.66028374565972
 20
64.86873643663193
 30
0.0
 10
39.58431939019097
 20
65.39945339626736
 30
0.0
 10
39.58431939019097
 20
65.39945339626736
 30
0.0
 10
39.58431939019097
 20
65.39945339626736
 30
0.0
 10
38.75026177300347
 20
65.22271999782986
 30
0.0
 10
38.75026177300347
 20
65.22271999782986
 30
0.0
 10
38.75026177300347
 20
65.22271999782986
 30
0.0
 10
38.62365451388889
 20
65.6273464626736
 30
0.0
 10
38.62365451388889
 20
65.6273464626736
 30
0.0
 10
38.62365451388889
 20
65.6273464626736
 30
0.0
 10
39.1295667860243
 20
66.13274197048611
 30
0.0
 10
39.1295667860243
 20
66.13274197048611
 30
0.0
 10
39.1295667860243
 20
66.13274197048611
 30
0.0
 10
38.62365451388889
 20
66.68878038194444
 30
0.0
 10
38.62365451388889
 20
66.68878038194444
 30
0.0
 10
38.62365451388889
 20
66.68878038194444
 30
0.0
 10
38.9776380750868
 20
67.14404975043402
 30
0.0
 10
38.9776380750868
 20
67.14404975043402
 30
0.0
 10
38.9776380750868
 20
67.14404975043402
 30
0.0
 10
39.4582288953993
 20
66.89135199652777
 30
0.0
 10
39.4582288953993
 20
66.89135199652777
 30
0.0
 10
39.4582288953993
 20
66.89135199652777
 30
0.0
 10
39.4582288953993
 20
67.09340684678818
 30
0.0
 10
39.4582288953993
 20
67.09340684678818
 30
0.0
  0
SPLINE
  5
46
330
A
100
AcDbEntity
  8
LAYER_1
 62
     7
100
AcDbSpline
210
0.0
220
0.0
230
1.0
 70
    11
 71
     3
 72
    20
 73
    16
 74
     0
 42
0.0000000001
 43
0.0000000001
 40
0.0
 40
0.0
 40
0.0
 40
0.0
 40
1.0
 40
1.0
 40
1.0
 40
2.0
 40
2.0
 40
2.0
 40
3.0
 40
3.0
 40
3.0
 40
4.0
 40
4.0
 40
4.0
 40
5.0
 40
5.0
 40
5.0
 40
5.0
 10
37.3343275282118
 20
62.44149441189236
 30
0.0
 10
39.5543470594618
 20
62.19034695095485
 30
0.0
 10
39.86233859592014
 20
64.46410997178819
 30
0.0
 10
39.91298149956597
 20
65.32348904079861
 30
0.0
 10
39.81221245659722
 20
65.77875840928819
 30
0.0
 10
39.50835503472222
 20
66.28467068142361
 30
0.0
 10
39.91298149956597
 20
66.43608262803819
 30
0.0
 10
39.91298149956597
 20
66.94147813585069
 30
0.0
 10
39.66028374565972
 20
67.5993191189236
 30
0.0
 10
39.25565728081597
 20
68.00342881944444
 30
0.0
 10
38.69961886935764
 20
69.52064887152777
 30
0.0
 10
36.88215874565972
 20
69.70565049913193
 30
0.0
 10
36.07032199435763
 20
68.81268174913194
 30
0.0
 10
35.05901421440972
 20
67.70008816189235
 30
0.0
 10
34.19911838107639
 20
62.79547797309027
 30
0.0
 10
37.3343275282118
 20
62.44149441189236
 30
0.0
  0
LINE
  5
45
330
A
100
AcDbEntity
  8
LAYER_1
 62
     7
100
AcDbLine
 10
35.96903618706597
 20
19.25963406032986
 30
0.0
 11
37.03098687065972
 21
19.66426052517361
 31
0.0
  0
SPLINE
  5
44
330
A
100
AcDbEntity
  8
LAYER_1
 62
     7
100
AcDbSpline
210
0.0
220
0.0
230
1.0
 70
     8
 71
     3
 72
    14
 73
    10
 74
     0
 42
0.0000000001
 43
0.0000000001
 40
0.0
 40
0.0
 40
0.0
 40
0.0
 40
1.0
 40
1.0
 40
1.0
 40
2.0
 40
2.0
 40
2.0
 40
3.0
 40
3.0
 40
3.0
 40
3.0
 10
40.82300347222222
 20
18.34961208767361
 30
0.0
 10
40.82300347222222
 20
18.34961208767361
 30
0.0
 10
37.08162977430555
 20
19.66426052517361
 30
0.0
 10
37.08162977430555
 20
19.66426052517361
 30
0.0
 10
37.08162977430555
 20
19.66426052517361
 30
0.0
 10
34.30040418836806
 20
30.78812934027777
 30
0.0
 10
33.94642062717013
 20
31.95136583116319
 30
0.0
 10
33.59243706597222
 20
33.11408555772569
 30
0.0
 10
33.49166802300347
 20
34.22667914496527
 30
0.0
 10
30.81172824435764
 20
35.38939887152777
 30
0.0
  0
LINE
  5
43
330
A
100
AcDbEntity
  8
LAYER_1
 62
     7
100
AcDbLine
 10
7.703578016493055
 20
84.79103461371527
 30
0.0
 11
11.24341362847222
 21
85.3470730251736
 31
0.0
  0
SPLINE
  5
42
330
A
100
AcDbEntity
  8
LAYER_1
 62
     7
100
AcDbSpline
210
0.0
220
0.0
230
1.0
 70
    11
 71
     3
 72
    23
 73
    19
 74
     0
 42
0.0000000001
 43
0.0000000001
 40
0.0
 40
0.0
 40
0.0
 40
0.0
 40
1.0
 40
1.0
 40
1.0
 40
2.0
 40
2.0
 40
2.0
 40
3.0
 40
3.0
 40
3.0
 40
4.0
 40
4.0
 40
4.0
 40
5.0
 40
5.0
 40
5.0
 40
6.0
 40
6.0
 40
6.0
 40
6.0
 10
57.6865736219618
 20
85.27162543402777
 30
0.0
 10
57.96459282769096
 20
85.44835883246527
 30
0.0
 10
58.09068332248263
 20
85.72637803819444
 30
0.0
 10
58.16664767795138
 20
85.8276638454861
 30
0.0
 10
58.24261203342013
 20
85.92843288845485
 30
0.0
 10
58.8492933485243
 20
86.05504014756944
 30
0.0
 10
58.72320285373263
 20
85.60028754340277
 30
0.0
 10
58.59659559461805
 20
85.14501817491319
 30
0.0
 10
58.62191704644097
 20
84.71507025824653
 30
0.0
 10
57.73721652560764
 20
84.61378445095485
 30
0.0
 10
56.85199924045138
 20
84.5130154079861
 30
0.0
 10
56.68766818576388
 20
84.93004421657986
 30
0.0
 10
56.47269422743055
 20
85.14501817491319
 30
0.0
 10
55.8913343641493
 20
85.72637803819444
 30
0.0
 10
56.49801567925347
 20
85.8276638454861
 30
0.0
 10
56.85199924045138
 20
85.65041368272568
 30
0.0
 10
57.2059828016493
 20
85.47368028428819
 30
0.0
 10
57.40803765190972
 20
85.09437527126735
 30
0.0
 10
57.6865736219618
 20
85.27162543402777
 30
0.0
  0
SPLINE
  5
41
330
A
100
AcDbEntity
  8
LAYER_1
 62
     7
100
AcDbSpline
210
0.0
220
0.0
230
1.0
 70
     8
 71
     3
 72
     8
 73
     4
 74
     0
 42
0.0000000001
 43
0.0000000001
 40
0.0
 40
0.0
 40
0.0
 40
0.0
 40
1.0
 40
1.0
 40
1.0
 40
1.0
 10
59.12731255425346
 20
86.51030951605902
 30
0.0
 10
59.68386773003472
 20
86.30773790147569
 30
0.0
 10
60.39183485243055
 20
85.80234239366318
 30
0.0
 10
59.48129611545139
 20
85.19566107855901
 30
0.0
  0
SPLINE
  5
40
330
A
100
AcDbEntity
  8
LAYER_1
 62
     7
100
AcDbSpline
210
0.0
220
0.0
230
1.0
 70
     8
 71
     3
 72
     8
 73
     4
 74
     0
 42
0.0000000001
 43
0.0000000001
 40
0.0
 40
0.0
 40
0.0
 40
0.0
 40
1.0
 40
1.0
 40
1.0
 40
1.0
 10
55.48670789930555
 20
84.89232042100694
 30
0.0
 10
53.51473524305555
 20
86.35838080512151
 30
0.0
 10
56.19467502170139
 20
87.3190456814236
 30
0.0
 10
58.0152357313368
 20
86.96506212022568
 30
0.0
  0
SPLINE
  5
3F
330
A
100
AcDbEntity
  8
LAYER_1
 62
     7
100
AcDbSpline
210
0.0
220
0.0
230
1.0
 70
     8
 71
     3
 72
     8
 73
     4
 74
     0
 42
0.0000000001
 43
0.0000000001
 40
0.0
 40
0.0
 40
0.0
 40
0.0
 40
1.0
 40
1.0
 40
1.0
 40
1.0
 10
59.27924126519097
 20
87.52161729600694
 30
0.0
 10
59.8352796766493
 20
87.36968858506944
 30
0.0
 10
60.79594455295138
 20
87.16763373480902
 30
0.0
 10
60.74581841362847
 20
86.45966661241319
 30
0.0
  0
SPLINE
  5
3E
330
A
100
AcDbEntity
  8
LAYER_1
 62
     7
100
AcDbSpline
210
0.0
220
0.0
230
1.0
 70
     8
 71
     3
 72
     8
 73
     4
 74
     0
 42
0.0000000001
 43
0.0000000001
 40
0.0
 40
0.0
 40
0.0
 40
0.0
 40
1.0
 40
1.0
 40
1.0
 40
1.0
 10
53.9193617078993
 20
85.65041368272568
 30
0.0
 10
53.4139662000868
 20
87.82495795355902
 30
0.0
 10
56.95328504774305
 20
87.92624376085068
 30
0.0
 10
57.91394992404513
 20
87.77431504991318
 30
0.0
  0
LINE
  5
3D
330
A
100
AcDbEntity
  8
LAYER_1
 62
     7
100
AcDbLine
 10
32.07573377821181
 20
88.6336941189236
 30
0.0
 11
44.26155327690972
 21
81.04914415147569
 31
0.0
  0
SPLINE
  5
3C
330
A
100
AcDbEntity
  8
LAYER_1
 62
     7
100
AcDbSpline
210
0.0
220
0.0
230
1.0
 70
     8
 71
     3
 72
     8
 73
     4
 74
     0
 42
0.0000000001
 43
0.0000000001
 40
0.0
 40
0.0
 40
0.0
 40
0.0
 40
1.0
 40
1.0
 40
1.0
 40
1.0
 10
33.79500868055555
 20
88.98767768012152
 30
0.0
 10
32.12637668185764
 20
91.61697455512152
 30
0.0
 10
28.48577202690972
 20
87.52161729600694
 30
0.0
 10
31.4184095594618
 20
86.51030951605902
 30
0.0
  0
SPLINE
  5
3B
330
A
100
AcDbEntity
  8
LAYER_1
 62
     7
100
AcDbSpline
210
0.0
220
0.0
230
1.0
 70
     8
 71
     3
 72
     8
 73
     4
 74
     0
 42
0.0000000001
 43
0.0000000001
 40
0.0
 40
0.0
 40
0.0
 40
0.0
 40
1.0
 40
1.0
 40
1.0
 40
1.0
 10
39.3063001844618
 20
67.90265977647569
 30
0.0
 10
38.85103081597222
 20
68.30676947699652
 30
0.0
 10
38.24434950086805
 20
68.66075303819444
 30
0.0
 10
37.48573947482639
 20
68.00342881944444
 30
0.0
  0
SPLINE
  5
3A
330
A
100
AcDbEntity
  8
LAYER_1
 62
     7
100
AcDbSpline
210
0.0
220
0.0
230
1.0
 70
     8
 71
     3
 72
     8
 73
     4
 74
     0
 42
0.0000000001
 43
0.0000000001
 40
0.0
 40
0.0
 40
0.0
 40
0.0
 40
1.0
 40
1.0
 40
1.0
 40
1.0
 10
37.13227267795138
 20
67.14404975043402
 30
0.0
 10
36.32301974826389
 20
64.41346706814235
 30
0.0
 10
38.29499240451388
 20
62.39085150824652
 30
0.0
 10
39.81221245659722
 20
64.96950547960068
 30
0.0
  0
SPLINE
  5
39
330
A
100
AcDbEntity
  8
LAYER_1
 62
     7
100
AcDbSpline
210
0.0
220
0.0
230
1.0
 70
     8
 71
     3
 72
     8
 73
     4
 74
     0
 42
0.0000000001
 43
0.0000000001
 40
0.0
 40
0.0
 40
0.0
 40
0.0
 40
1.0
 40
1.0
 40
1.0
 40
1.0
 10
36.47494845920139
 20
68.15535753038193
 30
0.0
 10
35.66569552951388
 20
67.39674750434027
 30
0.0
 10
35.05901421440972
 20
63.65485704210069
 30
0.0
 10
37.63766818576389
 20
62.49213731553819
 30
0.0
  0
SPLINE
  5
38
330
A
100
AcDbEntity
  8
LAYER_1
 62
     7
100
AcDbSpline
210
0.0
220
0.0
230
1.0
 70
     8
 71
     3
 72
    41
 73
    37
 74
     0
 42
0.0000000001
 43
0.0000000001
 40
0.0
 40
0.0
 40
0.0
 40
0.0
 40
1.0
 40
1.0
 40
1.0
 40
2.0
 40
2.0
 40
2.0
 40
3.0
 40
3.0
 40
3.0
 40
4.0
 40
4.0
 40
4.0
 40
5.0
 40
5.0
 40
5.0
 40
6.0
 40
6.0
 40
6.0
 40
7.0
 40
7.0
 40
7.0
 40
8.0
 40
8.0
 40
8.0
 40
9.0
 40
9.0
 40
9.0
 40
10.0
 40
10.0
 40
10.0
 40
11.0
 40
11.0
 40
11.0
 40
12.0
 40
12.0
 40
12.0
 40
12.0
 10
42.34435763888889
 20
26.11502956814236
 30
0.0
 10
42.34435763888889
 20
26.11502956814236
 30
0.0
 10
42.52109103732639
 20
25.65976019965278
 30
0.0
 10
42.52109103732639
 20
25.45770534939236
 30
0.0
 10
42.29371473524305
 20
25.38174099392361
 30
0.0
 10
42.34435763888889
 20
24.95179307725694
 30
0.0
 10
42.42032199435764
 20
24.74973822699653
 30
0.0
 10
42.49628634982638
 20
24.54768337673611
 30
0.0
 10
42.52109103732639
 20
24.16837836371528
 30
0.0
 10
42.52109103732639
 20
24.16837836371528
 30
0.0
 10
42.52109103732639
 20
24.16837836371528
 30
0.0
 10
42.29371473524305
 20
23.89035915798611
 30
0.0
 10
42.29371473524305
 20
23.89035915798611
 30
0.0
 10
42.29371473524305
 20
23.89035915798611
 30
0.0
 10
42.21826714409722
 20
24.42107611762152
 30
0.0
 10
42.21826714409722
 20
24.42107611762152
 30
0.0
 10
42.21826714409722
 20
24.42107611762152
 30
0.0
 10
41.3836927625868
 20
24.24434271918403
 30
0.0
 10
41.3836927625868
 20
24.24434271918403
 30
0.0
 10
41.3836927625868
 20
24.24434271918403
 30
0.0
 10
41.25708550347222
 20
24.64845241970486
 30
0.0
 10
41.25708550347222
 20
24.64845241970486
 30
0.0
 10
41.25708550347222
 20
24.64845241970486
 30
0.0
 10
41.76299777560764
 20
25.15436469184028
 30
0.0
 10
41.76299777560764
 20
25.15436469184028
 30
0.0
 10
41.76299777560764
 20
25.15436469184028
 30
0.0
 10
41.25708550347222
 20
25.71040310329861
 30
0.0
 10
41.25708550347222
 20
25.71040310329861
 30
0.0
 10
41.25708550347222
 20
25.71040310329861
 30
0.0
 10
41.61106906467013
 20
26.16567247178819
 30
0.0
 10
41.61106906467013
 20
26.16567247178819
 30
0.0
 10
41.61106906467013
 20
26.16567247178819
 30
0.0
 10
42.09165988498263
 20
25.91297471788194
 30
0.0
 10
42.09165988498263
 20
25.91297471788194
 30
0.0
 10
42.09165988498263
 20
25.91297471788194
 30
0.0
 10
42.09165988498263
 20
26.11502956814236
 30
0.0
 10
42.09165988498263
 20
26.11502956814236
 30
0.0
  0
SPLINE
  5
37
330
A
100
AcDbEntity
  8
LAYER_1
 62
     7
100
AcDbSpline
210
0.0
220
0.0
230
1.0
 70
    11
 71
     3
 72
    20
 73
    16
 74
     0
 42
0.0000000001
 43
0.0000000001
 40
0.0
 40
0.0
 40
0.0
 40
0.0
 40
1.0
 40
1.0
 40
1.0
 40
2.0
 40
2.0
 40
2.0
 40
3.0
 40
3.0
 40
3.0
 40
4.0
 40
4.0
 40
4.0
 40
5.0
 40
5.0
 40
5.0
 40
5.0
 10
39.96775851779513
 20
21.46311713324653
 30
0.0
 10
42.18777804904514
 20
21.21196967230902
 30
0.0
 10
42.49628634982638
 20
23.48573269314236
 30
0.0
 10
42.54692925347222
 20
24.34511176215278
 30
0.0
 10
42.44564344618055
 20
24.80038113064236
 30
0.0
 10
42.14230278862847
 20
25.30577663845486
 30
0.0
 10
42.54692925347222
 20
25.45770534939236
 30
0.0
 10
42.54692925347222
 20
25.96361762152777
 30
0.0
 10
42.29371473524305
 20
26.62042507595486
 30
0.0
 10
41.8890882703993
 20
27.02505154079861
 30
0.0
 10
41.33304985894097
 20
28.54175482855903
 30
0.0
 10
39.51610649956597
 20
28.72675645616319
 30
0.0
 10
38.70375298394097
 20
27.83430447048611
 30
0.0
 10
37.69244520399305
 20
26.72171088324653
 30
0.0
 10
36.83306613498264
 20
21.81710069444444
 30
0.0
 10
39.96775851779513
 20
21.46311713324653
 30
0.0
  0
SPLINE
  5
36
330
A
100
AcDbEntity
  8
LAYER_1
 62
     7
100
AcDbSpline
210
0.0
220
0.0
230
1.0
 70
     8
 71
     3
 72
     8
 73
     4
 74
     0
 42
0.0000000001
 43
0.0000000001
 40
0.0
 40
0.0
 40
0.0
 40
0.0
 40
1.0
 40
1.0
 40
1.0
 40
1.0
 10
41.93973117404514
 20
26.92428249782986
 30
0.0
 10
41.48497856987847
 20
27.32839219835069
 30
0.0
 10
40.8782972547743
 20
27.68237575954861
 30
0.0
 10
40.11968722873264
 20
27.02505154079861
 30
0.0
  0
SPLINE
  5
35
330
A
100
AcDbEntity
  8
LAYER_1
 62
     7
100
AcDbSpline
210
0.0
220
0.0
230
1.0
 70
     8
 71
     3
 72
     8
 73
     4
 74
     0
 42
0.0000000001
 43
0.0000000001
 40
0.0
 40
0.0
 40
0.0
 40
0.0
 40
1.0
 40
1.0
 40
1.0
 40
1.0
 10
39.76570366753472
 20
26.16567247178819
 30
0.0
 10
38.95645073784722
 20
23.43508978949653
 30
0.0
 10
40.92842339409722
 20
21.41247422960069
 30
0.0
 10
42.44564344618055
 20
23.99112820095486
 30
0.0
  0
SPLINE
  5
34
330
A
100
AcDbEntity
  8
LAYER_1
 62
     7
100
AcDbSpline
210
0.0
220
0.0
230
1.0
 70
     8
 71
     3
 72
     8
 73
     4
 74
     0
 42
0.0000000001
 43
0.0000000001
 40
0.0
 40
0.0
 40
0.0
 40
0.0
 40
1.0
 40
1.0
 40
1.0
 40
1.0
 10
39.10837944878472
 20
27.17698025173611
 30
0.0
 10
38.29912651909722
 20
26.41837022569444
 30
0.0
 10
37.69244520399305
 20
22.67647976345486
 30
0.0
 10
40.27109917534722
 20
21.51376003689236
 30
0.0
  0
LWPOLYLINE
  5
2E
330
A
100
AcDbEntity
  8
LAYER_1
 62
     7
100
AcDbPolyline
 90
        4
 70
     1
 43
0.0
 10
18.9230482313368
 20
99.36327175564236
 10
20.50589735243056
 20
100.6381293402778
 10
19.68734266493055
 20
101.2747829861111
 10
18.32205132378472
 20
99.91000840928818
  0
LWPOLYLINE
  5
28
330
A
100
AcDbEntity
  8
LAYER_1
 62
     7
100
AcDbPolyline
 90
        4
 70
     1
 43
0.0
 10
18.32205132378472
 20
99.91000840928818
 10
19.4346449110243
 20
98.89818386501736
 10
21.05263400607639
 20
100.2128323025174
 10
19.68734266493055
 20
101.2747829861111
  0
LWPOLYLINE
  5
22
330
A
100
AcDbEntity
  8
LAYER_1
 62
     7
100
AcDbPolyline
 90
        4
 70
     1
 43
0.0
 10
18.94113498263889
 20
99.48832872178818
 10
20.31727837456597
 20
100.7053087022569
 10
21.0314466688368
 20
100.1363511827257
 10
19.47030164930555
 20
98.91937120225694
  0
ENDSEC
  0
SECTION
  2
OBJECTS
  0
DICTIONARY
  5
19
330
0
100
AcDbDictionary
281
     1
  3
ACAD_COLOR
350
F3
  3
ACAD_GROUP
350
1A
  3
ACAD_LAYOUT
350
C0
  3
ACAD_MATERIAL
350
F5
  3
ACAD_MLINESTYLE
350
1B
  3
ACAD_PLOTSETTINGS
350
C1
  3
ACAD_PLOTSTYLENAME
350
BE
  3
ACDBHEADERROUNDTRIPXREC
350
F2
  0
DICTIONARY
  5
F3
102
{ACAD_REACTORS
330
19
102
}
330
19
100
AcDbDictionary
281
     1
  0
DICTIONARY
  5
1A
102
{ACAD_REACTORS
330
19
102
}
330
19
100
AcDbDictionary
281
     1
  0
DICTIONARY
  5
C0
102
{ACAD_REACTORS
330
19
102
}
330
19
100
AcDbDictionary
281
     1
  3
Layout1
350
C3
  3
Model
350
C2
  0
DICTIONARY
  5
F5
102
{ACAD_REACTORS
330
19
102
}
330
19
100
AcDbDictionary
281
     1
  0
DICTIONARY
  5
1B
102
{ACAD_REACTORS
330
19
102
}
330
19
100
AcDbDictionary
281
     1
  3
STANDARD
350
1C
  0
DICTIONARY
  5
C1
102
{ACAD_REACTORS
330
19
102
}
330
19
100
AcDbDictionary
281
     1
  0
ACDBDICTIONARYWDFLT
  5
BE
102
{ACAD_REACTORS
330
19
102
}
330
19
100
AcDbDictionary
281
     1
  3
Normal
350
BF
100
AcDbDictionaryWithDefault
340
BF
  0
DICTIONARY
  5
F2
102
{ACAD_REACTORS
330
19
102
}
330
19
100
AcDbDictionary
281
     1
  3
COLORDICT
350
F4
  3
MATERIALDICT
350
F6
  0
LAYOUT
  5
C3
102
{ACAD_REACTORS
330
C0
102
}
102
{ACAD_XDICTIONARY
360
F7
102
}
330
C0
100
AcDbPlotSettings
  1

  2
Support Center HP LaserJet 4
  4

  6

 40
0.0
 41
0.0
 42
0.0
 43
0.0
 44
0.0
 45
0.0
 46
0.0
 47
0.0
 48
0.0
 49
0.0
140
0.0
141
0.0
142
1.0
143
1.0
 70
   688
 72
     0
 73
     0
 74
     5
  7

 75
    16
147
1.0
148
0.0
149
0.0
100
AcDbLayout
  1
Layout1
 70
     0
 71
     1
 10
0.0
 20
0.0
 11
12.0
 21
9.0
 12
0.0
 22
0.0
 32
0.0
 14
1.000000000000000E+20
 24
1.000000000000000E+20
 34
1.000000000000000E+20
 15
-1.000000000000000E+20
 25
-1.000000000000000E+20
 35
-1.000000000000000E+20
146
0.0
 13
0.0
 23
0.0
 33
0.0
 16
1.0
 26
0.0
 36
0.0
 17
0.0
 27
1.0
 37
0.0
 76
     0
330
B
  0
LAYOUT
  5
C2
102
{ACAD_REACTORS
330
C0
102
}
102
{ACAD_XDICTIONARY
360
F9
102
}
330
C0
100
AcDbPlotSettings
  1

  2
Support Center HP LaserJet 4
  4

  6

 40
0.0
 41
0.0
 42
0.0
 43
0.0
 44
0.0
 45
0.0
 46
0.0
 47
0.0
 48
0.0
 49
0.0
140
0.0
141
0.0
142
1.0
143
1.0
 70
  1712
 72
     0
 73
     0
 74
     0
  7

 75
     0
147
1.0
148
0.0
149
0.0
100
AcDbLayout
  1
Model
 70
     1
 71
     0
 10
0.0
 20
0.0
 11
12.0
 21
9.0
 12
0.0
 22
0.0
 32
0.0
 14
0.0
 24
0.0
 34
0.0
 15
0.0
 25
0.0
 35
0.0
146
0.0
 13
0.0
 23
0.0
 33
0.0
 16
1.0
 26
0.0
 36
0.0
 17
0.0
 27
1.0
 37
0.0
 76
     0
330
A
  0
MLINESTYLE
  5
1C
102
{ACAD_REACTORS
330
1B
102
}
330
1B
100
AcDbMlineStyle
  2
STANDARD
 70
     0
  3

 62
     0
 51
90.0000000000002
 52
90.0000000000002
 71
     2
 49
0.5
 62
   256
  6
BYLAYER
 49
-0.5
 62
   256
  6
BYLAYER
  0
ACDBPLACEHOLDER
  5
BF
102
{ACAD_REACTORS
330
BE
102
}
330
BE
  0
XRECORD
  5
F4
102
{ACAD_REACTORS
330
F2
102
}
330
F2
100
AcDbXrecord
340
F3
  0
XRECORD
  5
F6
102
{ACAD_REACTORS
330
F2
102
}
330
F2
100
AcDbXrecord
340
F5
  0
DICTIONARY
  5
F7
330
C3
100
AcDbDictionary
280
     1
281
     1
  3
ACAD_XREC_ROUNDTRIP
360
F8
  0
DICTIONARY
  5
F9
330
C2
100
AcDbDictionary
280
     1
281
     1
  3
ACAD_XREC_ROUNDTRIP
360
FA
  0
XRECORD
  5
F8
102
{ACAD_REACTORS
330
F7
102
}
330
F7
100
AcDbXrecord
102
SHADEPLOT
 70
     0
102
SHADEPLOTRESLEVEL
 70
     0
102
SHADEPLOTCUSTOMDPI
 70
     0
  0
XRECORD
  5
FA
102
{ACAD_REACTORS
330
F9
102
}
330
F9
100
AcDbXrecord
102
SHADEPLOT
 70
 -5928
102
SHADEPLOTRESLEVEL
 70
 -5872
102
SHADEPLOTCUSTOMDPI
 70
 -5816
  0
ENDSEC
  0
EOF
