  0
SECTION
  2
HEADER
  9
$ACADVER
  1
AC1015
  9
$ACADMAINTVER
 70
     6
  9
$DWGCODEPAGE
  3
ANSI_1252
  9
$INSBASE
 10
0.0
 20
0.0
 30
0.0
  9
$EXTMIN
 10
46.25994196850061
 20
6.857534815055735
 30
-0.0015258207003612
  9
$EXTMAX
 10
145.6730326036693
 20
145.8646102384967
 30
0.0000000349246008
  9
$LIMMIN
 10
46.45246175130208
 20
6.735506184895833
  9
$LIMMAX
 10
145.7988525390625
 20
144.6190795898438
  9
$ORTHOMODE
 70
     0
  9
$REGENMODE
 70
     1
  9
$FILLMODE
 70
     1
  9
$QTEXTMODE
 70
     0
  9
$MIRRTEXT
 70
     1
  9
$LTSCALE
 40
1.0
  9
$ATTMODE
 70
     1
  9
$TEXTSIZE
 40
0.2
  9
$TRACEWID
 40
0.05
  9
$TEXTSTYLE
  7
STANDARD
  9
$CLAYER
  8
0
  9
$CELTYPE
  6
CONTINUOUS
  9
$CECOLOR
 62
   256
  9
$CELTSCALE
 40
1.0
  9
$DISPSILH
 70
     0
  9
$DIMSCALE
 40
1.0
  9
$DIMASZ
 40
0.18
  9
$DIMEXO
 40
0.0625
  9
$DIMDLI
 40
0.38
  9
$DIMRND
 40
0.0
  9
$DIMDLE
 40
0.0
  9
$DIMEXE
 40
0.18
  9
$DIMTP
 40
0.0
  9
$DIMTM
 40
0.0
  9
$DIMTXT
 40
0.18
  9
$DIMCEN
 40
0.09
  9
$DIMTSZ
 40
0.0
  9
$DIMTOL
 70
     0
  9
$DIMLIM
 70
     0
  9
$DIMTIH
 70
     1
  9
$DIMTOH
 70
     1
  9
$DIMSE1
 70
     0
  9
$DIMSE2
 70
     0
  9
$DIMTAD
 70
     0
  9
$DIMZIN
 70
     0
  9
$DIMBLK
  1

  9
$DIMASO
 70
     1
  9
$DIMSHO
 70
     1
  9
$DIMPOST
  1

  9
$DIMAPOST
  1

  9
$DIMALT
 70
     0
  9
$DIMALTD
 70
     2
  9
$DIMALTF
 40
25.4
  9
$DIMLFAC
 40
1.0
  9
$DIMTOFL
 70
     0
  9
$DIMTVP
 40
0.0
  9
$DIMTIX
 70
     0
  9
$DIMSOXD
 70
     0
  9
$DIMSAH
 70
     0
  9
$DIMBLK1
  1

  9
$DIMBLK2
  1

  9
$DIMSTYLE
  2
STANDARD
  9
$DIMCLRD
 70
     0
  9
$DIMCLRE
 70
     0
  9
$DIMCLRT
 70
     0
  9
$DIMTFAC
 40
1.0
  9
$DIMGAP
 40
0.09
  9
$DIMJUST
 70
     0
  9
$DIMSD1
 70
     0
  9
$DIMSD2
 70
     0
  9
$DIMTOLJ
 70
     1
  9
$DIMTZIN
 70
     0
  9
$DIMALTZ
 70
     0
  9
$DIMALTTZ
 70
     0
  9
$DIMUPT
 70
     0
  9
$DIMDEC
 70
     4
  9
$DIMTDEC
 70
     4
  9
$DIMALTU
 70
     2
  9
$DIMALTTD
 70
     2
  9
$DIMTXSTY
  7
STANDARD
  9
$DIMAUNIT
 70
     0
  9
$DIMADEC
 70
     0
  9
$DIMALTRND
 40
0.0
  9
$DIMAZIN
 70
     0
  9
$DIMDSEP
 70
    46
  9
$DIMATFIT
 70
     3
  9
$DIMFRAC
 70
     0
  9
$DIMLDRBLK
  1

  9
$DIMLUNIT
 70
     2
  9
$DIMLWD
 70
    -2
  9
$DIMLWE
 70
    -2
  9
$DIMTMOVE
 70
     0
  9
$LUNITS
 70
     2
  9
$LUPREC
 70
     4
  9
$SKETCHINC
 40
0.1
  9
$FILLETRAD
 40
0.0
  9
$AUNITS
 70
     0
  9
$AUPREC
 70
     0
  9
$MENU
  1
acad
  9
$ELEVATION
 40
0.0
  9
$PELEVATION
 40
0.0
  9
$THICKNESS
 40
0.0
  9
$LIMCHECK
 70
     0
  9
$CHAMFERA
 40
0.0
  9
$CHAMFERB
 40
0.0
  9
$CHAMFERC
 40
0.0
  9
$CHAMFERD
 40
0.0
  9
$SKPOLY
 70
     0
  9
$TDCREATE
 40
2444971.666666667
  9
$TDUCREATE
 40
2444972.0
  9
$TDUPDATE
 40
2452219.39614375
  9
$TDUUPDATE
 40
2452219.729477083
  9
$TDINDWG
 40
0.000221875
  9
$TDUSRTIMER
 40
0.000221875
  9
$USRTIMER
 70
     1
  9
$ANGBASE
 50
0.0
  9
$ANGDIR
 70
     0
  9
$PDMODE
 70
     0
  9
$PDSIZE
 40
0.0
  9
$PLINEWID
 40
0.0
  9
$SPLFRAME
 70
     0
  9
$SPLINETYPE
 70
     6
  9
$SPLINESEGS
 70
     8
  9
$HANDSEED
  5
E7
  9
$SURFTAB1
 70
     6
  9
$SURFTAB2
 70
     6
  9
$SURFTYPE
 70
     6
  9
$SURFU
 70
     6
  9
$SURFV
 70
     6
  9
$UCSBASE
  2

  9
$UCSNAME
  2

  9
$UCSORG
 10
0.0
 20
0.0
 30
0.0
  9
$UCSXDIR
 10
1.0
 20
0.0
 30
0.0
  9
$UCSYDIR
 10
0.0
 20
1.0
 30
0.0
  9
$UCSORTHOREF
  2

  9
$UCSORTHOVIEW
 70
     0
  9
$UCSORGTOP
 10
0.0
 20
0.0
 30
0.0
  9
$UCSORGBOTTOM
 10
0.0
 20
0.0
 30
0.0
  9
$UCSORGLEFT
 10
0.0
 20
0.0
 30
0.0
  9
$UCSORGRIGHT
 10
0.0
 20
0.0
 30
0.0
  9
$UCSORGFRONT
 10
0.0
 20
0.0
 30
0.0
  9
$UCSORGBACK
 10
0.0
 20
0.0
 30
0.0
  9
$PUCSBASE
  2

  9
$PUCSNAME
  2

  9
$PUCSORG
 10
0.0
 20
0.0
 30
0.0
  9
$PUCSXDIR
 10
1.0
 20
0.0
 30
0.0
  9
$PUCSYDIR
 10
0.0
 20
1.0
 30
0.0
  9
$PUCSORTHOREF
  2

  9
$PUCSORTHOVIEW
 70
     0
  9
$PUCSORGTOP
 10
0.0
 20
0.0
 30
0.0
  9
$PUCSORGBOTTOM
 10
0.0
 20
0.0
 30
0.0
  9
$PUCSORGLEFT
 10
0.0
 20
0.0
 30
0.0
  9
$PUCSORGRIGHT
 10
0.0
 20
0.0
 30
0.0
  9
$PUCSORGFRONT
 10
0.0
 20
0.0
 30
0.0
  9
$PUCSORGBACK
 10
0.0
 20
0.0
 30
0.0
  9
$USERI1
 70
     0
  9
$USERI2
 70
     0
  9
$USERI3
 70
     0
  9
$USERI4
 70
     0
  9
$USERI5
 70
     0
  9
$USERR1
 40
0.0
  9
$USERR2
 40
0.0
  9
$USERR3
 40
0.0
  9
$USERR4
 40
0.0
  9
$USERR5
 40
0.0
  9
$WORLDVIEW
 70
     1
  9
$SHADEDGE
 70
     3
  9
$SHADEDIF
 70
    70
  9
$TILEMODE
 70
     1
  9
$MAXACTVP
 70
    16
  9
$PINSBASE
 10
0.0
 20
0.0
 30
0.0
  9
$PLIMCHECK
 70
     0
  9
$PEXTMIN
 10
1.000000000000000E+20
 20
1.000000000000000E+20
 30
1.000000000000000E+20
  9
$PEXTMAX
 10
-1.000000000000000E+20
 20
-1.000000000000000E+20
 30
-1.000000000000000E+20
  9
$PLIMMIN
 10
0.0
 20
0.0
  9
$PLIMMAX
 10
12.0
 20
9.0
  9
$UNITMODE
 70
     0
  9
$VISRETAIN
 70
     0
  9
$PLINEGEN
 70
     1
  9
$PSLTSCALE
 70
     0
  9
$TREEDEPTH
 70
  3020
  9
$CMLSTYLE
  2
STANDARD
  9
$CMLJUST
 70
     0
  9
$CMLSCALE
 40
1.0
  9
$PROXYGRAPHICS
 70
     0
  9
$MEASUREMENT
 70
     0
  9
$CELWEIGHT
370
    -1
  9
$ENDCAPS
280
     0
  9
$JOINSTYLE
280
     0
  9
$LWDISPLAY
290
     0
  9
$INSUNITS
 70
     0
  9
$HYPERLINKBASE
  1

  9
$STYLESHEET
  1

  9
$XEDIT
290
     1
  9
$CEPSNTYPE
380
     0
  9
$PSTYLEMODE
290
     1
  9
$FINGERPRINTGUID
  2
{0AE0CFAB-D1C7-11D5-923F-00805F198AD5}
  9
$VERSIONGUID
  2
{0AE0CFAD-D1C7-11D5-923F-00805F198AD5}
  9
$EXTNAMES
290
     1
  9
$PSVPSCALE
 40
0.0
  9
$OLESTARTUP
290
     0
  0
ENDSEC
  0
SECTION
  2
CLASSES
  0
CLASS
  1
LWPOLYLINE
  2
AcDbPolyline
  3
AutoCAD 2000
 90
        0
280
     0
281
     1
  0
CLASS
  1
IMAGE
  2
AcDbRasterImage
  3
ISM
 90
      127
280
     0
281
     1
  0
CLASS
  1
OLE2FRAME
  2
AcDbOle2Frame
  3
AutoCAD 2000
 90
        0
280
     0
281
     1
  0
CLASS
  1
HATCH
  2
AcDbHatch
  3
AutoCAD 2000
 90
        0
280
     0
281
     1
  0
CLASS
  1
DICTIONARYVAR
  2
AcDbDictionaryVar
  3
AutoCAD 2000
 90
        0
280
     0
281
     0
  0
CLASS
  1
RASTERVARIABLES
  2
AcDbRasterVariables
  3
ISM
 90
        0
280
     0
281
     0
  0
CLASS
  1
IMAGEDEF
  2
AcDbRasterImageDef
  3
ISM
 90
        0
280
     0
281
     0
  0
CLASS
  1
IMAGEDEF_REACTOR
  2
AcDbRasterImageDefReactor
  3
ISM
 90
        1
280
     0
281
     0
  0
CLASS
  1
IDBUFFER
  2
AcDbIdBuffer
  3
AutoCAD 2000
 90
        0
280
     0
281
     0
  0
CLASS
  1
SPATIAL_FILTER
  2
AcDbSpatialFilter
  3
AutoCAD 2000
 90
        0
280
     0
281
     0
  0
CLASS
  1
XRECORD
  2
AcDbXrecord
  3
AutoCAD 2000
 90
        0
280
     0
281
     0
  0
CLASS
  1
SORTENTSTABLE
  2
AcDbSortentsTable
  3
AutoCAD 2000
 90
        0
280
     0
281
     0
  0
CLASS
  1
LAYER_INDEX
  2
AcDbLayerIndex
  3
AutoCAD 2000
 90
        0
280
     0
281
     0
  0
CLASS
  1
SPATIAL_INDEX
  2
AcDbSpatialIndex
  3
AutoCAD 2000
 90
        0
280
     0
281
     0
  0
CLASS
  1
OBJECT_PTR
  2
CAseDLPNTableRecord
  3
ASE-LPNTableRecord
 90
        1
280
     1
281
     0
  0
CLASS
  1
LAYOUT
  2
AcDbLayout
  3
ObjectDBX Classes
 90
        0
280
     0
281
     0
  0
CLASS
  1
PLOTSETTINGS
  2
AcDbPlotSettings
  3
AutoCAD 2000
 90
        0
280
     0
281
     0
  0
CLASS
  1
ACDBDICTIONARYWDFLT
  2
AcDbDictionaryWithDefault
  3
AutoCAD 2000
 90
        0
280
     0
281
     0
  0
CLASS
  1
ACDBPLACEHOLDER
  2
AcDbPlaceHolder
  3
ObjectDBX Classes
 90
        0
280
     0
281
     0
  0
CLASS
  1
VBAPROJECT
  2
AcDbVbaProject
  3
ObjectDBX Classes
 90
        0
280
     0
281
     0
  0
CLASS
  1
WIPEOUT
  2
AcDbWipeout
  3
WipeOut|AutoCAD Express Tool|expresstools@autodesk.com
 90
      127
280
     0
281
     1
  0
CLASS
  1
WIPEOUTVARIABLES
  2
AcDbWipeoutVariables
  3
WipeOut|AutoCAD Express Tool|expresstools@autodesk.com
 90
        0
280
     0
281
     0
  0
CLASS
  1
RTEXT
  2
RText
  3
RText|AutoCAD Express Tool|expresstools@autodesk.com
 90
        0
280
     0
281
     1
  0
CLASS
  1
ARCALIGNEDTEXT
  2
AcDbArcAlignedText
  3
ATEXT|AutoCAD Express Tool|expresstools@autodesk.com
 90
        0
280
     0
281
     1
  0
CLASS
  1
LONG_TRANSACTION
  2
AcDbLongTransaction
  3
AutoCAD 2000
 90
        0
280
     1
281
     0
  0
CLASS
  1
LWPOLYLINE
  2
AcDbPolyline
  3
AutoCAD 2000
 90
        0
280
     0
281
     1
  0
CLASS
  1
HATCH
  2
AcDbHatch
  3
AutoCAD 2000
 90
        0
280
     0
281
     1
  0
CLASS
  1
XRECORD
  2
AcDbXrecord
  3
AutoCAD 2000
 90
        0
280
     0
281
     0
  0
ENDSEC
  0
SECTION
  2
TABLES
  0
TABLE
  2
VPORT
  5
7
330
0
100
AcDbSymbolTable
 70
     2
  0
VPORT
  5
B3
330
7
100
AcDbSymbolTableRecord
100
AcDbViewportTableRecord
  2
*Active
 70
     0
 10
0.0
 20
0.0
 11
1.0
 21
1.0
 12
95.96648728608497
 22
76.36107252677621
 13
0.0
 23
0.0
 14
1.0
 24
1.0
 15
0.0
 25
0.0
 16
0.0
 26
0.0
 36
1.0
 17
0.0
 27
0.0
 37
0.0
 40
141.1961632253849
 41
1.836842105263158
 42
50.0
 43
0.0
 44
0.0
 50
0.0
 51
0.0
 71
     0
 72
   100
 73
     1
 74
     1
 75
     0
 76
     0
 77
     0
 78
     0
281
     0
 65
     1
110
0.0
120
0.0
130
0.0
111
1.0
121
0.0
131
0.0
112
0.0
122
1.0
132
0.0
 79
     0
146
0.0
  0
ENDTAB
  0
TABLE
  2
LTYPE
  5
4
330
0
100
AcDbSymbolTable
 70
     1
  0
LTYPE
  5
11
330
4
100
AcDbSymbolTableRecord
100
AcDbLinetypeTableRecord
  2
BYBLOCK
 70
     0
  3

 72
    65
 73
     0
 40
0.0
  0
LTYPE
  5
12
330
4
100
AcDbSymbolTableRecord
100
AcDbLinetypeTableRecord
  2
BYLAYER
 70
     0
  3

 72
    65
 73
     0
 40
0.0
  0
LTYPE
  5
13
330
4
100
AcDbSymbolTableRecord
100
AcDbLinetypeTableRecord
  2
CONTINUOUS
 70
     0
  3
Solid line
 72
    65
 73
     0
 40
0.0
  0
ENDTAB
  0
TABLE
  2
LAYER
  5
2
330
0
100
AcDbSymbolTable
 70
     2
  0
LAYER
  5
14
330
2
100
AcDbSymbolTableRecord
100
AcDbLayerTableRecord
  2
0
 70
     0
 62
     7
  6
CONTINUOUS
370
    -3
390
0
  0
LAYER
  5
21
330
2
100
AcDbSymbolTableRecord
100
AcDbLayerTableRecord
  2
LAYER_1
 70
     0
 62
     5
  6
CONTINUOUS
370
    -3
390
0
  0
ENDTAB
  0
TABLE
  2
STYLE
  5
3
330
0
100
AcDbSymbolTable
 70
     5
  0
STYLE
  5
17
330
3
100
AcDbSymbolTableRecord
100
AcDbTextStyleTableRecord
  2
STANDARD
 70
     0
 40
0.0
 41
1.0
 50
0.0
 71
     0
 42
0.2
  3
txt
  4

  0
STYLE
  5
1D
330
3
100
AcDbSymbolTableRecord
100
AcDbTextStyleTableRecord
  2
STD
 70
     0
 40
0.0
 41
1.0
 50
0.0
 71
     0
 42
0.2
  3
txt
  4

  0
STYLE
  5
1E
330
3
100
AcDbSymbolTableRecord
100
AcDbTextStyleTableRecord
  2
TATESTD
 70
     4
 40
0.0
 41
1.0
 50
0.0
 71
     0
 42
0.2
  3
txt
  4

  0
STYLE
  5
1F
330
3
100
AcDbSymbolTableRecord
100
AcDbTextStyleTableRecord
  2
KANJISTD
 70
     0
 40
0.0
 41
1.0
 50
0.0
 71
     0
 42
0.2
  3
txt
  4
extfont
  0
STYLE
  5
20
330
3
100
AcDbSymbolTableRecord
100
AcDbTextStyleTableRecord
  2
KANJITATE
 70
     4
 40
0.0
 41
1.0
 50
0.0
 71
     0
 42
0.2
  3
txt
  4
extfont
  0
ENDTAB
  0
TABLE
  2
VIEW
  5
5
330
0
100
AcDbSymbolTable
 70
     0
  0
ENDTAB
  0
TABLE
  2
UCS
  5
6
330
0
100
AcDbSymbolTable
 70
     0
  0
ENDTAB
  0
TABLE
  2
APPID
  5
8
330
0
100
AcDbSymbolTable
 70
     1
  0
APPID
  5
16
330
8
100
AcDbSymbolTableRecord
100
AcDbRegAppTableRecord
  2
ACAD
 70
     0
  0
ENDTAB
  0
TABLE
  2
DIMSTYLE
  5
9
330
0
100
AcDbSymbolTable
 70
     1
100
AcDbDimStyleTable
  0
DIMSTYLE
105
18
330
9
100
AcDbSymbolTableRecord
100
AcDbDimStyleTableRecord
  2
STANDARD
 70
     0
  3

  4

289
     0
340
17
  0
ENDTAB
  0
TABLE
  2
BLOCK_RECORD
  5
1
330
0
100
AcDbSymbolTable
 70
     0
  0
BLOCK_RECORD
  5
A
330
1
100
AcDbSymbolTableRecord
100
AcDbBlockTableRecord
  2
*MODEL_SPACE
340
AE
  0
BLOCK_RECORD
  5
B
330
1
100
AcDbSymbolTableRecord
100
AcDbBlockTableRecord
  2
*PAPER_SPACE
340
AF
  0
ENDTAB
  0
ENDSEC
  0
SECTION
  2
BLOCKS
  0
BLOCK
  5
D
330
A
100
AcDbEntity
  8
0
100
AcDbBlockBegin
  2
*MODEL_SPACE
 70
     0
 10
0.0
 20
0.0
 30
0.0
  3
*MODEL_SPACE
  1

  4

  0
ENDBLK
  5
E
330
A
100
AcDbEntity
  8
0
100
AcDbBlockEnd
  0
BLOCK
  5
F
330
B
100
AcDbEntity
 67
     1
  8
0
100
AcDbBlockBegin
  2
*PAPER_SPACE
 70
     0
 10
0.0
 20
0.0
 30
0.0
  3
*PAPER_SPACE
  1

  4

  0
ENDBLK
  5
10
330
B
100
AcDbEntity
 67
     1
  8
0
100
AcDbBlockEnd
  0
ENDSEC
  0
SECTION
  2
ENTITIES
  0
LWPOLYLINE
  5
89
330
A
100
AcDbEntity
  8
LAYER_1
 62
     7
100
AcDbPolyline
 90
       30
 70
     1
 43
0.0
 10
71.74962565104165
 20
138.6364990234375
 10
79.50367431640625
 20
140.5402587890625
 10
81.96450602213541
 20
144.30126953125
 10
86.05056152343749
 20
141.1903483072917
 10
86.83966064453124
 20
142.4440185546875
 10
93.52555745442707
 20
144.4867879231771
 10
110.7048706054687
 20
131.8115926106771
 10
110.8438802083333
 20
97.68551025390624
 10
128.2087117513021
 20
103.5817911783854
 10
134.7555989583333
 20
98.66012776692708
 10
139.2126912434896
 20
98.84616292317708
 10
139.2126912434896
 20
95.50321451822916
 10
145.5275512695312
 20
90.58155110677083
 10
145.6665608723958
 20
68.66660970052082
 10
110.9368977864583
 20
55.06227213541666
 10
111.3084513346354
 20
16.06155192057291
 10
104.5295369466146
 20
13.04313151041667
 10
103.3688842773437
 20
7.93594970703125
 10
99.05080159505208
 20
12.34704996744792
 10
98.58623046874999
 20
10.62880859375
 10
89.95058186848958
 20
6.867797851562499
 10
72.35372314453124
 20
27.0650146484375
 10
72.35372314453124
 20
40.25128987630208
 10
61.81379801432291
 20
36.165234375
 10
56.24204508463541
 20
42.48009440104166
 10
51.59943440755208
 20
42.29405924479166
 10
51.45990804036458
 20
48.70142008463542
 10
46.77027180989583
 20
53.85511067708333
 10
46.58475341796875
 20
76.32764078776042
 10
72.16768798828124
 20
84.96328938802083
  0
SPLINE
  5
88
330
A
100
AcDbEntity
  8
LAYER_1
 62
     7
100
AcDbSpline
210
0.0
220
0.0
230
1.0
 70
    11
 71
     3
 72
    44
 73
    40
 74
     0
 42
0.0000000001
 43
0.0000000001
 40
0.0
 40
0.0
 40
0.0
 40
0.0
 40
1.0
 40
1.0
 40
1.0
 40
2.0
 40
2.0
 40
2.0
 40
3.0
 40
3.0
 40
3.0
 40
4.0
 40
4.0
 40
4.0
 40
5.0
 40
5.0
 40
5.0
 40
6.0
 40
6.0
 40
6.0
 40
7.0
 40
7.0
 40
7.0
 40
8.0
 40
8.0
 40
8.0
 40
9.0
 40
9.0
 40
9.0
 40
10.0
 40
10.0
 40
10.0
 40
11.0
 40
11.0
 40
11.0
 40
12.0
 40
12.0
 40
12.0
 40
13.0
 40
13.0
 40
13.0
 40
13.0
 10
90.46114501953124
 20
91.231640625
 30
0.0
 10
91.15774332682291
 20
91.46366780598957
 30
0.0
 10
91.62179768880208
 20
91.231640625
 30
0.0
 10
91.99335123697915
 20
90.86008707682291
 30
0.0
 10
92.36490478515624
 20
90.48853352864583
 30
0.0
 10
99.93291829427082
 20
83.84914550781249
 30
0.0
 10
99.93291829427082
 20
83.84914550781249
 30
0.0
 10
99.93291829427082
 20
83.84914550781249
 30
0.0
 10
110.1937906901042
 20
82.54896647135416
 30
0.0
 10
110.1937906901042
 20
82.54896647135416
 30
0.0
 10
110.1937906901042
 20
82.54896647135416
 30
0.0
 10
118.3659016927083
 20
85.38135172526042
 30
0.0
 10
118.3659016927083
 20
85.38135172526042
 30
0.0
 10
118.3659016927083
 20
85.38135172526042
 30
0.0
 10
119.2945271809896
 20
90.72107747395833
 30
0.0
 10
119.2945271809896
 20
90.72107747395833
 30
0.0
 10
119.2945271809896
 20
90.72107747395833
 30
0.0
 10
111.540478515625
 20
96.89589436848958
 30
0.0
 10
111.0299153645833
 20
97.36046549479165
 30
0.0
 10
110.5188354492187
 20
97.82451985677082
 30
0.0
 10
109.4512003580729
 20
98.66012776692708
 30
0.0
 10
108.7546020507812
 20
98.47460937499999
 30
0.0
 10
108.01201171875
 20
98.27565511067708
 30
0.0
 10
103.1828491210937
 20
96.38533121744791
 30
0.0
 10
103.1828491210937
 20
96.38533121744791
 30
0.0
 10
103.1828491210937
 20
96.38533121744791
 30
0.0
 10
102.1617228190104
 20
95.82825927734375
 30
0.0
 10
102.1617228190104
 20
95.50321451822916
 30
0.0
 10
102.39375
 20
95.22467854817708
 30
0.0
 10
103.0030151367187
 20
94.90996907552082
 30
0.0
 10
102.9508219401042
 20
94.6210978190104
 30
0.0
 10
102.8583211263021
 20
94.11001790364583
 30
0.0
 10
101.8831868489583
 20
93.08889160156249
 30
0.0
 10
98.86528320312499
 20
95.13166097005208
 30
0.0
 10
98.29477539062499
 20
94.97508138020832
 30
0.0
 10
92.36490478515624
 20
93.18139241536457
 30
0.0
 10
91.85434163411458
 20
92.94936523437499
 30
0.0
 10
91.34326171874999
 20
92.7173380533854
 30
0.0
 10
90.46114501953124
 20
92.25276692708333
 30
0.0
 10
90.46114501953124
 20
91.231640625
 30
0.0
  0
LWPOLYLINE
  5
81
330
A
100
AcDbEntity
  8
LAYER_1
 62
     7
100
AcDbPolyline
 90
        5
 70
     1
 43
0.0
 10
76.76430664062499
 20
86.44898681640625
 10
76.67128906249999
 20
93.36742757161457
 10
80.57182617187499
 20
96.66386718749999
 10
81.73247884114582
 20
96.89589436848958
 10
88.88243001302082
 20
90.48853352864583
  0
LINE
  5
80
330
A
100
AcDbEntity
  8
LAYER_1
 62
     7
100
AcDbLine
 10
110.9368977864583
 20
55.10878092447916
 30
0.0
 11
72.30721435546874
 21
40.25128987630208
 31
0.0
  0
SPLINE
  5
7F
330
A
100
AcDbEntity
  8
LAYER_1
 62
     7
100
AcDbSpline
210
0.0
220
0.0
230
1.0
 70
     8
 71
     3
 72
    11
 73
     7
 74
     0
 42
0.0000000001
 43
0.0000000001
 40
0.0
 40
0.0
 40
0.0
 40
0.0
 40
1.0
 40
1.0
 40
1.0
 40
2.0
 40
2.0
 40
2.0
 40
2.0
 10
99.60787353515624
 20
14.06477457682292
 30
0.0
 10
99.83990071614582
 20
13.04313151041667
 30
0.0
 10
100.1184366861979
 20
12.85761311848958
 30
0.0
 10
100.3044718424479
 20
12.25403238932292
 30
0.0
 10
100.489990234375
 20
11.65045166015625
 30
0.0
 10
100.676025390625
 20
11.00036214192708
 30
0.0
 10
100.676025390625
 20
10.6753173828125
 30
0.0
  0
LWPOLYLINE
  5
7A
330
A
100
AcDbEntity
  8
LAYER_1
 62
     7
100
AcDbPolyline
 90
        3
 70
     0
 43
0.0
 10
99.00429280598958
 20
12.30054117838542
 10
99.83990071614582
 20
14.76085611979167
 10
103.3688842773437
 20
8.121984863281249
  0
SPLINE
  5
79
330
A
100
AcDbEntity
  8
LAYER_1
 62
     7
100
AcDbSpline
210
0.0
220
0.0
230
1.0
 70
     8
 71
     3
 72
    20
 73
    16
 74
     0
 42
0.0000000001
 43
0.0000000001
 40
0.0
 40
0.0
 40
0.0
 40
0.0
 40
1.0
 40
1.0
 40
1.0
 40
2.0
 40
2.0
 40
2.0
 40
3.0
 40
3.0
 40
3.0
 40
4.0
 40
4.0
 40
4.0
 40
5.0
 40
5.0
 40
5.0
 40
5.0
 10
51.55292561848958
 20
45.03342692057291
 30
0.0
 10
52.20249837239583
 20
45.12644449869791
 30
0.0
 10
53.038623046875
 20
45.07993570963541
 30
0.0
 10
54.05974934895833
 20
44.89441731770833
 30
0.0
 10
55.08139241536458
 20
44.70838216145833
 30
0.0
 10
55.82449951171874
 20
44.47635498046875
 30
0.0
 10
56.10303548177083
 20
44.42984619140625
 30
0.0
 10
56.38157145182291
 20
44.38333740234375
 30
0.0
 10
56.6135986328125
 20
44.29083658854167
 30
0.0
 10
57.17067057291666
 20
43.78027343749999
 30
0.0
 10
57.72774251302083
 20
43.26919352213541
 30
0.0
 10
58.74938557942708
 20
42.06203206380208
 30
0.0
 10
59.35296630859374
 20
41.27293294270833
 30
0.0
 10
59.95654703776041
 20
40.48331705729166
 30
0.0
 10
61.02469889322916
 20
38.62606608072916
 30
0.0
 10
61.67478841145833
 20
38.67257486979166
 30
0.0
  0
SPLINE
  5
78
330
A
100
AcDbEntity
  8
LAYER_1
 62
     7
100
AcDbSpline
210
0.0
220
0.0
230
1.0
 70
     8
 71
     3
 72
    17
 73
    13
 74
     0
 42
0.0000000001
 43
0.0000000001
 40
0.0
 40
0.0
 40
0.0
 40
0.0
 40
1.0
 40
1.0
 40
1.0
 40
2.0
 40
2.0
 40
2.0
 40
3.0
 40
3.0
 40
3.0
 40
4.0
 40
4.0
 40
4.0
 40
4.0
 10
61.72078043619791
 20
42.01552327473958
 30
0.0
 10
60.28159179687499
 20
43.31570231119791
 30
0.0
 10
60.69965413411457
 20
42.71212158203124
 30
0.0
 10
59.95654703776041
 20
43.87277425130208
 30
0.0
 10
59.21395670572916
 20
45.03342692057291
 30
0.0
 10
56.7996337890625
 20
47.68029378255208
 30
0.0
 10
56.24204508463541
 20
48.23736572265624
 30
0.0
 10
55.45294596354166
 20
48.51590169270833
 30
0.0
 10
55.54596354166666
 20
48.51590169270833
 30
0.0
 10
54.47781168619791
 20
48.60891927083333
 30
0.0
 10
53.41017659505208
 20
48.70142008463542
 30
0.0
 10
51.78495279947916
 20
48.93396402994792
 30
0.0
 10
51.50641682942708
 20
49.02646484375
 30
0.0
  0
SPLINE
  5
77
330
A
100
AcDbEntity
  8
LAYER_1
 62
     7
100
AcDbSpline
210
0.0
220
0.0
230
1.0
 70
     8
 71
     3
 72
    23
 73
    19
 74
     0
 42
0.0000000001
 43
0.0000000001
 40
0.0
 40
0.0
 40
0.0
 40
0.0
 40
1.0
 40
1.0
 40
1.0
 40
2.0
 40
2.0
 40
2.0
 40
3.0
 40
3.0
 40
3.0
 40
4.0
 40
4.0
 40
4.0
 40
5.0
 40
5.0
 40
5.0
 40
6.0
 40
6.0
 40
6.0
 40
6.0
 10
51.36689046223958
 20
51.44078776041666
 30
0.0
 10
51.83146158854166
 20
51.39427897135416
 30
0.0
 10
53.31715901692708
 20
51.58031412760416
 30
0.0
 10
53.68871256510416
 20
51.30177815755208
 30
0.0
 10
54.05974934895833
 20
51.0232421875
 30
0.0
 10
54.66333007812499
 20
50.9767333984375
 30
0.0
 10
55.22091878255208
 20
50.9767333984375
 30
0.0
 10
55.77799072265624
 20
50.9767333984375
 30
0.0
 10
56.14954427083333
 20
50.9767333984375
 30
0.0
 10
56.14954427083333
 20
50.9767333984375
 30
0.0
 10
56.14954427083333
 20
50.9767333984375
 30
0.0
 10
56.753125
 20
50.51216227213541
 30
0.0
 10
57.21717936197916
 20
49.86207275390625
 30
0.0
 10
57.68175048828125
 20
49.2125
 30
0.0
 10
59.02792154947916
 20
47.77279459635416
 30
0.0
 10
59.81753743489583
 20
46.79817708333333
 30
0.0
 10
60.60663655598957
 20
45.82304280598958
 30
0.0
 10
61.25672607421875
 20
44.70838216145833
 30
0.0
 10
61.76728922526041
 20
44.56937255859375
 30
0.0
  0
SPLINE
  5
76
330
A
100
AcDbEntity
  8
LAYER_1
 62
     7
100
AcDbSpline
210
0.0
220
0.0
230
1.0
 70
     8
 71
     3
 72
    11
 73
     7
 74
     0
 42
0.0000000001
 43
0.0000000001
 40
0.0
 40
0.0
 40
0.0
 40
0.0
 40
1.0
 40
1.0
 40
1.0
 40
2.0
 40
2.0
 40
2.0
 40
2.0
 10
46.77027180989583
 20
55.10878092447916
 30
0.0
 10
47.3738525390625
 20
55.10878092447916
 30
0.0
 10
47.606396484375
 20
54.96977132161458
 30
0.0
 10
48.20997721354166
 20
54.31968180338541
 30
0.0
 10
48.81355794270833
 20
53.66959228515625
 30
0.0
 10
50.80981852213541
 20
50.8837158203125
 30
0.0
 10
51.3208984375
 20
50.83720703125
 30
0.0
  0
SPLINE
  5
75
330
A
100
AcDbEntity
  8
LAYER_1
 62
     7
100
AcDbSpline
210
0.0
220
0.0
230
1.0
 70
     8
 71
     3
 72
    11
 73
     7
 74
     0
 42
0.0000000001
 43
0.0000000001
 40
0.0
 40
0.0
 40
0.0
 40
0.0
 40
1.0
 40
1.0
 40
1.0
 40
2.0
 40
2.0
 40
2.0
 40
2.0
 10
46.77027180989583
 20
58.49823811848958
 30
0.0
 10
47.09531656901041
 20
57.75564778645833
 30
0.0
 10
47.606396484375
 20
57.61612141927083
 30
0.0
 10
48.30247802734375
 20
56.78051350911458
 30
0.0
 10
48.99907633463541
 20
55.94490559895833
 30
0.0
 10
50.94934488932291
 20
53.90161946614583
 30
0.0
 10
51.36689046223958
 20
53.66959228515625
 30
0.0
  0
SPLINE
  5
74
330
A
100
AcDbEntity
  8
LAYER_1
 62
     7
100
AcDbSpline
210
0.0
220
0.0
230
1.0
 70
     8
 71
     3
 72
    20
 73
    16
 74
     0
 42
0.0000000001
 43
0.0000000001
 40
0.0
 40
0.0
 40
0.0
 40
0.0
 40
1.0
 40
1.0
 40
1.0
 40
2.0
 40
2.0
 40
2.0
 40
3.0
 40
3.0
 40
3.0
 40
4.0
 40
4.0
 40
4.0
 40
5.0
 40
5.0
 40
5.0
 40
5.0
 10
51.3208984375
 20
54.92326253255208
 30
0.0
 10
51.87797037760416
 20
55.01628011067708
 30
0.0
 10
52.48155110677083
 20
54.96977132161458
 30
0.0
 10
52.76008707682291
 20
54.92326253255208
 30
0.0
 10
53.038623046875
 20
54.87675374348958
 30
0.0
 10
55.63846435546874
 20
54.73722737630208
 30
0.0
 10
56.05652669270833
 20
54.41269938151041
 30
0.0
 10
56.47458902994791
 20
54.08765462239583
 30
0.0
 10
57.21717936197916
 20
53.25152994791666
 30
0.0
 10
57.40269775390625
 20
53.01950276692708
 30
0.0
 10
57.58873291015625
 20
52.78747558593749
 30
0.0
 10
59.53900146484374
 20
50.930224609375
 30
0.0
 10
60.04956461588541
 20
50.32664388020833
 30
0.0
 10
60.56012776692707
 20
49.72306315104166
 30
0.0
 10
61.25672607421875
 20
48.74792887369792
 30
0.0
 10
61.67478841145833
 20
48.28387451171874
 30
0.0
  0
SPLINE
  5
73
330
A
100
AcDbEntity
  8
LAYER_1
 62
     7
100
AcDbSpline
210
0.0
220
0.0
230
1.0
 70
     8
 71
     3
 72
    14
 73
    10
 74
     0
 42
0.0000000001
 43
0.0000000001
 40
0.0
 40
0.0
 40
0.0
 40
0.0
 40
1.0
 40
1.0
 40
1.0
 40
2.0
 40
2.0
 40
2.0
 40
3.0
 40
3.0
 40
3.0
 40
3.0
 10
46.67777099609375
 20
61.00557861328124
 30
0.0
 10
47.04932454427083
 20
60.44850667317708
 30
0.0
 10
47.18833414713541
 20
60.40199788411458
 30
0.0
 10
47.5598876953125
 20
60.0304443359375
 30
0.0
 10
47.93144124348958
 20
59.65889078776041
 30
0.0
 10
48.34898681640625
 20
59.00931803385416
 30
0.0
 10
48.76704915364583
 20
58.77677408854166
 30
0.0
 10
49.18459472656249
 20
58.54474690755208
 30
0.0
 10
51.2743896484375
 20
56.54796956380208
 30
0.0
 10
51.2743896484375
 20
56.54796956380208
 30
0.0
  0
SPLINE
  5
72
330
A
100
AcDbEntity
  8
LAYER_1
 62
     7
100
AcDbSpline
210
0.0
220
0.0
230
1.0
 70
     8
 71
     3
 72
    23
 73
    19
 74
     0
 42
0.0000000001
 43
0.0000000001
 40
0.0
 40
0.0
 40
0.0
 40
0.0
 40
1.0
 40
1.0
 40
1.0
 40
2.0
 40
2.0
 40
2.0
 40
3.0
 40
3.0
 40
3.0
 40
4.0
 40
4.0
 40
4.0
 40
5.0
 40
5.0
 40
5.0
 40
6.0
 40
6.0
 40
6.0
 40
6.0
 10
61.72078043619791
 20
51.20876057942708
 30
0.0
 10
61.11719970703125
 20
52.27691243489583
 30
0.0
 10
60.93168131510416
 20
52.60144042968749
 30
0.0
 10
60.60663655598957
 20
53.01950276692708
 30
0.0
 10
60.28159179687499
 20
53.43756510416666
 30
0.0
 10
59.53900146484374
 20
54.27317301432291
 30
0.0
 10
58.56386718749999
 20
54.73722737630208
 30
0.0
 10
57.58873291015625
 20
55.20179850260416
 30
0.0
 10
57.31019694010416
 20
55.99089762369791
 30
0.0
 10
57.12416178385416
 20
56.45546874999999
 30
0.0
 10
56.93864339192708
 20
56.91952311197916
 30
0.0
 10
56.38157145182291
 20
57.01254069010416
 30
0.0
 10
56.01001790364583
 20
57.52310384114583
 30
0.0
 10
55.45294596354166
 20
57.89465738932291
 30
0.0
 10
54.75634765624999
 20
58.03418375651041
 30
0.0
 10
54.19927571614583
 20
58.03418375651041
 30
0.0
 10
53.64220377604166
 20
58.03418375651041
 30
0.0
 10
51.87797037760416
 20
58.45172932942708
 30
0.0
 10
51.2743896484375
 20
58.21970214843749
 30
0.0
  0
SPLINE
  5
71
330
A
100
AcDbEntity
  8
LAYER_1
 62
     7
100
AcDbSpline
210
0.0
220
0.0
230
1.0
 70
     8
 71
     3
 72
    23
 73
    19
 74
     0
 42
0.0000000001
 43
0.0000000001
 40
0.0
 40
0.0
 40
0.0
 40
0.0
 40
1.0
 40
1.0
 40
1.0
 40
2.0
 40
2.0
 40
2.0
 40
3.0
 40
3.0
 40
3.0
 40
4.0
 40
4.0
 40
4.0
 40
5.0
 40
5.0
 40
5.0
 40
6.0
 40
6.0
 40
6.0
 40
6.0
 10
51.2743896484375
 20
61.74868570963541
 30
0.0
 10
51.92396240234375
 20
61.93420410156249
 30
0.0
 10
52.8990966796875
 20
61.98071289062499
 30
0.0
 10
53.36366780598958
 20
61.74868570963541
 30
0.0
 10
53.82772216796874
 20
61.51614176432291
 30
0.0
 10
55.73148193359374
 20
61.05208740234374
 30
0.0
 10
55.96350911458333
 20
61.23760579427083
 30
0.0
 10
56.38157145182291
 20
60.91256103515624
 30
0.0
 10
56.84562581380208
 20
60.63402506510416
 30
0.0
 10
57.26368815104166
 20
59.983935546875
 30
0.0
 10
57.68175048828125
 20
59.33384602864583
 30
0.0
 10
58.28533121744791
 20
58.17319335937499
 30
0.0
 10
58.88891194661458
 20
57.98767496744791
 30
0.0
 10
59.49249267578124
 20
57.80215657552083
 30
0.0
 10
60.23508300781249
 20
56.59447835286458
 30
0.0
 10
60.56012776692707
 20
56.26995035807291
 30
0.0
 10
60.88517252604166
 20
55.94490559895833
 30
0.0
 10
60.88517252604166
 20
55.29481608072916
 30
0.0
 10
61.67478841145833
 20
55.34132486979166
 30
0.0
  0
SPLINE
  5
70
330
A
100
AcDbEntity
  8
LAYER_1
 62
     7
100
AcDbSpline
210
0.0
220
0.0
230
1.0
 70
     8
 71
     3
 72
    11
 73
     7
 74
     0
 42
0.0000000001
 43
0.0000000001
 40
0.0
 40
0.0
 40
0.0
 40
0.0
 40
1.0
 40
1.0
 40
1.0
 40
2.0
 40
2.0
 40
2.0
 40
2.0
 10
46.67777099609375
 20
64.85909016927083
 30
0.0
 10
47.09531656901041
 20
64.06999104817707
 30
0.0
 10
47.88493245442708
 20
62.90933837890624
 30
0.0
 10
48.48851318359375
 20
62.67679443359374
 30
0.0
 10
49.09209391276041
 20
62.44476725260416
 30
0.0
 10
50.99585367838541
 20
60.30898030598958
 30
0.0
 10
51.1813720703125
 20
59.79841715494791
 30
0.0
  0
SPLINE
  5
6F
330
A
100
AcDbEntity
  8
LAYER_1
 62
     7
100
AcDbSpline
210
0.0
220
0.0
230
1.0
 70
     8
 71
     3
 72
    14
 73
    10
 74
     0
 42
0.0000000001
 43
0.0000000001
 40
0.0
 40
0.0
 40
0.0
 40
0.0
 40
1.0
 40
1.0
 40
1.0
 40
2.0
 40
2.0
 40
2.0
 40
3.0
 40
3.0
 40
3.0
 40
3.0
 10
56.01001790364583
 20
65.04512532552083
 30
0.0
 10
56.28855387369791
 20
64.53404541015624
 30
0.0
 10
56.753125
 20
63.93046468098958
 30
0.0
 10
57.35670572916666
 20
63.32688395182291
 30
0.0
 10
57.96028645833333
 20
62.72330322265624
 30
0.0
 10
58.98141276041666
 20
60.81954345703124
 30
0.0
 10
59.58499348958333
 20
60.26247151692708
 30
0.0
 10
60.18857421874999
 20
59.70539957682291
 30
0.0
 10
60.93168131510416
 20
58.08069254557291
 30
0.0
 10
61.72078043619791
 20
57.98767496744791
 30
0.0
  0
SPLINE
  5
6E
330
A
100
AcDbEntity
  8
LAYER_1
 62
     7
100
AcDbSpline
210
0.0
220
0.0
230
1.0
 70
     8
 71
     3
 72
    14
 73
    10
 74
     0
 42
0.0000000001
 43
0.0000000001
 40
0.0
 40
0.0
 40
0.0
 40
0.0
 40
1.0
 40
1.0
 40
1.0
 40
2.0
 40
2.0
 40
2.0
 40
3.0
 40
3.0
 40
3.0
 40
3.0
 10
51.1813720703125
 20
64.72008056640624
 30
0.0
 10
51.45990804036458
 20
64.85909016927083
 30
0.0
 10
52.15650634765625
 20
64.81258138020833
 30
0.0
 10
52.9921142578125
 20
64.72008056640624
 30
0.0
 10
53.82772216796874
 20
64.62706298828124
 30
0.0
 10
54.01375732421874
 20
65.3236612955729
 30
0.0
 10
54.61733805338541
 20
64.95210774739583
 30
0.0
 10
55.22091878255208
 20
64.58055419921874
 30
0.0
 10
55.77799072265624
 20
64.62706298828124
 30
0.0
 10
56.05652669270833
 20
64.81258138020833
 30
0.0
  0
SPLINE
  5
6D
330
A
100
AcDbEntity
  8
LAYER_1
 62
     7
100
AcDbSpline
210
0.0
220
0.0
230
1.0
 70
     8
 71
     3
 72
    14
 73
    10
 74
     0
 42
0.0000000001
 43
0.0000000001
 40
0.0
 40
0.0
 40
0.0
 40
0.0
 40
1.0
 40
1.0
 40
1.0
 40
2.0
 40
2.0
 40
2.0
 40
3.0
 40
3.0
 40
3.0
 40
3.0
 10
46.67777099609375
 20
69.40971679687499
 30
0.0
 10
47.04932454427083
 20
68.52708333333332
 30
0.0
 10
47.09531656901041
 20
68.52708333333332
 30
0.0
 10
47.88493245442708
 20
67.31992187499999
 30
0.0
 10
48.67403157552083
 20
66.11276041666666
 30
0.0
 10
49.13860270182291
 20
66.15926920572916
 30
0.0
 10
49.74218343098958
 20
65.3701700846354
 30
0.0
 10
50.34576416015624
 20
64.58055419921874
 30
0.0
 10
50.85632731119791
 20
64.30201822916666
 30
0.0
 10
51.13486328125
 20
63.6984375
 30
0.0
  0
SPLINE
  5
6C
330
A
100
AcDbEntity
  8
LAYER_1
 62
     7
100
AcDbSpline
210
0.0
220
0.0
230
1.0
 70
     8
 71
     3
 72
    11
 73
     7
 74
     0
 42
0.0000000001
 43
0.0000000001
 40
0.0
 40
0.0
 40
0.0
 40
0.0
 40
1.0
 40
1.0
 40
1.0
 40
2.0
 40
2.0
 40
2.0
 40
2.0
 10
46.58475341796875
 20
72.56663004557291
 30
0.0
 10
47.3738525390625
 20
71.35946858723958
 30
0.0
 10
47.97743326822916
 20
70.66287027994791
 30
0.0
 10
48.53502197265625
 20
70.10579833984374
 30
0.0
 10
49.09209391276041
 20
69.54872639973958
 30
0.0
 10
51.78495279947916
 20
66.90237630208333
 30
0.0
 10
51.92396240234375
 20
66.39129638671875
 30
0.0
  0
SPLINE
  5
6B
330
A
100
AcDbEntity
  8
LAYER_1
 62
     7
100
AcDbSpline
210
0.0
220
0.0
230
1.0
 70
     8
 71
     3
 72
    17
 73
    13
 74
     0
 42
0.0000000001
 43
0.0000000001
 40
0.0
 40
0.0
 40
0.0
 40
0.0
 40
1.0
 40
1.0
 40
1.0
 40
2.0
 40
2.0
 40
2.0
 40
3.0
 40
3.0
 40
3.0
 40
4.0
 40
4.0
 40
4.0
 40
4.0
 10
48.16346842447916
 20
74.60939941406249
 30
0.0
 10
48.67403157552083
 20
73.77379150390624
 30
0.0
 10
49.04558512369791
 20
72.9846923828125
 30
0.0
 10
49.50963948567708
 20
72.38111165364583
 30
0.0
 10
49.97421061197916
 20
71.77753092447917
 30
0.0
 10
52.20249837239583
 20
69.45570882161458
 30
0.0
 10
52.52805989583333
 20
68.85212809244791
 30
0.0
 10
53.038623046875
 20
68.80561930338541
 30
0.0
 10
53.27065022786458
 20
68.89863688151041
 30
0.0
 10
53.92073974609374
 20
68.85212809244791
 30
0.0
 10
54.57082926432291
 20
68.80561930338541
 30
0.0
 10
53.78121337890624
 20
69.03816324869791
 30
0.0
 10
54.98837483723958
 20
68.71311848958332
 30
0.0
  0
LINE
  5
6A
330
A
100
AcDbEntity
  8
LAYER_1
 62
     7
100
AcDbLine
 10
51.1813720703125
 20
65.83422444661458
 30
0.0
 11
51.45990804036458
 21
48.70142008463542
 31
0.0
  0
LINE
  5
69
330
A
100
AcDbEntity
  8
LAYER_1
 62
     7
100
AcDbLine
 10
56.01001790364583
 20
65.97375081380208
 30
0.0
 11
56.19605305989583
 21
42.48009440104166
 31
0.0
  0
LINE
  5
68
330
A
100
AcDbEntity
  8
LAYER_1
 62
     7
100
AcDbLine
 10
52.62056070963541
 20
69.59523518880208
 30
0.0
 11
52.66706949869791
 21
66.94836832682292
 31
0.0
  0
LWPOLYLINE
  5
5F
330
A
100
AcDbEntity
  8
LAYER_1
 62
     7
100
AcDbPolyline
 90
        7
 70
     0
 43
0.0
 10
61.72078043619791
 20
36.258251953125
 10
61.72078043619791
 20
60.169970703125
 10
56.05652669270833
 20
66.01974283854166
 10
51.227880859375
 20
65.78771565755208
 10
56.47458902994791
 20
69.68773600260415
 10
52.66706949869791
 20
69.59523518880208
 10
46.63126220703125
 20
76.32764078776042
  0
LINE
  5
5E
330
A
100
AcDbEntity
  8
LAYER_1
 62
     7
100
AcDbLine
 10
145.5275512695312
 20
90.58155110677083
 30
0.0
 11
61.67478841145833
 21
60.21596272786458
 31
0.0
  0
SPLINE
  5
5D
330
A
100
AcDbEntity
  8
LAYER_1
 62
     7
100
AcDbSpline
210
0.0
220
0.0
230
1.0
 70
     8
 71
     3
 72
    11
 73
     7
 74
     0
 42
0.0000000001
 43
0.0000000001
 40
0.0
 40
0.0
 40
0.0
 40
0.0
 40
1.0
 40
1.0
 40
1.0
 40
2.0
 40
2.0
 40
2.0
 40
2.0
 10
138.0985473632812
 20
95.54972330729166
 30
0.0
 10
138.3305745442708
 20
95.73524169921875
 30
0.0
 10
138.4235921223958
 20
96.29231363932291
 30
0.0
 10
138.7021280924479
 20
96.52485758463541
 30
0.0
 10
138.9806640625
 20
96.75688476562499
 30
0.0
 10
139.073681640625
 20
96.80287679036458
 30
0.0
 10
139.2592000325521
 20
96.84938557942708
 30
0.0
  0
SPLINE
  5
5C
330
A
100
AcDbEntity
  8
LAYER_1
 62
     7
100
AcDbSpline
210
0.0
220
0.0
230
1.0
 70
     8
 71
     3
 72
    11
 73
     7
 74
     0
 42
0.0000000001
 43
0.0000000001
 40
0.0
 40
0.0
 40
0.0
 40
0.0
 40
1.0
 40
1.0
 40
1.0
 40
2.0
 40
2.0
 40
2.0
 40
2.0
 10
136.4273315429687
 20
95.59571533203125
 30
0.0
 10
136.9378946940104
 20
96.19981282552082
 30
0.0
 10
137.3554402669271
 20
96.52485758463541
 30
0.0
 10
137.9590209960937
 20
96.89589436848958
 30
0.0
 10
138.5626017252604
 20
97.26744791666665
 30
0.0
 10
138.9341552734375
 20
97.40645751953124
 30
0.0
 10
139.2126912434896
 20
97.91753743489582
 30
0.0
  0
LWPOLYLINE
  5
57
330
A
100
AcDbEntity
  8
LAYER_1
 62
     7
100
AcDbPolyline
 90
        3
 70
     0
 43
0.0
 10
138.1915649414062
 20
98.79965413411458
 10
134.7555989583333
 20
95.64222412109375
 10
139.2126912434896
 20
95.45670572916666
  0
LINE
  5
56
330
A
100
AcDbEntity
  8
LAYER_1
 62
     7
100
AcDbLine
 10
102.5565307617188
 20
95.08515218098958
 30
0.0
 11
100.4439982096354
 21
94.27279866536458
 31
0.0
  0
SPLINE
  5
55
330
A
100
AcDbEntity
  8
LAYER_1
 62
     7
100
AcDbSpline
210
0.0
220
0.0
230
1.0
 70
     8
 71
     3
 72
     8
 73
     4
 74
     0
 42
0.0000000001
 43
0.0000000001
 40
0.0
 40
0.0
 40
0.0
 40
0.0
 40
1.0
 40
1.0
 40
1.0
 40
1.0
 10
103.1368570963542
 20
96.33882242838541
 30
0.0
 10
103.8096842447917
 20
95.68873291015625
 30
0.0
 10
104.5760457356771
 20
94.59784342447915
 30
0.0
 10
102.4635131835938
 20
94.06350911458333
 30
0.0
  0
SPLINE
  5
54
330
A
100
AcDbEntity
  8
LAYER_1
 62
     7
100
AcDbSpline
210
0.0
220
0.0
230
1.0
 70
    11
 71
     3
 72
    50
 73
    46
 74
     0
 42
0.0000000001
 43
0.0000000001
 40
0.0
 40
0.0
 40
0.0
 40
0.0
 40
1.0
 40
1.0
 40
1.0
 40
2.0
 40
2.0
 40
2.0
 40
3.0
 40
3.0
 40
3.0
 40
4.0
 40
4.0
 40
4.0
 40
5.0
 40
5.0
 40
5.0
 40
6.0
 40
6.0
 40
6.0
 40
7.0
 40
7.0
 40
7.0
 40
8.0
 40
8.0
 40
8.0
 40
9.0
 40
9.0
 40
9.0
 40
10.0
 40
10.0
 40
10.0
 40
11.0
 40
11.0
 40
11.0
 40
12.0
 40
12.0
 40
12.0
 40
13.0
 40
13.0
 40
13.0
 40
14.0
 40
14.0
 40
14.0
 40
15.0
 40
15.0
 40
15.0
 40
15.0
 10
114.3263549804687
 20
90.09372558593749
 30
0.0
 10
114.5118733723958
 20
90.18674316406249
 30
0.0
 10
115.0462076822917
 20
90.62805989583333
 30
0.0
 10
115.3247436523437
 20
90.62805989583333
 30
0.0
 10
115.6497884114583
 20
90.41877034505208
 30
0.0
 10
115.7180013020833
 20
90.22911783854165
 30
0.0
 10
115.8353068033854
 20
90.07098795572915
 30
0.0
 10
116.0440795898437
 20
89.79245198567708
 30
0.0
 10
116.4853963216146
 20
90.0012247721354
 30
0.0
 10
116.2068603515625
 20
90.30301513671874
 30
0.0
 10
115.9283243815104
 20
90.60480550130208
 30
0.0
 10
115.7422892252604
 20
90.79032389322916
 30
0.0
 10
115.7422892252604
 20
90.79032389322916
 30
0.0
 10
115.7422892252604
 20
90.79032389322916
 30
0.0
 10
116.2068603515625
 20
91.06885986328125
 30
0.0
 10
116.2068603515625
 20
91.06885986328125
 30
0.0
 10
116.2068603515625
 20
91.06885986328125
 30
0.0
 10
116.2068603515625
 20
91.25489501953125
 30
0.0
 10
116.0905883789062
 20
91.1851318359375
 30
0.0
 10
115.97431640625
 20
91.11536865234375
 30
0.0
 10
115.9283243815104
 20
90.90659586588541
 30
0.0
 10
115.8120524088542
 20
91.06885986328125
 30
0.0
 10
115.6957804361979
 20
91.231640625
 30
0.0
 10
115.6032796223958
 20
91.46366780598957
 30
0.0
 10
115.5102620442708
 20
91.44041341145832
 30
0.0
 10
115.3712524414062
 20
91.2781494140625
 30
0.0
 10
115.2317260742187
 20
91.11536865234375
 30
0.0
 10
115.2317260742187
 20
91.11536865234375
 30
0.0
 10
115.2317260742187
 20
91.11536865234375
 30
0.0
 10
114.7904093424479
 20
91.44041341145832
 30
0.0
 10
114.5583821614583
 20
91.46366780598957
 30
0.0
 10
114.256591796875
 20
91.41715901692707
 30
0.0
 10
113.6530110677083
 20
91.20838623046875
 30
0.0
 10
113.6530110677083
 20
91.20838623046875
 30
0.0
 10
113.6530110677083
 20
91.20838623046875
 30
0.0
 10
113.9315470377604
 20
91.25489501953125
 30
0.0
 10
114.3263549804687
 20
91.0921142578125
 30
0.0
 10
114.7206461588542
 20
90.92985026041666
 30
0.0
 10
114.8369181315104
 20
90.81357828776041
 30
0.0
 10
114.6513997395833
 20
90.72107747395833
 30
0.0
 10
114.4653645833333
 20
90.62805989583333
 30
0.0
 10
114.4421101888021
 20
90.55829671223958
 30
0.0
 10
114.2333374023437
 20
90.37277832031249
 30
0.0
 10
114.0245646158854
 20
90.18674316406249
 30
0.0
 10
114.1408365885417
 20
90.0012247721354
 30
0.0
 10
114.3263549804687
 20
90.09372558593749
 30
0.0
  0
SPLINE
  5
53
330
A
100
AcDbEntity
  8
LAYER_1
 62
     7
100
AcDbSpline
210
0.0
220
0.0
230
1.0
 70
     8
 71
     3
 72
     8
 73
     4
 74
     0
 42
0.0000000001
 43
0.0000000001
 40
0.0
 40
0.0
 40
0.0
 40
0.0
 40
1.0
 40
1.0
 40
1.0
 40
1.0
 10
117.3442586263021
 20
90.76706949869791
 30
0.0
 10
117.878076171875
 20
90.25650634765624
 30
0.0
 10
117.06572265625
 20
89.21212565104166
 30
0.0
 10
116.1370971679687
 20
89.07259928385416
 30
0.0
  0
SPLINE
  5
52
330
A
100
AcDbEntity
  8
LAYER_1
 62
     7
100
AcDbSpline
210
0.0
220
0.0
230
1.0
 70
     8
 71
     3
 72
     8
 73
     4
 74
     0
 42
0.0000000001
 43
0.0000000001
 40
0.0
 40
0.0
 40
0.0
 40
0.0
 40
1.0
 40
1.0
 40
1.0
 40
1.0
 10
113.44423828125
 20
91.138623046875
 30
0.0
 10
113.0726847330729
 20
90.86008707682291
 30
0.0
 10
111.5637329101562
 20
89.32788085937499
 30
0.0
 10
114.7904093424479
 20
88.95632731119791
 30
0.0
  0
SPLINE
  5
51
330
A
100
AcDbEntity
  8
LAYER_1
 62
     7
100
AcDbSpline
210
0.0
220
0.0
230
1.0
 70
    11
 71
     3
 72
    17
 73
    13
 74
     0
 42
0.0000000001
 43
0.0000000001
 40
0.0
 40
0.0
 40
0.0
 40
0.0
 40
1.0
 40
1.0
 40
1.0
 40
2.0
 40
2.0
 40
2.0
 40
3.0
 40
3.0
 40
3.0
 40
4.0
 40
4.0
 40
4.0
 40
4.0
 10
114.5816365559896
 20
87.93520100911458
 30
0.0
 10
119.6919189453125
 20
87.55641276041666
 30
0.0
 10
118.0279378255208
 20
90.83373209635415
 30
0.0
 10
116.5551595052083
 20
91.1851318359375
 30
0.0
 10
115.930908203125
 20
91.33292643229166
 30
0.0
 10
116.0905883789062
 20
90.99961344401041
 30
0.0
 10
115.8353068033854
 20
91.06885986328125
 30
0.0
 10
115.6570231119792
 20
91.11846923828124
 30
0.0
 10
115.8105021158854
 20
91.38253580729166
 30
0.0
 10
115.5567708333333
 20
91.44041341145832
 30
0.0
 10
113.0494303385417
 20
92.02073974609374
 30
0.0
 10
109.6992472330729
 20
88.29641927083333
 30
0.0
 10
114.5816365559896
 20
87.93520100911458
 30
0.0
  0
SPLINE
  5
50
330
A
100
AcDbEntity
  8
LAYER_1
 62
     7
100
AcDbSpline
210
0.0
220
0.0
230
1.0
 70
    11
 71
     3
 72
    50
 73
    46
 74
     0
 42
0.0000000001
 43
0.0000000001
 40
0.0
 40
0.0
 40
0.0
 40
0.0
 40
1.0
 40
1.0
 40
1.0
 40
2.0
 40
2.0
 40
2.0
 40
3.0
 40
3.0
 40
3.0
 40
4.0
 40
4.0
 40
4.0
 40
5.0
 40
5.0
 40
5.0
 40
6.0
 40
6.0
 40
6.0
 40
7.0
 40
7.0
 40
7.0
 40
8.0
 40
8.0
 40
8.0
 40
9.0
 40
9.0
 40
9.0
 40
10.0
 40
10.0
 40
10.0
 40
11.0
 40
11.0
 40
11.0
 40
12.0
 40
12.0
 40
12.0
 40
13.0
 40
13.0
 40
13.0
 40
14.0
 40
14.0
 40
14.0
 40
15.0
 40
15.0
 40
15.0
 40
15.0
 10
101.8599324544271
 20
88.1904825846354
 30
0.0
 10
102.0454508463542
 20
88.28298339843749
 30
0.0
 10
102.57978515625
 20
88.72430013020832
 30
0.0
 10
102.8583211263021
 20
88.72430013020832
 30
0.0
 10
103.1828491210937
 20
88.51552734374999
 30
0.0
 10
103.2515787760417
 20
88.32535807291666
 30
0.0
 10
103.3688842773437
 20
88.16722819010415
 30
0.0
 10
103.5776570638021
 20
87.88869222005208
 30
0.0
 10
104.0189737955729
 20
88.0974650065104
 30
0.0
 10
103.7404378255208
 20
88.39925537109374
 30
0.0
 10
103.4619018554687
 20
88.70104573567707
 30
0.0
 10
103.2758666992187
 20
88.88656412760416
 30
0.0
 10
103.2758666992187
 20
88.88656412760416
 30
0.0
 10
103.2758666992187
 20
88.88656412760416
 30
0.0
 10
103.7404378255208
 20
89.16561686197916
 30
0.0
 10
103.7404378255208
 20
89.16561686197916
 30
0.0
 10
103.7404378255208
 20
89.16561686197916
 30
0.0
 10
103.7404378255208
 20
89.35113525390624
 30
0.0
 10
103.6241658528646
 20
89.28137207031249
 30
0.0
 10
103.5078938802083
 20
89.21212565104166
 30
0.0
 10
103.4619018554687
 20
89.00283610026041
 30
0.0
 10
103.3456298828125
 20
89.16561686197916
 30
0.0
 10
103.2293579101562
 20
89.32788085937499
 30
0.0
 10
103.1368570963542
 20
89.55990804036458
 30
0.0
 10
103.0438395182292
 20
89.53665364583333
 30
0.0
 10
102.9043131510417
 20
89.37438964843749
 30
0.0
 10
102.7653035481771
 20
89.21212565104166
 30
0.0
 10
102.7653035481771
 20
89.21212565104166
 30
0.0
 10
102.7653035481771
 20
89.21212565104166
 30
0.0
 10
102.3239868164063
 20
89.53665364583333
 30
0.0
 10
102.0919596354167
 20
89.55990804036458
 30
0.0
 10
101.7901692708333
 20
89.51339925130208
 30
0.0
 10
101.1865885416667
 20
89.30462646484374
 30
0.0
 10
101.1865885416667
 20
89.30462646484374
 30
0.0
 10
101.1865885416667
 20
89.30462646484374
 30
0.0
 10
101.4651245117187
 20
89.35113525390624
 30
0.0
 10
101.8599324544271
 20
89.18835449218749
 30
0.0
 10
102.2542236328125
 20
89.02609049479166
 30
0.0
 10
102.3704956054688
 20
88.90981852213541
 30
0.0
 10
102.1849772135417
 20
88.81731770833332
 30
0.0
 10
101.9989420572917
 20
88.72430013020832
 30
0.0
 10
101.9756876627604
 20
88.65453694661457
 30
0.0
 10
101.7669148763021
 20
88.46901855468749
 30
0.0
 10
101.5581420898437
 20
88.28298339843749
 30
0.0
 10
101.6744140625
 20
88.0974650065104
 30
0.0
 10
101.8599324544271
 20
88.1904825846354
 30
0.0
  0
SPLINE
  5
4F
330
A
100
AcDbEntity
  8
LAYER_1
 62
     7
100
AcDbSpline
210
0.0
220
0.0
230
1.0
 70
     8
 71
     3
 72
     8
 73
     4
 74
     0
 42
0.0000000001
 43
0.0000000001
 40
0.0
 40
0.0
 40
0.0
 40
0.0
 40
1.0
 40
1.0
 40
1.0
 40
1.0
 10
104.3440185546875
 20
87.40086669921874
 30
0.0
 10
104.8313273111979
 20
87.65666503906249
 30
0.0
 10
105.4116536458333
 20
88.35274658203124
 30
0.0
 10
104.8778361002604
 20
88.86382649739582
 30
0.0
  0
SPLINE
  5
4E
330
A
100
AcDbEntity
  8
LAYER_1
 62
     7
100
AcDbSpline
210
0.0
220
0.0
230
1.0
 70
     8
 71
     3
 72
     8
 73
     4
 74
     0
 42
0.0000000001
 43
0.0000000001
 40
0.0
 40
0.0
 40
0.0
 40
0.0
 40
1.0
 40
1.0
 40
1.0
 40
1.0
 10
100.9778157552083
 20
89.23486328124999
 30
0.0
 10
100.6062622070312
 20
88.95632731119791
 30
0.0
 10
99.23631998697915
 20
87.84218343098958
 30
0.0
 10
102.4635131835938
 20
87.47062988281249
 30
0.0
  0
SPLINE
  5
4D
330
A
100
AcDbEntity
  8
LAYER_1
 62
     7
100
AcDbSpline
210
0.0
220
0.0
230
1.0
 70
    11
 71
     3
 72
    17
 73
    13
 74
     0
 42
0.0000000001
 43
0.0000000001
 40
0.0
 40
0.0
 40
0.0
 40
0.0
 40
1.0
 40
1.0
 40
1.0
 40
2.0
 40
2.0
 40
2.0
 40
3.0
 40
3.0
 40
3.0
 40
4.0
 40
4.0
 40
4.0
 40
4.0
 10
102.2082316080729
 20
86.30997721354166
 30
0.0
 10
107.3185139973958
 20
85.93118896484374
 30
0.0
 10
105.5609985351562
 20
88.93048909505208
 30
0.0
 10
104.0887369791667
 20
89.28137207031249
 30
0.0
 10
103.4644856770833
 20
89.42968343098957
 30
0.0
 10
103.6241658528646
 20
89.09585367838541
 30
0.0
 10
103.3688842773437
 20
89.16561686197916
 30
0.0
 10
103.1906005859375
 20
89.21470947265624
 30
0.0
 10
103.3440795898437
 20
89.47877604166666
 30
0.0
 10
103.0903483072917
 20
89.53665364583333
 30
0.0
 10
100.5830078125
 20
90.11749674479165
 30
0.0
 10
97.32584228515624
 20
86.6711954752604
 30
0.0
 10
102.2082316080729
 20
86.30997721354166
 30
0.0
  0
LINE
  5
4C
330
A
100
AcDbEntity
  8
LAYER_1
 62
     7
100
AcDbLine
 10
99.97942708333332
 20
85.33484293619792
 30
0.0
 11
99.97942708333332
 21
83.84914550781249
 31
0.0
  0
LINE
  5
4B
330
A
100
AcDbEntity
  8
LAYER_1
 62
     7
100
AcDbLine
 10
110.1012898763021
 20
84.08117268880207
 30
0.0
 11
110.1937906901042
 21
82.59547526041666
 31
0.0
  0
LINE
  5
4A
330
A
100
AcDbEntity
  8
LAYER_1
 62
     7
100
AcDbLine
 10
118.1333577473958
 20
86.82054036458332
 30
0.0
 11
118.3193929036458
 21
85.42786051432292
 31
0.0
  0
LWPOLYLINE
  5
43
330
A
100
AcDbEntity
  8
LAYER_1
 62
     7
100
AcDbPolyline
 90
        5
 70
     0
 43
0.0
 10
91.85434163411458
 20
92.85634765624999
 10
99.97942708333332
 20
85.38135172526042
 10
110.1012898763021
 20
84.08117268880207
 10
118.1333577473958
 20
86.82054036458332
 10
119.1550008138021
 20
90.81357828776041
  0
SPLINE
  5
42
330
A
100
AcDbEntity
  8
LAYER_1
 62
     7
100
AcDbSpline
210
0.0
220
0.0
230
1.0
 70
     8
 71
     3
 72
     8
 73
     4
 74
     0
 42
0.0000000001
 43
0.0000000001
 40
0.0
 40
0.0
 40
0.0
 40
0.0
 40
1.0
 40
1.0
 40
1.0
 40
1.0
 10
79.87522786458332
 20
93.32091878255207
 30
0.0
 10
79.68919270833332
 20
93.69247233072916
 30
0.0
 10
79.08561197916666
 20
94.3420450846354
 30
0.0
 10
78.66806640624999
 20
94.20303548177083
 30
0.0
  0
SPLINE
  5
41
330
A
100
AcDbEntity
  8
LAYER_1
 62
     7
100
AcDbSpline
210
0.0
220
0.0
230
1.0
 70
     8
 71
     3
 72
     8
 73
     4
 74
     0
 42
0.0000000001
 43
0.0000000001
 40
0.0
 40
0.0
 40
0.0
 40
0.0
 40
1.0
 40
1.0
 40
1.0
 40
1.0
 10
79.50367431640625
 20
89.60641682942708
 30
0.0
 10
80.15376383463541
 20
89.42089843749999
 30
0.0
 10
80.94286295572915
 20
90.39603271484374
 30
0.0
 10
80.43229980468749
 20
92.02073974609374
 30
0.0
  0
SPLINE
  5
40
330
A
100
AcDbEntity
  8
LAYER_1
 62
     7
100
AcDbSpline
210
0.0
220
0.0
230
1.0
 70
    11
 71
     3
 72
    41
 73
    37
 74
     0
 42
0.0000000001
 43
0.0000000001
 40
0.0
 40
0.0
 40
0.0
 40
0.0
 40
1.0
 40
1.0
 40
1.0
 40
2.0
 40
2.0
 40
2.0
 40
3.0
 40
3.0
 40
3.0
 40
4.0
 40
4.0
 40
4.0
 40
5.0
 40
5.0
 40
5.0
 40
6.0
 40
6.0
 40
6.0
 40
7.0
 40
7.0
 40
7.0
 40
8.0
 40
8.0
 40
8.0
 40
9.0
 40
9.0
 40
9.0
 40
10.0
 40
10.0
 40
10.0
 40
11.0
 40
11.0
 40
11.0
 40
12.0
 40
12.0
 40
12.0
 40
12.0
 10
79.22513834635416
 20
92.20677490234374
 30
0.0
 10
79.22513834635416
 20
92.20677490234374
 30
0.0
 10
79.41065673828125
 20
92.99587402343749
 30
0.0
 10
79.41065673828125
 20
92.99587402343749
 30
0.0
 10
79.41065673828125
 20
92.99587402343749
 30
0.0
 10
79.22513834635416
 20
93.46044514973957
 30
0.0
 10
79.08561197916666
 20
93.13540039062499
 30
0.0
 10
78.94660237630208
 20
92.8103556315104
 30
0.0
 10
78.85358479817708
 20
92.43880208333333
 30
0.0
 10
78.85358479817708
 20
92.43880208333333
 30
0.0
 10
78.85358479817708
 20
92.43880208333333
 30
0.0
 10
78.48254801432292
 20
92.94936523437499
 30
0.0
 10
78.48254801432292
 20
92.94936523437499
 30
0.0
 10
78.48254801432292
 20
92.94936523437499
 30
0.0
 10
78.34302164713542
 20
92.34578450520833
 30
0.0
 10
78.34302164713542
 20
92.34578450520833
 30
0.0
 10
78.34302164713542
 20
92.34578450520833
 30
0.0
 10
78.76108398437499
 20
91.88173014322916
 30
0.0
 10
78.76108398437499
 20
91.88173014322916
 30
0.0
 10
78.76108398437499
 20
91.88173014322916
 30
0.0
 10
78.57504882812499
 20
90.86008707682291
 30
0.0
 10
78.57504882812499
 20
90.86008707682291
 30
0.0
 10
78.57504882812499
 20
90.86008707682291
 30
0.0
 10
79.13212076822916
 20
89.93146158854165
 30
0.0
 10
79.13212076822916
 20
89.93146158854165
 30
0.0
 10
79.13212076822916
 20
89.93146158854165
 30
0.0
 10
79.31815592447916
 20
91.231640625
 30
0.0
 10
79.31815592447916
 20
91.231640625
 30
0.0
 10
79.31815592447916
 20
91.231640625
 30
0.0
 10
79.82871907552082
 20
90.95310465494791
 30
0.0
 10
79.82871907552082
 20
90.95310465494791
 30
0.0
 10
79.82871907552082
 20
90.95310465494791
 30
0.0
 10
80.06074625651041
 20
91.324658203125
 30
0.0
 10
80.06074625651041
 20
91.324658203125
 30
0.0
 10
80.06074625651041
 20
91.324658203125
 30
0.0
 10
79.22513834635416
 20
92.20677490234374
 30
0.0
 10
79.22513834635416
 20
92.20677490234374
 30
0.0
  0
SPLINE
  5
3F
330
A
100
AcDbEntity
  8
LAYER_1
 62
     7
100
AcDbSpline
210
0.0
220
0.0
230
1.0
 70
    11
 71
     3
 72
    20
 73
    16
 74
     0
 42
0.0000000001
 43
0.0000000001
 40
0.0
 40
0.0
 40
0.0
 40
0.0
 40
1.0
 40
1.0
 40
1.0
 40
2.0
 40
2.0
 40
2.0
 40
3.0
 40
3.0
 40
3.0
 40
4.0
 40
4.0
 40
4.0
 40
5.0
 40
5.0
 40
5.0
 40
5.0
 10
80.75734456380208
 20
89.28137207031249
 30
0.0
 10
82.47506917317708
 20
90.44202473958333
 30
0.0
 10
81.82497965494791
 20
94.11001790364583
 30
0.0
 10
79.92173665364582
 20
94.89963378906249
 30
0.0
 10
79.32073974609374
 20
95.14768066406249
 30
0.0
 10
78.43603922526042
 20
93.97100830078124
 30
0.0
 10
78.34302164713542
 20
93.69247233072916
 30
0.0
 10
78.25000406901042
 20
93.41393636067707
 30
0.0
 10
78.48254801432292
 20
92.94936523437499
 30
0.0
 10
78.38953043619792
 20
92.6243204752604
 30
0.0
 10
78.29651285807292
 20
92.29927571614583
 30
0.0
 10
78.21538085937499
 20
92.19333902994791
 30
0.0
 10
78.34302164713542
 20
91.60319417317707
 30
0.0
 10
78.71457519531249
 20
89.88495279947915
 30
0.0
 10
80.21060791015624
 20
88.91136881510415
 30
0.0
 10
80.75734456380208
 20
89.28137207031249
 30
0.0
  0
LINE
  5
3E
330
A
100
AcDbEntity
  8
LAYER_1
 62
     7
100
AcDbLine
 10
80.47880859374999
 20
96.47783203124999
 30
0.0
 11
87.48975016276042
 21
90.07098795572915
 31
0.0
  0
LINE
  5
3D
330
A
100
AcDbEntity
  8
LAYER_1
 62
     7
100
AcDbLine
 10
72.16768798828124
 20
84.96328938802083
 30
0.0
 11
90.73968098958332
 21
91.138623046875
 31
0.0
  0
LINE
  5
3C
330
A
100
AcDbEntity
  8
LAYER_1
 62
     7
100
AcDbLine
 10
89.60538330078124
 20
46.93873697916666
 30
0.0
 11
89.85756429036458
 21
6.914306640624999
 31
0.0
  0
LINE
  5
3B
330
A
100
AcDbEntity
  8
LAYER_1
 62
     7
100
AcDbLine
 10
89.11497395833332
 20
125.2181966145833
 30
0.0
 11
89.32943115234374
 21
90.67715250651041
 31
0.0
  0
SPLINE
  5
3A
330
A
100
AcDbEntity
  8
LAYER_1
 62
     7
100
AcDbSpline
210
0.0
220
0.0
230
1.0
 70
     8
 71
     3
 72
    17
 73
    13
 74
     0
 42
0.0000000001
 43
0.0000000001
 40
0.0
 40
0.0
 40
0.0
 40
0.0
 40
1.0
 40
1.0
 40
1.0
 40
2.0
 40
2.0
 40
2.0
 40
3.0
 40
3.0
 40
3.0
 40
4.0
 40
4.0
 40
4.0
 40
4.0
 10
85.5394816080729
 20
128.0505818684896
 30
0.0
 10
86.32909749348957
 20
128.4686442057292
 30
0.0
 10
87.25772298177083
 20
128.7931722005208
 30
0.0
 10
88.09333089192708
 20
128.7471801757812
 30
0.0
 10
88.92893880208332
 20
128.7006713867187
 30
0.0
 10
92.78296712239583
 20
129.5827880859375
 30
0.0
 10
93.06150309244791
 20
130.0008504231771
 30
0.0
 10
93.247021484375
 20
130.6044311523438
 30
0.0
 10
93.47904866536457
 20
131.533056640625
 30
0.0
 10
93.61857503255207
 20
132.0901285807292
 30
0.0
 10
93.75758463541666
 20
132.6472005208333
 30
0.0
 10
94.6862101236979
 20
133.9468627929687
 30
0.0
 10
94.36116536458333
 20
134.8760050455729
 30
0.0
  0
SPLINE
  5
39
330
A
100
AcDbEntity
  8
LAYER_1
 62
     7
100
AcDbSpline
210
0.0
220
0.0
230
1.0
 70
     8
 71
     3
 72
    17
 73
    13
 74
     0
 42
0.0000000001
 43
0.0000000001
 40
0.0
 40
0.0
 40
0.0
 40
0.0
 40
1.0
 40
1.0
 40
1.0
 40
2.0
 40
2.0
 40
2.0
 40
3.0
 40
3.0
 40
3.0
 40
4.0
 40
4.0
 40
4.0
 40
4.0
 10
96.5899698893229
 20
133.157763671875
 30
0.0
 10
96.35794270833333
 20
132.4611653645833
 30
0.0
 10
95.84737955729166
 20
131.4865478515625
 30
0.0
 10
95.75436197916666
 20
130.7434407552083
 30
0.0
 10
95.66134440104166
 20
130.0008504231771
 30
0.0
 10
95.56832682291666
 20
128.6076538085937
 30
0.0
 10
95.15078124999999
 20
128.3756266276042
 30
0.0
 10
94.64021809895833
 20
128.3291178385417
 30
0.0
 10
95.01125488281249
 20
128.3756266276042
 30
0.0
 10
93.75758463541666
 20
128.0040730794271
 30
0.0
 10
92.50391438802083
 20
127.63251953125
 30
0.0
 10
88.27884928385416
 20
126.7504028320312
 30
0.0
 10
87.86130371093749
 20
126.2863484700521
 30
0.0
  0
SPLINE
  5
38
330
A
100
AcDbEntity
  8
LAYER_1
 62
     7
100
AcDbSpline
210
0.0
220
0.0
230
1.0
 70
     8
 71
     3
 72
    11
 73
     7
 74
     0
 42
0.0000000001
 43
0.0000000001
 40
0.0
 40
0.0
 40
0.0
 40
0.0
 40
1.0
 40
1.0
 40
1.0
 40
2.0
 40
2.0
 40
2.0
 40
2.0
 10
102.9973307291667
 20
130.3253784179688
 30
0.0
 10
103.4148763020833
 20
130.3718872070313
 30
0.0
 10
105.0401000976562
 20
130.7434407552083
 30
0.0
 10
105.6901896158854
 20
130.8829671223958
 30
0.0
 10
106.3402791341146
 20
131.0219767252604
 30
0.0
 10
107.6869669596354
 20
131.0684855143229
 30
0.0
 10
108.4760660807292
 20
131.1615030924479
 30
0.0
  0
SPLINE
  5
37
330
A
100
AcDbEntity
  8
LAYER_1
 62
     7
100
AcDbSpline
210
0.0
220
0.0
230
1.0
 70
     8
 71
     3
 72
    14
 73
    10
 74
     0
 42
0.0000000001
 43
0.0000000001
 40
0.0
 40
0.0
 40
0.0
 40
0.0
 40
1.0
 40
1.0
 40
1.0
 40
2.0
 40
2.0
 40
2.0
 40
3.0
 40
3.0
 40
3.0
 40
3.0
 10
108.1510213216146
 20
133.6688435872396
 30
0.0
 10
107.1758870442708
 20
133.2972900390625
 30
0.0
 10
107.4084309895833
 20
133.157763671875
 30
0.0
 10
106.3402791341146
 20
133.0187540690104
 30
0.0
 10
105.2726440429687
 20
132.8792277018229
 30
0.0
 10
101.4651245117187
 20
132.3686645507812
 30
0.0
 10
100.9080525716146
 20
131.8115926106771
 30
0.0
 10
100.8615437825521
 20
131.25400390625
 30
0.0
 10
100.8150349934896
 20
129.6758056640625
 30
0.0
 10
100.676025390625
 20
129.3967529296875
 30
0.0
  0
SPLINE
  5
36
330
A
100
AcDbEntity
  8
LAYER_1
 62
     7
100
AcDbSpline
210
0.0
220
0.0
230
1.0
 70
     8
 71
     3
 72
    20
 73
    16
 74
     0
 42
0.0000000001
 43
0.0000000001
 40
0.0
 40
0.0
 40
0.0
 40
0.0
 40
1.0
 40
1.0
 40
1.0
 40
2.0
 40
2.0
 40
2.0
 40
3.0
 40
3.0
 40
3.0
 40
4.0
 40
4.0
 40
4.0
 40
5.0
 40
5.0
 40
5.0
 40
5.0
 10
97.70411376953125
 20
132.4151733398437
 30
0.0
 10
97.84364013671875
 20
133.06474609375
 30
0.0
 10
97.98316650390625
 20
133.7148356119792
 30
0.0
 10
98.02915852864582
 20
134.0398803710937
 30
0.0
 10
98.07566731770832
 20
134.3649251302083
 30
0.0
 10
97.75062255859375
 20
134.4579427083333
 30
0.0
 10
98.54023844401041
 20
134.5044514973958
 30
0.0
 10
99.32933756510415
 20
134.5509602864583
 30
0.0
 10
100.1184366861979
 20
134.9219970703125
 30
0.0
 10
101.0010701497396
 20
134.8760050455729
 30
0.0
 10
101.8831868489583
 20
134.8294962565104
 30
0.0
 10
102.5332763671875
 20
135.0615234375
 30
0.0
 10
102.6722859700521
 20
135.2470418294271
 30
0.0
 10
102.8118123372396
 20
135.4330769856771
 30
0.0
 10
104.5295369466146
 20
135.9436401367187
 30
0.0
 10
104.9010904947917
 20
135.9901489257812
 30
0.0
  0
SPLINE
  5
35
330
A
100
AcDbEntity
  8
LAYER_1
 62
     7
100
AcDbSpline
210
0.0
220
0.0
230
1.0
 70
     8
 71
     3
 72
    17
 73
    13
 74
     0
 42
0.0000000001
 43
0.0000000001
 40
0.0
 40
0.0
 40
0.0
 40
0.0
 40
1.0
 40
1.0
 40
1.0
 40
2.0
 40
2.0
 40
2.0
 40
3.0
 40
3.0
 40
3.0
 40
4.0
 40
4.0
 40
4.0
 40
4.0
 10
102.0687052408854
 20
138.1259358723958
 30
0.0
 10
101.2330973307292
 20
137.6618815104167
 30
0.0
 10
101.6971516927083
 20
137.5223551432292
 30
0.0
 10
100.5364990234375
 20
137.5223551432292
 30
0.0
 10
99.37584635416665
 20
137.5223551432292
 30
0.0
 10
95.56832682291666
 20
136.9187744140625
 30
0.0
 10
95.10427246093749
 20
136.2686848958333
 30
0.0
 10
95.15078124999999
 20
136.1756673177083
 30
0.0
 10
95.47582600911457
 20
135.9901489257812
 30
0.0
 10
95.47582600911457
 20
135.9901489257812
 30
0.0
 10
95.47582600911457
 20
135.9901489257812
 30
0.0
 10
95.19729003906249
 20
134.5974690755208
 30
0.0
 10
95.05776367187499
 20
134.4114339192708
 30
0.0
  0
SPLINE
  5
34
330
A
100
AcDbEntity
  8
LAYER_1
 62
     7
100
AcDbSpline
210
0.0
220
0.0
230
1.0
 70
     8
 71
     3
 72
    17
 73
    13
 74
     0
 42
0.0000000001
 43
0.0000000001
 40
0.0
 40
0.0
 40
0.0
 40
0.0
 40
1.0
 40
1.0
 40
1.0
 40
2.0
 40
2.0
 40
2.0
 40
3.0
 40
3.0
 40
3.0
 40
4.0
 40
4.0
 40
4.0
 40
4.0
 10
93.01499430338541
 20
135.9901489257812
 30
0.0
 10
93.06150309244791
 20
136.4082112630208
 30
0.0
 10
93.3400390625
 20
137.1973103841146
 30
0.0
 10
93.3400390625
 20
137.4758463541667
 30
0.0
 10
93.89711100260416
 20
137.8939086914062
 30
0.0
 10
94.7327189127604
 20
138.2189534505208
 30
0.0
 10
95.28979085286457
 20
138.2649454752604
 30
0.0
 10
95.84737955729166
 20
138.3114542643229
 30
0.0
 10
97.89014892578125
 20
138.4974894205729
 30
0.0
 10
98.16868489583332
 20
138.6364990234375
 30
0.0
 10
98.44722086588541
 20
138.776025390625
 30
0.0
 10
99.74739990234374
 20
139.2400797526042
 30
0.0
 10
100.3509806315104
 20
139.3796061197917
 30
0.0
  0
SPLINE
  5
33
330
A
100
AcDbEntity
  8
LAYER_1
 62
     7
100
AcDbSpline
210
0.0
220
0.0
230
1.0
 70
     8
 71
     3
 72
    17
 73
    13
 74
     0
 42
0.0000000001
 43
0.0000000001
 40
0.0
 40
0.0
 40
0.0
 40
0.0
 40
1.0
 40
1.0
 40
1.0
 40
2.0
 40
2.0
 40
2.0
 40
3.0
 40
3.0
 40
3.0
 40
4.0
 40
4.0
 40
4.0
 40
4.0
 10
82.75412190755208
 20
130.1863688151042
 30
0.0
 10
83.72873942057291
 20
130.7434407552083
 30
0.0
 10
84.1468017578125
 20
131.0219767252604
 30
0.0
 10
85.02891845703124
 20
130.8829671223958
 30
0.0
 10
85.91103515624999
 20
130.7434407552083
 30
0.0
 10
87.48975016276042
 20
130.6509399414063
 30
0.0
 10
88.13983968098958
 20
131.1149943033854
 30
0.0
 10
88.78992919921875
 20
131.5790486653646
 30
0.0
 10
89.95058186848958
 20
131.6720662434896
 30
0.0
 10
90.32213541666665
 20
132.0436197916667
 30
0.0
 10
90.36864420572915
 20
132.7862101236979
 30
0.0
 10
91.38977050781249
 20
136.2686848958333
 30
0.0
 10
91.76132405598958
 20
136.7332560221354
 30
0.0
  0
SPLINE
  5
32
330
A
100
AcDbEntity
  8
LAYER_1
 62
     7
100
AcDbSpline
210
0.0
220
0.0
230
1.0
 70
     8
 71
     3
 72
    23
 73
    19
 74
     0
 42
0.0000000001
 43
0.0000000001
 40
0.0
 40
0.0
 40
0.0
 40
0.0
 40
1.0
 40
1.0
 40
1.0
 40
2.0
 40
2.0
 40
2.0
 40
3.0
 40
3.0
 40
3.0
 40
4.0
 40
4.0
 40
4.0
 40
5.0
 40
5.0
 40
5.0
 40
6.0
 40
6.0
 40
6.0
 40
6.0
 10
89.16096598307291
 20
138.7295166015625
 30
0.0
 10
88.83592122395832
 20
138.0329182942708
 30
0.0
 10
88.65040283203125
 20
137.0577840169271
 30
0.0
 10
88.65040283203125
 20
136.4082112630208
 30
0.0
 10
88.65040283203125
 20
135.7581217447917
 30
0.0
 10
88.37186686197916
 20
134.1328979492187
 30
0.0
 10
88.13983968098958
 20
133.8543619791667
 30
0.0
 10
87.72177734374999
 20
133.8078531901042
 30
0.0
 10
87.67526855468749
 20
133.6688435872396
 30
0.0
 10
86.97918701171874
 20
133.4828084309896
 30
0.0
 10
86.28258870442707
 20
133.2972900390625
 30
0.0
 10
85.6324991861979
 20
133.0187540690104
 30
0.0
 10
85.16844482421874
 20
133.1112548828125
 30
0.0
 10
84.70387369791666
 20
133.2042724609375
 30
0.0
 10
83.77524820963541
 20
133.4828084309896
 30
0.0
 10
83.17166748046874
 20
133.25078125
 30
0.0
 10
82.56808675130208
 20
133.0187540690104
 30
0.0
 10
80.57182617187499
 20
132.6006917317708
 30
0.0
 10
80.01423746744791
 20
132.3686645507812
 30
0.0
  0
SPLINE
  5
31
330
A
100
AcDbEntity
  8
LAYER_1
 62
     7
100
AcDbSpline
210
0.0
220
0.0
230
1.0
 70
     8
 71
     3
 72
    14
 73
    10
 74
     0
 42
0.0000000001
 43
0.0000000001
 40
0.0
 40
0.0
 40
0.0
 40
0.0
 40
1.0
 40
1.0
 40
1.0
 40
2.0
 40
2.0
 40
2.0
 40
3.0
 40
3.0
 40
3.0
 40
3.0
 10
97.37958577473958
 20
141.6544026692708
 30
0.0
 10
96.35794270833333
 20
141.1438395182292
 30
0.0
 10
96.17190755208333
 20
141.0508219401042
 30
0.0
 10
94.8722452799479
 20
140.9118123372396
 30
0.0
 10
93.57206624348957
 20
140.7722859700521
 30
0.0
 10
90.64718017578124
 20
140.586767578125
 30
0.0
 10
90.18260904947915
 20
139.8901692708333
 30
0.0
 10
90.08959147135415
 20
139.3796061197917
 30
0.0
 10
89.95058186848958
 20
138.3114542643229
 30
0.0
 10
89.95058186848958
 20
138.3114542643229
 30
0.0
  0
SPLINE
  5
30
330
A
100
AcDbEntity
  8
LAYER_1
 62
     7
100
AcDbSpline
210
0.0
220
0.0
230
1.0
 70
     8
 71
     3
 72
    32
 73
    28
 74
     0
 42
0.0000000001
 43
0.0000000001
 40
0.0
 40
0.0
 40
0.0
 40
0.0
 40
1.0
 40
1.0
 40
1.0
 40
2.0
 40
2.0
 40
2.0
 40
3.0
 40
3.0
 40
3.0
 40
4.0
 40
4.0
 40
4.0
 40
5.0
 40
5.0
 40
5.0
 40
6.0
 40
6.0
 40
6.0
 40
7.0
 40
7.0
 40
7.0
 40
8.0
 40
8.0
 40
8.0
 40
9.0
 40
9.0
 40
9.0
 40
9.0
 10
78.38953043619792
 20
133.6223347981771
 30
0.0
 10
79.27164713541666
 20
134.0863891601562
 30
0.0
 10
82.24304199218749
 20
134.8760050455729
 30
0.0
 10
83.26468505859374
 20
134.968505859375
 30
0.0
 10
84.286328125
 20
135.0615234375
 30
0.0
 10
84.42533772786457
 20
135.154541015625
 30
0.0
 10
85.81801757812499
 20
135.5720865885417
 30
0.0
 10
85.95754394531249
 20
136.965283203125
 30
0.0
 10
86.74664306640624
 20
139.7971516927083
 30
0.0
 10
87.07168782552083
 20
140.3547403971354
 30
0.0
 10
87.21121419270833
 20
140.3082316080729
 30
0.0
 10
87.58225097656249
 20
140.0756876627604
 30
0.0
 10
87.58225097656249
 20
140.0756876627604
 30
0.0
 10
87.58225097656249
 20
140.0756876627604
 30
0.0
 10
87.95432128906249
 20
141.2833658854167
 30
0.0
 10
87.95432128906249
 20
141.6544026692708
 30
0.0
 10
88.27884928385416
 20
141.9794474283854
 30
0.0
 10
89.81105550130208
 20
142.1189737955729
 30
0.0
 10
90.04308268229165
 20
142.1189737955729
 30
0.0
 10
90.27562662760415
 20
142.1189737955729
 30
0.0
 10
91.38977050781249
 20
142.1189737955729
 30
0.0
 10
91.66830647786458
 20
142.3510009765625
 30
0.0
 10
91.94684244791665
 20
142.5830281575521
 30
0.0
 10
92.08636881510415
 20
142.7690633138021
 30
0.0
 10
93.2005126953125
 20
142.6760457356771
 30
0.0
 10
94.31517333984374
 20
142.5830281575521
 30
0.0
 10
95.10427246093749
 20
142.7225545247396
 30
0.0
 10
95.47582600911457
 20
142.9080729166666
 30
0.0
  0
SPLINE
  5
2F
330
A
100
AcDbEntity
  8
LAYER_1
 62
     7
100
AcDbSpline
210
0.0
220
0.0
230
1.0
 70
     8
 71
     3
 72
    14
 73
    10
 74
     0
 42
0.0000000001
 43
0.0000000001
 40
0.0
 40
0.0
 40
0.0
 40
0.0
 40
1.0
 40
1.0
 40
1.0
 40
2.0
 40
2.0
 40
2.0
 40
3.0
 40
3.0
 40
3.0
 40
3.0
 10
85.12193603515624
 20
141.7939290364583
 30
0.0
 10
84.75038248697916
 20
140.8653035481771
 30
0.0
 10
84.193310546875
 20
137.8008911132812
 30
0.0
 10
84.0537841796875
 20
137.1508015950521
 30
0.0
 10
83.17166748046874
 20
137.0112752278646
 30
0.0
 10
81.91799723307291
 20
136.8257568359375
 30
0.0
 10
80.94286295572915
 20
136.5937296549479
 30
0.0
 10
79.96824544270832
 20
136.3617024739583
 30
0.0
 10
76.4857706705729
 20
136.0366577148437
 30
0.0
 10
75.92869873046874
 20
135.5255777994792
 30
0.0
  0
SPLINE
  5
2E
330
A
100
AcDbEntity
  8
LAYER_1
 62
     7
100
AcDbSpline
210
0.0
220
0.0
230
1.0
 70
     8
 71
     3
 72
    14
 73
    10
 74
     0
 42
0.0000000001
 43
0.0000000001
 40
0.0
 40
0.0
 40
0.0
 40
0.0
 40
1.0
 40
1.0
 40
1.0
 40
2.0
 40
2.0
 40
2.0
 40
3.0
 40
3.0
 40
3.0
 40
3.0
 10
73.74640299479167
 20
137.2438191731771
 30
0.0
 10
74.30347493489583
 20
137.7078735351562
 30
0.0
 10
76.81081542968749
 20
138.4044718424479
 30
0.0
 10
78.11099446614583
 20
138.3579630533854
 30
0.0
 10
79.41065673828125
 20
138.3114542643229
 30
0.0
 10
80.24678141276041
 20
138.9615437825521
 30
0.0
 10
81.36092529296874
 20
139.0080525716146
 30
0.0
 10
81.68597005208332
 20
139.9366780598958
 30
0.0
 10
82.24304199218749
 20
142.9545817057291
 30
0.0
 10
82.89313151041667
 20
143.5116536458333
 30
0.0
  0
LINE
  5
2D
330
A
100
AcDbEntity
  8
LAYER_1
 62
     7
100
AcDbLine
 10
79.50367431640625
 20
140.5402587890625
 30
0.0
 11
96.40445149739583
 21
127.4004923502604
 31
0.0
  0
LINE
  5
2C
330
A
100
AcDbEntity
  8
LAYER_1
 62
     7
100
AcDbLine
 10
86.05056152343749
 20
141.2368570963542
 30
0.0
 11
99.00429280598958
 21
131.3935302734375
 31
0.0
  0
LINE
  5
2B
330
A
100
AcDbEntity
  8
LAYER_1
 62
     7
100
AcDbLine
 10
86.79315185546874
 20
142.49052734375
 30
0.0
 11
103.7404378255208
 21
129.7217976888021
 31
0.0
  0
LWPOLYLINE
  5
22
330
A
100
AcDbEntity
  8
LAYER_1
 62
     7
100
AcDbPolyline
 90
        7
 70
     0
 43
0.0
 10
71.93566080729165
 20
138.6364990234375
 10
89.16096598307291
 20
125.2181966145833
 10
96.4504435221354
 20
127.4004923502604
 10
99.00429280598958
 20
131.347021484375
 10
102.39375
 20
127.1684651692708
 10
103.6939290364583
 20
129.629296875
 10
110.6583618164062
 20
131.7650838216146
  0
ENDSEC
  0
SECTION
  2
OBJECTS
  0
DICTIONARY
  5
19
330
0
100
AcDbDictionary
281
     1
  3
ACAD_COLOR
350
DF
  3
ACAD_GROUP
350
1A
  3
ACAD_LAYOUT
350
AC
  3
ACAD_MATERIAL
350
E1
  3
ACAD_MLINESTYLE
350
1B
  3
ACAD_PLOTSETTINGS
350
AD
  3
ACAD_PLOTSTYLENAME
350
AA
  3
ACDBHEADERROUNDTRIPXREC
350
DE
  0
DICTIONARY
  5
DF
102
{ACAD_REACTORS
330
19
102
}
330
19
100
AcDbDictionary
281
     1
  0
DICTIONARY
  5
1A
102
{ACAD_REACTORS
330
19
102
}
330
19
100
AcDbDictionary
281
     1
  0
DICTIONARY
  5
AC
102
{ACAD_REACTORS
330
19
102
}
330
19
100
AcDbDictionary
281
     1
  3
Layout1
350
AF
  3
Model
350
AE
  0
DICTIONARY
  5
E1
102
{ACAD_REACTORS
330
19
102
}
330
19
100
AcDbDictionary
281
     1
  0
DICTIONARY
  5
1B
102
{ACAD_REACTORS
330
19
102
}
330
19
100
AcDbDictionary
281
     1
  3
STANDARD
350
1C
  0
DICTIONARY
  5
AD
102
{ACAD_REACTORS
330
19
102
}
330
19
100
AcDbDictionary
281
     1
  0
ACDBDICTIONARYWDFLT
  5
AA
102
{ACAD_REACTORS
330
19
102
}
330
19
100
AcDbDictionary
281
     1
  3
Normal
350
AB
100
AcDbDictionaryWithDefault
340
AB
  0
DICTIONARY
  5
DE
102
{ACAD_REACTORS
330
19
102
}
330
19
100
AcDbDictionary
281
     1
  3
COLORDICT
350
E0
  3
MATERIALDICT
350
E2
  0
LAYOUT
  5
AF
102
{ACAD_REACTORS
330
AC
102
}
102
{ACAD_XDICTIONARY
360
E3
102
}
330
AC
100
AcDbPlotSettings
  1

  2
Support Center HP LaserJet 4
  4

  6

 40
0.0
 41
0.0
 42
0.0
 43
0.0
 44
0.0
 45
0.0
 46
0.0
 47
0.0
 48
0.0
 49
0.0
140
0.0
141
0.0
142
1.0
143
1.0
 70
   688
 72
     0
 73
     0
 74
     5
  7

 75
    16
147
1.0
148
0.0
149
0.0
100
AcDbLayout
  1
Layout1
 70
     0
 71
     1
 10
0.0
 20
0.0
 11
12.0
 21
9.0
 12
0.0
 22
0.0
 32
0.0
 14
1.000000000000000E+20
 24
1.000000000000000E+20
 34
1.000000000000000E+20
 15
-1.000000000000000E+20
 25
-1.000000000000000E+20
 35
-1.000000000000000E+20
146
0.0
 13
0.0
 23
0.0
 33
0.0
 16
1.0
 26
0.0
 36
0.0
 17
0.0
 27
1.0
 37
0.0
 76
     0
330
B
  0
LAYOUT
  5
AE
102
{ACAD_REACTORS
330
AC
102
}
102
{ACAD_XDICTIONARY
360
E5
102
}
330
AC
100
AcDbPlotSettings
  1

  2
Support Center HP LaserJet 4
  4

  6

 40
0.0
 41
0.0
 42
0.0
 43
0.0
 44
0.0
 45
0.0
 46
0.0
 47
0.0
 48
0.0
 49
0.0
140
0.0
141
0.0
142
1.0
143
1.0
 70
  1712
 72
     0
 73
     0
 74
     0
  7

 75
     0
147
1.0
148
0.0
149
0.0
100
AcDbLayout
  1
Model
 70
     1
 71
     0
 10
0.0
 20
0.0
 11
12.0
 21
9.0
 12
0.0
 22
0.0
 32
0.0
 14
0.0
 24
0.0
 34
0.0
 15
0.0
 25
0.0
 35
0.0
146
0.0
 13
0.0
 23
0.0
 33
0.0
 16
1.0
 26
0.0
 36
0.0
 17
0.0
 27
1.0
 37
0.0
 76
     0
330
A
  0
MLINESTYLE
  5
1C
102
{ACAD_REACTORS
330
1B
102
}
330
1B
100
AcDbMlineStyle
  2
STANDARD
 70
     0
  3

 62
     0
 51
90.0000000000002
 52
90.0000000000002
 71
     2
 49
0.5
 62
   256
  6
BYLAYER
 49
-0.5
 62
   256
  6
BYLAYER
  0
ACDBPLACEHOLDER
  5
AB
102
{ACAD_REACTORS
330
AA
102
}
330
AA
  0
XRECORD
  5
E0
102
{ACAD_REACTORS
330
DE
102
}
330
DE
100
AcDbXrecord
340
DF
  0
XRECORD
  5
E2
102
{ACAD_REACTORS
330
DE
102
}
330
DE
100
AcDbXrecord
340
E1
  0
DICTIONARY
  5
E3
330
AF
100
AcDbDictionary
280
     1
281
     1
  3
ACAD_XREC_ROUNDTRIP
360
E4
  0
DICTIONARY
  5
E5
330
AE
100
AcDbDictionary
280
     1
281
     1
  3
ACAD_XREC_ROUNDTRIP
360
E6
  0
XRECORD
  5
E4
102
{ACAD_REACTORS
330
E3
102
}
330
E3
100
AcDbXrecord
102
SHADEPLOT
 70
     0
102
SHADEPLOTRESLEVEL
 70
     0
102
SHADEPLOTCUSTOMDPI
 70
     0
  0
XRECORD
  5
E6
102
{ACAD_REACTORS
330
E5
102
}
330
E5
100
AcDbXrecord
102
SHADEPLOT
 70
 -5928
102
SHADEPLOTRESLEVEL
 70
 -5872
102
SHADEPLOTCUSTOMDPI
 70
 -5816
  0
ENDSEC
  0
EOF
