  0
SECTION
  2
HEADER
  9
$ACADVER
  1
AC1015
  9
$ACADMAINTVER
 70
    20
  9
$DWGCODEPAGE
  3
ANSI_1252
  9
$INSBASE
 10
5.269239253307247
 20
2.714052284568587
 30
0.0
  9
$EXTMIN
 10
5.299188524505821
 20
2.782927022862645
 30
0.0
  9
$EXTMAX
 10
10.36621387873244
 20
8.805843319405095
 30
0.0
  9
$LIMMIN
 10
0.0
 20
0.0
  9
$LIMMAX
 10
17.0
 20
11.0
  9
$ORTHOMODE
 70
     0
  9
$REGENMODE
 70
     1
  9
$FILLMODE
 70
     1
  9
$QTEXTMODE
 70
     0
  9
$MIRRTEXT
 70
     0
  9
$LTSCALE
 40
1.0
  9
$ATTMODE
 70
     1
  9
$TEXTSIZE
 40
0.2
  9
$TRACEWID
 40
0.05
  9
$TEXTSTYLE
  7
Standard
  9
$CLAYER
  8
0
  9
$CELTYPE
  6
ByLayer
  9
$CECOLOR
 62
   256
  9
$CELTSCALE
 40
1.0
  9
$DISPSILH
 70
     0
  9
$DIMSCALE
 40
1.0
  9
$DIMASZ
 40
0.0708661417322835
  9
$DIMEXO
 40
0.0625
  9
$DIMDLI
 40
0.38
  9
$DIMRND
 40
0.0
  9
$DIMDLE
 40
0.0
  9
$DIMEXE
 40
0.18
  9
$DIMTP
 40
0.0
  9
$DIMTM
 40
0.0
  9
$DIMTXT
 40
0.0708661417322835
  9
$DIMCEN
 40
0.09
  9
$DIMTSZ
 40
0.0
  9
$DIMTOL
 70
     0
  9
$DIMLIM
 70
     0
  9
$DIMTIH
 70
     1
  9
$DIMTOH
 70
     1
  9
$DIMSE1
 70
     0
  9
$DIMSE2
 70
     0
  9
$DIMTAD
 70
     0
  9
$DIMZIN
 70
     0
  9
$DIMBLK
  1

  9
$DIMASO
 70
     1
  9
$DIMSHO
 70
     1
  9
$DIMPOST
  1

  9
$DIMAPOST
  1

  9
$DIMALT
 70
     0
  9
$DIMALTD
 70
     2
  9
$DIMALTF
 40
25.4
  9
$DIMLFAC
 40
1.0
  9
$DIMTOFL
 70
     0
  9
$DIMTVP
 40
0.0
  9
$DIMTIX
 70
     0
  9
$DIMSOXD
 70
     0
  9
$DIMSAH
 70
     0
  9
$DIMBLK1
  1

  9
$DIMBLK2
  1

  9
$DIMSTYLE
  2
Standard
  9
$DIMCLRD
 70
     0
  9
$DIMCLRE
 70
     0
  9
$DIMCLRT
 70
     0
  9
$DIMTFAC
 40
1.0
  9
$DIMGAP
 40
0.09
  9
$DIMJUST
 70
     0
  9
$DIMSD1
 70
     0
  9
$DIMSD2
 70
     0
  9
$DIMTOLJ
 70
     1
  9
$DIMTZIN
 70
     0
  9
$DIMALTZ
 70
     0
  9
$DIMALTTZ
 70
     0
  9
$DIMUPT
 70
     0
  9
$DIMDEC
 70
     4
  9
$DIMTDEC
 70
     4
  9
$DIMALTU
 70
     2
  9
$DIMALTTD
 70
     2
  9
$DIMTXSTY
  7
Standard
  9
$DIMAUNIT
 70
     0
  9
$DIMADEC
 70
     0
  9
$DIMALTRND
 40
0.0
  9
$DIMAZIN
 70
     0
  9
$DIMDSEP
 70
    46
  9
$DIMATFIT
 70
     3
  9
$DIMFRAC
 70
     0
  9
$DIMLDRBLK
  1

  9
$DIMLUNIT
 70
     2
  9
$DIMLWD
 70
    -2
  9
$DIMLWE
 70
    -2
  9
$DIMTMOVE
 70
     0
  9
$LUNITS
 70
     2
  9
$LUPREC
 70
     4
  9
$SKETCHINC
 40
0.1
  9
$FILLETRAD
 40
0.0
  9
$AUNITS
 70
     0
  9
$AUPREC
 70
     0
  9
$MENU
  1
.
  9
$ELEVATION
 40
0.0
  9
$PELEVATION
 40
0.0
  9
$THICKNESS
 40
0.0
  9
$LIMCHECK
 70
     0
  9
$CHAMFERA
 40
0.0
  9
$CHAMFERB
 40
0.0
  9
$CHAMFERC
 40
0.0
  9
$CHAMFERD
 40
0.0
  9
$SKPOLY
 70
     0
  9
$TDCREATE
 40
2456766.648322350
  9
$TDUCREATE
 40
2456766.939989016
  9
$TDUPDATE
 40
2456766.657037349
  9
$TDUUPDATE
 40
2456766.948704017
  9
$TDINDWG
 40
0.0009459144
  9
$TDUSRTIMER
 40
0.0009459144
  9
$USRTIMER
 70
     1
  9
$ANGBASE
 50
0.0
  9
$ANGDIR
 70
     0
  9
$PDMODE
 70
     0
  9
$PDSIZE
 40
0.0
  9
$PLINEWID
 40
0.0
  9
$SPLFRAME
 70
     0
  9
$SPLINETYPE
 70
     6
  9
$SPLINESEGS
 70
     8
  9
$HANDSEED
  5
17E
  9
$SURFTAB1
 70
     6
  9
$SURFTAB2
 70
     6
  9
$SURFTYPE
 70
     6
  9
$SURFU
 70
     6
  9
$SURFV
 70
     6
  9
$UCSBASE
  2

  9
$UCSNAME
  2

  9
$UCSORG
 10
0.0
 20
0.0
 30
0.0
  9
$UCSXDIR
 10
1.0
 20
0.0
 30
0.0
  9
$UCSYDIR
 10
0.0
 20
1.0
 30
0.0
  9
$UCSORTHOREF
  2

  9
$UCSORTHOVIEW
 70
     0
  9
$UCSORGTOP
 10
0.0
 20
0.0
 30
0.0
  9
$UCSORGBOTTOM
 10
0.0
 20
0.0
 30
0.0
  9
$UCSORGLEFT
 10
0.0
 20
0.0
 30
0.0
  9
$UCSORGRIGHT
 10
0.0
 20
0.0
 30
0.0
  9
$UCSORGFRONT
 10
0.0
 20
0.0
 30
0.0
  9
$UCSORGBACK
 10
0.0
 20
0.0
 30
0.0
  9
$PUCSBASE
  2

  9
$PUCSNAME
  2

  9
$PUCSORG
 10
0.0
 20
0.0
 30
0.0
  9
$PUCSXDIR
 10
1.0
 20
0.0
 30
0.0
  9
$PUCSYDIR
 10
0.0
 20
1.0
 30
0.0
  9
$PUCSORTHOREF
  2

  9
$PUCSORTHOVIEW
 70
     0
  9
$PUCSORGTOP
 10
0.0
 20
0.0
 30
0.0
  9
$PUCSORGBOTTOM
 10
0.0
 20
0.0
 30
0.0
  9
$PUCSORGLEFT
 10
0.0
 20
0.0
 30
0.0
  9
$PUCSORGRIGHT
 10
0.0
 20
0.0
 30
0.0
  9
$PUCSORGFRONT
 10
0.0
 20
0.0
 30
0.0
  9
$PUCSORGBACK
 10
0.0
 20
0.0
 30
0.0
  9
$USERI1
 70
     0
  9
$USERI2
 70
     0
  9
$USERI3
 70
     0
  9
$USERI4
 70
     0
  9
$USERI5
 70
     0
  9
$USERR1
 40
0.0
  9
$USERR2
 40
0.0
  9
$USERR3
 40
0.0
  9
$USERR4
 40
0.0
  9
$USERR5
 40
0.0
  9
$WORLDVIEW
 70
     1
  9
$SHADEDGE
 70
     3
  9
$SHADEDIF
 70
    70
  9
$TILEMODE
 70
     1
  9
$MAXACTVP
 70
    64
  9
$PINSBASE
 10
0.0
 20
0.0
 30
0.0
  9
$PLIMCHECK
 70
     0
  9
$PEXTMIN
 10
0.0
 20
0.0
 30
0.0
  9
$PEXTMAX
 10
17.0
 20
11.0
 30
0.0
  9
$PLIMMIN
 10
0.0
 20
0.0
  9
$PLIMMAX
 10
17.0
 20
11.0
  9
$UNITMODE
 70
     0
  9
$VISRETAIN
 70
     1
  9
$PLINEGEN
 70
     0
  9
$PSLTSCALE
 70
     1
  9
$TREEDEPTH
 70
  3020
  9
$CMLSTYLE
  2
Standard
  9
$CMLJUST
 70
     0
  9
$CMLSCALE
 40
1.0
  9
$PROXYGRAPHICS
 70
     1
  9
$MEASUREMENT
 70
     0
  9
$CELWEIGHT
370
    -1
  9
$ENDCAPS
280
     0
  9
$JOINSTYLE
280
     0
  9
$LWDISPLAY
290
     0
  9
$INSUNITS
 70
     1
  9
$HYPERLINKBASE
  1

  9
$STYLESHEET
  1

  9
$XEDIT
290
     1
  9
$CEPSNTYPE
380
     0
  9
$PSTYLEMODE
290
     1
  9
$FINGERPRINTGUID
  2
{FA1A2D23-73F0-480A-A545-47A1EDF4ECB3}
  9
$VERSIONGUID
  2
{3F113C7F-CDFE-459E-9383-76C265B4CB2E}
  9
$EXTNAMES
290
     1
  9
$PSVPSCALE
 40
0.0
  9
$OLESTARTUP
290
     0
  0
ENDSEC
  0
SECTION
  2
CLASSES
  0
CLASS
  1
ACDBDICTIONARYWDFLT
  2
AcDbDictionaryWithDefault
  3
ObjectDBX Classes
 90
        0
280
     0
281
     0
  0
CLASS
  1
MATERIAL
  2
AcDbMaterial
  3
ObjectDBX Classes
 90
     1153
280
     0
281
     0
  0
CLASS
  1
VISUALSTYLE
  2
AcDbVisualStyle
  3
ObjectDBX Classes
 90
     4095
280
     0
281
     0
  0
CLASS
  1
SCALE
  2
AcDbScale
  3
ObjectDBX Classes
 90
     1153
280
     0
281
     0
  0
CLASS
  1
TABLESTYLE
  2
AcDbTableStyle
  3
ObjectDBX Classes
 90
     4095
280
     0
281
     0
  0
CLASS
  1
MLEADERSTYLE
  2
AcDbMLeaderStyle
  3
ACDB_MLEADERSTYLE_CLASS
 90
     4095
280
     0
281
     0
  0
CLASS
  1
DICTIONARYVAR
  2
AcDbDictionaryVar
  3
ObjectDBX Classes
 90
        0
280
     0
281
     0
  0
CLASS
  1
CELLSTYLEMAP
  2
AcDbCellStyleMap
  3
ObjectDBX Classes
 90
     1152
280
     0
281
     0
  0
CLASS
  1
ACDBPLACEHOLDER
  2
AcDbPlaceHolder
  3
ObjectDBX Classes
 90
        0
280
     0
281
     0
  0
CLASS
  1
LAYOUT
  2
AcDbLayout
  3
ObjectDBX Classes
 90
        0
280
     0
281
     0
  0
ENDSEC
  0
SECTION
  2
TABLES
  0
TABLE
  2
VPORT
  5
23
102
{ACAD_XDICTIONARY
360
28
102
}
330
0
100
AcDbSymbolTable
 70
     1
  0
VPORT
  5
24
330
23
100
AcDbSymbolTableRecord
100
AcDbViewportTableRecord
  2
*Active
 70
     0
 10
0.0
 20
0.0
 11
1.0
 21
1.0
 12
11.11395856052344
 22
5.5
 13
0.0
 23
0.0
 14
1.0
 24
1.0
 15
0.0
 25
0.0
 16
0.0
 26
0.0
 36
1.0
 17
0.0
 27
0.0
 37
0.0
 40
11.0
 41
2.02071973827699
 42
50.0
 43
0.0
 44
0.0
 50
0.0
 51
0.0
 71
     0
 72
   100
 73
     1
 74
     1
 75
     0
 76
     0
 77
     0
 78
     0
281
     0
 65
     1
110
0.0
120
0.0
130
0.0
111
1.0
121
0.0
131
0.0
112
0.0
122
1.0
132
0.0
 79
     0
146
0.0
1001
ACAD_NAV_VCDISPLAY
1070
     3
  0
ENDTAB
  0
TABLE
  2
LTYPE
  5
1E
330
0
100
AcDbSymbolTable
 70
     3
  0
LTYPE
  5
1F
330
1E
100
AcDbSymbolTableRecord
100
AcDbLinetypeTableRecord
  2
ByBlock
 70
     0
  3

 72
    65
 73
     0
 40
0.0
  0
LTYPE
  5
20
330
1E
100
AcDbSymbolTableRecord
100
AcDbLinetypeTableRecord
  2
ByLayer
 70
     0
  3

 72
    65
 73
     0
 40
0.0
  0
LTYPE
  5
12
330
1E
100
AcDbSymbolTableRecord
100
AcDbLinetypeTableRecord
  2
Continuous
 70
     0
  3
Solid line
 72
    65
 73
     0
 40
0.0
  0
LTYPE
  5
135
330
1E
100
AcDbSymbolTableRecord
100
AcDbLinetypeTableRecord
  2
DASHED
 70
     0
  3
Dashed __ __ __ __ __ __ __ __ __ __ __ __ __ _
 72
    65
 73
     2
 40
0.75
 49
0.5
 74
     0
 49
-0.25
 74
     0
  0
LTYPE
  5
136
330
1E
100
AcDbSymbolTableRecord
100
AcDbLinetypeTableRecord
  2
DOT
 70
     0
  3
Dot . . . . . . . . . . . . . . . . . . . . . .
 72
    65
 73
     2
 40
0.25
 49
0.0
 74
     0
 49
-0.25
 74
     0
  0
ENDTAB
  0
TABLE
  2
LAYER
  5
1A
330
0
100
AcDbSymbolTable
 70
     3
  0
LAYER
  5
4
330
1A
100
AcDbSymbolTableRecord
100
AcDbLayerTableRecord
  2
0
 70
     0
 62
     7
  6
Continuous
370
    -3
390
5
  0
LAYER
  5
5D
330
1A
100
AcDbSymbolTableRecord
100
AcDbLayerTableRecord
  2
Visible (ANSI)
 70
     0
 62
     7
  6
Continuous
370
    18
390
5
  0
LAYER
  5
5F
330
1A
100
AcDbSymbolTableRecord
100
AcDbLayerTableRecord
  2
Visible Narrow (ANSI)
 70
     0
 62
     7
  6
Continuous
370
     9
390
5
  0
ENDTAB
  0
TABLE
  2
STYLE
  5
1B
330
0
100
AcDbSymbolTable
 70
     1
  0
STYLE
  5
1C
330
1B
100
AcDbSymbolTableRecord
100
AcDbTextStyleTableRecord
  2
Standard
 70
     0
 40
0.0
 41
1.0
 50
0.0
 71
     0
 42
0.2
  3
txt
  4

  0
ENDTAB
  0
TABLE
  2
VIEW
  5
21
330
0
100
AcDbSymbolTable
 70
     0
  0
ENDTAB
  0
TABLE
  2
UCS
  5
22
330
0
100
AcDbSymbolTable
 70
     0
  0
ENDTAB
  0
TABLE
  2
APPID
  5
29
330
0
100
AcDbSymbolTable
 70
     3
  0
APPID
  5
2A
330
29
100
AcDbSymbolTableRecord
100
AcDbRegAppTableRecord
  2
ACAD
 70
     0
  0
APPID
  5
27
330
29
100
AcDbSymbolTableRecord
100
AcDbRegAppTableRecord
  2
ACAD_NAV_VCDISPLAY
 70
     0
  0
APPID
  5
17D
330
29
100
AcDbSymbolTableRecord
100
AcDbRegAppTableRecord
  2
ACAD_MLEADERVER
 70
     0
  0
ENDTAB
  0
TABLE
  2
DIMSTYLE
  5
2B
330
0
100
AcDbSymbolTable
 70
     1
100
AcDbDimStyleTable
 71
     0
  0
DIMSTYLE
105
4A
330
2B
100
AcDbSymbolTableRecord
100
AcDbDimStyleTableRecord
  2
Standard
 70
     0
340
1C
  0
ENDTAB
  0
TABLE
  2
BLOCK_RECORD
  5
1
330
0
100
AcDbSymbolTable
 70
     0
  0
BLOCK_RECORD
  5
2
330
1
100
AcDbSymbolTableRecord
100
AcDbBlockTableRecord
  2
*Model_Space
340
14
  0
BLOCK_RECORD
  5
16
330
1
100
AcDbSymbolTableRecord
100
AcDbBlockTableRecord
  2
*Paper_Space
340
19
  0
ENDTAB
  0
ENDSEC
  0
SECTION
  2
BLOCKS
  0
BLOCK
  5
3
330
2
100
AcDbEntity
  8
0
100
AcDbBlockBegin
  2
*Model_Space
 70
     0
 10
0.0
 20
0.0
 30
0.0
  3
*Model_Space
  1

  0
ENDBLK
  5
13
330
2
100
AcDbEntity
  8
0
100
AcDbBlockEnd
  0
BLOCK
  5
17
330
16
100
AcDbEntity
 67
     1
  8
0
100
AcDbBlockBegin
  2
*Paper_Space
 70
     0
 10
0.0
 20
0.0
 30
0.0
  3
*Paper_Space
  1

  0
ENDBLK
  5
18
330
16
100
AcDbEntity
 67
     1
  8
0
100
AcDbBlockEnd
  0
ENDSEC
  0
SECTION
  2
ENTITIES
  0
ELLIPSE
  5
5C
330
2
100
AcDbEntity
  8
Visible (ANSI)
100
AcDbEllipse
 10
5.417188524505821
 20
6.643582981326169
 30
0.0
 11
-0.1180000000000005
 21
0.0
 31
0.0
210
0.0
220
0.0
230
1.0
 40
0.5773502691896225
 41
5.497787143782141
 42
7.068583470577035
  0
LINE
  5
5E
330
2
100
AcDbEntity
  8
Visible Narrow (ANSI)
100
AcDbLine
 10
5.367691049822763
 20
6.615005600993699
 30
0.0
 11
5.333749924325808
 21
6.595409683051433
 31
0.0
  0
ELLIPSE
  5
60
330
2
100
AcDbEntity
  8
Visible (ANSI)
100
AcDbEllipse
 10
5.417188524505821
 20
6.643582981326169
 30
0.0
 11
-0.0700000000000001
 21
0.0000000000000008
 31
0.0
210
0.0
220
0.0
230
1.0
 40
0.5773502691896237
 41
5.497787143782164
 42
7.068583470577066
  0
LINE
  5
61
330
2
100
AcDbEntity
  8
Visible Narrow (ANSI)
100
AcDbLine
 10
5.333749924325808
 20
6.691756279600905
 30
0.0
 11
5.367691049822763
 21
6.672160361658639
 31
0.0
  0
ELLIPSE
  5
62
330
2
100
AcDbEntity
  8
Visible (ANSI)
100
AcDbEllipse
 10
5.417188524505828
 20
3.275534584999293
 30
0.0
 11
-0.1180000000000004
 21
0.0000000000000003
 31
0.0
210
0.0
220
0.0
230
1.0
 40
0.5773502691896317
 41
0.0
 42
0.785398163397443
  0
LINE
  5
63
330
2
100
AcDbEntity
  8
Visible Narrow (ANSI)
100
AcDbLine
 10
5.333749924325808
 20
6.595409683051433
 30
0.0
 11
5.333749924325815
 21
3.22736128672456
 31
0.0
  0
LINE
  5
64
330
2
100
AcDbEntity
  8
Visible Narrow (ANSI)
100
AcDbLine
 10
5.367691049822763
 20
6.672160361658639
 30
0.0
 11
5.367691049822763
 21
6.615005600993697
 31
0.0
  0
LINE
  5
65
330
2
100
AcDbEntity
  8
Visible (ANSI)
100
AcDbLine
 10
5.299188524505828
 20
3.275534584999294
 30
0.0
 11
5.299188524505821
 21
6.643582981326169
 31
0.0
  0
LINE
  5
66
330
2
100
AcDbEntity
  8
Visible (ANSI)
100
AcDbLine
 10
5.367691049822763
 20
6.672160361658639
 30
0.0
 11
9.029397214386511
 21
8.786247401462832
 31
0.0
  0
LINE
  5
67
330
2
100
AcDbEntity
  8
Visible (ANSI)
100
AcDbLine
 10
9.029397214386511
 20
8.786247401462832
 30
0.0
 11
8.995456088889557
 21
8.805843319405095
 31
0.0
  0
LINE
  5
68
330
2
100
AcDbEntity
  8
Visible (ANSI)
100
AcDbLine
 10
8.995456088889557
 20
8.805843319405095
 30
0.0
 11
5.333749924325808
 21
6.691756279600905
 31
0.0
  0
ELLIPSE
  5
69
330
2
100
AcDbEntity
  8
Visible (ANSI)
100
AcDbEllipse
 10
5.813475573550095
 20
6.764601867085787
 30
0.0
 11
0.0427499999999954
 21
0.0740451720235721
 31
0.0
210
0.0
220
0.0
230
1.0
 40
0.5773502691896228
 41
3.549808301725038
 42
5.874969659043496
  0
ELLIPSE
  5
6A
330
2
100
AcDbEntity
  8
Visible (ANSI)
100
AcDbEllipse
 10
7.404465831219829
 20
7.376974302781582
 30
0.0
 11
0.0427499999999954
 21
0.074045172023572
 31
0.0
210
0.0
220
0.0
230
0.9999999999999998
 40
0.5773502691896228
 41
3.549808301725063
 42
5.874969659043495
  0
ELLIPSE
  5
6B
330
2
100
AcDbEntity
  8
Visible (ANSI)
100
AcDbEllipse
 10
8.818679393592923
 20
8.397595028941232
 30
0.0
 11
0.0427499999999955
 21
0.0740451720235723
 31
0.0
210
0.0
220
0.0
230
1.0
 40
0.577350269189623
 41
3.549808301725013
 42
5.874969659043459
  0
ELLIPSE
  5
6C
330
2
100
AcDbEntity
  8
Visible (ANSI)
100
AcDbEllipse
 10
5.493863308453987
 20
4.295516206359967
 30
0.0
 11
-0.5624999999996688
 21
-0.9742785792569195
 31
0.0
210
0.0
220
0.0
230
1.0
 40
0.5773502691896257
 41
1.203073394269749
 42
1.259562812942418
  0
ELLIPSE
  5
6D
330
2
100
AcDbEntity
  8
Visible (ANSI)
100
AcDbEllipse
 10
7.040659392299359
 20
5.21427898404926
 30
0.0
 11
-0.5312499999999419
 21
-0.9201519915210031
 31
0.0
210
0.0
220
0.0
230
1.0
 40
0.5773502691896308
 41
3.926990816986998
 42
4.350085775545618
  0
LINE
  5
6E
330
2
100
AcDbEntity
  8
Visible (ANSI)
100
AcDbLine
 10
7.652471186807402
 20
6.435036305537584
 30
0.0
 11
7.040659392299353
 21
6.081806601284974
 31
0.0
  0
LINE
  5
6F
330
2
100
AcDbEntity
  8
Visible (ANSI)
100
AcDbLine
 10
9.206173909683151
 20
8.684185328846867
 30
0.0
 11
9.206173909683153
 21
7.588002533160677
 31
0.0
  0
LINE
  5
70
330
2
100
AcDbEntity
  8
Visible (ANSI)
100
AcDbLine
 10
9.029397214386511
 20
8.786247401462832
 30
0.0
 11
9.206173909683151
 21
8.684185328846867
 31
0.0
  0
ELLIPSE
  5
71
330
2
100
AcDbEntity
  8
Visible (ANSI)
100
AcDbEllipse
 10
5.847416699047049
 20
6.745005949143521
 30
0.0
 11
-0.0427500000000043
 21
-0.0740451720235671
 31
0.0
210
0.0
220
0.0
230
0.9999999999999998
 40
0.5773502691896275
 41
0.0
 42
6.283185307179586
  0
ELLIPSE
  5
72
330
2
100
AcDbEntity
  8
Visible (ANSI)
100
AcDbEllipse
 10
7.438406956716784
 20
7.357378384839318
 30
0.0
 11
-0.0427500000000043
 21
-0.0740451720235671
 31
0.0
210
0.0
220
0.0
230
0.9999999999999998
 40
0.5773502691896275
 41
0.0
 42
6.283185307179586
  0
ELLIPSE
  5
73
330
2
100
AcDbEntity
  8
Visible (ANSI)
100
AcDbEllipse
 10
8.852620519089875
 20
8.377999110998969
 30
0.0
 11
-0.0427500000000043
 21
-0.0740451720235671
 31
0.0
210
0.0
220
0.0
230
0.9999999999999998
 40
0.5773502691896275
 41
0.0
 42
6.283185307179586
  0
ELLIPSE
  5
74
330
2
100
AcDbEntity
  8
Visible (ANSI)
100
AcDbEllipse
 10
10.10104883578748
 20
7.248970395825792
 30
0.0
 11
-0.0427500000000043
 21
-0.0740451720235671
 31
0.0
210
0.0
220
0.0
230
1.0
 40
0.5773502691896271
 41
0.0
 42
6.283185307179586
  0
LINE
  5
75
330
2
100
AcDbEntity
  8
Visible Narrow (ANSI)
100
AcDbLine
 10
8.991514762990409
 20
5.862288781503276
 30
0.0
 11
10.34552412019791
 21
6.644026448372299
 31
0.0
  0
ELLIPSE
  5
76
330
2
100
AcDbEntity
  8
Visible (ANSI)
100
AcDbEllipse
 10
10.36621387873243
 20
6.610878317830677
 30
0.0
 11
-0.0312499999999986
 21
-0.0541265877365324
 31
0.0
210
0.0
220
0.0
230
1.0
 40
0.5773502691896258
 41
3.926990816987006
 42
4.414193396531046
  0
LINE
  5
77
330
2
100
AcDbEntity
  8
Visible (ANSI)
100
AcDbLine
 10
10.36621387873243
 20
8.014435940445537
 30
0.0
 11
10.36621387873243
 21
6.661909354138663
 31
0.0
  0
LINE
  5
78
330
2
100
AcDbEntity
  8
Visible (ANSI)
100
AcDbLine
 10
10.18943718343579
 20
8.116498013061507
 30
0.0
 11
10.36621387873243
 21
8.014435940445537
 31
0.0
  0
LINE
  5
79
330
2
100
AcDbEntity
  8
Visible (ANSI)
100
AcDbLine
 10
7.720973712124343
 20
6.691329963415081
 30
0.0
 11
10.18943718343579
 21
8.116498013061507
 31
0.0
  0
SPLINE
  5
7A
330
2
100
AcDbEntity
  8
Visible (ANSI)
100
AcDbSpline
210
0.0
220
0.0
230
1.0
 70
     8
 71
     3
 72
    11
 73
     7
 74
     0
 42
0.0000000001
 43
0.0000000001
 40
-2.654390074045836
 40
-2.654390074045836
 40
-2.654390074045836
 40
-2.654390074045836
 40
-1.843161262633159
 40
-1.843161262633159
 40
-1.843161262633159
 40
-1.57479633746357
 40
-1.57479633746357
 40
-1.57479633746357
 40
-1.57479633746357
 10
10.34552412019791
 20
6.644026448372299
 30
0.0
 10
10.33496408370001
 20
6.627039533486935
 30
0.0
 10
10.32473286691714
 20
6.603338283350359
 30
0.0
 10
10.31139673051309
 20
6.588211415780516
 30
0.0
 10
10.30698496505583
 20
6.583207253420501
 30
0.0
 10
10.30230959443207
 20
6.579168463309208
 30
0.0
 10
10.29758145828307
 20
6.576438672630819
 30
0.0
  0
LINE
  5
7B
330
2
100
AcDbEntity
  8
Visible (ANSI)
100
AcDbLine
 10
10.15549605793884
 20
8.136093931003772
 30
0.0
 11
7.687032586627389
 21
6.710925881357345
 31
0.0
  0
ELLIPSE
  5
7C
330
2
100
AcDbEntity
  8
Visible (ANSI)
100
AcDbEllipse
 10
10.06710771029052
 20
7.268566313768057
 30
0.0
 11
0.0427499999999953
 21
0.074045172023572
 31
0.0
210
0.0
220
0.0
230
0.9999999999999998
 40
0.5773502691896272
 41
3.549808301725036
 42
5.87496965904346
  0
LINE
  5
7D
330
2
100
AcDbEntity
  8
Visible (ANSI)
100
AcDbLine
 10
10.15549605793884
 20
8.136093931003772
 30
0.0
 11
10.18943718343579
 21
8.116498013061507
 31
0.0
  0
LINE
  5
7E
330
2
100
AcDbEntity
  8
Visible (ANSI)
100
AcDbLine
 10
8.421670230469425
 20
6.191288675750501
 30
0.0
 11
8.421670230469425
 21
6.229627879263374
 31
0.0
  0
LINE
  5
7F
330
2
100
AcDbEntity
  8
Visible (ANSI)
100
AcDbLine
 10
8.387729104972471
 20
6.210031961321109
 30
0.0
 11
8.421670230469425
 21
6.229627879263374
 31
0.0
  0
ELLIPSE
  5
80
330
2
100
AcDbEntity
  8
Visible (ANSI)
100
AcDbEllipse
 10
8.058924451720727
 20
6.081841998115449
 30
0.0
 11
0.0427500000000042
 21
-0.0740451720235666
 31
0.0
210
0.0
220
0.0
230
1.0
 40
0.5773502691896257
 41
4.048863751454824
 42
5.349475830451423
  0
ELLIPSE
  5
81
330
2
100
AcDbEntity
  8
Visible (ANSI)
100
AcDbEllipse
 10
8.024983326223773
 20
6.062246080173184
 30
0.0
 11
-0.0427499999999956
 21
0.074045172023572
 31
0.0
210
0.0
220
0.0
230
1.0
 40
0.5773502691896258
 41
0.3840497838257093
 42
2.341315244539174
  0
LINE
  5
82
330
2
100
AcDbEntity
  8
Visible (ANSI)
100
AcDbLine
 10
7.687032586627389
 20
6.614579284807874
 30
0.0
 11
8.387729104972471
 21
6.210031961321109
 31
0.0
  0
LINE
  5
83
330
2
100
AcDbEntity
  8
Visible (ANSI)
100
AcDbLine
 10
8.421670230469425
 20
6.229627879263374
 30
0.0
 11
7.720973712124343
 21
6.634175202750139
 31
0.0
  0
LINE
  5
84
330
2
100
AcDbEntity
  8
Visible (ANSI)
100
AcDbLine
 10
8.421670230469421
 20
6.317792181068442
 30
0.0
 11
8.421670230469421
 21
6.229627879263374
 31
0.0
  0
LINE
  5
85
330
2
100
AcDbEntity
  8
Visible (ANSI)
100
AcDbLine
 10
8.00626254795995
 20
6.077956443748163
 30
0.0
 11
8.020817325236567
 21
6.08635964832681
 31
0.0
  0
LINE
  5
86
330
2
100
AcDbEntity
  8
Visible (ANSI)
100
AcDbLine
 10
8.345317705399317
 20
6.273710030165909
 30
0.0
 11
8.421670230469421
 21
6.317792181068442
 31
0.0
  0
LINE
  5
87
330
2
100
AcDbEntity
  8
Visible (ANSI)
100
AcDbLine
 10
8.388467506266412
 20
6.33696178282488
 30
0.0
 11
8.421670230469421
 21
6.317792181068442
 31
0.0
  0
LINE
  5
88
330
2
100
AcDbEntity
  8
Visible (ANSI)
100
AcDbLine
 10
5.333749924325808
 20
6.595409683051433
 30
0.0
 11
8.995456088889556
 21
4.481322643247245
 31
0.0
  0
LINE
  5
89
330
2
100
AcDbEntity
  8
Visible (ANSI)
100
AcDbLine
 10
9.029397214386511
 20
4.500918561189511
 30
0.0
 11
8.995456088889556
 21
4.481322643247245
 31
0.0
  0
LINE
  5
8A
330
2
100
AcDbEntity
  8
Visible (ANSI)
100
AcDbLine
 10
9.029397214386511
 20
4.500918561189511
 30
0.0
 11
5.367691049822763
 21
6.615005600993699
 31
0.0
  0
ELLIPSE
  5
8B
330
2
100
AcDbEntity
  8
Visible (ANSI)
100
AcDbEllipse
 10
5.459922182956825
 20
4.073074352783375
 30
0.0
 11
0.562499999999999
 21
-0.9742785792574936
 31
0.0
210
0.0
220
0.0
230
1.0
 40
0.5773502691896254
 41
5.497787143782138
 42
7.068583470577035
  0
ELLIPSE
  5
8C
330
2
100
AcDbEntity
  8
Visible (ANSI)
100
AcDbEllipse
 10
5.493863308453779
 20
4.092670270725641
 30
0.0
 11
0.5624999999999988
 21
-0.9742785792574942
 31
0.0
210
0.0
220
0.0
230
1.0
 40
0.5773502691896257
 41
0.0000000000000023
 42
0.785398163397452
  0
LINE
  5
8D
330
2
100
AcDbEntity
  8
Visible Narrow (ANSI)
100
AcDbLine
 10
6.289358437288643
 20
3.633390943953795
 30
0.0
 11
6.255417311791689
 21
3.613795026011531
 31
0.0
  0
LINE
  5
8E
330
2
100
AcDbEntity
  8
Visible (ANSI)
100
AcDbLine
 10
6.255417311791689
 20
3.639514668310755
 30
0.0
 11
6.255417311791689
 21
3.613795026011531
 31
0.0
  0
LINE
  5
8F
330
2
100
AcDbEntity
  8
Visible (ANSI)
100
AcDbLine
 10
6.289358437288643
 20
3.633390943953795
 30
0.0
 11
6.289358437288643
 21
3.65911058625302
 31
0.0
  0
LINE
  5
90
330
2
100
AcDbEntity
  8
Visible Narrow (ANSI)
100
AcDbLine
 10
6.289358437288643
 20
3.65911058625302
 30
0.0
 11
6.255417311791689
 21
3.639514668310755
 31
0.0
  0
ELLIPSE
  5
91
330
2
100
AcDbEntity
  8
Visible (ANSI)
100
AcDbEllipse
 10
7.006718266802398
 20
3.2057508596929
 30
0.0
 11
-0.5312499999999991
 21
0.9201519915209669
 31
0.0
210
0.0
220
0.0
230
0.9999999999999998
 40
0.5773502691896254
 41
5.49778714378214
 42
7.068583470577035
  0
ELLIPSE
  5
92
330
2
100
AcDbEntity
  8
Visible (ANSI)
100
AcDbEllipse
 10
7.04065939229935
 20
3.225346777635166
 30
0.0
 11
-0.5312499999999984
 21
0.9201519915209656
 31
0.0
210
0.0
220
0.0
230
1.0
 40
0.5773502691896254
 41
0.0319500242112483
 42
0.785398163397451
  0
LINE
  5
93
330
2
100
AcDbEntity
  8
Visible (ANSI)
100
AcDbLine
 10
7.758019221813102
 20
3.639514668310756
 30
0.0
 11
7.006718266802396
 21
4.073278476928605
 31
0.0
  0
LINE
  5
94
330
2
100
AcDbEntity
  8
Visible (ANSI)
100
AcDbLine
 10
10.36621387873243
 20
4.864481731742946
 30
0.0
 11
10.1894371834358
 21
5.170667949590844
 31
0.0
  0
LINE
  5
95
330
2
100
AcDbEntity
  8
Visible (ANSI)
100
AcDbLine
 10
10.15549605793885
 20
5.151072031648578
 30
0.0
 11
10.1894371834358
 21
5.170667949590844
 31
0.0
  0
LINE
  5
96
330
2
100
AcDbEntity
  8
Visible (ANSI)
100
AcDbLine
 10
10.15549605793885
 20
5.151072031648578
 30
0.0
 11
10.33227275323548
 21
4.844885813800681
 31
0.0
  0
LINE
  5
97
330
2
100
AcDbEntity
  8
Visible (ANSI)
100
AcDbLine
 10
10.33227275323548
 20
4.844885813800681
 30
0.0
 11
10.36621387873243
 21
4.864481731742946
 31
0.0
  0
LINE
  5
98
330
2
100
AcDbEntity
  8
Visible (ANSI)
100
AcDbLine
 10
10.36621387873243
 20
3.511955145436069
 30
0.0
 11
10.36621387873243
 21
4.864481731742946
 31
0.0
  0
LINE
  5
99
330
2
100
AcDbEntity
  8
Visible (ANSI)
100
AcDbLine
 10
10.33227275323548
 20
4.844885813800681
 30
0.0
 11
10.33227275323547
 21
3.492359227493804
 31
0.0
  0
LINE
  5
9A
330
2
100
AcDbEntity
  8
Visible (ANSI)
100
AcDbLine
 10
10.33227275323547
 20
3.492359227493804
 30
0.0
 11
10.36621387873243
 21
3.511955145436069
 31
0.0
  0
LINE
  5
9B
330
2
100
AcDbEntity
  8
Visible Narrow (ANSI)
100
AcDbLine
 10
10.27358145828306
 20
3.463152233661732
 30
0.0
 11
10.29758145828306
 21
3.44929582720118
 31
0.0
  0
SPLINE
  5
9C
330
2
100
AcDbEntity
  8
Visible (ANSI)
100
AcDbSpline
210
0.0
220
0.0
230
1.0
 70
     8
 71
     3
 72
     8
 73
     4
 74
     0
 42
0.0000000001
 43
0.0000000001
 40
3.137592642923261
 40
3.137592642923261
 40
3.137592642923261
 40
3.137592642923261
 40
3.141592653589793
 40
3.141592653589793
 40
3.141592653589793
 40
3.141592653589793
 10
10.27358145828306
 20
3.463152233661732
 30
0.0
 10
10.27353955613573
 20
3.463080201346116
 30
0.0
 10
10.27349769710159
 20
3.46300814336928
 30
0.0
 10
10.27345588177994
 20
3.46293606076871
 30
0.0
  0
LINE
  5
9D
330
2
100
AcDbEntity
  8
Visible Narrow (ANSI)
100
AcDbLine
 10
10.27345588177994
 20
3.46293606076871
 30
0.0
 11
10.29737001461539
 21
3.448931281495827
 31
0.0
  0
SPLINE
  5
9E
330
2
100
AcDbEntity
  8
Visible (ANSI)
100
AcDbSpline
210
0.0
220
0.0
230
1.0
 70
     8
 71
     3
 72
     8
 73
     4
 74
     0
 42
0.0000000001
 43
0.0000000001
 40
-3.141592653589791
 40
-3.141592653589791
 40
-3.141592653589791
 40
-3.141592653589791
 40
-3.137592642923261
 40
-3.137592642923261
 40
-3.137592642923261
 40
-3.137592642923261
 10
10.29737001461539
 20
3.448931281495827
 30
0.0
 10
10.29744050330045
 20
3.44905279216536
 30
0.0
 10
10.29751098485954
 20
3.449174307983569
 30
0.0
 10
10.29758145828306
 20
3.44929582720118
 30
0.0
  0
LINE
  5
9F
330
2
100
AcDbEntity
  8
Visible (ANSI)
100
AcDbLine
 10
9.206173909683144
 20
2.84220575703474
 30
0.0
 11
9.17223278418619
 21
2.822609839092475
 31
0.0
  0
ELLIPSE
  5
A0
330
2
100
AcDbEntity
  8
Visible (ANSI)
100
AcDbEllipse
 10
9.172232784186192
 20
2.771578802784488
 30
0.0
 11
-0.0312500000000013
 21
0.0541265877365297
 31
0.0
210
0.0
220
0.0
230
1.0
 40
0.5773502691896252
 41
5.497787143782201
 42
5.984989723326144
  0
LINE
  5
A1
330
2
100
AcDbEntity
  8
Visible (ANSI)
100
AcDbLine
 10
9.17223278418619
 20
4.175136425399351
 30
0.0
 11
9.17223278418619
 21
2.822609839092475
 31
0.0
  0
LINE
  5
A2
330
2
100
AcDbEntity
  8
Visible (ANSI)
100
AcDbLine
 10
9.206173909683144
 20
2.84220575703474
 30
0.0
 11
9.206173909683144
 21
4.194732343341616
 31
0.0
  0
LINE
  5
A3
330
2
100
AcDbEntity
  8
Visible (ANSI)
100
AcDbLine
 10
9.206173909683144
 20
4.194732343341616
 30
0.0
 11
9.17223278418619
 21
4.175136425399351
 31
0.0
  0
LINE
  5
A4
330
2
100
AcDbEntity
  8
Visible (ANSI)
100
AcDbLine
 10
8.995456088889556
 20
4.481322643247245
 30
0.0
 11
9.17223278418619
 21
4.175136425399351
 31
0.0
  0
LINE
  5
A5
330
2
100
AcDbEntity
  8
Visible (ANSI)
100
AcDbLine
 10
9.206173909683144
 20
4.194732343341616
 30
0.0
 11
9.029397214386511
 21
4.500918561189511
 31
0.0
  0
ELLIPSE
  5
A6
330
2
100
AcDbEntity
  8
Visible (ANSI)
100
AcDbEllipse
 10
5.813475573550099
 20
3.664826062319513
 30
0.0
 11
0.0427499999999955
 21
-0.0740451720235721
 31
0.0
210
0.0
220
0.0
230
1.0
 40
0.5773502691896255
 41
0.0
 42
6.283185307179586
  0
ELLIPSE
  5
A7
330
2
100
AcDbEntity
  8
Visible (ANSI)
100
AcDbEllipse
 10
5.847416699047053
 20
3.684421980261777
 30
0.0
 11
0.0427500000000043
 21
-0.0740451720235669
 31
0.0
210
0.0
220
0.0
230
0.9999999999999998
 40
0.5773502691896254
 41
3.549808301725025
 42
5.874969659043487
  0
ELLIPSE
  5
A8
330
2
100
AcDbEntity
  8
Visible (ANSI)
100
AcDbEllipse
 10
8.818679393592917
 20
4.277198498015308
 30
0.0
 11
0.0427499999999955
 21
-0.0740451720235721
 31
0.0
210
0.0
220
0.0
230
1.0
 40
0.5773502691896255
 41
0.0
 42
6.283185307179586
  0
ELLIPSE
  5
A9
330
2
100
AcDbEntity
  8
Visible (ANSI)
100
AcDbEllipse
 10
8.852620519089873
 20
4.296794415957571
 30
0.0
 11
0.0427500000000043
 21
-0.0740451720235668
 31
0.0
210
0.0
220
0.0
230
1.0
 40
0.5773502691896255
 41
3.549808301725006
 42
5.874969659043439
  0
ELLIPSE
  5
AA
330
2
100
AcDbEntity
  8
Visible (ANSI)
100
AcDbEllipse
 10
5.813475573550096
 20
5.910191659870762
 30
0.0
 11
0.0427499999999955
 21
-0.0740451720235721
 31
0.0
210
0.0
220
0.0
230
1.0
 40
0.5773502691896255
 41
0.0
 42
6.283185307179586
  0
ELLIPSE
  5
AB
330
2
100
AcDbEntity
  8
Visible (ANSI)
100
AcDbEllipse
 10
5.84741669904705
 20
5.929787577813027
 30
0.0
 11
0.0427500000000043
 21
-0.0740451720235668
 31
0.0
210
0.0
220
0.0
230
1.0
 40
0.5773502691896255
 41
3.549808301725036
 42
5.874969659043487
  0
ELLIPSE
  5
AC
330
2
100
AcDbEntity
  8
Visible (ANSI)
100
AcDbEllipse
 10
10.10104883578748
 20
4.405202404971096
 30
0.0
 11
0.0427500000000035
 21
-0.0740451720235674
 31
0.0
210
0.0
220
0.0
230
1.0
 40
0.5773502691896273
 41
3.549808301725034
 42
5.874969659043476
  0
ELLIPSE
  5
AD
330
2
100
AcDbEntity
  8
Visible (ANSI)
100
AcDbEllipse
 10
10.06710771029052
 20
4.385606487028832
 30
0.0
 11
0.0427499999999951
 21
-0.0740451720235724
 31
0.0
210
0.0
220
0.0
230
1.0
 40
0.5773502691896299
 41
0.0
 42
6.283185307179586
  0
ELLIPSE
  5
AE
330
2
100
AcDbEntity
  8
Visible (ANSI)
100
AcDbEllipse
 10
7.404465831219827
 20
4.889570933711107
 30
0.0
 11
0.0427499999999955
 21
-0.0740451720235721
 31
0.0
210
0.0
220
0.0
230
1.0
 40
0.5773502691896255
 41
0.0
 42
6.283185307179586
  0
ELLIPSE
  5
AF
330
2
100
AcDbEntity
  8
Visible (ANSI)
100
AcDbEllipse
 10
7.43840695671678
 20
4.909166851653372
 30
0.0
 11
0.0427500000000044
 21
-0.074045172023567
 31
0.0
210
0.0
220
0.0
230
0.9999999999999998
 40
0.5773502691896255
 41
3.549808301725036
 42
5.874969659043487
  0
ELLIPSE
  5
B0
330
2
100
AcDbEntity
  8
Visible (ANSI)
100
AcDbEllipse
 10
8.023922666051998
 20
6.063711084980535
 30
0.0
 11
0.0427499999999994
 21
-0.0740451720235685
 31
0.0
210
0.0
220
0.0
230
1.0
 40
0.5773502691896258
 41
5.512666389432723
 42
5.874969659043904
  0
ELLIPSE
  5
B1
330
2
100
AcDbEntity
  8
Visible (ANSI)
100
AcDbEllipse
 10
7.989981540555044
 20
6.044115167038271
 30
0.0
 11
0.0427499999999951
 21
-0.0740451720235724
 31
0.0
210
0.0
220
0.0
230
1.0
 40
0.5773502691896299
 41
0.0
 42
6.283185307179586
  0
LINE
  5
B2
330
2
100
AcDbEntity
  8
Visible (ANSI)
100
AcDbLine
 10
7.687032586627392
 20
6.576240081294998
 30
0.0
 11
10.15549605793885
 21
5.151072031648578
 31
0.0
  0
LINE
  5
B3
330
2
100
AcDbEntity
  8
Visible (ANSI)
100
AcDbLine
 10
10.1894371834358
 20
5.170667949590844
 30
0.0
 11
7.720973712124346
 21
6.595835999237264
 31
0.0
  0
LINE
  5
B4
330
2
100
AcDbEntity
  8
Visible Narrow (ANSI)
100
AcDbLine
 10
9.206173909683146
 20
4.136575029845872
 30
0.0
 11
10.31158299470094
 21
3.498366797046192
 31
0.0
  0
ELLIPSE
  5
B5
330
2
100
AcDbEntity
  8
Visible (ANSI)
100
AcDbEllipse
 10
10.33227275323548
 20
3.441328191185817
 30
0.0
 11
-0.0312500000000008
 21
0.0541265877365288
 31
0.0
210
0.0
220
0.0
230
1.0
 40
0.5773502691896257
 41
5.497787143782169
 42
5.984989723326257
  0
ELLIPSE
  5
B6
330
2
100
AcDbEntity
  8
Visible (ANSI)
100
AcDbEllipse
 10
9.211477210542046
 20
2.890360987414212
 30
0.0
 11
-0.0589999999999999
 21
-0.1021909976465636
 31
0.0
210
0.0
220
0.0
230
1.0
 40
0.5773502691896259
 41
0.003571428571481
 42
0.7853981633974482
  0
SPLINE
  5
B7
330
2
100
AcDbEntity
  8
Visible (ANSI)
100
AcDbSpline
210
0.0
220
0.0
230
1.0
 70
     8
 71
     3
 72
     8
 73
     4
 74
     0
 42
0.0000000001
 43
0.0000000001
 40
-1.574796337463599
 40
-1.574796337463599
 40
-1.574796337463599
 40
-1.574796337463599
 40
-1.570796326796798
 40
-1.570796326796798
 40
-1.570796326796798
 40
-1.570796326796798
 10
9.152477564096852
 20
2.788169785642685
 30
0.0
 10
9.152547566114597
 20
2.788129369958897
 30
0.0
 10
9.152617811969857
 20
2.788089103151238
 30
0.0
 10
9.152688300654927
 20
2.788048985804297
 30
0.0
  0
SPLINE
  5
B8
330
2
100
AcDbEntity
  8
Visible (ANSI)
100
AcDbSpline
210
0.0
220
0.0
230
1.0
 70
     8
 71
     3
 72
    11
 73
     7
 74
     0
 42
0.0000000001
 43
0.0000000001
 40
-2.654390074045827
 40
-2.654390074045827
 40
-2.654390074045827
 40
-2.654390074045827
 40
-1.843161262633163
 40
-1.843161262633163
 40
-1.843161262633163
 40
-1.574796337463599
 40
-1.574796337463599
 40
-1.574796337463599
 40
-1.574796337463599
 10
9.151543025651664
 20
2.828617408644864
 30
0.0
 10
9.140982989153764
 20
2.823824173588928
 30
0.0
 10
9.135013295055335
 20
2.809476523710785
 30
0.0
 10
9.141919809143098
 20
2.798061800316037
 30
0.0
 10
9.144204572837717
 20
2.79428566299625
 30
0.0
 10
9.147781055057604
 20
2.790881316400746
 30
0.0
 10
9.152477564096852
 20
2.788169785642685
 30
0.0
  0
LINE
  5
B9
330
2
100
AcDbEntity
  8
Visible Narrow (ANSI)
100
AcDbLine
 10
7.788700047732215
 20
3.615455168809846
 30
0.0
 11
9.151543025651664
 21
2.828617408644864
 31
0.0
  0
SPLINE
  5
BA
330
2
100
AcDbEntity
  8
Visible (ANSI)
100
AcDbSpline
210
0.0
220
0.0
230
1.0
 70
     8
 71
     3
 72
    11
 73
     7
 74
     0
 42
0.0000000001
 43
0.0000000001
 40
-2.620301743563593
 40
-2.620301743563593
 40
-2.620301743563593
 40
-2.620301743563593
 40
-2.064515329924512
 40
-2.064515329924512
 40
-2.064515329924512
 40
-1.925288246787544
 40
-1.925288246787544
 40
-1.925288246787544
 40
-1.925288246787544
 10
7.859106166724101
 20
3.534898110078004
 30
0.0
 10
7.834025250430232
 20
3.549378583851792
 30
0.0
 10
7.816096795342852
 20
3.576823804817765
 30
0.0
 10
7.800342407747279
 20
3.59940446118149
 30
0.0
 10
7.796395860336773
 20
3.605061020686525
 30
0.0
 10
7.792547013762639
 20
3.6104625710807
 30
0.0
 10
7.788700047732215
 20
3.615455168809846
 30
0.0
  0
LINE
  5
BB
330
2
100
AcDbEntity
  8
Visible Narrow (ANSI)
100
AcDbLine
 10
9.172425915247393
 20
2.822721343362649
 30
0.0
 11
9.152477564096852
 21
2.788169785642686
 31
0.0
  0
LINE
  5
BC
330
2
100
AcDbEntity
  8
Visible Narrow (ANSI)
100
AcDbLine
 10
9.172703159510396
 20
2.822881410412524
 30
0.0
 11
9.152688300654926
 21
2.788048985804298
 31
0.0
  0
LINE
  5
BD
330
2
100
AcDbEntity
  8
Visible Narrow (ANSI)
100
AcDbLine
 10
9.201031738263251
 20
2.839236922981245
 30
0.0
 11
9.211477210542046
 21
2.83320622674927
 31
0.0
  0
ELLIPSE
  5
BE
330
2
100
AcDbEntity
  8
Visible (ANSI)
100
AcDbEllipse
 10
9.211477210542046
 20
2.890360987414212
 30
0.0
 11
-0.0350000000000001
 21
-0.0606217782649109
 31
0.0
210
0.0
220
0.0
230
1.0
 40
0.5773502691896258
 41
0.123732015308919
 42
0.7853981633974483
  0
LINE
  5
BF
330
2
100
AcDbEntity
  8
Visible (ANSI)
100
AcDbLine
 10
10.23858110472826
 20
3.42620493654339
 30
0.0
 11
9.211477210542046
 21
2.83320622674927
 31
0.0
  0
LINE
  5
C0
330
2
100
AcDbEntity
  8
Visible (ANSI)
100
AcDbLine
 10
9.211477210542046
 20
2.79401439086474
 30
0.0
 11
10.23858110472826
 21
3.387013100658859
 31
0.0
  0
ELLIPSE
  5
C1
330
2
100
AcDbEntity
  8
Visible (ANSI)
100
AcDbEllipse
 10
10.23858110472826
 20
3.483359697208332
 30
0.0
 11
0.058999999999994
 21
0.1021909976465675
 31
0.0
210
0.0
220
0.0
230
1.0
 40
0.5773502691896258
 41
3.926990816987002
 42
4.708817551813348
  0
ELLIPSE
  5
C2
330
2
100
AcDbEntity
  8
Visible (ANSI)
100
AcDbEllipse
 10
10.23858110472826
 20
3.483359697208332
 30
0.0
 11
-0.0350000000000002
 21
-0.060621778264911
 31
0.0
210
0.0
220
0.0
230
1.0
 40
0.5773502691896258
 41
0.7853981633974483
 42
1.567224898223643
  0
ELLIPSE
  5
C3
330
2
100
AcDbEntity
  8
Visible (ANSI)
100
AcDbEllipse
 10
7.758019221813102
 20
3.53745259569479
 30
0.0
 11
-0.0624999999999999
 21
0.1082531754730549
 31
0.0
210
0.0
220
0.0
230
1.0
 40
0.5773502691896255
 41
5.143295223789503
 42
5.497787143782138
  0
SPLINE
  5
C4
330
2
100
AcDbEntity
  8
Visible (ANSI)
100
AcDbSpline
210
0.0
220
0.0
230
1.0
 70
     8
 71
     3
 72
     8
 73
     4
 74
     0
 42
0.0000000001
 43
0.0000000001
 40
-3.137592642923261
 40
-3.137592642923261
 40
-3.137592642923261
 40
-3.137592642923261
 40
-2.575103832471572
 40
-2.575103832471572
 40
-2.575103832471572
 40
-2.575103832471572
 10
10.29758145828306
 20
3.44929582720118
 30
0.0
 10
10.30749155989721
 20
3.466384081673263
 30
0.0
 10
10.31665007760555
 20
3.483165483971994
 30
0.0
 10
10.32483242910396
 20
3.495761694854811
 30
0.0
  0
LINE
  5
C5
330
2
100
AcDbEntity
  8
Visible Narrow (ANSI)
100
AcDbLine
 10
10.23858110472826
 20
3.42620493654339
 30
0.0
 11
9.206173909683144
 21
4.022265508515991
 31
0.0
  0
SPLINE
  5
C6
330
2
100
AcDbEntity
  8
Visible (ANSI)
100
AcDbSpline
210
0.0
220
0.0
230
1.0
 70
     8
 71
     3
 72
    11
 73
     7
 74
     0
 42
0.0000000001
 43
0.0000000001
 40
2.057998906341105
 40
2.057998906341105
 40
2.057998906341105
 40
2.057998906341105
 40
2.975488852168538
 40
2.975488852168538
 40
2.975488852168538
 40
3.137592642923261
 40
3.137592642923261
 40
3.137592642923261
 40
3.137592642923261
 10
10.31158299470094
 20
3.498366797046192
 30
0.0
 10
10.29963972151082
 20
3.497955825402174
 30
0.0
 10
10.28906096786398
 20
3.487360822003818
 30
0.0
 10
10.27885133375698
 20
3.471713226668992
 30
0.0
 10
10.27704747705153
 20
3.468948581092757
 30
0.0
 10
10.27527957798553
 20
3.466071403731918
 30
0.0
 10
10.27358145828306
 20
3.463152233661732
 30
0.0
  0
LINE
  5
C7
330
2
100
AcDbEntity
  8
Visible (ANSI)
100
AcDbLine
 10
5.459922182956825
 20
3.154515699239684
 30
0.0
 11
5.333749924325815
 21
3.22736128672456
 31
0.0
  0
LINE
  5
C8
330
2
100
AcDbEntity
  8
Visible (ANSI)
100
AcDbLine
 10
10.29758145828307
 20
6.576438672630819
 30
0.0
 11
9.026076162810396
 21
5.842334748013635
 31
0.0
  0
LINE
  5
C9
330
2
100
AcDbEntity
  8
Visible (ANSI)
100
AcDbLine
 10
6.056363308453778
 20
3.118391691468147
 30
0.0
 11
6.022422182956823
 21
3.098795773525881
 31
0.0
  0
LINE
  5
CA
330
2
100
AcDbEntity
  8
Visible (ANSI)
100
AcDbLine
 10
7.859106166724101
 20
3.534898110078004
 30
0.0
 11
9.152477564096852
 21
2.788169785642686
 31
0.0
  0
LINE
  5
CB
330
2
100
AcDbEntity
  8
Visible (ANSI)
100
AcDbLine
 10
8.211804998639573
 20
7.254601877715047
 30
0.0
 11
6.235841400424548
 21
6.11377876237669
 31
0.0
  0
LINE
  5
CC
330
2
100
AcDbEntity
  8
Visible (ANSI)
100
AcDbLine
 10
5.869944041050069
 20
5.902527823446059
 30
0.0
 11
5.825819542331305
 21
5.877052532232923
 31
0.0
  0
LINE
  5
CD
330
2
100
AcDbEntity
  8
Visible (ANSI)
100
AcDbLine
 10
6.079924355172915
 20
6.203797510423972
 30
0.0
 11
8.211804998639571
 21
7.434639373809599
 31
0.0
  0
ELLIPSE
  5
CE
330
2
100
AcDbEntity
  8
Visible (ANSI)
100
AcDbEllipse
 10
8.211804998639571
 20
7.344620625762323
 30
0.0
 11
0.055124999999996
 21
0.0954793007672281
 31
0.0
210
0.0
220
0.0
230
1.0
 40
0.5773502691896276
 41
3.926990816987236
 42
7.06858347057703
  0
ELLIPSE
  5
CF
330
2
100
AcDbEntity
  8
Visible Narrow (ANSI)
100
AcDbEllipse
 10
8.179278086704991
 20
7.36340004712366
 30
0.0
 11
0.0321249999999965
 21
0.0556421321931442
 31
0.0
210
0.0
220
0.0
230
0.9999999999999998
 40
0.5773502691896259
 41
3.92699081698724
 42
7.068583470577034
  0
ELLIPSE
  5
D0
330
2
100
AcDbEntity
  8
Visible Narrow (ANSI)
100
AcDbEllipse
 10
8.211804998639571
 20
7.292160720437721
 30
0.0
 11
0.0230000000000026
 21
-0.0398371685740824
 31
0.0
210
0.0
220
0.0
230
0.9999999999999998
 40
0.5773502691896019
 41
3.926990816986997
 42
5.497787143781891
  0
LINE
  5
D1
330
2
100
AcDbEntity
  8
Visible Narrow (ANSI)
100
AcDbLine
 10
8.179278086704991
 20
7.31094014179906
 30
0.0
 11
6.170787576555386
 21
6.151337605099366
 31
0.0
  0
LINE
  5
D2
330
2
100
AcDbEntity
  8
Visible Narrow (ANSI)
100
AcDbLine
 10
5.838382022891458
 20
5.959423169211369
 30
0.0
 11
5.792327736620752
 21
5.93283371463564
 31
0.0
  0
ELLIPSE
  5
D3
330
2
100
AcDbEntity
  8
Visible Narrow (ANSI)
100
AcDbEllipse
 10
8.530741451467454
 20
5.361217839164834
 30
0.0
 11
-0.0321249999999962
 21
0.0556421321931524
 31
0.0
210
0.0
220
0.0
230
0.9999999999999998
 40
0.5773502691896321
 41
5.497787143782387
 42
8.63937979737218
  0
LINE
  5
D4
330
2
100
AcDbEntity
  8
Visible Narrow (ANSI)
100
AcDbLine
 10
9.723984144719754
 20
4.619838943682472
 30
0.0
 11
8.530741451467454
 21
5.308757933840227
 31
0.0
  0
ELLIPSE
  5
D5
330
2
100
AcDbEntity
  8
Visible Narrow (ANSI)
100
AcDbEllipse
 10
9.723984144719755
 20
4.672298849007073
 30
0.0
 11
0.0321249999999959
 21
-0.0556421321931454
 31
0.0
210
0.0
220
0.0
230
0.9999999999999998
 40
0.5773502691896305
 41
5.497787143782163
 42
6.754411368217999
  0
ELLIPSE
  5
D6
330
2
100
AcDbEntity
  8
Visible Narrow (ANSI)
100
AcDbEllipse
 10
8.498214539532874
 20
5.28997851247889
 30
0.0
 11
-0.0230000000000022
 21
-0.0398371685740832
 31
0.0
210
0.0
220
0.0
230
1.0
 40
0.5773502691896356
 41
0.785398163397689
 42
2.356194490192578
  0
ELLIPSE
  5
D7
330
2
100
AcDbEntity
  8
Visible (ANSI)
100
AcDbEllipse
 10
8.498214539532874
 20
5.342438417803497
 30
0.0
 11
-0.0551249999999939
 21
0.0954793007672382
 31
0.0
210
0.0
220
0.0
230
1.0
 40
0.5773502691896293
 41
5.497787143782391
 42
8.639379797372184
  0
ELLIPSE
  5
D8
330
2
100
AcDbEntity
  8
Visible Narrow (ANSI)
100
AcDbEllipse
 10
9.691457232785172
 20
4.601059522321134
 30
0.0
 11
-0.0230000000000017
 21
-0.0398371685740831
 31
0.0
210
0.0
220
0.0
230
1.0
 40
0.5773502691896453
 41
0.7853981633976721
 42
2.356194490192578
  0
LINE
  5
D9
330
2
100
AcDbEntity
  8
Visible (ANSI)
100
AcDbLine
 10
9.691457232785172
 20
4.56350067959846
 30
0.0
 11
8.498214539532874
 21
5.252419669756214
 31
0.0
  0
ELLIPSE
  5
DA
330
2
100
AcDbEntity
  8
Visible (ANSI)
100
AcDbEllipse
 10
9.691457232785175
 20
4.653519427645737
 30
0.0
 11
0.055124999999991
 21
-0.0954793007672333
 31
0.0
210
0.0
220
0.0
230
1.0
 40
0.5773502691896294
 41
5.497787143782391
 42
8.639379797372185
  0
LINE
  5
DB
330
2
100
AcDbEntity
  8
Visible (ANSI)
100
AcDbLine
 10
8.498214539532874
 20
5.432457165850778
 30
0.0
 11
9.691457232785175
 21
4.743538175693014
 31
0.0
  0
ELLIPSE
  5
DC
330
2
100
AcDbEntity
  8
Visible (ANSI)
100
AcDbEllipse
 10
8.532155665029828
 20
6.394200537667069
 30
0.0
 11
-0.078125
 21
-0.1353164693413188
 31
0.0
210
0.0
220
0.0
230
0.9999999999999998
 40
0.5773502691896272
 41
3.926990816987253
 42
6.283185307179588
  0
LINE
  5
DD
330
2
100
AcDbEntity
  8
Visible (ANSI)
100
AcDbLine
 10
8.532155665029828
 20
6.521778128437026
 30
0.0
 11
9.725398358282127
 21
7.210697118594801
 31
0.0
  0
ELLIPSE
  5
DE
330
2
100
AcDbEntity
  8
Visible (ANSI)
100
AcDbEllipse
 10
9.725398358282127
 20
7.083119527824848
 30
0.0
 11
0.0781249999999971
 21
0.135316469341314
 31
0.0
210
0.0
220
0.0
230
1.0
 40
0.577350269189627
 41
0.0
 42
0.7853981633974448
  0
ELLIPSE
  5
DF
330
2
100
AcDbEntity
  8
Visible Narrow (ANSI)
100
AcDbEllipse
 10
8.532155665029826
 20
6.484219285714352
 30
0.0
 11
-0.0230000000000026
 21
0.0398371685740832
 31
0.0
210
0.0
220
0.0
230
0.9999999999999998
 40
0.5773502691896261
 41
3.926990816987007
 42
5.497787143781879
  0
ELLIPSE
  5
E0
330
2
100
AcDbEntity
  8
Visible Narrow (ANSI)
100
AcDbEllipse
 10
8.532155665029828
 20
6.304181789619788
 30
0.0
 11
0.0229999999999998
 21
-0.0398371685740842
 31
0.0
210
0.0
220
0.0
230
0.9999999999999998
 40
0.5773502691896255
 41
0.0
 42
0.7853981633974572
  0
ELLIPSE
  5
E1
330
2
100
AcDbEntity
  8
Visible Narrow (ANSI)
100
AcDbEllipse
 10
8.564682576964408
 20
6.375421116305732
 30
0.0
 11
-0.0551249999999997
 21
-0.0954793007672343
 31
0.0
210
0.0
220
0.0
230
1.0
 40
0.5773502691896271
 41
3.926990816987237
 42
7.06858347057703
  0
ELLIPSE
  5
E2
330
2
100
AcDbEntity
  8
Visible Narrow (ANSI)
100
AcDbEllipse
 10
9.725398358282127
 20
6.99310077977757
 30
0.0
 11
0.0230000000000001
 21
-0.0398371685740841
 31
0.0
210
0.0
220
0.0
230
1.0
 40
0.5773502691896259
 41
0.0000000000000121
 42
0.7853981633974503
  0
LINE
  5
E3
330
2
100
AcDbEntity
  8
Visible Narrow (ANSI)
100
AcDbLine
 10
9.757925270216709
 20
6.974321358416233
 30
0.0
 11
8.564682576964408
 21
6.285402368258449
 31
0.0
  0
ELLIPSE
  5
E4
330
2
100
AcDbEntity
  8
Visible Narrow (ANSI)
100
AcDbEllipse
 10
9.725398358282127
 20
7.173138275872126
 30
0.0
 11
0.0229999999999975
 21
-0.0398371685740854
 31
0.0
210
0.0
220
0.0
230
0.9999999999999998
 40
0.5773502691896257
 41
0.7853981633976872
 42
2.356194490192603
  0
ELLIPSE
  5
E5
330
2
100
AcDbEntity
  8
Visible Narrow (ANSI)
100
AcDbEllipse
 10
9.757925270216709
 20
7.064340106463509
 30
0.0
 11
0.0551249999999972
 21
0.0954793007672299
 31
0.0
210
0.0
220
0.0
230
1.0
 40
0.577350269189627
 41
3.926990816987237
 42
7.06858347057703
  0
LINE
  5
E6
330
2
100
AcDbEntity
  8
Visible Narrow (ANSI)
100
AcDbLine
 10
8.564682576964408
 20
6.465439864353014
 30
0.0
 11
9.757925270216709
 21
7.154358854510787
 31
0.0
  0
ELLIPSE
  5
E7
330
2
100
AcDbEntity
  8
Visible Narrow (ANSI)
100
AcDbEllipse
 10
8.14533696120803
 20
3.964990617883075
 30
0.0
 11
0.0551249999999907
 21
-0.0954793007672316
 31
0.0
210
0.0
220
0.0
230
1.0
 40
0.5773502691896254
 41
5.497787143782382
 42
8.639379797372175
  0
LINE
  5
E8
330
2
100
AcDbEntity
  8
Visible Narrow (ANSI)
100
AcDbLine
 10
5.537880705582639
 20
5.560424937015846
 30
0.0
 11
8.14533696120803
 21
4.055009365930351
 31
0.0
  0
ELLIPSE
  5
E9
330
2
100
AcDbEntity
  8
Visible Narrow (ANSI)
100
AcDbEllipse
 10
5.537880705582639
 20
5.470406188968562
 30
0.0
 11
-0.055124999999995
 21
0.0954793007672391
 31
0.0
210
0.0
220
0.0
230
1.0
 40
0.5773502691896254
 41
5.497787143782383
 42
8.639379797372175
  0
LINE
  5
EA
330
2
100
AcDbEntity
  8
Visible Narrow (ANSI)
100
AcDbLine
 10
8.14533696120803
 20
3.874971869835799
 30
0.0
 11
5.537880705582639
 21
5.380387440921279
 31
0.0
  0
ELLIPSE
  5
EB
330
2
100
AcDbEntity
  8
Visible Narrow (ANSI)
100
AcDbEllipse
 10
5.570407617517221
 20
5.399166862282616
 30
0.0
 11
-0.023
 21
-0.0398371685740842
 31
0.0
210
0.0
220
0.0
230
1.0
 40
0.5773502691896259
 41
5.497787143782145
 42
6.283185307179594
  0
ELLIPSE
  5
EC
330
2
100
AcDbEntity
  8
Visible Narrow (ANSI)
100
AcDbEllipse
 10
8.177863873142612
 20
3.893751291197137
 30
0.0
 11
-0.0229999999999995
 21
-0.0398371685740848
 31
0.0
210
0.0
220
0.0
230
1.0
 40
0.5773502691896364
 41
5.497787143782134
 42
6.283185307179598
  0
ELLIPSE
  5
ED
330
2
100
AcDbEntity
  8
Visible Narrow (ANSI)
100
AcDbEllipse
 10
5.57040761751722
 20
5.579204358377183
 30
0.0
 11
-0.0229999999999977
 21
-0.0398371685740856
 31
0.0
210
0.0
220
0.0
230
0.9999999999999998
 40
0.5773502691896259
 41
3.926990816987004
 42
5.497787143781907
  0
ELLIPSE
  5
EE
330
2
100
AcDbEntity
  8
Visible (ANSI)
100
AcDbEllipse
 10
5.570407617517221
 20
5.4891856103299
 30
0.0
 11
-0.0781250000000009
 21
0.1353164693413203
 31
0.0
210
0.0
220
0.0
230
0.9999999999999998
 40
0.5773502691896254
 41
5.497787143782138
 42
6.283185307179587
  0
ELLIPSE
  5
EF
330
2
100
AcDbEntity
  8
Visible Narrow (ANSI)
100
AcDbEllipse
 10
8.177863873142612
 20
4.073788787291689
 30
0.0
 11
-0.022999999999998
 21
-0.0398371685740861
 31
0.0
210
0.0
220
0.0
230
0.9999999999999998
 40
0.5773502691896258
 41
3.926990816986982
 42
5.497787143781878
  0
LINE
  5
F0
330
2
100
AcDbEntity
  8
Visible (ANSI)
100
AcDbLine
 10
5.57040761751722
 20
5.616763201099859
 30
0.0
 11
8.177863873142612
 21
4.111347630014365
 31
0.0
  0
ELLIPSE
  5
F1
330
2
100
AcDbEntity
  8
Visible (ANSI)
100
AcDbEllipse
 10
8.177863873142612
 20
3.983770039244413
 30
0.0
 11
0.0781249999999883
 21
-0.1353164693413171
 31
0.0
210
0.0
220
0.0
230
0.9999999999999998
 40
0.5773502691896253
 41
0.0
 42
2.356194490192581
  0
ELLIPSE
  5
F2
330
2
100
AcDbEntity
  8
Visible Narrow (ANSI)
100
AcDbEllipse
 10
5.53788070558264
 20
4.245661317576972
 30
0.0
 11
-0.0551249999999951
 21
0.0954793007672393
 31
0.0
210
0.0
220
0.0
230
0.9999999999999998
 40
0.5773502691896257
 41
5.497787143782383
 42
8.639379797372175
  0
LINE
  5
F3
330
2
100
AcDbEntity
  8
Visible Narrow (ANSI)
100
AcDbLine
 10
5.935628270000073
 20
3.926002906143773
 30
0.0
 11
5.53788070558264
 21
4.155642569529689
 31
0.0
  0
ELLIPSE
  5
F4
330
2
100
AcDbEntity
  8
Visible Narrow (ANSI)
100
AcDbEllipse
 10
5.935628270000073
 20
4.01602165419105
 30
0.0
 11
0.0551249999999906
 21
-0.0954793007672314
 31
0.0
210
0.0
220
0.0
230
1.0
 40
0.5773502691896257
 41
5.497787143782374
 42
8.639379797372168
  0
LINE
  5
F5
330
2
100
AcDbEntity
  8
Visible Narrow (ANSI)
100
AcDbLine
 10
5.53788070558264
 20
4.335680065624257
 30
0.0
 11
5.935628270000073
 21
4.106040402238327
 31
0.0
  0
ELLIPSE
  5
F6
330
2
100
AcDbEntity
  8
Visible Narrow (ANSI)
100
AcDbEllipse
 10
5.968155181934654
 20
4.124819823599664
 30
0.0
 11
-0.0229999999999985
 21
-0.0398371685740871
 31
0.0
210
0.0
220
0.0
230
1.0
 40
0.5773502691896228
 41
3.926990816987006
 42
5.497787143781899
  0
LINE
  5
F7
330
2
100
AcDbEntity
  8
Visible (ANSI)
100
AcDbLine
 10
5.570407617517222
 20
4.392018329708263
 30
0.0
 11
5.968155181934654
 21
4.162378666322341
 31
0.0
  0
ELLIPSE
  5
F8
330
2
100
AcDbEntity
  8
Visible Narrow (ANSI)
100
AcDbEllipse
 10
5.570407617517222
 20
4.354459486985594
 30
0.0
 11
0.0230000000000025
 21
0.0398371685740831
 31
0.0
210
0.0
220
0.0
230
1.0
 40
0.5773502691896259
 41
0.7853981633977068
 42
2.356194490192606
  0
ELLIPSE
  5
F9
330
2
100
AcDbEntity
  8
Visible Narrow (ANSI)
100
AcDbEllipse
 10
5.968155181934654
 20
3.94478232750511
 30
0.0
 11
-0.0229999999999995
 21
-0.0398371685740837
 31
0.0
210
0.0
220
0.0
230
0.9999999999999998
 40
0.577350269189626
 41
5.497787143782108
 42
6.283185307179584
  0
ELLIPSE
  5
FA
330
2
100
AcDbEntity
  8
Visible (ANSI)
100
AcDbEllipse
 10
5.968155181934654
 20
4.034801075552388
 30
0.0
 11
0.0781249999999883
 21
-0.1353164693413171
 31
0.0
210
0.0
220
0.0
230
1.0
 40
0.5773502691896252
 41
0.0
 42
2.356194490192587
  0
ELLIPSE
  5
FB
330
2
100
AcDbEntity
  8
Visible Narrow (ANSI)
100
AcDbEllipse
 10
5.570407617517223
 20
4.174421990891027
 30
0.0
 11
-0.0229999999999999
 21
-0.0398371685740764
 31
0.0
210
0.0
220
0.0
230
1.0
 40
0.5773502691896374
 41
5.4977871437825
 42
6.283185307179965
  0
ELLIPSE
  5
FC
330
2
100
AcDbEntity
  8
Visible (ANSI)
100
AcDbEllipse
 10
5.570407617517222
 20
4.264440738938309
 30
0.0
 11
-0.078125000000001
 21
0.1353164693413212
 31
0.0
210
0.0
220
0.0
230
0.9999999999999998
 40
0.5773502691896254
 41
5.497787143782151
 42
6.283185307179604
  0
SPLINE
  5
FD
330
2
100
AcDbEntity
  8
Visible (ANSI)
100
AcDbSpline
210
0.0
220
0.0
230
1.0
 70
     8
 71
     3
 72
    16
 73
    12
 74
     0
 42
0.0000000001
 43
0.0000000001
 40
0.7853981633974491
 40
0.7853981633974491
 40
0.7853981633974491
 40
0.7853981633974491
 40
0.9424777960769386
 40
0.9424777960769386
 40
1.099557428756428
 40
1.099557428756428
 40
1.256637061435917
 40
1.256637061435917
 40
1.413716694115406
 40
1.413716694115406
 40
1.570796326794896
 40
1.570796326794896
 40
1.570796326794896
 40
1.570796326794896
 10
8.454030665029828
 20
6.258884068325751
 30
0.0
 10
8.460529834831941
 20
6.255131770890991
 30
0.0
 10
8.467541477174822
 20
6.252285773184431
 30
0.0
 10
8.481841368857635
 20
6.248545081978525
 30
0.0
 10
8.489117755402713
 20
6.247640728184586
 30
0.0
 10
8.503396866737009
 20
6.247483671644159
 30
0.0
 10
8.510402775309009
 20
6.248220929427145
 30
0.0
 10
8.523957932730102
 20
6.250961312178651
 30
0.0
 10
8.530513215274941
 20
6.252962308764388
 30
0.0
 10
8.543166408545831
 20
6.257953533827796
 30
0.0
 10
8.549267350554579
 20
6.260945001098346
 30
0.0
 10
8.555155665029827
 20
6.264344621045704
 30
0.0
  0
LINE
  5
FE
330
2
100
AcDbEntity
  8
Visible (ANSI)
100
AcDbLine
 10
8.555155665029827
 20
6.264344621045704
 30
0.0
 11
9.748398358282127
 21
6.953263611203485
 31
0.0
  0
SPLINE
  5
FF
330
2
100
AcDbEntity
  8
Visible (ANSI)
100
AcDbSpline
210
0.0
220
0.0
230
1.0
 70
     8
 71
     3
 72
    20
 73
    16
 74
     0
 42
0.0000000001
 43
0.0000000001
 40
1.570796326794896
 40
1.570796326794896
 40
1.570796326794896
 40
1.570796326794896
 40
1.934622544338681
 40
1.934622544338681
 40
2.305182141371066
 40
2.305182141371066
 40
2.670828720282078
 40
2.670828720282078
 40
3.039505136522071
 40
3.039505136522071
 40
3.409680251042617
 40
3.409680251042617
 40
3.724174784852795
 40
3.724174784852795
 40
3.926990816987241
 40
3.926990816987241
 40
3.926990816987241
 40
3.926990816987241
 10
9.748398358282127
 20
6.953263611203487
 30
0.0
 10
9.762036811254631
 20
6.961137775698491
 30
0.0
 10
9.774563041439472
 20
6.971187550272784
 30
0.0
 10
9.797528600894978
 20
6.994544310516248
 30
0.0
 10
9.807909410622217
 20
7.007928140092399
 30
0.0
 10
9.825538930370532
 20
7.036485638619208
 30
0.0
 10
9.832820183389372
 20
7.051626736605209
 30
0.0
 10
9.84377707608456
 20
7.082812695059294
 30
0.0
 10
9.847437881314588
 20
7.098854281548875
 30
0.0
 10
9.850143698792535
 20
7.130915291212408
 30
0.0
 10
9.849219974273351
 20
7.146991205084483
 30
0.0
 10
9.841260876886
 20
7.175852016189455
 30
0.0
 10
9.835033529002522
 20
7.188873567487245
 30
0.0
 10
9.819402287624926
 20
7.207243547919563
 30
0.0
 10
9.811914871611685
 20
7.21359115468643
 30
0.0
 10
9.803523358282124
 20
7.218435997166162
 30
0.0
  0
LINE
  5
100
330
2
100
AcDbEntity
  8
Visible (ANSI)
100
AcDbLine
 10
5.547407617517222
 20
5.359329693708533
 30
0.0
 11
8.154863873142613
 21
3.853914122623052
 31
0.0
  0
SPLINE
  5
101
330
2
100
AcDbEntity
  8
Visible (ANSI)
100
AcDbSpline
210
0.0
220
0.0
230
1.0
 70
     8
 71
     3
 72
    22
 73
    18
 74
     0
 42
0.0000000001
 43
0.0000000001
 40
3.92699081698724
 40
3.92699081698724
 40
3.92699081698724
 40
3.92699081698724
 40
4.145159891192667
 40
4.145159891192667
 40
4.38401877422175
 40
4.38401877422175
 40
4.682078554032443
 40
4.682078554032443
 40
5.042832253081221
 40
5.042832253081221
 40
5.413920970367512
 40
5.413920970367512
 40
5.779720730605776
 40
5.779720730605776
 40
6.14784052109023
 40
6.14784052109023
 40
6.283185307179586
 40
6.283185307179586
 40
6.283185307179586
 40
6.283185307179586
 10
5.49228261751722
 20
5.624502079671221
 30
0.0
 10
5.48325587207197
 20
5.619290485758499
 30
0.0
 10
5.475285695813703
 20
5.612337828412464
 30
0.0
 10
5.461921311379684
 20
5.595830432343221
 30
0.0
 10
5.456805421487958
 20
5.586165236337737
 30
0.0
 10
5.448866899493624
 20
5.563843688113175
 30
0.0
 10
5.446844759650871
 20
5.551012575182145
 30
0.0
 10
5.44608547360214
 20
5.522534183492278
 30
0.0
 10
5.448135283496561
 20
5.506794070144207
 30
0.0
 10
5.456133568244222
 20
5.475251829000299
 30
0.0
 10
5.462219978899343
 20
5.459461086454983
 30
0.0
 10
5.477576518412671
 20
5.429607907142216
 30
0.0
 10
5.486799704943373
 20
5.415534174731444
 30
0.0
 10
5.507861955059821
 20
5.389977863519362
 30
0.0
 10
5.519701891924566
 20
5.378506549165464
 30
0.0
 10
5.537417957612233
 20
5.365492428573419
 30
0.0
 10
5.542334059287648
 20
5.362258913918125
 30
0.0
 10
5.547407617517221
 20
5.359329693708533
 30
0.0
  0
SPLINE
  5
102
330
2
100
AcDbEntity
  8
Visible (ANSI)
100
AcDbSpline
210
0.0
220
0.0
230
1.0
 70
     8
 71
     3
 72
    16
 73
    12
 74
     0
 42
0.0000000001
 43
0.0000000001
 40
6.283185307179583
 40
6.283185307179583
 40
6.283185307179583
 40
6.283185307179583
 40
6.440264939859074
 40
6.440264939859074
 40
6.597344572538564
 40
6.597344572538564
 40
6.754424205218055
 40
6.754424205218055
 40
6.911503837897545
 40
6.911503837897545
 40
7.068583470577034
 40
7.068583470577034
 40
7.068583470577034
 40
7.068583470577034
 10
8.154863873142613
 20
3.853914122623052
 30
0.0
 10
8.160752187617859
 20
3.850514502675696
 30
0.0
 10
8.166853129626607
 20
3.847523035405146
 30
0.0
 10
8.179506322897497
 20
3.842531810341738
 30
0.0
 10
8.186061605442336
 20
3.840530813756001
 30
0.0
 10
8.199616762863431
 20
3.837790431004496
 30
0.0
 10
8.206622671435429
 20
3.837053173221509
 30
0.0
 10
8.220901782769725
 20
3.837210229761935
 30
0.0
 10
8.228178169314803
 20
3.838114583555876
 30
0.0
 10
8.242478060997614
 20
3.841855274761781
 30
0.0
 10
8.249489703340497
 20
3.844701272468341
 30
0.0
 10
8.255988873142609
 20
3.8484535699031
 30
0.0
  0
SPLINE
  5
103
330
2
100
AcDbEntity
  8
Visible (ANSI)
100
AcDbSpline
210
0.0
220
0.0
230
1.0
 70
     8
 71
     3
 72
    16
 73
    12
 74
     0
 42
0.0000000001
 43
0.0000000001
 40
0.0000000000000002
 40
0.0000000000000002
 40
0.0000000000000002
 40
0.0000000000000002
 40
0.1570796326794896
 40
0.1570796326794896
 40
0.3141592653589791
 40
0.3141592653589791
 40
0.4712388980384686
 40
0.4712388980384686
 40
0.628318530717958
 40
0.628318530717958
 40
0.7853981633974475
 40
0.7853981633974475
 40
0.7853981633974475
 40
0.7853981633974475
 10
5.945155181934654
 20
3.904945158931028
 30
0.0
 10
5.951043496409901
 20
3.90154553898367
 30
0.0
 10
5.957144438418649
 20
3.898554071713121
 30
0.0
 10
5.969797631689537
 20
3.893562846649714
 30
0.0
 10
5.976352914234377
 20
3.891561850063976
 30
0.0
 10
5.989908071655471
 20
3.888821467312471
 30
0.0
 10
5.99691398022747
 20
3.888084209529484
 30
0.0
 10
6.011193091561766
 20
3.888241266069911
 30
0.0
 10
6.018469478106843
 20
3.889145619863851
 30
0.0
 10
6.032769369789655
 20
3.892886311069756
 30
0.0
 10
6.039781012132537
 20
3.895732308776316
 30
0.0
 10
6.04628018193465
 20
3.899484606211076
 30
0.0
  0
LINE
  5
104
330
2
100
AcDbEntity
  8
Visible (ANSI)
100
AcDbLine
 10
5.547407617517222
 20
4.134584822316949
 30
0.0
 11
5.945155181934654
 21
3.904945158931026
 31
0.0
  0
SPLINE
  5
105
330
2
100
AcDbEntity
  8
Visible (ANSI)
100
AcDbSpline
210
0.0
220
0.0
230
1.0
 70
     8
 71
     3
 72
    22
 73
    18
 74
     0
 42
0.0000000001
 43
0.0000000001
 40
3.92699081698724
 40
3.92699081698724
 40
3.92699081698724
 40
3.92699081698724
 40
4.145159891192667
 40
4.145159891192667
 40
4.38401877422175
 40
4.38401877422175
 40
4.682078554032443
 40
4.682078554032443
 40
5.042832253081221
 40
5.042832253081221
 40
5.413920970367512
 40
5.413920970367512
 40
5.779720730605776
 40
5.779720730605776
 40
6.14784052109023
 40
6.14784052109023
 40
6.283185307179588
 40
6.283185307179588
 40
6.283185307179588
 40
6.283185307179588
 10
5.492282617517221
 20
4.399757208279631
 30
0.0
 10
5.483255872071971
 20
4.39454561436691
 30
0.0
 10
5.475285695813703
 20
4.387592957020873
 30
0.0
 10
5.461921311379684
 20
4.371085560951631
 30
0.0
 10
5.456805421487959
 20
4.361420364946146
 30
0.0
 10
5.448866899493625
 20
4.339098816721585
 30
0.0
 10
5.446844759650872
 20
4.326267703790556
 30
0.0
 10
5.44608547360214
 20
4.297789312100688
 30
0.0
 10
5.448135283496561
 20
4.282049198752617
 30
0.0
 10
5.456133568244223
 20
4.250506957608709
 30
0.0
 10
5.462219978899344
 20
4.234716215063393
 30
0.0
 10
5.477576518412671
 20
4.204863035750626
 30
0.0
 10
5.486799704943374
 20
4.190789303339854
 30
0.0
 10
5.507861955059822
 20
4.165232992127772
 30
0.0
 10
5.519701891924568
 20
4.153761677773874
 30
0.0
 10
5.537417957612234
 20
4.140747557181828
 30
0.0
 10
5.542334059287649
 20
4.137514042526536
 30
0.0
 10
5.547407617517222
 20
4.134584822316943
 30
0.0
  0
LINE
  5
106
330
2
100
AcDbEntity
  8
Visible Narrow (ANSI)
100
AcDbLine
 10
7.720973712124343
 20
6.691329963415081
 30
0.0
 11
7.720973712124343
 21
6.63417520275014
 31
0.0
  0
ELLIPSE
  5
107
330
2
100
AcDbEntity
  8
Visible (ANSI)
100
AcDbEllipse
 10
7.770471186807401
 20
5.948318074770845
 30
0.0
 11
-0.1179999999999983
 21
-0.0000000000000001
 31
0.0
210
0.0
220
0.0
230
1.0
 40
0.5773502691896192
 41
0.0000000000000194
 42
0.6859086918350027
  0
ELLIPSE
  5
108
330
2
100
AcDbEntity
  8
Visible (ANSI)
100
AcDbEllipse
 10
7.770471186807401
 20
6.662752583082609
 30
0.0
 11
-0.1179999999999999
 21
-0.0000000000000008
 31
0.0
210
0.0
220
0.0
230
1.0
 40
0.5773502691896246
 41
5.497787143782126
 42
7.068583470577021
  0
LINE
  5
109
330
2
100
AcDbEntity
  8
Visible Narrow (ANSI)
100
AcDbLine
 10
7.720973712124343
 20
6.634175202750139
 30
0.0
 11
7.687032586627389
 21
6.614579284807874
 31
0.0
  0
ELLIPSE
  5
10A
330
2
100
AcDbEntity
  8
Visible (ANSI)
100
AcDbEllipse
 10
7.770471186807403
 20
6.662752583082609
 30
0.0
 11
-0.0700000000000004
 21
0.0
 31
0.0
210
0.0
220
0.0
230
1.0
 40
0.5773502691896258
 41
5.497787143782121
 42
7.068583470577037
  0
LINE
  5
10B
330
2
100
AcDbEntity
  8
Visible Narrow (ANSI)
100
AcDbLine
 10
7.687032586627389
 20
6.710925881357345
 30
0.0
 11
7.720973712124343
 21
6.691329963415081
 31
0.0
  0
LINE
  5
10C
330
2
100
AcDbEntity
  8
Visible Narrow (ANSI)
100
AcDbLine
 10
7.687032586627389
 20
6.614579284807874
 30
0.0
 11
7.687032586627389
 21
6.584984450680392
 31
0.0
  0
LINE
  5
10D
330
2
100
AcDbEntity
  8
Visible (ANSI)
100
AcDbLine
 10
7.652471186807404
 20
5.948318074770845
 30
0.0
 11
7.652471186807402
 21
6.662752583082612
 31
0.0
  0
LINE
  5
10E
330
2
100
AcDbEntity
  8
Visible Narrow (ANSI)
100
AcDbLine
 10
7.720973712124346
 20
6.595835999237264
 30
0.0
 11
7.687032586627392
 21
6.576240081294998
 31
0.0
  0
ELLIPSE
  5
10F
330
2
100
AcDbEntity
  8
Visible (ANSI)
100
AcDbEllipse
 10
7.770471186807549
 20
6.624413379569694
 30
0.0
 11
0.0700000000001921
 21
-0.0000000000001504
 31
0.0
210
0.0
220
0.0
230
1.0
 40
0.5773502691887911
 41
3.827501345425879
 42
3.926990816988102
  0
ELLIPSE
  5
110
330
2
100
AcDbEntity
  8
Visible (ANSI)
100
AcDbEllipse
 10
7.770471186807403
 20
5.884667477249212
 30
0.0
 11
-0.1180000000000007
 21
0.000000000000002
 31
0.0
210
0.0
220
0.0
230
1.0
 40
0.5773502691896279
 41
5.797126996103102
 42
6.969093999014591
  0
LINE
  5
111
330
2
100
AcDbEntity
  8
Visible Narrow (ANSI)
100
AcDbLine
 10
7.687032586627392
 20
6.576240081294998
 30
0.0
 11
7.687032586627386
 21
5.275933140376872
 31
0.0
  0
ELLIPSE
  5
112
330
2
100
AcDbEntity
  8
Visible (ANSI)
100
AcDbEllipse
 10
7.770471186807354
 20
6.624413379569595
 30
0.0
 11
-0.1179999999999314
 21
0.0000000000001719
 31
0.0
210
0.0
220
0.0
230
1.0
 40
0.5773502691892386
 41
0.6859086918358024
 42
0.7853981633983178
  0
LINE
  5
113
330
2
100
AcDbEntity
  8
Visible (ANSI)
100
AcDbLine
 10
7.679157615735376
 20
6.5812631314512
 30
0.0
 11
7.679157615735372
 21
5.841517229130676
 31
0.0
  0
LINE
  5
114
330
2
100
AcDbEntity
  8
Visible (ANSI)
100
AcDbLine
 10
7.716302119222302
 20
6.598815774753654
 30
0.0
 11
7.679157615735376
 21
6.5812631314512
 31
0.0
  0
LINE
  5
115
330
2
100
AcDbEntity
  8
Visible (ANSI)
100
AcDbLine
 10
7.6524711868074
 20
5.884667477249213
 30
0.0
 11
7.652471186807398
 21
5.295887173866511
 31
0.0
  0
ENDSEC
  0
SECTION
  2
OBJECTS
  0
DICTIONARY
  5
7
330
0
100
AcDbDictionary
281
     1
  3
ACAD_CIP_PREVIOUS_PRODUCT_INFO
350
134
  3
ACAD_COLOR
350
41
  3
ACAD_GROUP
350
2D
  3
ACAD_LAYOUT
350
15
  3
ACAD_MATERIAL
350
9
  3
ACAD_MLEADERSTYLE
350
44
  3
ACAD_MLINESTYLE
350
2E
  3
ACAD_PLOTSETTINGS
350
2F
  3
ACAD_PLOTSTYLENAME
350
6
  3
ACAD_SCALELIST
350
42
  3
ACAD_TABLESTYLE
350
43
  3
ACAD_VISUALSTYLE
350
26
  3
ACDB_RECOMPOSE_DATA
350
143
  3
AcDbVariableDictionary
350
116
  3
DWGPROPS
350
144
  0
DICTIONARY
  5
28
330
23
100
AcDbDictionary
280
     1
281
     1
  0
XRECORD
  5
134
102
{ACAD_REACTORS
330
7
102
}
330
7
100
AcDbXrecord
280
     1
300
AMECH_PP
300
2012
300
85794PDSS_2012_0F
  0
DICTIONARY
  5
41
102
{ACAD_REACTORS
330
7
102
}
330
7
100
AcDbDictionary
281
     1
  0
DICTIONARY
  5
2D
102
{ACAD_REACTORS
330
7
102
}
330
7
100
AcDbDictionary
281
     1
  0
DICTIONARY
  5
15
102
{ACAD_REACTORS
330
7
102
}
330
7
100
AcDbDictionary
281
     1
  3
Layout1
350
19
  3
Model
350
14
  0
DICTIONARY
  5
9
102
{ACAD_REACTORS
330
7
102
}
330
7
100
AcDbDictionary
281
     1
  3
ByBlock
350
39
  3
ByLayer
350
30
  3
Global
350
8
  0
DICTIONARY
  5
44
102
{ACAD_REACTORS
330
7
102
}
330
7
100
AcDbDictionary
281
     1
  3
Standard
350
130
  0
DICTIONARY
  5
2E
102
{ACAD_REACTORS
330
7
102
}
330
7
100
AcDbDictionary
281
     1
  3
Standard
350
45
  0
DICTIONARY
  5
2F
102
{ACAD_REACTORS
330
7
102
}
330
7
100
AcDbDictionary
281
     1
  0
ACDBDICTIONARYWDFLT
  5
6
102
{ACAD_REACTORS
330
7
102
}
330
7
100
AcDbDictionary
281
     1
  3
Normal
350
5
100
AcDbDictionaryWithDefault
340
5
  0
DICTIONARY
  5
42
102
{ACAD_REACTORS
330
7
102
}
330
7
100
AcDbDictionary
281
     1
  3
A0
350
4B
  3
A1
350
4C
  3
A2
350
4D
  3
A3
350
4E
  3
A4
350
4F
  3
A5
350
50
  3
A6
350
51
  3
A7
350
52
  3
A8
350
53
  3
A9
350
54
  3
B0
350
55
  3
B1
350
56
  3
B2
350
57
  3
B3
350
58
  3
B4
350
59
  3
B5
350
5A
  3
B6
350
5B
  0
DICTIONARY
  5
43
102
{ACAD_REACTORS
330
7
102
}
330
7
100
AcDbDictionary
281
     1
  3
Standard
350
46
  0
DICTIONARY
  5
26
102
{ACAD_REACTORS
330
7
102
}
330
7
100
AcDbDictionary
281
     1
  3
2dWireframe
350
25
  3
Basic
350
11F
  3
Brighten
350
123
  3
ColorChange
350
127
  3
Conceptual
350
121
  3
Dim
350
122
  3
EdgeColorOff
350
12F
  3
Facepattern
350
126
  3
Flat
350
11B
  3
FlatWithEdges
350
11C
  3
Gouraud
350
11D
  3
GouraudWithEdges
350
11E
  3
Hidden
350
120
  3
JitterOff
350
12D
  3
Linepattern
350
125
  3
OverhangOff
350
12E
  3
Realistic
350
48
  3
Shaded
350
12C
  3
Shaded with edges
350
12B
  3
Shades of Gray
350
128
  3
Sketchy
350
129
  3
Thicken
350
124
  3
Wireframe
350
49
  3
X-Ray
350
12A
  0
XRECORD
  5
143
102
{ACAD_REACTORS
330
7
102
}
330
7
100
AcDbXrecord
280
     1
 90
        1
330
46
  0
DICTIONARY
  5
116
102
{ACAD_REACTORS
330
7
102
}
330
7
100
AcDbDictionary
281
     1
  3
CANNOSCALE
350
119
  3
CMLEADERSTYLE
350
118
  3
CTABLESTYLE
350
117
  3
DIMASSOC
350
13E
  3
HIDETEXT
350
13D
  3
INDEXCTL
350
13C
  3
LAYEREVAL
350
139
  3
LAYERNOTIFY
350
13A
  3
LIGHTINGUNITS
350
138
  3
MSLTSCALE
350
137
  3
SORTENTS
350
13B
  3
XCLIPFRAME
350
13F
  0
XRECORD
  5
144
102
{ACAD_REACTORS
330
7
102
}
330
7
100
AcDbXrecord
280
     1
  1
DWGPROPS COOKIE
  2

  3

  4

  6

  7

  8
jwalls
  9

300
=
301
=
302
=
303
=
304
=
305
=
306
=
307
=
308
=
309
=
 40
0.0009458333333333
 41
2456766.64832235
 42
2456766.657037349
  1

 90
        0
  0
LAYOUT
  5
19
102
{ACAD_XDICTIONARY
360
148
102
}
102
{ACAD_REACTORS
330
15
102
}
330
15
100
AcDbPlotSettings
  1

  2

  4

  6

 40
0.0
 41
0.0
 42
0.0
 43
0.0
 44
0.0
 45
0.0
 46
0.0
 47
0.0
 48
0.0
 49
0.0
140
0.0
141
0.0
142
1.0
143
1.0
 70
   688
 72
     0
 73
     0
 74
     5
  7

 75
    16
147
1.0
148
0.0
149
0.0
100
AcDbLayout
  1
Layout1
 70
     1
 71
     1
 10
0.0
 20
0.0
 11
17.0
 21
11.0
 12
0.0
 22
0.0
 32
0.0
 14
0.0
 24
0.0
 34
0.0
 15
17.0
 25
11.0
 35
0.0
146
0.0
 13
0.0
 23
0.0
 33
0.0
 16
1.0
 26
0.0
 36
0.0
 17
0.0
 27
1.0
 37
0.0
 76
     0
330
16
  0
LAYOUT
  5
14
102
{ACAD_XDICTIONARY
360
146
102
}
102
{ACAD_REACTORS
330
15
102
}
330
15
100
AcDbPlotSettings
  1

  2

  4

  6

 40
0.0
 41
0.0
 42
0.0
 43
0.0
 44
0.0
 45
0.0
 46
0.0
 47
0.0
 48
0.0
 49
0.0
140
0.0
141
0.0
142
1.0
143
1.0
 70
  1712
 72
     0
 73
     0
 74
     0
  7

 75
     0
147
1.0
148
0.0
149
0.0
100
AcDbLayout
  1
Model
 70
     1
 71
     0
 10
0.0
 20
0.0
 11
12.0
 21
9.0
 12
0.0
 22
0.0
 32
0.0
 14
0.0
 24
0.0
 34
0.0
 15
0.0
 25
0.0
 35
0.0
146
0.0
 13
0.0
 23
0.0
 33
0.0
 16
1.0
 26
0.0
 36
0.0
 17
0.0
 27
1.0
 37
0.0
 76
     0
330
2
331
24
  0
MATERIAL
  5
39
102
{ACAD_XDICTIONARY
360
3A
102
}
102
{ACAD_REACTORS
330
9
102
}
330
9
100
AcDbMaterial
  1
ByBlock
 72
     0
 43
0.0208333333333333
 43
0.0
 43
0.0
 43
0.0
 43
0.0
 43
0.0208333333333333
 43
0.0
 43
0.0
 43
0.0
 43
0.0
 43
1.0
 43
0.0
 43
0.0
 43
0.0
 43
0.0
 43
1.0
 77
     0
 47
0.0208333333333333
 47
0.0
 47
0.0
 47
0.0
 47
0.0
 47
0.0208333333333333
 47
0.0
 47
0.0
 47
0.0
 47
0.0
 47
1.0
 47
0.0
 47
0.0
 47
0.0
 47
0.0
 47
1.0
171
     0
 49
0.0208333333333333
 49
0.0
 49
0.0
 49
0.0
 49
0.0
 49
0.0208333333333333
 49
0.0
 49
0.0
 49
0.0
 49
0.0
 49
1.0
 49
0.0
 49
0.0
 49
0.0
 49
0.0
 49
1.0
175
     0
142
0.0208333333333333
142
0.0
142
0.0
142
0.0
142
0.0
142
0.0208333333333333
142
0.0
142
0.0
142
0.0
142
0.0
142
1.0
142
0.0
142
0.0
142
0.0
142
0.0
142
1.0
179
     0
144
0.0208333333333333
144
0.0
144
0.0
144
0.0
144
0.0
144
0.0208333333333333
144
0.0
144
0.0
144
0.0
144
0.0
144
1.0
144
0.0
144
0.0
144
0.0
144
0.0
144
1.0
147
0.0208333333333333
147
0.0
147
0.0
147
0.0
147
0.0
147
0.0208333333333333
147
0.0
147
0.0
147
0.0
147
0.0
147
1.0
147
0.0
147
0.0
147
0.0
147
0.0
147
1.0
  0
MATERIAL
  5
30
102
{ACAD_XDICTIONARY
360
31
102
}
102
{ACAD_REACTORS
330
9
102
}
330
9
100
AcDbMaterial
  1
ByLayer
 72
     0
 43
0.0208333333333333
 43
0.0
 43
0.0
 43
0.0
 43
0.0
 43
0.0208333333333333
 43
0.0
 43
0.0
 43
0.0
 43
0.0
 43
1.0
 43
0.0
 43
0.0
 43
0.0
 43
0.0
 43
1.0
 77
     0
 47
0.0208333333333333
 47
0.0
 47
0.0
 47
0.0
 47
0.0
 47
0.0208333333333333
 47
0.0
 47
0.0
 47
0.0
 47
0.0
 47
1.0
 47
0.0
 47
0.0
 47
0.0
 47
0.0
 47
1.0
171
     0
 49
0.0208333333333333
 49
0.0
 49
0.0
 49
0.0
 49
0.0
 49
0.0208333333333333
 49
0.0
 49
0.0
 49
0.0
 49
0.0
 49
1.0
 49
0.0
 49
0.0
 49
0.0
 49
0.0
 49
1.0
175
     0
142
0.0208333333333333
142
0.0
142
0.0
142
0.0
142
0.0
142
0.0208333333333333
142
0.0
142
0.0
142
0.0
142
0.0
142
1.0
142
0.0
142
0.0
142
0.0
142
0.0
142
1.0
179
     0
144
0.0208333333333333
144
0.0
144
0.0
144
0.0
144
0.0
144
0.0208333333333333
144
0.0
144
0.0
144
0.0
144
0.0
144
1.0
144
0.0
144
0.0
144
0.0
144
0.0
144
1.0
147
0.0208333333333333
147
0.0
147
0.0
147
0.0
147
0.0
147
0.0208333333333333
147
0.0
147
0.0
147
0.0
147
0.0
147
1.0
147
0.0
147
0.0
147
0.0
147
0.0
147
1.0
  0
MATERIAL
  5
8
102
{ACAD_XDICTIONARY
360
A
102
}
102
{ACAD_REACTORS
330
9
102
}
330
9
100
AcDbMaterial
  1
Global
 72
     0
 43
0.0208333333333333
 43
0.0
 43
0.0
 43
0.0
 43
0.0
 43
0.0208333333333333
 43
0.0
 43
0.0
 43
0.0
 43
0.0
 43
1.0
 43
0.0
 43
0.0
 43
0.0
 43
0.0
 43
1.0
 77
     0
 47
0.0208333333333333
 47
0.0
 47
0.0
 47
0.0
 47
0.0
 47
0.0208333333333333
 47
0.0
 47
0.0
 47
0.0
 47
0.0
 47
1.0
 47
0.0
 47
0.0
 47
0.0
 47
0.0
 47
1.0
171
     0
 49
0.0208333333333333
 49
0.0
 49
0.0
 49
0.0
 49
0.0
 49
0.0208333333333333
 49
0.0
 49
0.0
 49
0.0
 49
0.0
 49
1.0
 49
0.0
 49
0.0
 49
0.0
 49
0.0
 49
1.0
175
     0
142
0.0208333333333333
142
0.0
142
0.0
142
0.0
142
0.0
142
0.0208333333333333
142
0.0
142
0.0
142
0.0
142
0.0
142
1.0
142
0.0
142
0.0
142
0.0
142
0.0
142
1.0
179
     0
144
0.0208333333333333
144
0.0
144
0.0
144
0.0
144
0.0
144
0.0208333333333333
144
0.0
144
0.0
144
0.0
144
0.0
144
1.0
144
0.0
144
0.0
144
0.0
144
0.0
144
1.0
147
0.0208333333333333
147
0.0
147
0.0
147
0.0
147
0.0
147
0.0208333333333333
147
0.0
147
0.0
147
0.0
147
0.0
147
1.0
147
0.0
147
0.0
147
0.0
147
0.0
147
1.0
  0
MLEADERSTYLE
  5
130
102
{ACAD_XDICTIONARY
360
141
102
}
102
{ACAD_REACTORS
330
44
102
}
330
44
100
AcDbMLeaderStyle
170
     2
171
     1
172
     0
 90
        2
 40
0.0
 41
0.0
173
     1
 91
-1056964608
340
1F
 92
       -2
290
     1
 42
0.09
291
     1
 43
0.36
  3
Standard
 44
0.18
300

342
1C
174
     1
178
     6
175
     1
176
     0
 93
-1056964608
 45
0.18
292
     0
297
     0
 46
0.18
 94
-1056964608
 47
1.0
 49
1.0
140
1.0
293
     1
141
0.0
294
     1
177
     0
142
1.0
295
     0
296
     0
143
0.125
1001
ACAD_MLEADERVER
1070
     2
  0
MLINESTYLE
  5
45
102
{ACAD_REACTORS
330
2E
102
}
330
2E
100
AcDbMlineStyle
  2
STANDARD
 70
     0
  3

 62
   256
 51
90.0
 52
90.0
 71
     2
 49
0.5
 62
   256
  6
BYLAYER
 49
-0.5
 62
   256
  6
BYLAYER
  0
ACDBPLACEHOLDER
  5
5
102
{ACAD_REACTORS
330
6
102
}
330
6
  0
SCALE
  5
4B
102
{ACAD_REACTORS
330
42
102
}
330
42
100
AcDbScale
 70
     0
300
1:1
140
1.0
141
1.0
290
     1
  0
SCALE
  5
4C
102
{ACAD_REACTORS
330
42
102
}
330
42
100
AcDbScale
 70
     0
300
1/128" = 1'-0"
140
0.0078125
141
12.0
290
     0
  0
SCALE
  5
4D
102
{ACAD_REACTORS
330
42
102
}
330
42
100
AcDbScale
 70
     0
300
1/64" = 1'-0"
140
0.015625
141
12.0
290
     0
  0
SCALE
  5
4E
102
{ACAD_REACTORS
330
42
102
}
330
42
100
AcDbScale
 70
     0
300
1/32" = 1'-0"
140
0.03125
141
12.0
290
     0
  0
SCALE
  5
4F
102
{ACAD_REACTORS
330
42
102
}
330
42
100
AcDbScale
 70
     0
300
1/16" = 1'-0"
140
0.0625
141
12.0
290
     0
  0
SCALE
  5
50
102
{ACAD_REACTORS
330
42
102
}
330
42
100
AcDbScale
 70
     0
300
3/32" = 1'-0"
140
0.09375
141
12.0
290
     0
  0
SCALE
  5
51
102
{ACAD_REACTORS
330
42
102
}
330
42
100
AcDbScale
 70
     0
300
1/8" = 1'-0"
140
0.125
141
12.0
290
     0
  0
SCALE
  5
52
102
{ACAD_REACTORS
330
42
102
}
330
42
100
AcDbScale
 70
     0
300
3/16" = 1'-0"
140
0.1875
141
12.0
290
     0
  0
SCALE
  5
53
102
{ACAD_REACTORS
330
42
102
}
330
42
100
AcDbScale
 70
     0
300
1/4" = 1'-0"
140
0.25
141
12.0
290
     0
  0
SCALE
  5
54
102
{ACAD_REACTORS
330
42
102
}
330
42
100
AcDbScale
 70
     0
300
3/8" = 1'-0"
140
0.375
141
12.0
290
     0
  0
SCALE
  5
55
102
{ACAD_REACTORS
330
42
102
}
330
42
100
AcDbScale
 70
     0
300
1/2" = 1'-0"
140
0.5
141
12.0
290
     0
  0
SCALE
  5
56
102
{ACAD_REACTORS
330
42
102
}
330
42
100
AcDbScale
 70
     0
300
3/4" = 1'-0"
140
0.75
141
12.0
290
     0
  0
SCALE
  5
57
102
{ACAD_REACTORS
330
42
102
}
330
42
100
AcDbScale
 70
     0
300
1" = 1'-0"
140
1.0
141
12.0
290
     0
  0
SCALE
  5
58
102
{ACAD_REACTORS
330
42
102
}
330
42
100
AcDbScale
 70
     0
300
1-1/2" = 1'-0"
140
1.5
141
12.0
290
     0
  0
SCALE
  5
59
102
{ACAD_REACTORS
330
42
102
}
330
42
100
AcDbScale
 70
     0
300
3" = 1'-0"
140
3.0
141
12.0
290
     0
  0
SCALE
  5
5A
102
{ACAD_REACTORS
330
42
102
}
330
42
100
AcDbScale
 70
     0
300
6" = 1'-0"
140
6.0
141
12.0
290
     0
  0
SCALE
  5
5B
102
{ACAD_REACTORS
330
42
102
}
330
42
100
AcDbScale
 70
     0
300
1'-0" = 1'-0"
140
12.0
141
12.0
290
     0
  0
TABLESTYLE
  5
46
102
{ACAD_XDICTIONARY
360
47
102
}
102
{ACAD_REACTORS
330
43
102
}
330
43
100
AcDbTableStyle
  3
Standard
 70
     0
 71
     0
 40
0.06
 41
0.06
280
     0
281
     0
  7
Standard
140
0.18
170
     2
 62
     0
 63
     7
283
     0
274
    -2
284
     1
 64
     0
275
    -2
285
     1
 65
     0
276
    -2
286
     1
 66
     0
277
    -2
287
     1
 67
     0
278
    -2
288
     1
 68
     0
279
    -2
289
     1
 69
     0
  7
Standard
140
0.25
170
     5
 62
     0
 63
     7
283
     0
274
    -2
284
     1
 64
     0
275
    -2
285
     1
 65
     0
276
    -2
286
     1
 66
     0
277
    -2
287
     1
 67
     0
278
    -2
288
     1
 68
     0
279
    -2
289
     1
 69
     0
  7
Standard
140
0.18
170
     5
 62
     0
 63
     7
283
     0
274
    -2
284
     1
 64
     0
275
    -2
285
     1
 65
     0
276
    -2
286
     1
 66
     0
277
    -2
287
     1
 67
     0
278
    -2
288
     1
 68
     0
279
    -2
289
     1
 69
     0
  0
VISUALSTYLE
  5
25
102
{ACAD_XDICTIONARY
360
14A
102
}
102
{ACAD_REACTORS
330
26
102
}
330
26
100
AcDbVisualStyle
  2
2dWireframe
 70
     4
 71
     0
 72
     2
 73
     0
 90
        0
 40
-0.6
 41
-30.0
 62
     5
 63
     7
 74
     1
 91
        4
 64
     7
 65
   257
 75
     1
175
     1
 42
1.0
 92
        0
 66
   257
 43
1.0
 76
     1
 77
     6
 78
     2
 67
     7
 79
     5
170
     0
171
     0
290
     0
174
     0
 93
        1
 44
0.0
173
     0
291
     0
 45
0.0
1001
ACAD
1000
AcDbSavedByObjectVersion
1070
     0
  0
VISUALSTYLE
  5
11F
102
{ACAD_XDICTIONARY
360
15B
102
}
102
{ACAD_REACTORS
330
26
102
}
330
26
100
AcDbVisualStyle
  2
Basic
 70
     7
 71
     1
 72
     0
 73
     1
 90
        0
 40
-0.6
 41
-30.0
 62
     5
 63
     7
 74
     0
 91
        4
 64
     7
 65
   257
 75
     1
175
     1
 42
1.0
 92
        8
 66
     7
 43
1.0
 76
     1
 77
     6
 78
     2
 67
     7
 79
     5
170
     0
171
     0
290
     0
174
     0
 93
        1
 44
0.0
173
     0
291
     1
 45
0.0
1001
ACAD
1000
AcDbSavedByObjectVersion
1070
     0
  0
VISUALSTYLE
  5
123
102
{ACAD_XDICTIONARY
360
163
102
}
102
{ACAD_REACTORS
330
26
102
}
330
26
100
AcDbVisualStyle
  2
Brighten
 70
    12
 71
     2
 72
     2
 73
     0
 90
        0
 40
-0.6
 41
-30.0
 62
     5
 63
     7
 74
     1
 91
        4
 64
     7
 65
   257
 75
     1
175
     1
 42
1.0
 92
        8
 66
     7
 43
1.0
 76
     1
 77
     6
 78
     2
 67
     7
 79
     5
170
     0
171
     0
290
     0
174
     0
 93
        1
 44
50.0
173
     0
291
     1
 45
0.0
1001
ACAD
1000
AcDbSavedByObjectVersion
1070
     0
  0
VISUALSTYLE
  5
127
102
{ACAD_XDICTIONARY
360
16B
102
}
102
{ACAD_REACTORS
330
26
102
}
330
26
100
AcDbVisualStyle
  2
ColorChange
 70
    16
 71
     2
 72
     2
 73
     3
 90
        0
 40
-0.6
 41
-30.0
 62
     5
 63
     8
 74
     1
 91
        4
 64
     7
 65
   257
 75
     1
175
     1
 42
1.0
 92
        8
 66
     8
 43
1.0
 76
     1
 77
     6
 78
     2
 67
     7
 79
     5
170
     0
171
     0
290
     0
174
     0
 93
        1
 44
0.0
173
     0
291
     1
 45
0.0
1001
ACAD
1000
AcDbSavedByObjectVersion
1070
     0
  0
VISUALSTYLE
  5
121
102
{ACAD_XDICTIONARY
360
15F
102
}
102
{ACAD_REACTORS
330
26
102
}
330
26
100
AcDbVisualStyle
  2
Conceptual
 70
     9
 71
     3
 72
     2
 73
     0
 90
        0
 40
-0.6
 41
-30.0
 62
     5
 63
     7
 74
     2
 91
        2
 64
     7
 65
   257
 75
     1
175
     1
 42
179.0
 92
        8
 66
     7
 43
1.0
 76
     1
 77
     6
 78
     2
 67
     7
 79
     3
170
     0
171
     0
290
     0
174
     0
 93
        1
 44
0.0
173
     0
291
     0
 45
0.0
1001
ACAD
1000
AcDbSavedByObjectVersion
1070
     0
  0
VISUALSTYLE
  5
122
102
{ACAD_XDICTIONARY
360
161
102
}
102
{ACAD_REACTORS
330
26
102
}
330
26
100
AcDbVisualStyle
  2
Dim
 70
    11
 71
     2
 72
     2
 73
     0
 90
        0
 40
-0.6
 41
-30.0
 62
     5
 63
     7
 74
     1
 91
        4
 64
     7
 65
   257
 75
     1
175
     1
 42
1.0
 92
        8
 66
     7
 43
1.0
 76
     1
 77
     6
 78
     2
 67
     7
 79
     5
170
     0
171
     0
290
     0
174
     0
 93
        1
 44
-50.0
173
     0
291
     1
 45
0.0
1001
ACAD
1000
AcDbSavedByObjectVersion
1070
     0
  0
VISUALSTYLE
  5
12F
102
{ACAD_XDICTIONARY
360
17B
102
}
102
{ACAD_REACTORS
330
26
102
}
330
26
100
AcDbVisualStyle
  2
EdgeColorOff
 70
    22
 71
     2
 72
     2
 73
     0
 90
        0
 40
-0.6
 41
-30.0
 62
     5
 63
     7
 74
     1
 91
        4
 64
     7
 65
   257
 75
     1
175
     1
 42
1.0
 92
        8
 66
     7
 43
1.0
 76
     1
 77
     6
 78
     2
 67
     7
 79
     5
170
     0
171
     0
290
     0
174
     0
 93
        1
 44
0.0
173
     0
291
     1
 45
0.0
1001
ACAD
1000
AcDbSavedByObjectVersion
1070
     0
  0
VISUALSTYLE
  5
126
102
{ACAD_XDICTIONARY
360
169
102
}
102
{ACAD_REACTORS
330
26
102
}
330
26
100
AcDbVisualStyle
  2
Facepattern
 70
    15
 71
     2
 72
     2
 73
     0
 90
        0
 40
-0.6
 41
-30.0
 62
     5
 63
     7
 74
     1
 91
        4
 64
     7
 65
   257
 75
     1
175
     1
 42
1.0
 92
        8
 66
     7
 43
1.0
 76
     1
 77
     6
 78
     2
 67
     7
 79
     5
170
     0
171
     0
290
     0
174
     0
 93
        1
 44
0.0
173
     0
291
     1
 45
0.0
1001
ACAD
1000
AcDbSavedByObjectVersion
1070
     0
  0
VISUALSTYLE
  5
11B
102
{ACAD_XDICTIONARY
360
153
102
}
102
{ACAD_REACTORS
330
26
102
}
330
26
100
AcDbVisualStyle
  2
Flat
 70
     0
 71
     2
 72
     1
 73
     1
 90
        2
 40
-0.6
 41
30.0
 62
     5
 63
     7
 74
     0
 91
        0
 64
     7
 65
   257
 75
     1
175
     1
 42
1.0
 92
        8
 66
     7
 43
1.0
 76
     1
 77
     6
 78
     2
 67
     7
 79
     5
170
     0
171
     0
290
     0
174
     0
 93
       13
 44
0.0
173
     0
291
     1
 45
0.0
1001
ACAD
1000
AcDbSavedByObjectVersion
1070
     0
  0
VISUALSTYLE
  5
11C
102
{ACAD_XDICTIONARY
360
155
102
}
102
{ACAD_REACTORS
330
26
102
}
330
26
100
AcDbVisualStyle
  2
FlatWithEdges
 70
     1
 71
     2
 72
     1
 73
     1
 90
        2
 40
-0.6
 41
30.0
 62
     5
 63
     7
 74
     1
 91
        0
 64
     7
 65
   257
 75
     1
175
     1
 42
1.0
 92
        0
 66
   257
 43
1.0
 76
     1
 77
     6
 78
     2
 67
     7
 79
     5
170
     0
171
     0
290
     0
174
     0
 93
       13
 44
0.0
173
     0
291
     1
 45
0.0
1001
ACAD
1000
AcDbSavedByObjectVersion
1070
     0
  0
VISUALSTYLE
  5
11D
102
{ACAD_XDICTIONARY
360
157
102
}
102
{ACAD_REACTORS
330
26
102
}
330
26
100
AcDbVisualStyle
  2
Gouraud
 70
     2
 71
     2
 72
     2
 73
     1
 90
        2
 40
-0.6
 41
30.0
 62
     5
 63
     7
 74
     0
 91
        0
 64
     7
 65
   257
 75
     1
175
     1
 42
1.0
 92
        0
 66
     7
 43
1.0
 76
     1
 77
     6
 78
     2
 67
     7
 79
     5
170
     0
171
     0
290
     0
174
     0
 93
       13
 44
0.0
173
     0
291
     1
 45
0.0
1001
ACAD
1000
AcDbSavedByObjectVersion
1070
     0
  0
VISUALSTYLE
  5
11E
102
{ACAD_XDICTIONARY
360
159
102
}
102
{ACAD_REACTORS
330
26
102
}
330
26
100
AcDbVisualStyle
  2
GouraudWithEdges
 70
     3
 71
     2
 72
     2
 73
     1
 90
        2
 40
-0.6
 41
30.0
 62
     5
 63
     7
 74
     1
 91
        0
 64
     7
 65
   257
 75
     1
175
     1
 42
1.0
 92
        0
 66
   257
 43
1.0
 76
     1
 77
     6
 78
     2
 67
     7
 79
     5
170
     0
171
     0
290
     0
174
     0
 93
       13
 44
0.0
173
     0
291
     1
 45
0.0
1001
ACAD
1000
AcDbSavedByObjectVersion
1070
     0
  0
VISUALSTYLE
  5
120
102
{ACAD_XDICTIONARY
360
15D
102
}
102
{ACAD_REACTORS
330
26
102
}
330
26
100
AcDbVisualStyle
  2
Hidden
 70
     6
 71
     1
 72
     2
 73
     2
 90
        0
 40
-0.6
 41
-30.0
 62
     5
 63
     7
 74
     2
 91
        2
 64
     7
 65
   257
 75
     2
175
     1
 42
40.0
 92
        0
 66
   257
 43
1.0
 76
     1
 77
     6
 78
     2
 67
     7
 79
     3
170
     0
171
     0
290
     0
174
     0
 93
        1
 44
0.0
173
     0
291
     0
 45
0.0
1001
ACAD
1000
AcDbSavedByObjectVersion
1070
     0
  0
VISUALSTYLE
  5
12D
102
{ACAD_XDICTIONARY
360
177
102
}
102
{ACAD_REACTORS
330
26
102
}
330
26
100
AcDbVisualStyle
  2
JitterOff
 70
    20
 71
     2
 72
     2
 73
     0
 90
        0
 40
-0.6
 41
-30.0
 62
     5
 63
     7
 74
     1
 91
        4
 64
     7
 65
   257
 75
     1
175
     1
 42
1.0
 92
       10
 66
     7
 43
1.0
 76
     1
 77
     6
 78
     2
 67
     7
 79
     5
170
     0
171
     0
290
     0
174
     0
 93
        1
 44
0.0
173
     0
291
     1
 45
0.0
1001
ACAD
1000
AcDbSavedByObjectVersion
1070
     0
  0
VISUALSTYLE
  5
125
102
{ACAD_XDICTIONARY
360
167
102
}
102
{ACAD_REACTORS
330
26
102
}
330
26
100
AcDbVisualStyle
  2
Linepattern
 70
    14
 71
     2
 72
     2
 73
     0
 90
        0
 40
-0.6
 41
-30.0
 62
     5
 63
     7
 74
     1
 91
        4
 64
     7
 65
   257
 75
     7
175
     7
 42
1.0
 92
        8
 66
     7
 43
1.0
 76
     1
 77
     6
 78
     2
 67
     7
 79
     5
170
     0
171
     0
290
     0
174
     0
 93
        1
 44
0.0
173
     0
291
     1
 45
0.0
1001
ACAD
1000
AcDbSavedByObjectVersion
1070
     0
  0
VISUALSTYLE
  5
12E
102
{ACAD_XDICTIONARY
360
179
102
}
102
{ACAD_REACTORS
330
26
102
}
330
26
100
AcDbVisualStyle
  2
OverhangOff
 70
    21
 71
     2
 72
     2
 73
     0
 90
        0
 40
-0.6
 41
-30.0
 62
     5
 63
     7
 74
     1
 91
        4
 64
     7
 65
   257
 75
     1
175
     1
 42
1.0
 92
        9
 66
     7
 43
1.0
 76
     1
 77
     6
 78
     2
 67
     7
 79
     5
170
     0
171
     0
290
     0
174
     0
 93
        1
 44
0.0
173
     0
291
     1
 45
0.0
1001
ACAD
1000
AcDbSavedByObjectVersion
1070
     0
  0
VISUALSTYLE
  5
48
102
{ACAD_XDICTIONARY
360
14F
102
}
102
{ACAD_REACTORS
330
26
102
}
330
26
100
AcDbVisualStyle
  2
Realistic
 70
     8
 71
     2
 72
     2
 73
     0
 90
        2
 40
-0.6
 41
30.0
 62
     5
 63
     7
 74
     0
 91
        0
 64
     7
 65
   257
 75
     1
175
     1
 42
1.0
 92
        8
 66
   257
 43
1.0
 76
     1
 77
     6
 78
     2
 67
     7
 79
     3
170
     0
171
     0
290
     0
174
     0
 93
       13
 44
0.0
173
     0
291
     0
 45
0.0
1001
ACAD
1000
AcDbSavedByObjectVersion
1070
     0
  0
VISUALSTYLE
  5
12C
102
{ACAD_XDICTIONARY
360
175
102
}
102
{ACAD_REACTORS
330
26
102
}
330
26
100
AcDbVisualStyle
  2
Shaded
 70
    27
 71
     2
 72
     2
 73
     1
 90
        2
 40
-0.6
 41
30.0
 62
     5
 63
     7
 74
     0
 91
        4
 64
     7
 65
   257
 75
     1
175
     1
 42
1.0
 92
        8
 66
   257
 43
1.0
 76
     1
 77
     6
 78
     2
 67
     8
 79
     3
170
     0
171
     0
290
     0
174
     0
 93
        5
 44
0.0
173
     0
291
     0
 45
0.0
1001
ACAD
1000
AcDbSavedByObjectVersion
1070
     0
  0
VISUALSTYLE
  5
12B
102
{ACAD_XDICTIONARY
360
173
102
}
102
{ACAD_REACTORS
330
26
102
}
330
26
100
AcDbVisualStyle
  2
Shaded with edges
 70
    26
 71
     2
 72
     2
 73
     1
 90
        2
 40
-0.6
 41
30.0
 62
     5
 63
     7
 74
     1
 91
       10
 64
     7
 65
   257
 75
     2
175
     1
 42
1.0
 92
        8
 66
   257
 43
1.0
 76
     1
 77
     6
 78
     2
 67
     7
 79
     3
170
     0
171
     0
290
     0
174
     0
 93
        5
 44
0.0
173
     0
291
     0
 45
0.0
1001
ACAD
1000
AcDbSavedByObjectVersion
1070
     0
  0
VISUALSTYLE
  5
128
102
{ACAD_XDICTIONARY
360
16D
102
}
102
{ACAD_REACTORS
330
26
102
}
330
26
100
AcDbVisualStyle
  2
Shades of Gray
 70
    23
 71
     2
 72
     2
 73
     3
 90
        0
 40
-0.6
 41
-30.0
 62
     5
 63
     7
 74
     2
 91
        2
 64
     7
 65
     7
 75
     1
175
     1
 42
40.0
 92
        8
 66
     7
 43
1.0
 76
     1
 77
     6
 78
     2
 67
     7
 79
     3
170
     0
171
     0
290
     0
174
     0
 93
        1
 44
0.0
173
     0
291
     0
 45
0.0
1001
ACAD
1000
AcDbSavedByObjectVersion
1070
     0
  0
VISUALSTYLE
  5
129
102
{ACAD_XDICTIONARY
360
16F
102
}
102
{ACAD_REACTORS
330
26
102
}
330
26
100
AcDbVisualStyle
  2
Sketchy
 70
    24
 71
     1
 72
     2
 73
     2
 90
        0
 40
-0.6
 41
-30.0
 62
     5
 63
     7
 74
     2
 91
        2
 64
     7
 65
     7
 75
     1
175
     1
 42
40.0
 92
       11
 66
     7
 43
1.0
 76
     1
 77
     6
 78
     2
 67
     7
 79
     6
170
     0
171
     0
290
     0
174
     0
 93
        1
 44
0.0
173
     0
291
     0
 45
0.0
1001
ACAD
1000
AcDbSavedByObjectVersion
1070
     0
  0
VISUALSTYLE
  5
124
102
{ACAD_XDICTIONARY
360
165
102
}
102
{ACAD_REACTORS
330
26
102
}
330
26
100
AcDbVisualStyle
  2
Thicken
 70
    13
 71
     2
 72
     2
 73
     0
 90
        0
 40
-0.6
 41
-30.0
 62
     5
 63
     7
 74
     1
 91
        4
 64
     7
 65
   257
 75
     1
175
     1
 42
1.0
 92
       12
 66
     7
 43
1.0
 76
     1
 77
     6
 78
     2
 67
     7
 79
     5
170
     0
171
     0
290
     0
174
     0
 93
        1
 44
0.0
173
     0
291
     1
 45
0.0
1001
ACAD
1000
AcDbSavedByObjectVersion
1070
     0
  0
VISUALSTYLE
  5
49
102
{ACAD_XDICTIONARY
360
151
102
}
102
{ACAD_REACTORS
330
26
102
}
330
26
100
AcDbVisualStyle
  2
Wireframe
 70
     5
 71
     0
 72
     2
 73
     0
 90
        0
 40
-0.6
 41
-30.0
 62
     5
 63
     7
 74
     1
 91
        4
 64
     7
 65
   257
 75
     1
175
     1
 42
1.0
 92
        0
 66
   257
 43
1.0
 76
     1
 77
     6
 78
     2
 67
     7
 79
     3
170
     0
171
     0
290
     0
174
     0
 93
        1
 44
0.0
173
     0
291
     0
 45
0.0
1001
ACAD
1000
AcDbSavedByObjectVersion
1070
     0
  0
VISUALSTYLE
  5
12A
102
{ACAD_XDICTIONARY
360
171
102
}
102
{ACAD_REACTORS
330
26
102
}
330
26
100
AcDbVisualStyle
  2
X-Ray
 70
    25
 71
     2
 72
     2
 73
     1
 90
        1
 40
0.5
 41
-30.0
 62
     5
 63
     7
 74
     1
 91
        0
 64
     7
 65
   257
 75
     1
175
     1
 42
1.0
 92
        8
 66
     7
 43
1.0
 76
     1
 77
     6
 78
     2
 67
     7
 79
     3
170
     0
171
     0
290
     0
174
     0
 93
       13
 44
0.0
173
     0
291
     0
 45
0.0
1001
ACAD
1000
AcDbSavedByObjectVersion
1070
     0
  0
DICTIONARYVAR
  5
119
102
{ACAD_REACTORS
330
116
102
}
330
116
100
DictionaryVariables
280
     0
  1
1:1
  0
DICTIONARYVAR
  5
118
102
{ACAD_REACTORS
330
116
102
}
330
116
100
DictionaryVariables
280
     0
  1
STANDARD
  0
DICTIONARYVAR
  5
117
102
{ACAD_REACTORS
330
116
102
}
330
116
100
DictionaryVariables
280
     0
  1
STANDARD
  0
DICTIONARYVAR
  5
13E
102
{ACAD_REACTORS
330
116
102
}
330
116
100
DictionaryVariables
280
     0
  1
1
  0
DICTIONARYVAR
  5
13D
102
{ACAD_REACTORS
330
116
102
}
330
116
100
DictionaryVariables
280
     0
  1
1
  0
DICTIONARYVAR
  5
13C
102
{ACAD_REACTORS
330
116
102
}
330
116
100
DictionaryVariables
280
     0
  1
0
  0
DICTIONARYVAR
  5
139
102
{ACAD_REACTORS
330
116
102
}
330
116
100
DictionaryVariables
280
     0
  1
0
  0
DICTIONARYVAR
  5
13A
102
{ACAD_REACTORS
330
116
102
}
330
116
100
DictionaryVariables
280
     0
  1
0
  0
DICTIONARYVAR
  5
138
102
{ACAD_REACTORS
330
116
102
}
330
116
100
DictionaryVariables
280
     0
  1
2
  0
DICTIONARYVAR
  5
137
102
{ACAD_REACTORS
330
116
102
}
330
116
100
DictionaryVariables
280
     0
  1
1
  0
DICTIONARYVAR
  5
13B
102
{ACAD_REACTORS
330
116
102
}
330
116
100
DictionaryVariables
280
     0
  1
127
  0
DICTIONARYVAR
  5
13F
102
{ACAD_REACTORS
330
116
102
}
330
116
100
DictionaryVariables
280
     0
  1
2
  0
DICTIONARY
  5
148
330
19
100
AcDbDictionary
280
     1
281
     1
  3
ACAD_XREC_ROUNDTRIP
360
149
  0
DICTIONARY
  5
146
330
14
100
AcDbDictionary
280
     1
281
     1
  3
ACAD_XREC_ROUNDTRIP
360
147
  0
DICTIONARY
  5
3A
330
39
100
AcDbDictionary
280
     1
281
     1
  3
ACAD_XREC_ROUNDTRIP
360
14D
  3
BUMPTILE
360
3B
  3
DIFFUSETILE
360
3C
  3
OPACITYTILE
360
3D
  3
REFLECTIONTILE
360
3E
  3
REFRACTIONTILE
360
3F
  3
SPECULARTILE
360
40
  0
DICTIONARY
  5
31
330
30
100
AcDbDictionary
280
     1
281
     1
  3
ACAD_XREC_ROUNDTRIP
360
14C
  3
BUMPTILE
360
32
  3
DIFFUSETILE
360
33
  3
FBXASSET
360
34
  3
OPACITYTILE
360
35
  3
REFLECTIONTILE
360
36
  3
REFRACTIONTILE
360
37
  3
SPECULARTILE
360
38
  0
DICTIONARY
  5
A
330
8
100
AcDbDictionary
280
     1
281
     1
  3
ACAD_XREC_ROUNDTRIP
360
145
  3
BUMPTILE
360
B
  3
DIFFUSETILE
360
C
  3
FBXASSET
360
D
  3
OPACITYTILE
360
E
  3
REFLECTIONTILE
360
F
  3
REFRACTIONTILE
360
10
  3
SPECULARTILE
360
11
  0
DICTIONARY
  5
141
330
130
100
AcDbDictionary
280
     1
281
     1
  3
ACAD_XREC_ROUNDTRIP
360
142
  0
DICTIONARY
  5
47
330
46
100
AcDbDictionary
280
     1
281
     1
  3
ACAD_ROUNDTRIP_2008_TABLESTYLE_CELLSTYLEMAP
360
140
  3
ACAD_XREC_ROUNDTRIP
360
14E
  0
DICTIONARY
  5
14A
330
25
100
AcDbDictionary
280
     1
281
     1
  3
ACAD_XREC_ROUNDTRIP
360
14B
  0
DICTIONARY
  5
15B
330
11F
100
AcDbDictionary
280
     1
281
     1
  3
ACAD_XREC_ROUNDTRIP
360
15C
  0
DICTIONARY
  5
163
330
123
100
AcDbDictionary
280
     1
281
     1
  3
ACAD_XREC_ROUNDTRIP
360
164
  0
DICTIONARY
  5
16B
330
127
100
AcDbDictionary
280
     1
281
     1
  3
ACAD_XREC_ROUNDTRIP
360
16C
  0
DICTIONARY
  5
15F
330
121
100
AcDbDictionary
280
     1
281
     1
  3
ACAD_XREC_ROUNDTRIP
360
160
  0
DICTIONARY
  5
161
330
122
100
AcDbDictionary
280
     1
281
     1
  3
ACAD_XREC_ROUNDTRIP
360
162
  0
DICTIONARY
  5
17B
330
12F
100
AcDbDictionary
280
     1
281
     1
  3
ACAD_XREC_ROUNDTRIP
360
17C
  0
DICTIONARY
  5
169
330
126
100
AcDbDictionary
280
     1
281
     1
  3
ACAD_XREC_ROUNDTRIP
360
16A
  0
DICTIONARY
  5
153
330
11B
100
AcDbDictionary
280
     1
281
     1
  3
ACAD_XREC_ROUNDTRIP
360
154
  0
DICTIONARY
  5
155
330
11C
100
AcDbDictionary
280
     1
281
     1
  3
ACAD_XREC_ROUNDTRIP
360
156
  0
DICTIONARY
  5
157
330
11D
100
AcDbDictionary
280
     1
281
     1
  3
ACAD_XREC_ROUNDTRIP
360
158
  0
DICTIONARY
  5
159
330
11E
100
AcDbDictionary
280
     1
281
     1
  3
ACAD_XREC_ROUNDTRIP
360
15A
  0
DICTIONARY
  5
15D
330
120
100
AcDbDictionary
280
     1
281
     1
  3
ACAD_XREC_ROUNDTRIP
360
15E
  0
DICTIONARY
  5
177
330
12D
100
AcDbDictionary
280
     1
281
     1
  3
ACAD_XREC_ROUNDTRIP
360
178
  0
DICTIONARY
  5
167
330
125
100
AcDbDictionary
280
     1
281
     1
  3
ACAD_XREC_ROUNDTRIP
360
168
  0
DICTIONARY
  5
179
330
12E
100
AcDbDictionary
280
     1
281
     1
  3
ACAD_XREC_ROUNDTRIP
360
17A
  0
DICTIONARY
  5
14F
330
48
100
AcDbDictionary
280
     1
281
     1
  3
ACAD_XREC_ROUNDTRIP
360
150
  0
DICTIONARY
  5
175
330
12C
100
AcDbDictionary
280
     1
281
     1
  3
ACAD_XREC_ROUNDTRIP
360
176
  0
DICTIONARY
  5
173
330
12B
100
AcDbDictionary
280
     1
281
     1
  3
ACAD_XREC_ROUNDTRIP
360
174
  0
DICTIONARY
  5
16D
330
128
100
AcDbDictionary
280
     1
281
     1
  3
ACAD_XREC_ROUNDTRIP
360
16E
  0
DICTIONARY
  5
16F
330
129
100
AcDbDictionary
280
     1
281
     1
  3
ACAD_XREC_ROUNDTRIP
360
170
  0
DICTIONARY
  5
165
330
124
100
AcDbDictionary
280
     1
281
     1
  3
ACAD_XREC_ROUNDTRIP
360
166
  0
DICTIONARY
  5
151
330
49
100
AcDbDictionary
280
     1
281
     1
  3
ACAD_XREC_ROUNDTRIP
360
152
  0
DICTIONARY
  5
171
330
12A
100
AcDbDictionary
280
     1
281
     1
  3
ACAD_XREC_ROUNDTRIP
360
172
  0
XRECORD
  5
149
102
{ACAD_REACTORS
330
148
102
}
330
148
100
AcDbXrecord
280
     1
102
SHADEPLOT
 70
     0
102
SHADEPLOTRESLEVEL
 70
     2
102
SHADEPLOTCUSTOMDPI
 70
   300
  0
XRECORD
  5
147
102
{ACAD_REACTORS
330
146
102
}
330
146
100
AcDbXrecord
280
     1
102
SHADEPLOT
 70
     0
102
SHADEPLOTRESLEVEL
 70
     2
102
SHADEPLOTCUSTOMDPI
 70
   300
  0
XRECORD
  5
14D
102
{ACAD_REACTORS
330
3A
102
}
330
3A
100
AcDbXrecord
280
     1
102
MATERIAL
148
0.0
149
0.0
149
0.0
 93
        0
 94
      127
282
     0
 72
     0
 77
     0
171
     0
175
     0
179
     0
273
     0
  0
XRECORD
  5
3B
102
{ACAD_REACTORS
330
3A
102
}
330
3A
100
AcDbXrecord
280
     1
270
     1
271
     1
  0
XRECORD
  5
3C
102
{ACAD_REACTORS
330
3A
102
}
330
3A
100
AcDbXrecord
280
     1
270
     1
271
     1
  0
XRECORD
  5
3D
102
{ACAD_REACTORS
330
3A
102
}
330
3A
100
AcDbXrecord
280
     1
270
     1
271
     1
  0
XRECORD
  5
3E
102
{ACAD_REACTORS
330
3A
102
}
330
3A
100
AcDbXrecord
280
     1
270
     1
271
     1
  0
XRECORD
  5
3F
102
{ACAD_REACTORS
330
3A
102
}
330
3A
100
AcDbXrecord
280
     1
270
     1
271
     1
  0
XRECORD
  5
40
102
{ACAD_REACTORS
330
3A
102
}
330
3A
100
AcDbXrecord
280
     1
270
     1
271
     1
  0
XRECORD
  5
14C
102
{ACAD_REACTORS
330
31
102
}
330
31
100
AcDbXrecord
280
     1
102
MATERIAL
148
0.0
149
0.0
149
0.0
 93
        0
 94
      127
282
     0
 72
     0
 77
     0
171
     0
175
     0
179
     0
273
     0
  0
XRECORD
  5
32
102
{ACAD_REACTORS
330
31
102
}
330
31
100
AcDbXrecord
280
     1
270
     1
271
     1
  0
XRECORD
  5
33
102
{ACAD_REACTORS
330
31
102
}
330
31
100
AcDbXrecord
280
     1
270
     1
271
     1
  0
XRECORD
  5
34
102
{ACAD_REACTORS
330
31
102
}
330
31
100
AcDbXrecord
280
     1
 70
     1
 90
1959938040
 71
     1
  1
F94204B3-237E-4481-9E6E-A4001EFA7105
311
504B03040A0000080000317C92443DEE336E79000000790000001B0000006175746F6465736B2D64657369676E2D7061636B6167652E786D6C3C3F786D6C2076657273696F6E3D22312E302220656E636F64696E673D227574662D3822203F3E3C666F726D6174733E3C666F726D61743E687474703A2F2F736368656D612E
311
6175746F6465736B2E636F6D2F64657369676E2D7061636B6167652F323030393C2F666F726D61743E3C2F666F726D6174733E504B0304140006080800317C9244D486FD9CA0000000F4000000130000005B436F6E74656E745F54797065735D2E786D6C7D8EC10E82300C865F65E91D8A1E8C310C0EEA1BF002731658846E
311
D98AC1B77784ABF1D8FE5FBFBF75BBCE937A534CCEB38643598122B6FEE978D0B0485F9C41B54DDD7D022595594E1A469170414C76A4D9A4D207E29CF43ECE46F218070CC6BECC4078ACAA135ACF422C856C0E68EA1BF5669944DDD7BCDE7B1F8E415D77AECB980613C2E4AC91FC167A2B244592486606FC29C8FD7F045B9A
311
EF7053A7E60B504B0304140006080800317C92444251CF0AEB0000007C01000008000000636F72652E786D6C8D90416EC3201045AF62CD1E1B0C4E1D0B13357572825E0001715062B00C543D7E71E248EDAEAB19FDF96F66F4F9E17BBA175F6609D6BB1E4889A1304E796DDDD8438A17D44271107CF13EFEB241E1E4647A58
311
65107C5C7C9A374979178D8B59755E9B4D9421980885BAE7A687A0AE6692A54C313BC2AD9CA5BAC9D194E4D5653825AB8BE711ABF33E7BB16601317C104ACEE737F47E1C28626C7744FB81ED51BDC3FB13C60CD7A786572B2C78B4D3EBBE5A8C8C4683A83161083344DA4FD2749476B441B8ED30E6D56AFF03A559FF134AD6
311
455A6FEF3EB10082E4471E03C1AB358B5C1E41E5BAE6267E00504B0304140006080800317C924455019EA25F0000007C00000007000000636E782E786D6C4DCB3B0E80201045D1AD90E915ED2CF8AC45050C11660C8261F98AB1B07AC9C97D42D718D865D3E909258CFD00CCE24AC6E326A164D74DC0B4128928FF32603847
311
2BA13128B1252AC747C6BAB984FC68F0B87FE8960A5C09FE86CFB69FBA01504B0304140006080800317C9244366325DE67010000020300000C0000006662782F636F72652E786D6C8D52ED8EC220107C15C27F0AFDD0534331E7A94F702F802DF6882D34141A1FFFB61FC6F3628C6942C9CCCEEEECB47C7B6D6AD42BD7696B
311
721C470C23650A5B6A53E538F8335961B415DC59EBFF94616464A3723CC058F0CAD9D0CE50618D57C6036A6CA96650769DF21815355C72DC153FAA91910C1E2ABA4BD4CAE2222B15C511D0502778E71D1840D390E1C4E27CBA723AE18287A0CB99D5254CD367AD1C16FBAF388D8FC70FF2B9DBA724CB963BB2DE676B922CD9
311
FAC058C692C382D3412CB8D7CDCD5DE194F4AAC4226171465846E2D577BCD8A4E9265D10B6DA30C6E950FE200A6DF9A62868E3D364B63BC93A2C62303212FFB685883CEA640F7EA8E07408115E63C28F41432010B297A7FAB6C705A05E15DEBA0C98D2863BD5CB3A2898CAD0F8703AB1D0796C009B3DED93BCE8F3BA077C40
311
692AB0263D5C4FC10FD3F934758EA2558EF4FE8A8C758DACEFE6268BF7F33EE8A9BCB0B575EFA8E9BC2A9DC3A4C3DF2B7E01504B0304140006080800317C924454E691037E0000009D0000000B0000006662782F636E782E786D6C4DCCD10A83201886E15B91FFDC952C9D811AB9CDFB886521990EA76397BF1A1DECE88387
311
8F57749FD5A3B74D2F17830472AA01D9F088A30BB3849227CC01754AA418F3DF0D5018562B616750624EB13C0F1AED34149F37F52E2C073246B8D117839B3BA1B869CF3DD68C68DC1B76AD296FD98D50A894A87EA56DF7B0FA02504B0304140006080800317C9244116027342D01000015020000310000006662782F363631
311
38464237462D344531352D343933412D423631422D4146364330353839364431352F636F72652E786D6C8D51CB6EC32010FC15C4293D60436CA81361A2A46DBEA03FE000495162B07854F9FC42ED48ED2D1716CDCECC8E76F9EE3EDEC0B7F6C138DB43526108B4954E197BE9618A67D441B013DC3B17FFD020B0C3A87B5860
311
28F8C5BB342D9074366A1B336A9DD20B3884A02304F2963F3D0CF24B8F4335A49819E15A4D83BC0E175D912AB7334FF0107D0E00E621E5858231D21D0FAF47D47E108ADA4DB34707460E687F646F98761BF64E28AF67A1E02919B5C88DCA71CCD968FFAC49110B1ECDF8882FBD1EA25650AC3169116E11E93E09DD36CDB6A1
311
08775B8C795DE8FF4469524F8A92B1B1592F7167598082F07A6E08AE5C3ADD1E61F47D723E82326F15B47C81025718D335A674D3F07AE6E60D6453D62EA6213A9F37BCBA9E32BDECA938B356F0BA1C2997DF0BE65A0E2A7E00504B0304140006080800317C92441B85CCB44D01000033030000300000006662782F36363138
311
464237462D344531352D343933412D423631422D4146364330353839364431352F636E782E786D6CD593CD6EC32010845F0571F75FED44518489D4439FA0875E316C121A0C163F55F3F65D1292E692438FBD206B7698597DC26CF73D1BF2053E686747DAD52D2560A553DA1E469AE2BEDA50B2E3CC3B171F6C945831C348B3
311
4C393B7897962229D88B6422AA46DB53113D0497BC848072BE498C93C26000D82AA108F3044A812277237EEDC1E32A284E67128F40DE5E3F889B3E41C6C09A9CC259933B38CB67697A3051228D0861A4411E6116B548D12908A75A8928EAAEBE753DD9E93789E40BB7CAE435C9E523CD27E565A31A39B206879C85E8915E31
311
C5F302948B65315A8A88909B8BF1EAE12C691BD743F16A04EFD1DDADFB61C0B0CB8CB3A867280EE941445094BFB4DD50B543D56DDEBBD5B6EFB7FDAA6A37DBB6654DB673363967CA258C01EF16229D8D6023E51D6BF2F819BEE2234A7B64EDFCF90F20114069BDD2B967FC673ECDE57D232E8F7F01FF01504B030414000608
311
0800317C9244198745FBA605000081100000340000006662782F36363138464237462D344531352D343933412D423631422D4146364330353839364431352F6F626A656374732E786D6CAD57DB6EDB3810FD1541FBB2FB20CBB2D53459282A1C3B298C366D51A3C53E1830688952B8A12E20A9C4D9AFDF43899225D74EBD8B
311
BEE8C2CB70E6CC990B8377BB8C5B4F544856E4D7B6371ADB16CDA32266797A6D572A712E6DEB5D1888A250BD65B695938C5EDB7AD80E835414556986629A908AAB83D1BB9BBF2C19D19CDA56C48994D7B68C1E684646A452454CE5E328268A8CD26437F246CDC2A1D85490F2E140684904CD1534C5780E2956A39437FC1DDB
311
6E18B87A3E0CF4D3AC9A9E5EE5D6F60CCF67B954248F7E38EC40CCD4F317B7933757CE1BDF9F3AFEC5C4736EEE6E168EF7763A9E5FCCE757B3DB2B1C2C958024A389A0891DBE0736824581DB4C8541C572359D9825C641AEA04F4C7BCA0E279617B8CD9ACE3A63E431F5A322CF69546305346AFB8CE89896348FE173462534
311
EB21341EFE7A1AC7DEF454FF9B23FBC3E721D0DFD113D4EADEBEFB9A16DBBF61823C87414252CDC0064B6368C3D5F11EE16D517033C7A49511450523DCE26C2B8878B1432CD54BC26020463359E868D016D821BCD04C0FE98230FA39CF8F6999549C6B1ADB611D051BC40A55B2D68CFD43C55EFB3E32D009BED26CB83406A9
311
9792DAE1554391CB033635405A0927295C0E33F5CEE9E4C0D0B98ED3E5C20E3FDC6D772B1DBBC70F2F455152A1347D40ADD671ED5BA36474F2CEF29CDE601FA8B207E52B90FF8450DFAB02BF09B6F377BE39450992CBA410197C638D2D678CC7D8F2EAA7FEEE7D056EB779E8BD5378C2D91AAA5F80E7D086BE2F7B7086C113
311
085F88A9316D15118EB471CF7200A44962F10243C8C3C97667874B64396465EC223CF46032D47DC267E01A314814F549BD770E2C0FD2E219091AB0D58C841A0DF98D827B3FFD90CEEA83CDB253F0BEF925749D2D561F5695484844EF4D4C2F68C272A650E2F6BCE92B34C07C60D1237D792E440C437FC47BD5C73B334749A0
311
AD31D7C0A76D4ED73FFB93070744D897163ADD043F390146E8C2DA937FCF64443927392DAAF6DC57EB07CA4603B10E76CDE4AEC0EC0B0B48D3CC1CC4208A742458A941ECAA5597344727ACFBB6FC0446DAE1CDCB47F2D2CF5EDB7DEE8D0A5E88CDF665D3A4A5A3507F1F72DB60E06A29A07B1D246DFC1BD037314B924A2209
311
1EC1F5FB72DEF79D4E0B4811ADD4265A7CD88FE022C290B6958B6A2D082A69916F18EA26E2EEE8017DF980D430A016784A634979B2619C57D926611CD5689391F2041CFF5FFF6D95951B921555AE4EC81EA88EEA30D47DC05EF94C54F46087ABFAEDDC20F7C6343E41065D4B8E603570EDDD953F19FB375367327D7BEBF8FE
311
A5E75CDD5EDC3A337F3CF66EEF666FBD31B284D1A86EA2C2A02D35FD88869750DA824A30E3BE6F4BC48F490276784F945CBF6FC2B37D7F5B8ED00B072EF6A05E761B67F113FA3E1AFF5CC07EE55141CBACE434A3B9223A86EEF507FF4AD0670C9469C6971949E919523EBF5F1D18839133F67DD1F14E9F0FF69AD1B90EC8A3
311
42D443956D73C2F8C1C6B4417254E6A9C1AFF549F76E0A4DFBABFF8C63D099CA82B3187930B6525A6454211B9E5184444625A8D7EFE96373F73863F753D3212AB2E5B4D5E481A049E61261019257911A8E5BBFA1A9D37DD5B58D723B7AC4C3640ADB0267AE6D34E98A45548EB628D0BA15AA85834BFD4E1E9C2579CAD16B37
311
9BBAFF6E97C6665092BB25E7F44FC6AE26851B0390464AF40D6888E09D5A9930A87533F3D17F32BC55C7220A9FDB4A75B6EC073A63EA6310A28D51E6B68026E6D11CBD43A0BE6E9637AAD70C1039EB96F52A091AA98E2222AD6F0A5A3FA3D26CF1C54587622D3F5B25AF52F8F27C498EA02073A5031C2C022B8CCC92285075
311
FEE7FA8B287093CDAC3B060A58BFEF2E2FFE58CF8B2C2BF266683D33F7616BF580DB6DBC4672A0FA5A22D793B13759D7D7017343D96C89A42312CB470CC0B38275400FDC0F5E367746D4A166A25BE76A571C3074B9B04C61F321D4D0A59F5B3538683C726A2186F49552474C7F41F9EA8DC0AD974205815E3EFC17504B0304
311
140006080000317C9244000000000000000000000000350000006662782F36363138464237462D344531352D343933412D423631422D4146364330353839364431352F76657274696365732E62696E504B0304140006080800317C9244F270F1330600000004000000360000006662782F36363138464237462D344531352D
311
343933412D423631422D4146364330353839364431352F747269616E676C65732E62696E636660600000504B0304140006080000317C9244000000000000000000000000370000006662782F36363138464237462D344531352D343933412D423631422D4146364330353839364431352F617474726962757465732E62696E
311
504B0304140006080800317C9244D5987DFC8F00000041010000360000006662782F36363138464237462D344531352D343933412D423631422D4146364330353839364431352F6469726563746F72792E786D6C858F410EC2201045AF4266AF15DDB800BA74E7C21B903225242D6328188F2FA5C4183471359997F9FF81E8
311
9FF3C41E1816475E02DF1F80A11FC8386F25A438EECEC07A250251FC3803E6F58C12560C4AD840E95E91C151A72936F496F35732D860FE635F62C8F2DA16B505C545B74125BAA2FA9E05D7CC053D063734D5C7665FD55B6B8D15D5E9BFEAFD8490FFA45E504B0304140006080800317C924451FAE192FD000000A00100003B
311
0000006662782F36363138464237462D344531352D343933412D423631422D4146364330353839364431352F7265736F75726365732F636F72652E786D6C8D504B6E833010BD0A9ABDC1C61091C8386A9AE404BD806526C44AB0913F558F5F13A8D4EEBA9919BD8FE6E989E3D7F42C3ED107E36C0FACA450A0D56E3076EC21
311
C51BE9A0384AE19D8BBF64505835610F0B0C528CDEA57983B4B3116DCCA875036EA00A012314FA998F1E82BEE3A44A9562568447392BFD502396ACCC74D64911A2CF018AF5C932417A0C2E798D41542B2B454A66D83466C83FCDCDA007797E679C5DAF3BF2763A73D234BB13D99F9B3DA977747FA1B4A1F5A515D56296229A
311
E927A3F6A8220E206BCA1A421BC2BA0FD61E383FF096D0EE40A9A816F91F539A877F9A92B191D75BDCD51640B21CE44548512D7DE5F52A33EFA55BF90D504B010214000A0000080000317C92443DEE336E79000000790000001B00000000000000000000000000000000006175746F6465736B2D64657369676E2D7061636B
311
6167652E786D6C504B01021400140006080800317C9244D486FD9CA0000000F40000001300000000000000000000000000B20000005B436F6E74656E745F54797065735D2E786D6C504B01021400140006080800317C92444251CF0AEB0000007C010000080000000000000000000000000083010000636F72652E786D6C50
311
4B01021400140006080800317C924455019EA25F0000007C000000070000000000000000000000000094020000636E782E786D6C504B01021400140006080800317C9244366325DE67010000020300000C00000000000000000000000000180300006662782F636F72652E786D6C504B01021400140006080800317C924454
311
E691037E0000009D0000000B00000000000000000000000000A90400006662782F636E782E786D6C504B01021400140006080800317C9244116027342D010000150200003100000000000000000000000000500500006662782F36363138464237462D344531352D343933412D423631422D4146364330353839364431352F
311
636F72652E786D6C504B01021400140006080800317C92441B85CCB44D010000330300003000000000000000000000000000CC0600006662782F36363138464237462D344531352D343933412D423631422D4146364330353839364431352F636E782E786D6C504B01021400140006080800317C9244198745FBA605000081
311
1000003400000000000000000000000000670800006662782F36363138464237462D344531352D343933412D423631422D4146364330353839364431352F6F626A656374732E786D6C504B01021400140006080000317C924400000000000000000000000035000000000000000000000000005F0E00006662782F36363138
311
464237462D344531352D343933412D423631422D4146364330353839364431352F76657274696365732E62696E504B01021400140006080800317C9244F270F13306000000040000003600000000000000000000000000B20E00006662782F36363138464237462D344531352D343933412D423631422D4146364330353839
311
364431352F747269616E676C65732E62696E504B01021400140006080000317C924400000000000000000000000037000000000000000000000000000C0F00006662782F36363138464237462D344531352D343933412D423631422D4146364330353839364431352F617474726962757465732E62696E504B010214001400
311
06080800317C9244D5987DFC8F000000410100003600000000000000000000000000610F00006662782F36363138464237462D344531352D343933412D423631422D4146364330353839364431352F6469726563746F72792E786D6C504B01021400140006080800317C924451FAE192FD000000A00100003B000000000000
311
00000000000000441000006662782F36363138464237462D344531352D343933412D423631422D4146364330353839364431352F7265736F75726365732F636F72652E786D6C504B0506000000000E000E00800400009A1100000000
310
504B03040A0000080000317C92443DEE336E79000000790000001B0000006175746F6465736B2D64657369676E2D7061636B6167652E786D6C3C3F786D6C2076657273696F6E3D22312E302220656E636F64696E673D227574662D3822203F3E3C666F726D6174733E3C666F726D61743E687474703A2F2F736368656D612E
310
6175746F6465736B2E636F6D2F64657369676E2D7061636B6167652F323030393C2F666F726D61743E3C2F666F726D6174733E504B0304140006080800317C9244D486FD9CA0000000F4000000130000005B436F6E74656E745F54797065735D2E786D6C7D8EC10E82300C865F65E91D8A1E8C310C0EEA1BF002731658846E
310
D98AC1B77784ABF1D8FE5FBFBF75BBCE937A534CCEB38643598122B6FEE978D0B0485F9C41B54DDD7D022595594E1A469170414C76A4D9A4D207E29CF43ECE46F218070CC6BECC4078ACAA135ACF422C856C0E68EA1BF5669944DDD7BCDE7B1F8E415D77AECB980613C2E4AC91FC167A2B244592486606FC29C8FD7F045B9A
310
EF7053A7E60B504B0304140006080800317C924445C15087E90000007C01000008000000636F72652E786D6C8D90D16E842010457FC5CC3B0A22D61A64E3A6F60BFA0304584B760523D0F4F38BBB6ED2BEF585995CEE99995C7EFA5E6EC597D982F56E005262288C535E5B370F90E20575509C04DFBC8FBF6C5038B9980176
310
19049F379FD64352DE45E362569DD7E61065082642A16EB91920A84FB3C852A6981DE15AAE525DE56C4AF2EC329C92D5C56389D5799EBD58B38160ED5433369D51D3BCE667EC4674666F2DA2848E2FEF6D8DA766E2D50E0B1EEDF2DCAF3623A3D1206A4C1A841B44BA0FC27A4A7BCA10EE7A8C79B5DBFF4069D5FF84927591
310
D6C7B90F2C8020F990FB87E0D59E452EF7A072DD73133F504B0304140006080800317C924455019EA25F0000007C00000007000000636E782E786D6C4DCB3B0E80201045D1AD90E915ED2CF8AC45050C11660C8261F98AB1B07AC9C97D42D718D865D3E909258CFD00CCE24AC6E326A164D74DC0B4128928FF326038472BA1
310
3128B1252AC747C6BAB984FC68F0B87FE8960A5C09FE86CFB69FBA01504B0304140006080800317C9244ADD4D69765010000020300000C0000006662782F636F72652E786D6C8D525B6E833010BC8AE57F30CF9446C651A2D213F4028E71280AD8C80F94E37779443455145548C69AD9D99D1DA0875BDFA1511ADB6A55E238
310
8C30924AE8BA554D89BDBB04054607468DD6EE5719468AF7B2C4138C196D8CF6C30A09AD9C540E50A56BB982DC5AE930121D5C4A6CC5B7EC79C8BD830A7B0D072EAEBC91611C020D758C5A67C0005A864C276697F38D920567D4FBB65ED9B68669EDA59506B37C5725795E9D822C7B87E3581C8353FEB10BD2383DBE7DEE92
310
A8CA2A4A2631A3AEEDEFEE8491DCC91AB3248AB320CA82B8F88AF37D9AEED33C888A7D145132953F88FC50FF53E45BE5D264B5BBC82C66311899893FDB42440E593E821FC228994284D79CF063D0100884ECF8B9BBEF71056894C2699301536BBF5123EFBC84A9119A1F4A16163ACF0D60B3A77D92177D5EF7800FC85503D6
310
B883EBD9BB693A5DA6AE510CD204A3BB21A54DCFBBCDDC62713BB7414FE54277DAFC474DD655C91A2699FE5EF603504B0304140006080800317C92443611491A7E0000009D0000000B0000006662782F636E782E786D6C4DCCD10AC2201886E15B91FFDC362B67823AC8FEDDC7686E8C9C866974F96DB1838E3E78F87855FB
310
593C79BBF49A63D0C00E351017EE7198C3A4A1E4915E80B446A518F3DF0D48E817A76163306A4AB13C771ADCD8179F57F57378EC28EAAB40D6749471B4F4CC8F372AA5458A276651360245C7A132AAFA95D6DDC2E60B504B0304140006080800317C924418C17B3A2B01000015020000310000006662782F37304237453136
310
462D313545432D343532442D393943452D4533314345393637453746352F636F72652E786D6C8D51CB6EC32010FC15C4293D6043FC8E30919A3A5FD01F2086B82831583CAA7C7EA176A4F6960B8B66676647BBF4F898EFE05B5AA78CEE21C93004528F46283DF530F82B6A2138326A8DF17F6810683ECB1E2618323A591396
310
0D1A8DF652FB886A23E40672E7A48760BCC74F0FDDF825679EF1E023C3DDB2858F373EC98C64B11D798C3A6F6300B00E492F640D7E6F06529F11A986132AABFD07EABAD38086829C86AE6E86E65CD17C15321A82129B5C8918475D95B4AF9A2431A35ECDCFF8A395DC4B01D91E9312E11291F6935487A2381415C2ED01639A
310
27FA3F5158C48BA2A0B42FF65BDC55E62023345F1B8C0A132EF76718F9588CF520CDDB3939BE4186338CCBA6C675D7D27CE5C60D44D3BADC4C9D37366E7877BB447AB139D725A3793A522CBF178C351D94FD00504B0304140006080800317C92447D2203A35401000033030000300000006662782F37304237453136462D31
310
3545432D343532442D393943452D4533314345393637453746352F636E782E786D6CBD93CD6EC32010845F0571F75FEC44568489D4439FA0875E316C121A0C16E0AA79FB2E094973C9A152D50BB2668799D527CC765F93219FE0837676A04D595302563AA5ED61A04BDC173D253BCEBC73F1C1468915130C34C994B38377CB
310
9C25057BB19888AAD1F694450FC12D5E424039DD24C6496130006CB1A008D3084A812277237EEDC1E32A288E67128F405E5FDE891B3F40C6C0AA94C259953A384B676E7A3051228D0861A0411E6112A558A253104EA51251944D79EB7AB2D34F1249176E958BD724950F349D94E78D4AE4C82A1C7216A2477AD914CF33502E
310
E6D968292242AE2EC6AB87B345DBB8E9B25723788FEE76B5E97B0CBBCC388B7A82EC901E440445F9AA6EBAA2EE8AA67F6BD6DBB6DDB6EBA2EEB775CDAA64E76C74CEE44B1803DECD443A1BC146CA1B56A5F1337CD94794F6C8DAF9F32F402280DC7AA573CFF84B3ECDA6EDBA7FE4535DDE37E2F2F817F06F504B0304140006
310
080800317C9244CFFF9FF0610700009A1B0000340000006662782F37304237453136462D313545432D343532442D393943452D4533314345393637453746352F6F626A656374732E786D6CED595B73A33614FE2B0C7D691F8CC176B24987D0C975C7D3A6DDA9BB3B7DF00C23834CD408C148221BF7D7F7E802066212DC4DDF
310
FA6003423A3AE73B571DC29F9E73EA3C612E48C12EDCC0F35D07B3A44809CB2EDC4A6E2767AEF35314F2A290AD69AEC3508E2F5C35EC4661C68BAAB44329DEA28ACADEE8DDD59F8E4830C3AE935024C4852B92079C230F55B248B178F4522491976D9FBDC03313BB64338ECA871ED11271CC24700AE30CA83886A9A0FBE8BB
310
D3289CAAF751A8FEEDACF9A8598BE159532D75974BC284442C79C1528FCC7C144BF36071733B3B399F9C2C16F3C9E274164CAEEEAE6E26C187B97F7D7A7D7D7E797B0EEC6D8A825A99525C629682FE766E148453F5A611DD227088EBA4600C271A48804A8BD52748B080AD5AF0F9DDC74049D47AAD256C3D2FD47BCB426B78
310
DEA532346B1C101DBA2088DDAE96B8BEB6E52B367F81E0628C51728125702B2407ED5A783878851BF9E1D48C46E166AF0B229C1C49CC09A20E251B8E382805A6AA295168165832CA3938907294045A73E675D7B6C033DF769D435C6E2B4A9567B89176AC18DC0F4BA139237F63BEE7BE8D0CF004D25684C933CBA5DC95D88D
310
CEC3A91E8C427599CFEC4B03A4B3A528131A11F3B627E8B572FDE58D1BFD7CB7795EA9707078F3921725E652199DD2A3E60B0CD95E154A76DB6094E6D40210C6806A57EE41F91D90FF15A2C79E15D01B27CF8BE7859D2B3962625BF01C74E3F8CEC4873FDF09F4BFBA6FDD85D36671577B4378829B2AA8CEBE1DCFAE0C1A2B
310
CB7F0BCE287C02832FF8DCBE5A2588823DDF13060029237168014310DAB79B67375A42E084400FAB108D021019D87D82DB706AC9ECB552BB97F53A0688DA3DE6639404B0698B043606F4F411B20727C95E4D6D1187E03D791773BDBC59FDBCAAF81625F8DEFAF40DDE12462464CDC30C7530EF48F488775F0B9E82A02FF15E
310
B5F1CEED5602D056982BE0B31A04F5B0DFB9B34102EBB242859BF08D1D400895AB5BF4EF894830A588E1A2AAF76DA29B32D4C6E36DCDE0463303F17CD633618E9F88AA2AC069F6333A8C42DE4F382915886EF4D148D6044D6F40BACFCB5FC1229BF903B3960C422F43F40F1DB40EE0D0B1EC1A690B4423F0661FCE9382163C
310
DEEC6213E95CA825808DAEB77CE91085586F94A4A8800769BFAB434A66A48D53B2DD5602E2EA0116BF2CAFDBE6E07BF3E0C469FFF79C7101D1167C1771EB77BD3D6292A30CC75B940E6DD7DEADA12D34C901D21C6F29C8459E88DCC548C67E8AB363A0398AF8F9BB52CF682104615840BE3A087E1B0DDF834062B459B3ACB4
310
DA039A8838C712D16310506406C0D56947D7B809940E6FF3D858EF6B1A6B13FD8F2C8223A8250B161328452187BCC978E09D400CE9A26B50EEE10BD656D3D662D00A4A8864177FC5247B90C7A06EC80FE09EC091A4927151A204CC7A04D917BEA294DAE37D839247953FE2A4A2EF652002D36D4C28ADF2187E84C1C9638C6B
310
3781E955145AC44DEC933887A20CC98A8FD9E4F4C47FB18FA919FA21B0B5D1965008DB718ECA01D43B0151D7234E03BEA53EA0D44D959731CA8B8A8D32146FDEF7264BBEAF56457624BFAA5484B2B1266C09462161B2C9AA75CC0653D78115DC4807AA5D2C505E52730A7B23F1048D3769CA831B70EBA7EFBB410E85DF80F6
310
DA117551C36079EC1406E22B92C9831BADF4757205F5778AD37DAAAF6BCD76050888A9485E716255F47909E58DADD1DCE81E49B1FE68B26E7DFDBCF4A0FB114E610DD42ECDC2A5023AC74C225599DCAB1BFA3B8210DCA161C6972AA71E43E5324D75D588E81D195267A78CE86C9A13AF7CC0ACC8E1C7D68425B44AF11AA5E2
310
31BE97345E11C5BA95D2CB498DF1AB02FEF671D58307464688F4491578F86B6FAD1DBD56E5D24122F2A1CA370C1108821DD132A31BAF6499D548ADE5E6AACE145077818159152FFE3F59B4DB11FF9F2C326B18DF74B2B8DAFD8276EDBE482B9D27CAAE8F3A0634F94951798F63806E3B34549B2C6292B995DF3A530C41B18E
310
F2A3ABB13A681882431CFFEBAC3D9405CD763DFE8FCBDAC18B8AE3A8ACD299ACBA54072AD7653B87DD9D2F66FEE26A3E99CD3FDC4E168BB360727E7B7A3BB95CF87E707B77F921F0F7C706EDA851D804339DBBE0D904B57A583D590CA02B2B0A4A5238CDA74E8621E64B38D38F689FF31C0B489EED66776A9BF223563F993E
310
A7441B8A6B4E1E103488A980B40E185589EC8E3BDF416B52C241FBC285A691F7087FD62A5D0732CF850BAD0249122CBC0DB49954434F138794AB73BF2506F82096A994681635CFCD2A854D27FC3753C6A4012B57A78701855B09DDAF4E8742F366794A8E12BC66C741126E3795846ACDC8B21F6884D1DBECD56F64A3843DDA
310
AD9FC1755F172BF0F49C0E22A33E19BC6A0486EA44229EE97EB762CCB27479F3690A7D3667F99B53D22A035D8EA734E1188CB952051558115885A5592209A67AFDE3FA132FE0134FEEE8AAC8F9FEF9ECF487F57591E7053343EB4B3895A5F0A1C8593DC0679F740DC50356CD75B19EF9C16CAD9BDAB6CF1E6F90C09EAA8A60
310
A02E2694203D9303BB7CD1A0B2EDCBA952456FFAF2C6B14114BCDAD8D18B1EAFF9C8E5800FA9CF29CA63B49FD7D2BEDAD79EEAA960131C3AD2D13F504B0304140006080000317C9244000000000000000000000000350000006662782F37304237453136462D313545432D343532442D393943452D45333143453936374537
310
46352F76657274696365732E62696E504B0304140006080800317C9244F270F1330600000004000000360000006662782F37304237453136462D313545432D343532442D393943452D4533314345393637453746352F747269616E676C65732E62696E636660600000504B0304140006080000317C92440000000000000000
310
00000000370000006662782F37304237453136462D313545432D343532442D393943452D4533314345393637453746352F617474726962757465732E62696E504B0304140006080800317C9244D5987DFC8F00000041010000360000006662782F37304237453136462D313545432D343532442D393943452D453331434539
310
3637453746352F6469726563746F72792E786D6C858F410EC2201045AF4266AF15DDB800BA74E7C21B903225242D6328188F2FA5C4183471359997F9FF81E89FF3C41E1816475E02DF1F80A11FC8386F25A438EECEC07A250251FC3803E6F58C12560C4AD840E95E91C151A72936F496F35732D860FE635F62C8F2DA16B505
310
C545B74125BAA2FA9E05D7CC053D063734D5C7665FD55B6B8D15D5E9BFEAFD8490FFA45E504B0304140006080800317C92442D2B0DB6FD000000A00100003B0000006662782F37304237453136462D313545432D343532442D393943452D4533314345393637453746352F7265736F75726365732F636F72652E786D6C8D50
310
596E833010BD0A9A7F83CD9252641C11959EA017B0CC84580936F252F5F835814AED5F7F66466FD13C3D7EFE5A1ED9273AAFADE981E5143234CA4EDACC3DC470252D6467C19DB5E1970C322317EC618341F0D9D9B81E90B226A009093576C20394DE63804C3DD2D18357375C642E63480A7FCF57A9EE72C69CE5894E3AC17D
310
702940B63FD9260887DE46A7D0F36267058F514F87464FE9A7BE6A74209AD35836CD3890BA7EBD907A68077269DE4EA462D5F0F27E2AE9588FBCD8CC8207BDFC64540E65C0094449594D684D58FBC19AAEAABAAA21B4ED28E5C526FF638AEBF44F53D42654E51177B779102C05791282175B5F693DCB4C7BEB567C03504B01
310
0214000A0000080000317C92443DEE336E79000000790000001B00000000000000000000000000000000006175746F6465736B2D64657369676E2D7061636B6167652E786D6C504B01021400140006080800317C9244D486FD9CA0000000F40000001300000000000000000000000000B20000005B436F6E74656E745F5479
310
7065735D2E786D6C504B01021400140006080800317C924445C15087E90000007C010000080000000000000000000000000083010000636F72652E786D6C504B01021400140006080800317C924455019EA25F0000007C000000070000000000000000000000000092020000636E782E786D6C504B01021400140006080800
310
317C9244ADD4D69765010000020300000C00000000000000000000000000160300006662782F636F72652E786D6C504B01021400140006080800317C92443611491A7E0000009D0000000B00000000000000000000000000A50400006662782F636E782E786D6C504B01021400140006080800317C924418C17B3A2B010000
310
1502000031000000000000000000000000004C0500006662782F37304237453136462D313545432D343532442D393943452D4533314345393637453746352F636F72652E786D6C504B01021400140006080800317C92447D2203A354010000330300003000000000000000000000000000C60600006662782F373042374531
310
36462D313545432D343532442D393943452D4533314345393637453746352F636E782E786D6C504B01021400140006080800317C9244CFFF9FF0610700009A1B00003400000000000000000000000000680800006662782F37304237453136462D313545432D343532442D393943452D4533314345393637453746352F6F62
310
6A656374732E786D6C504B01021400140006080000317C924400000000000000000000000035000000000000000000000000001B1000006662782F37304237453136462D313545432D343532442D393943452D4533314345393637453746352F76657274696365732E62696E504B01021400140006080800317C9244F270F1
310
33060000000400000036000000000000000000000000006E1000006662782F37304237453136462D313545432D343532442D393943452D4533314345393637453746352F747269616E676C65732E62696E504B01021400140006080000317C92440000000000000000000000003700000000000000000000000000C8100000
310
6662782F37304237453136462D313545432D343532442D393943452D4533314345393637453746352F617474726962757465732E62696E504B01021400140006080800317C9244D5987DFC8F0000004101000036000000000000000000000000001D1100006662782F37304237453136462D313545432D343532442D393943
310
452D4533314345393637453746352F6469726563746F72792E786D6C504B01021400140006080800317C92442D2B0DB6FD000000A00100003B00000000000000000000000000001200006662782F37304237453136462D313545432D343532442D393943452D4533314345393637453746352F7265736F75726365732F636F
310
72652E786D6C504B0506000000000E000E0080040000561300000000
  0
XRECORD
  5
35
102
{ACAD_REACTORS
330
31
102
}
330
31
100
AcDbXrecord
280
     1
270
     1
271
     1
  0
XRECORD
  5
36
102
{ACAD_REACTORS
330
31
102
}
330
31
100
AcDbXrecord
280
     1
270
     1
271
     1
  0
XRECORD
  5
37
102
{ACAD_REACTORS
330
31
102
}
330
31
100
AcDbXrecord
280
     1
270
     1
271
     1
  0
XRECORD
  5
38
102
{ACAD_REACTORS
330
31
102
}
330
31
100
AcDbXrecord
280
     1
270
     1
271
     1
  0
XRECORD
  5
145
102
{ACAD_REACTORS
330
A
102
}
330
A
100
AcDbXrecord
280
     1
102
MATERIAL
148
0.0
149
0.0
149
0.0
 93
        0
 94
      127
282
     0
 72
     0
 77
     0
171
     0
175
     0
179
     0
273
     0
  0
XRECORD
  5
B
102
{ACAD_REACTORS
330
A
102
}
330
A
100
AcDbXrecord
280
     1
270
     1
271
     1
  0
XRECORD
  5
C
102
{ACAD_REACTORS
330
A
102
}
330
A
100
AcDbXrecord
280
     1
270
     1
271
     1
  0
XRECORD
  5
D
102
{ACAD_REACTORS
330
A
102
}
330
A
100
AcDbXrecord
280
     1
 70
     1
 90
1959938040
 71
     1
  1
A3F1AD24-BD27-4CDE-A3E0-E70CA9A59244
311
504B03040A0000080000317C92443DEE336E79000000790000001B0000006175746F6465736B2D64657369676E2D7061636B6167652E786D6C3C3F786D6C2076657273696F6E3D22312E302220656E636F64696E673D227574662D3822203F3E3C666F726D6174733E3C666F726D61743E687474703A2F2F736368656D612E
311
6175746F6465736B2E636F6D2F64657369676E2D7061636B6167652F323030393C2F666F726D61743E3C2F666F726D6174733E504B0304140006080800317C9244D486FD9CA0000000F4000000130000005B436F6E74656E745F54797065735D2E786D6C7D8EC10E82300C865F65E91D8A1E8C310C0EEA1BF002731658846E
311
D98AC1B77784ABF1D8FE5FBFBF75BBCE937A534CCEB38643598122B6FEE978D0B0485F9C41B54DDD7D022595594E1A469170414C76A4D9A4D207E29CF43ECE46F218070CC6BECC4078ACAA135ACF422C856C0E68EA1BF5669944DDD7BCDE7B1F8E415D77AECB980613C2E4AC91FC167A2B244592486606FC29C8FD7F045B9A
311
EF7053A7E60B504B0304140006080800317C9244543DD27AEA0000007C01000008000000636F72652E786D6C8D90D18E832010457F85F08E8288518334365BBF607F8000B5A4158CC0663F7FB1B5C9EEDB3ECDE4CE3D3393CB4FDFCB037C992D58EF06480A0C8171CA6BEBE601A678452D0427C137EFE32F1B044E2E6680BB
311
0C059F379FD64352DE45E362569DD7E61065082642A01EB919605037B3C842A6981DE15EAC52DDE56C0AF2EE329C92D5E075C4EABCCF5EADD9A0A01FE7669C9A098D6DD7A1BA6ACE68ACD8055D3ACA583D758C8E1D2F7758F06897F77DB519198D86A2C2A446B846A4FD24ACA7B4A70CE1B6C79897BBFD0F9456FD4F285917
311
6975BCFBC20214243FF21C085EEE59E4F20C2AD73D37F103504B0304140006080800317C924455019EA25F0000007C00000007000000636E782E786D6C4DCB3B0E80201045D1AD90E915ED2CF8AC45050C11660C8261F98AB1B07AC9C97D42D718D865D3E909258CFD00CCE24AC6E326A164D74DC0B4128928FF326038472B
311
A13128B1252AC747C6BAB984FC68F0B87FE8960A5C09FE86CFB69FBA01504B0304140006080800317C9244C7E3CDB566010000020300000C0000006662782F636F72652E786D6C8D52ED8A8330107C9590FF317E162D31C572ED13DC0BA49A7A524D2426D2C7BFF5A3783D4A29420C333BBBB3A3EC70EF5A344A33345AE538
311
F07C8CA42A75D5A83AC7CE5E498AD18133A3B5FD538691129DCCF10463CE6AA35DBF42A556562A0BA8D2955C41310CD26254B670C9F150FEC84E78C259A8186E5E2FCA9BA8A5177840431D67833560002D43A613F3EBE5CEE88273E65C53AD6C53C1B4E6DA488379F475DC15E7DD991469969138DC1D4911262772CAA22489
311
CF59121519A3939833DB740F77A591C2CA0AF3D00F62E2C72448BF83641F45FB28217EBAF77D46A7F22791EBAB0F45AE51360A57BB8B6CC03C002333F16F5B88C8A2418CE0877246A710E13527FC1C340402215B71691F7BDC001A6569B58981A9B4DBA851B44EC2541FCD0FA30B0B9DE706B0D9CB3EE19B3EEF7BC00714AA
311
066BC2C2F5E2EC349D2D53D7287A69C868EF4869D3897633B758DCCE6DD04B79A95B6D3E51D37555BA8649A7BF97FF02504B0304140006080800317C924444F8F5857E0000009D0000000B0000006662782F636E782E786D6C4DCCD10E82201886E15B61FF390A89C501E090EC3E5CA263213482D6E5A7CD838EBEEDD9B757
311
749FD5A3B74D2F1783045A114036DCE3E4C222A1E41973409D1229C6FC770314C6D54AD8199458522CCF83263B8FC5E74DBD0B8F03FB81F4A4350413A33566EC44311FAE0C9F2FBAA59CDF1A660CD44AD4BFD2B67B587D01504B0304140006080800317C9244911994D62C01000015020000310000006662782F4245304230
311
3543302D304341412D343432312D384544342D3637413531383846333443432F636F72652E786D6C8D51CB6EC32010FC15C4293D602F364EAD0813256EFA05FD016A488A1283C5A3CAE717D78ED4DE7261D1ECCCEC6897EFEFE30D7D6B1F8CB31DA60560A4EDE094B1970EA778262D467BC1BD73F10F0D232B47DDE119C682
311
5FBC4BD30A0DCE466D6346AD537A0565083A6234DCF2A7C361F8D2A32C648A9911AEC52487ABBCE88216B99D798287E87300B40C995F2C8E273842D30381FE70208C5594B4A73746B6AF8786B6ED7BCDFA9E978B50F0948C5AE546E538E66CB47FD664160B1ECDF8883F782DA35658544019014668FB419B5D5DEFEA8640BB
311
03E0E54CFF274A937A52948C8D75B5C65D64010BCACBA521B872E9F3F608A3EF93F311CDF336410F2F584001D0D206A0A978B970F306B2E996ADA6213A9F37BCB97E663A6D16E72D13BC9C8F94CBEF05739D0F2A7E00504B0304140006080800317C92441B85CCB44D01000033030000300000006662782F42453042303543
311
302D304341412D343432312D384544342D3637413531383846333443432F636E782E786D6CD593CD6EC32010845F0571F75FED44518489D4439FA0875E316C121A0C163F55F3F65D1292E692438FBD206B7698597DC26CF73D1BF2053E686747DAD52D2560A553DA1E469AE2BEDA50B2E3CC3B171F6C945831C348B34C393B
311
7897962229D88B6422AA46DB53113D0497BC848072BE498C93C26000D82AA108F3044A812277237EEDC1E32A284E67128F40DE5E3F889B3E41C6C09A9CC259933B38CB67697A3051228D0861A4411E6116B548D12908A75A8928EAAEBE753DD9E93789E40BB7CAE435C9E523CD27E565A31A39B206879C85E8915E31C5F302
311
948B65315A8A88909B8BF1EAE12C691BD743F16A04EFD1DDADFB61C0B0CB8CB3A867280EE941445094BFB4DD50B543D56DDEBBD5B6EFB7FDAA6A37DBB6654DB673363967CA258C01EF16229D8D6023E51D6BF2F819BEE2234A7B64EDFCF90F20114069BDD2B967FC673ECDE57D232E8F7F01FF01504B030414000608080031
311
7C9244FEFC170DA405000080100000340000006662782F42453042303543302D304341412D343432312D384544342D3637413531383846333443432F6F626A656374732E786D6CAD57DB6EDB3810FD1541FBB2FBE08B6CA74D168A0AC74E0AA3485BD468B10F060C4AA2146E285120A9D4D9AFDF43899225C74EBC8BBE5816
311
351CCE9C3973A1FF619771E7894AC5447EED7AC3B1EBD03C1231CBD36BB7D4C9E0D2753E04BE144277C45C272719BD76CDB21BF8A914656197629A9092EB83D5BB9BBF1C15D19CBA4EC48952D7AE8A1E684686A4D422A6EA7118134D8669B21B7AC35AB0AF3695A47838505A1049730D4BB19E438B531BE5F55FC7EE28F047
311
E67BE09B5F2B353D2D35AAFCE99FCF72A5491EBD38EC40CDD49B2D6F271757838BD96C3A98BD9B78839BBB9BE5C07B3F1D2FDE2D1657F3DB2B1CACB484266B89A4891B7C04369245FEA8FE14F825CBF57462456C8046923E3113293798389E3FAA655AEFAC93C7CC8F449ED3A8C20A6854FE59D5312D681E23E68C2A58D641
311
68DC7FF50C8E9DCF53F36E8FEC2E9F874077474751637BF3EC5A2AC2BFE1823A87415251C3C01A4BEB68CDD5F11EE150086EBF31E5644453C90877380B2591CF6E00512312F83D3586C9D26483F1C00D1085FA739F2E48A3B7797ECCCAA4E4DCD0D80DAA2CD82257A8569565EC1F2AF7D67791814D889561C3A575483F17D4
311
0DAE6A8A5C1EB0A906D24938491172B869764E27078E2E4C9EAE966EF0E92EDCAD4DEE1E3FBC90A2A0521BFA805A4DE09AA741C9DAE49D1539B3C13D30650FCA3720FF19A9BE370571936C37DBCDEC295A925C254266888D33760663FC8C1DAFFA35FF3BFFFC51BBB91FBD537822D806AA5F8067DF876E2C3B7006FE13082F
311
E4D4BAB68E0847D9B8673900322471B8C012EA7012EEDC60852A87AA8C5D84071E5C86B94FF8EB8FAC1A148AEAA4CE3307960765F18C020DD82A46C28C9AFCD6C07D9C5E94B3EA602B760ADE8B5F42D7F972FD695DCA8444F4DEE6F492262C671A2D6ECF9BAE413DCC7B1E3DD2E79F42C670F425DEEB2EDE993D4A016D83B9
311
013E6D6ABA79D99FDC3B20C2BE549872E3BF71029C308DB5A3FF9EA988724E722ACAE6DC57FB07DA460DB14976C3E4B6C1EC1B0B48537F39C84134E948B2C280D876ABB6680E4F78F77DF5198C843C1721E17BA1705F7A23C185DC86CFDBBA2A1D45FA479FDA168291D102B65739D2A4BFC57C1BB32429156AE011587FAC16
311
DDD099AA800AD168AD936506F7915B445ACE367AD1AC25412315F996A16D22ED8E1ED0D50F442D012A85A72C5694275BC679996D13C6D18CB619294EC0F1FFED0FCBACD8924C94B93EA1BB673A9A43DFF61E79D54FA2A307375857CFC10D4A6F4CE37D987BC2A6951CC1AA17DAF9F4CE9B2F27B3C1CD72F27E305B2C6F07F3
311
E9ED7870FB7EBC985FCD2FAE26B35913A75A79E0379DA69BD088123A9B5F4A66C3F77D85F4B135C00DEE89569B8F757636CFEFAB2146617F843D6897EDC679FC84B18FC66F2BD84B1E55B4CA0A4E339A6B6252E8DEFCE1DF08C68C9E31F5FA2A23293D43CB978FEB0367B072C6BEAF26DDE9CF83BD76756112F2A812FD5066
311
614E183FD898D6480E8B3CB5F83531699F759F695ECD9B0D0C065325388B51066327A522A31AC5F08C1E2433AA40BDEE481FDBABC719BB9FEA01519390D3C692078219992BA405A85546BABFEEFC8699CE8C55D72EBAEDF0113FB652B80E3873ED6246D72CA26A18A23F9B49A8520E2E750779CCFD244F3946ED7A53FBDEEE
311
32D8F43A722B72CEF864FDAA2BB8750065A4C0D8807908D1A98C09FCCA36FB3DFA4F8E37E63844E36F58EAD697FD42EB4C750C52B476CA5E1630C33CDAA37748D4D7DDF286954C0F91B32E59AF92A0D63AD044A6D545C1D8674D9A2FBF8E30A038AB2F4EC1CB14B13C5FD3405290B934090E16811556674134A8BAF873F355
311
0A5C6433E78E8102CEEFBBCB777F6C1622CB445E2F6DE6F63AECAC1F70B98D37280ED4DC4AD46632F6269BEA36602F28DB90283A24B17AC402222B590B742FFCE0657D65441FAA3FB47223138A0386AE968E6D6CA8B48D7CB7B61A703077E4D4410E991BA5C998AE40F1EA85605489C20489513EF817504B03041400060800
311
00317C9244000000000000000000000000350000006662782F42453042303543302D304341412D343432312D384544342D3637413531383846333443432F76657274696365732E62696E504B0304140006080800317C9244F270F1330600000004000000360000006662782F42453042303543302D304341412D343432312D
311
384544342D3637413531383846333443432F747269616E676C65732E62696E636660600000504B0304140006080000317C9244000000000000000000000000370000006662782F42453042303543302D304341412D343432312D384544342D3637413531383846333443432F617474726962757465732E62696E504B030414
311
0006080800317C9244D5987DFC8F00000041010000360000006662782F42453042303543302D304341412D343432312D384544342D3637413531383846333443432F6469726563746F72792E786D6C858F410EC2201045AF4266AF15DDB800BA74E7C21B903225242D6328188F2FA5C4183471359997F9FF81E89FF3C41E18
311
16475E02DF1F80A11FC8386F25A438EECEC07A250251FC3803E6F58C12560C4AD840E95E91C151A72936F496F35732D860FE635F62C8F2DA16B505C545B74125BAA2FA9E05D7CC053D063734D5C7665FD55B6B8D15D5E9BFEAFD8490FFA45E504B0304140006080800317C92443CD78F4BFC000000A00100003B0000006662
311
782F42453042303543302D304341412D343432312D384544342D3637413531383846333443432F7265736F75726365732F636F72652E786D6C8D50596E833010BD0A9A7FB3191020E388A8E404BD806526D44AB09197AAC7AF09546AFFFA33337A8BE6E9B1CBD7FA4C3ED13A65F400459A43825A9A59E96580E0EFA485E4C2
311
9935C6FF9241A2C58A03EC3070B65813B61392467BD43EA2DACC7882C239F490C8673C0670F20357918AE0A3C23DD24DC88758302DD248471D67CEDB1820399EEC13B845678295E85876B09C85A0E653A3E6F853DD155AE0F4EDDA8CB7662263DB75A42A9B2B19CB7A225347EBBABA75351D3B96ED66CEBC5A7F324A8BC2E3
311
0CBCCC8B8AE41529DAF7A2EE29ED694DF2B6CF7396EDF23FA6B0CDFF3405A53D2DCFB887CD012F629017C159B6F715D7ABCCB8F76EF937504B010214000A0000080000317C92443DEE336E79000000790000001B00000000000000000000000000000000006175746F6465736B2D64657369676E2D7061636B6167652E786D
311
6C504B01021400140006080800317C9244D486FD9CA0000000F40000001300000000000000000000000000B20000005B436F6E74656E745F54797065735D2E786D6C504B01021400140006080800317C9244543DD27AEA0000007C010000080000000000000000000000000083010000636F72652E786D6C504B0102140014
311
0006080800317C924455019EA25F0000007C000000070000000000000000000000000093020000636E782E786D6C504B01021400140006080800317C9244C7E3CDB566010000020300000C00000000000000000000000000170300006662782F636F72652E786D6C504B01021400140006080800317C924444F8F5857E0000
311
009D0000000B00000000000000000000000000A70400006662782F636E782E786D6C504B01021400140006080800317C9244911994D62C0100001502000031000000000000000000000000004E0500006662782F42453042303543302D304341412D343432312D384544342D3637413531383846333443432F636F72652E78
311
6D6C504B01021400140006080800317C92441B85CCB44D010000330300003000000000000000000000000000C90600006662782F42453042303543302D304341412D343432312D384544342D3637413531383846333443432F636E782E786D6C504B01021400140006080800317C9244FEFC170DA405000080100000340000
311
0000000000000000000000640800006662782F42453042303543302D304341412D343432312D384544342D3637413531383846333443432F6F626A656374732E786D6C504B01021400140006080000317C924400000000000000000000000035000000000000000000000000005A0E00006662782F42453042303543302D30
311
4341412D343432312D384544342D3637413531383846333443432F76657274696365732E62696E504B01021400140006080800317C9244F270F13306000000040000003600000000000000000000000000AD0E00006662782F42453042303543302D304341412D343432312D384544342D3637413531383846333443432F74
311
7269616E676C65732E62696E504B01021400140006080000317C92440000000000000000000000003700000000000000000000000000070F00006662782F42453042303543302D304341412D343432312D384544342D3637413531383846333443432F617474726962757465732E62696E504B01021400140006080800317C
311
9244D5987DFC8F0000004101000036000000000000000000000000005C0F00006662782F42453042303543302D304341412D343432312D384544342D3637413531383846333443432F6469726563746F72792E786D6C504B01021400140006080800317C92443CD78F4BFC000000A00100003B000000000000000000000000
311
003F1000006662782F42453042303543302D304341412D343432312D384544342D3637413531383846333443432F7265736F75726365732F636F72652E786D6C504B0506000000000E000E0080040000941100000000
310
504B03040A0000080000317C92443DEE336E79000000790000001B0000006175746F6465736B2D64657369676E2D7061636B6167652E786D6C3C3F786D6C2076657273696F6E3D22312E302220656E636F64696E673D227574662D3822203F3E3C666F726D6174733E3C666F726D61743E687474703A2F2F736368656D612E
310
6175746F6465736B2E636F6D2F64657369676E2D7061636B6167652F323030393C2F666F726D61743E3C2F666F726D6174733E504B0304140006080800317C9244D486FD9CA0000000F4000000130000005B436F6E74656E745F54797065735D2E786D6C7D8EC10E82300C865F65E91D8A1E8C310C0EEA1BF002731658846E
310
D98AC1B77784ABF1D8FE5FBFBF75BBCE937A534CCEB38643598122B6FEE978D0B0485F9C41B54DDD7D022595594E1A469170414C76A4D9A4D207E29CF43ECE46F218070CC6BECC4078ACAA135ACF422C856C0E68EA1BF5669944DDD7BCDE7B1F8E415D77AECB980613C2E4AC91FC167A2B244592486606FC29C8FD7F045B9A
310
EF7053A7E60B504B0304140006080800317C924445B08A80EA0000007C01000008000000636F72652E786D6C8D904D6EC3201085AF82668F0DFEA9B185899AC83E412F800C715162B00C543D7E71E248EDAEAB19BD79DFCCE8F1D3F772475F7AF3C6D91E684600693B3965ECDC430C57CC009D04DF9C0BBF6C80AC5C740FBB
310
0C82CF9B8BEB214DCE066D4352AD53FA10A5F73A009AEEA9E9C14F9F7A91998C2139FC2D5BE57493B3CEE8AB4B708C46A1E711A3D23E73357A0331BE8DED40860B6EDE2B8AABA628703B8C35BE9C191BCEAC6909AD78BEC38207B3BCEE4F9B96412B10459A635261CA3E68DD956557D698B08E109EEFF63F505CD53FA1686C
310
288BE3DD27E641D0F4C8632078BE6791CA23A854F7DCC40F504B0304140006080800317C924455019EA25F0000007C00000007000000636E782E786D6C4DCB3B0E80201045D1AD90E915ED2CF8AC45050C11660C8261F98AB1B07AC9C97D42D718D865D3E909258CFD00CCE24AC6E326A164D74DC0B4128928FF326038472B
310
A13128B1252AC747C6BAB984FC68F0B87FE8960A5C09FE86CFB69FBA01504B0304140006080800317C92446E43B84066010000020300000C0000006662782F636F72652E786D6C8D52ED8E8320107C15C27FC4AF5E6D8334D7C63EC1BD0055EA912A1804D3C7BFF5A3F17A699A8B0992999DDDD95176B8B70D1AA4ED95D139
310
8E821023A94B53295DE7D8BB2BC9303A70668D71BFCA30D2A295391E61CC596D8DEF16A834DA49ED00D5A6920B28FA5E3A8CCA062E39EECB6FD98A40780715FD2DE8447913B50CA20068A8E3AC77160CA079C878627EBDDC199D71CEBC57D5C2AA0AA6A9AB9216F3F3C7795784C5896C3FD388A4DB3826BBE2BC21A7639615
310
C76CBB0BA394D151CC9953EDC35D69A570B2C23C069E842989B2AF68B34F927DB22161B60F4346C7F22791EFAA7F8ABCD22E8917BBB3ACC73C022313F1675B88C8A15E0CE0877246C710E13525FC1C340402213B71691E7BDC001A64E98C4D81A98C5FA941345EC2D4104D0FA3330B9DA706B0D9CB3EF19B3EEF7BC00714BA
310
066BC2C1F5E2DD389DCD5397283A69C9E0EE481BDB8A6635375B5CCF75D04B79691A63FFA3A6CBAA7409938E7F2FFF01504B0304140006080800317C9244D9CBB0F07D0000009D0000000B0000006662782F636E782E786D6C4DCCD10A83201886E15B91FFDC95CDD4033568E87DC4B290990EA76397BF1A1DECE883878F57
310
0E9F2DA0B7CB2F9FA202726901B9784FB38FAB825A162C000D5AE694CADF0D509C36A7E060D072CDA93E4F9ADD32D550760D3E3E4EEC2C17236506F3D1124CAD3158F09EE196F6DC7484D1EB8D42A365F32BED7B84F517504B0304140006080800317C9244B7A16BE42B01000015020000310000006662782F324637384234
310
36452D374246312D344645452D383735362D3034353745323136343343342F636F72652E786D6C8D51CB6E833010FC15CBA7F400D8C1181219474A45BEA03FE08093580936F2A3CAE77729446A6FB978ADD999D9D1AE383CC707FAD63E18675B4C738291B6BD1B8CBDB638C54BD6607490C23B17FFD030B26AD42D9E612CC5
310
D5BB34AD50EF6CD436026ADDA0575085A02346FD033E2D0EFD4D8F2A57290223DCF349F57775D539CDA10D3C2942F410002D43E617CBEDA96E8E8C77597D3CD18C9DBA2E6BEA8A67845575B7A59C959F4C148B508A94CCB0CACD0071CCC568FFAEC92C96229AF115BFF75A453D809E50061333DA7CD16A5F96FBB2CA48B327
310
441433FD9F284DC39BA2646C2CB76BDC4516B0A4A2581A520C2E9D1FAF30FA39391FD13C6F1374FF8125C909D9ED08671C36B070610360CAD96A1AA2F3B0E1CDFD0CF47275E64C8A623E1294DF0B429D0F2A7F00504B0304140006080800317C92447D2203A35401000033030000300000006662782F32463738423436452D
310
374246312D344645452D383735362D3034353745323136343343342F636E782E786D6CBD93CD6EC32010845F0571F75FEC44568489D4439FA0875E316C121A0C16E0AA79FB2E094973C9A152D50BB2668799D527CC765F93219FE0837676A04D595302563AA5ED61A04BDC173D253BCEBC73F1C1468915130C34C994B38377
310
CB9C25057BB19888AAD1F694450FC12D5E424039DD24C6496130006CB1A008D3084A812277237EEDC1E32A288E67128F405E5FDE891B3F40C6C0AA94C259953A384B676E7A3051228D0861A0411E6112A558A253104EA51251944D79EB7AB2D34F1249176E958BD724950F349D94E78D4AE4C82A1C7216A2477AD914CF3350
310
2EE6D968292242AE2EC6AB87B345DBB8E9B25723788FEE76B5E97B0CBBCC388B7A82EC901E440445F9AA6EBAA2EE8AA67F6BD6DBB6DDB6EBA2EEB775CDAA64E76C74CEE44B1803DECD443A1BC146CA1B56A5F1337CD94794F6C8DAF9F32F402280DC7AA573CFF84B3ECDA6EDBA7FE4535DDE37E2F2F817F06F504B03041400
310
06080800317C92449E70785162070000991B0000340000006662782F32463738423436452D374246312D344645452D383735362D3034353745323136343343342F6F626A656374732E786D6CED59DD739B3810FF5718EEE5EEC1D8D84EDBDC106E1C3BE9783A693BF5B5730F9E616490892E4230924893FBEB6FF501066212
310
7CCDBDF5C10684B4DAFDEDA796E08F878C3AF7980B92B30BD7F726AE83599C2784A5176E29F7A377AEF34718F03C978D69AEC350862F5C35EC8641CAF3B2B04309DEA392CACEE8F5E55F8E8831C3AE135324C4852BE25B9C210F95324FB0B8F312249197EE1F3CDF3313DB64538E8ADB0ED10271CC24700AE30CA8388629BF
310
FD3871C7613056EFC340FDDB59B341B3E6FDB3C65AEA369784098958FC84A50E99D9209666FE7C75353D3B1F9DCDE7B3D1FCCDD41F5D5E5FAE46FEDBD964F966B93C5F5C9D037BBB3CA756A604179825A0BF4737F483B17A538B6E1138C6759C3386630D2440A5C5EA122458C0560DF826ED475F49D478AD256C3CCFD57BCB
310
426378D6A6D2376B18102DBA2088DDAE92B8BA36E5CB777F83E0628851728125702B2407ED5A783878851B4E82B1190D83DD4117443819929813441D4A761C71500A4C5553C2C02CB06494737020E52809B4E6CCEBB66D8167BEEC3AC7B8DC97942ACF7043ED5811B81F96427346FEC1FCC07D1319E009A42D0993EF2C97F2
310
B1C06E781E8CF56018A8CB6C6A5F1A209D3D45A9D08898B71D4197CAF5D72B37FC70BD7BD8A870707CF382E705E652199DD2A3E60B0CD95E154A765B7F90E6D40210C6806A571E40F902C87F84E8716005F4C6C9C3FC616EE74A8E98D8E73C03DD3813673481BF89E3EB7F75DFB80BC6F5E2B6F6FAF004375550BDFB713CDB
310
3268AC2CFF0D38C3E01E0C3EE733FB6A13230AF67C431800A48CC4A1390C4168DFEF1EDC700D8113023DAC4234F4416460F71E6E83B12573D04AE55ED6EB18206AF7980D5112C0A62D12D8E8D1D37BC81E9CC407353545EC83F7EC55CC75B1DA7CD8947C8F627C637D7A85F784110959F338432DCC5B12DDE1C7EF394F40D0
310
A7786F9A7867762B01682BCC15F06905827A38ECDCDA20867569AEC24DF0C20E2084CAD50DFA3744C49852C4705E56FBD6D14D196AEDF1B66670C3A9817836ED9830C7F7445515E03487192D4621EFC79C140A44377C6F24AB83A6D723DDD7F547B0C87A7ECFAC3583D0CB10FD5307AD2338B42CBB42DA02510BBC3B84F338
310
A7398F768F9189742ED412C046DB5BBEB58842AC374A5254C083B4DF55212535D24609D9EF4B0171F5088BDFD6CBA6394CBC997FE634FF3BCE3887680BBE8BB8F5BBCE1E11C9508AA33D4AFAB66BEE56D3169A640F698EF714E422F7443E4648469304A7A7407312F1F357A59ED25C08C2B0807C7514FC261A130F0289D166
310
C5B2D26A076822A20C4B444F414091E90157A71D5DE3C6503ABCCC636DBDCF69AC49F47FB2088EA096CC5944A014851CF222E3BE770631A48DAE41B9832F585B455B8B414B2821E2C7E83B26E9AD3C057543BE07F7188E24A58CF202C560D603C83EF115A5D40EEF3B14DFA9FC11C5257D2D031198EE2342699945F0230C4E
310
1E435CBB0E4CCFA2D0206E629FC419146548967CC8266FCE264FF631354337043636DA130A613BCA50D1837A2B20EA7AC4A9C1B7D47B94BA2BB32242595EB24186E2CDBADE64C977D5AAC80EE457958A503656842DC130204CD659B58AD960EA3AB0821BE940F518099415D49CC25E483C7EED4D9A72EF06DCFAE9EB6E9041
310
E1D7A3BD66449D5730581E5B8581F88E647CEB861B7D1D5D42FD9DE0E490EAAB5AB3590102622A92979C58157D5D4379636B3437BC41526CDF9BAC5B5DBFAE3DE87E04635803B54BBD70AD80CE309348552637EA867E4110825B34CCF85AE5D453A82C9244578D885E933E75B6CA88D6A619F18A5BCCF20C7E6C4B584CCB04
310
6F5122EEA21B49A30D51AC5B29BD8C54183F2BE0A7F79B0E3C303240A4CFAAC0C3DF3B6BEDE852954B4789C8DB32DB31442008B6444B8D6EBC82A556239596EBAB3A5340DD050666553CFF79B268B6237E9E2C526B183F76B2A0F90ED143B46964F35899F549A7803A3D292AAF710AD05D879A6A9D444C2EB7E25B5F8A2026
310
56417E703156C50C43B08FE3FF9CB4FB92A0D9AEC3FF6949DB7F52709C94545A935593EA48E1BA6EA6B0C5ECDA5FACA6F3D1E56AFA76345FAEAE468BD9D56474F576B25C9C2FCECEA7F3798DA6F6D330A863994E5DF06C625A35AC9E2C06D094153925091CE61327C510F2251CE90774CF798605E4CE66AF3BB13DF901ABEF
310
4D9B53A21DC51527B708FAC3544056078CCA58B6C79D5FA03329E19C7DE142CFC8BB833F6B95AE0389E7C2854E81243116DE0EBA4CAA9FA78943C6D5A9DF12037C104B5546348BEAE77A95C2A615FDEB2943B28095ABD5C280BAAD80E657AB41A179B33CC527095EB1E32009B7BB5242B16664390CD4C2E86D0EEA37B251C2
310
EEECD60FE0BACF8BE57B7A4E0B91415F0C9E3502437524114F75BB5B3166595AAC3E8FA1CDE6AC3F39052D53D0E5704A238EC1984B554F81158155589A059260AACBDFB79F790E5F7832471745CEAF0FEFDEFCB65DE659963333B45DC0A12C81EF44CEE616BEFA245BA81DB0EAAD8BED74E24FB7BAA76DDBECD10E09ECA9A2
310
0806AA5A4209D23139B0CB27FD29DBBD1C2B5574A6AF578E0DA2D00B3076F4A4C56BBE7139E043EA6B8AF218EDE795B4CFB6B5C77A2AD804878674F82F504B0304140006080000317C9244000000000000000000000000350000006662782F32463738423436452D374246312D344645452D383735362D3034353745323136
310
343343342F76657274696365732E62696E504B0304140006080800317C9244F270F1330600000004000000360000006662782F32463738423436452D374246312D344645452D383735362D3034353745323136343343342F747269616E676C65732E62696E636660600000504B0304140006080000317C9244000000000000
310
000000000000370000006662782F32463738423436452D374246312D344645452D383735362D3034353745323136343343342F617474726962757465732E62696E504B0304140006080800317C9244D5987DFC8F00000041010000360000006662782F32463738423436452D374246312D344645452D383735362D30343537
310
45323136343343342F6469726563746F72792E786D6C858F410EC2201045AF4266AF15DDB800BA74E7C21B903225242D6328188F2FA5C4183471359997F9FF81E89FF3C41E1816475E02DF1F80A11FC8386F25A438EECEC07A250251FC3803E6F58C12560C4AD840E95E91C151A72936F496F35732D860FE635F62C8F2DA16
310
B505C545B74125BAA2FA9E05D7CC053D063734D5C7665FD55B6B8D15D5E9BFEAFD8490FFA45E504B0304140006080800317C9244561BA418FC000000A00100003B0000006662782F32463738423436452D374246312D344645452D383735362D3034353745323136343343342F7265736F75726365732F636F72652E786D6C
310
8D50596E833010BD0A9A7F83CD5248641C950A4ED00B5866925A0936F252F5F835814AED5F7F66466FD13C3D7EF95A1ED9273AAFADE981E5143234CACEDADC7A88E14A3AC82E823B6BC32F1964462ED8C30683E03767E37A40CA9A802624D4D8190F507A8F0132F548470F5E7DE02273194352F87BBE4A759737CC599EE8A4
310
13DC07970264FB936D8270E86D740A3D2F7656F018F57C68F49C7EEAAB4607627A994E231D07D2BED68CD46D5992D33835E46DE8BA71E8DA1365352F36B3E0412F3F19954319700651269ED09AB0EE9D35E7AA3A570DA1DD99525E6CF23FA6B8CEFF34456D42551E71779B07C15290272178B1F595D6B3CCB4B76EC537504B
310
010214000A0000080000317C92443DEE336E79000000790000001B00000000000000000000000000000000006175746F6465736B2D64657369676E2D7061636B6167652E786D6C504B01021400140006080800317C9244D486FD9CA0000000F40000001300000000000000000000000000B20000005B436F6E74656E745F54
310
797065735D2E786D6C504B01021400140006080800317C924445B08A80EA0000007C010000080000000000000000000000000083010000636F72652E786D6C504B01021400140006080800317C924455019EA25F0000007C000000070000000000000000000000000093020000636E782E786D6C504B010214001400060808
310
00317C92446E43B84066010000020300000C00000000000000000000000000170300006662782F636F72652E786D6C504B01021400140006080800317C9244D9CBB0F07D0000009D0000000B00000000000000000000000000A70400006662782F636E782E786D6C504B01021400140006080800317C9244B7A16BE42B0100
310
001502000031000000000000000000000000004D0500006662782F32463738423436452D374246312D344645452D383735362D3034353745323136343343342F636F72652E786D6C504B01021400140006080800317C92447D2203A354010000330300003000000000000000000000000000C70600006662782F3246373842
310
3436452D374246312D344645452D383735362D3034353745323136343343342F636E782E786D6C504B01021400140006080800317C92449E70785162070000991B00003400000000000000000000000000690800006662782F32463738423436452D374246312D344645452D383735362D3034353745323136343343342F6F
310
626A656374732E786D6C504B01021400140006080000317C924400000000000000000000000035000000000000000000000000001D1000006662782F32463738423436452D374246312D344645452D383735362D3034353745323136343343342F76657274696365732E62696E504B01021400140006080800317C9244F270
310
F13306000000040000003600000000000000000000000000701000006662782F32463738423436452D374246312D344645452D383735362D3034353745323136343343342F747269616E676C65732E62696E504B01021400140006080000317C92440000000000000000000000003700000000000000000000000000CA1000
310
006662782F32463738423436452D374246312D344645452D383735362D3034353745323136343343342F617474726962757465732E62696E504B01021400140006080800317C9244D5987DFC8F0000004101000036000000000000000000000000001F1100006662782F32463738423436452D374246312D344645452D3837
310
35362D3034353745323136343343342F6469726563746F72792E786D6C504B01021400140006080800317C9244561BA418FC000000A00100003B00000000000000000000000000021200006662782F32463738423436452D374246312D344645452D383735362D3034353745323136343343342F7265736F75726365732F63
310
6F72652E786D6C504B0506000000000E000E0080040000571300000000
  0
XRECORD
  5
E
102
{ACAD_REACTORS
330
A
102
}
330
A
100
AcDbXrecord
280
     1
270
     1
271
     1
  0
XRECORD
  5
F
102
{ACAD_REACTORS
330
A
102
}
330
A
100
AcDbXrecord
280
     1
270
     1
271
     1
  0
XRECORD
  5
10
102
{ACAD_REACTORS
330
A
102
}
330
A
100
AcDbXrecord
280
     1
270
     1
271
     1
  0
XRECORD
  5
11
102
{ACAD_REACTORS
330
A
102
}
330
A
100
AcDbXrecord
280
     1
270
     1
271
     1
  0
XRECORD
  5
142
102
{ACAD_REACTORS
330
141
102
}
330
141
100
AcDbXrecord
280
     1
102
ACAD_ROUNDTRIP_2012_MLEADER_STYLE
298
     1
  0
CELLSTYLEMAP
  5
140
102
{ACAD_REACTORS
330
47
102
}
330
47
100
AcDbCellStyleMap
 90
        3
300
CELLSTYLE
  1
TABLEFORMAT_BEGIN
 90
        5
170
     1
 91
        0
 92
    32768
 62
   257
 93
        1
300
CONTENTFORMAT
  1
CONTENTFORMAT_BEGIN
 90
        0
 91
        0
 92
      512
 93
        0
300

 40
0.0
140
1.0
 94
        5
 62
     0
340
1C
144
0.25
309
CONTENTFORMAT_END
171
     0
 94
        0
309
TABLEFORMAT_END
  1
CELLSTYLE_BEGIN
 90
        1
 91
        1
300
_TITLE
309
CELLSTYLE_END
300
CELLSTYLE
  1
TABLEFORMAT_BEGIN
 90
        5
170
     1
 91
        0
 92
        0
 62
   257
 93
        1
300
CONTENTFORMAT
  1
CONTENTFORMAT_BEGIN
 90
        0
 91
        0
 92
      512
 93
        0
300

 40
0.0
140
1.0
 94
        5
 62
     0
340
1C
144
0.18
309
CONTENTFORMAT_END
171
     0
 94
        0
309
TABLEFORMAT_END
  1
CELLSTYLE_BEGIN
 90
        2
 91
        1
300
_HEADER
309
CELLSTYLE_END
300
CELLSTYLE
  1
TABLEFORMAT_BEGIN
 90
        5
170
     1
 91
        0
 92
        0
 62
   257
 93
        1
300
CONTENTFORMAT
  1
CONTENTFORMAT_BEGIN
 90
        0
 91
        0
 92
      512
 93
        0
300

 40
0.0
140
1.0
 94
        2
 62
     0
340
1C
144
0.18
309
CONTENTFORMAT_END
171
     0
 94
        0
309
TABLEFORMAT_END
  1
CELLSTYLE_BEGIN
 90
        3
 91
        2
300
_DATA
309
CELLSTYLE_END
  0
XRECORD
  5
14E
102
{ACAD_REACTORS
330
47
102
}
330
47
100
AcDbXrecord
280
     1
102
ACAD_ROUNDTRIP_PRE2007_TABLESTYLE
 90
      512
 91
        0
  1

 92
      512
 93
        0
  2

 94
      512
 95
        0
  3

  0
XRECORD
  5
14B
102
{ACAD_REACTORS
330
14A
102
}
330
14A
100
AcDbXrecord
280
     1
102
RTVSPropertyOp0
 70
     1
102
RTVSPropertyOp1
 70
     1
102
RTVSPropertyOp2
 70
     1
102
RTVSPropertyOp3
 70
     1
102
RTVSPropertyOp4
 70
     1
102
RTVSPropertyOp5
 70
     1
102
RTVSPropertyOp6
 70
     1
102
RTVSPropertyOp7
 70
     1
102
RTVSPropertyOp8
 70
     1
102
RTVSPropertyOp9
 70
     1
102
RTVSPropertyOp10
 70
     1
102
RTVSPropertyOp11
 70
     1
102
RTVSPropertyOp12
 70
     1
102
RTVSPropertyOp13
 70
     1
102
RTVSPropertyOp14
 70
     1
102
RTVSPropertyOp15
 70
     1
102
RTVSPropertyOp16
 70
     1
102
RTVSPropertyOp17
 70
     1
102
RTVSPropertyOp18
 70
     1
102
RTVSPropertyOp19
 70
     1
102
RTVSPropertyOp20
 70
     1
102
RTVSPropertyOp21
 70
     1
102
RTVSPropertyOp22
 70
     1
102
RTVSPropertyOp23
 70
     1
102
RTVSPropertyOp24
 70
     1
102
RTVSPropertyOp25
 70
     1
102
RTVSPropertyOp26
 70
     1
102
RTVSPropertyOp27
 70
     1
102
RTVSPropertyOp28
 70
     1
102
RTVSPropertyOp29
 70
     1
102
RTVSPropertyOp30
 70
     1
102
RTVSPropertyOp31
 70
     1
102
RTVSPropertyOp32
 70
     1
  0
XRECORD
  5
15C
102
{ACAD_REACTORS
330
15B
102
}
330
15B
100
AcDbXrecord
280
     1
102
RTVSPropertyOp0
 70
     1
102
RTVSPropertyOp1
 70
     1
102
RTVSPropertyOp2
 70
     1
102
RTVSPropertyOp3
 70
     1
102
RTVSPropertyOp4
 70
     1
102
RTVSPropertyOp5
 70
     1
102
RTVSPropertyOp6
 70
     1
102
RTVSPropertyOp7
 70
     1
102
RTVSPropertyOp8
 70
     1
102
RTVSPropertyOp9
 70
     1
102
RTVSPropertyOp10
 70
     1
102
RTVSPropertyOp11
 70
     1
102
RTVSPropertyOp12
 70
     1
102
RTVSPropertyOp13
 70
     1
102
RTVSPropertyOp14
 70
     1
102
RTVSPropertyOp15
 70
     1
102
RTVSPropertyOp16
 70
     1
102
RTVSPropertyOp17
 70
     1
102
RTVSPropertyOp18
 70
     1
102
RTVSPropertyOp19
 70
     1
102
RTVSPropertyOp20
 70
     1
102
RTVSPropertyOp21
 70
     1
102
RTVSPropertyOp22
 70
     1
102
RTVSPropertyOp23
 70
     1
102
RTVSPropertyOp24
 70
     1
102
RTVSPropertyOp25
 70
     1
102
RTVSPropertyOp26
 70
     1
102
RTVSPropertyOp27
 70
     1
102
RTVSPropertyOp28
 70
     1
102
RTVSPropertyOp29
 70
     1
102
RTVSPropertyOp30
 70
     1
102
RTVSPropertyOp31
 70
     1
102
RTVSPropertyOp32
 70
     1
  0
XRECORD
  5
164
102
{ACAD_REACTORS
330
163
102
}
330
163
100
AcDbXrecord
280
     1
102
RTVSPropertyOp0
 70
     1
102
RTVSPropertyOp1
 70
     1
102
RTVSPropertyOp2
 70
     1
102
RTVSPropertyOp3
 70
     1
102
RTVSPropertyOp4
 70
     1
102
RTVSPropertyOp5
 70
     1
102
RTVSPropertyOp6
 70
     1
102
RTVSPropertyOp7
 70
     1
102
RTVSPropertyOp8
 70
     1
102
RTVSPropertyOp9
 70
     1
102
RTVSPropertyOp10
 70
     1
102
RTVSPropertyOp11
 70
     1
102
RTVSPropertyOp12
 70
     1
102
RTVSPropertyOp13
 70
     1
102
RTVSPropertyOp14
 70
     1
102
RTVSPropertyOp15
 70
     1
102
RTVSPropertyOp16
 70
     1
102
RTVSPropertyOp17
 70
     1
102
RTVSPropertyOp18
 70
     1
102
RTVSPropertyOp19
 70
     1
102
RTVSPropertyOp20
 70
     1
102
RTVSPropertyOp21
 70
     1
102
RTVSPropertyOp22
 70
     1
102
RTVSPropertyOp23
 70
     1
102
RTVSPropertyOp24
 70
     1
102
RTVSPropertyOp25
 70
     1
102
RTVSPropertyOp26
 70
     1
102
RTVSPropertyOp27
 70
     1
102
RTVSPropertyOp28
 70
     1
102
RTVSPropertyOp29
 70
     1
102
RTVSPropertyOp30
 70
     1
102
RTVSPropertyOp31
 70
     1
102
RTVSPropertyOp32
 70
     1
  0
XRECORD
  5
16C
102
{ACAD_REACTORS
330
16B
102
}
330
16B
100
AcDbXrecord
280
     1
102
RTVSPropertyOp0
 70
     1
102
RTVSPropertyOp1
 70
     1
102
RTVSPropertyOp2
 70
     1
102
RTVSPropertyOp3
 70
     1
102
RTVSPropertyOp4
 70
     1
102
RTVSPropertyOp5
 70
     1
102
RTVSPropertyOp6
 70
     1
102
RTVSPropertyOp7
 70
     1
102
RTVSPropertyOp8
 70
     1
102
RTVSPropertyOp9
 70
     1
102
RTVSPropertyOp10
 70
     1
102
RTVSPropertyOp11
 70
     1
102
RTVSPropertyOp12
 70
     1
102
RTVSPropertyOp13
 70
     1
102
RTVSPropertyOp14
 70
     1
102
RTVSPropertyOp15
 70
     1
102
RTVSPropertyOp16
 70
     1
102
RTVSPropertyOp17
 70
     1
102
RTVSPropertyOp18
 70
     1
102
RTVSPropertyOp19
 70
     1
102
RTVSPropertyOp20
 70
     1
102
RTVSPropertyOp21
 70
     1
102
RTVSPropertyOp22
 70
     1
102
RTVSPropertyOp23
 70
     1
102
RTVSPropertyOp24
 70
     1
102
RTVSPropertyOp25
 70
     1
102
RTVSPropertyOp26
 70
     1
102
RTVSPropertyOp27
 70
     1
102
RTVSPropertyOp28
 70
     1
102
RTVSPropertyOp29
 70
     1
102
RTVSPropertyOp30
 70
     1
102
RTVSPropertyOp31
 70
     1
102
RTVSPropertyOp32
 70
     1
  0
XRECORD
  5
160
102
{ACAD_REACTORS
330
15F
102
}
330
15F
100
AcDbXrecord
280
     1
102
RTVSPropertyOp0
 70
     1
102
RTVSPropertyOp1
 70
     1
102
RTVSPropertyOp2
 70
     1
102
RTVSPropertyOp3
 70
     1
102
RTVSPropertyOp4
 70
     1
102
RTVSPropertyOp5
 70
     1
102
RTVSPropertyOp6
 70
     1
102
RTVSPropertyOp7
 70
     1
102
RTVSPropertyOp8
 70
     1
102
RTVSPropertyOp9
 70
     1
102
RTVSPropertyOp10
 70
     1
102
RTVSPropertyOp11
 70
     1
102
RTVSPropertyOp12
 70
     1
102
RTVSPropertyOp13
 70
     1
102
RTVSPropertyOp14
 70
     1
102
RTVSPropertyOp15
 70
     1
102
RTVSPropertyOp16
 70
     1
102
RTVSPropertyOp17
 70
     1
102
RTVSPropertyOp18
 70
     1
102
RTVSPropertyOp19
 70
     1
102
RTVSPropertyOp20
 70
     1
102
RTVSPropertyOp21
 70
     1
102
RTVSPropertyOp22
 70
     1
102
RTVSPropertyOp23
 70
     1
102
RTVSPropertyOp24
 70
     1
102
RTVSPropertyOp25
 70
     1
102
RTVSPropertyOp26
 70
     1
102
RTVSPropertyOp27
 70
     1
102
RTVSPropertyOp28
 70
     1
102
RTVSPropertyOp29
 70
     1
102
RTVSPropertyOp30
 70
     1
102
RTVSPropertyOp31
 70
     1
102
RTVSPropertyOp32
 70
     1
  0
XRECORD
  5
162
102
{ACAD_REACTORS
330
161
102
}
330
161
100
AcDbXrecord
280
     1
102
RTVSPropertyOp0
 70
     1
102
RTVSPropertyOp1
 70
     1
102
RTVSPropertyOp2
 70
     1
102
RTVSPropertyOp3
 70
     1
102
RTVSPropertyOp4
 70
     1
102
RTVSPropertyOp5
 70
     1
102
RTVSPropertyOp6
 70
     1
102
RTVSPropertyOp7
 70
     1
102
RTVSPropertyOp8
 70
     1
102
RTVSPropertyOp9
 70
     1
102
RTVSPropertyOp10
 70
     1
102
RTVSPropertyOp11
 70
     1
102
RTVSPropertyOp12
 70
     1
102
RTVSPropertyOp13
 70
     1
102
RTVSPropertyOp14
 70
     1
102
RTVSPropertyOp15
 70
     1
102
RTVSPropertyOp16
 70
     1
102
RTVSPropertyOp17
 70
     1
102
RTVSPropertyOp18
 70
     1
102
RTVSPropertyOp19
 70
     1
102
RTVSPropertyOp20
 70
     1
102
RTVSPropertyOp21
 70
     1
102
RTVSPropertyOp22
 70
     1
102
RTVSPropertyOp23
 70
     1
102
RTVSPropertyOp24
 70
     1
102
RTVSPropertyOp25
 70
     1
102
RTVSPropertyOp26
 70
     1
102
RTVSPropertyOp27
 70
     1
102
RTVSPropertyOp28
 70
     1
102
RTVSPropertyOp29
 70
     1
102
RTVSPropertyOp30
 70
     1
102
RTVSPropertyOp31
 70
     1
102
RTVSPropertyOp32
 70
     1
  0
XRECORD
  5
17C
102
{ACAD_REACTORS
330
17B
102
}
330
17B
100
AcDbXrecord
280
     1
102
RTVSPropertyOp0
 70
     0
102
RTVSPropertyOp1
 70
     0
102
RTVSPropertyOp2
 70
     0
102
RTVSPropertyOp3
 70
     0
102
RTVSPropertyOp4
 70
     0
102
RTVSPropertyOp5
 70
     0
102
RTVSPropertyOp6
 70
     0
102
RTVSPropertyOp7
 70
     0
102
RTVSPropertyOp8
 70
     0
102
RTVSPropertyOp9
 70
     0
102
RTVSPropertyOp10
 70
     0
102
RTVSPropertyOp11
 70
     0
102
RTVSPropertyOp12
 70
     0
102
RTVSPropertyOp13
 70
     0
102
RTVSPropertyOp14
 70
     2
102
RTVSPropertyOp15
 70
     0
102
RTVSPropertyOp16
 70
     0
102
RTVSPropertyOp17
 70
     0
102
RTVSPropertyOp18
 70
     0
102
RTVSPropertyOp19
 70
     0
102
RTVSPropertyOp20
 70
     0
102
RTVSPropertyOp21
 70
     0
102
RTVSPropertyOp22
 70
     0
102
RTVSPropertyOp23
 70
     0
102
RTVSPropertyOp24
 70
     0
102
RTVSPropertyOp25
 70
     0
102
RTVSPropertyOp26
 70
     0
102
RTVSPropertyOp27
 70
     0
102
RTVSPropertyOp28
 70
     0
102
RTVSPropertyOp29
 70
     0
102
RTVSPropertyOp30
 70
     0
102
RTVSPropertyOp31
 70
     0
102
RTVSPropertyOp32
 70
     0
  0
XRECORD
  5
16A
102
{ACAD_REACTORS
330
169
102
}
330
169
100
AcDbXrecord
280
     1
102
RTVSPropertyOp0
 70
     1
102
RTVSPropertyOp1
 70
     1
102
RTVSPropertyOp2
 70
     1
102
RTVSPropertyOp3
 70
     1
102
RTVSPropertyOp4
 70
     1
102
RTVSPropertyOp5
 70
     1
102
RTVSPropertyOp6
 70
     1
102
RTVSPropertyOp7
 70
     1
102
RTVSPropertyOp8
 70
     1
102
RTVSPropertyOp9
 70
     1
102
RTVSPropertyOp10
 70
     1
102
RTVSPropertyOp11
 70
     1
102
RTVSPropertyOp12
 70
     1
102
RTVSPropertyOp13
 70
     1
102
RTVSPropertyOp14
 70
     1
102
RTVSPropertyOp15
 70
     1
102
RTVSPropertyOp16
 70
     1
102
RTVSPropertyOp17
 70
     1
102
RTVSPropertyOp18
 70
     1
102
RTVSPropertyOp19
 70
     1
102
RTVSPropertyOp20
 70
     1
102
RTVSPropertyOp21
 70
     1
102
RTVSPropertyOp22
 70
     1
102
RTVSPropertyOp23
 70
     1
102
RTVSPropertyOp24
 70
     1
102
RTVSPropertyOp25
 70
     1
102
RTVSPropertyOp26
 70
     1
102
RTVSPropertyOp27
 70
     1
102
RTVSPropertyOp28
 70
     1
102
RTVSPropertyOp29
 70
     1
102
RTVSPropertyOp30
 70
     1
102
RTVSPropertyOp31
 70
     1
102
RTVSPropertyOp32
 70
     1
  0
XRECORD
  5
154
102
{ACAD_REACTORS
330
153
102
}
330
153
100
AcDbXrecord
280
     1
102
RTVSPropertyOp0
 70
     1
102
RTVSPropertyOp1
 70
     1
102
RTVSPropertyOp2
 70
     1
102
RTVSPropertyOp3
 70
     1
102
RTVSPropertyOp4
 70
     1
102
RTVSPropertyOp5
 70
     1
102
RTVSPropertyOp6
 70
     1
102
RTVSPropertyOp7
 70
     1
102
RTVSPropertyOp8
 70
     1
102
RTVSPropertyOp9
 70
     1
102
RTVSPropertyOp10
 70
     1
102
RTVSPropertyOp11
 70
     1
102
RTVSPropertyOp12
 70
     1
102
RTVSPropertyOp13
 70
     1
102
RTVSPropertyOp14
 70
     1
102
RTVSPropertyOp15
 70
     1
102
RTVSPropertyOp16
 70
     1
102
RTVSPropertyOp17
 70
     1
102
RTVSPropertyOp18
 70
     1
102
RTVSPropertyOp19
 70
     1
102
RTVSPropertyOp20
 70
     1
102
RTVSPropertyOp21
 70
     1
102
RTVSPropertyOp22
 70
     1
102
RTVSPropertyOp23
 70
     1
102
RTVSPropertyOp24
 70
     1
102
RTVSPropertyOp25
 70
     1
102
RTVSPropertyOp26
 70
     1
102
RTVSPropertyOp27
 70
     1
102
RTVSPropertyOp28
 70
     1
102
RTVSPropertyOp29
 70
     1
102
RTVSPropertyOp30
 70
     1
102
RTVSPropertyOp31
 70
     1
102
RTVSPropertyOp32
 70
     1
  0
XRECORD
  5
156
102
{ACAD_REACTORS
330
155
102
}
330
155
100
AcDbXrecord
280
     1
102
RTVSPropertyOp0
 70
     1
102
RTVSPropertyOp1
 70
     1
102
RTVSPropertyOp2
 70
     1
102
RTVSPropertyOp3
 70
     1
102
RTVSPropertyOp4
 70
     1
102
RTVSPropertyOp5
 70
     1
102
RTVSPropertyOp6
 70
     1
102
RTVSPropertyOp7
 70
     1
102
RTVSPropertyOp8
 70
     1
102
RTVSPropertyOp9
 70
     1
102
RTVSPropertyOp10
 70
     1
102
RTVSPropertyOp11
 70
     1
102
RTVSPropertyOp12
 70
     1
102
RTVSPropertyOp13
 70
     1
102
RTVSPropertyOp14
 70
     1
102
RTVSPropertyOp15
 70
     1
102
RTVSPropertyOp16
 70
     1
102
RTVSPropertyOp17
 70
     1
102
RTVSPropertyOp18
 70
     1
102
RTVSPropertyOp19
 70
     1
102
RTVSPropertyOp20
 70
     1
102
RTVSPropertyOp21
 70
     1
102
RTVSPropertyOp22
 70
     1
102
RTVSPropertyOp23
 70
     1
102
RTVSPropertyOp24
 70
     1
102
RTVSPropertyOp25
 70
     1
102
RTVSPropertyOp26
 70
     1
102
RTVSPropertyOp27
 70
     1
102
RTVSPropertyOp28
 70
     1
102
RTVSPropertyOp29
 70
     1
102
RTVSPropertyOp30
 70
     1
102
RTVSPropertyOp31
 70
     1
102
RTVSPropertyOp32
 70
     1
  0
XRECORD
  5
158
102
{ACAD_REACTORS
330
157
102
}
330
157
100
AcDbXrecord
280
     1
102
RTVSPropertyOp0
 70
     1
102
RTVSPropertyOp1
 70
     1
102
RTVSPropertyOp2
 70
     1
102
RTVSPropertyOp3
 70
     1
102
RTVSPropertyOp4
 70
     1
102
RTVSPropertyOp5
 70
     1
102
RTVSPropertyOp6
 70
     1
102
RTVSPropertyOp7
 70
     1
102
RTVSPropertyOp8
 70
     1
102
RTVSPropertyOp9
 70
     1
102
RTVSPropertyOp10
 70
     1
102
RTVSPropertyOp11
 70
     1
102
RTVSPropertyOp12
 70
     1
102
RTVSPropertyOp13
 70
     1
102
RTVSPropertyOp14
 70
     1
102
RTVSPropertyOp15
 70
     1
102
RTVSPropertyOp16
 70
     1
102
RTVSPropertyOp17
 70
     1
102
RTVSPropertyOp18
 70
     1
102
RTVSPropertyOp19
 70
     1
102
RTVSPropertyOp20
 70
     1
102
RTVSPropertyOp21
 70
     1
102
RTVSPropertyOp22
 70
     1
102
RTVSPropertyOp23
 70
     1
102
RTVSPropertyOp24
 70
     1
102
RTVSPropertyOp25
 70
     1
102
RTVSPropertyOp26
 70
     1
102
RTVSPropertyOp27
 70
     1
102
RTVSPropertyOp28
 70
     1
102
RTVSPropertyOp29
 70
     1
102
RTVSPropertyOp30
 70
     1
102
RTVSPropertyOp31
 70
     1
102
RTVSPropertyOp32
 70
     1
  0
XRECORD
  5
15A
102
{ACAD_REACTORS
330
159
102
}
330
159
100
AcDbXrecord
280
     1
102
RTVSPropertyOp0
 70
     1
102
RTVSPropertyOp1
 70
     1
102
RTVSPropertyOp2
 70
     1
102
RTVSPropertyOp3
 70
     1
102
RTVSPropertyOp4
 70
     1
102
RTVSPropertyOp5
 70
     1
102
RTVSPropertyOp6
 70
     1
102
RTVSPropertyOp7
 70
     1
102
RTVSPropertyOp8
 70
     1
102
RTVSPropertyOp9
 70
     1
102
RTVSPropertyOp10
 70
     1
102
RTVSPropertyOp11
 70
     1
102
RTVSPropertyOp12
 70
     1
102
RTVSPropertyOp13
 70
     1
102
RTVSPropertyOp14
 70
     1
102
RTVSPropertyOp15
 70
     1
102
RTVSPropertyOp16
 70
     1
102
RTVSPropertyOp17
 70
     1
102
RTVSPropertyOp18
 70
     1
102
RTVSPropertyOp19
 70
     1
102
RTVSPropertyOp20
 70
     1
102
RTVSPropertyOp21
 70
     1
102
RTVSPropertyOp22
 70
     1
102
RTVSPropertyOp23
 70
     1
102
RTVSPropertyOp24
 70
     1
102
RTVSPropertyOp25
 70
     1
102
RTVSPropertyOp26
 70
     1
102
RTVSPropertyOp27
 70
     1
102
RTVSPropertyOp28
 70
     1
102
RTVSPropertyOp29
 70
     1
102
RTVSPropertyOp30
 70
     1
102
RTVSPropertyOp31
 70
     1
102
RTVSPropertyOp32
 70
     1
  0
XRECORD
  5
15E
102
{ACAD_REACTORS
330
15D
102
}
330
15D
100
AcDbXrecord
280
     1
102
RTVSPropertyOp0
 70
     1
102
RTVSPropertyOp1
 70
     1
102
RTVSPropertyOp2
 70
     1
102
RTVSPropertyOp3
 70
     1
102
RTVSPropertyOp4
 70
     1
102
RTVSPropertyOp5
 70
     1
102
RTVSPropertyOp6
 70
     1
102
RTVSPropertyOp7
 70
     1
102
RTVSPropertyOp8
 70
     1
102
RTVSPropertyOp9
 70
     1
102
RTVSPropertyOp10
 70
     1
102
RTVSPropertyOp11
 70
     1
102
RTVSPropertyOp12
 70
     1
102
RTVSPropertyOp13
 70
     1
102
RTVSPropertyOp14
 70
     1
102
RTVSPropertyOp15
 70
     1
102
RTVSPropertyOp16
 70
     1
102
RTVSPropertyOp17
 70
     1
102
RTVSPropertyOp18
 70
     1
102
RTVSPropertyOp19
 70
     1
102
RTVSPropertyOp20
 70
     1
102
RTVSPropertyOp21
 70
     1
102
RTVSPropertyOp22
 70
     1
102
RTVSPropertyOp23
 70
     1
102
RTVSPropertyOp24
 70
     1
102
RTVSPropertyOp25
 70
     1
102
RTVSPropertyOp26
 70
     1
102
RTVSPropertyOp27
 70
     1
102
RTVSPropertyOp28
 70
     1
102
RTVSPropertyOp29
 70
     1
102
RTVSPropertyOp30
 70
     1
102
RTVSPropertyOp31
 70
     1
102
RTVSPropertyOp32
 70
     1
  0
XRECORD
  5
178
102
{ACAD_REACTORS
330
177
102
}
330
177
100
AcDbXrecord
280
     1
102
RTVSPropertyOp0
 70
     0
102
RTVSPropertyOp1
 70
     0
102
RTVSPropertyOp2
 70
     0
102
RTVSPropertyOp3
 70
     0
102
RTVSPropertyOp4
 70
     0
102
RTVSPropertyOp5
 70
     0
102
RTVSPropertyOp6
 70
     0
102
RTVSPropertyOp7
 70
     0
102
RTVSPropertyOp8
 70
     0
102
RTVSPropertyOp9
 70
     0
102
RTVSPropertyOp10
 70
     0
102
RTVSPropertyOp11
 70
     0
102
RTVSPropertyOp12
 70
     0
102
RTVSPropertyOp13
 70
     0
102
RTVSPropertyOp14
 70
     2
102
RTVSPropertyOp15
 70
     0
102
RTVSPropertyOp16
 70
     0
102
RTVSPropertyOp17
 70
     0
102
RTVSPropertyOp18
 70
     0
102
RTVSPropertyOp19
 70
     0
102
RTVSPropertyOp20
 70
     0
102
RTVSPropertyOp21
 70
     0
102
RTVSPropertyOp22
 70
     0
102
RTVSPropertyOp23
 70
     0
102
RTVSPropertyOp24
 70
     0
102
RTVSPropertyOp25
 70
     0
102
RTVSPropertyOp26
 70
     0
102
RTVSPropertyOp27
 70
     0
102
RTVSPropertyOp28
 70
     0
102
RTVSPropertyOp29
 70
     0
102
RTVSPropertyOp30
 70
     0
102
RTVSPropertyOp31
 70
     0
102
RTVSPropertyOp32
 70
     0
  0
XRECORD
  5
168
102
{ACAD_REACTORS
330
167
102
}
330
167
100
AcDbXrecord
280
     1
102
RTVSPropertyOp0
 70
     1
102
RTVSPropertyOp1
 70
     1
102
RTVSPropertyOp2
 70
     1
102
RTVSPropertyOp3
 70
     1
102
RTVSPropertyOp4
 70
     1
102
RTVSPropertyOp5
 70
     1
102
RTVSPropertyOp6
 70
     1
102
RTVSPropertyOp7
 70
     1
102
RTVSPropertyOp8
 70
     1
102
RTVSPropertyOp9
 70
     1
102
RTVSPropertyOp10
 70
     1
102
RTVSPropertyOp11
 70
     1
102
RTVSPropertyOp12
 70
     1
102
RTVSPropertyOp13
 70
     1
102
RTVSPropertyOp14
 70
     1
102
RTVSPropertyOp15
 70
     1
102
RTVSPropertyOp16
 70
     1
102
RTVSPropertyOp17
 70
     1
102
RTVSPropertyOp18
 70
     1
102
RTVSPropertyOp19
 70
     1
102
RTVSPropertyOp20
 70
     1
102
RTVSPropertyOp21
 70
     1
102
RTVSPropertyOp22
 70
     1
102
RTVSPropertyOp23
 70
     1
102
RTVSPropertyOp24
 70
     1
102
RTVSPropertyOp25
 70
     1
102
RTVSPropertyOp26
 70
     1
102
RTVSPropertyOp27
 70
     1
102
RTVSPropertyOp28
 70
     1
102
RTVSPropertyOp29
 70
     1
102
RTVSPropertyOp30
 70
     1
102
RTVSPropertyOp31
 70
     1
102
RTVSPropertyOp32
 70
     1
  0
XRECORD
  5
17A
102
{ACAD_REACTORS
330
179
102
}
330
179
100
AcDbXrecord
280
     1
102
RTVSPropertyOp0
 70
     0
102
RTVSPropertyOp1
 70
     0
102
RTVSPropertyOp2
 70
     0
102
RTVSPropertyOp3
 70
     0
102
RTVSPropertyOp4
 70
     0
102
RTVSPropertyOp5
 70
     0
102
RTVSPropertyOp6
 70
     0
102
RTVSPropertyOp7
 70
     0
102
RTVSPropertyOp8
 70
     0
102
RTVSPropertyOp9
 70
     0
102
RTVSPropertyOp10
 70
     0
102
RTVSPropertyOp11
 70
     0
102
RTVSPropertyOp12
 70
     0
102
RTVSPropertyOp13
 70
     0
102
RTVSPropertyOp14
 70
     2
102
RTVSPropertyOp15
 70
     0
102
RTVSPropertyOp16
 70
     0
102
RTVSPropertyOp17
 70
     0
102
RTVSPropertyOp18
 70
     0
102
RTVSPropertyOp19
 70
     0
102
RTVSPropertyOp20
 70
     0
102
RTVSPropertyOp21
 70
     0
102
RTVSPropertyOp22
 70
     0
102
RTVSPropertyOp23
 70
     0
102
RTVSPropertyOp24
 70
     0
102
RTVSPropertyOp25
 70
     0
102
RTVSPropertyOp26
 70
     0
102
RTVSPropertyOp27
 70
     0
102
RTVSPropertyOp28
 70
     0
102
RTVSPropertyOp29
 70
     0
102
RTVSPropertyOp30
 70
     0
102
RTVSPropertyOp31
 70
     0
102
RTVSPropertyOp32
 70
     0
  0
XRECORD
  5
150
102
{ACAD_REACTORS
330
14F
102
}
330
14F
100
AcDbXrecord
280
     1
102
RTVSPropertyOp0
 70
     1
102
RTVSPropertyOp1
 70
     1
102
RTVSPropertyOp2
 70
     1
102
RTVSPropertyOp3
 70
     1
102
RTVSPropertyOp4
 70
     1
102
RTVSPropertyOp5
 70
     1
102
RTVSPropertyOp6
 70
     1
102
RTVSPropertyOp7
 70
     1
102
RTVSPropertyOp8
 70
     1
102
RTVSPropertyOp9
 70
     1
102
RTVSPropertyOp10
 70
     1
102
RTVSPropertyOp11
 70
     1
102
RTVSPropertyOp12
 70
     1
102
RTVSPropertyOp13
 70
     1
102
RTVSPropertyOp14
 70
     1
102
RTVSPropertyOp15
 70
     1
102
RTVSPropertyOp16
 70
     1
102
RTVSPropertyOp17
 70
     1
102
RTVSPropertyOp18
 70
     1
102
RTVSPropertyOp19
 70
     1
102
RTVSPropertyOp20
 70
     1
102
RTVSPropertyOp21
 70
     1
102
RTVSPropertyOp22
 70
     1
102
RTVSPropertyOp23
 70
     1
102
RTVSPropertyOp24
 70
     1
102
RTVSPropertyOp25
 70
     1
102
RTVSPropertyOp26
 70
     1
102
RTVSPropertyOp27
 70
     1
102
RTVSPropertyOp28
 70
     1
102
RTVSPropertyOp29
 70
     1
102
RTVSPropertyOp30
 70
     1
102
RTVSPropertyOp31
 70
     1
102
RTVSPropertyOp32
 70
     1
  0
XRECORD
  5
176
102
{ACAD_REACTORS
330
175
102
}
330
175
100
AcDbXrecord
280
     1
102
RTVSPropertyOp0
 70
     1
102
RTVSPropertyOp1
 70
     1
102
RTVSPropertyOp2
 70
     1
102
RTVSPropertyOp3
 70
     1
102
RTVSPropertyOp4
 70
     1
102
RTVSPropertyOp5
 70
     1
102
RTVSPropertyOp6
 70
     1
102
RTVSPropertyOp7
 70
     1
102
RTVSPropertyOp8
 70
     1
102
RTVSPropertyOp9
 70
     1
102
RTVSPropertyOp10
 70
     1
102
RTVSPropertyOp11
 70
     1
102
RTVSPropertyOp12
 70
     1
102
RTVSPropertyOp13
 70
     1
102
RTVSPropertyOp14
 70
     1
102
RTVSPropertyOp15
 70
     1
102
RTVSPropertyOp16
 70
     1
102
RTVSPropertyOp17
 70
     1
102
RTVSPropertyOp18
 70
     1
102
RTVSPropertyOp19
 70
     1
102
RTVSPropertyOp20
 70
     1
102
RTVSPropertyOp21
 70
     1
102
RTVSPropertyOp22
 70
     1
102
RTVSPropertyOp23
 70
     1
102
RTVSPropertyOp24
 70
     1
102
RTVSPropertyOp25
 70
     1
102
RTVSPropertyOp26
 70
     1
102
RTVSPropertyOp27
 70
     1
102
RTVSPropertyOp28
 70
     1
102
RTVSPropertyOp29
 70
     1
102
RTVSPropertyOp30
 70
     1
102
RTVSPropertyOp31
 70
     1
102
RTVSPropertyOp32
 70
     1
  0
XRECORD
  5
174
102
{ACAD_REACTORS
330
173
102
}
330
173
100
AcDbXrecord
280
     1
102
RTVSPropertyOp0
 70
     1
102
RTVSPropertyOp1
 70
     1
102
RTVSPropertyOp2
 70
     1
102
RTVSPropertyOp3
 70
     1
102
RTVSPropertyOp4
 70
     1
102
RTVSPropertyOp5
 70
     1
102
RTVSPropertyOp6
 70
     1
102
RTVSPropertyOp7
 70
     1
102
RTVSPropertyOp8
 70
     1
102
RTVSPropertyOp9
 70
     1
102
RTVSPropertyOp10
 70
     1
102
RTVSPropertyOp11
 70
     1
102
RTVSPropertyOp12
 70
     1
102
RTVSPropertyOp13
 70
     1
102
RTVSPropertyOp14
 70
     1
102
RTVSPropertyOp15
 70
     1
102
RTVSPropertyOp16
 70
     1
102
RTVSPropertyOp17
 70
     1
102
RTVSPropertyOp18
 70
     1
102
RTVSPropertyOp19
 70
     1
102
RTVSPropertyOp20
 70
     1
102
RTVSPropertyOp21
 70
     1
102
RTVSPropertyOp22
 70
     1
102
RTVSPropertyOp23
 70
     1
102
RTVSPropertyOp24
 70
     1
102
RTVSPropertyOp25
 70
     1
102
RTVSPropertyOp26
 70
     1
102
RTVSPropertyOp27
 70
     1
102
RTVSPropertyOp28
 70
     1
102
RTVSPropertyOp29
 70
     1
102
RTVSPropertyOp30
 70
     1
102
RTVSPropertyOp31
 70
     1
102
RTVSPropertyOp32
 70
     1
  0
XRECORD
  5
16E
102
{ACAD_REACTORS
330
16D
102
}
330
16D
100
AcDbXrecord
280
     1
102
RTVSPropertyOp0
 70
     1
102
RTVSPropertyOp1
 70
     1
102
RTVSPropertyOp2
 70
     1
102
RTVSPropertyOp3
 70
     1
102
RTVSPropertyOp4
 70
     1
102
RTVSPropertyOp5
 70
     1
102
RTVSPropertyOp6
 70
     1
102
RTVSPropertyOp7
 70
     1
102
RTVSPropertyOp8
 70
     1
102
RTVSPropertyOp9
 70
     1
102
RTVSPropertyOp10
 70
     1
102
RTVSPropertyOp11
 70
     1
102
RTVSPropertyOp12
 70
     1
102
RTVSPropertyOp13
 70
     1
102
RTVSPropertyOp14
 70
     1
102
RTVSPropertyOp15
 70
     1
102
RTVSPropertyOp16
 70
     1
102
RTVSPropertyOp17
 70
     1
102
RTVSPropertyOp18
 70
     1
102
RTVSPropertyOp19
 70
     1
102
RTVSPropertyOp20
 70
     1
102
RTVSPropertyOp21
 70
     1
102
RTVSPropertyOp22
 70
     1
102
RTVSPropertyOp23
 70
     1
102
RTVSPropertyOp24
 70
     1
102
RTVSPropertyOp25
 70
     1
102
RTVSPropertyOp26
 70
     1
102
RTVSPropertyOp27
 70
     1
102
RTVSPropertyOp28
 70
     1
102
RTVSPropertyOp29
 70
     1
102
RTVSPropertyOp30
 70
     1
102
RTVSPropertyOp31
 70
     1
102
RTVSPropertyOp32
 70
     1
  0
XRECORD
  5
170
102
{ACAD_REACTORS
330
16F
102
}
330
16F
100
AcDbXrecord
280
     1
102
RTVSPropertyOp0
 70
     1
102
RTVSPropertyOp1
 70
     1
102
RTVSPropertyOp2
 70
     1
102
RTVSPropertyOp3
 70
     1
102
RTVSPropertyOp4
 70
     1
102
RTVSPropertyOp5
 70
     1
102
RTVSPropertyOp6
 70
     1
102
RTVSPropertyOp7
 70
     1
102
RTVSPropertyOp8
 70
     1
102
RTVSPropertyOp9
 70
     1
102
RTVSPropertyOp10
 70
     1
102
RTVSPropertyOp11
 70
     1
102
RTVSPropertyOp12
 70
     1
102
RTVSPropertyOp13
 70
     1
102
RTVSPropertyOp14
 70
     1
102
RTVSPropertyOp15
 70
     1
102
RTVSPropertyOp16
 70
     1
102
RTVSPropertyOp17
 70
     1
102
RTVSPropertyOp18
 70
     1
102
RTVSPropertyOp19
 70
     1
102
RTVSPropertyOp20
 70
     1
102
RTVSPropertyOp21
 70
     1
102
RTVSPropertyOp22
 70
     1
102
RTVSPropertyOp23
 70
     1
102
RTVSPropertyOp24
 70
     1
102
RTVSPropertyOp25
 70
     1
102
RTVSPropertyOp26
 70
     1
102
RTVSPropertyOp27
 70
     1
102
RTVSPropertyOp28
 70
     1
102
RTVSPropertyOp29
 70
     1
102
RTVSPropertyOp30
 70
     1
102
RTVSPropertyOp31
 70
     1
102
RTVSPropertyOp32
 70
     1
  0
XRECORD
  5
166
102
{ACAD_REACTORS
330
165
102
}
330
165
100
AcDbXrecord
280
     1
102
RTVSPropertyOp0
 70
     1
102
RTVSPropertyOp1
 70
     1
102
RTVSPropertyOp2
 70
     1
102
RTVSPropertyOp3
 70
     1
102
RTVSPropertyOp4
 70
     1
102
RTVSPropertyOp5
 70
     1
102
RTVSPropertyOp6
 70
     1
102
RTVSPropertyOp7
 70
     1
102
RTVSPropertyOp8
 70
     1
102
RTVSPropertyOp9
 70
     1
102
RTVSPropertyOp10
 70
     1
102
RTVSPropertyOp11
 70
     1
102
RTVSPropertyOp12
 70
     1
102
RTVSPropertyOp13
 70
     1
102
RTVSPropertyOp14
 70
     1
102
RTVSPropertyOp15
 70
     1
102
RTVSPropertyOp16
 70
     1
102
RTVSPropertyOp17
 70
     1
102
RTVSPropertyOp18
 70
     1
102
RTVSPropertyOp19
 70
     1
102
RTVSPropertyOp20
 70
     1
102
RTVSPropertyOp21
 70
     1
102
RTVSPropertyOp22
 70
     1
102
RTVSPropertyOp23
 70
     1
102
RTVSPropertyOp24
 70
     1
102
RTVSPropertyOp25
 70
     1
102
RTVSPropertyOp26
 70
     1
102
RTVSPropertyOp27
 70
     1
102
RTVSPropertyOp28
 70
     1
102
RTVSPropertyOp29
 70
     1
102
RTVSPropertyOp30
 70
     1
102
RTVSPropertyOp31
 70
     1
102
RTVSPropertyOp32
 70
     1
  0
XRECORD
  5
152
102
{ACAD_REACTORS
330
151
102
}
330
151
100
AcDbXrecord
280
     1
102
RTVSPropertyOp0
 70
     1
102
RTVSPropertyOp1
 70
     1
102
RTVSPropertyOp2
 70
     1
102
RTVSPropertyOp3
 70
     1
102
RTVSPropertyOp4
 70
     1
102
RTVSPropertyOp5
 70
     1
102
RTVSPropertyOp6
 70
     1
102
RTVSPropertyOp7
 70
     1
102
RTVSPropertyOp8
 70
     1
102
RTVSPropertyOp9
 70
     1
102
RTVSPropertyOp10
 70
     1
102
RTVSPropertyOp11
 70
     1
102
RTVSPropertyOp12
 70
     1
102
RTVSPropertyOp13
 70
     1
102
RTVSPropertyOp14
 70
     1
102
RTVSPropertyOp15
 70
     1
102
RTVSPropertyOp16
 70
     1
102
RTVSPropertyOp17
 70
     1
102
RTVSPropertyOp18
 70
     1
102
RTVSPropertyOp19
 70
     1
102
RTVSPropertyOp20
 70
     1
102
RTVSPropertyOp21
 70
     1
102
RTVSPropertyOp22
 70
     1
102
RTVSPropertyOp23
 70
     1
102
RTVSPropertyOp24
 70
     1
102
RTVSPropertyOp25
 70
     1
102
RTVSPropertyOp26
 70
     1
102
RTVSPropertyOp27
 70
     1
102
RTVSPropertyOp28
 70
     1
102
RTVSPropertyOp29
 70
     1
102
RTVSPropertyOp30
 70
     1
102
RTVSPropertyOp31
 70
     1
102
RTVSPropertyOp32
 70
     1
  0
XRECORD
  5
172
102
{ACAD_REACTORS
330
171
102
}
330
171
100
AcDbXrecord
280
     1
102
RTVSPropertyOp0
 70
     1
102
RTVSPropertyOp1
 70
     1
102
RTVSPropertyOp2
 70
     1
102
RTVSPropertyOp3
 70
     1
102
RTVSPropertyOp4
 70
     1
102
RTVSPropertyOp5
 70
     1
102
RTVSPropertyOp6
 70
     1
102
RTVSPropertyOp7
 70
     1
102
RTVSPropertyOp8
 70
     1
102
RTVSPropertyOp9
 70
     1
102
RTVSPropertyOp10
 70
     1
102
RTVSPropertyOp11
 70
     1
102
RTVSPropertyOp12
 70
     1
102
RTVSPropertyOp13
 70
     1
102
RTVSPropertyOp14
 70
     1
102
RTVSPropertyOp15
 70
     1
102
RTVSPropertyOp16
 70
     1
102
RTVSPropertyOp17
 70
     1
102
RTVSPropertyOp18
 70
     1
102
RTVSPropertyOp19
 70
     1
102
RTVSPropertyOp20
 70
     1
102
RTVSPropertyOp21
 70
     1
102
RTVSPropertyOp22
 70
     1
102
RTVSPropertyOp23
 70
     1
102
RTVSPropertyOp24
 70
     1
102
RTVSPropertyOp25
 70
     1
102
RTVSPropertyOp26
 70
     1
102
RTVSPropertyOp27
 70
     1
102
RTVSPropertyOp28
 70
     1
102
RTVSPropertyOp29
 70
     1
102
RTVSPropertyOp30
 70
     1
102
RTVSPropertyOp31
 70
     1
102
RTVSPropertyOp32
 70
     1
  0
ENDSEC
  0
EOF
