  0
SECTION
  2
HEADER
  9
$ACADVER
  1
AC1015
  9
$ACADMAINTVER
 70
     6
  9
$DWGCODEPAGE
  3
ASCII
  9
$INSBASE
 10
0.0
 20
0.0
 30
0.0
  9
$EXTMIN
 10
0.145
 20
0.6835429999999999
 30
0.0
  9
$EXTMAX
 10
6.104
 20
7.6
 30
0.0
  9
$LIMMIN
 10
0.0
 20
0.0
  9
$LIMMAX
 10
12.0
 20
9.0
  9
$ORTHOMODE
 70
     0
  9
$REGENMODE
 70
     1
  9
$FILLMODE
 70
     1
  9
$QTEXTMODE
 70
     0
  9
$MIRRTEXT
 70
     1
  9
$LTSCALE
 40
0.5
  9
$ATTMODE
 70
     1
  9
$TEXTSIZE
 40
0.2
  9
$TRACEWID
 40
0.05
  9
$TEXTSTYLE
  7
STANDARD
  9
$CLAYER
  8
0
  9
$CELTYPE
  6
ByLayer
  9
$CECOLOR
 62
   256
  9
$CELTSCALE
 40
1.0
  9
$DISPSILH
 70
     0
  9
$DIMSCALE
 40
1.0
  9
$DIMASZ
 40
0.18
  9
$DIMEXO
 40
0.063
  9
$DIMDLI
 40
0.38
  9
$DIMRND
 40
0.0
  9
$DIMDLE
 40
0.0
  9
$DIMEXE
 40
0.18
  9
$DIMTP
 40
0.0
  9
$DIMTM
 40
0.0
  9
$DIMTXT
 40
0.18
  9
$DIMCEN
 40
0.09
  9
$DIMTSZ
 40
0.0
  9
$DIMTOL
 70
     0
  9
$DIMLIM
 70
     0
  9
$DIMTIH
 70
     1
  9
$DIMTOH
 70
     1
  9
$DIMSE1
 70
     0
  9
$DIMSE2
 70
     0
  9
$DIMTAD
 70
     0
  9
$DIMZIN
 70
     0
  9
$DIMBLK
  1

  9
$DIMASO
 70
     0
  9
$DIMSHO
 70
     1
  9
$DIMPOST
  1

  9
$DIMAPOST
  1

  9
$DIMALT
 70
     0
  9
$DIMALTD
 70
     2
  9
$DIMALTF
 40
25.4
  9
$DIMLFAC
 40
1.0
  9
$DIMTOFL
 70
     0
  9
$DIMTVP
 40
0.0
  9
$DIMTIX
 70
     0
  9
$DIMSOXD
 70
     0
  9
$DIMSAH
 70
     0
  9
$DIMBLK1
  1

  9
$DIMBLK2
  1

  9
$DIMSTYLE
  2
Standard
  9
$DIMCLRD
 70
     0
  9
$DIMCLRE
 70
     0
  9
$DIMCLRT
 70
     0
  9
$DIMTFAC
 40
1.0
  9
$DIMGAP
 40
0.09
  9
$DIMJUST
 70
     0
  9
$DIMSD1
 70
     0
  9
$DIMSD2
 70
     0
  9
$DIMTOLJ
 70
     1
  9
$DIMTZIN
 70
     0
  9
$DIMALTZ
 70
     0
  9
$DIMALTTZ
 70
     0
  9
$DIMUPT
 70
     0
  9
$DIMDEC
 70
     4
  9
$DIMTDEC
 70
     4
  9
$DIMALTU
 70
     2
  9
$DIMALTTD
 70
     2
  9
$DIMTXSTY
  7
STANDARD
  9
$DIMAUNIT
 70
     0
  9
$DIMADEC
 70
     0
  9
$DIMALTRND
 40
0.0
  9
$DIMAZIN
 70
     0
  9
$DIMDSEP
 70
    46
  9
$DIMATFIT
 70
     3
  9
$DIMFRAC
 70
     0
  9
$DIMLDRBLK
  1

  9
$DIMLUNIT
 70
     2
  9
$DIMLWD
 70
    -2
  9
$DIMLWE
 70
    -2
  9
$DIMTMOVE
 70
     0
  9
$LUNITS
 70
     2
  9
$LUPREC
 70
     4
  9
$SKETCHINC
 40
0.1
  9
$FILLETRAD
 40
0.0
  9
$AUNITS
 70
     0
  9
$AUPREC
 70
     0
  9
$MENU
  1
acad
  9
$ELEVATION
 40
0.0
  9
$PELEVATION
 40
0.0
  9
$THICKNESS
 40
0.0
  9
$LIMCHECK
 70
     0
  9
$CHAMFERA
 40
0.0
  9
$CHAMFERB
 40
0.0
  9
$CHAMFERC
 40
1.0
  9
$CHAMFERD
 40
0.0
  9
$SKPOLY
 70
     0
  9
$TDCREATE
 40
2453955.561086667
  9
$TDUCREATE
 40
2453955.89442
  9
$TDUPDATE
 40
2453955.602753345
  9
$TDUUPDATE
 40
2453955.894420011
  9
$TDINDWG
 40
0.0000000116
  9
$TDUSRTIMER
 40
0.0000000116
  9
$USRTIMER
 70
     1
  9
$ANGBASE
 50
0.0
  9
$ANGDIR
 70
     0
  9
$PDMODE
 70
     0
  9
$PDSIZE
 40
0.0
  9
$PLINEWID
 40
0.0
  9
$SPLFRAME
 70
     0
  9
$SPLINETYPE
 70
     6
  9
$SPLINESEGS
 70
     8
  9
$HANDSEED
  5
608
  9
$SURFTAB1
 70
     6
  9
$SURFTAB2
 70
     6
  9
$SURFTYPE
 70
     6
  9
$SURFU
 70
     6
  9
$SURFV
 70
     6
  9
$UCSBASE
  2

  9
$UCSNAME
  2

  9
$UCSORG
 10
0.0
 20
0.0
 30
0.0
  9
$UCSXDIR
 10
1.0
 20
0.0
 30
0.0
  9
$UCSYDIR
 10
0.0
 20
1.0
 30
0.0
  9
$UCSORTHOREF
  2

  9
$UCSORTHOVIEW
 70
     0
  9
$UCSORGTOP
 10
0.0
 20
0.0
 30
0.0
  9
$UCSORGBOTTOM
 10
0.0
 20
0.0
 30
0.0
  9
$UCSORGLEFT
 10
0.0
 20
0.0
 30
0.0
  9
$UCSORGRIGHT
 10
0.0
 20
0.0
 30
0.0
  9
$UCSORGFRONT
 10
0.0
 20
0.0
 30
0.0
  9
$UCSORGBACK
 10
0.0
 20
0.0
 30
0.0
  9
$PUCSBASE
  2

  9
$PUCSNAME
  2

  9
$PUCSORG
 10
0.0
 20
0.0
 30
0.0
  9
$PUCSXDIR
 10
1.0
 20
0.0
 30
0.0
  9
$PUCSYDIR
 10
0.0
 20
1.0
 30
0.0
  9
$PUCSORTHOREF
  2

  9
$PUCSORTHOVIEW
 70
     0
  9
$PUCSORGTOP
 10
0.0
 20
0.0
 30
0.0
  9
$PUCSORGBOTTOM
 10
0.0
 20
0.0
 30
0.0
  9
$PUCSORGLEFT
 10
0.0
 20
0.0
 30
0.0
  9
$PUCSORGRIGHT
 10
0.0
 20
0.0
 30
0.0
  9
$PUCSORGFRONT
 10
0.0
 20
0.0
 30
0.0
  9
$PUCSORGBACK
 10
0.0
 20
0.0
 30
0.0
  9
$USERI1
 70
     0
  9
$USERI2
 70
     0
  9
$USERI3
 70
     0
  9
$USERI4
 70
     0
  9
$USERI5
 70
     0
  9
$USERR1
 40
0.0
  9
$USERR2
 40
0.0
  9
$USERR3
 40
0.0
  9
$USERR4
 40
0.0
  9
$USERR5
 40
0.0
  9
$WORLDVIEW
 70
     1
  9
$SHADEDGE
 70
     3
  9
$SHADEDIF
 70
    70
  9
$TILEMODE
 70
     1
  9
$MAXACTVP
 70
    16
  9
$PINSBASE
 10
1.36
 20
50.0
 30
1.751
  9
$PLIMCHECK
 70
     0
  9
$PEXTMIN
 10
1.000000000000000E+20
 20
1.000000000000000E+20
 30
1.000000000000000E+20
  9
$PEXTMAX
 10
-1.000000000000000E+20
 20
-1.000000000000000E+20
 30
-1.000000000000000E+20
  9
$PLIMMIN
 10
0.0
 20
0.0
  9
$PLIMMAX
 10
12.0
 20
9.0
  9
$UNITMODE
 70
     0
  9
$VISRETAIN
 70
     0
  9
$PLINEGEN
 70
     0
  9
$PSLTSCALE
 70
     1
  9
$TREEDEPTH
 70
  3020
  9
$CMLSTYLE
  2
Standard
  9
$CMLJUST
 70
     0
  9
$CMLSCALE
 40
1.0
  9
$PROXYGRAPHICS
 70
     1
  9
$MEASUREMENT
 70
     0
  9
$CELWEIGHT
370
    -1
  9
$ENDCAPS
280
     0
  9
$JOINSTYLE
280
     0
  9
$LWDISPLAY
290
     0
  9
$INSUNITS
 70
     1
  9
$HYPERLINKBASE
  1

  9
$STYLESHEET
  1

  9
$XEDIT
290
     1
  9
$CEPSNTYPE
380
     0
  9
$PSTYLEMODE
290
     0
  9
$FINGERPRINTGUID
  2
{FAEB1C30-E019-11D5-929B-00C0DF256EC4}
  9
$VERSIONGUID
  2
{FAEB1C32-E019-11D5-929B-00C0DF256EC4}
  9
$EXTNAMES
290
     1
  9
$PSVPSCALE
 40
0.0
  9
$OLESTARTUP
290
     0
  0
ENDSEC
  0
SECTION
  2
CLASSES
  0
CLASS
  1
ACDBDICTIONARYWDFLT
  2
AcDbDictionaryWithDefault
  3
AutoCAD 2000
 90
        0
280
     0
281
     0
  0
CLASS
  1
ACDBPLACEHOLDER
  2
AcDbPlaceHolder
  3
ObjectDBX Classes
 90
        0
280
     0
281
     0
  0
CLASS
  1
LAYOUT
  2
AcDbLayout
  3
ObjectDBX Classes
 90
        0
280
     0
281
     0
  0
ENDSEC
  0
SECTION
  2
TABLES
  0
TABLE
  2
VPORT
  5
8
330
0
100
AcDbSymbolTable
 70
     2
  0
VPORT
  5
1F
330
8
100
AcDbSymbolTableRecord
100
AcDbViewportTableRecord
  2
*ACTIVE
 70
     0
 10
0.0
 20
0.0
 11
1.0
 21
1.0
 12
6.243341404358354
 22
4.5
 13
0.0
 23
0.0
 14
1.0
 24
1.0
 15
0.0
 25
0.0
 16
0.0
 26
0.0
 36
1.0
 17
0.0
 27
0.0
 37
0.0
 40
9.0
 41
0.7207678883071553
 42
50.0
 43
0.0
 44
0.0
 50
0.0
 51
0.0
 71
     0
 72
  2000
 73
     1
 74
     0
 75
     0
 76
     0
 77
     0
 78
     0
281
     0
 65
     1
110
0.0
120
0.0
130
0.0
111
1.0
121
0.0
131
0.0
112
0.0
122
1.0
132
0.0
 79
     0
146
0.0
  0
ENDTAB
  0
TABLE
  2
LTYPE
  5
5
330
0
100
AcDbSymbolTable
 70
     2
  0
LTYPE
  5
10
330
5
100
AcDbSymbolTableRecord
100
AcDbLinetypeTableRecord
  2
ByBlock
 70
     0
  3

 72
    65
 73
     0
 40
0.0
  0
LTYPE
  5
11
330
5
100
AcDbSymbolTableRecord
100
AcDbLinetypeTableRecord
  2
ByLayer
 70
     0
  3

 72
    65
 73
     0
 40
0.0
  0
LTYPE
  5
1B
330
5
100
AcDbSymbolTableRecord
100
AcDbLinetypeTableRecord
  2
CONTINUOUS
 70
     0
  3
Solid line
 72
    65
 73
     0
 40
0.0
  0
LTYPE
  5
1C
330
5
100
AcDbSymbolTableRecord
100
AcDbLinetypeTableRecord
  2
HIDDEN
 70
     0
  3
__ __ __ __ __ __ __ __ __ __ __ __ __ __ __ __
 72
    65
 73
     2
 40
0.375
 49
0.25
 74
     0
 49
-0.125
 74
     0
  0
ENDTAB
  0
TABLE
  2
LAYER
  5
2
330
0
100
AcDbSymbolTable
 70
     1
  0
LAYER
  5
1D
330
2
100
AcDbSymbolTableRecord
100
AcDbLayerTableRecord
  2
0
 70
     0
 62
     7
  6
CONTINUOUS
370
    -3
390
F
  0
ENDTAB
  0
TABLE
  2
STYLE
  5
3
330
0
100
AcDbSymbolTable
 70
     1
  0
STYLE
  5
22
330
3
100
AcDbSymbolTableRecord
100
AcDbTextStyleTableRecord
  2
STANDARD
 70
     0
 40
0.0
 41
1.0
 50
0.0
 71
     0
 42
0.2
  3
romans
  4

  0
ENDTAB
  0
TABLE
  2
VIEW
  5
6
330
0
100
AcDbSymbolTable
 70
     1
  0
VIEW
  5
21
330
6
100
AcDbSymbolTableRecord
100
AcDbViewTableRecord
  2
1
 70
     0
 40
7.441
 10
4.966
 20
3.88
 41
9.642000000000001
 11
0.0
 21
0.0
 31
1.0
 12
0.0
 22
0.0
 32
0.0
 42
50.0
 43
0.0
 44
0.0
 50
0.0
 71
     0
281
     0
 72
     0
  0
ENDTAB
  0
TABLE
  2
UCS
  5
7
330
0
100
AcDbSymbolTable
 70
     0
  0
ENDTAB
  0
TABLE
  2
APPID
  5
9
330
0
100
AcDbSymbolTable
 70
     1
  0
APPID
  5
20
330
9
100
AcDbSymbolTableRecord
100
AcDbRegAppTableRecord
  2
ACAD
 70
     0
  0
ENDTAB
  0
TABLE
  2
DIMSTYLE
  5
A
330
0
100
AcDbSymbolTable
 70
     1
100
AcDbDimStyleTable
  0
DIMSTYLE
105
23
330
A
100
AcDbSymbolTableRecord
100
AcDbDimStyleTableRecord
  2
Standard
 70
     0
  3

  4

340
22
  0
ENDTAB
  0
TABLE
  2
BLOCK_RECORD
  5
1
330
0
100
AcDbSymbolTable
 70
     0
  0
BLOCK_RECORD
  5
18
330
1
100
AcDbSymbolTableRecord
100
AcDbBlockTableRecord
  2
*Model_Space
340
19
  0
BLOCK_RECORD
  5
16
330
1
100
AcDbSymbolTableRecord
100
AcDbBlockTableRecord
  2
*Paper_Space
340
17
  0
ENDTAB
  0
ENDSEC
  0
SECTION
  2
BLOCKS
  0
BLOCK
  5
5FD
330
18
100
AcDbEntity
  8
0
100
AcDbBlockBegin
  2
*Model_Space
 70
     0
 10
0.0
 20
0.0
 30
0.0
  3
*Model_Space
  1

  4

  0
ENDBLK
  5
5FE
330
18
100
AcDbEntity
  8
0
100
AcDbBlockEnd
  0
BLOCK
  5
5FB
330
16
100
AcDbEntity
 67
     1
  8
0
100
AcDbBlockBegin
  2
*Paper_Space
 70
     0
 10
0.0
 20
0.0
 30
0.0
  3
*Paper_Space
  1

  4

  0
ENDBLK
  5
5FC
330
16
100
AcDbEntity
 67
     1
  8
0
100
AcDbBlockEnd
  0
ENDSEC
  0
SECTION
  2
ENTITIES
  0
LWPOLYLINE
  5
24
330
18
100
AcDbEntity
  8
0
100
AcDbPolyline
 90
        4
 70
     0
 43
0.0
 10
5.049
 20
4.202
 10
5.081
 20
4.133
 10
5.105
 20
4.106
 10
5.129
 20
4.076000000000001
  0
LWPOLYLINE
  5
2B
330
18
100
AcDbEntity
  8
0
100
AcDbPolyline
 90
        5
 70
     0
 43
0.0
 10
5.049
 20
4.484
 10
5.11
 20
4.29
 10
5.142
 20
4.191
 10
5.166
 20
4.138
 10
5.188
 20
4.081
  0
LWPOLYLINE
  5
33
330
18
100
AcDbEntity
  8
0
100
AcDbPolyline
 90
        7
 70
     0
 43
0.0
 10
5.291
 20
4.09
 10
5.225
 20
4.247
 10
5.174
 20
4.388
 10
5.124
 20
4.542
 10
5.093999999999999
 20
4.646
 10
5.073
 20
4.72
 10
5.049
 20
4.781000000000001
  0
LWPOLYLINE
  5
3D
330
18
100
AcDbEntity
  8
0
100
AcDbPolyline
 90
        7
 70
     0
 43
0.0
 10
5.049
 20
5.204
 10
5.118
 20
5.031000000000001
 10
5.162999999999999
 20
4.874
 10
5.202999999999999
 20
4.675
 10
5.251
 20
4.454
 10
5.307
 20
4.274
 10
5.372000000000001
 20
4.097
  0
LWPOLYLINE
  5
47
330
18
100
AcDbEntity
  8
0
100
AcDbPolyline
 90
       11
 70
     0
 43
0.0
 10
5.049
 20
5.464
 10
5.122999999999999
 20
5.214
 10
5.155
 20
5.105
 10
5.178
 20
5.017
 10
5.216
 20
4.948
 10
5.28
 20
4.81
 10
5.325
 20
4.648
 10
5.341
 20
4.504
 10
5.365
 20
4.382
 10
5.404
 20
4.273
 10
5.482
 20
4.107
  0
LWPOLYLINE
  5
55
330
18
100
AcDbEntity
  8
0
100
AcDbPolyline
 90
        3
 70
     0
 43
0.0
 10
5.982
 20
5.621
 10
6.011
 20
5.581
 10
6.032
 20
5.553999999999999
  0
LWPOLYLINE
  5
5B
330
18
100
AcDbEntity
  8
0
100
AcDbPolyline
 90
        3
 70
     0
 43
0.0
 10
5.917000000000001
 20
5.625
 10
5.974
 20
5.546
 10
6.032
 20
5.456
  0
LWPOLYLINE
  5
61
330
18
100
AcDbEntity
  8
0
100
AcDbPolyline
 90
        4
 70
     0
 43
0.0
 10
5.845
 20
5.63
 10
5.926
 20
5.477
 10
5.979
 20
5.4
 10
6.032
 20
5.307
  0
LWPOLYLINE
  5
68
330
18
100
AcDbEntity
  8
0
100
AcDbPolyline
 90
        6
 70
     0
 43
0.0
 10
5.766
 20
5.636
 10
5.854
 20
5.49
 10
5.912000000000001
 20
5.365
 10
5.944
 20
5.307
 10
5.984
 20
5.242999999999999
 10
6.032
 20
5.126
  0
LWPOLYLINE
  5
71
330
18
100
AcDbEntity
  8
0
100
AcDbPolyline
 90
        8
 70
     0
 43
0.0
 10
5.678
 20
5.642
 10
5.761
 20
5.468999999999999
 10
5.809
 20
5.376
 10
5.875
 20
5.28
 10
5.928
 20
5.166
 10
5.968
 20
5.086
 10
6.007999999999999
 20
5.017
 10
6.032
 20
4.953
  0
LWPOLYLINE
  5
7C
330
18
100
AcDbEntity
  8
0
100
AcDbPolyline
 90
        9
 70
     0
 43
0.0
 10
5.615
 20
5.647
 10
5.672999999999999
 20
5.482
 10
5.732
 20
5.355
 10
5.787000000000001
 20
5.222
 10
5.857
 20
5.134
 10
5.912000000000001
 20
5.001
 10
5.979
 20
4.881
 10
6.007999999999999
 20
4.818000000000001
 10
6.032
 20
4.751
  0
LWPOLYLINE
  5
88
330
18
100
AcDbEntity
  8
0
100
AcDbPolyline
 90
        9
 70
     0
 43
0.0
 10
5.559
 20
5.651
 10
5.607
 20
5.513999999999999
 10
5.654
 20
5.381
 10
5.71
 20
5.224
 10
5.777
 20
5.083
 10
5.894
 20
4.932
 10
5.947
 20
4.77
 10
5.997000000000001
 20
4.64
 10
6.032
 20
4.536000000000001
  0
LWPOLYLINE
  5
94
330
18
100
AcDbEntity
  8
0
100
AcDbPolyline
 90
       14
 70
     0
 43
0.0
 10
5.462999999999999
 20
5.657
 10
5.521
 20
5.456
 10
5.545
 20
5.371
 10
5.569
 20
5.307
 10
5.63
 20
5.162999999999999
 10
5.686
 20
5.081
 10
5.718
 20
5.013999999999999
 10
5.774
 20
4.897
 10
5.825
 20
4.803999999999999
 10
5.88
 20
4.687
 10
5.934
 20
4.573
 10
5.962999999999999
 20
4.491000000000001
 10
5.979
 20
4.432
 10
6.032
 20
4.339
  0
LWPOLYLINE
  5
A5
330
18
100
AcDbEntity
  8
0
100
AcDbPolyline
 90
       11
 70
     0
 43
0.0
 10
5.396
 20
5.662000000000001
 10
5.455
 20
5.44
 10
5.507999999999999
 20
5.27
 10
5.596
 20
5.093999999999999
 10
5.692
 20
4.887
 10
5.774
 20
4.698
 10
5.841
 20
4.52
 10
5.922999999999999
 20
4.339
 10
5.957999999999999
 20
4.222
 10
5.971
 20
4.172
 10
5.978
 20
4.15
  0
LWPOLYLINE
  5
B3
330
18
100
AcDbEntity
  8
0
100
AcDbPolyline
 90
       12
 70
     0
 43
0.0
 10
5.327000000000001
 20
5.667000000000001
 10
5.354
 20
5.456
 10
5.388999999999999
 20
5.339
 10
5.442
 20
5.206
 10
5.506
 20
5.062
 10
5.567
 20
4.895
 10
5.66
 20
4.634
 10
5.74
 20
4.493
 10
5.79
 20
4.379
 10
5.822
 20
4.254
 10
5.832999999999999
 20
4.193000000000001
 10
5.854
 20
4.138999999999999
  0
LWPOLYLINE
  5
C2
330
18
100
AcDbEntity
  8
0
100
AcDbPolyline
 90
       17
 70
     0
 43
0.0
 10
5.212999999999999
 20
5.675
 10
5.252999999999999
 20
5.511
 10
5.285
 20
5.388999999999999
 10
5.309
 20
5.291
 10
5.335
 20
5.216
 10
5.359
 20
5.131
 10
5.388999999999999
 20
5.03
 10
5.45
 20
4.905
 10
5.502999999999999
 20
4.788
 10
5.564
 20
4.626
 10
5.609
 20
4.539
 10
5.657
 20
4.453
 10
5.684
 20
4.376
 10
5.705
 20
4.299
 10
5.721
 20
4.217
 10
5.734
 20
4.188
 10
5.761
 20
4.131
  0
LWPOLYLINE
  5
D6
330
18
100
AcDbEntity
  8
0
100
AcDbPolyline
 90
       13
 70
     0
 43
0.0
 10
5.118
 20
5.682
 10
5.192
 20
5.456
 10
5.216
 20
5.323
 10
5.24
 20
5.238
 10
5.269
 20
5.138999999999999
 10
5.346
 20
4.964
 10
5.422999999999999
 20
4.788
 10
5.479
 20
4.6
 10
5.511
 20
4.448
 10
5.54
 20
4.366000000000001
 10
5.582999999999999
 20
4.278000000000001
 10
5.615
 20
4.228
 10
5.677000000000001
 20
4.123
  0
LWPOLYLINE
  5
E6
330
18
100
AcDbEntity
  8
0
100
AcDbPolyline
 90
       12
 70
     0
 43
0.0
 10
5.067
 20
5.686
 10
5.127999999999999
 20
5.464
 10
5.2
 20
5.161000000000001
 10
5.257999999999999
 20
5.068000000000001
 10
5.297999999999999
 20
4.953
 10
5.359
 20
4.763999999999999
 10
5.402
 20
4.605
 10
5.457999999999999
 20
4.411000000000001
 10
5.5
 20
4.318000000000001
 10
5.537000000000001
 20
4.206
 10
5.561
 20
4.158
 10
5.582000000000001
 20
4.115
  0
LWPOLYLINE
  5
F5
330
18
100
AcDbEntity
  8
0
100
AcDbPolyline
 90
        3
 70
     0
 43
0.0
 10
6.013
 20
5.724
 10
5.995
 20
5.655
 10
5.982
 20
5.621
  0
LWPOLYLINE
  5
FB
330
18
100
AcDbEntity
  8
0
100
AcDbPolyline
 90
        3
 70
     0
 43
0.0
 10
5.939
 20
5.729
 10
5.926
 20
5.667999999999999
 10
5.917000000000001
 20
5.625
  0
LWPOLYLINE
  5
101
330
18
100
AcDbEntity
  8
0
100
AcDbPolyline
 90
        3
 70
     0
 43
0.0
 10
5.854
 20
5.735
 10
5.849
 20
5.667999999999999
 10
5.845
 20
5.63
  0
LWPOLYLINE
  5
107
330
18
100
AcDbEntity
  8
0
100
AcDbPolyline
 90
        3
 70
     0
 43
0.0
 10
5.776
 20
5.741000000000001
 10
5.774
 20
5.682
 10
5.766
 20
5.636
  0
LWPOLYLINE
  5
10D
330
18
100
AcDbEntity
  8
0
100
AcDbPolyline
 90
        3
 70
     0
 43
0.0
 10
5.694
 20
5.747000000000001
 10
5.681
 20
5.684
 10
5.678
 20
5.642
  0
LWPOLYLINE
  5
113
330
18
100
AcDbEntity
  8
0
100
AcDbPolyline
 90
        3
 70
     0
 43
0.0
 10
5.632999999999999
 20
5.751
 10
5.622999999999999
 20
5.692
 10
5.615
 20
5.647
  0
LWPOLYLINE
  5
119
330
18
100
AcDbEntity
  8
0
100
AcDbPolyline
 90
        3
 70
     0
 43
0.0
 10
5.582999999999999
 20
5.754
 10
5.567
 20
5.7
 10
5.559
 20
5.651
  0
LWPOLYLINE
  5
11F
330
18
100
AcDbEntity
  8
0
100
AcDbPolyline
 90
        3
 70
     0
 43
0.0
 10
5.476
 20
5.762000000000001
 10
5.468
 20
5.69
 10
5.462999999999999
 20
5.657
  0
LWPOLYLINE
  5
125
330
18
100
AcDbEntity
  8
0
100
AcDbPolyline
 90
        3
 70
     0
 43
0.0
 10
5.425
 20
5.766
 10
5.407
 20
5.712999999999999
 10
5.396
 20
5.662000000000001
  0
LWPOLYLINE
  5
12B
330
18
100
AcDbEntity
  8
0
100
AcDbPolyline
 90
        3
 70
     0
 43
0.0
 10
5.375
 20
5.769
 10
5.351
 20
5.727
 10
5.327000000000001
 20
5.667000000000001
  0
LWPOLYLINE
  5
131
330
18
100
AcDbEntity
  8
0
100
AcDbPolyline
 90
        3
 70
     0
 43
0.0
 10
5.279
 20
5.776
 10
5.24
 20
5.729
 10
5.212999999999999
 20
5.675
  0
LWPOLYLINE
  5
137
330
18
100
AcDbEntity
  8
0
100
AcDbPolyline
 90
        3
 70
     0
 43
0.0
 10
5.184
 20
5.783
 10
5.149
 20
5.718999999999999
 10
5.118
 20
5.682
  0
LWPOLYLINE
  5
13D
330
18
100
AcDbEntity
  8
0
100
AcDbPolyline
 90
        3
 70
     0
 43
0.0
 10
5.125
 20
5.787000000000001
 10
5.111000000000001
 20
5.752999999999999
 10
5.067
 20
5.686
  0
LWPOLYLINE
  5
143
330
18
100
AcDbEntity
  8
0
100
AcDbPolyline
 90
        2
 70
     0
 43
0.0
 10
5.125
 20
5.787000000000001
 10
5.121
 20
5.787000000000001
  0
LWPOLYLINE
  5
148
330
18
100
AcDbEntity
  8
0
100
AcDbPolyline
 90
        4
 70
     0
 43
0.0
 10
5.984
 20
6.907
 10
6.007999999999999
 20
6.837999999999999
 10
6.016
 20
6.803
 10
6.032
 20
6.745
  0
LWPOLYLINE
  5
14F
330
18
100
AcDbEntity
  8
0
100
AcDbPolyline
 90
        6
 70
     0
 43
0.0
 10
6.032
 20
6.349
 10
6.005
 20
6.545
 10
5.984
 20
6.678
 10
5.96
 20
6.785
 10
5.939
 20
6.872000000000001
 10
5.922999999999999
 20
6.912000000000001
  0
LWPOLYLINE
  5
158
330
18
100
AcDbEntity
  8
0
100
AcDbPolyline
 90
        8
 70
     0
 43
0.0
 10
5.848
 20
6.919
 10
5.894
 20
6.787000000000001
 10
5.922999999999999
 20
6.66
 10
5.947
 20
6.511
 10
5.968
 20
6.349
 10
5.987
 20
6.247999999999999
 10
6.005
 20
6.155
 10
6.032
 20
6.086
  0
LWPOLYLINE
  5
163
330
18
100
AcDbEntity
  8
0
100
AcDbPolyline
 90
       10
 70
     0
 43
0.0
 10
5.955
 20
5.938
 10
5.95
 20
6.087999999999999
 10
5.936
 20
6.263999999999999
 10
5.899
 20
6.405
 10
5.875
 20
6.507999999999999
 10
5.867000000000001
 20
6.604
 10
5.849
 20
6.707999999999999
 10
5.817
 20
6.809
 10
5.79
 20
6.862
 10
5.75
 20
6.927000000000001
  0
LWPOLYLINE
  5
170
330
18
100
AcDbEntity
  8
0
100
AcDbPolyline
 90
        8
 70
     0
 43
0.0
 10
5.84
 20
5.946000000000001
 10
5.854
 20
6.171
 10
5.843
 20
6.354
 10
5.825
 20
6.482
 10
5.797999999999999
 20
6.601
 10
5.774
 20
6.705
 10
5.734
 20
6.797999999999999
 10
5.67
 20
6.934
  0
LWPOLYLINE
  5
17B
330
18
100
AcDbEntity
  8
0
100
AcDbPolyline
 90
        7
 70
     0
 43
0.0
 10
5.769
 20
5.951000000000001
 10
5.785
 20
6.141
 10
5.774
 20
6.303999999999999
 10
5.75
 20
6.471
 10
5.712999999999999
 20
6.657
 10
5.654
 20
6.785
 10
5.586
 20
6.941
  0
LWPOLYLINE
  5
185
330
18
100
AcDbEntity
  8
0
100
AcDbPolyline
 90
        9
 70
     0
 43
0.0
 10
5.707000000000001
 20
5.956
 10
5.729
 20
6.16
 10
5.71
 20
6.317
 10
5.689
 20
6.497999999999999
 10
5.662000000000001
 20
6.627999999999999
 10
5.596
 20
6.761
 10
5.561
 20
6.854
 10
5.54
 20
6.907
 10
5.516
 20
6.948
  0
LWPOLYLINE
  5
191
330
18
100
AcDbEntity
  8
0
100
AcDbPolyline
 90
       11
 70
     0
 43
0.0
 10
5.662000000000001
 20
5.959
 10
5.672999999999999
 20
6.165
 10
5.654
 20
6.292999999999999
 10
5.636
 20
6.397
 10
5.62
 20
6.482
 10
5.604
 20
6.556
 10
5.569
 20
6.665
 10
5.529
 20
6.755
 10
5.492000000000001
 20
6.832999999999999
 10
5.471
 20
6.891
 10
5.422999999999999
 20
6.956
  0
LWPOLYLINE
  5
19F
330
18
100
AcDbEntity
  8
0
100
AcDbPolyline
 90
       11
 70
     0
 43
0.0
 10
5.596
 20
5.964
 10
5.593
 20
6.176
 10
5.567
 20
6.287999999999999
 10
5.551
 20
6.399
 10
5.524
 20
6.492000000000001
 10
5.476
 20
6.607
 10
5.436
 20
6.724
 10
5.404
 20
6.843
 10
5.377999999999999
 20
6.907
 10
5.365
 20
6.934
 10
5.343
 20
6.962999999999999
  0
LWPOLYLINE
  5
1AD
330
18
100
AcDbEntity
  8
0
100
AcDbPolyline
 90
        9
 70
     0
 43
0.0
 10
5.553
 20
5.967000000000001
 10
5.532
 20
6.144
 10
5.49
 20
6.367000000000001
 10
5.447
 20
6.462999999999999
 10
5.399
 20
6.599
 10
5.362
 20
6.745
 10
5.327000000000001
 20
6.832999999999999
 10
5.295
 20
6.891
 10
5.247999999999999
 20
6.971
  0
LWPOLYLINE
  5
1B9
330
18
100
AcDbEntity
  8
0
100
AcDbPolyline
 90
        9
 70
     0
 43
0.0
 10
5.476
 20
5.972
 10
5.447
 20
6.141
 10
5.391
 20
6.32
 10
5.365
 20
6.468
 10
5.309
 20
6.599
 10
5.263999999999999
 20
6.74
 10
5.237
 20
6.837999999999999
 10
5.189
 20
6.888
 10
5.138999999999999
 20
6.98
  0
LWPOLYLINE
  5
1C5
330
18
100
AcDbEntity
  8
0
100
AcDbPolyline
 90
        9
 70
     0
 43
0.0
 10
5.364
 20
5.98
 10
5.335
 20
6.172999999999999
 10
5.297999999999999
 20
6.362
 10
5.252999999999999
 20
6.506
 10
5.2
 20
6.62
 10
5.144
 20
6.707999999999999
 10
5.099
 20
6.822
 10
5.077
 20
6.867000000000001
 10
5.049
 20
6.917999999999999
  0
LWPOLYLINE
  5
1D1
330
18
100
AcDbEntity
  8
0
100
AcDbPolyline
 90
        6
 70
     0
 43
0.0
 10
5.276
 20
5.986000000000001
 10
5.256
 20
6.125
 10
5.197
 20
6.317
 10
5.138999999999999
 20
6.513999999999999
 10
5.104
 20
6.632999999999999
 10
5.049
 20
6.726
  0
LWPOLYLINE
  5
1DA
330
18
100
AcDbEntity
  8
0
100
AcDbPolyline
 90
        7
 70
     0
 43
0.0
 10
5.202999999999999
 20
5.992000000000001
 10
5.167999999999999
 20
6.117999999999999
 10
5.125
 20
6.245
 10
5.093
 20
6.343
 10
5.077
 20
6.426
 10
5.064
 20
6.479
 10
5.049
 20
6.547999999999999
  0
LWPOLYLINE
  5
1E4
330
18
100
AcDbEntity
  8
0
100
AcDbPolyline
 90
        4
 70
     0
 43
0.0
 10
5.12
 20
5.997000000000001
 10
5.112
 20
6.062
 10
5.083
 20
6.165
 10
5.049
 20
6.24
  0
LWPOLYLINE
  5
1EB
330
18
100
AcDbEntity
  8
0
100
AcDbPolyline
 90
        3
 70
     0
 43
0.0
 10
5.078
 20
6.0
 10
5.067
 20
6.062
 10
5.049
 20
6.107
  0
LWPOLYLINE
  5
1F1
330
18
100
AcDbEntity
  8
0
100
AcDbPolyline
 90
        3
 70
     0
 43
0.0
 10
5.939
 20
5.837999999999999
 10
5.942
 20
5.892
 10
5.955
 20
5.938
  0
LWPOLYLINE
  5
1F7
330
18
100
AcDbEntity
  8
0
100
AcDbPolyline
 90
        3
 70
     0
 43
0.0
 10
5.835
 20
5.845
 10
5.835
 20
5.908
 10
5.84
 20
5.946000000000001
  0
LWPOLYLINE
  5
1FD
330
18
100
AcDbEntity
  8
0
100
AcDbPolyline
 90
        3
 70
     0
 43
0.0
 10
5.755
 20
5.851
 10
5.761
 20
5.905
 10
5.769
 20
5.951000000000001
  0
LWPOLYLINE
  5
203
330
18
100
AcDbEntity
  8
0
100
AcDbPolyline
 90
        3
 70
     0
 43
0.0
 10
5.697
 20
5.855
 10
5.705
 20
5.91
 10
5.71
 20
5.955
  0
LWPOLYLINE
  5
209
330
18
100
AcDbEntity
  8
0
100
AcDbPolyline
 90
        3
 70
     0
 43
0.0
 10
5.654
 20
5.858
 10
5.662000000000001
 20
5.921
 10
5.667000000000001
 20
5.957999999999999
  0
LWPOLYLINE
  5
20F
330
18
100
AcDbEntity
  8
0
100
AcDbPolyline
 90
        3
 70
     0
 43
0.0
 10
5.562
 20
5.865
 10
5.582999999999999
 20
5.902
 10
5.604
 20
5.962999999999999
  0
LWPOLYLINE
  5
215
330
18
100
AcDbEntity
  8
0
100
AcDbPolyline
 90
        3
 70
     0
 43
0.0
 10
5.502999999999999
 20
5.869
 10
5.521
 20
5.902
 10
5.553
 20
5.967000000000001
  0
LWPOLYLINE
  5
21B
330
18
100
AcDbEntity
  8
0
100
AcDbPolyline
 90
        3
 70
     0
 43
0.0
 10
5.434
 20
5.874
 10
5.447
 20
5.912999999999999
 10
5.476
 20
5.972
  0
LWPOLYLINE
  5
221
330
18
100
AcDbEntity
  8
0
100
AcDbPolyline
 90
        3
 70
     0
 43
0.0
 10
5.336
 20
5.881
 10
5.351
 20
5.931
 10
5.364
 20
5.98
  0
LWPOLYLINE
  5
227
330
18
100
AcDbEntity
  8
0
100
AcDbPolyline
 90
        3
 70
     0
 43
0.0
 10
5.255
 20
5.886
 10
5.272
 20
5.945
 10
5.276
 20
5.986000000000001
  0
LWPOLYLINE
  5
22D
330
18
100
AcDbEntity
  8
0
100
AcDbPolyline
 90
        3
 70
     0
 43
0.0
 10
5.181
 20
5.892
 10
5.189
 20
5.931
 10
5.202999999999999
 20
5.992000000000001
  0
LWPOLYLINE
  5
233
330
18
100
AcDbEntity
  8
0
100
AcDbPolyline
 90
        3
 70
     0
 43
0.0
 10
5.096
 20
5.898
 10
5.112
 20
5.937
 10
5.12
 20
5.997000000000001
  0
LWPOLYLINE
  5
239
330
18
100
AcDbEntity
  8
0
100
AcDbPolyline
 90
        3
 70
     0
 43
0.0
 10
5.043
 20
5.902
 10
5.061
 20
5.931
 10
5.078
 20
6.0
  0
LWPOLYLINE
  5
23F
330
18
100
AcDbEntity
  8
0
100
AcDbPolyline
 90
        3
 70
     0
 43
0.0
 10
5.776
 20
5.741000000000001
 10
5.809
 20
5.796
 10
5.837999999999999
 20
5.845
  0
LWPOLYLINE
  5
245
330
18
100
AcDbEntity
  8
0
100
AcDbPolyline
 90
        3
 70
     0
 43
0.0
 10
5.694
 20
5.747000000000001
 10
5.729
 20
5.814
 10
5.755
 20
5.851
  0
LWPOLYLINE
  5
24B
330
18
100
AcDbEntity
  8
0
100
AcDbPolyline
 90
        3
 70
     0
 43
0.0
 10
5.632999999999999
 20
5.751
 10
5.667999999999999
 20
5.801
 10
5.697
 20
5.855
  0
LWPOLYLINE
  5
251
330
18
100
AcDbEntity
  8
0
100
AcDbPolyline
 90
        3
 70
     0
 43
0.0
 10
5.582999999999999
 20
5.754
 10
5.62
 20
5.82
 10
5.654
 20
5.858
  0
LWPOLYLINE
  5
257
330
18
100
AcDbEntity
  8
0
100
AcDbPolyline
 90
        3
 70
     0
 43
0.0
 10
5.476
 20
5.762000000000001
 10
5.513999999999999
 20
5.812
 10
5.562
 20
5.865
  0
LWPOLYLINE
  5
25D
330
18
100
AcDbEntity
  8
0
100
AcDbPolyline
 90
        3
 70
     0
 43
0.0
 10
5.425
 20
5.766
 10
5.455
 20
5.812
 10
5.502999999999999
 20
5.869
  0
LWPOLYLINE
  5
263
330
18
100
AcDbEntity
  8
0
100
AcDbPolyline
 90
        3
 70
     0
 43
0.0
 10
5.854
 20
5.735
 10
5.886
 20
5.792999999999999
 10
5.939
 20
5.837999999999999
  0
LWPOLYLINE
  5
269
330
18
100
AcDbEntity
  8
0
100
AcDbPolyline
 90
        3
 70
     0
 43
0.0
 10
5.939
 20
5.729
 10
5.968
 20
5.769
 10
5.99
 20
5.813
  0
LWPOLYLINE
  5
26F
330
18
100
AcDbEntity
  8
0
100
AcDbPolyline
 90
        3
 70
     0
 43
0.0
 10
6.013
 20
5.724
 10
6.029
 20
5.742999999999999
 10
6.042999999999999
 20
5.768
  0
LWPOLYLINE
  5
275
330
18
100
AcDbEntity
  8
0
100
AcDbPolyline
 90
        3
 70
     0
 43
0.0
 10
5.375
 20
5.769
 10
5.402
 20
5.825
 10
5.434
 20
5.874
  0
LWPOLYLINE
  5
27B
330
18
100
AcDbEntity
  8
0
100
AcDbPolyline
 90
        3
 70
     0
 43
0.0
 10
5.279
 20
5.776
 10
5.306
 20
5.832999999999999
 10
5.336
 20
5.881
  0
LWPOLYLINE
  5
281
330
18
100
AcDbEntity
  8
0
100
AcDbPolyline
 90
        3
 70
     0
 43
0.0
 10
5.184
 20
5.783
 10
5.221
 20
5.83
 10
5.255
 20
5.886
  0
LWPOLYLINE
  5
287
330
18
100
AcDbEntity
  8
0
100
AcDbPolyline
 90
        3
 70
     0
 43
0.0
 10
5.125
 20
5.787000000000001
 10
5.141
 20
5.836
 10
5.181
 20
5.892
  0
LWPOLYLINE
  5
28D
330
18
100
AcDbEntity
  8
0
100
AcDbPolyline
 90
        3
 70
     0
 43
0.0
 10
5.049
 20
5.847
 10
5.083
 20
5.877999999999999
 10
5.096
 20
5.898
  0
LWPOLYLINE
  5
293
330
18
100
AcDbEntity
  8
0
100
AcDbPolyline
 90
       10
 70
     0
 43
0.0
 10
0.485
 20
5.93
 10
0.498
 20
6.085
 10
0.525
 20
6.284
 10
0.5479999999999999
 20
6.441
 10
0.5629999999999999
 20
6.542999999999999
 10
0.575
 20
6.632999999999999
 10
0.5920000000000001
 20
6.752000000000001
 10
0.595
 20
6.841
 10
0.599
 20
6.904
 10
0.605
 20
6.959
  0
LWPOLYLINE
  5
2A0
330
18
100
AcDbEntity
  8
0
100
AcDbPolyline
 90
       10
 70
     0
 43
0.0
 10
0.408
 20
5.921
 10
0.434
 20
6.187
 10
0.474
 20
6.422999999999999
 10
0.5
 20
6.595
 10
0.507
 20
6.711
 10
0.509
 20
6.777
 10
0.509
 20
6.817
 10
0.509
 20
6.859
 10
0.505
 20
6.888
 10
0.516
 20
6.952000000000001
  0
LWPOLYLINE
  5
2AD
330
18
100
AcDbEntity
  8
0
100
AcDbPolyline
 90
        7
 70
     0
 43
0.0
 10
0.339
 20
5.912000000000001
 10
0.346
 20
6.091
 10
0.371
 20
6.331
 10
0.391
 20
6.512000000000001
 10
0.413
 20
6.647
 10
0.422
 20
6.79
 10
0.431
 20
6.944
  0
LWPOLYLINE
  5
2B7
330
18
100
AcDbEntity
  8
0
100
AcDbPolyline
 90
        4
 70
     0
 43
0.0
 10
0.225
 20
6.738
 10
0.239
 20
6.846
 10
0.243
 20
6.897
 10
0.25
 20
6.928999999999999
  0
LWPOLYLINE
  5
2BE
330
18
100
AcDbEntity
  8
0
100
AcDbPolyline
 90
        7
 70
     0
 43
0.0
 10
0.225
 20
6.221
 10
0.243
 20
6.375
 10
0.257
 20
6.494
 10
0.263
 20
6.644
 10
0.286
 20
6.801
 10
0.295
 20
6.888
 10
0.295
 20
6.933
  0
LWPOLYLINE
  5
2C8
330
18
100
AcDbEntity
  8
0
100
AcDbPolyline
 90
       12
 70
     0
 43
0.0
 10
0.276
 20
5.905
 10
0.281
 20
5.988
 10
0.284
 20
6.093999999999999
 10
0.286
 20
6.181
 10
0.286
 20
6.257000000000001
 10
0.292
 20
6.337000000000001
 10
0.299
 20
6.447
 10
0.31
 20
6.557
 10
0.328
 20
6.693
 10
0.344
 20
6.815
 10
0.359
 20
6.897
 10
0.359
 20
6.938
  0
LWPOLYLINE
  5
2D7
330
18
100
AcDbEntity
  8
0
100
AcDbPolyline
 90
        7
 70
     0
 43
0.0
 10
0.565
 20
5.939
 10
0.608
 20
6.12
 10
0.634
 20
6.351
 10
0.659
 20
6.534
 10
0.67
 20
6.672999999999999
 10
0.6809999999999999
 20
6.825
 10
0.6859999999999999
 20
6.966
  0
LWPOLYLINE
  5
2E1
330
18
100
AcDbEntity
  8
0
100
AcDbPolyline
 90
       10
 70
     0
 43
0.0
 10
0.64
 20
5.948
 10
0.6809999999999999
 20
6.124
 10
0.71
 20
6.318
 10
0.745
 20
6.496
 10
0.7829999999999999
 20
6.643
 10
0.8059999999999999
 20
6.76
 10
0.831
 20
6.867000000000001
 10
0.83
 20
6.906000000000001
 10
0.8370000000000001
 20
6.942
 10
0.838
 20
6.98
  0
LWPOLYLINE
  5
2EE
330
18
100
AcDbEntity
  8
0
100
AcDbPolyline
 90
        8
 70
     0
 43
0.0
 10
0.731
 20
5.957999999999999
 10
0.7609999999999999
 20
6.099
 10
0.7909999999999999
 20
6.251
 10
0.8090000000000001
 20
6.35
 10
0.831
 20
6.481
 10
0.861
 20
6.645
 10
0.91
 20
6.894
 10
0.922
 20
6.987
  0
LWPOLYLINE
  5
2F9
330
18
100
AcDbEntity
  8
0
100
AcDbPolyline
 90
        7
 70
     0
 43
0.0
 10
0.831
 20
5.97
 10
0.84
 20
6.074
 10
0.8690000000000001
 20
6.23
 10
0.883
 20
6.349
 10
0.8909999999999999
 20
6.457999999999999
 10
0.902
 20
6.545
 10
0.9350000000000001
 20
6.722
  0
LWPOLYLINE
  5
303
330
18
100
AcDbEntity
  8
0
100
AcDbPolyline
 90
        8
 70
     0
 43
0.0
 10
0.953
 20
5.74
 10
0.8759999999999999
 20
5.769
 10
0.8040000000000001
 20
5.832999999999999
 10
0.857
 20
5.905
 10
0.89
 20
5.977
 10
0.892
 20
6.037999999999999
 10
0.9079999999999999
 20
6.178
 10
0.9350000000000001
 20
6.32
  0
LWPOLYLINE
  5
30E
330
18
100
AcDbEntity
  8
0
100
AcDbPolyline
 90
        5
 70
     0
 43
0.0
 10
0.858
 20
5.728
 10
0.8020000000000001
 20
5.774
 10
0.747
 20
5.827000000000001
 10
0.789
 20
5.905
 10
0.831
 20
5.97
  0
LWPOLYLINE
  5
316
330
18
100
AcDbEntity
  8
0
100
AcDbPolyline
 90
        5
 70
     0
 43
0.0
 10
0.775
 20
5.718999999999999
 10
0.731
 20
5.757000000000001
 10
0.6679999999999999
 20
5.817
 10
0.6890000000000001
 20
5.887000000000001
 10
0.731
 20
5.957999999999999
  0
LWPOLYLINE
  5
31E
330
18
100
AcDbEntity
  8
0
100
AcDbPolyline
 90
        5
 70
     0
 43
0.0
 10
0.64
 20
5.948
 10
0.607
 20
5.88
 10
0.583
 20
5.808
 10
0.635
 20
5.747999999999999
 10
0.71
 20
5.711
  0
LWPOLYLINE
  5
326
330
18
100
AcDbEntity
  8
0
100
AcDbPolyline
 90
        5
 70
     0
 43
0.0
 10
0.626
 20
5.701000000000001
 10
0.573
 20
5.749
 10
0.516
 20
5.8
 10
0.532
 20
5.867999999999999
 10
0.565
 20
5.939
  0
LWPOLYLINE
  5
32E
330
18
100
AcDbEntity
  8
0
100
AcDbPolyline
 90
        5
 70
     0
 43
0.0
 10
0.5529999999999999
 20
5.693
 10
0.491
 20
5.742999999999999
 10
0.422
 20
5.789
 10
0.447
 20
5.841
 10
0.485
 20
5.93
  0
LWPOLYLINE
  5
336
330
18
100
AcDbEntity
  8
0
100
AcDbPolyline
 90
        5
 70
     0
 43
0.0
 10
0.491
 20
5.685
 10
0.4320000000000001
 20
5.735
 10
0.352
 20
5.78
 10
0.368
 20
5.836
 10
0.408
 20
5.921
  0
LWPOLYLINE
  5
33E
330
18
100
AcDbEntity
  8
0
100
AcDbPolyline
 90
        5
 70
     0
 43
0.0
 10
0.4270000000000001
 20
5.678
 10
0.343
 20
5.722
 10
0.28
 20
5.772
 10
0.296
 20
5.826000000000001
 10
0.339
 20
5.912000000000001
  0
LWPOLYLINE
  5
346
330
18
100
AcDbEntity
  8
0
100
AcDbPolyline
 90
        5
 70
     0
 43
0.0
 10
0.276
 20
5.905
 10
0.247
 20
5.839
 10
0.209
 20
5.763999999999999
 10
0.265
 20
5.72
 10
0.355
 20
5.67
  0
LWPOLYLINE
  5
34E
330
18
100
AcDbEntity
  8
0
100
AcDbPolyline
 90
        3
 70
     0
 43
0.0
 10
0.898
 20
5.603
 10
0.9420000000000001
 20
5.693
 10
0.953
 20
5.74
  0
LWPOLYLINE
  5
354
330
18
100
AcDbEntity
  8
0
100
AcDbPolyline
 90
        3
 70
     0
 43
0.0
 10
0.8070000000000001
 20
5.593
 10
0.835
 20
5.671
 10
0.858
 20
5.728
  0
LWPOLYLINE
  5
35A
330
18
100
AcDbEntity
  8
0
100
AcDbPolyline
 90
        3
 70
     0
 43
0.0
 10
0.725
 20
5.582999999999999
 10
0.7559999999999999
 20
5.653
 10
0.775
 20
5.718999999999999
  0
LWPOLYLINE
  5
360
330
18
100
AcDbEntity
  8
0
100
AcDbPolyline
 90
        3
 70
     0
 43
0.0
 10
0.65
 20
5.574
 10
0.6790000000000001
 20
5.651
 10
0.71
 20
5.711
  0
LWPOLYLINE
  5
366
330
18
100
AcDbEntity
  8
0
100
AcDbPolyline
 90
        3
 70
     0
 43
0.0
 10
0.5820000000000001
 20
5.566
 10
0.604
 20
5.631
 10
0.626
 20
5.701000000000001
  0
LWPOLYLINE
  5
36C
330
18
100
AcDbEntity
  8
0
100
AcDbPolyline
 90
        3
 70
     0
 43
0.0
 10
0.503
 20
5.557
 10
0.528
 20
5.625
 10
0.5529999999999999
 20
5.693
  0
LWPOLYLINE
  5
372
330
18
100
AcDbEntity
  8
0
100
AcDbPolyline
 90
        3
 70
     0
 43
0.0
 10
0.419
 20
5.547000000000001
 10
0.448
 20
5.609
 10
0.491
 20
5.685
  0
LWPOLYLINE
  5
378
330
18
100
AcDbEntity
  8
0
100
AcDbPolyline
 90
        3
 70
     0
 43
0.0
 10
0.358
 20
5.54
 10
0.374
 20
5.585
 10
0.4270000000000001
 20
5.678
  0
LINE
  5
37E
330
18
100
AcDbEntity
  8
0
100
AcDbLine
 10
0.31
 20
5.593
 30
0.0
 11
0.355
 21
5.67
 31
0.0
  0
LINE
  5
37F
330
18
100
AcDbEntity
  8
0
100
AcDbLine
 10
0.268
 20
5.53
 30
0.0
 11
0.31
 21
5.593
 31
0.0
  0
LWPOLYLINE
  5
380
330
18
100
AcDbEntity
  8
0
100
AcDbPolyline
 90
        9
 70
     0
 43
0.0
 10
0.5429999999999999
 20
3.951
 10
0.579
 20
4.147
 10
0.619
 20
4.428
 10
0.6659999999999999
 20
4.656000000000001
 10
0.701
 20
4.895
 10
0.733
 20
5.106
 10
0.774
 20
5.291
 10
0.8009999999999999
 20
5.421
 10
0.8070000000000001
 20
5.593
  0
LWPOLYLINE
  5
38C
330
18
100
AcDbEntity
  8
0
100
AcDbPolyline
 90
        8
 70
     0
 43
0.0
 10
0.898
 20
5.603
 10
0.846
 20
5.077
 10
0.818
 20
4.81
 10
0.782
 20
4.622
 10
0.718
 20
4.394
 10
0.667
 20
4.247
 10
0.644
 20
4.085
 10
0.61
 20
3.945
  0
LWPOLYLINE
  5
397
330
18
100
AcDbEntity
  8
0
100
AcDbPolyline
 90
        5
 70
     0
 43
0.0
 10
0.6859999999999999
 20
3.939
 10
0.763
 20
4.263
 10
0.816
 20
4.508
 10
0.852
 20
4.692
 10
0.9350000000000001
 20
4.891
  0
LWPOLYLINE
  5
39F
330
18
100
AcDbEntity
  8
0
100
AcDbPolyline
 90
        4
 70
     0
 43
0.0
 10
0.765
 20
3.932
 10
0.816
 20
4.115
 10
0.8759999999999999
 20
4.263
 10
0.9350000000000001
 20
4.467
  0
LWPOLYLINE
  5
3A6
330
18
100
AcDbEntity
  8
0
100
AcDbPolyline
 90
        3
 70
     0
 43
0.0
 10
0.845
 20
3.925
 10
0.877
 20
4.025
 10
0.9350000000000001
 20
4.178
  0
LWPOLYLINE
  5
3AC
330
18
100
AcDbEntity
  8
0
100
AcDbPolyline
 90
        9
 70
     0
 43
0.0
 10
0.466
 20
3.958
 10
0.546
 20
4.218999999999999
 10
0.5920000000000001
 20
4.608000000000001
 10
0.621
 20
4.866000000000001
 10
0.6800000000000001
 20
5.125
 10
0.711
 20
5.356
 10
0.718
 20
5.484
 10
0.7170000000000001
 20
5.529
 10
0.725
 20
5.582999999999999
  0
LWPOLYLINE
  5
3B8
330
18
100
AcDbEntity
  8
0
100
AcDbPolyline
 90
        8
 70
     0
 43
0.0
 10
0.65
 20
5.574
 10
0.618
 20
5.367999999999999
 10
0.581
 20
5.064
 10
0.531
 20
4.753
 10
0.494
 20
4.506
 10
0.46
 20
4.294
 10
0.44
 20
4.125
 10
0.394
 20
3.964
  0
LWPOLYLINE
  5
3C3
330
18
100
AcDbEntity
  8
0
100
AcDbPolyline
 90
        8
 70
     0
 43
0.0
 10
0.322
 20
3.97
 10
0.383
 20
4.358000000000001
 10
0.423
 20
4.57
 10
0.491
 20
4.765
 10
0.5379999999999999
 20
5.007
 10
0.569
 20
5.211
 10
0.578
 20
5.345
 10
0.5820000000000001
 20
5.566
  0
LWPOLYLINE
  5
3CE
330
18
100
AcDbEntity
  8
0
100
AcDbPolyline
 90
        9
 70
     0
 43
0.0
 10
0.225
 20
4.136
 10
0.277
 20
4.393
 10
0.322
 20
4.652
 10
0.366
 20
4.781000000000001
 10
0.414
 20
5.029
 10
0.445
 20
5.202999999999999
 10
0.485
 20
5.332000000000001
 10
0.494
 20
5.432
 10
0.503
 20
5.557
  0
LWPOLYLINE
  5
3DA
330
18
100
AcDbEntity
  8
0
100
AcDbPolyline
 90
        6
 70
     0
 43
0.0
 10
0.419
 20
5.547000000000001
 10
0.391
 20
5.326000000000001
 10
0.353
 20
5.142
 10
0.323
 20
4.926
 10
0.279
 20
4.816
 10
0.225
 20
4.557
  0
LWPOLYLINE
  5
3E3
330
18
100
AcDbEntity
  8
0
100
AcDbPolyline
 90
        8
 70
     0
 43
0.0
 10
0.225
 20
4.855
 10
0.267
 20
5.023
 10
0.294
 20
5.194
 10
0.307
 20
5.246
 10
0.33
 20
5.335
 10
0.339
 20
5.404
 10
0.347
 20
5.48
 10
0.358
 20
5.54
  0
LWPOLYLINE
  5
3EE
330
18
100
AcDbEntity
  8
0
100
AcDbPolyline
 90
        3
 70
     0
 43
0.0
 10
0.225
 20
5.374
 10
0.256
 20
5.468999999999999
 10
0.268
 20
5.53
  0
LINE
  5
3F4
330
18
100
AcDbEntity
  8
0
100
AcDbLine
 10
0.145
 20
5.756
 30
0.0
 11
0.225
 21
5.899
 31
0.0
  0
LINE
  5
3F5
330
18
100
AcDbEntity
  8
0
100
AcDbLine
 10
0.302
 20
5.662999999999999
 30
0.0
 11
0.145
 21
5.756
 31
0.0
  0
LINE
  5
3F6
330
18
100
AcDbEntity
  8
0
100
AcDbLine
 10
0.225
 20
5.525
 30
0.0
 11
0.302
 21
5.662999999999999
 31
0.0
  0
LINE
  5
3F7
330
18
100
AcDbEntity
  8
0
100
AcDbLine
 10
0.302
 20
5.662999999999999
 30
0.0
 11
1.012
 21
5.746
 31
0.0
  0
LINE
  5
3F8
330
18
100
AcDbEntity
  8
0
100
AcDbLine
 10
0.145
 20
5.756
 30
0.0
 11
0.856
 21
5.839
 31
0.0
  0
LINE
  5
3F9
330
18
100
AcDbEntity
  8
0
100
AcDbLine
 10
0.856
 20
5.839
 30
0.0
 11
0.9350000000000001
 21
5.982
 31
0.0
  0
LINE
  5
3FA
330
18
100
AcDbEntity
  8
0
100
AcDbLine
 10
0.9350000000000001
 20
5.608
 30
0.0
 11
1.012
 21
5.746
 31
0.0
  0
LINE
  5
3FB
330
18
100
AcDbEntity
  8
0
100
AcDbLine
 10
0.9350000000000001
 20
5.982
 30
0.0
 11
0.9350000000000001
 21
6.988
 31
0.0
  0
LINE
  5
3FC
330
18
100
AcDbEntity
  8
0
100
AcDbLine
 10
0.225
 20
5.899
 30
0.0
 11
0.225
 21
6.926
 31
0.0
  0
LINE
  5
3FD
330
18
100
AcDbEntity
  8
0
100
AcDbLine
 10
1.012
 20
5.746
 30
0.0
 11
0.856
 21
5.839
 31
0.0
  0
LINE
  5
3FE
330
18
100
AcDbEntity
  8
0
100
AcDbLine
 10
0.225
 20
5.899
 30
0.0
 11
0.9350000000000001
 21
5.982
 31
0.0
  0
LINE
  5
3FF
330
18
100
AcDbEntity
  8
0
100
AcDbLine
 10
0.225
 20
5.525
 30
0.0
 11
0.9350000000000001
 21
5.608
 31
0.0
  0
LINE
  5
400
330
18
100
AcDbEntity
  8
0
100
AcDbLine
 10
6.032
 20
5.932
 30
0.0
 11
6.032
 21
6.903
 31
0.0
  0
LINE
  5
401
330
18
100
AcDbEntity
  8
0
100
AcDbLine
 10
5.049
 20
6.002000000000001
 30
0.0
 11
5.049
 21
6.988
 31
0.0
  0
LINE
  5
402
330
18
100
AcDbEntity
  8
0
100
AcDbLine
 10
5.962000000000001
 20
5.836
 30
0.0
 11
6.032
 21
5.932
 31
0.0
  0
LINE
  5
403
330
18
100
AcDbEntity
  8
0
100
AcDbLine
 10
6.104
 20
5.717000000000001
 30
0.0
 11
5.962000000000001
 21
5.836
 31
0.0
  0
LINE
  5
404
330
18
100
AcDbEntity
  8
0
100
AcDbLine
 10
6.032
 20
5.932
 30
0.0
 11
5.049
 21
6.002000000000001
 31
0.0
  0
LINE
  5
405
330
18
100
AcDbEntity
  8
0
100
AcDbLine
 10
4.98
 20
5.906000000000001
 30
0.0
 11
5.049
 21
6.002000000000001
 31
0.0
  0
LINE
  5
406
330
18
100
AcDbEntity
  8
0
100
AcDbLine
 10
5.962000000000001
 20
5.836
 30
0.0
 11
4.98
 21
5.906000000000001
 31
0.0
  0
LINE
  5
407
330
18
100
AcDbEntity
  8
0
100
AcDbLine
 10
5.121
 20
5.787000000000001
 30
0.0
 11
4.98
 21
5.906000000000001
 31
0.0
  0
LINE
  5
408
330
18
100
AcDbEntity
  8
0
100
AcDbLine
 10
5.049
 20
5.687
 30
0.0
 11
5.121
 21
5.787000000000001
 31
0.0
  0
LINE
  5
409
330
18
100
AcDbEntity
  8
0
100
AcDbLine
 10
6.032
 20
5.617000000000001
 30
0.0
 11
6.104
 21
5.717000000000001
 31
0.0
  0
LINE
  5
40A
330
18
100
AcDbEntity
  8
0
100
AcDbLine
 10
6.104
 20
5.717000000000001
 30
0.0
 11
5.121
 21
5.787000000000001
 31
0.0
  0
LINE
  5
40B
330
18
100
AcDbEntity
  8
0
100
AcDbLine
 10
6.032
 20
5.617000000000001
 30
0.0
 11
5.049
 21
5.687
 31
0.0
  0
LWPOLYLINE
  5
40C
330
18
100
AcDbEntity
  8
0
100
AcDbPolyline
 90
        5
 70
     0
 43
0.0
 10
3.791
 20
7.519
 10
3.79
 20
7.495
 10
3.791
 20
7.482
 10
3.794
 20
7.468999999999999
 10
3.796
 20
7.451000000000001
  0
LWPOLYLINE
  5
414
330
18
100
AcDbEntity
  8
0
100
AcDbPolyline
 90
        6
 70
     0
 43
0.0
 10
3.751
 20
7.507999999999999
 10
3.762
 20
7.475
 10
3.763
 20
7.454
 10
3.77
 20
7.422000000000001
 10
3.771
 20
7.408
 10
3.775
 20
7.402
  0
LWPOLYLINE
  5
41D
330
18
100
AcDbEntity
  8
0
100
AcDbPolyline
 90
        6
 70
     0
 43
0.0
 10
3.715
 20
7.499
 10
3.728
 20
7.472
 10
3.731
 20
7.451000000000001
 10
3.735
 20
7.43
 10
3.737
 20
7.412999999999999
 10
3.737
 20
7.402
  0
LWPOLYLINE
  5
426
330
18
100
AcDbEntity
  8
0
100
AcDbPolyline
 90
        6
 70
     0
 43
0.0
 10
3.693
 20
7.492999999999999
 10
3.7
 20
7.479
 10
3.706
 20
7.468999999999999
 10
3.708
 20
7.461
 10
3.709
 20
7.452000000000001
 10
3.711
 20
7.441
  0
LINE
  5
42F
330
18
100
AcDbEntity
  8
0
100
AcDbLine
 10
3.669
 20
7.487
 30
0.0
 11
3.831
 21
7.53
 31
0.0
  0
LINE
  5
430
330
18
100
AcDbEntity
  8
0
100
AcDbLine
 10
3.909
 20
7.415
 30
0.0
 11
4.249
 21
7.313
 31
0.0
  0
LINE
  5
431
330
18
100
AcDbEntity
  8
0
100
AcDbLine
 10
3.831
 20
7.53
 30
0.0
 11
3.909
 21
7.415
 31
0.0
  0
LINE
  5
432
330
18
100
AcDbEntity
  8
0
100
AcDbLine
 10
3.682
 20
7.483
 30
0.0
 11
3.76
 21
7.367999999999999
 31
0.0
  0
LINE
  5
433
330
18
100
AcDbEntity
  8
0
100
AcDbLine
 10
3.76
 20
7.367999999999999
 30
0.0
 11
3.831
 21
7.53
 31
0.0
  0
LWPOLYLINE
  5
434
330
18
100
AcDbEntity
  8
0
100
AcDbPolyline
 90
        3
 70
     0
 43
0.0
 10
3.821
 20
1.673
 10
3.825
 20
1.685
 10
3.829
 20
1.695
  0
LWPOLYLINE
  5
43A
330
18
100
AcDbEntity
  8
0
100
AcDbPolyline
 90
        4
 70
     0
 43
0.0
 10
3.785
 20
1.683
 10
3.797
 20
1.709
 10
3.803
 20
1.718
 10
3.808
 20
1.725
  0
LWPOLYLINE
  5
441
330
18
100
AcDbEntity
  8
0
100
AcDbPolyline
 90
        4
 70
     0
 43
0.0
 10
3.756
 20
1.69
 10
3.765
 20
1.719
 10
3.771
 20
1.733
 10
3.786
 20
1.757
  0
LWPOLYLINE
  5
448
330
18
100
AcDbEntity
  8
0
100
AcDbPolyline
 90
        6
 70
     0
 43
0.0
 10
3.722
 20
1.699
 10
3.734
 20
1.73
 10
3.742
 20
1.746
 10
3.748
 20
1.758
 10
3.753
 20
1.769
 10
3.763
 20
1.791
  0
LWPOLYLINE
  5
451
330
18
100
AcDbEntity
  8
0
100
AcDbPolyline
 90
        6
 70
     0
 43
0.0
 10
3.689
 20
1.708
 10
3.703
 20
1.728
 10
3.712
 20
1.742
 10
3.719
 20
1.756
 10
3.731
 20
1.777
 10
3.734
 20
1.809
  0
LINE
  5
45A
330
18
100
AcDbEntity
  8
0
100
AcDbLine
 10
3.931
 20
1.787
 30
0.0
 11
4.249
 21
1.882
 31
0.0
  0
LINE
  5
45B
330
18
100
AcDbEntity
  8
0
100
AcDbLine
 10
3.669
 20
1.713
 30
0.0
 11
3.849
 21
1.666
 31
0.0
  0
LINE
  5
45C
330
18
100
AcDbEntity
  8
0
100
AcDbLine
 10
3.849
 20
1.666
 30
0.0
 11
3.931
 21
1.787
 31
0.0
  0
LINE
  5
45D
330
18
100
AcDbEntity
  8
0
100
AcDbLine
 10
3.742
 20
1.821
 30
0.0
 11
3.849
 21
1.666
 31
0.0
  0
LINE
  5
45E
330
18
100
AcDbEntity
  8
0
100
AcDbLine
 10
3.665
 20
1.707
 30
0.0
 11
3.742
 21
1.821
 31
0.0
  0
LWPOLYLINE
  5
45F
330
18
100
AcDbEntity
  8
0
  6
HIDDEN
100
AcDbPolyline
 90
       12
 70
     0
 43
0.0
 10
4.249
 20
3.954
 10
3.963
 20
3.572
 42
0.162
 10
3.941
 20
3.504
 10
3.941
 20
2.568
 42
-0.4920000000000001
 10
3.734
 20
2.409
 10
3.489
 20
2.473
 42
0.138
 10
3.465
 20
2.473
 10
3.163
 20
2.382
 42
-0.502
 10
2.951
 20
2.54
 10
2.951
 20
3.372
 42
0.191
 10
2.921
 20
3.449
 10
2.562
 20
3.831
  0
LINE
  5
46E
330
18
100
AcDbEntity
  8
0
100
AcDbLine
 10
2.419
 20
4.046
 30
0.0
 11
2.562
 21
3.893
 31
0.0
  0
LINE
  5
46F
330
18
100
AcDbEntity
  8
0
100
AcDbLine
 10
2.366
 20
4.04
 30
0.0
 11
2.562
 21
3.831
 31
0.0
  0
LINE
  5
470
330
18
100
AcDbEntity
  8
0
100
AcDbLine
 10
4.297
 20
4.081
 30
0.0
 11
4.249
 21
4.016
 31
0.0
  0
LINE
  5
471
330
18
100
AcDbEntity
  8
0
100
AcDbLine
 10
4.341
 20
4.078
 30
0.0
 11
4.249
 21
3.954
 31
0.0
  0
LINE
  5
472
330
18
100
AcDbEntity
  8
0
  6
HIDDEN
100
AcDbLine
 10
3.497
 20
3.849
 30
0.0
 11
3.497
 21
2.509
 31
0.0
  0
LINE
  5
473
330
18
100
AcDbEntity
  8
0
100
AcDbLine
 10
3.328
 20
4.038
 30
0.0
 11
3.537
 21
3.805
 31
0.0
  0
LINE
  5
474
330
18
100
AcDbEntity
  8
0
100
AcDbLine
 10
3.366
 20
4.035
 30
0.0
 11
3.328
 21
4.038
 31
0.0
  0
LINE
  5
475
330
18
100
AcDbEntity
  8
0
100
AcDbLine
 10
3.328
 20
4.038
 30
0.0
 11
3.328
 21
4.141
 31
0.0
  0
LINE
  5
476
330
18
100
AcDbEntity
  8
0
100
AcDbLine
 10
3.574
 20
3.803
 30
0.0
 11
3.537
 21
3.805
 31
0.0
  0
LINE
  5
477
330
18
100
AcDbEntity
  8
0
100
AcDbLine
 10
3.682
 20
3.812
 30
0.0
 11
3.574
 21
3.803
 31
0.0
  0
LINE
  5
478
330
18
100
AcDbEntity
  8
0
100
AcDbLine
 10
3.86
 20
4.0
 30
0.0
 11
3.86
 21
4.116000000000001
 31
0.0
  0
LINE
  5
479
330
18
100
AcDbEntity
  8
0
100
AcDbLine
 10
3.682
 20
3.812
 30
0.0
 11
3.86
 21
4.0
 31
0.0
  0
LINE
  5
47A
330
18
100
AcDbEntity
  8
0
100
AcDbLine
 10
3.366
 20
4.035
 30
0.0
 11
3.574
 21
3.803
 31
0.0
  0
LINE
  5
47B
330
18
100
AcDbEntity
  8
0
100
AcDbLine
 10
3.366
 20
4.138
 30
0.0
 11
3.366
 21
4.035
 31
0.0
  0
LINE
  5
47C
330
18
100
AcDbEntity
  8
0
100
AcDbLine
 10
4.265
 20
4.987
 30
0.0
 11
3.29
 21
4.968
 31
0.0
  0
LINE
  5
47D
330
18
100
AcDbEntity
  8
0
100
AcDbLine
 10
3.382
 20
4.968
 30
0.0
 11
3.29
 21
4.968
 31
0.0
  0
LINE
  5
47E
330
18
100
AcDbEntity
  8
0
100
AcDbLine
 10
3.42
 20
4.973
 30
0.0
 11
3.29
 21
4.968
 31
0.0
  0
LINE
  5
47F
330
18
100
AcDbEntity
  8
0
  6
HIDDEN
100
AcDbLine
 10
4.632
 20
4.099
 30
0.0
 11
5.202000000000001
 21
4.138999999999999
 31
0.0
  0
ARC
  5
480
330
18
100
AcDbEntity
  8
0
  6
HIDDEN
100
AcDbCircle
 10
5.199
 20
4.181
 30
0.0
 40
0.042
100
AcDbArc
 50
274.035
 51
0.0
  0
LINE
  5
481
330
18
100
AcDbEntity
  8
0
  6
HIDDEN
100
AcDbLine
 10
3.493
 20
4.971
 30
0.0
 11
3.493
 21
5.023
 31
0.0
  0
LINE
  5
482
330
18
100
AcDbEntity
  8
0
  6
HIDDEN
100
AcDbLine
 10
3.29
 20
5.018
 30
0.0
 11
5.193
 21
5.067
 31
0.0
  0
LINE
  5
483
330
18
100
AcDbEntity
  8
0
  6
HIDDEN
100
AcDbLine
 10
5.241000000000001
 20
4.983000000000001
 30
0.0
 11
5.193
 21
5.067
 31
0.0
  0
LINE
  5
484
330
18
100
AcDbEntity
  8
0
100
AcDbLine
 10
4.325
 20
4.077
 30
0.0
 11
4.632
 21
4.099
 31
0.0
  0
LINE
  5
485
330
18
100
AcDbEntity
  8
0
100
AcDbLine
 10
4.265
 20
4.987
 30
0.0
 11
4.227
 21
4.984
 31
0.0
  0
LINE
  5
486
330
18
100
AcDbEntity
  8
0
100
AcDbLine
 10
4.313
 20
4.903000000000001
 30
0.0
 11
4.275
 21
4.9
 31
0.0
  0
LINE
  5
487
330
18
100
AcDbEntity
  8
0
  6
HIDDEN
100
AcDbLine
 10
5.241000000000001
 20
4.181
 30
0.0
 11
5.241000000000001
 21
4.983000000000001
 31
0.0
  0
LINE
  5
488
330
18
100
AcDbEntity
  8
0
100
AcDbLine
 10
4.318000000000001
 20
4.114
 30
0.0
 11
4.369
 21
4.117
 31
0.0
  0
LINE
  5
489
330
18
100
AcDbEntity
  8
0
100
AcDbLine
 10
5.049
 20
4.069
 30
0.0
 11
4.313
 21
4.121
 31
0.0
  0
LINE
  5
48A
330
18
100
AcDbEntity
  8
0
100
AcDbLine
 10
1.658
 20
3.957
 30
0.0
 11
3.245
 21
4.143
 31
0.0
  0
ARC
  5
48B
330
18
100
AcDbEntity
  8
0
100
AcDbCircle
 10
3.275
 20
4.152
 30
0.0
 40
0.031
100
AcDbArc
 50
343.291
 51
196.709
  0
LINE
  5
48C
330
18
100
AcDbEntity
  8
0
100
AcDbLine
 10
3.438
 20
4.133
 30
0.0
 11
3.305
 21
4.143
 31
0.0
  0
ARC
  5
48D
330
18
100
AcDbEntity
  8
0
100
AcDbCircle
 10
3.475
 20
4.15
 30
0.0
 40
0.008
100
AcDbArc
 50
180.0
 51
281.35
  0
LINE
  5
48E
330
18
100
AcDbEntity
  8
0
100
AcDbLine
 10
3.477
 20
4.143
 30
0.0
 11
3.481
 21
4.143
 31
0.0
  0
ARC
  5
48F
330
18
100
AcDbEntity
  8
0
100
AcDbCircle
 10
3.453
 20
4.15
 30
0.0
 40
0.023
100
AcDbArc
 50
180.0
 51
281.35
  0
LINE
  5
490
330
18
100
AcDbEntity
  8
0
100
AcDbLine
 10
3.457
 20
4.128
 30
0.0
 11
3.518
 21
4.141
 31
0.0
  0
LINE
  5
491
330
18
100
AcDbEntity
  8
0
100
AcDbLine
 10
4.249
 20
6.843
 30
0.0
 11
4.249
 21
7.313
 31
0.0
  0
LINE
  5
492
330
18
100
AcDbEntity
  8
0
100
AcDbLine
 10
4.29
 20
4.086
 30
0.0
 11
3.47
 21
4.144
 31
0.0
  0
LINE
  5
493
330
18
100
AcDbEntity
  8
0
100
AcDbLine
 10
3.422
 20
4.97
 30
0.0
 11
4.227
 21
4.984
 31
0.0
  0
LINE
  5
494
330
18
100
AcDbEntity
  8
0
100
AcDbLine
 10
3.29
 20
4.198
 30
0.0
 11
3.29
 21
4.939
 31
0.0
  0
LINE
  5
495
330
18
100
AcDbEntity
  8
0
100
AcDbLine
 10
0.9350000000000001
 20
3.917
 30
0.0
 11
1.636
 21
3.999
 31
0.0
  0
LINE
  5
496
330
18
100
AcDbEntity
  8
0
100
AcDbLine
 10
3.468
 20
4.888999999999999
 30
0.0
 11
3.42
 21
4.973
 31
0.0
  0
LINE
  5
497
330
18
100
AcDbEntity
  8
0
100
AcDbLine
 10
3.43
 20
4.884
 30
0.0
 11
3.382
 21
4.968
 31
0.0
  0
LINE
  5
498
330
18
100
AcDbEntity
  8
0
100
AcDbLine
 10
3.382
 20
4.968
 30
0.0
 11
3.42
 21
4.973
 31
0.0
  0
LINE
  5
499
330
18
100
AcDbEntity
  8
0
100
AcDbLine
 10
3.43
 20
4.884
 30
0.0
 11
3.468
 21
4.888999999999999
 31
0.0
  0
LINE
  5
49A
330
18
100
AcDbEntity
  8
0
100
AcDbLine
 10
3.468
 20
4.15
 30
0.0
 11
3.468
 21
4.888999999999999
 31
0.0
  0
LINE
  5
49B
330
18
100
AcDbEntity
  8
0
100
AcDbLine
 10
3.43
 20
4.15
 30
0.0
 11
3.43
 21
4.884
 31
0.0
  0
LINE
  5
49C
330
18
100
AcDbEntity
  8
0
100
AcDbLine
 10
1.721
 20
4.972
 30
0.0
 11
3.29
 21
4.968
 31
0.0
  0
LINE
  5
49D
330
18
100
AcDbEntity
  8
0
100
AcDbLine
 10
4.313
 20
4.903000000000001
 30
0.0
 11
4.265
 21
4.987
 31
0.0
  0
LINE
  5
49E
330
18
100
AcDbEntity
  8
0
100
AcDbLine
 10
4.275
 20
4.9
 30
0.0
 11
4.227
 21
4.984
 31
0.0
  0
ARC
  5
49F
330
18
100
AcDbEntity
  8
0
100
AcDbCircle
 10
4.317
 20
4.118
 30
0.0
 40
0.004
100
AcDbArc
 50
180.0
 51
281.35
  0
ARC
  5
4A0
330
18
100
AcDbEntity
  8
0
100
AcDbCircle
 10
4.317
 20
4.118
 30
0.0
 40
0.042
100
AcDbArc
 50
180.0
 51
281.35
  0
LINE
  5
4A1
330
18
100
AcDbEntity
  8
0
100
AcDbLine
 10
4.313
 20
4.118
 30
0.0
 11
4.313
 21
4.903000000000001
 31
0.0
  0
LINE
  5
4A2
330
18
100
AcDbEntity
  8
0
100
AcDbLine
 10
4.275
 20
4.118
 30
0.0
 11
4.275
 21
4.9
 31
0.0
  0
LINE
  5
4A3
330
18
100
AcDbEntity
  8
0
100
AcDbLine
 10
3.137
 20
4.021
 30
0.0
 11
3.174
 21
4.026
 31
0.0
  0
LINE
  5
4A4
330
18
100
AcDbEntity
  8
0
100
AcDbLine
 10
3.002
 20
3.799
 30
0.0
 11
3.039
 21
3.803
 31
0.0
  0
LINE
  5
4A5
330
18
100
AcDbEntity
  8
0
100
AcDbLine
 10
3.174
 20
4.026
 30
0.0
 11
3.039
 21
3.803
 31
0.0
  0
LINE
  5
4A6
330
18
100
AcDbEntity
  8
0
100
AcDbLine
 10
3.137
 20
4.021
 30
0.0
 11
3.002
 21
3.799
 31
0.0
  0
LINE
  5
4A7
330
18
100
AcDbEntity
  8
0
100
AcDbLine
 10
2.914
 20
3.806
 30
0.0
 11
3.002
 21
3.799
 31
0.0
  0
LINE
  5
4A8
330
18
100
AcDbEntity
  8
0
100
AcDbLine
 10
2.82
 20
3.984
 30
0.0
 11
2.914
 21
3.806
 31
0.0
  0
LINE
  5
4A9
330
18
100
AcDbEntity
  8
0
100
AcDbLine
 10
3.174
 20
4.026
 30
0.0
 11
3.174
 21
4.134
 31
0.0
  0
LINE
  5
4AA
330
18
100
AcDbEntity
  8
0
100
AcDbLine
 10
3.137
 20
4.021
 30
0.0
 11
3.137
 21
4.13
 31
0.0
  0
LINE
  5
4AB
330
18
100
AcDbEntity
  8
0
100
AcDbLine
 10
2.82
 20
3.984
 30
0.0
 11
2.82
 21
4.093
 31
0.0
  0
LINE
  5
4AC
330
18
100
AcDbEntity
  8
0
100
AcDbLine
 10
3.275
 20
4.198
 30
0.0
 11
3.275
 21
4.939
 31
0.0
  0
LINE
  5
4AD
330
18
100
AcDbEntity
  8
0
100
AcDbLine
 10
2.562
 20
6.768
 30
0.0
 11
2.562
 21
7.408
 31
0.0
  0
LINE
  5
4AE
330
18
100
AcDbEntity
  8
0
  6
HIDDEN
100
AcDbLine
 10
1.469
 20
3.98
 30
0.0
 11
1.287
 21
4.016
 31
0.0
  0
LINE
  5
4AF
330
18
100
AcDbEntity
  8
0
  6
HIDDEN
100
AcDbLine
 10
3.29
 20
5.018
 30
0.0
 11
1.301
 21
5.029
 31
0.0
  0
LINE
  5
4B0
330
18
100
AcDbEntity
  8
0
  6
HIDDEN
100
AcDbLine
 10
1.253
 20
4.945
 30
0.0
 11
1.301
 21
5.029
 31
0.0
  0
ARC
  5
4B1
330
18
100
AcDbEntity
  8
0
  6
HIDDEN
100
AcDbCircle
 10
1.295
 20
4.057
 30
0.0
 40
0.042
100
AcDbArc
 50
180.0
 51
258.65
  0
LINE
  5
4B2
330
18
100
AcDbEntity
  8
0
  6
HIDDEN
100
AcDbLine
 10
1.253
 20
4.057
 30
0.0
 11
1.253
 21
4.945
 31
0.0
  0
LINE
  5
4B3
330
18
100
AcDbEntity
  8
0
100
AcDbLine
 10
1.631
 20
3.985
 30
0.0
 11
1.589
 21
3.994
 31
0.0
  0
ARC
  5
4B4
330
18
100
AcDbEntity
  8
0
100
AcDbCircle
 10
1.632
 20
3.99
 30
0.0
 40
0.004
100
AcDbArc
 50
258.65
 51
0.0
  0
ARC
  5
4B5
330
18
100
AcDbEntity
  8
0
100
AcDbCircle
 10
1.632
 20
3.99
 30
0.0
 40
0.042
100
AcDbArc
 50
258.65
 51
0.0
  0
LINE
  5
4B6
330
18
100
AcDbEntity
  8
0
100
AcDbLine
 10
1.624
 20
3.948
 30
0.0
 11
1.469
 21
3.98
 31
0.0
  0
LINE
  5
4B7
330
18
100
AcDbEntity
  8
0
100
AcDbLine
 10
1.721
 20
4.972
 30
0.0
 11
1.684
 21
4.977
 31
0.0
  0
LINE
  5
4B8
330
18
100
AcDbEntity
  8
0
100
AcDbLine
 10
3.29
 20
4.968
 30
0.0
 11
1.684
 21
4.977
 31
0.0
  0
LINE
  5
4B9
330
18
100
AcDbEntity
  8
0
100
AcDbLine
 10
1.674
 20
4.888
 30
0.0
 11
1.721
 21
4.972
 31
0.0
  0
LINE
  5
4BA
330
18
100
AcDbEntity
  8
0
100
AcDbLine
 10
1.674
 20
4.888
 30
0.0
 11
1.636
 21
4.893
 31
0.0
  0
LINE
  5
4BB
330
18
100
AcDbEntity
  8
0
100
AcDbLine
 10
1.674
 20
3.99
 30
0.0
 11
1.674
 21
4.888
 31
0.0
  0
LINE
  5
4BC
330
18
100
AcDbEntity
  8
0
100
AcDbLine
 10
1.636
 20
4.893
 30
0.0
 11
1.684
 21
4.977
 31
0.0
  0
LINE
  5
4BD
330
18
100
AcDbEntity
  8
0
100
AcDbLine
 10
1.636
 20
3.99
 30
0.0
 11
1.636
 21
4.893
 31
0.0
  0
LINE
  5
4BE
330
18
100
AcDbEntity
  8
0
100
AcDbLine
 10
3.29
 20
6.669
 30
0.0
 11
5.049
 21
6.988
 31
0.0
  0
LINE
  5
4BF
330
18
100
AcDbEntity
  8
0
100
AcDbLine
 10
3.29
 20
6.669
 30
0.0
 11
0.9350000000000001
 21
6.988
 31
0.0
  0
LINE
  5
4C0
330
18
100
AcDbEntity
  8
0
100
AcDbLine
 10
6.032
 20
6.903
 30
0.0
 11
5.049
 21
6.988
 31
0.0
  0
LINE
  5
4C1
330
18
100
AcDbEntity
  8
0
100
AcDbLine
 10
6.032
 20
4.154
 30
0.0
 11
5.049
 21
4.069
 31
0.0
  0
LINE
  5
4C2
330
18
100
AcDbEntity
  8
0
100
AcDbLine
 10
6.032
 20
4.154
 30
0.0
 11
6.032
 21
5.617000000000001
 31
0.0
  0
LINE
  5
4C3
330
18
100
AcDbEntity
  8
0
100
AcDbLine
 10
5.049
 20
4.069
 30
0.0
 11
5.049
 21
5.687
 31
0.0
  0
LINE
  5
4C4
330
18
100
AcDbEntity
  8
0
100
AcDbLine
 10
0.225
 20
6.926
 30
0.0
 11
0.9350000000000001
 21
6.988
 31
0.0
  0
LINE
  5
4C5
330
18
100
AcDbEntity
  8
0
100
AcDbLine
 10
0.225
 20
3.979
 30
0.0
 11
0.9350000000000001
 21
3.917
 31
0.0
  0
LINE
  5
4C6
330
18
100
AcDbEntity
  8
0
100
AcDbLine
 10
0.9350000000000001
 20
3.917
 30
0.0
 11
0.9350000000000001
 21
5.608
 31
0.0
  0
LINE
  5
4C7
330
18
100
AcDbEntity
  8
0
100
AcDbLine
 10
0.225
 20
3.979
 30
0.0
 11
0.225
 21
5.525
 31
0.0
  0
LINE
  5
4C8
330
18
100
AcDbEntity
  8
0
100
AcDbLine
 10
3.29
 20
7.6
 30
0.0
 11
3.682
 21
7.483
 31
0.0
  0
LINE
  5
4C9
330
18
100
AcDbEntity
  8
0
100
AcDbLine
 10
3.29
 20
1.595
 30
0.0
 11
3.665
 21
1.707
 31
0.0
  0
LINE
  5
4CA
330
18
100
AcDbEntity
  8
0
100
AcDbLine
 10
2.562
 20
7.408
 30
0.0
 11
3.29
 21
7.6
 31
0.0
  0
LINE
  5
4CB
330
18
100
AcDbEntity
  8
0
100
AcDbLine
 10
2.562
 20
1.787
 30
0.0
 11
3.29
 21
1.595
 31
0.0
  0
LINE
  5
4CC
330
18
100
AcDbEntity
  8
0
100
AcDbLine
 10
4.249
 20
1.882
 30
0.0
 11
4.249
 21
4.089
 31
0.0
  0
LINE
  5
4CD
330
18
100
AcDbEntity
  8
0
100
AcDbLine
 10
3.29
 20
1.595
 30
0.0
 11
3.29
 21
4.178999999999999
 31
0.0
  0
LINE
  5
4CE
330
18
100
AcDbEntity
  8
0
100
AcDbLine
 10
2.562
 20
1.787
 30
0.0
 11
2.562
 21
4.063
 31
0.0
  0
LWPOLYLINE
  5
4CF
330
18
100
AcDbEntity
  8
0
100
AcDbPolyline
 90
       16
 70
     1
 43
0.0
 10
1.924
 20
4.898
 42
0.122
 10
1.907
 20
4.894
 42
0.105
 10
1.892
 20
4.882
 42
0.088
 10
1.883
 20
4.864
 42
0.079
 10
1.879
 20
4.842
 42
0.079
 10
1.883
 20
4.819
 42
0.088
 10
1.892
 20
4.802
 42
0.105
 10
1.907
 20
4.789
 42
0.122
 10
1.924
 20
4.785
 42
0.122
 10
1.94
 20
4.789
 42
0.105
 10
1.955
 20
4.802
 42
0.088
 10
1.965
 20
4.819
 42
0.079
 10
1.968
 20
4.842
 42
0.079
 10
1.965
 20
4.864
 42
0.088
 10
1.955
 20
4.882
 42
0.105
 10
1.94
 20
4.894
 42
0.122
  0
LWPOLYLINE
  5
4E2
330
18
100
AcDbEntity
  8
0
100
AcDbPolyline
 90
       10
 70
     0
 43
0.0
 10
1.899
 20
4.898
 42
0.122
 10
1.883
 20
4.894
 42
0.105
 10
1.868
 20
4.882
 42
0.088
 10
1.858
 20
4.864
 42
0.079
 10
1.855
 20
4.842
 42
0.079
 10
1.858
 20
4.819
 42
0.088
 10
1.868
 20
4.802
 42
0.105
 10
1.883
 20
4.789
 42
0.122
 10
1.899
 20
4.785
 42
0.088
 10
1.912
 20
4.787
 42
0.105
  0
LWPOLYLINE
  5
4EF
330
18
100
AcDbEntity
  8
0
100
AcDbPolyline
 90
        2
 70
     0
 43
0.0
 10
1.912
 20
4.896
 42
0.088
 10
1.899
 20
4.898
 42
0.122
  0
LWPOLYLINE
  5
4F4
330
18
100
AcDbEntity
  8
0
100
AcDbPolyline
 90
       16
 70
     1
 43
0.0
 10
2.47
 20
4.887
 42
0.122
 10
2.454
 20
4.883
 42
0.105
 10
2.439
 20
4.87
 42
0.088
 10
2.429
 20
4.852
 42
0.079
 10
2.426
 20
4.83
 42
0.079
 10
2.429
 20
4.808
 42
0.088
 10
2.439
 20
4.79
 42
0.105
 10
2.454
 20
4.777
 42
0.122
 10
2.47
 20
4.773
 42
0.122
 10
2.487
 20
4.777
 42
0.105
 10
2.502
 20
4.79
 42
0.088
 10
2.511
 20
4.808
 42
0.079
 10
2.515
 20
4.83
 42
0.079
 10
2.511
 20
4.852
 42
0.088
 10
2.502
 20
4.87
 42
0.105
 10
2.487
 20
4.883
 42
0.122
  0
LWPOLYLINE
  5
507
330
18
100
AcDbEntity
  8
0
100
AcDbPolyline
 90
       10
 70
     0
 43
0.0
 10
2.446
 20
4.887
 42
0.122
 10
2.429
 20
4.883
 42
0.105
 10
2.414
 20
4.87
 42
0.088
 10
2.405
 20
4.852
 42
0.079
 10
2.401
 20
4.83
 42
0.079
 10
2.405
 20
4.808
 42
0.088
 10
2.414
 20
4.79
 42
0.105
 10
2.429
 20
4.777
 42
0.122
 10
2.446
 20
4.773
 42
0.088
 10
2.458
 20
4.776
 42
0.105
  0
LWPOLYLINE
  5
514
330
18
100
AcDbEntity
  8
0
100
AcDbPolyline
 90
        2
 70
     0
 43
0.0
 10
2.458
 20
4.884
 42
0.088
 10
2.446
 20
4.887
 42
0.122
  0
LWPOLYLINE
  5
519
330
18
100
AcDbEntity
  8
0
100
AcDbPolyline
 90
       16
 70
     1
 43
0.0
 10
3.001
 20
4.906000000000001
 42
0.122
 10
2.985
 20
4.902
 42
0.105
 10
2.97
 20
4.89
 42
0.088
 10
2.96
 20
4.872
 42
0.079
 10
2.956
 20
4.85
 42
0.079
 10
2.96
 20
4.827
 42
0.088
 10
2.97
 20
4.809
 42
0.105
 10
2.985
 20
4.797
 42
0.122
 10
3.001
 20
4.793
 42
0.122
 10
3.017
 20
4.797
 42
0.105
 10
3.032
 20
4.809
 42
0.088
 10
3.042
 20
4.827
 42
0.079
 10
3.046
 20
4.85
 42
0.079
 10
3.042
 20
4.872
 42
0.088
 10
3.032
 20
4.89
 42
0.105
 10
3.017
 20
4.902
 42
0.122
  0
LWPOLYLINE
  5
52C
330
18
100
AcDbEntity
  8
0
100
AcDbPolyline
 90
       10
 70
     0
 43
0.0
 10
2.977
 20
4.906000000000001
 42
0.122
 10
2.96
 20
4.902
 42
0.105
 10
2.945
 20
4.89
 42
0.088
 10
2.936
 20
4.872
 42
0.079
 10
2.932
 20
4.85
 42
0.079
 10
2.936
 20
4.827
 42
0.088
 10
2.945
 20
4.809
 42
0.105
 10
2.96
 20
4.797
 42
0.122
 10
2.977
 20
4.793
 42
0.088
 10
2.989
 20
4.795
 42
0.105
  0
LWPOLYLINE
  5
539
330
18
100
AcDbEntity
  8
0
100
AcDbPolyline
 90
        2
 70
     0
 43
0.0
 10
2.989
 20
4.904
 42
0.088
 10
2.977
 20
4.906000000000001
 42
0.122
  0
LWPOLYLINE
  5
53E
330
18
100
AcDbEntity
  8
0
100
AcDbPolyline
 90
       16
 70
     1
 43
0.0
 10
3.347
 20
4.833
 42
0.122
 10
3.333
 20
4.829
 42
0.105
 10
3.319
 20
4.818000000000001
 42
0.088
 10
3.311
 20
4.803
 42
0.079
 10
3.308
 20
4.783
 42
0.079
 10
3.311
 20
4.763
 42
0.088
 10
3.319
 20
4.747
 42
0.105
 10
3.333
 20
4.736000000000001
 42
0.122
 10
3.347
 20
4.732
 42
0.122
 10
3.362
 20
4.736000000000001
 42
0.105
 10
3.375
 20
4.747
 42
0.088
 10
3.384
 20
4.763
 42
0.079
 10
3.387
 20
4.783
 42
0.079
 10
3.384
 20
4.803
 42
0.088
 10
3.375
 20
4.818000000000001
 42
0.105
 10
3.362
 20
4.829
 42
0.122
  0
LWPOLYLINE
  5
551
330
18
100
AcDbEntity
  8
0
100
AcDbPolyline
 90
        2
 70
     0
 43
0.0
 10
3.373
 20
4.833
 42
0.104
 10
3.36
 20
4.83
 42
0.105
  0
LWPOLYLINE
  5
556
330
18
100
AcDbEntity
  8
0
100
AcDbPolyline
 90
       10
 70
     0
 43
0.0
 10
3.36
 20
4.735
 42
0.104
 10
3.373
 20
4.732
 42
0.122
 10
3.387
 20
4.736000000000001
 42
0.105
 10
3.401
 20
4.747
 42
0.088
 10
3.409
 20
4.763
 42
0.079
 10
3.412
 20
4.783
 42
0.079
 10
3.409
 20
4.803
 42
0.088
 10
3.401
 20
4.818000000000001
 42
0.105
 10
3.387
 20
4.829
 42
0.122
 10
3.373
 20
4.833
 42
0.122
  0
LWPOLYLINE
  5
563
330
18
100
AcDbEntity
  8
0
100
AcDbPolyline
 90
       10
 70
     0
 43
0.0
 10
3.36
 20
4.444
 42
0.104
 10
3.373
 20
4.442
 42
0.122
 10
3.387
 20
4.445
 42
0.105
 10
3.401
 20
4.456
 42
0.088
 10
3.409
 20
4.472
 42
0.079
 10
3.412
 20
4.492
 42
0.079
 10
3.409
 20
4.512
 42
0.088
 10
3.401
 20
4.528000000000001
 42
0.105
 10
3.387
 20
4.539
 42
0.122
 10
3.373
 20
4.543
 42
0.122
  0
LWPOLYLINE
  5
570
330
18
100
AcDbEntity
  8
0
100
AcDbPolyline
 90
        2
 70
     0
 43
0.0
 10
3.373
 20
4.543
 42
0.104
 10
3.36
 20
4.54
 42
0.105
  0
LWPOLYLINE
  5
575
330
18
100
AcDbEntity
  8
0
100
AcDbPolyline
 90
       16
 70
     1
 43
0.0
 10
3.347
 20
4.543
 42
0.122
 10
3.333
 20
4.539
 42
0.105
 10
3.319
 20
4.528000000000001
 42
0.088
 10
3.311
 20
4.512
 42
0.079
 10
3.308
 20
4.492
 42
0.079
 10
3.311
 20
4.472
 42
0.088
 10
3.319
 20
4.456
 42
0.105
 10
3.333
 20
4.445
 42
0.122
 10
3.347
 20
4.442
 42
0.122
 10
3.362
 20
4.445
 42
0.105
 10
3.375
 20
4.456
 42
0.088
 10
3.384
 20
4.472
 42
0.079
 10
3.387
 20
4.492
 42
0.079
 10
3.384
 20
4.512
 42
0.088
 10
3.375
 20
4.528000000000001
 42
0.105
 10
3.362
 20
4.539
 42
0.122
  0
LWPOLYLINE
  5
588
330
18
100
AcDbEntity
  8
0
100
AcDbPolyline
 90
       16
 70
     1
 43
0.0
 10
3.783
 20
4.908
 42
0.122
 10
3.767
 20
4.904
 42
0.105
 10
3.752
 20
4.892
 42
0.088
 10
3.742
 20
4.874
 42
0.079
 10
3.739
 20
4.852
 42
0.079
 10
3.742
 20
4.829
 42
0.088
 10
3.752
 20
4.812
 42
0.105
 10
3.767
 20
4.799
 42
0.122
 10
3.783
 20
4.795
 42
0.122
 10
3.8
 20
4.799
 42
0.105
 10
3.815
 20
4.812
 42
0.088
 10
3.824
 20
4.829
 42
0.079
 10
3.828
 20
4.852
 42
0.079
 10
3.824
 20
4.874
 42
0.088
 10
3.815
 20
4.892
 42
0.105
 10
3.8
 20
4.904
 42
0.122
  0
LWPOLYLINE
  5
59B
330
18
100
AcDbEntity
  8
0
100
AcDbPolyline
 90
        2
 70
     0
 43
0.0
 10
3.814
 20
4.908
 42
0.112
 10
3.799
 20
4.905
 42
0.105
  0
LWPOLYLINE
  5
5A0
330
18
100
AcDbEntity
  8
0
100
AcDbPolyline
 90
       10
 70
     0
 43
0.0
 10
3.799
 20
4.799
 42
0.112
 10
3.814
 20
4.795
 42
0.122
 10
3.83
 20
4.799
 42
0.105
 10
3.845
 20
4.812
 42
0.088
 10
3.855
 20
4.829
 42
0.079
 10
3.858
 20
4.852
 42
0.079
 10
3.855
 20
4.874
 42
0.088
 10
3.845
 20
4.892
 42
0.105
 10
3.83
 20
4.904
 42
0.122
 10
3.814
 20
4.908
 42
0.122
  0
LWPOLYLINE
  5
5AD
330
18
100
AcDbEntity
  8
0
100
AcDbPolyline
 90
       10
 70
     0
 43
0.0
 10
4.132
 20
4.822
 42
0.112
 10
4.147
 20
4.819
 42
0.122
 10
4.164
 20
4.823
 42
0.105
 10
4.178999999999999
 20
4.836
 42
0.088
 10
4.188
 20
4.853
 42
0.079
 10
4.192
 20
4.876
 42
0.079
 10
4.188
 20
4.898
 42
0.088
 10
4.178999999999999
 20
4.916
 42
0.105
 10
4.164
 20
4.928
 42
0.122
 10
4.147
 20
4.932
 42
0.122
  0
LWPOLYLINE
  5
5BA
330
18
100
AcDbEntity
  8
0
100
AcDbPolyline
 90
       16
 70
     1
 43
0.0
 10
4.117
 20
4.932
 42
0.122
 10
4.1
 20
4.928
 42
0.105
 10
4.085
 20
4.916
 42
0.088
 10
4.076000000000001
 20
4.898
 42
0.079
 10
4.072
 20
4.876
 42
0.079
 10
4.076000000000001
 20
4.853
 42
0.088
 10
4.085
 20
4.836
 42
0.105
 10
4.1
 20
4.823
 42
0.122
 10
4.117
 20
4.819
 42
0.122
 10
4.133
 20
4.823
 42
0.105
 10
4.148
 20
4.836
 42
0.088
 10
4.158
 20
4.853
 42
0.079
 10
4.161000000000001
 20
4.876
 42
0.079
 10
4.158
 20
4.898
 42
0.088
 10
4.148
 20
4.916
 42
0.105
 10
4.133
 20
4.928
 42
0.122
  0
LWPOLYLINE
  5
5CD
330
18
100
AcDbEntity
  8
0
100
AcDbPolyline
 90
        2
 70
     0
 43
0.0
 10
4.147
 20
4.932
 42
0.112
 10
4.132
 20
4.928999999999999
 42
0.105
  0
LWPOLYLINE
  5
5D2
330
18
100
AcDbEntity
  8
0
100
AcDbPolyline
 90
       16
 70
     1
 43
0.0
 10
2.96
 20
3.985
 42
0.125
 10
2.944
 20
3.981
 42
0.106
 10
2.93
 20
3.969
 42
0.087
 10
2.921
 20
3.952
 42
0.077
 10
2.918
 20
3.931
 42
0.077
 10
2.921
 20
3.909
 42
0.087
 10
2.929
 20
3.892
 42
0.106
 10
2.943
 20
3.88
 42
0.125
 10
2.958
 20
3.876
 42
0.125
 10
2.974
 20
3.879
 42
0.106
 10
2.988
 20
3.891
 42
0.087
 10
2.997
 20
3.908
 42
0.077
 10
3.001
 20
3.93
 42
0.077
 10
2.998
 20
3.951
 42
0.087
 10
2.989
 20
3.968
 42
0.106
 10
2.975
 20
3.98
 42
0.125
  0
LWPOLYLINE
  5
5E5
330
18
100
AcDbEntity
  8
0
100
AcDbPolyline
 90
       16
 70
     1
 43
0.0
 10
3.611
 20
3.966
 42
0.119
 10
3.597
 20
3.962
 42
0.105
 10
3.584
 20
3.952
 42
0.089
 10
3.575
 20
3.937
 42
0.081
 10
3.572
 20
3.918
 42
0.081
 10
3.575
 20
3.899
 42
0.089
 10
3.584
 20
3.884
 42
0.105
 10
3.597
 20
3.873
 42
0.119
 10
3.611
 20
3.87
 42
0.119
 10
3.625
 20
3.873
 42
0.105
 10
3.638
 20
3.884
 42
0.089
 10
3.647
 20
3.899
 42
0.081
 10
3.65
 20
3.918
 42
0.081
 10
3.647
 20
3.937
 42
0.089
 10
3.638
 20
3.952
 42
0.105
 10
3.625
 20
3.962
 42
0.119
  0
LINE
  5
5F8
330
18
100
AcDbEntity
  8
0
100
AcDbLine
 10
3.29
 20
4.968
 30
0.0
 11
3.29
 21
7.6
 31
0.0
  0
TEXT
  5
5F9
330
18
100
AcDbEntity
  8
0
100
AcDbText
 10
1.228615
 20
1.007353
 30
0.0
 40
0.2
  1
Simpson Strong-Tie
100
AcDbText
  0
TEXT
  5
5FA
330
18
100
AcDbEntity
  8
0
100
AcDbText
 10
1.228615
 20
0.683543
 30
0.0
 40
0.2
  1
RTC44
100
AcDbText
  0
ENDSEC
  0
SECTION
  2
OBJECTS
  0
DICTIONARY
  5
C
330
0
100
AcDbDictionary
281
     1
  3
ACAD_COLOR
350
600
  3
ACAD_GROUP
350
D
  3
ACAD_LAYOUT
350
15
  3
ACAD_MATERIAL
350
602
  3
ACAD_MLINESTYLE
350
12
  3
ACAD_PLOTSETTINGS
350
14
  3
ACAD_PLOTSTYLENAME
350
E
  3
ACDBHEADERROUNDTRIPXREC
350
5FF
  0
DICTIONARY
  5
600
102
{ACAD_REACTORS
330
C
102
}
330
C
100
AcDbDictionary
281
     1
  0
DICTIONARY
  5
D
102
{ACAD_REACTORS
330
C
102
}
330
C
100
AcDbDictionary
281
     1
  0
DICTIONARY
  5
15
102
{ACAD_REACTORS
330
C
102
}
330
C
100
AcDbDictionary
281
     1
  3
Layout1
350
17
  3
Model
350
19
  0
DICTIONARY
  5
602
102
{ACAD_REACTORS
330
C
102
}
330
C
100
AcDbDictionary
281
     1
  0
DICTIONARY
  5
12
102
{ACAD_REACTORS
330
C
102
}
330
C
100
AcDbDictionary
281
     1
  3
Standard
350
13
  0
DICTIONARY
  5
14
102
{ACAD_REACTORS
330
C
102
}
330
C
100
AcDbDictionary
281
     1
  0
ACDBDICTIONARYWDFLT
  5
E
102
{ACAD_REACTORS
330
C
102
}
330
C
100
AcDbDictionary
281
     1
  3
Normal
350
F
100
AcDbDictionaryWithDefault
340
F
  0
DICTIONARY
  5
5FF
102
{ACAD_REACTORS
330
C
102
}
330
C
100
AcDbDictionary
281
     1
  3
COLORDICT
350
601
  3
MATERIALDICT
350
603
  0
LAYOUT
  5
17
102
{ACAD_REACTORS
330
15
102
}
102
{ACAD_XDICTIONARY
360
604
102
}
330
15
100
AcDbPlotSettings
  1

  2

  4

  6

 40
0.0
 41
0.0
 42
0.0
 43
0.0
 44
0.0
 45
0.0
 46
0.0
 47
0.0
 48
0.0
 49
0.0
140
0.0
141
0.0
142
1.0
143
1.0
 70
   688
 72
     0
 73
     0
 74
     5
  7

 75
    16
147
1.0
148
0.0
149
0.0
100
AcDbLayout
  1
Layout1
 70
     1
 71
     1
 10
0.0
 20
0.0
 11
12.0
 21
9.0
 12
0.0
 22
0.0
 32
0.0
 14
1.000000000000000E+20
 24
1.000000000000000E+20
 34
1.000000000000000E+20
 15
-1.000000000000000E+20
 25
-1.000000000000000E+20
 35
-1.000000000000000E+20
146
0.0
 13
0.0
 23
0.0
 33
0.0
 16
1.0
 26
0.0
 36
0.0
 17
0.0
 27
1.0
 37
0.0
 76
     0
330
16
  0
LAYOUT
  5
19
102
{ACAD_REACTORS
330
15
102
}
102
{ACAD_XDICTIONARY
360
606
102
}
330
15
100
AcDbPlotSettings
  1

  2

  4

  6

 40
0.0
 41
0.0
 42
0.0
 43
0.0
 44
0.0
 45
0.0
 46
0.0
 47
0.0
 48
0.0
 49
0.0
140
0.0
141
0.0
142
1.0
143
1.0
 70
  1712
 72
     0
 73
     0
 74
     0
  7

 75
     0
147
1.0
148
0.0
149
0.0
100
AcDbLayout
  1
Model
 70
     1
 71
     0
 10
0.0
 20
0.0
 11
0.0
 21
0.0
 12
0.0
 22
0.0
 32
0.0
 14
0.0
 24
0.0
 34
0.0
 15
0.0
 25
0.0
 35
0.0
146
0.0
 13
0.0
 23
0.0
 33
0.0
 16
1.0
 26
0.0
 36
0.0
 17
0.0
 27
1.0
 37
0.0
 76
     0
330
18
  0
MLINESTYLE
  5
13
102
{ACAD_REACTORS
330
12
102
}
330
12
100
AcDbMlineStyle
  2
Standard
 70
     0
  3

 62
   256
 51
90.0
 52
90.0
 71
     2
 49
0.5
 62
   256
  6
BYLAYER
 49
-0.5
 62
   256
  6
BYLAYER
  0
ACDBPLACEHOLDER
  5
F
102
{ACAD_REACTORS
330
E
102
}
330
E
  0
XRECORD
  5
601
102
{ACAD_REACTORS
330
5FF
102
}
330
5FF
100
AcDbXrecord
340
600
  0
XRECORD
  5
603
102
{ACAD_REACTORS
330
5FF
102
}
330
5FF
100
AcDbXrecord
340
602
  0
DICTIONARY
  5
604
330
17
100
AcDbDictionary
280
     1
281
     1
  3
ACAD_XREC_ROUNDTRIP
360
605
  0
DICTIONARY
  5
606
330
19
100
AcDbDictionary
280
     1
281
     1
  3
ACAD_XREC_ROUNDTRIP
360
607
  0
XRECORD
  5
605
102
{ACAD_REACTORS
330
604
102
}
330
604
100
AcDbXrecord
102
SHADEPLOT
 70
 30248
102
SHADEPLOTRESLEVEL
 70
 31688
102
SHADEPLOTCUSTOMDPI
 70
-28568
  0
XRECORD
  5
607
102
{ACAD_REACTORS
330
606
102
}
330
606
100
AcDbXrecord
102
SHADEPLOT
 70
 -5928
102
SHADEPLOTRESLEVEL
 70
 -5872
102
SHADEPLOTCUSTOMDPI
 70
 -5816
  0
ENDSEC
  0
EOF
