  0
SECTION
  2
HEADER
  9
$ACADVER
  1
AC1015
  9
$ACADMAINTVER
 70
     6
  9
$DWGCODEPAGE
  3
ANSI_1252
  9
$INSBASE
 10
0.0
 20
0.0
 30
0.0
  9
$EXTMIN
 10
30.62580421545792
 20
12.86732176463279
 30
-0.0015258207003612
  9
$EXTMAX
 10
176.469393676255
 20
127.2576312974398
 30
0.0000000349246008
  9
$LIMMIN
 10
30.49650200737847
 20
12.73961859809028
  9
$LIMMAX
 10
176.598695203993
 20
127.3853339301215
  9
$ORTHOMODE
 70
     0
  9
$REGENMODE
 70
     1
  9
$FILLMODE
 70
     1
  9
$QTEXTMODE
 70
     0
  9
$MIRRTEXT
 70
     1
  9
$LTSCALE
 40
1.0
  9
$ATTMODE
 70
     1
  9
$TEXTSIZE
 40
0.2
  9
$TRACEWID
 40
0.05
  9
$TEXTSTYLE
  7
STANDARD
  9
$CLAYER
  8
0
  9
$CELTYPE
  6
CONTINUOUS
  9
$CECOLOR
 62
   256
  9
$CELTSCALE
 40
1.0
  9
$DISPSILH
 70
     0
  9
$DIMSCALE
 40
1.0
  9
$DIMASZ
 40
0.18
  9
$DIMEXO
 40
0.0625
  9
$DIMDLI
 40
0.38
  9
$DIMRND
 40
0.0
  9
$DIMDLE
 40
0.0
  9
$DIMEXE
 40
0.18
  9
$DIMTP
 40
0.0
  9
$DIMTM
 40
0.0
  9
$DIMTXT
 40
0.18
  9
$DIMCEN
 40
0.09
  9
$DIMTSZ
 40
0.0
  9
$DIMTOL
 70
     0
  9
$DIMLIM
 70
     0
  9
$DIMTIH
 70
     1
  9
$DIMTOH
 70
     1
  9
$DIMSE1
 70
     0
  9
$DIMSE2
 70
     0
  9
$DIMTAD
 70
     0
  9
$DIMZIN
 70
     0
  9
$DIMBLK
  1

  9
$DIMASO
 70
     1
  9
$DIMSHO
 70
     1
  9
$DIMPOST
  1

  9
$DIMAPOST
  1

  9
$DIMALT
 70
     0
  9
$DIMALTD
 70
     2
  9
$DIMALTF
 40
25.4
  9
$DIMLFAC
 40
1.0
  9
$DIMTOFL
 70
     0
  9
$DIMTVP
 40
0.0
  9
$DIMTIX
 70
     0
  9
$DIMSOXD
 70
     0
  9
$DIMSAH
 70
     0
  9
$DIMBLK1
  1

  9
$DIMBLK2
  1

  9
$DIMSTYLE
  2
STANDARD
  9
$DIMCLRD
 70
     0
  9
$DIMCLRE
 70
     0
  9
$DIMCLRT
 70
     0
  9
$DIMTFAC
 40
1.0
  9
$DIMGAP
 40
0.09
  9
$DIMJUST
 70
     0
  9
$DIMSD1
 70
     0
  9
$DIMSD2
 70
     0
  9
$DIMTOLJ
 70
     1
  9
$DIMTZIN
 70
     0
  9
$DIMALTZ
 70
     0
  9
$DIMALTTZ
 70
     0
  9
$DIMUPT
 70
     0
  9
$DIMDEC
 70
     4
  9
$DIMTDEC
 70
     4
  9
$DIMALTU
 70
     2
  9
$DIMALTTD
 70
     2
  9
$DIMTXSTY
  7
STANDARD
  9
$DIMAUNIT
 70
     0
  9
$DIMADEC
 70
     0
  9
$DIMALTRND
 40
0.0
  9
$DIMAZIN
 70
     0
  9
$DIMDSEP
 70
    46
  9
$DIMATFIT
 70
     3
  9
$DIMFRAC
 70
     0
  9
$DIMLDRBLK
  1

  9
$DIMLUNIT
 70
     2
  9
$DIMLWD
 70
    -2
  9
$DIMLWE
 70
    -2
  9
$DIMTMOVE
 70
     0
  9
$LUNITS
 70
     2
  9
$LUPREC
 70
     4
  9
$SKETCHINC
 40
0.1
  9
$FILLETRAD
 40
0.0
  9
$AUNITS
 70
     0
  9
$AUPREC
 70
     0
  9
$MENU
  1
acad
  9
$ELEVATION
 40
0.0
  9
$PELEVATION
 40
0.0
  9
$THICKNESS
 40
0.0
  9
$LIMCHECK
 70
     0
  9
$CHAMFERA
 40
0.0
  9
$CHAMFERB
 40
0.0
  9
$CHAMFERC
 40
0.0
  9
$CHAMFERD
 40
0.0
  9
$SKPOLY
 70
     0
  9
$TDCREATE
 40
2444971.666666667
  9
$TDUCREATE
 40
2444972.0
  9
$TDUPDATE
 40
2452219.396867824
  9
$TDUUPDATE
 40
2452219.730201157
  9
$TDINDWG
 40
0.0003623843
  9
$TDUSRTIMER
 40
0.0003623843
  9
$USRTIMER
 70
     1
  9
$ANGBASE
 50
0.0
  9
$ANGDIR
 70
     0
  9
$PDMODE
 70
     0
  9
$PDSIZE
 40
0.0
  9
$PLINEWID
 40
0.0
  9
$SPLFRAME
 70
     0
  9
$SPLINETYPE
 70
     6
  9
$SPLINESEGS
 70
     8
  9
$HANDSEED
  5
FA
  9
$SURFTAB1
 70
     6
  9
$SURFTAB2
 70
     6
  9
$SURFTYPE
 70
     6
  9
$SURFU
 70
     6
  9
$SURFV
 70
     6
  9
$UCSBASE
  2

  9
$UCSNAME
  2

  9
$UCSORG
 10
0.0
 20
0.0
 30
0.0
  9
$UCSXDIR
 10
1.0
 20
0.0
 30
0.0
  9
$UCSYDIR
 10
0.0
 20
1.0
 30
0.0
  9
$UCSORTHOREF
  2

  9
$UCSORTHOVIEW
 70
     0
  9
$UCSORGTOP
 10
0.0
 20
0.0
 30
0.0
  9
$UCSORGBOTTOM
 10
0.0
 20
0.0
 30
0.0
  9
$UCSORGLEFT
 10
0.0
 20
0.0
 30
0.0
  9
$UCSORGRIGHT
 10
0.0
 20
0.0
 30
0.0
  9
$UCSORGFRONT
 10
0.0
 20
0.0
 30
0.0
  9
$UCSORGBACK
 10
0.0
 20
0.0
 30
0.0
  9
$PUCSBASE
  2

  9
$PUCSNAME
  2

  9
$PUCSORG
 10
0.0
 20
0.0
 30
0.0
  9
$PUCSXDIR
 10
1.0
 20
0.0
 30
0.0
  9
$PUCSYDIR
 10
0.0
 20
1.0
 30
0.0
  9
$PUCSORTHOREF
  2

  9
$PUCSORTHOVIEW
 70
     0
  9
$PUCSORGTOP
 10
0.0
 20
0.0
 30
0.0
  9
$PUCSORGBOTTOM
 10
0.0
 20
0.0
 30
0.0
  9
$PUCSORGLEFT
 10
0.0
 20
0.0
 30
0.0
  9
$PUCSORGRIGHT
 10
0.0
 20
0.0
 30
0.0
  9
$PUCSORGFRONT
 10
0.0
 20
0.0
 30
0.0
  9
$PUCSORGBACK
 10
0.0
 20
0.0
 30
0.0
  9
$USERI1
 70
     0
  9
$USERI2
 70
     0
  9
$USERI3
 70
     0
  9
$USERI4
 70
     0
  9
$USERI5
 70
     0
  9
$USERR1
 40
0.0
  9
$USERR2
 40
0.0
  9
$USERR3
 40
0.0
  9
$USERR4
 40
0.0
  9
$USERR5
 40
0.0
  9
$WORLDVIEW
 70
     1
  9
$SHADEDGE
 70
     3
  9
$SHADEDIF
 70
    70
  9
$TILEMODE
 70
     1
  9
$MAXACTVP
 70
    16
  9
$PINSBASE
 10
0.0
 20
0.0
 30
0.0
  9
$PLIMCHECK
 70
     0
  9
$PEXTMIN
 10
1.000000000000000E+20
 20
1.000000000000000E+20
 30
1.000000000000000E+20
  9
$PEXTMAX
 10
-1.000000000000000E+20
 20
-1.000000000000000E+20
 30
-1.000000000000000E+20
  9
$PLIMMIN
 10
0.0
 20
0.0
  9
$PLIMMAX
 10
12.0
 20
9.0
  9
$UNITMODE
 70
     0
  9
$VISRETAIN
 70
     0
  9
$PLINEGEN
 70
     1
  9
$PSLTSCALE
 70
     0
  9
$TREEDEPTH
 70
  3020
  9
$CMLSTYLE
  2
STANDARD
  9
$CMLJUST
 70
     0
  9
$CMLSCALE
 40
1.0
  9
$PROXYGRAPHICS
 70
     0
  9
$MEASUREMENT
 70
     0
  9
$CELWEIGHT
370
    -1
  9
$ENDCAPS
280
     0
  9
$JOINSTYLE
280
     0
  9
$LWDISPLAY
290
     0
  9
$INSUNITS
 70
     0
  9
$HYPERLINKBASE
  1

  9
$STYLESHEET
  1

  9
$XEDIT
290
     1
  9
$CEPSNTYPE
380
     0
  9
$PSTYLEMODE
290
     1
  9
$FINGERPRINTGUID
  2
{0AE0CFB1-D1C7-11D5-923F-00805F198AD5}
  9
$VERSIONGUID
  2
{0AE0CFB3-D1C7-11D5-923F-00805F198AD5}
  9
$EXTNAMES
290
     1
  9
$PSVPSCALE
 40
0.0
  9
$OLESTARTUP
290
     0
  0
ENDSEC
  0
SECTION
  2
CLASSES
  0
CLASS
  1
LWPOLYLINE
  2
AcDbPolyline
  3
AutoCAD 2000
 90
        0
280
     0
281
     1
  0
CLASS
  1
IMAGE
  2
AcDbRasterImage
  3
ISM
 90
      127
280
     0
281
     1
  0
CLASS
  1
OLE2FRAME
  2
AcDbOle2Frame
  3
AutoCAD 2000
 90
        0
280
     0
281
     1
  0
CLASS
  1
HATCH
  2
AcDbHatch
  3
AutoCAD 2000
 90
        0
280
     0
281
     1
  0
CLASS
  1
DICTIONARYVAR
  2
AcDbDictionaryVar
  3
AutoCAD 2000
 90
        0
280
     0
281
     0
  0
CLASS
  1
RASTERVARIABLES
  2
AcDbRasterVariables
  3
ISM
 90
        0
280
     0
281
     0
  0
CLASS
  1
IMAGEDEF
  2
AcDbRasterImageDef
  3
ISM
 90
        0
280
     0
281
     0
  0
CLASS
  1
IMAGEDEF_REACTOR
  2
AcDbRasterImageDefReactor
  3
ISM
 90
        1
280
     0
281
     0
  0
CLASS
  1
IDBUFFER
  2
AcDbIdBuffer
  3
AutoCAD 2000
 90
        0
280
     0
281
     0
  0
CLASS
  1
SPATIAL_FILTER
  2
AcDbSpatialFilter
  3
AutoCAD 2000
 90
        0
280
     0
281
     0
  0
CLASS
  1
XRECORD
  2
AcDbXrecord
  3
AutoCAD 2000
 90
        0
280
     0
281
     0
  0
CLASS
  1
SORTENTSTABLE
  2
AcDbSortentsTable
  3
AutoCAD 2000
 90
        0
280
     0
281
     0
  0
CLASS
  1
LAYER_INDEX
  2
AcDbLayerIndex
  3
AutoCAD 2000
 90
        0
280
     0
281
     0
  0
CLASS
  1
SPATIAL_INDEX
  2
AcDbSpatialIndex
  3
AutoCAD 2000
 90
        0
280
     0
281
     0
  0
CLASS
  1
OBJECT_PTR
  2
CAseDLPNTableRecord
  3
ASE-LPNTableRecord
 90
        1
280
     1
281
     0
  0
CLASS
  1
LAYOUT
  2
AcDbLayout
  3
ObjectDBX Classes
 90
        0
280
     0
281
     0
  0
CLASS
  1
PLOTSETTINGS
  2
AcDbPlotSettings
  3
AutoCAD 2000
 90
        0
280
     0
281
     0
  0
CLASS
  1
ACDBDICTIONARYWDFLT
  2
AcDbDictionaryWithDefault
  3
AutoCAD 2000
 90
        0
280
     0
281
     0
  0
CLASS
  1
ACDBPLACEHOLDER
  2
AcDbPlaceHolder
  3
ObjectDBX Classes
 90
        0
280
     0
281
     0
  0
CLASS
  1
VBAPROJECT
  2
AcDbVbaProject
  3
ObjectDBX Classes
 90
        0
280
     0
281
     0
  0
CLASS
  1
WIPEOUT
  2
AcDbWipeout
  3
WipeOut|AutoCAD Express Tool|expresstools@autodesk.com
 90
      127
280
     0
281
     1
  0
CLASS
  1
WIPEOUTVARIABLES
  2
AcDbWipeoutVariables
  3
WipeOut|AutoCAD Express Tool|expresstools@autodesk.com
 90
        0
280
     0
281
     0
  0
CLASS
  1
RTEXT
  2
RText
  3
RText|AutoCAD Express Tool|expresstools@autodesk.com
 90
        0
280
     0
281
     1
  0
CLASS
  1
ARCALIGNEDTEXT
  2
AcDbArcAlignedText
  3
ATEXT|AutoCAD Express Tool|expresstools@autodesk.com
 90
        0
280
     0
281
     1
  0
CLASS
  1
LONG_TRANSACTION
  2
AcDbLongTransaction
  3
AutoCAD 2000
 90
        0
280
     1
281
     0
  0
CLASS
  1
LWPOLYLINE
  2
AcDbPolyline
  3
AutoCAD 2000
 90
        0
280
     0
281
     1
  0
CLASS
  1
HATCH
  2
AcDbHatch
  3
AutoCAD 2000
 90
        0
280
     0
281
     1
  0
CLASS
  1
XRECORD
  2
AcDbXrecord
  3
AutoCAD 2000
 90
        0
280
     0
281
     0
  0
ENDSEC
  0
SECTION
  2
TABLES
  0
TABLE
  2
VPORT
  5
7
330
0
100
AcDbSymbolTable
 70
     2
  0
VPORT
  5
C6
330
7
100
AcDbSymbolTableRecord
100
AcDbViewportTableRecord
  2
*Active
 70
     0
 10
0.0
 20
0.0
 11
1.0
 21
1.0
 12
103.5475989458565
 22
70.06247653103628
 13
0.0
 23
0.0
 14
1.0
 24
1.0
 15
0.0
 25
0.0
 16
0.0
 26
0.0
 36
1.0
 17
0.0
 27
0.0
 37
0.0
 40
116.191731730174
 41
1.836842105263158
 42
50.0
 43
0.0
 44
0.0
 50
0.0
 51
0.0
 71
     0
 72
   100
 73
     1
 74
     1
 75
     0
 76
     0
 77
     0
 78
     0
281
     0
 65
     1
110
0.0
120
0.0
130
0.0
111
1.0
121
0.0
131
0.0
112
0.0
122
1.0
132
0.0
 79
     0
146
0.0
  0
ENDTAB
  0
TABLE
  2
LTYPE
  5
4
330
0
100
AcDbSymbolTable
 70
     1
  0
LTYPE
  5
11
330
4
100
AcDbSymbolTableRecord
100
AcDbLinetypeTableRecord
  2
BYBLOCK
 70
     0
  3

 72
    65
 73
     0
 40
0.0
  0
LTYPE
  5
12
330
4
100
AcDbSymbolTableRecord
100
AcDbLinetypeTableRecord
  2
BYLAYER
 70
     0
  3

 72
    65
 73
     0
 40
0.0
  0
LTYPE
  5
13
330
4
100
AcDbSymbolTableRecord
100
AcDbLinetypeTableRecord
  2
CONTINUOUS
 70
     0
  3
Solid line
 72
    65
 73
     0
 40
0.0
  0
ENDTAB
  0
TABLE
  2
LAYER
  5
2
330
0
100
AcDbSymbolTable
 70
     2
  0
LAYER
  5
14
330
2
100
AcDbSymbolTableRecord
100
AcDbLayerTableRecord
  2
0
 70
     0
 62
     7
  6
CONTINUOUS
370
    -3
390
0
  0
LAYER
  5
21
330
2
100
AcDbSymbolTableRecord
100
AcDbLayerTableRecord
  2
LAYER_1
 70
     0
 62
     5
  6
CONTINUOUS
370
    -3
390
0
  0
ENDTAB
  0
TABLE
  2
STYLE
  5
3
330
0
100
AcDbSymbolTable
 70
     5
  0
STYLE
  5
17
330
3
100
AcDbSymbolTableRecord
100
AcDbTextStyleTableRecord
  2
STANDARD
 70
     0
 40
0.0
 41
1.0
 50
0.0
 71
     0
 42
0.2
  3
txt
  4

  0
STYLE
  5
1D
330
3
100
AcDbSymbolTableRecord
100
AcDbTextStyleTableRecord
  2
STD
 70
     0
 40
0.0
 41
1.0
 50
0.0
 71
     0
 42
0.2
  3
txt
  4

  0
STYLE
  5
1E
330
3
100
AcDbSymbolTableRecord
100
AcDbTextStyleTableRecord
  2
TATESTD
 70
     4
 40
0.0
 41
1.0
 50
0.0
 71
     0
 42
0.2
  3
txt
  4

  0
STYLE
  5
1F
330
3
100
AcDbSymbolTableRecord
100
AcDbTextStyleTableRecord
  2
KANJISTD
 70
     0
 40
0.0
 41
1.0
 50
0.0
 71
     0
 42
0.2
  3
txt
  4
extfont
  0
STYLE
  5
20
330
3
100
AcDbSymbolTableRecord
100
AcDbTextStyleTableRecord
  2
KANJITATE
 70
     4
 40
0.0
 41
1.0
 50
0.0
 71
     0
 42
0.2
  3
txt
  4
extfont
  0
ENDTAB
  0
TABLE
  2
VIEW
  5
5
330
0
100
AcDbSymbolTable
 70
     0
  0
ENDTAB
  0
TABLE
  2
UCS
  5
6
330
0
100
AcDbSymbolTable
 70
     0
  0
ENDTAB
  0
TABLE
  2
APPID
  5
8
330
0
100
AcDbSymbolTable
 70
     1
  0
APPID
  5
16
330
8
100
AcDbSymbolTableRecord
100
AcDbRegAppTableRecord
  2
ACAD
 70
     0
  0
ENDTAB
  0
TABLE
  2
DIMSTYLE
  5
9
330
0
100
AcDbSymbolTable
 70
     1
100
AcDbDimStyleTable
  0
DIMSTYLE
105
18
330
9
100
AcDbSymbolTableRecord
100
AcDbDimStyleTableRecord
  2
STANDARD
 70
     0
  3

  4

289
     0
340
17
  0
ENDTAB
  0
TABLE
  2
BLOCK_RECORD
  5
1
330
0
100
AcDbSymbolTable
 70
     0
  0
BLOCK_RECORD
  5
A
330
1
100
AcDbSymbolTableRecord
100
AcDbBlockTableRecord
  2
*MODEL_SPACE
340
C1
  0
BLOCK_RECORD
  5
B
330
1
100
AcDbSymbolTableRecord
100
AcDbBlockTableRecord
  2
*PAPER_SPACE
340
C2
  0
ENDTAB
  0
ENDSEC
  0
SECTION
  2
BLOCKS
  0
BLOCK
  5
D
330
A
100
AcDbEntity
  8
0
100
AcDbBlockBegin
  2
*MODEL_SPACE
 70
     0
 10
0.0
 20
0.0
 30
0.0
  3
*MODEL_SPACE
  1

  4

  0
ENDBLK
  5
E
330
A
100
AcDbEntity
  8
0
100
AcDbBlockEnd
  0
BLOCK
  5
F
330
B
100
AcDbEntity
 67
     1
  8
0
100
AcDbBlockBegin
  2
*PAPER_SPACE
 70
     0
 10
0.0
 20
0.0
 30
0.0
  3
*PAPER_SPACE
  1

  4

  0
ENDBLK
  5
10
330
B
100
AcDbEntity
 67
     1
  8
0
100
AcDbBlockEnd
  0
ENDSEC
  0
SECTION
  2
ENTITIES
  0
LWPOLYLINE
  5
AF
330
A
100
AcDbEntity
  8
LAYER_1
 62
     7
100
AcDbPolyline
 90
       11
 70
     0
 43
0.0
 10
126.7783081054687
 20
61.0290052625868
 10
127.3272840711805
 20
20.25853949652777
 10
118.8797376844618
 20
12.87191026475694
 10
106.2541517469618
 20
15.23507351345486
 10
104.9994479709201
 20
14.08268907335069
 10
103.1675184461806
 20
17.14090033637153
 10
100.3470187717014
 20
16.25103217230903
 10
86.10499403211804
 20
19.05292833116319
 10
85.87761773003471
 20
70.2317165798611
 10
85.95409884982638
 20
70.6347927517361
 10
83.95387641059027
 20
71.0533718532986
  0
LWPOLYLINE
  5
94
330
A
100
AcDbEntity
  8
LAYER_1
 62
     7
100
AcDbPolyline
 90
       25
 70
     0
 43
0.0
 10
55.03901774088541
 20
77.10433756510416
 10
32.32429741753472
 20
81.85788031684027
 10
32.00907118055555
 20
87.63427191840277
 10
33.24000379774305
 20
89.54216579861111
 10
30.62879367404514
 20
91.90842963324651
 10
32.07780083550347
 20
93.95688340928818
 10
31.93259006076389
 20
97.15668809678819
 10
38.87066786024305
 20
107.2558132595486
 10
85.75514458550346
 20
96.80012071397569
 10
85.73189019097221
 20
115.9824123806423
 10
94.50189751519096
 20
127.2514919704861
 10
107.5548475477431
 20
124.0563381618924
 10
110.2420220269097
 20
124.9420722113715
 10
112.2263970269097
 20
121.2652940538194
 10
113.837151421441
 20
122.4290473090278
 10
126.0364067925347
 20
119.4736721462674
 10
126.5454196506076
 20
87.66579454210068
 10
174.7796847873264
 20
76.76258409288194
 10
174.9254123263889
 20
70.71385769314236
 10
176.4664035373264
 20
69.82709011501736
 10
173.988001844618
 20
67.96932237413193
 10
174.9745049370659
 20
66.30844184027777
 10
175.0752739800347
 20
61.68288438585069
 10
166.0236300998264
 20
53.69835883246527
 10
147.6238918728299
 20
57.79268256293403
  0
SPLINE
  5
93
330
A
100
AcDbEntity
  8
LAYER_1
 62
     7
100
AcDbSpline
210
0.0
220
0.0
230
1.0
 70
    11
 71
     3
 72
   122
 73
   118
 74
     0
 42
0.0000000001
 43
0.0000000001
 40
0.0
 40
0.0
 40
0.0
 40
0.0
 40
1.0
 40
1.0
 40
1.0
 40
2.0
 40
2.0
 40
2.0
 40
3.0
 40
3.0
 40
3.0
 40
4.0
 40
4.0
 40
4.0
 40
5.0
 40
5.0
 40
5.0
 40
6.0
 40
6.0
 40
6.0
 40
7.0
 40
7.0
 40
7.0
 40
8.0
 40
8.0
 40
8.0
 40
9.0
 40
9.0
 40
9.0
 40
10.0
 40
10.0
 40
10.0
 40
11.0
 40
11.0
 40
11.0
 40
12.0
 40
12.0
 40
12.0
 40
13.0
 40
13.0
 40
13.0
 40
14.0
 40
14.0
 40
14.0
 40
15.0
 40
15.0
 40
15.0
 40
16.0
 40
16.0
 40
16.0
 40
17.0
 40
17.0
 40
17.0
 40
18.0
 40
18.0
 40
18.0
 40
19.0
 40
19.0
 40
19.0
 40
20.0
 40
20.0
 40
20.0
 40
21.0
 40
21.0
 40
21.0
 40
22.0
 40
22.0
 40
22.0
 40
23.0
 40
23.0
 40
23.0
 40
24.0
 40
24.0
 40
24.0
 40
25.0
 40
25.0
 40
25.0
 40
26.0
 40
26.0
 40
26.0
 40
27.0
 40
27.0
 40
27.0
 40
28.0
 40
28.0
 40
28.0
 40
29.0
 40
29.0
 40
29.0
 40
30.0
 40
30.0
 40
30.0
 40
31.0
 40
31.0
 40
31.0
 40
32.0
 40
32.0
 40
32.0
 40
33.0
 40
33.0
 40
33.0
 40
34.0
 40
34.0
 40
34.0
 40
35.0
 40
35.0
 40
35.0
 40
36.0
 40
36.0
 40
36.0
 40
37.0
 40
37.0
 40
37.0
 40
38.0
 40
38.0
 40
38.0
 40
39.0
 40
39.0
 40
39.0
 40
39.0
 10
61.00626763237847
 20
98.29253607855902
 30
0.0
 10
61.00626763237847
 20
98.29253607855902
 30
0.0
 10
61.82017144097222
 20
99.29712592230902
 30
0.0
 10
61.82017144097222
 20
99.29712592230902
 30
0.0
 10
61.82017144097222
 20
99.29712592230902
 30
0.0
 10
63.87379286024305
 20
100.518756781684
 30
0.0
 10
63.87379286024305
 20
100.518756781684
 30
0.0
 10
63.87379286024305
 20
100.518756781684
 30
0.0
 10
154.9576388888889
 20
80.10088161892361
 30
0.0
 10
154.9576388888889
 20
80.10088161892361
 30
0.0
 10
154.9576388888889
 20
80.10088161892361
 30
0.0
 10
157.2701592339409
 20
77.32534044053818
 30
0.0
 10
157.2701592339409
 20
77.32534044053818
 30
0.0
 10
157.2701592339409
 20
77.32534044053818
 30
0.0
 10
157.3104668511285
 20
67.5342068142361
 30
0.0
 10
157.3104668511285
 20
67.5342068142361
 30
0.0
 10
157.3104668511285
 20
67.5342068142361
 30
0.0
 10
156.3575534396701
 20
66.70324978298611
 30
0.0
 10
156.3575534396701
 20
66.70324978298611
 30
0.0
 10
156.3575534396701
 20
66.70324978298611
 30
0.0
 10
156.3823581271701
 20
65.90278184678819
 30
0.0
 10
156.3823581271701
 20
65.90278184678819
 30
0.0
 10
156.3823581271701
 20
65.90278184678819
 30
0.0
 10
155.3018039279514
 20
64.88992377387152
 30
0.0
 10
155.3018039279514
 20
64.88992377387152
 30
0.0
 10
155.3018039279514
 20
64.88992377387152
 30
0.0
 10
155.3839694552951
 20
63.69051378038194
 30
0.0
 10
155.3839694552951
 20
63.69051378038194
 30
0.0
 10
155.3839694552951
 20
63.69051378038194
 30
0.0
 10
149.5801893446181
 20
58.56782904730903
 30
0.0
 10
149.4081068250868
 20
58.3843777126736
 30
0.0
 10
148.7440646701389
 20
58.27430691189235
 30
0.0
 10
148.0929416232639
 20
58.14821641710069
 30
0.0
 10
147.5172661675347
 20
57.65729031032986
 30
0.0
 10
147.1539808485243
 20
57.34826524522569
 30
0.0
 10
146.6082777235243
 20
56.82736680772569
 30
0.0
 10
146.6082777235243
 20
56.82736680772569
 30
0.0
 10
146.6082777235243
 20
56.82736680772569
 30
0.0
 10
126.8079359266493
 20
60.87931586371527
 30
0.0
 10
126.8079359266493
 20
60.87931586371527
 30
0.0
 10
126.8079359266493
 20
60.87931586371527
 30
0.0
 10
126.6591078016493
 20
71.29004991319444
 30
0.0
 10
126.6591078016493
 20
71.29004991319444
 30
0.0
 10
127.3954969618056
 20
71.93600531684027
 30
0.0
 10
128.9571587456597
 20
71.80681423611111
 30
0.0
 10
130.306947157118
 20
71.35981309678819
 30
0.0
 10
130.2971286349826
 20
71.67090521918402
 30
0.0
 10
130.2676730685764
 20
72.60469835069443
 30
0.0
 10
130.2676730685764
 20
72.60469835069443
 30
0.0
 10
127.2094618055556
 20
73.62169053819444
 30
0.0
 10
124.6473442925347
 20
71.58253851996527
 30
0.0
 10
124.6463107638889
 20
68.77857530381944
 30
0.0
 10
124.645277235243
 20
65.97461208767361
 30
0.0
 10
124.7791191948785
 20
53.96242540147569
 30
0.0
 10
124.794622124566
 20
52.71547309027778
 30
0.0
 10
124.825627983941
 20
50.31303575303819
 30
0.0
 10
123.7579928927951
 20
44.62656114366319
 30
0.0
 10
117.9325086805555
 20
45.86782904730902
 30
0.0
 10
115.1042575412326
 20
46.47037624782985
 30
0.0
 10
104.988079155816
 20
48.59376085069444
 30
0.0
 10
103.0114556206597
 20
49.04903021918403
 30
0.0
 10
98.07945692274305
 20
50.18487820095486
 30
0.0
 10
97.13429497612846
 20
53.35987820095485
 30
0.0
 10
97.17977023654512
 20
56.16539171006944
 30
0.0
 10
97.22524549696179
 20
58.97090521918403
 30
0.0
 10
97.21232638888888
 20
69.34133165147568
 30
0.0
 10
97.19940728081596
 20
71.12106797960068
 30
0.0
 10
97.17408582899304
 20
74.76994086371528
 30
0.0
 10
94.90652398003472
 20
80.35151231553819
 30
0.0
 10
89.34717339409721
 20
81.64600694444444
 30
0.0
 10
89.32546929253472
 20
81.13751085069444
 30
0.0
 10
89.19989556206596
 20
80.6620876736111
 30
0.0
 10
89.19989556206596
 20
80.6620876736111
 30
0.0
 10
89.19989556206596
 20
80.6620876736111
 30
0.0
 10
88.82214084201388
 20
79.93810085720486
 30
0.0
 10
88.82214084201388
 20
79.93810085720486
 30
0.0
 10
88.82214084201388
 20
79.93810085720486
 30
0.0
 10
89.53785942925346
 20
79.82699652777777
 30
0.0
 10
89.85153537326389
 20
79.74793158637152
 30
0.0
 10
90.16572808159721
 20
79.66886664496528
 30
0.0
 10
90.48560519748263
 20
79.41151801215277
 30
0.0
 10
90.49955783420138
 20
78.96710069444444
 30
0.0
 10
90.51351047092012
 20
78.52216661241319
 30
0.0
 10
90.79256320529512
 20
78.13045925564235
 30
0.0
 10
90.19104953342013
 20
77.44419623480903
 30
0.0
 10
89.58953586154513
 20
76.75741644965277
 30
0.0
 10
84.8787122938368
 20
70.86785346137152
 30
0.0
 10
84.8787122938368
 20
70.86785346137152
 30
0.0
 10
84.8787122938368
 20
70.86785346137152
 30
0.0
 10
83.66793348524305
 20
71.14122178819444
 30
0.0
 10
83.66793348524305
 20
71.14122178819444
 30
0.0
 10
83.66793348524305
 20
71.14122178819444
 30
0.0
 10
83.40955132378471
 20
70.86630316840277
 30
0.0
 10
83.19457736545138
 20
70.63685980902777
 30
0.0
 10
82.97908664279512
 20
70.40741644965277
 30
0.0
 10
82.76773003472222
 20
70.04464789496527
 30
0.0
 10
82.13986138237847
 20
70.20329454210069
 30
0.0
 10
81.5114759657118
 20
70.36142442491318
 30
0.0
 10
55.26139865451388
 20
75.70166693793402
 30
0.0
 10
55.26139865451388
 20
75.70166693793402
 30
0.0
 10
55.26139865451388
 20
75.70166693793402
 30
0.0
 10
54.99888237847222
 20
76.98427598741318
 30
0.0
 10
54.99888237847222
 20
76.98427598741318
 30
0.0
 10
54.99888237847222
 20
76.98427598741318
 30
0.0
 10
55.73733859592014
 20
77.56356879340277
 30
0.0
 10
55.73733859592014
 20
77.56356879340277
 30
0.0
 10
55.73733859592014
 20
77.56356879340277
 30
0.0
 10
55.72855360243055
 20
79.25493842230902
 30
0.0
 10
55.72855360243055
 20
79.25493842230902
 30
0.0
 10
55.72855360243055
 20
79.25493842230902
 30
0.0
 10
60.72979871961805
 20
85.82146267361111
 30
0.0
 10
60.72979871961805
 20
85.82146267361111
 30
0.0
 10
62.79478895399305
 20
85.17240668402776
 30
0.0
 10
63.06247287326389
 20
88.17274034288194
 30
0.0
 10
60.97681206597222
 20
87.87663438585069
 30
0.0
 10
60.98714735243055
 20
87.8709499782986
 30
0.0
 10
61.00626763237847
 20
98.29253607855902
 30
0.0
 10
61.00626763237847
 20
98.29253607855902
 30
0.0
  0
SPLINE
  5
92
330
A
100
AcDbEntity
  8
LAYER_1
 62
     7
100
AcDbSpline
210
0.0
220
0.0
230
1.0
 70
    11
 71
     3
 72
    68
 73
    64
 74
     0
 42
0.0000000001
 43
0.0000000001
 40
0.0
 40
0.0
 40
0.0
 40
0.0
 40
1.0
 40
1.0
 40
1.0
 40
2.0
 40
2.0
 40
2.0
 40
3.0
 40
3.0
 40
3.0
 40
4.0
 40
4.0
 40
4.0
 40
5.0
 40
5.0
 40
5.0
 40
6.0
 40
6.0
 40
6.0
 40
7.0
 40
7.0
 40
7.0
 40
8.0
 40
8.0
 40
8.0
 40
9.0
 40
9.0
 40
9.0
 40
10.0
 40
10.0
 40
10.0
 40
11.0
 40
11.0
 40
11.0
 40
12.0
 40
12.0
 40
12.0
 40
13.0
 40
13.0
 40
13.0
 40
14.0
 40
14.0
 40
14.0
 40
15.0
 40
15.0
 40
15.0
 40
16.0
 40
16.0
 40
16.0
 40
17.0
 40
17.0
 40
17.0
 40
18.0
 40
18.0
 40
18.0
 40
19.0
 40
19.0
 40
19.0
 40
20.0
 40
20.0
 40
20.0
 40
21.0
 40
21.0
 40
21.0
 40
21.0
 10
65.85920138888888
 20
98.95657823350693
 30
0.0
 10
65.26957329644097
 20
98.58244086371526
 30
0.0
 10
65.43390435112846
 20
97.56803249782985
 30
0.0
 10
65.57704806857639
 20
97.30086534288193
 30
0.0
 10
65.74241265190972
 20
96.99494086371527
 30
0.0
 10
65.86126844618055
 20
97.02336290147568
 30
0.0
 10
65.73052707248263
 20
97.37269558376735
 30
0.0
 10
65.3419203016493
 20
98.40622422960068
 30
0.0
 10
66.48707004123263
 20
98.79844835069443
 30
0.0
 10
67.07876519097222
 20
98.37211778428818
 30
0.0
 10
67.08083224826389
 20
98.30493842230902
 30
0.0
 10
66.82245008680555
 20
98.03001980251736
 30
0.0
 10
66.82245008680555
 20
98.03001980251736
 30
0.0
 10
66.82245008680555
 20
98.03001980251736
 30
0.0
 10
66.61987847222221
 20
98.06567654079861
 30
0.0
 10
66.52996148003471
 20
98.13233913845485
 30
0.0
 10
66.30206841362846
 20
98.30287136501735
 30
0.0
 10
66.00027804904514
 20
98.00418158637152
 30
0.0
 10
66.24935845269097
 20
97.85638699001736
 30
0.0
 10
66.49895562065971
 20
97.70859239366318
 30
0.0
 10
66.61264377170139
 20
97.62280951605902
 30
0.0
 10
66.61264377170139
 20
97.62280951605902
 30
0.0
 10
66.61264377170139
 20
97.62280951605902
 30
0.0
 10
66.50825737847222
 20
97.41920437282985
 30
0.0
 10
66.40128716362847
 20
97.28226182725693
 30
0.0
 10
66.29431694878471
 20
97.14531928168402
 30
0.0
 10
66.41730685763888
 20
96.77118191189236
 30
0.0
 10
66.61161024305555
 20
96.95515001085069
 30
0.0
 10
66.80643039279514
 20
97.13963487413193
 30
0.0
 10
66.84725477430555
 20
97.25177273220486
 30
0.0
 10
66.84725477430555
 20
97.25177273220486
 30
0.0
 10
66.84725477430555
 20
97.25177273220486
 30
0.0
 10
67.02140435112847
 20
97.36856146918402
 30
0.0
 10
67.09116753472222
 20
97.28174506293402
 30
0.0
 10
67.16041395399304
 20
97.19492865668401
 30
0.0
 10
67.18573540581596
 20
97.10656195746527
 30
0.0
 10
67.27565239800347
 20
97.06522081163193
 30
0.0
 10
67.36608615451388
 20
97.02336290147568
 30
0.0
 10
67.74332411024305
 20
97.05746934678818
 30
0.0
 10
67.58002658420138
 20
97.29724799262152
 30
0.0
 10
67.41672905815972
 20
97.53702663845485
 30
0.0
 10
67.25859917534721
 20
97.62074245876735
 30
0.0
 10
67.34386528862846
 20
97.73494737413193
 30
0.0
 10
67.42913140190971
 20
97.84915228949652
 30
0.0
 10
67.35988498263889
 20
97.9354519314236
 30
0.0
 10
67.35988498263889
 20
97.9354519314236
 30
0.0
 10
67.35988498263889
 20
97.9354519314236
 30
0.0
 10
67.48649224175347
 20
98.02175157335068
 30
0.0
 10
67.58261040581597
 20
97.92046576605902
 30
0.0
 10
67.76709526909721
 20
97.72616238064235
 30
0.0
 10
67.97586805555555
 20
96.56292588975694
 30
0.0
 10
66.97696261935764
 20
96.65490993923611
 30
0.0
 10
66.46381564670138
 20
96.70296902126735
 30
0.0
 10
66.48138563368055
 20
96.54483913845485
 30
0.0
 10
66.84983859592013
 20
96.45078803168401
 30
0.0
 10
67.16403130425347
 20
96.37172309027777
 30
0.0
 10
67.85701226128472
 20
96.28232286241318
 30
0.0
 10
67.99447157118055
 20
96.86523301866319
 30
0.0
 10
68.04356418185763
 20
97.07090521918401
 30
0.0
 10
68.15673556857638
 20
98.0718777126736
 30
0.0
 10
67.49786105685763
 20
98.4966579861111
 30
0.0
 10
66.8395033094618
 20
98.92092149522568
 30
0.0
 10
66.15220675998263
 20
99.14261338975693
 30
0.0
 10
65.85920138888888
 20
98.95657823350693
 30
0.0
  0
SPLINE
  5
91
330
A
100
AcDbEntity
  8
LAYER_1
 62
     7
100
AcDbSpline
210
0.0
220
0.0
230
1.0
 70
    11
 71
     3
 72
    14
 73
    10
 74
     0
 42
0.0000000001
 43
0.0000000001
 40
0.0
 40
0.0
 40
0.0
 40
0.0
 40
1.0
 40
1.0
 40
1.0
 40
2.0
 40
2.0
 40
2.0
 40
3.0
 40
3.0
 40
3.0
 40
3.0
 10
64.59054497612847
 20
97.53702663845485
 30
0.0
 10
64.5574720594618
 20
96.46784125434027
 30
0.0
 10
65.76204969618055
 20
95.40692409939236
 30
0.0
 10
66.89738091362847
 20
95.65135362413193
 30
0.0
 10
68.11332736545138
 20
95.91180284288194
 30
0.0
 10
68.19290907118055
 20
96.91587592230901
 30
0.0
 10
67.94176161024305
 20
97.82021348741318
 30
0.0
 10
67.55005425347221
 20
99.23666449652777
 30
0.0
 10
64.65462375217014
 20
99.61028510199652
 30
0.0
 10
64.59054497612847
 20
97.53702663845485
 30
0.0
  0
SPLINE
  5
90
330
A
100
AcDbEntity
  8
LAYER_1
 62
     7
100
AcDbSpline
210
0.0
220
0.0
230
1.0
 70
    11
 71
     3
 72
    68
 73
    64
 74
     0
 42
0.0000000001
 43
0.0000000001
 40
0.0
 40
0.0
 40
0.0
 40
0.0
 40
1.0
 40
1.0
 40
1.0
 40
2.0
 40
2.0
 40
2.0
 40
3.0
 40
3.0
 40
3.0
 40
4.0
 40
4.0
 40
4.0
 40
5.0
 40
5.0
 40
5.0
 40
6.0
 40
6.0
 40
6.0
 40
7.0
 40
7.0
 40
7.0
 40
8.0
 40
8.0
 40
8.0
 40
9.0
 40
9.0
 40
9.0
 40
10.0
 40
10.0
 40
10.0
 40
11.0
 40
11.0
 40
11.0
 40
12.0
 40
12.0
 40
12.0
 40
13.0
 40
13.0
 40
13.0
 40
14.0
 40
14.0
 40
14.0
 40
15.0
 40
15.0
 40
15.0
 40
16.0
 40
16.0
 40
16.0
 40
17.0
 40
17.0
 40
17.0
 40
18.0
 40
18.0
 40
18.0
 40
19.0
 40
19.0
 40
19.0
 40
20.0
 40
20.0
 40
20.0
 40
21.0
 40
21.0
 40
21.0
 40
21.0
 10
85.25956759982638
 20
91.40613471137152
 30
0.0
 10
84.67045627170138
 20
91.03148057725694
 30
0.0
 10
84.83478732638888
 20
90.01707221137151
 30
0.0
 10
84.9779310438368
 20
89.75042182074652
 30
0.0
 10
85.14329562717013
 20
89.44398057725694
 30
0.0
 10
85.26215142144096
 20
89.47291937934027
 30
0.0
 10
85.13141004774305
 20
89.82173529730902
 30
0.0
 10
84.74332004123264
 20
90.85578070746527
 30
0.0
 10
85.88795301649304
 20
91.24800482855902
 30
0.0
 10
86.48016493055555
 20
90.82115749782986
 30
0.0
 10
86.48223198784721
 20
90.7544949001736
 30
0.0
 10
86.22384982638889
 20
90.47905951605902
 30
0.0
 10
86.22384982638889
 20
90.47905951605902
 30
0.0
 10
86.22384982638889
 20
90.47905951605902
 30
0.0
 10
86.02076144748263
 20
90.51471625434027
 30
0.0
 10
85.93084445529513
 20
90.58137885199652
 30
0.0
 10
85.70295138888888
 20
90.75242784288194
 30
0.0
 10
85.40116102430555
 20
90.45373806423611
 30
0.0
 10
85.65024142795139
 20
90.30542670355902
 30
0.0
 10
85.89983859592013
 20
90.15763210720485
 30
0.0
 10
86.01404351128471
 20
90.0723659939236
 30
0.0
 10
86.01404351128471
 20
90.0723659939236
 30
0.0
 10
86.01404351128471
 20
90.0723659939236
 30
0.0
 10
85.90914035373262
 20
89.86876085069444
 30
0.0
 10
85.80217013888888
 20
89.73181830512152
 30
0.0
 10
85.69468315972222
 20
89.5948757595486
 30
0.0
 10
85.81818983289929
 20
89.22022162543402
 30
0.0
 10
86.01249321831597
 20
89.40470648871526
 30
0.0
 10
86.20731336805555
 20
89.58867458767361
 30
0.0
 10
86.24813774956597
 20
89.70132921006943
 30
0.0
 10
86.24813774956597
 20
89.70132921006943
 30
0.0
 10
86.24813774956597
 20
89.70132921006943
 30
0.0
 10
86.42228732638888
 20
89.81811794704861
 30
0.0
 10
86.49153374565971
 20
89.7313015407986
 30
0.0
 10
86.56129692925346
 20
89.6444851345486
 30
0.0
 10
86.58661838107638
 20
89.55611843532985
 30
0.0
 10
86.67653537326387
 20
89.5142605251736
 30
0.0
 10
86.7669691297743
 20
89.47240261501736
 30
0.0
 10
87.14420708550347
 20
89.50650906032985
 30
0.0
 10
86.98090955946179
 20
89.74628770616319
 30
0.0
 10
86.81761203342013
 20
89.98606635199651
 30
0.0
 10
86.65896538628472
 20
90.07029893663194
 30
0.0
 10
86.74474826388888
 20
90.1839870876736
 30
0.0
 10
86.83001437717013
 20
90.29819200303818
 30
0.0
 10
86.7607679578993
 20
90.38500840928819
 30
0.0
 10
86.7607679578993
 20
90.38500840928819
 30
0.0
 10
86.7607679578993
 20
90.38500840928819
 30
0.0
 10
86.88737521701388
 20
90.47079128689235
 30
0.0
 10
86.98349338107639
 20
90.36950547960069
 30
0.0
 10
87.16797824435763
 20
90.17520209418402
 30
0.0
 10
87.37675103081597
 20
89.01196560329861
 30
0.0
 10
86.37784559461805
 20
89.10446641710068
 30
0.0
 10
85.86469862196179
 20
89.15252549913194
 30
0.0
 10
85.88226860894096
 20
88.99439561631944
 30
0.0
 10
86.25123833550346
 20
88.89982774522569
 30
0.0
 10
86.56491427951389
 20
88.82076280381943
 30
0.0
 10
87.25789523654512
 20
88.73136257595485
 30
0.0
 10
87.39535454644097
 20
89.31427273220486
 30
0.0
 10
87.44444715711805
 20
89.5204616970486
 30
0.0
 10
87.5576185438368
 20
90.52143419053819
 30
0.0
 10
86.89874403211805
 20
90.94569769965277
 30
0.0
 10
86.2398695203993
 20
91.36996120876735
 30
0.0
 10
85.55308973524305
 20
91.5916531032986
 30
0.0
 10
85.25956759982638
 20
91.40613471137152
 30
0.0
  0
SPLINE
  5
8F
330
A
100
AcDbEntity
  8
LAYER_1
 62
     7
100
AcDbSpline
210
0.0
220
0.0
230
1.0
 70
    11
 71
     3
 72
    14
 73
    10
 74
     0
 42
0.0000000001
 43
0.0000000001
 40
0.0
 40
0.0
 40
0.0
 40
0.0
 40
1.0
 40
1.0
 40
1.0
 40
2.0
 40
2.0
 40
2.0
 40
3.0
 40
3.0
 40
3.0
 40
3.0
 10
83.99142795138889
 20
89.98658311631944
 30
0.0
 10
83.95835503472222
 20
88.91688096788194
 30
0.0
 10
85.16241590711805
 20
87.85596381293402
 30
0.0
 10
86.29826388888888
 20
88.10039333767361
 30
0.0
 10
87.5142103407118
 20
88.36135932074652
 30
0.0
 10
87.59379204644097
 20
89.36491563585069
 30
0.0
 10
87.34316134982637
 20
90.26976996527777
 30
0.0
 10
86.95093722873263
 20
91.68570421006943
 30
0.0
 10
84.05550672743055
 20
92.05932481553819
 30
0.0
 10
83.99142795138889
 20
89.98658311631944
 30
0.0
  0
SPLINE
  5
8E
330
A
100
AcDbEntity
  8
LAYER_1
 62
     7
100
AcDbSpline
210
0.0
220
0.0
230
1.0
 70
    11
 71
     3
 72
    68
 73
    64
 74
     0
 42
0.0000000001
 43
0.0000000001
 40
0.0
 40
0.0
 40
0.0
 40
0.0
 40
1.0
 40
1.0
 40
1.0
 40
2.0
 40
2.0
 40
2.0
 40
3.0
 40
3.0
 40
3.0
 40
4.0
 40
4.0
 40
4.0
 40
5.0
 40
5.0
 40
5.0
 40
6.0
 40
6.0
 40
6.0
 40
7.0
 40
7.0
 40
7.0
 40
8.0
 40
8.0
 40
8.0
 40
9.0
 40
9.0
 40
9.0
 40
10.0
 40
10.0
 40
10.0
 40
11.0
 40
11.0
 40
11.0
 40
12.0
 40
12.0
 40
12.0
 40
13.0
 40
13.0
 40
13.0
 40
14.0
 40
14.0
 40
14.0
 40
15.0
 40
15.0
 40
15.0
 40
16.0
 40
16.0
 40
16.0
 40
17.0
 40
17.0
 40
17.0
 40
18.0
 40
18.0
 40
18.0
 40
19.0
 40
19.0
 40
19.0
 40
20.0
 40
20.0
 40
20.0
 40
21.0
 40
21.0
 40
21.0
 40
21.0
 10
106.5859144422743
 20
89.47963731553818
 30
0.0
 10
105.9968031141493
 20
89.10498318142361
 30
0.0
 10
106.1606174045139
 20
88.09057481553819
 30
0.0
 10
106.3042778862847
 20
87.82340766059026
 30
0.0
 10
106.4696424696181
 20
87.5174831814236
 30
0.0
 10
106.5884982638889
 20
87.54590521918402
 30
0.0
 10
106.457756890191
 20
87.89523790147568
 30
0.0
 10
106.0691501193576
 20
88.92928331163193
 30
0.0
 10
107.214299858941
 20
89.32099066840277
 30
0.0
 10
107.8059950086805
 20
88.89466010199652
 30
0.0
 10
107.8080620659722
 20
88.82799750434027
 30
0.0
 10
107.5496799045139
 20
88.55256212022569
 30
0.0
 10
107.5496799045139
 20
88.55256212022569
 30
0.0
 10
107.5496799045139
 20
88.55256212022569
 30
0.0
 10
107.3471082899306
 20
88.58821885850693
 30
0.0
 10
107.2571912977431
 20
88.65488145616318
 30
0.0
 10
107.0292982313368
 20
88.82541368272568
 30
0.0
 10
106.7269911024306
 20
88.52672390407986
 30
0.0
 10
106.9765882703993
 20
88.37892930772568
 30
0.0
 10
107.2256686740451
 20
88.23113471137152
 30
0.0
 10
107.3398735894097
 20
88.14535183376735
 30
0.0
 10
107.3398735894097
 20
88.14535183376735
 30
0.0
 10
107.3398735894097
 20
88.14535183376735
 30
0.0
 10
107.2349704318576
 20
87.94174669053818
 30
0.0
 10
107.1280002170139
 20
87.80532090928818
 30
0.0
 10
107.0210300021701
 20
87.66786159939235
 30
0.0
 10
107.1440199110243
 20
87.29372422960068
 30
0.0
 10
107.3388400607639
 20
87.47769232855902
 30
0.0
 10
107.5331434461806
 20
87.66217719184027
 30
0.0
 10
107.573967827691
 20
87.77483181423611
 30
0.0
 10
107.573967827691
 20
87.77483181423611
 30
0.0
 10
107.573967827691
 20
87.77483181423611
 30
0.0
 10
107.7486341688368
 20
87.89110378689236
 30
0.0
 10
107.8178805881076
 20
87.80428738064235
 30
0.0
 10
107.8876437717014
 20
87.71747097439236
 30
0.0
 10
107.9124484592014
 20
87.62962103949651
 30
0.0
 10
108.0028822157118
 20
87.58776312934027
 30
0.0
 10
108.0933159722222
 20
87.54590521918402
 30
0.0
 10
108.4705539279514
 20
87.58001166449652
 30
0.0
 10
108.3072564019097
 20
87.81979031032985
 30
0.0
 10
108.1439588758681
 20
88.05956895616319
 30
0.0
 10
107.9853122287326
 20
88.14380154079861
 30
0.0
 10
108.0705783420139
 20
88.25748969184026
 30
0.0
 10
108.1563612196181
 20
88.37117784288193
 30
0.0
 10
108.0871148003472
 20
88.45799424913194
 30
0.0
 10
108.0871148003472
 20
88.45799424913194
 30
0.0
 10
108.0871148003472
 20
88.45799424913194
 30
0.0
 10
108.2132052951389
 20
88.54429389105901
 30
0.0
 10
108.3098402235243
 20
88.44300808376735
 30
0.0
 10
108.4938083224826
 20
88.24870469835069
 30
0.0
 10
108.7030978732639
 20
87.08546820746527
 30
0.0
 10
107.704192437066
 20
87.17796902126736
 30
0.0
 10
107.1905287000868
 20
87.22551133897569
 30
0.0
 10
107.208098687066
 20
87.06738145616319
 30
0.0
 10
107.5770684136285
 20
86.97333034939236
 30
0.0
 10
107.8912611219618
 20
86.8942654079861
 30
0.0
 10
108.5837253146701
 20
86.80486518012152
 30
0.0
 10
108.721184624566
 20
87.38777533637152
 30
0.0
 10
108.770277235243
 20
87.59396430121527
 30
0.0
 10
108.8834486219618
 20
88.59442003038194
 30
0.0
 10
108.225090874566
 20
89.01920030381943
 30
0.0
 10
107.5662163628472
 20
89.44346381293401
 30
0.0
 10
106.878919813368
 20
89.66515570746527
 30
0.0
 10
106.5859144422743
 20
89.47963731553818
 30
0.0
  0
SPLINE
  5
8D
330
A
100
AcDbEntity
  8
LAYER_1
 62
     7
100
AcDbSpline
210
0.0
220
0.0
230
1.0
 70
    11
 71
     3
 72
    14
 73
    10
 74
     0
 42
0.0000000001
 43
0.0000000001
 40
0.0
 40
0.0
 40
0.0
 40
0.0
 40
1.0
 40
1.0
 40
1.0
 40
2.0
 40
2.0
 40
2.0
 40
3.0
 40
3.0
 40
3.0
 40
3.0
 10
105.3172580295139
 20
88.05956895616319
 30
0.0
 10
105.2841851128472
 20
86.9903835720486
 30
0.0
 10
106.488762749566
 20
85.92946641710068
 30
0.0
 10
107.6240939670139
 20
86.17389594184027
 30
0.0
 10
108.8400404188368
 20
86.43434516059027
 30
0.0
 10
108.9201388888889
 20
87.43841824001736
 30
0.0
 10
108.6689914279514
 20
88.34327256944444
 30
0.0
 10
108.2767673068576
 20
89.75920681423611
 30
0.0
 10
105.3818535698785
 20
90.13282741970485
 30
0.0
 10
105.3172580295139
 20
88.05956895616319
 30
0.0
  0
SPLINE
  5
8C
330
A
100
AcDbEntity
  8
LAYER_1
 62
     7
100
AcDbSpline
210
0.0
220
0.0
230
1.0
 70
    11
 71
     3
 72
    68
 73
    64
 74
     0
 42
0.0000000001
 43
0.0000000001
 40
0.0
 40
0.0
 40
0.0
 40
0.0
 40
1.0
 40
1.0
 40
1.0
 40
2.0
 40
2.0
 40
2.0
 40
3.0
 40
3.0
 40
3.0
 40
4.0
 40
4.0
 40
4.0
 40
5.0
 40
5.0
 40
5.0
 40
6.0
 40
6.0
 40
6.0
 40
7.0
 40
7.0
 40
7.0
 40
8.0
 40
8.0
 40
8.0
 40
9.0
 40
9.0
 40
9.0
 40
10.0
 40
10.0
 40
10.0
 40
11.0
 40
11.0
 40
11.0
 40
12.0
 40
12.0
 40
12.0
 40
13.0
 40
13.0
 40
13.0
 40
14.0
 40
14.0
 40
14.0
 40
15.0
 40
15.0
 40
15.0
 40
16.0
 40
16.0
 40
16.0
 40
17.0
 40
17.0
 40
17.0
 40
18.0
 40
18.0
 40
18.0
 40
19.0
 40
19.0
 40
19.0
 40
20.0
 40
20.0
 40
20.0
 40
21.0
 40
21.0
 40
21.0
 40
21.0
 10
107.0980278862847
 20
73.17520616319443
 30
0.0
 10
106.5089165581597
 20
72.80055202907985
 30
0.0
 10
106.6727308485243
 20
71.78614366319444
 30
0.0
 10
106.8158745659722
 20
71.52001003689236
 30
0.0
 10
106.9812391493056
 20
71.21305202907986
 30
0.0
 10
107.1000949435764
 20
71.24199083116319
 30
0.0
 10
106.9693535698785
 20
71.59132351345485
 30
0.0
 10
106.581263563368
 20
72.62536892361111
 30
0.0
 10
107.7264133029514
 20
73.01707628038194
 30
0.0
 10
108.318108452691
 20
72.59074571397569
 30
0.0
 10
108.3201755099826
 20
72.52408311631943
 30
0.0
 10
108.0617933485243
 20
72.24864773220486
 30
0.0
 10
108.0617933485243
 20
72.24864773220486
 30
0.0
 10
108.0617933485243
 20
72.24864773220486
 30
0.0
 10
107.859221733941
 20
72.28378770616318
 30
0.0
 10
107.7693047417535
 20
72.35096706814235
 30
0.0
 10
107.5414116753472
 20
72.52149929470485
 30
0.0
 10
107.239104546441
 20
72.22280951605902
 30
0.0
 10
107.4887017144097
 20
72.07501491970486
 30
0.0
 10
107.7377821180556
 20
71.92670355902777
 30
0.0
 10
107.8519870334201
 20
71.84143744574652
 30
0.0
 10
107.8519870334201
 20
71.84143744574652
 30
0.0
 10
107.8519870334201
 20
71.84143744574652
 30
0.0
 10
107.747083875868
 20
71.63783230251735
 30
0.0
 10
107.6401136610243
 20
71.50088975694443
 30
0.0
 10
107.5331434461806
 20
71.36446397569443
 30
0.0
 10
107.6561333550347
 20
70.98980984157986
 30
0.0
 10
107.8504367404514
 20
71.17377794053819
 30
0.0
 10
108.045256890191
 20
71.35774603949652
 30
0.0
 10
108.0860812717014
 20
71.47040066189236
 30
0.0
 10
108.0860812717014
 20
71.47040066189236
 30
0.0
 10
108.0860812717014
 20
71.47040066189236
 30
0.0
 10
108.2607476128472
 20
71.58718939887152
 30
0.0
 10
108.3299940321181
 20
71.50037299262152
 30
0.0
 10
108.3992404513889
 20
71.41355658637153
 30
0.0
 10
108.4245619032118
 20
71.32518988715277
 30
0.0
 10
108.5149956597222
 20
71.28384874131943
 30
0.0
 10
108.6049126519097
 20
71.24199083116319
 30
0.0
 10
108.9826673719618
 20
71.27609727647568
 30
0.0
 10
108.8188530815972
 20
71.51587592230902
 30
0.0
 10
108.6555555555556
 20
71.75513780381944
 30
0.0
 10
108.4974256727431
 20
71.83937038845485
 30
0.0
 10
108.5826917860243
 20
71.95357530381943
 30
0.0
 10
108.6684746636285
 20
72.06726345486111
 30
0.0
 10
108.5987114800347
 20
72.1540798611111
 30
0.0
 10
108.5987114800347
 20
72.1540798611111
 30
0.0
 10
108.5987114800347
 20
72.1540798611111
 30
0.0
 10
108.7253187391493
 20
72.24037950303818
 30
0.0
 10
108.8219536675347
 20
72.13909369574652
 30
0.0
 10
109.0059217664931
 20
71.94427354600694
 30
0.0
 10
109.2152113172743
 20
70.78155381944444
 30
0.0
 10
108.2163058810764
 20
70.87353786892361
 30
0.0
 10
107.7026421440972
 20
70.92159695095485
 30
0.0
 10
107.7202121310764
 20
70.76346706814236
 30
0.0
 10
108.0891818576389
 20
70.66941596137153
 30
0.0
 10
108.4028578016493
 20
70.59035101996527
 30
0.0
 10
109.0958387586805
 20
70.50095079210068
 30
0.0
 10
109.2332980685764
 20
71.08386094835069
 30
0.0
 10
109.2823906792535
 20
71.28953314887153
 30
0.0
 10
109.3955620659722
 20
72.29050564236111
 30
0.0
 10
108.7372043185764
 20
72.71476915147569
 30
0.0
 10
108.0783298068576
 20
73.13954942491318
 30
0.0
 10
107.3910332573785
 20
73.36124131944443
 30
0.0
 10
107.0980278862847
 20
73.17520616319443
 30
0.0
  0
SPLINE
  5
8B
330
A
100
AcDbEntity
  8
LAYER_1
 62
     7
100
AcDbSpline
210
0.0
220
0.0
230
1.0
 70
    11
 71
     3
 72
    14
 73
    10
 74
     0
 42
0.0000000001
 43
0.0000000001
 40
0.0
 40
0.0
 40
0.0
 40
0.0
 40
1.0
 40
1.0
 40
1.0
 40
2.0
 40
2.0
 40
2.0
 40
3.0
 40
3.0
 40
3.0
 40
3.0
 10
105.8293714735243
 20
71.75565456814236
 30
0.0
 10
105.7962985568576
 20
70.68646918402777
 30
0.0
 10
107.0008761935764
 20
69.62555202907986
 30
0.0
 10
108.1362074110243
 20
69.86998155381944
 30
0.0
 10
109.3521538628472
 20
70.13043077256944
 30
0.0
 10
109.4317355685764
 20
71.13450385199653
 30
0.0
 10
109.1811048719618
 20
72.03884141710068
 30
0.0
 10
108.7888807508681
 20
73.45529242621527
 30
0.0
 10
105.893450249566
 20
73.82891303168402
 30
0.0
 10
105.8293714735243
 20
71.75565456814236
 30
0.0
  0
SPLINE
  5
8A
330
A
100
AcDbEntity
  8
LAYER_1
 62
     7
100
AcDbSpline
210
0.0
220
0.0
230
1.0
 70
    11
 71
     3
 72
    68
 73
    64
 74
     0
 42
0.0000000001
 43
0.0000000001
 40
0.0
 40
0.0
 40
0.0
 40
0.0
 40
1.0
 40
1.0
 40
1.0
 40
2.0
 40
2.0
 40
2.0
 40
3.0
 40
3.0
 40
3.0
 40
4.0
 40
4.0
 40
4.0
 40
5.0
 40
5.0
 40
5.0
 40
6.0
 40
6.0
 40
6.0
 40
7.0
 40
7.0
 40
7.0
 40
8.0
 40
8.0
 40
8.0
 40
9.0
 40
9.0
 40
9.0
 40
10.0
 40
10.0
 40
10.0
 40
11.0
 40
11.0
 40
11.0
 40
12.0
 40
12.0
 40
12.0
 40
13.0
 40
13.0
 40
13.0
 40
14.0
 40
14.0
 40
14.0
 40
15.0
 40
15.0
 40
15.0
 40
16.0
 40
16.0
 40
16.0
 40
17.0
 40
17.0
 40
17.0
 40
18.0
 40
18.0
 40
18.0
 40
19.0
 40
19.0
 40
19.0
 40
20.0
 40
20.0
 40
20.0
 40
21.0
 40
21.0
 40
21.0
 40
21.0
 10
116.1693088107639
 20
67.77295193142361
 30
0.0
 10
115.5801974826389
 20
67.39829779730903
 30
0.0
 10
115.7445285373264
 20
66.38388943142361
 30
0.0
 10
115.8876722547743
 20
66.11723904079861
 30
0.0
 10
116.0530368381076
 20
65.81079779730902
 30
0.0
 10
116.1718926323785
 20
65.83973659939235
 30
0.0
 10
116.0411512586805
 20
66.18906928168403
 30
0.0
 10
115.6525444878472
 20
67.22259792751736
 30
0.0
 10
116.7976942274305
 20
67.61430528428819
 30
0.0
 10
117.3893893771701
 20
67.18797471788194
 30
0.0
 10
117.3919731987847
 20
67.12131212022568
 30
0.0
 10
117.1330742730035
 20
66.84639350043402
 30
0.0
 10
117.1330742730035
 20
66.84639350043402
 30
0.0
 10
117.1330742730035
 20
66.84639350043402
 30
0.0
 10
116.9305026584201
 20
66.88153347439236
 30
0.0
 10
116.8405856662326
 20
66.9481960720486
 30
0.0
 10
116.6126925998264
 20
67.11924506293403
 30
0.0
 10
116.3109022352431
 20
66.82055528428819
 30
0.0
 10
116.5599826388889
 20
66.67224392361111
 30
0.0
 10
116.8095798068576
 20
66.52444932725693
 30
0.0
 10
116.9232679578993
 20
66.43918321397568
 30
0.0
 10
116.9232679578993
 20
66.43918321397568
 30
0.0
 10
116.9232679578993
 20
66.43918321397568
 30
0.0
 10
116.8183648003472
 20
66.23557807074653
 30
0.0
 10
116.7113945855035
 20
66.09863552517361
 30
0.0
 10
116.6049411349826
 20
65.96169297960068
 30
0.0
 10
116.7279310438368
 20
65.58703884548611
 30
0.0
 10
116.9222344292535
 20
65.77152370876736
 30
0.0
 10
117.1165378146701
 20
65.95549180772569
 30
0.0
 10
117.1578789605035
 20
66.06814643012152
 30
0.0
 10
117.1578789605035
 20
66.06814643012152
 30
0.0
 10
117.1578789605035
 20
66.06814643012152
 30
0.0
 10
117.3320285373264
 20
66.18493516710069
 30
0.0
 10
117.4012749565972
 20
66.09811876085068
 30
0.0
 10
117.471038140191
 20
66.01130235460069
 30
0.0
 10
117.4963595920139
 20
65.92293565538193
 30
0.0
 10
117.5862765842014
 20
65.88107774522568
 30
0.0
 10
117.6767103407118
 20
65.83973659939235
 30
0.0
 10
118.053948296441
 20
65.87384304470486
 30
0.0
 10
117.8906507703993
 20
66.11362169053818
 30
0.0
 10
117.7273532443576
 20
66.35288357204861
 30
0.0
 10
117.5692233615451
 20
66.43711615668403
 30
0.0
 10
117.6544894748264
 20
66.55132107204861
 30
0.0
 10
117.7397555881076
 20
66.66500922309027
 30
0.0
 10
117.6705091688368
 20
66.75182562934027
 30
0.0
 10
117.6705091688368
 20
66.75182562934027
 30
0.0
 10
117.6705091688368
 20
66.75182562934027
 30
0.0
 10
117.7971164279514
 20
66.83760850694443
 30
0.0
 10
117.8932345920139
 20
66.73683946397568
 30
0.0
 10
118.0777194552951
 20
66.5420193142361
 30
0.0
 10
118.2864922417535
 20
65.37878282335069
 30
0.0
 10
117.2875868055556
 20
65.47128363715277
 30
0.0
 10
116.7744398328993
 20
65.51934271918402
 30
0.0
 10
116.7914930555556
 20
65.36121283637152
 30
0.0
 10
117.1604627821181
 20
65.26716172960069
 30
0.0
 10
117.4746554904514
 20
65.18809678819444
 30
0.0
 10
118.1671196831597
 20
65.09817979600693
 30
0.0
 10
118.3050957573785
 20
65.68108995225694
 30
0.0
 10
118.3541883680556
 20
65.88727891710069
 30
0.0
 10
118.4673597547743
 20
66.88825141059027
 30
0.0
 10
117.8084852430555
 20
67.31251491970485
 30
0.0
 10
117.1496107313368
 20
67.73677842881943
 30
0.0
 10
116.4628309461806
 20
67.95898708767361
 30
0.0
 10
116.1693088107639
 20
67.77295193142361
 30
0.0
  0
SPLINE
  5
89
330
A
100
AcDbEntity
  8
LAYER_1
 62
     7
100
AcDbSpline
210
0.0
220
0.0
230
1.0
 70
    11
 71
     3
 72
    14
 73
    10
 74
     0
 42
0.0000000001
 43
0.0000000001
 40
0.0
 40
0.0
 40
0.0
 40
0.0
 40
1.0
 40
1.0
 40
1.0
 40
2.0
 40
2.0
 40
2.0
 40
3.0
 40
3.0
 40
3.0
 40
3.0
 10
114.9011691623264
 20
66.35340033637152
 30
0.0
 10
114.8680962456597
 20
65.28421495225693
 30
0.0
 10
116.0721571180555
 20
64.22329779730902
 30
0.0
 10
117.2080050998264
 20
64.46721055772569
 30
0.0
 10
118.4234347873264
 20
64.7281765407986
 30
0.0
 10
118.5035332573785
 20
65.73224962022569
 30
0.0
 10
118.252385796441
 20
66.63658718532986
 30
0.0
 10
117.8601616753472
 20
68.05252143012152
 30
0.0
 10
114.9652479383681
 20
68.42614203559027
 30
0.0
 10
114.9011691623264
 20
66.35340033637152
 30
0.0
  0
SPLINE
  5
88
330
A
100
AcDbEntity
  8
LAYER_1
 62
     7
100
AcDbSpline
210
0.0
220
0.0
230
1.0
 70
    11
 71
     3
 72
    68
 73
    64
 74
     0
 42
0.0000000001
 43
0.0000000001
 40
0.0
 40
0.0
 40
0.0
 40
0.0
 40
1.0
 40
1.0
 40
1.0
 40
2.0
 40
2.0
 40
2.0
 40
3.0
 40
3.0
 40
3.0
 40
4.0
 40
4.0
 40
4.0
 40
5.0
 40
5.0
 40
5.0
 40
6.0
 40
6.0
 40
6.0
 40
7.0
 40
7.0
 40
7.0
 40
8.0
 40
8.0
 40
8.0
 40
9.0
 40
9.0
 40
9.0
 40
10.0
 40
10.0
 40
10.0
 40
11.0
 40
11.0
 40
11.0
 40
12.0
 40
12.0
 40
12.0
 40
13.0
 40
13.0
 40
13.0
 40
14.0
 40
14.0
 40
14.0
 40
15.0
 40
15.0
 40
15.0
 40
16.0
 40
16.0
 40
16.0
 40
17.0
 40
17.0
 40
17.0
 40
18.0
 40
18.0
 40
18.0
 40
19.0
 40
19.0
 40
19.0
 40
20.0
 40
20.0
 40
20.0
 40
21.0
 40
21.0
 40
21.0
 40
21.0
 10
132.0427585177951
 20
81.9953396267361
 30
0.0
 10
131.4536471896701
 20
81.62068549262152
 30
0.0
 10
131.6179782443576
 20
80.6062771267361
 30
0.0
 10
131.7611219618055
 20
80.3396267361111
 30
0.0
 10
131.9264865451389
 20
80.03318549262153
 30
0.0
 10
132.0453423394097
 20
80.06160753038193
 30
0.0
 10
131.9146009657118
 20
80.41094021267361
 30
0.0
 10
131.5259941948785
 20
81.44498562282985
 30
0.0
 10
132.6711439344618
 20
81.83669297960068
 30
0.0
 10
133.2628390842014
 20
81.41036241319443
 30
0.0
 10
133.264906141493
 20
81.34369981553819
 30
0.0
 10
133.0065239800347
 20
81.0682644314236
 30
0.0
 10
133.0065239800347
 20
81.0682644314236
 30
0.0
 10
133.0065239800347
 20
81.0682644314236
 30
0.0
 10
132.8039523654514
 20
81.10392116970485
 30
0.0
 10
132.7140353732639
 20
81.17058376736111
 30
0.0
 10
132.4861423068576
 20
81.34163275824652
 30
0.0
 10
132.1838351779514
 20
81.04242621527777
 30
0.0
 10
132.4334323459201
 20
80.8946316189236
 30
0.0
 10
132.6830295138889
 20
80.74683702256944
 30
0.0
 10
132.7967176649306
 20
80.66157090928819
 30
0.0
 10
132.7967176649306
 20
80.66157090928819
 30
0.0
 10
132.7967176649306
 20
80.66157090928819
 30
0.0
 10
132.6923312717014
 20
80.45796576605902
 30
0.0
 10
132.5848442925347
 20
80.32050645616319
 30
0.0
 10
132.4783908420139
 20
80.18408067491319
 30
0.0
 10
132.601380750868
 20
79.8094265407986
 30
0.0
 10
132.7956841362847
 20
79.99339463975694
 30
0.0
 10
132.9899875217014
 20
80.17787950303818
 30
0.0
 10
133.0313286675347
 20
80.2900173611111
 30
0.0
 10
133.0313286675347
 20
80.2900173611111
 30
0.0
 10
133.0313286675347
 20
80.2900173611111
 30
0.0
 10
133.2054782443576
 20
80.40732286241318
 30
0.0
 10
133.2752414279514
 20
80.32050645616319
 30
0.0
 10
133.3444878472222
 20
80.23317328559027
 30
0.0
 10
133.3698092990451
 20
80.14532335069444
 30
0.0
 10
133.4597262912326
 20
80.10346544053819
 30
0.0
 10
133.5501600477431
 20
80.06160753038193
 30
0.0
 10
133.9273980034722
 20
80.09571397569444
 30
0.0
 10
133.7641004774305
 20
80.33549262152778
 30
0.0
 10
133.6008029513889
 20
80.5752712673611
 30
0.0
 10
133.4426730685764
 20
80.65950385199652
 30
0.0
 10
133.5279391818576
 20
80.77319200303819
 30
0.0
 10
133.6132052951389
 20
80.88739691840277
 30
0.0
 10
133.543958875868
 20
80.97421332465277
 30
0.0
 10
133.543958875868
 20
80.97421332465277
 30
0.0
 10
133.543958875868
 20
80.97421332465277
 30
0.0
 10
133.6705661349826
 20
81.05999620225694
 30
0.0
 10
133.7666842990451
 20
80.95871039496527
 30
0.0
 10
133.9511691623264
 20
80.76440700954861
 30
0.0
 10
134.1599419487847
 20
79.60117051866318
 30
0.0
 10
133.1610365125868
 20
79.69367133246527
 30
0.0
 10
132.6478895399305
 20
79.74121365017361
 30
0.0
 10
132.6654595269097
 20
79.5830837673611
 30
0.0
 10
133.0339124891493
 20
79.48903266059027
 30
0.0
 10
133.3481051974826
 20
79.40996771918402
 30
0.0
 10
134.040569390191
 20
79.32056749131944
 30
0.0
 10
134.1780287000868
 20
79.90347764756943
 30
0.0
 10
134.2276380750868
 20
80.10966661241319
 30
0.0
 10
134.3408094618056
 20
81.11063910590278
 30
0.0
 10
133.6819349500868
 20
81.53490261501736
 30
0.0
 10
133.0230604383681
 20
81.95916612413194
 30
0.0
 10
132.3362806532118
 20
82.18085801866319
 30
0.0
 10
132.0427585177951
 20
81.9953396267361
 30
0.0
  0
SPLINE
  5
87
330
A
100
AcDbEntity
  8
LAYER_1
 62
     7
100
AcDbSpline
210
0.0
220
0.0
230
1.0
 70
    11
 71
     3
 72
    14
 73
    10
 74
     0
 42
0.0000000001
 43
0.0000000001
 40
0.0
 40
0.0
 40
0.0
 40
0.0
 40
1.0
 40
1.0
 40
1.0
 40
2.0
 40
2.0
 40
2.0
 40
3.0
 40
3.0
 40
3.0
 40
3.0
 10
130.7746188693576
 20
80.57578803168403
 30
0.0
 10
130.741545952691
 20
79.50608588324653
 30
0.0
 10
131.9456068250868
 20
78.4451687282986
 30
0.0
 10
133.0814548068576
 20
78.68959825303818
 30
0.0
 10
134.2974012586805
 20
78.95004747178818
 30
0.0
 10
134.3769829644097
 20
79.95412055121527
 30
0.0
 10
134.1258355034722
 20
80.85897488064235
 30
0.0
 10
133.7341281467014
 20
82.27490912543402
 30
0.0
 10
130.8386976453993
 20
82.64852973090277
 30
0.0
 10
130.7746188693576
 20
80.57578803168403
 30
0.0
  0
SPLINE
  5
86
330
A
100
AcDbEntity
  8
LAYER_1
 62
     7
100
AcDbSpline
210
0.0
220
0.0
230
1.0
 70
    11
 71
     3
 72
    68
 73
    64
 74
     0
 42
0.0000000001
 43
0.0000000001
 40
0.0
 40
0.0
 40
0.0
 40
0.0
 40
1.0
 40
1.0
 40
1.0
 40
2.0
 40
2.0
 40
2.0
 40
3.0
 40
3.0
 40
3.0
 40
4.0
 40
4.0
 40
4.0
 40
5.0
 40
5.0
 40
5.0
 40
6.0
 40
6.0
 40
6.0
 40
7.0
 40
7.0
 40
7.0
 40
8.0
 40
8.0
 40
8.0
 40
9.0
 40
9.0
 40
9.0
 40
10.0
 40
10.0
 40
10.0
 40
11.0
 40
11.0
 40
11.0
 40
12.0
 40
12.0
 40
12.0
 40
13.0
 40
13.0
 40
13.0
 40
14.0
 40
14.0
 40
14.0
 40
15.0
 40
15.0
 40
15.0
 40
16.0
 40
16.0
 40
16.0
 40
17.0
 40
17.0
 40
17.0
 40
18.0
 40
18.0
 40
18.0
 40
19.0
 40
19.0
 40
19.0
 40
20.0
 40
20.0
 40
20.0
 40
21.0
 40
21.0
 40
21.0
 40
21.0
 10
152.4156751844618
 20
78.9257595486111
 30
0.0
 10
151.8265638563368
 20
78.55110541449652
 30
0.0
 10
151.9903781467014
 20
77.5366970486111
 30
0.0
 10
152.1340386284722
 20
77.2700466579861
 30
0.0
 10
152.2994032118056
 20
76.96360541449653
 30
0.0
 10
152.4182590060764
 20
76.99254421657986
 30
0.0
 10
152.2875176323785
 20
77.34187689887152
 30
0.0
 10
151.8989108615451
 20
78.37540554470485
 30
0.0
 10
153.0440606011285
 20
78.76762966579861
 30
0.0
 10
153.635755750868
 20
78.34078233506943
 30
0.0
 10
153.6378228081597
 20
78.27411973741319
 30
0.0
 10
153.3794406467014
 20
77.99920111762152
 30
0.0
 10
153.3794406467014
 20
77.99920111762152
 30
0.0
 10
153.3794406467014
 20
77.99920111762152
 30
0.0
 10
153.1768690321181
 20
78.03434109157985
 30
0.0
 10
153.0869520399305
 20
78.10100368923611
 30
0.0
 10
152.8590589735243
 20
78.27205268012152
 30
0.0
 10
152.5567518446181
 20
77.97336290147568
 30
0.0
 10
152.8063490125868
 20
77.82556830512152
 30
0.0
 10
153.0559461805555
 20
77.67725694444444
 30
0.0
 10
153.1696343315972
 20
77.59199083116319
 30
0.0
 10
153.1696343315972
 20
77.59199083116319
 30
0.0
 10
153.1696343315972
 20
77.59199083116319
 30
0.0
 10
153.065247938368
 20
77.38838568793402
 30
0.0
 10
152.9577609592014
 20
77.2514431423611
 30
0.0
 10
152.8507907443576
 20
77.11450059678819
 30
0.0
 10
152.9742974175347
 20
76.74036322699652
 30
0.0
 10
153.1686008029514
 20
76.92433132595485
 30
0.0
 10
153.3629041883681
 20
77.10829942491318
 30
0.0
 10
153.4042453342014
 20
77.22095404730902
 30
0.0
 10
153.4042453342014
 20
77.22095404730902
 30
0.0
 10
153.4042453342014
 20
77.22095404730902
 30
0.0
 10
153.5783949110243
 20
77.33774278428818
 30
0.0
 10
153.6481580946181
 20
77.25092637803819
 30
0.0
 10
153.7174045138889
 20
77.16410997178819
 30
0.0
 10
153.7422092013889
 20
77.07574327256944
 30
0.0
 10
153.8326429578993
 20
77.0344021267361
 30
0.0
 10
153.9230767144097
 20
76.99254421657986
 30
0.0
 10
154.3003146701389
 20
77.02665066189235
 30
0.0
 10
154.1370171440972
 20
77.26642930772569
 30
0.0
 10
153.9737196180556
 20
77.5056911892361
 30
0.0
 10
153.815589735243
 20
77.58992377387152
 30
0.0
 10
153.9008558485243
 20
77.7041286892361
 30
0.0
 10
153.9861219618055
 20
77.81781684027777
 30
0.0
 10
153.9168755425347
 20
77.90463324652777
 30
0.0
 10
153.9168755425347
 20
77.90463324652777
 30
0.0
 10
153.9168755425347
 20
77.90463324652777
 30
0.0
 10
154.0434828016493
 20
77.99093288845485
 30
0.0
 10
154.1396009657118
 20
77.88964708116319
 30
0.0
 10
154.3240858289931
 20
77.69482693142361
 30
0.0
 10
154.5328586154514
 20
76.53159044053818
 30
0.0
 10
153.5339531792534
 20
76.62409125434027
 30
0.0
 10
153.0208062065972
 20
76.67215033637152
 30
0.0
 10
153.0383761935764
 20
76.51402045355903
 30
0.0
 10
153.406829155816
 20
76.41996934678819
 30
0.0
 10
153.7210218641493
 20
76.34090440538193
 30
0.0
 10
154.4134860568576
 20
76.25150417751735
 30
0.0
 10
154.5509453667535
 20
76.83441433376736
 30
0.0
 10
154.6005547417535
 20
77.04008653428819
 30
0.0
 10
154.7137261284722
 20
78.04105902777778
 30
0.0
 10
154.0548516167535
 20
78.46532253689236
 30
0.0
 10
153.3959771050347
 20
78.88958604600694
 30
0.0
 10
152.7091973198785
 20
79.1117947048611
 30
0.0
 10
152.4156751844618
 20
78.9257595486111
 30
0.0
  0
SPLINE
  5
85
330
A
100
AcDbEntity
  8
LAYER_1
 62
     7
100
AcDbSpline
210
0.0
220
0.0
230
1.0
 70
    11
 71
     3
 72
    14
 73
    10
 74
     0
 42
0.0000000001
 43
0.0000000001
 40
0.0
 40
0.0
 40
0.0
 40
0.0
 40
1.0
 40
1.0
 40
1.0
 40
2.0
 40
2.0
 40
2.0
 40
3.0
 40
3.0
 40
3.0
 40
3.0
 10
151.1475355360243
 20
77.50620795355903
 30
0.0
 10
151.1139458550347
 20
76.43702256944444
 30
0.0
 10
152.3185234917535
 20
75.37610541449652
 30
0.0
 10
153.4543714735243
 20
75.62053493923611
 30
0.0
 10
154.6703179253472
 20
75.88098415798611
 30
0.0
 10
154.7498996310764
 20
76.88505723741319
 30
0.0
 10
154.4987521701389
 20
77.78939480251735
 30
0.0
 10
154.1065280490451
 20
79.20584581163193
 30
0.0
 10
151.211614312066
 20
79.57946641710069
 30
0.0
 10
151.1475355360243
 20
77.50620795355903
 30
0.0
  0
SPLINE
  5
84
330
A
100
AcDbEntity
  8
LAYER_1
 62
     7
100
AcDbSpline
210
0.0
220
0.0
230
1.0
 70
    11
 71
     3
 72
    68
 73
    64
 74
     0
 42
0.0000000001
 43
0.0000000001
 40
0.0
 40
0.0
 40
0.0
 40
0.0
 40
1.0
 40
1.0
 40
1.0
 40
2.0
 40
2.0
 40
2.0
 40
3.0
 40
3.0
 40
3.0
 40
4.0
 40
4.0
 40
4.0
 40
5.0
 40
5.0
 40
5.0
 40
6.0
 40
6.0
 40
6.0
 40
7.0
 40
7.0
 40
7.0
 40
8.0
 40
8.0
 40
8.0
 40
9.0
 40
9.0
 40
9.0
 40
10.0
 40
10.0
 40
10.0
 40
11.0
 40
11.0
 40
11.0
 40
12.0
 40
12.0
 40
12.0
 40
13.0
 40
13.0
 40
13.0
 40
14.0
 40
14.0
 40
14.0
 40
15.0
 40
15.0
 40
15.0
 40
16.0
 40
16.0
 40
16.0
 40
17.0
 40
17.0
 40
17.0
 40
18.0
 40
18.0
 40
18.0
 40
19.0
 40
19.0
 40
19.0
 40
20.0
 40
20.0
 40
20.0
 40
21.0
 40
21.0
 40
21.0
 40
21.0
 10
115.6158542209201
 20
53.90816514756944
 30
0.0
 10
115.0267428927951
 20
53.53351101345486
 30
0.0
 10
115.1905571831597
 20
52.51910264756944
 30
0.0
 10
115.3342176649306
 20
52.25245225694444
 30
0.0
 10
115.4995822482639
 20
51.94601101345486
 30
0.0
 10
115.6184380425347
 20
51.97494981553819
 30
0.0
 10
115.4876966688368
 20
52.32428249782986
 30
0.0
 10
115.0990898980035
 20
53.35781114366319
 30
0.0
 10
116.2437228732639
 20
53.74951850043402
 30
0.0
 10
116.8359347873264
 20
53.32318793402777
 30
0.0
 10
116.8380018446181
 20
53.25652533637152
 30
0.0
 10
116.5796196831597
 20
52.98160671657985
 30
0.0
 10
116.5796196831597
 20
52.98160671657985
 30
0.0
 10
116.5796196831597
 20
52.98160671657985
 30
0.0
 10
116.3770480685764
 20
53.01674669053819
 30
0.0
 10
116.2871310763889
 20
53.08340928819444
 30
0.0
 10
116.0592380099826
 20
53.25445827907986
 30
0.0
 10
115.7569308810764
 20
52.95576850043403
 30
0.0
 10
116.0065280490451
 20
52.80797390407986
 30
0.0
 10
116.2561252170139
 20
52.65966254340277
 30
0.0
 10
116.3698133680556
 20
52.57439643012152
 30
0.0
 10
116.3698133680556
 20
52.57439643012152
 30
0.0
 10
116.3698133680556
 20
52.57439643012152
 30
0.0
 10
116.2649102105035
 20
52.37079128689236
 30
0.0
 10
116.1579399956597
 20
52.23384874131944
 30
0.0
 10
116.050969780816
 20
52.09690619574652
 30
0.0
 10
116.1739596896701
 20
51.72225206163194
 30
0.0
 10
116.3687798394097
 20
51.90673692491319
 30
0.0
 10
116.5630832248264
 20
52.09070502387152
 30
0.0
 10
116.6039076063368
 20
52.20335964626736
 30
0.0
 10
116.6039076063368
 20
52.20335964626736
 30
0.0
 10
116.6039076063368
 20
52.20335964626736
 30
0.0
 10
116.7780571831597
 20
52.32014838324653
 30
0.0
 10
116.8478203667535
 20
52.23333197699652
 30
0.0
 10
116.9170667860243
 20
52.14651557074652
 30
0.0
 10
116.9423882378472
 20
52.05814887152777
 30
0.0
 10
117.0328219943576
 20
52.01680772569444
 30
0.0
 10
117.123255750868
 20
51.97494981553819
 30
0.0
 10
117.5004937065972
 20
52.00905626085069
 30
0.0
 10
117.3371961805556
 20
52.24883490668402
 30
0.0
 10
117.173381890191
 20
52.48861355251736
 30
0.0
 10
117.0152520073785
 20
52.57232937282986
 30
0.0
 10
117.1005181206597
 20
52.68653428819444
 30
0.0
 10
117.1863009982639
 20
52.80022243923611
 30
0.0
 10
117.1165378146701
 20
52.8870388454861
 30
0.0
 10
117.1165378146701
 20
52.8870388454861
 30
0.0
 10
117.1165378146701
 20
52.8870388454861
 30
0.0
 10
117.2431450737847
 20
52.97282172309027
 30
0.0
 10
117.3397800021701
 20
52.8715359157986
 30
0.0
 10
117.5237481011285
 20
52.67723253038194
 30
0.0
 10
117.7330376519097
 20
51.51399603949653
 30
0.0
 10
116.7341322157118
 20
51.60649685329861
 30
0.0
 10
116.2204684787326
 20
51.65455593532985
 30
0.0
 10
116.2380384657118
 20
51.49642605251736
 30
0.0
 10
116.6070081922743
 20
51.40237494574652
 30
0.0
 10
116.9212009006076
 20
51.32331000434027
 30
0.0
 10
117.613665093316
 20
51.23339301215277
 30
0.0
 10
117.7511244032118
 20
51.81681993272569
 30
0.0
 10
117.8002170138889
 20
52.02249213324652
 30
0.0
 10
117.9133884006076
 20
53.02346462673611
 30
0.0
 10
117.2550306532118
 20
53.44772813585069
 30
0.0
 10
116.596156141493
 20
53.87199164496527
 30
0.0
 10
115.9088595920139
 20
54.09420030381944
 30
0.0
 10
115.6158542209201
 20
53.90816514756944
 30
0.0
  0
SPLINE
  5
83
330
A
100
AcDbEntity
  8
LAYER_1
 62
     7
100
AcDbSpline
210
0.0
220
0.0
230
1.0
 70
    11
 71
     3
 72
    14
 73
    10
 74
     0
 42
0.0000000001
 43
0.0000000001
 40
0.0
 40
0.0
 40
0.0
 40
0.0
 40
1.0
 40
1.0
 40
1.0
 40
2.0
 40
2.0
 40
2.0
 40
3.0
 40
3.0
 40
3.0
 40
3.0
 10
114.3471978081597
 20
52.48861355251736
 30
0.0
 10
114.3141248914931
 20
51.41942816840277
 30
0.0
 10
115.5187025282118
 20
50.35799424913194
 30
0.0
 10
116.6540337456597
 20
50.60242377387152
 30
0.0
 10
117.8699801974826
 20
50.86338975694444
 30
0.0
 10
117.9495619032118
 20
51.86746283637152
 30
0.0
 10
117.6989312065972
 20
52.77180040147569
 30
0.0
 10
117.3067070855035
 20
54.18825141059028
 30
0.0
 10
114.4117933485243
 20
54.56187201605902
 30
0.0
 10
114.3471978081597
 20
52.48861355251736
 30
0.0
  0
SPLINE
  5
82
330
A
100
AcDbEntity
  8
LAYER_1
 62
     7
100
AcDbSpline
210
0.0
220
0.0
230
1.0
 70
    11
 71
     3
 72
    14
 73
    10
 74
     0
 42
0.0000000001
 43
0.0000000001
 40
0.0
 40
0.0
 40
0.0
 40
0.0
 40
1.0
 40
1.0
 40
1.0
 40
2.0
 40
2.0
 40
2.0
 40
3.0
 40
3.0
 40
3.0
 40
3.0
 10
126.9355767144097
 20
72.41091172960068
 30
0.0
 10
126.9355767144097
 20
72.41091172960068
 30
0.0
 10
128.2863986545139
 20
71.91946885850693
 30
0.0
 10
128.2863986545139
 20
71.91946885850693
 30
0.0
 10
128.2863986545139
 20
71.91946885850693
 30
0.0
 10
129.1504286024305
 20
72.74784206814236
 30
0.0
 10
129.1504286024305
 20
72.74784206814236
 30
0.0
 10
129.1504286024305
 20
72.74784206814236
 30
0.0
 10
128.0709079318576
 20
73.11422797309027
 30
0.0
 10
126.9355767144097
 20
72.41091172960068
 30
0.0
  0
LINE
  5
81
330
A
100
AcDbEntity
  8
LAYER_1
 62
     7
100
AcDbLine
 10
156.426799858941
 20
65.90433213975693
 30
0.0
 11
174.9419487847222
 21
61.67875027126735
 31
0.0
  0
SPLINE
  5
80
330
A
100
AcDbEntity
  8
LAYER_1
 62
     7
100
AcDbSpline
210
0.0
220
0.0
230
1.0
 70
     8
 71
     3
 72
    20
 73
    16
 74
     0
 42
0.0000000001
 43
0.0000000001
 40
0.0
 40
0.0
 40
0.0
 40
0.0
 40
1.0
 40
1.0
 40
1.0
 40
2.0
 40
2.0
 40
2.0
 40
3.0
 40
3.0
 40
3.0
 40
4.0
 40
4.0
 40
4.0
 40
5.0
 40
5.0
 40
5.0
 40
5.0
 10
157.1569878472222
 20
67.46289333767361
 30
0.0
 10
156.8903374565972
 20
67.45462510850693
 30
0.0
 10
156.1989067925347
 20
67.49958360460069
 30
0.0
 10
156.1901217990451
 20
67.07635362413194
 30
0.0
 10
156.1808200412326
 20
66.65312364366319
 30
0.0
 10
156.227845594618
 20
65.87591010199652
 30
0.0
 10
156.227845594618
 20
65.87591010199652
 30
0.0
 10
156.227845594618
 20
65.87591010199652
 30
0.0
 10
155.0139662000868
 20
64.83618028428819
 30
0.0
 10
154.7762546115451
 20
64.60622016059027
 30
0.0
 10
154.5390597873264
 20
64.37626003689236
 30
0.0
 10
154.4827324761285
 20
64.04036322699652
 30
0.0
 10
154.7535169813368
 20
63.91582302517361
 30
0.0
 10
155.024818250868
 20
63.79076605902777
 30
0.0
 10
155.3173068576389
 20
63.68844672309027
 30
0.0
 10
155.3173068576389
 20
63.68844672309027
 30
0.0
  0
SPLINE
  5
7F
330
A
100
AcDbEntity
  8
LAYER_1
 62
     7
100
AcDbSpline
210
0.0
220
0.0
230
1.0
 70
     8
 71
     3
 72
     8
 73
     4
 74
     0
 42
0.0000000001
 43
0.0000000001
 40
0.0
 40
0.0
 40
0.0
 40
0.0
 40
1.0
 40
1.0
 40
1.0
 40
1.0
 10
149.3631483289931
 20
58.40504828559028
 30
0.0
 10
148.575599500868
 20
58.6696316189236
 30
0.0
 10
147.670745171441
 20
58.44122178819444
 30
0.0
 10
146.6945773654514
 20
56.91935085720485
 30
0.0
  0
LINE
  5
7E
330
A
100
AcDbEntity
  8
LAYER_1
 62
     7
100
AcDbLine
 10
131.609193250868
 20
71.00014512803818
 30
0.0
 11
153.5685763888889
 21
66.21490749782986
 31
0.0
  0
LINE
  5
7D
330
A
100
AcDbEntity
  8
LAYER_1
 62
     7
100
AcDbLine
 10
131.7590549045139
 20
71.89518093532986
 30
0.0
 11
154.212981499566
 21
66.94767930772569
 31
0.0
  0
SPLINE
  5
7C
330
A
100
AcDbEntity
  8
LAYER_1
 62
     7
100
AcDbSpline
210
0.0
220
0.0
230
1.0
 70
     8
 71
     3
 72
    14
 73
    10
 74
     0
 42
0.0000000001
 43
0.0000000001
 40
0.0
 40
0.0
 40
0.0
 40
0.0
 40
1.0
 40
1.0
 40
1.0
 40
2.0
 40
2.0
 40
2.0
 40
3.0
 40
3.0
 40
3.0
 40
3.0
 10
126.6901136610243
 20
70.31129828559027
 30
0.0
 10
127.1665703667535
 20
70.72729356553819
 30
0.0
 10
127.6740329318576
 20
71.1308865017361
 30
0.0
 10
128.4827690972222
 20
70.88955756293402
 30
0.0
 10
129.2915052625868
 20
70.64771185980902
 30
0.0
 10
129.5059624565972
 20
70.56399603949652
 30
0.0
 10
129.5059624565972
 20
70.56399603949652
 30
0.0
 10
129.5059624565972
 20
70.56399603949652
 30
0.0
 10
130.306947157118
 20
71.35981309678819
 30
0.0
 10
130.306947157118
 20
71.35981309678819
 30
0.0
  0
LINE
  5
7B
330
A
100
AcDbEntity
  8
LAYER_1
 62
     7
100
AcDbLine
 10
126.6580742730035
 20
71.33449164496527
 30
0.0
 11
126.5826266818576
 21
72.31117621527777
 31
0.0
  0
SPLINE
  5
7A
330
A
100
AcDbEntity
  8
LAYER_1
 62
     7
100
AcDbSpline
210
0.0
220
0.0
230
1.0
 70
     8
 71
     3
 72
    20
 73
    16
 74
     0
 42
0.0000000001
 43
0.0000000001
 40
0.0
 40
0.0
 40
0.0
 40
0.0
 40
1.0
 40
1.0
 40
1.0
 40
2.0
 40
2.0
 40
2.0
 40
3.0
 40
3.0
 40
3.0
 40
4.0
 40
4.0
 40
4.0
 40
5.0
 40
5.0
 40
5.0
 40
5.0
 10
92.36817762586804
 20
80.40525580512153
 30
0.0
 10
97.04024386935762
 20
77.61472846137153
 30
0.0
 10
98.19986300998264
 20
73.2888943142361
 30
0.0
 10
98.17350802951388
 20
71.28539903428819
 30
0.0
 10
98.14766981336804
 20
69.28138699001735
 30
0.0
 10
98.02571343315971
 20
58.1518337673611
 30
0.0
 10
98.00917697482637
 20
56.68112250434027
 30
0.0
 10
97.95129937065971
 20
51.42717963324652
 30
0.0
 10
100.5154839409722
 20
50.57296820746527
 30
0.0
 10
102.5804741753472
 20
50.01486273871527
 30
0.0
 10
104.9245171440972
 20
49.38182644314236
 30
0.0
 10
117.8999525282118
 20
46.56649441189236
 30
0.0
 10
118.8942070855035
 20
46.43213568793402
 30
0.0
 10
121.0398125542535
 20
46.14378119574652
 30
0.0
 10
123.0681125217014
 20
46.74116075303819
 30
0.0
 10
123.982268608941
 20
48.81751980251736
 30
0.0
  0
SPLINE
  5
79
330
A
100
AcDbEntity
  8
LAYER_1
 62
     7
100
AcDbSpline
210
0.0
220
0.0
230
1.0
 70
     8
 71
     3
 72
     8
 73
     4
 74
     0
 42
0.0000000001
 43
0.0000000001
 40
0.0
 40
0.0
 40
0.0
 40
0.0
 40
1.0
 40
1.0
 40
1.0
 40
1.0
 10
117.7599093967014
 20
13.10393744574653
 30
0.0
 10
118.4900973849826
 20
13.23777940538194
 30
0.0
 10
118.7924045138889
 20
13.53646918402778
 30
0.0
 10
119.3334567599826
 20
13.30909288194444
 30
0.0
  0
SPLINE
  5
78
330
A
100
AcDbEntity
  8
LAYER_1
 62
     7
100
AcDbSpline
210
0.0
220
0.0
230
1.0
 70
     8
 71
     3
 72
    11
 73
     7
 74
     0
 42
0.0000000001
 43
0.0000000001
 40
0.0
 40
0.0
 40
0.0
 40
0.0
 40
1.0
 40
1.0
 40
1.0
 40
2.0
 40
2.0
 40
2.0
 40
2.0
 10
113.7524020724826
 20
13.86823187934028
 30
0.0
 10
114.8634453667535
 20
13.92507595486111
 30
0.0
 10
116.4783338758681
 20
14.22066514756944
 30
0.0
 10
117.3247938368055
 20
14.20257839626736
 30
0.0
 10
118.1707370334201
 20
14.18500840928819
 30
0.0
 10
120.3706027560764
 20
14.29869656032986
 30
0.0
 10
120.7643771701389
 20
14.51108669704861
 30
0.0
  0
SPLINE
  5
77
330
A
100
AcDbEntity
  8
LAYER_1
 62
     7
100
AcDbSpline
210
0.0
220
0.0
230
1.0
 70
     8
 71
     3
 72
    17
 73
    13
 74
     0
 42
0.0000000001
 43
0.0000000001
 40
0.0
 40
0.0
 40
0.0
 40
0.0
 40
1.0
 40
1.0
 40
1.0
 40
2.0
 40
2.0
 40
2.0
 40
3.0
 40
3.0
 40
3.0
 40
4.0
 40
4.0
 40
4.0
 40
4.0
 10
108.6932793511285
 20
14.79944118923611
 30
0.0
 10
110.2694105360243
 20
14.93845079210069
 30
0.0
 10
111.8941175672743
 20
14.92243109809028
 30
0.0
 10
112.9839735243055
 20
14.95653754340278
 30
0.0
 10
114.0733127170139
 20
14.99064398871528
 30
0.0
 10
115.3321506076389
 20
15.29760199652778
 30
0.0
 10
116.5734185112847
 20
15.44746365017361
 30
0.0
 10
117.8152031792535
 20
15.59835883246528
 30
0.0
 10
118.7226413302951
 20
15.76010606553819
 30
0.0
 10
120.1856011284722
 20
15.93942328559028
 30
0.0
 10
121.6485609266493
 20
16.11925726996528
 30
0.0
 10
122.3182874891493
 20
16.05104437934028
 30
0.0
 10
122.7999118381076
 20
16.31097683376736
 30
0.0
  0
SPLINE
  5
76
330
A
100
AcDbEntity
  8
LAYER_1
 62
     7
100
AcDbSpline
210
0.0
220
0.0
230
1.0
 70
     8
 71
     3
 72
    20
 73
    16
 74
     0
 42
0.0000000001
 43
0.0000000001
 40
0.0
 40
0.0
 40
0.0
 40
0.0
 40
1.0
 40
1.0
 40
1.0
 40
2.0
 40
2.0
 40
2.0
 40
3.0
 40
3.0
 40
3.0
 40
4.0
 40
4.0
 40
4.0
 40
5.0
 40
5.0
 40
5.0
 40
5.0
 10
107.077874077691
 20
15.92857123480903
 30
0.0
 10
108.4168104383681
 20
15.81436631944444
 30
0.0
 10
109.0601820203993
 20
15.87947862413194
 30
0.0
 10
110.9939141167535
 20
15.96216091579861
 30
0.0
 10
112.9271294487847
 20
16.04535997178819
 30
0.0
 10
114.1301567925347
 20
16.01642116970486
 30
0.0
 10
115.4360202365451
 20
16.23552924262153
 30
0.0
 10
116.7424004448785
 20
16.45463731553819
 30
0.0
 10
117.3821546766493
 20
16.63033718532986
 30
0.0
 10
118.6931857638889
 20
16.69389919704861
 30
0.0
 10
120.0042168511285
 20
16.75694444444444
 30
0.0
 10
120.5494032118055
 20
17.10834418402778
 30
0.0
 10
121.1901909722222
 20
17.26182318793403
 30
0.0
 10
121.830461968316
 20
17.41530219184028
 30
0.0
 10
123.7176852756076
 20
17.56361355251736
 30
0.0
 10
124.1838066948785
 20
17.60082058376736
 30
0.0
  0
SPLINE
  5
75
330
A
100
AcDbEntity
  8
LAYER_1
 62
     7
100
AcDbSpline
210
0.0
220
0.0
230
1.0
 70
     8
 71
     3
 72
    20
 73
    16
 74
     0
 42
0.0000000001
 43
0.0000000001
 40
0.0
 40
0.0
 40
0.0
 40
0.0
 40
1.0
 40
1.0
 40
1.0
 40
2.0
 40
2.0
 40
2.0
 40
3.0
 40
3.0
 40
3.0
 40
4.0
 40
4.0
 40
4.0
 40
5.0
 40
5.0
 40
5.0
 40
5.0
 10
108.2886528862847
 20
17.05666775173611
 30
0.0
 10
110.0063774956597
 20
16.93264431423611
 30
0.0
 10
110.9778944227431
 20
17.18585883246528
 30
0.0
 10
112.2455173068576
 20
17.20342881944444
 30
0.0
 10
113.5136569552951
 20
17.22099880642361
 30
0.0
 10
114.909954155816
 20
17.39876573350694
 30
0.0
 10
115.9078260633681
 20
17.51865505642361
 30
0.0
 10
116.9051812065972
 20
17.63906114366319
 30
0.0
 10
118.2973442925347
 20
17.95015326605903
 30
0.0
 10
119.5442966037326
 20
17.94446885850694
 30
0.0
 10
120.7907321506076
 20
17.93930121527778
 30
0.0
 10
122.177727593316
 20
18.40542263454861
 30
0.0
 10
122.686223687066
 20
18.51084255642361
 30
0.0
 10
123.1952365451389
 20
18.61574571397569
 30
0.0
 10
124.8054741753472
 20
19.06688096788194
 30
0.0
 10
125.916517469618
 20
19.12372504340278
 30
0.0
  0
SPLINE
  5
74
330
A
100
AcDbEntity
  8
LAYER_1
 62
     7
100
AcDbSpline
210
0.0
220
0.0
230
1.0
 70
     8
 71
     3
 72
    17
 73
    13
 74
     0
 42
0.0000000001
 43
0.0000000001
 40
0.0
 40
0.0
 40
0.0
 40
0.0
 40
1.0
 40
1.0
 40
1.0
 40
2.0
 40
2.0
 40
2.0
 40
3.0
 40
3.0
 40
3.0
 40
4.0
 40
4.0
 40
4.0
 40
4.0
 10
109.7392103407118
 20
18.34857855902778
 30
0.0
 10
110.9251844618055
 20
18.14135606553819
 30
0.0
 10
111.7638929578993
 20
18.36769883897569
 30
0.0
 10
113.589104546441
 20
18.35839708116319
 30
0.0
 10
115.4143161349826
 20
18.34909532335069
 30
0.0
 10
117.4901584201389
 20
18.85914171006944
 30
0.0
 10
118.7531304253472
 20
19.03225775824653
 30
0.0
 10
120.0161024305556
 20
19.20537380642361
 30
0.0
 10
121.5348727756076
 20
19.74280870225694
 30
0.0
 10
122.6453993055555
 20
19.82239040798611
 30
0.0
 10
123.7554090711805
 20
19.90145534939236
 30
0.0
 10
124.3724256727431
 20
20.09885932074653
 30
0.0
 10
126.0085015190972
 20
20.43992377387153
 30
0.0
  0
SPLINE
  5
73
330
A
100
AcDbEntity
  8
LAYER_1
 62
     7
100
AcDbSpline
210
0.0
220
0.0
230
1.0
 70
     8
 71
     3
 72
    17
 73
    13
 74
     0
 42
0.0000000001
 43
0.0000000001
 40
0.0
 40
0.0
 40
0.0
 40
0.0
 40
1.0
 40
1.0
 40
1.0
 40
2.0
 40
2.0
 40
2.0
 40
3.0
 40
3.0
 40
3.0
 40
4.0
 40
4.0
 40
4.0
 40
4.0
 10
111.1479098849826
 20
19.55005560980903
 30
0.0
 10
112.0599989149306
 20
19.57899441189236
 30
0.0
 10
113.4418267144097
 20
19.51129828559028
 30
0.0
 10
114.6629408094618
 20
19.59398057725694
 30
0.0
 10
115.8845716688368
 20
19.67666286892361
 30
0.0
 10
116.9093153211805
 20
19.64203965928819
 30
0.0
 10
118.103040907118
 20
19.90197211371527
 30
0.0
 10
119.2962497287326
 20
20.16242133246528
 30
0.0
 10
119.9773451063368
 20
20.45077582465278
 30
0.0
 10
120.9297417534722
 20
20.59185248480902
 30
0.0
 10
121.8821384006076
 20
20.73292914496528
 30
0.0
 10
122.4976047092014
 20
20.97477484809028
 30
0.0
 10
122.8758761935764
 20
20.98666042751736
 30
0.0
  0
SPLINE
  5
72
330
A
100
AcDbEntity
  8
LAYER_1
 62
     7
100
AcDbSpline
210
0.0
220
0.0
230
1.0
 70
     8
 71
     3
 72
    14
 73
    10
 74
     0
 42
0.0000000001
 43
0.0000000001
 40
0.0
 40
0.0
 40
0.0
 40
0.0
 40
1.0
 40
1.0
 40
1.0
 40
2.0
 40
2.0
 40
2.0
 40
3.0
 40
3.0
 40
3.0
 40
3.0
 10
112.1204603407118
 20
20.47092963324653
 30
0.0
 10
113.0087782118056
 20
20.54327663845486
 30
0.0
 10
113.5901380750868
 20
20.45025906032986
 30
0.0
 10
114.8308892144097
 20
20.62285834418402
 30
0.0
 10
116.0716403537326
 20
20.79545762803819
 30
0.0
 10
116.472132703993
 20
20.80785997178819
 30
0.0
 10
117.9831515842014
 20
20.87762315538194
 30
0.0
 10
119.3195041232639
 20
20.93911810980903
 30
0.0
 10
120.168547905816
 20
20.87400580512153
 30
0.0
 10
121.0403293185764
 20
21.32979193793403
 30
0.0
  0
SPLINE
  5
71
330
A
100
AcDbEntity
  8
LAYER_1
 62
     7
100
AcDbSpline
210
0.0
220
0.0
230
1.0
 70
     8
 71
     3
 72
    11
 73
     7
 74
     0
 42
0.0000000001
 43
0.0000000001
 40
0.0
 40
0.0
 40
0.0
 40
0.0
 40
1.0
 40
1.0
 40
1.0
 40
2.0
 40
2.0
 40
2.0
 40
2.0
 10
112.9431491427951
 20
21.20886908637153
 30
0.0
 10
113.6991753472222
 20
21.23264024522569
 30
0.0
 10
113.7368991427951
 20
21.45639919704861
 30
0.0
 10
114.8050509982639
 20
21.44554714626736
 30
0.0
 10
115.8737196180556
 20
21.43469509548611
 30
0.0
 10
117.4467502170139
 20
21.66207139756944
 30
0.0
 10
118.084954155816
 20
21.88221299913194
 30
0.0
  0
SPLINE
  5
70
330
A
100
AcDbEntity
  8
LAYER_1
 62
     7
100
AcDbSpline
210
0.0
220
0.0
230
1.0
 70
     8
 71
     3
 72
    11
 73
     7
 74
     0
 42
0.0000000001
 43
0.0000000001
 40
0.0
 40
0.0
 40
0.0
 40
0.0
 40
1.0
 40
1.0
 40
1.0
 40
2.0
 40
2.0
 40
2.0
 40
2.0
 10
103.754045952691
 20
16.18023546006944
 30
0.0
 10
104.2093153211805
 20
15.86035834418403
 30
0.0
 10
104.3653781467014
 20
15.84330512152778
 30
0.0
 10
104.6191094292535
 20
15.56218532986111
 30
0.0
 10
104.8728407118056
 20
15.28054877387153
 30
0.0
 10
105.1301893446181
 20
14.88832465277778
 30
0.0
 10
105.5560031467014
 20
14.79013943142361
 30
0.0
  0
SPLINE
  5
6F
330
A
100
AcDbEntity
  8
LAYER_1
 62
     7
100
AcDbSpline
210
0.0
220
0.0
230
1.0
 70
     8
 71
     3
 72
    11
 73
     7
 74
     0
 42
0.0000000001
 43
0.0000000001
 40
0.0
 40
0.0
 40
0.0
 40
0.0
 40
1.0
 40
1.0
 40
1.0
 40
2.0
 40
2.0
 40
2.0
 40
2.0
 10
103.8424126519097
 20
17.62924262152778
 30
0.0
 10
104.4800998263889
 20
17.16002061631944
 30
0.0
 10
104.343157280816
 20
17.26699083116319
 30
0.0
 10
104.820647515191
 20
16.94814724392361
 30
0.0
 10
105.298137749566
 20
16.62930365668403
 30
0.0
 10
106.3890272352431
 20
15.90686713324653
 30
0.0
 10
106.3606051974826
 20
15.39423692491319
 30
0.0
  0
SPLINE
  5
6E
330
A
100
AcDbEntity
  8
LAYER_1
 62
     7
100
AcDbSpline
210
0.0
220
0.0
230
1.0
 70
     8
 71
     3
 72
    11
 73
     7
 74
     0
 42
0.0000000001
 43
0.0000000001
 40
0.0
 40
0.0
 40
0.0
 40
0.0
 40
1.0
 40
1.0
 40
1.0
 40
2.0
 40
2.0
 40
2.0
 40
2.0
 10
104.968958875868
 20
18.59920925564236
 30
0.0
 10
105.2914198133681
 20
18.25349392361111
 30
0.0
 10
105.3839206271701
 20
18.14497341579861
 30
0.0
 10
105.8402235243055
 20
17.78117133246528
 30
0.0
 10
106.2970431857639
 20
17.41736924913194
 30
0.0
 10
107.2313530815972
 20
16.71198594835069
 30
0.0
 10
107.6349460177951
 20
16.61380072699653
 30
0.0
  0
SPLINE
  5
6D
330
A
100
AcDbEntity
  8
LAYER_1
 62
     7
100
AcDbSpline
210
0.0
220
0.0
230
1.0
 70
     8
 71
     3
 72
    11
 73
     7
 74
     0
 42
0.0000000001
 43
0.0000000001
 40
0.0
 40
0.0
 40
0.0
 40
0.0
 40
1.0
 40
1.0
 40
1.0
 40
2.0
 40
2.0
 40
2.0
 40
2.0
 10
106.9827894422743
 20
20.37636176215278
 30
0.0
 10
107.9599907769097
 20
19.73919135199652
 30
0.0
 10
107.9791110568576
 20
19.82910834418403
 30
0.0
 10
108.2612643771701
 20
19.34851752387153
 30
0.0
 10
108.5434176974826
 20
18.86740993923611
 30
0.0
 10
109.0229749891493
 20
18.48190375434028
 30
0.0
 10
109.4539564344618
 20
18.22868923611111
 30
0.0
  0
SPLINE
  5
6C
330
A
100
AcDbEntity
  8
LAYER_1
 62
     7
100
AcDbSpline
210
0.0
220
0.0
230
1.0
 70
     8
 71
     3
 72
    11
 73
     7
 74
     0
 42
0.0000000001
 43
0.0000000001
 40
0.0
 40
0.0
 40
0.0
 40
0.0
 40
1.0
 40
1.0
 40
1.0
 40
2.0
 40
2.0
 40
2.0
 40
2.0
 10
107.4768161349826
 20
20.94841986762152
 30
0.0
 10
108.2917534722222
 20
20.50658637152777
 30
0.0
 10
108.107268608941
 20
20.72311062282986
 30
0.0
 10
108.5429009331597
 20
20.31383327907986
 30
0.0
 10
108.9780164930556
 20
19.90507269965278
 30
0.0
 10
109.8213758680555
 20
19.28598904079861
 30
0.0
 10
110.3371066623264
 20
19.14646267361111
 30
0.0
  0
SPLINE
  5
6B
330
A
100
AcDbEntity
  8
LAYER_1
 62
     7
100
AcDbSpline
210
0.0
220
0.0
230
1.0
 70
     8
 71
     3
 72
    11
 73
     7
 74
     0
 42
0.0000000001
 43
0.0000000001
 40
0.0
 40
0.0
 40
0.0
 40
0.0
 40
1.0
 40
1.0
 40
1.0
 40
2.0
 40
2.0
 40
2.0
 40
2.0
 10
108.1930514865451
 20
21.52719590928819
 30
0.0
 10
108.8059339735243
 20
21.14582383897569
 30
0.0
 10
108.8596774631076
 20
20.85798611111111
 30
0.0
 10
109.4456882052951
 20
20.60942247178819
 30
0.0
 10
110.0322157118056
 20
20.36085883246528
 30
0.0
 10
110.9303521050347
 20
20.09989284939236
 30
0.0
 10
111.1427422417535
 20
19.72782253689236
 30
0.0
  0
SPLINE
  5
6A
330
A
100
AcDbEntity
  8
LAYER_1
 62
     7
100
AcDbSpline
210
0.0
220
0.0
230
1.0
 70
     8
 71
     3
 72
    11
 73
     7
 74
     0
 42
0.0000000001
 43
0.0000000001
 40
0.0
 40
0.0
 40
0.0
 40
0.0
 40
1.0
 40
1.0
 40
1.0
 40
2.0
 40
2.0
 40
2.0
 40
2.0
 10
109.0586317274306
 20
22.31112738715278
 30
0.0
 10
109.6234551323785
 20
22.03930935329861
 30
0.0
 10
109.6487765842014
 20
21.95094265407986
 30
0.0
 10
110.239954969618
 20
21.54683295355903
 30
0.0
 10
110.8311333550347
 20
21.14272325303819
 30
0.0
 10
111.6124810112847
 20
20.36602647569444
 30
0.0
 10
111.9468275282118
 20
20.33192003038194
 30
0.0
  0
SPLINE
  5
69
330
A
100
AcDbEntity
  8
LAYER_1
 62
     7
100
AcDbSpline
210
0.0
220
0.0
230
1.0
 70
     8
 71
     3
 72
    11
 73
     7
 74
     0
 42
0.0000000001
 43
0.0000000001
 40
0.0
 40
0.0
 40
0.0
 40
0.0
 40
1.0
 40
1.0
 40
1.0
 40
2.0
 40
2.0
 40
2.0
 40
2.0
 10
109.8611667209201
 20
22.98137071397569
 30
0.0
 10
110.9851291232639
 20
22.61601833767361
 30
0.0
 10
110.9887464735243
 20
22.50491400824653
 30
0.0
 10
111.3303276909722
 20
22.24911566840278
 30
0.0
 10
111.6724256727431
 20
21.99280056423611
 30
0.0
 10
112.6263726128472
 20
21.37681749131944
 30
0.0
 10
112.7896701388889
 20
21.13755560980903
 30
0.0
  0
SPLINE
  5
68
330
A
100
AcDbEntity
  8
LAYER_1
 62
     7
100
AcDbSpline
210
0.0
220
0.0
230
1.0
 70
     8
 71
     3
 72
    14
 73
    10
 74
     0
 42
0.0000000001
 43
0.0000000001
 40
0.0
 40
0.0
 40
0.0
 40
0.0
 40
1.0
 40
1.0
 40
1.0
 40
2.0
 40
2.0
 40
2.0
 40
3.0
 40
3.0
 40
3.0
 40
3.0
 10
110.7257134331597
 20
23.78752305772569
 30
0.0
 10
111.1835666232639
 20
23.37927924262153
 30
0.0
 10
111.0724622938368
 20
23.37566189236111
 30
0.0
 10
111.4352308485243
 20
23.16430528428819
 30
0.0
 10
111.7979994032118
 20
22.95346544053819
 30
0.0
 10
111.8362399631076
 20
22.44290228949653
 30
0.0
 10
112.3070122612847
 20
22.32404649522569
 30
0.0
 10
112.7783013237847
 20
22.20519070095486
 30
0.0
 10
112.8062065972222
 20
22.02794053819444
 30
0.0
 10
112.9922417534722
 20
21.76697455512153
 30
0.0
  0
SPLINE
  5
67
330
A
100
AcDbEntity
  8
LAYER_1
 62
     7
100
AcDbSpline
210
0.0
220
0.0
230
1.0
 70
     8
 71
     3
 72
    11
 73
     7
 74
     0
 42
0.0000000001
 43
0.0000000001
 40
0.0
 40
0.0
 40
0.0
 40
0.0
 40
1.0
 40
1.0
 40
1.0
 40
2.0
 40
2.0
 40
2.0
 40
2.0
 10
107.6897230360243
 20
22.66872829861111
 30
0.0
 10
108.5031100802951
 20
22.98343777126736
 30
0.0
 10
108.9423597547743
 20
23.17515733506944
 30
0.0
 10
109.2084933810764
 20
23.20564643012153
 30
0.0
 10
109.4746270073785
 20
23.23665228949653
 30
0.0
 10
109.9164605034722
 20
23.33948838975694
 30
0.0
 10
110.2678602430556
 20
23.48418240017361
 30
0.0
  0
SPLINE
  5
66
330
A
100
AcDbEntity
  8
LAYER_1
 62
     7
100
AcDbSpline
210
0.0
220
0.0
230
1.0
 70
     8
 71
     3
 72
    14
 73
    10
 74
     0
 42
0.0000000001
 43
0.0000000001
 40
0.0
 40
0.0
 40
0.0
 40
0.0
 40
1.0
 40
1.0
 40
1.0
 40
2.0
 40
2.0
 40
2.0
 40
3.0
 40
3.0
 40
3.0
 40
3.0
 10
105.8474582248264
 20
21.09724799262153
 30
0.0
 10
106.4200330946181
 20
21.29361843532986
 30
0.0
 10
106.2464002821181
 20
21.15460883246528
 30
0.0
 10
106.6846164279514
 20
21.36854926215278
 30
0.0
 10
107.1228325737847
 20
21.58248969184028
 30
0.0
 10
107.8504367404514
 20
21.80573187934028
 30
0.0
 10
107.9372531467014
 20
21.87549506293403
 30
0.0
 10
108.0240695529514
 20
21.94474148220486
 30
0.0
 10
108.1103691948785
 20
22.03620876736111
 30
0.0
 10
108.6648573133681
 20
22.09822048611111
 30
0.0
  0
SPLINE
  5
65
330
A
100
AcDbEntity
  8
LAYER_1
 62
     7
100
AcDbSpline
210
0.0
220
0.0
230
1.0
 70
     8
 71
     3
 72
    14
 73
    10
 74
     0
 42
0.0000000001
 43
0.0000000001
 40
0.0
 40
0.0
 40
0.0
 40
0.0
 40
1.0
 40
1.0
 40
1.0
 40
2.0
 40
2.0
 40
2.0
 40
3.0
 40
3.0
 40
3.0
 40
3.0
 10
104.2656426323785
 20
19.73454047309028
 30
0.0
 10
104.9043633355035
 20
19.95519883897569
 30
0.0
 10
104.7715549045139
 20
19.92884385850694
 30
0.0
 10
105.1451755099826
 20
20.07405463324653
 30
0.0
 10
105.5187961154514
 20
20.21926540798611
 30
0.0
 10
105.8221367730035
 20
20.49573432074653
 30
0.0
 10
106.2205620659722
 20
20.55257839626736
 30
0.0
 10
106.6195041232639
 20
20.60993923611111
 30
0.0
 10
106.6215711805556
 20
20.54327663845486
 30
0.0
 10
107.0432508680556
 20
20.57841661241319
 30
0.0
  0
SPLINE
  5
64
330
A
100
AcDbEntity
  8
LAYER_1
 62
     7
100
AcDbSpline
210
0.0
220
0.0
230
1.0
 70
     8
 71
     3
 72
    23
 73
    19
 74
     0
 42
0.0000000001
 43
0.0000000001
 40
0.0
 40
0.0
 40
0.0
 40
0.0
 40
1.0
 40
1.0
 40
1.0
 40
2.0
 40
2.0
 40
2.0
 40
3.0
 40
3.0
 40
3.0
 40
4.0
 40
4.0
 40
4.0
 40
5.0
 40
5.0
 40
5.0
 40
6.0
 40
6.0
 40
6.0
 40
6.0
 10
102.7706434461805
 20
18.44159613715278
 30
0.0
 10
103.2336642795139
 20
18.58939073350694
 30
0.0
 10
103.1427137586805
 20
18.65346950954861
 30
0.0
 10
103.8238091362847
 20
18.91960313585069
 30
0.0
 10
104.5054212782118
 20
19.18573676215278
 30
0.0
 10
104.8749077690972
 20
19.46427273220486
 30
0.0
 10
105.3648003472222
 20
19.45755479600694
 30
0.0
 10
105.8546929253472
 20
19.45083685980903
 30
0.0
 10
105.8278211805556
 20
19.60586615668403
 30
0.0
 10
105.8970675998264
 20
19.51904975043403
 30
0.0
 10
105.9663140190972
 20
19.43223334418403
 30
0.0
 10
105.8056003146701
 20
19.60483262803819
 30
0.0
 10
106.3580213758681
 20
19.02140570746528
 30
0.0
 10
106.909925672743
 20
18.43797878689236
 30
0.0
 10
107.2148166232639
 20
17.95790473090278
 30
0.0
 10
107.7331312391493
 20
17.75171576605903
 30
0.0
 10
108.2514458550347
 20
17.54552680121528
 30
0.0
 10
108.1858167860243
 20
17.49901801215278
 30
0.0
 10
108.4348971896701
 20
17.37292751736111
 30
0.0
  0
SPLINE
  5
63
330
A
100
AcDbEntity
  8
LAYER_1
 62
     7
100
AcDbSpline
210
0.0
220
0.0
230
1.0
 70
     8
 71
     3
 72
    11
 73
     7
 74
     0
 42
0.0000000001
 43
0.0000000001
 40
0.0
 40
0.0
 40
0.0
 40
0.0
 40
1.0
 40
1.0
 40
1.0
 40
2.0
 40
2.0
 40
2.0
 40
2.0
 10
101.2332695855035
 20
17.07992214626736
 30
0.0
 10
101.8745741102431
 20
17.21169704861111
 30
0.0
 10
102.2006523980035
 20
17.46646185980903
 30
0.0
 10
102.3763522677951
 20
17.53880886501736
 30
0.0
 10
102.5520521375868
 20
17.61115587022569
 30
0.0
 10
103.5891981336805
 20
17.88865831163194
 30
0.0
 10
104.0129448784722
 20
17.85713568793403
 30
0.0
  0
SPLINE
  5
62
330
A
100
AcDbEntity
  8
LAYER_1
 62
     7
100
AcDbSpline
210
0.0
220
0.0
230
1.0
 70
     8
 71
     3
 72
    14
 73
    10
 74
     0
 42
0.0000000001
 43
0.0000000001
 40
0.0
 40
0.0
 40
0.0
 40
0.0
 40
1.0
 40
1.0
 40
1.0
 40
2.0
 40
2.0
 40
2.0
 40
3.0
 40
3.0
 40
3.0
 40
3.0
 10
97.05367974175347
 20
16.94866400824653
 30
0.0
 10
97.60403374565972
 20
17.14400092230903
 30
0.0
 10
97.94716525607637
 20
17.55534532335069
 30
0.0
 10
98.75228407118054
 20
17.42512071397569
 30
0.0
 10
99.55740288628472
 20
17.29437934027778
 30
0.0
 10
100.5795627170139
 20
17.34915635850694
 30
0.0
 10
100.9547336154514
 20
17.44992540147569
 30
0.0
 10
101.3299045138889
 20
17.55069444444444
 30
0.0
 10
101.4689141167535
 20
17.37706163194444
 30
0.0
 10
101.7092095269097
 20
17.51813829210069
 30
0.0
  0
SPLINE
  5
61
330
A
100
AcDbEntity
  8
LAYER_1
 62
     7
100
AcDbSpline
210
0.0
220
0.0
230
1.0
 70
     8
 71
     3
 72
    14
 73
    10
 74
     0
 42
0.0000000001
 43
0.0000000001
 40
0.0
 40
0.0
 40
0.0
 40
0.0
 40
1.0
 40
1.0
 40
1.0
 40
2.0
 40
2.0
 40
2.0
 40
3.0
 40
3.0
 40
3.0
 40
3.0
 10
91.32172987196179
 20
18.05970730251736
 30
0.0
 10
91.60905083550347
 20
18.11345079210069
 30
0.0
 10
93.22807345920138
 20
18.29741889105903
 30
0.0
 10
94.60938449435763
 20
18.25194363064236
 30
0.0
 10
95.99069552951389
 20
18.20646837022569
 30
0.0
 10
98.52077365451387
 20
18.41937527126736
 30
0.0
 10
99.27628309461805
 20
18.46536729600694
 30
0.0
 10
100.0312757703993
 20
18.51135932074653
 30
0.0
 10
102.6957126193576
 20
18.70617947048611
 30
0.0
 10
102.9840671115451
 20
18.73718532986111
 30
0.0
  0
SPLINE
  5
60
330
A
100
AcDbEntity
  8
LAYER_1
 62
     7
100
AcDbSpline
210
0.0
220
0.0
230
1.0
 70
     8
 71
     3
 72
    17
 73
    13
 74
     0
 42
0.0000000001
 43
0.0000000001
 40
0.0
 40
0.0
 40
0.0
 40
0.0
 40
1.0
 40
1.0
 40
1.0
 40
2.0
 40
2.0
 40
2.0
 40
3.0
 40
3.0
 40
3.0
 40
4.0
 40
4.0
 40
4.0
 40
4.0
 10
86.77885470920138
 20
19.56400824652778
 30
0.0
 10
88.29814181857638
 20
19.38882514105903
 30
0.0
 10
90.39052056206596
 20
19.36557074652778
 30
0.0
 10
91.67984754774305
 20
19.40639512803819
 30
0.0
 10
92.96969129774304
 20
19.44670274522569
 30
0.0
 10
97.10122205946179
 20
19.68803168402778
 30
0.0
 10
98.08307427300346
 20
19.60741644965277
 30
0.0
 10
99.06440972222221
 20
19.52680121527778
 30
0.0
 10
100.3320326063368
 20
19.56659206814236
 30
0.0
 10
101.5040540907118
 20
19.80378689236111
 30
0.0
 10
102.6760755750868
 20
20.04098171657986
 30
0.0
 10
103.9840060763889
 20
20.19342719184028
 30
0.0
 10
104.5018039279514
 20
20.00894232855903
 30
0.0
  0
SPLINE
  5
5F
330
A
100
AcDbEntity
  8
LAYER_1
 62
     7
100
AcDbSpline
210
0.0
220
0.0
230
1.0
 70
     8
 71
     3
 72
    20
 73
    16
 74
     0
 42
0.0000000001
 43
0.0000000001
 40
0.0
 40
0.0
 40
0.0
 40
0.0
 40
1.0
 40
1.0
 40
1.0
 40
2.0
 40
2.0
 40
2.0
 40
3.0
 40
3.0
 40
3.0
 40
4.0
 40
4.0
 40
4.0
 40
5.0
 40
5.0
 40
5.0
 40
5.0
 10
88.23096245659721
 20
20.81147732204861
 30
0.0
 10
89.21229790581596
 20
20.73086208767361
 30
0.0
 10
91.22871229383679
 20
21.01663275824653
 30
0.0
 10
91.90360649956597
 20
20.79287380642361
 30
0.0
 10
92.57798394097222
 20
20.56963161892361
 30
0.0
 10
94.26780327690972
 20
20.62234157986111
 30
0.0
 10
94.95716688368054
 20
20.64404568142361
 30
0.0
 10
95.64601372612846
 20
20.66574978298611
 30
0.0
 10
97.50998263888889
 20
20.83576524522569
 30
0.0
 10
98.48873426649304
 20
20.86625434027778
 30
0.0
 10
99.4669691297743
 20
20.89726019965278
 30
0.0
 10
101.6234266493055
 20
20.96443956163194
 30
0.0
 10
102.4016737196181
 20
20.98924424913194
 30
0.0
 10
103.1794040256076
 20
21.01353217230903
 30
0.0
 10
104.9973809136285
 20
21.24865993923611
 30
0.0
 10
105.6490207248264
 20
21.04660508897569
 30
0.0
  0
SPLINE
  5
5E
330
A
100
AcDbEntity
  8
LAYER_1
 62
     7
100
AcDbSpline
210
0.0
220
0.0
230
1.0
 70
     8
 71
     3
 72
    17
 73
    13
 74
     0
 42
0.0000000001
 43
0.0000000001
 40
0.0
 40
0.0
 40
0.0
 40
0.0
 40
1.0
 40
1.0
 40
1.0
 40
2.0
 40
2.0
 40
2.0
 40
3.0
 40
3.0
 40
3.0
 40
4.0
 40
4.0
 40
4.0
 40
4.0
 10
90.04997287326388
 20
22.40414496527778
 30
0.0
 10
91.04061008029512
 20
22.05687934027777
 30
0.0
 10
92.02142876519096
 20
21.99848497178819
 30
0.0
 10
93.66732313368054
 20
22.02794053819444
 30
0.0
 10
95.31321750217013
 20
22.05739610460069
 30
0.0
 10
97.51566704644097
 20
22.08220079210069
 30
0.0
 10
98.71921115451389
 20
22.03052435980903
 30
0.0
 10
99.92223849826388
 20
21.97936469184027
 30
0.0
 10
102.0575086805555
 20
22.02432318793403
 30
0.0
 10
102.8543592664931
 20
22.16074896918403
 30
0.0
 10
103.6512098524305
 20
22.29665798611111
 30
0.0
 10
106.7621310763889
 20
22.43928493923611
 30
0.0
 10
107.034465874566
 20
22.26978624131944
 30
0.0
  0
SPLINE
  5
5D
330
A
100
AcDbEntity
  8
LAYER_1
 62
     7
100
AcDbSpline
210
0.0
220
0.0
230
1.0
 70
     8
 71
     3
 72
    23
 73
    19
 74
     0
 42
0.0000000001
 43
0.0000000001
 40
0.0
 40
0.0
 40
0.0
 40
0.0
 40
1.0
 40
1.0
 40
1.0
 40
2.0
 40
2.0
 40
2.0
 40
3.0
 40
3.0
 40
3.0
 40
4.0
 40
4.0
 40
4.0
 40
5.0
 40
5.0
 40
5.0
 40
6.0
 40
6.0
 40
6.0
 40
6.0
 10
91.45712212456597
 20
23.67176784939236
 30
0.0
 10
92.1960951063368
 20
23.51725531684028
 30
0.0
 10
93.20171847873263
 20
23.39323187934028
 30
0.0
 10
93.60169406467013
 20
23.40563422309027
 30
0.0
 10
94.00218641493055
 20
23.41803656684028
 30
0.0
 10
95.18867730034721
 20
23.18859320746527
 30
0.0
 10
96.18654920789929
 20
23.30899929470486
 30
0.0
 10
97.18390435112846
 20
23.42888861762152
 30
0.0
 10
97.27072075737847
 20
23.49865180121527
 30
0.0
 10
98.21174858940971
 20
23.30538194444444
 30
0.0
 10
99.15225965711805
 20
23.11262885199653
 30
0.0
 10
100.2726047092014
 20
22.88060167100694
 30
0.0
 10
101.3769300672743
 20
23.13795030381944
 30
0.0
 10
102.4817721896701
 20
23.39529893663194
 30
0.0
 10
104.131800672743
 20
23.29142930772569
 30
0.0
 10
104.5994723849826
 20
23.28367784288194
 30
0.0
 10
105.0671440972222
 20
23.27644314236111
 30
0.0
 10
107.6277113172743
 20
23.22321641710069
 30
0.0
 10
108.1403415256076
 20
23.19427761501736
 30
0.0
  0
SPLINE
  5
5C
330
A
100
AcDbEntity
  8
LAYER_1
 62
     7
100
AcDbSpline
210
0.0
220
0.0
230
1.0
 70
     8
 71
     3
 72
    20
 73
    16
 74
     0
 42
0.0000000001
 43
0.0000000001
 40
0.0
 40
0.0
 40
0.0
 40
0.0
 40
1.0
 40
1.0
 40
1.0
 40
2.0
 40
2.0
 40
2.0
 40
3.0
 40
3.0
 40
3.0
 40
4.0
 40
4.0
 40
4.0
 40
5.0
 40
5.0
 40
5.0
 40
5.0
 10
93.08131239149304
 20
25.10268825954861
 30
0.0
 10
93.81615125868055
 20
25.08150092230903
 30
0.0
 10
93.89004855685764
 20
24.86135932074653
 30
0.0
 10
94.7354749891493
 20
24.86549343532986
 30
0.0
 10
95.58090142144097
 20
24.86962754991319
 30
0.0
 10
96.05115695529513
 20
24.77299262152778
 30
0.0
 10
96.53846571180554
 20
24.85567491319444
 30
0.0
 10
97.02525770399305
 20
24.93732367621528
 30
0.0
 10
97.64227430555555
 20
25.13472764756944
 30
0.0
 10
98.02674696180554
 20
24.94662543402778
 30
0.0
 10
98.41070285373263
 20
24.75852322048611
 30
0.0
 10
99.39358859592014
 20
24.63346625434028
 30
0.0
 10
99.58892550998263
 20
24.79521348741319
 30
0.0
 10
99.78426242404512
 20
24.95747748480903
 30
0.0
 10
100.6234876844618
 20
25.16159939236111
 30
0.0
 10
100.9154595269097
 20
25.08201768663194
 30
0.0
  0
LINE
  5
5B
330
A
100
AcDbEntity
  8
LAYER_1
 62
     7
100
AcDbLine
 10
100.3010267469618
 20
16.29392361111111
 30
0.0
 11
108.6193820529514
 21
23.54361029730903
 31
0.0
  0
LINE
  5
5A
330
A
100
AcDbEntity
  8
LAYER_1
 62
     7
100
AcDbLine
 10
103.1690687391493
 20
17.09645860460069
 30
0.0
 11
111.958196343316
 21
24.93887396918403
 31
0.0
  0
LINE
  5
59
330
A
100
AcDbEntity
  8
LAYER_1
 62
     7
100
AcDbLine
 10
106.2541517469618
 20
15.23507351345486
 30
0.0
 11
113.1369357638889
 21
21.41557481553819
 31
0.0
  0
LWPOLYLINE
  5
51
330
A
100
AcDbEntity
  8
LAYER_1
 62
     7
100
AcDbPolyline
 90
        6
 70
     0
 43
0.0
 10
94.64297417534722
 20
26.39821641710069
 10
108.6648573133681
 20
23.50071885850694
 10
112.0010877821181
 20
24.98486599392361
 10
113.1369357638889
 20
21.41557481553819
 10
114.8376071506076
 20
22.53695339626736
 10
127.1949924045139
 20
20.20996365017361
  0
LWPOLYLINE
  5
4C
330
A
100
AcDbEntity
  8
LAYER_1
 62
     7
100
AcDbPolyline
 90
        3
 70
     0
 43
0.0
 10
94.75872938368055
 20
77.98783230251735
 10
94.59853244357637
 20
26.39666612413194
 10
86.19387749565972
 20
19.05602891710069
  0
SPLINE
  5
4B
330
A
100
AcDbEntity
  8
LAYER_1
 62
     7
100
AcDbSpline
210
0.0
220
0.0
230
1.0
 70
     8
 71
     3
 72
    14
 73
    10
 74
     0
 42
0.0000000001
 43
0.0000000001
 40
0.0
 40
0.0
 40
0.0
 40
0.0
 40
1.0
 40
1.0
 40
1.0
 40
2.0
 40
2.0
 40
2.0
 40
3.0
 40
3.0
 40
3.0
 40
3.0
 10
88.82214084201388
 20
79.93810085720486
 30
0.0
 10
88.82214084201388
 20
79.93810085720486
 30
0.0
 10
88.46350640190971
 20
79.30351426866319
 30
0.0
 10
88.46350640190971
 20
79.30351426866319
 30
0.0
 10
88.46350640190971
 20
79.30351426866319
 30
0.0
 10
89.58591851128472
 20
79.00482449001736
 30
0.0
 10
89.78849012586805
 20
78.92265896267361
 30
0.0
 10
89.9915785047743
 20
78.83997667100694
 30
0.0
 10
90.74347059461805
 20
78.28497178819444
 30
0.0
 10
90.2551283094618
 20
77.53514675564236
 30
0.0
  0
LINE
  5
4A
330
A
100
AcDbEntity
  8
LAYER_1
 62
     7
100
AcDbLine
 10
85.92205946180555
 20
70.23326687282986
 30
0.0
 11
93.5634535047743
 21
79.19654405381944
 31
0.0
  0
LINE
  5
49
330
A
100
AcDbEntity
  8
LAYER_1
 62
     7
100
AcDbLine
 10
89.20144585503472
 20
80.61764594184027
 30
0.0
 11
93.2378919813368
 21
79.63165961371527
 31
0.0
  0
LINE
  5
48
330
A
100
AcDbEntity
  8
LAYER_1
 62
     7
100
AcDbLine
 10
38.91304253472222
 20
91.72342800564235
 30
0.0
 11
62.30851372612847
 21
86.58317328559026
 31
0.0
  0
LINE
  5
47
330
A
100
AcDbEntity
  8
LAYER_1
 62
     7
100
AcDbLine
 10
63.75390353732638
 20
85.91654730902776
 30
0.0
 11
86.07347140842013
 21
81.00883653428819
 31
0.0
  0
LINE
  5
46
330
A
100
AcDbEntity
  8
LAYER_1
 62
     7
100
AcDbLine
 10
64.35541720920138
 20
86.6028103298611
 30
0.0
 11
85.64404025607638
 21
81.93022732204861
 31
0.0
  0
LINE
  5
45
330
A
100
AcDbEntity
  8
LAYER_1
 62
     7
100
AcDbLine
 10
60.99954969618055
 20
87.8771511501736
 30
0.0
 11
61.9095716688368
 21
88.66211615668402
 31
0.0
  0
LINE
  5
44
330
A
100
AcDbEntity
  8
LAYER_1
 62
     7
100
AcDbLine
 10
60.70757785373263
 20
85.82042914496527
 30
0.0
 11
60.81299777560763
 21
84.5998318142361
 31
0.0
  0
SPLINE
  5
43
330
A
100
AcDbEntity
  8
LAYER_1
 62
     7
100
AcDbSpline
210
0.0
220
0.0
230
1.0
 70
     8
 71
     3
 72
    26
 73
    22
 74
     0
 42
0.0000000001
 43
0.0000000001
 40
0.0
 40
0.0
 40
0.0
 40
0.0
 40
1.0
 40
1.0
 40
1.0
 40
2.0
 40
2.0
 40
2.0
 40
3.0
 40
3.0
 40
3.0
 40
4.0
 40
4.0
 40
4.0
 40
5.0
 40
5.0
 40
5.0
 40
6.0
 40
6.0
 40
6.0
 40
7.0
 40
7.0
 40
7.0
 40
7.0
 10
61.8661634657118
 20
99.25423448350693
 30
0.0
 10
61.8661634657118
 20
99.25423448350693
 30
0.0
 10
61.91008843315971
 20
88.63989529079861
 30
0.0
 10
61.91008843315971
 20
88.63989529079861
 30
0.0
 10
64.41536187065972
 20
88.22906765407986
 30
0.0
 10
63.25574273003472
 20
85.47781439887152
 30
0.0
 10
61.63930392795138
 20
84.51456570095485
 30
0.0
 10
61.25121392144096
 20
84.28408881293402
 30
0.0
 10
60.81299777560763
 20
84.5998318142361
 30
0.0
 10
60.81299777560763
 20
84.5998318142361
 30
0.0
 10
60.81299777560763
 20
84.5998318142361
 30
0.0
 10
55.89701877170138
 20
78.14751247829861
 30
0.0
 10
55.89701877170138
 20
78.14751247829861
 30
0.0
 10
55.89701877170138
 20
78.14751247829861
 30
0.0
 10
56.65924614800347
 20
77.9707790798611
 30
0.0
 10
56.65924614800347
 20
77.9707790798611
 30
0.0
 10
56.8618177625868
 20
77.88861355251736
 30
0.0
 10
56.96775444878472
 20
77.35737982855902
 30
0.0
 10
56.47166069878472
 20
76.85250108506943
 30
0.0
 10
55.97556694878472
 20
76.34710557725694
 30
0.0
 10
55.39472384982638
 20
75.70580105251736
 30
0.0
 10
55.39472384982638
 20
75.70580105251736
 30
0.0
  0
LINE
  5
42
330
A
100
AcDbEntity
  8
LAYER_1
 62
     7
100
AcDbLine
 10
85.75411105685762
 20
96.84456244574652
 30
0.0
 11
94.63057183159721
 21
94.80851101345485
 31
0.0
  0
LINE
  5
41
330
A
100
AcDbEntity
  8
LAYER_1
 62
     7
100
AcDbLine
 10
94.54685601128472
 20
127.2530422634548
 30
0.0
 11
94.71015353732638
 21
93.69850124782985
 31
0.0
  0
SPLINE
  5
40
330
A
100
AcDbEntity
  8
LAYER_1
 62
     7
100
AcDbSpline
210
0.0
220
0.0
230
1.0
 70
     8
 71
     3
 72
    11
 73
     7
 74
     0
 42
0.0000000001
 43
0.0000000001
 40
0.0
 40
0.0
 40
0.0
 40
0.0
 40
1.0
 40
1.0
 40
1.0
 40
2.0
 40
2.0
 40
2.0
 40
2.0
 10
32.0943372938368
 20
86.34597846137152
 30
0.0
 10
32.76561414930556
 20
85.52173936631944
 30
0.0
 10
32.7826673719618
 20
85.67780219184027
 30
0.0
 10
32.84622938368055
 20
85.07938910590278
 30
0.0
 10
32.90927463107639
 20
84.48045925564236
 30
0.0
 10
33.04104953342014
 20
83.83915473090278
 30
0.0
 10
33.49373508029514
 20
83.58594021267361
 30
0.0
  0
SPLINE
  5
3F
330
A
100
AcDbEntity
  8
LAYER_1
 62
     7
100
AcDbSpline
210
0.0
220
0.0
230
1.0
 70
     8
 71
     3
 72
    11
 73
     7
 74
     0
 42
0.0000000001
 43
0.0000000001
 40
0.0
 40
0.0
 40
0.0
 40
0.0
 40
1.0
 40
1.0
 40
1.0
 40
2.0
 40
2.0
 40
2.0
 40
2.0
 10
32.5594251844618
 20
88.54171006944443
 30
0.0
 10
33.0493177625868
 20
87.82289089626735
 30
0.0
 10
33.06327039930555
 20
88.09005805121527
 30
0.0
 10
33.19866265190972
 20
87.31542833116319
 30
0.0
 10
33.3345716688368
 20
86.5407986111111
 30
0.0
 10
33.79810926649305
 20
85.24268663194444
 30
0.0
 10
34.29678683810764
 20
84.94658067491319
 30
0.0
  0
SPLINE
  5
3E
330
A
100
AcDbEntity
  8
LAYER_1
 62
     7
100
AcDbSpline
210
0.0
220
0.0
230
1.0
 70
     8
 71
     3
 72
    11
 73
     7
 74
     0
 42
0.0000000001
 43
0.0000000001
 40
0.0
 40
0.0
 40
0.0
 40
0.0
 40
1.0
 40
1.0
 40
1.0
 40
2.0
 40
2.0
 40
2.0
 40
2.0
 10
33.53869357638889
 20
89.95247667100693
 30
0.0
 10
33.96140679253472
 20
89.25329454210069
 30
0.0
 10
34.23735894097222
 20
88.97269151475693
 30
0.0
 10
34.32262505425347
 20
88.37479519314235
 30
0.0
 10
34.40840793185764
 20
87.77638210720485
 30
0.0
 10
34.89003228081597
 20
86.61211208767361
 30
0.0
 10
35.23109673394097
 20
86.37801784939235
 30
0.0
  0
SPLINE
  5
3D
330
A
100
AcDbEntity
  8
LAYER_1
 62
     7
100
AcDbSpline
210
0.0
220
0.0
230
1.0
 70
     8
 71
     3
 72
    11
 73
     7
 74
     0
 42
0.0000000001
 43
0.0000000001
 40
0.0
 40
0.0
 40
0.0
 40
0.0
 40
1.0
 40
1.0
 40
1.0
 40
2.0
 40
2.0
 40
2.0
 40
2.0
 10
34.56033664279514
 20
91.43093939887152
 30
0.0
 10
34.90450168185764
 20
90.39586046006944
 30
0.0
 10
34.86212700737847
 20
90.32764756944444
 30
0.0
 10
35.33186577690972
 20
89.54113226996527
 30
0.0
 10
35.80160454644097
 20
88.7546169704861
 30
0.0
 10
35.76026340060763
 20
87.95259874131943
 30
0.0
 10
36.21501600477431
 20
87.65494249131943
 30
0.0
  0
SPLINE
  5
3C
330
A
100
AcDbEntity
  8
LAYER_1
 62
     7
100
AcDbSpline
210
0.0
220
0.0
230
1.0
 70
     8
 71
     3
 72
    11
 73
     7
 74
     0
 42
0.0000000001
 43
0.0000000001
 40
0.0
 40
0.0
 40
0.0
 40
0.0
 40
1.0
 40
1.0
 40
1.0
 40
2.0
 40
2.0
 40
2.0
 40
2.0
 10
35.43521864149305
 20
92.63810085720485
 30
0.0
 10
35.78455132378472
 20
92.13683946397569
 30
0.0
 10
35.6693128797743
 20
92.26706407335068
 30
0.0
 10
36.03053114149305
 20
91.38804796006944
 30
0.0
 10
36.39226616753472
 20
90.50903184678819
 30
0.0
 10
36.4661634657118
 20
89.57678900824652
 30
0.0
 10
37.1482923719618
 20
89.10860053168402
 30
0.0
  0
SPLINE
  5
3B
330
A
100
AcDbEntity
  8
LAYER_1
 62
     7
100
AcDbSpline
210
0.0
220
0.0
230
1.0
 70
     8
 71
     3
 72
    11
 73
     7
 74
     0
 42
0.0000000001
 43
0.0000000001
 40
0.0
 40
0.0
 40
0.0
 40
0.0
 40
1.0
 40
1.0
 40
1.0
 40
2.0
 40
2.0
 40
2.0
 40
2.0
 10
36.47856580946181
 20
94.13930121527777
 30
0.0
 10
37.14984266493055
 20
93.31454535590277
 30
0.0
 10
36.96277398003472
 20
93.59824896918401
 30
0.0
 10
37.19273410373263
 20
92.64843614366319
 30
0.0
 10
37.42321099175347
 20
91.69914008246526
 30
0.0
 10
37.77254367404514
 20
90.48577745225694
 30
0.0
 10
37.93325737847222
 20
90.33539903428819
 30
0.0
  0
SPLINE
  5
3A
330
A
100
AcDbEntity
  8
LAYER_1
 62
     7
100
AcDbSpline
210
0.0
220
0.0
230
1.0
 70
     8
 71
     3
 72
    11
 73
     7
 74
     0
 42
0.0000000001
 43
0.0000000001
 40
0.0
 40
0.0
 40
0.0
 40
0.0
 40
1.0
 40
1.0
 40
1.0
 40
2.0
 40
2.0
 40
2.0
 40
2.0
 10
37.41545952690972
 20
95.48185492621526
 30
0.0
 10
37.78494601779514
 20
95.0488064236111
 30
0.0
 10
37.72551812065972
 20
94.82401394314235
 30
0.0
 10
38.08415256076388
 20
94.03439805772568
 30
0.0
 10
38.44278700086805
 20
93.24426540798611
 30
0.0
 10
38.72132297092013
 20
92.16267768012152
 30
0.0
 10
38.69806857638888
 20
91.49398464626735
 30
0.0
  0
SPLINE
  5
39
330
A
100
AcDbEntity
  8
LAYER_1
 62
     7
100
AcDbSpline
210
0.0
220
0.0
230
1.0
 70
     8
 71
     3
 72
    11
 73
     7
 74
     0
 42
0.0000000001
 43
0.0000000001
 40
0.0
 40
0.0
 40
0.0
 40
0.0
 40
1.0
 40
1.0
 40
1.0
 40
2.0
 40
2.0
 40
2.0
 40
2.0
 10
38.45260552300347
 20
100.7218451605903
 30
0.0
 10
38.6799818250868
 20
99.86143256293401
 30
0.0
 10
38.6210706922743
 20
99.61441921657985
 30
0.0
 10
38.97298719618055
 20
99.02479112413194
 30
0.0
 10
39.32593722873263
 20
98.43516303168401
 30
0.0
 10
39.28666314019097
 20
98.25584581163193
 30
0.0
 10
39.27684461805555
 20
97.8548366970486
 30
0.0
  0
SPLINE
  5
38
330
A
100
AcDbEntity
  8
LAYER_1
 62
     7
100
AcDbSpline
210
0.0
220
0.0
230
1.0
 70
     8
 71
     3
 72
    11
 73
     7
 74
     0
 42
0.0000000001
 43
0.0000000001
 40
0.0
 40
0.0
 40
0.0
 40
0.0
 40
1.0
 40
1.0
 40
1.0
 40
2.0
 40
2.0
 40
2.0
 40
2.0
 10
36.67545301649305
 20
100.6215928819444
 30
0.0
 10
37.2723158094618
 20
100.0397162543403
 30
0.0
 10
37.11883680555555
 20
99.96788601345486
 30
0.0
 10
37.27593315972222
 20
99.21651068793402
 30
0.0
 10
37.43302951388888
 20
98.46461859809027
 30
0.0
 10
37.91465386284722
 20
96.58824734157986
 30
0.0
 10
38.07485080295139
 20
96.4595730251736
 30
0.0
  0
SPLINE
  5
37
330
A
100
AcDbEntity
  8
LAYER_1
 62
     7
100
AcDbSpline
210
0.0
220
0.0
230
1.0
 70
     8
 71
     3
 72
    11
 73
     7
 74
     0
 42
0.0000000001
 43
0.0000000001
 40
0.0
 40
0.0
 40
0.0
 40
0.0
 40
1.0
 40
1.0
 40
1.0
 40
2.0
 40
2.0
 40
2.0
 40
2.0
 10
35.67603081597222
 20
99.14364691840277
 30
0.0
 10
35.95870090060764
 20
98.64083523220485
 30
0.0
 10
36.14576958550347
 20
98.35764838324651
 30
0.0
 10
36.28477918836806
 20
97.47139756944443
 30
0.0
 10
36.42378879123264
 20
96.58566351996527
 30
0.0
 10
36.73539767795138
 20
95.17127956814235
 30
0.0
 10
36.94262017144097
 20
94.95527208116319
 30
0.0
  0
SPLINE
  5
36
330
A
100
AcDbEntity
  8
LAYER_1
 62
     7
100
AcDbSpline
210
0.0
220
0.0
230
1.0
 70
     8
 71
     3
 72
    14
 73
    10
 74
     0
 42
0.0000000001
 43
0.0000000001
 40
0.0
 40
0.0
 40
0.0
 40
0.0
 40
1.0
 40
1.0
 40
1.0
 40
2.0
 40
2.0
 40
2.0
 40
3.0
 40
3.0
 40
3.0
 40
3.0
 10
34.71794976128472
 20
97.75613471137152
 30
0.0
 10
35.05229627821181
 20
97.03214789496526
 30
0.0
 10
34.9871839735243
 20
96.98563910590276
 30
0.0
 10
35.20732557508681
 20
96.34743516710068
 30
0.0
 10
35.4274671766493
 20
95.70871446397568
 30
0.0
 10
35.58197970920138
 20
95.04622260199652
 30
0.0
 10
35.68636610243055
 20
94.55994737413194
 30
0.0
 10
35.79075249565972
 20
94.07315538194443
 30
0.0
 10
35.77886691623264
 20
93.73932562934027
 30
0.0
 10
36.05275200737847
 20
93.52538519965277
 30
0.0
  0
SPLINE
  5
35
330
A
100
AcDbEntity
  8
LAYER_1
 62
     7
100
AcDbSpline
210
0.0
220
0.0
230
1.0
 70
     8
 71
     3
 72
    14
 73
    10
 74
     0
 42
0.0000000001
 43
0.0000000001
 40
0.0
 40
0.0
 40
0.0
 40
0.0
 40
1.0
 40
1.0
 40
1.0
 40
2.0
 40
2.0
 40
2.0
 40
3.0
 40
3.0
 40
3.0
 40
3.0
 10
33.56763237847222
 20
96.11799180772569
 30
0.0
 10
33.8244642469618
 20
95.74747178819443
 30
0.0
 10
33.94435356987847
 20
95.46170111762152
 30
0.0
 10
34.11488579644097
 20
95.00023057725694
 30
0.0
 10
34.28490125868056
 20
94.53772650824652
 30
0.0
 10
34.55258517795139
 20
93.81218939887152
 30
0.0
 10
34.58462456597222
 20
93.5016140407986
 30
0.0
 10
34.61666395399305
 20
93.19052191840277
 30
0.0
 10
34.79856499565972
 20
92.35077989366319
 30
0.0
 10
35.02800835503472
 20
92.13528917100693
 30
0.0
  0
SPLINE
  5
34
330
A
100
AcDbEntity
  8
LAYER_1
 62
     7
100
AcDbSpline
210
0.0
220
0.0
230
1.0
 70
     8
 71
     3
 72
    14
 73
    10
 74
     0
 42
0.0000000001
 43
0.0000000001
 40
0.0
 40
0.0
 40
0.0
 40
0.0
 40
1.0
 40
1.0
 40
1.0
 40
2.0
 40
2.0
 40
2.0
 40
3.0
 40
3.0
 40
3.0
 40
3.0
 10
32.69378390842014
 20
94.88860948350694
 30
0.0
 10
32.90617404513888
 20
94.51705593532985
 30
0.0
 10
33.04776746961805
 20
94.25453965928818
 30
0.0
 10
33.13096652560763
 20
93.72278917100694
 30
0.0
 10
33.21468234592014
 20
93.19103868272569
 30
0.0
 10
33.43430718315972
 20
92.57505560980901
 30
0.0
 10
33.53869357638889
 20
92.08878038194443
 30
0.0
 10
33.64256320529513
 20
91.60250515407985
 30
0.0
 10
33.68597140842014
 20
90.93639594184027
 30
0.0
 10
33.98259412977431
 20
90.70075141059027
 30
0.0
  0
SPLINE
  5
33
330
A
100
AcDbEntity
  8
LAYER_1
 62
     7
100
AcDbSpline
210
0.0
220
0.0
230
1.0
 70
     8
 71
     3
 72
    11
 73
     7
 74
     0
 42
0.0000000001
 43
0.0000000001
 40
0.0
 40
0.0
 40
0.0
 40
0.0
 40
1.0
 40
1.0
 40
1.0
 40
2.0
 40
2.0
 40
2.0
 40
2.0
 10
31.65198703342013
 20
93.34245062934026
 30
0.0
 10
32.0261244032118
 20
92.77556016710069
 30
0.0
 10
31.87316216362847
 20
92.68202582465277
 30
0.0
 10
32.13206108940972
 20
92.22262234157985
 30
0.0
 10
32.39147677951389
 20
91.76321885850693
 30
0.0
 10
32.86689995659722
 20
90.08683539496526
 30
0.0
 10
32.98627251519097
 20
89.82380235460069
 30
0.0
  0
SPLINE
  5
32
330
A
100
AcDbEntity
  8
LAYER_1
 62
     7
100
AcDbSpline
210
0.0
220
0.0
230
1.0
 70
     8
 71
     3
 72
    11
 73
     7
 74
     0
 42
0.0000000001
 43
0.0000000001
 40
0.0
 40
0.0
 40
0.0
 40
0.0
 40
1.0
 40
1.0
 40
1.0
 40
2.0
 40
2.0
 40
2.0
 40
2.0
 10
31.97444797092014
 20
97.24712185329861
 30
0.0
 10
32.3919935438368
 20
96.70400254991318
 30
0.0
 10
32.23489718967014
 20
96.74379340277777
 30
0.0
 10
32.42765028211805
 20
96.28232286241318
 30
0.0
 10
32.62040337456597
 20
95.82085232204861
 30
0.0
 10
32.78525119357639
 20
95.51441107855902
 30
0.0
 10
32.79972059461805
 20
95.06999376085069
 30
0.0
  0
SPLINE
  5
31
330
A
100
AcDbEntity
  8
LAYER_1
 62
     7
100
AcDbSpline
210
0.0
220
0.0
230
1.0
 70
     8
 71
     3
 72
    11
 73
     7
 74
     0
 42
0.0000000001
 43
0.0000000001
 40
0.0
 40
0.0
 40
0.0
 40
0.0
 40
1.0
 40
1.0
 40
1.0
 40
2.0
 40
2.0
 40
2.0
 40
2.0
 10
33.18626030815972
 20
99.04339463975694
 30
0.0
 10
33.49218478732639
 20
98.51887885199652
 30
0.0
 10
33.46531304253472
 20
98.67390814887152
 30
0.0
 10
33.4833997938368
 20
98.09564887152777
 30
0.0
 10
33.50148654513889
 20
97.51790635850693
 30
0.0
 10
33.70405815972222
 20
96.74534369574651
 30
0.0
 10
33.82343071831597
 20
96.48179389105901
 30
0.0
  0
SPLINE
  5
30
330
A
100
AcDbEntity
  8
LAYER_1
 62
     7
100
AcDbSpline
210
0.0
220
0.0
230
1.0
 70
     8
 71
     3
 72
    11
 73
     7
 74
     0
 42
0.0000000001
 43
0.0000000001
 40
0.0
 40
0.0
 40
0.0
 40
0.0
 40
1.0
 40
1.0
 40
1.0
 40
2.0
 40
2.0
 40
2.0
 40
2.0
 10
34.40168999565972
 20
100.7507839626736
 30
0.0
 10
34.68694390190972
 20
100.1585720486111
 30
0.0
 10
34.7143324110243
 20
100.004059516059
 30
0.0
 10
34.72828504774305
 20
99.55912543402776
 30
0.0
 10
34.74223768446181
 20
99.11470811631943
 30
0.0
 10
34.83163791232639
 20
98.38296983506943
 30
0.0
 10
34.94946017795139
 20
98.18608262803818
 30
0.0
  0
SPLINE
  5
2F
330
A
100
AcDbEntity
  8
LAYER_1
 62
     7
100
AcDbSpline
210
0.0
220
0.0
230
1.0
 70
     8
 71
     3
 72
    11
 73
     7
 74
     0
 42
0.0000000001
 43
0.0000000001
 40
0.0
 40
0.0
 40
0.0
 40
0.0
 40
1.0
 40
1.0
 40
1.0
 40
2.0
 40
2.0
 40
2.0
 40
2.0
 10
35.44348687065972
 20
102.2964260525174
 30
0.0
 10
35.72564019097222
 20
101.8158352322049
 30
0.0
 10
35.6848158094618
 20
101.7036973741319
 30
0.0
 10
35.76698133680555
 20
101.1941677517361
 30
0.0
 10
35.85018039279514
 20
100.6851548936632
 30
0.0
 10
35.8646497938368
 20
100.2179999457465
 30
0.0
 10
36.1406019422743
 20
99.93739691840277
 30
0.0
  0
SPLINE
  5
2E
330
A
100
AcDbEntity
  8
LAYER_1
 62
     7
100
AcDbSpline
210
0.0
220
0.0
230
1.0
 70
     8
 71
     3
 72
    11
 73
     7
 74
     0
 42
0.0000000001
 43
0.0000000001
 40
0.0
 40
0.0
 40
0.0
 40
0.0
 40
1.0
 40
1.0
 40
1.0
 40
2.0
 40
2.0
 40
2.0
 40
2.0
 10
36.46461317274305
 20
103.7976264105903
 30
0.0
 10
36.72299533420139
 20
103.3604437934028
 30
0.0
 10
36.81859673394097
 20
103.1413357204861
 30
0.0
 10
36.87750786675347
 20
102.6979519314236
 30
0.0
 10
36.93590223524306
 20
102.2545681423611
 30
0.0
 10
36.81704644097222
 20
101.7832790798611
 30
0.0
 10
37.18601616753472
 20
101.3724514431424
 30
0.0
  0
SPLINE
  5
2D
330
A
100
AcDbEntity
  8
LAYER_1
 62
     7
100
AcDbSpline
210
0.0
220
0.0
230
1.0
 70
     8
 71
     3
 72
    11
 73
     7
 74
     0
 42
0.0000000001
 43
0.0000000001
 40
0.0
 40
0.0
 40
0.0
 40
0.0
 40
1.0
 40
1.0
 40
1.0
 40
2.0
 40
2.0
 40
2.0
 40
2.0
 10
37.63405083550347
 20
105.5256863064236
 30
0.0
 10
37.85987684461805
 20
104.7091986762153
 30
0.0
 10
37.53379855685763
 20
104.4766547309028
 30
0.0
 10
38.02214084201388
 20
103.8022772894965
 30
0.0
 10
38.51048312717013
 20
103.1273830837674
 30
0.0
 10
38.47379286024305
 20
102.881403266059
 30
0.0
 10
38.46862521701389
 20
102.3470689561632
 30
0.0
  0
LINE
  5
2C
330
A
100
AcDbEntity
  8
LAYER_1
 62
     7
100
AcDbLine
 10
32.12069227430555
 20
94.00287543402777
 30
0.0
 11
37.4428480360243
 21
101.6918117947049
 31
0.0
  0
LINE
  5
2B
330
A
100
AcDbEntity
  8
LAYER_1
 62
     7
100
AcDbLine
 10
33.24000379774305
 20
89.54216579861111
 30
0.0
 11
38.7357923719618
 21
97.37062852647568
 31
0.0
  0
LWPOLYLINE
  5
22
330
A
100
AcDbEntity
  8
LAYER_1
 62
     7
100
AcDbPolyline
 90
        7
 70
     0
 43
0.0
 10
38.87170138888889
 20
107.2113715277778
 10
38.84224582248264
 20
102.4922797309028
 10
37.4428480360243
 20
101.6918117947049
 10
40.64937065972222
 20
98.81033393012152
 10
38.78023410373264
 20
97.37217881944443
 10
38.87015109592014
 20
91.67743598090277
 10
32.36873914930555
 20
81.85943060980902
  0
ENDSEC
  0
SECTION
  2
OBJECTS
  0
DICTIONARY
  5
19
330
0
100
AcDbDictionary
281
     1
  3
ACAD_COLOR
350
F2
  3
ACAD_GROUP
350
1A
  3
ACAD_LAYOUT
350
BF
  3
ACAD_MATERIAL
350
F4
  3
ACAD_MLINESTYLE
350
1B
  3
ACAD_PLOTSETTINGS
350
C0
  3
ACAD_PLOTSTYLENAME
350
BD
  3
ACDBHEADERROUNDTRIPXREC
350
F1
  0
DICTIONARY
  5
F2
102
{ACAD_REACTORS
330
19
102
}
330
19
100
AcDbDictionary
281
     1
  0
DICTIONARY
  5
1A
102
{ACAD_REACTORS
330
19
102
}
330
19
100
AcDbDictionary
281
     1
  0
DICTIONARY
  5
BF
102
{ACAD_REACTORS
330
19
102
}
330
19
100
AcDbDictionary
281
     1
  3
Layout1
350
C2
  3
Model
350
C1
  0
DICTIONARY
  5
F4
102
{ACAD_REACTORS
330
19
102
}
330
19
100
AcDbDictionary
281
     1
  0
DICTIONARY
  5
1B
102
{ACAD_REACTORS
330
19
102
}
330
19
100
AcDbDictionary
281
     1
  3
STANDARD
350
1C
  0
DICTIONARY
  5
C0
102
{ACAD_REACTORS
330
19
102
}
330
19
100
AcDbDictionary
281
     1
  0
ACDBDICTIONARYWDFLT
  5
BD
102
{ACAD_REACTORS
330
19
102
}
330
19
100
AcDbDictionary
281
     1
  3
Normal
350
BE
100
AcDbDictionaryWithDefault
340
BE
  0
DICTIONARY
  5
F1
102
{ACAD_REACTORS
330
19
102
}
330
19
100
AcDbDictionary
281
     1
  3
COLORDICT
350
F3
  3
MATERIALDICT
350
F5
  0
LAYOUT
  5
C2
102
{ACAD_REACTORS
330
BF
102
}
102
{ACAD_XDICTIONARY
360
F6
102
}
330
BF
100
AcDbPlotSettings
  1

  2
Support Center HP LaserJet 4
  4

  6

 40
0.0
 41
0.0
 42
0.0
 43
0.0
 44
0.0
 45
0.0
 46
0.0
 47
0.0
 48
0.0
 49
0.0
140
0.0
141
0.0
142
1.0
143
1.0
 70
   688
 72
     0
 73
     0
 74
     5
  7

 75
    16
147
1.0
148
0.0
149
0.0
100
AcDbLayout
  1
Layout1
 70
     0
 71
     1
 10
0.0
 20
0.0
 11
12.0
 21
9.0
 12
0.0
 22
0.0
 32
0.0
 14
1.000000000000000E+20
 24
1.000000000000000E+20
 34
1.000000000000000E+20
 15
-1.000000000000000E+20
 25
-1.000000000000000E+20
 35
-1.000000000000000E+20
146
0.0
 13
0.0
 23
0.0
 33
0.0
 16
1.0
 26
0.0
 36
0.0
 17
0.0
 27
1.0
 37
0.0
 76
     0
330
B
  0
LAYOUT
  5
C1
102
{ACAD_REACTORS
330
BF
102
}
102
{ACAD_XDICTIONARY
360
F8
102
}
330
BF
100
AcDbPlotSettings
  1

  2
Support Center HP LaserJet 4
  4

  6

 40
0.0
 41
0.0
 42
0.0
 43
0.0
 44
0.0
 45
0.0
 46
0.0
 47
0.0
 48
0.0
 49
0.0
140
0.0
141
0.0
142
1.0
143
1.0
 70
  1712
 72
     0
 73
     0
 74
     0
  7

 75
     0
147
1.0
148
0.0
149
0.0
100
AcDbLayout
  1
Model
 70
     1
 71
     0
 10
0.0
 20
0.0
 11
12.0
 21
9.0
 12
0.0
 22
0.0
 32
0.0
 14
0.0
 24
0.0
 34
0.0
 15
0.0
 25
0.0
 35
0.0
146
0.0
 13
0.0
 23
0.0
 33
0.0
 16
1.0
 26
0.0
 36
0.0
 17
0.0
 27
1.0
 37
0.0
 76
     0
330
A
  0
MLINESTYLE
  5
1C
102
{ACAD_REACTORS
330
1B
102
}
330
1B
100
AcDbMlineStyle
  2
STANDARD
 70
     0
  3

 62
     0
 51
90.0000000000002
 52
90.0000000000002
 71
     2
 49
0.5
 62
   256
  6
BYLAYER
 49
-0.5
 62
   256
  6
BYLAYER
  0
ACDBPLACEHOLDER
  5
BE
102
{ACAD_REACTORS
330
BD
102
}
330
BD
  0
XRECORD
  5
F3
102
{ACAD_REACTORS
330
F1
102
}
330
F1
100
AcDbXrecord
340
F2
  0
XRECORD
  5
F5
102
{ACAD_REACTORS
330
F1
102
}
330
F1
100
AcDbXrecord
340
F4
  0
DICTIONARY
  5
F6
330
C2
100
AcDbDictionary
280
     1
281
     1
  3
ACAD_XREC_ROUNDTRIP
360
F7
  0
DICTIONARY
  5
F8
330
C1
100
AcDbDictionary
280
     1
281
     1
  3
ACAD_XREC_ROUNDTRIP
360
F9
  0
XRECORD
  5
F7
102
{ACAD_REACTORS
330
F6
102
}
330
F6
100
AcDbXrecord
102
SHADEPLOT
 70
 30248
102
SHADEPLOTRESLEVEL
 70
 31688
102
SHADEPLOTCUSTOMDPI
 70
-28568
  0
XRECORD
  5
F9
102
{ACAD_REACTORS
330
F8
102
}
330
F8
100
AcDbXrecord
102
SHADEPLOT
 70
 -5928
102
SHADEPLOTRESLEVEL
 70
 -5872
102
SHADEPLOTCUSTOMDPI
 70
 -5816
  0
ENDSEC
  0
EOF
