  0
SECTION
  2
HEADER
  9
$ACADVER
  1
AC1015
  9
$ACADMAINTVER
 70
     6
  9
$DWGCODEPAGE
  3
ANSI_1252
  9
$INSBASE
 10
0.0
 20
0.0
 30
0.0
  9
$EXTMIN
 10
17.89479146469495
 20
38.88735284853825
 30
-0.0015258207003612
  9
$EXTMAX
 10
141.5924939142807
 20
120.5959361073655
 30
0.0000000349246008
  9
$LIMMIN
 10
17.9740966796875
 20
38.75853000217013
  9
$LIMMAX
 10
141.7208930121528
 20
120.7247585720486
  9
$ORTHOMODE
 70
     0
  9
$REGENMODE
 70
     1
  9
$FILLMODE
 70
     1
  9
$QTEXTMODE
 70
     0
  9
$MIRRTEXT
 70
     1
  9
$LTSCALE
 40
1.0
  9
$ATTMODE
 70
     1
  9
$TEXTSIZE
 40
0.2
  9
$TRACEWID
 40
0.05
  9
$TEXTSTYLE
  7
STANDARD
  9
$CLAYER
  8
0
  9
$CELTYPE
  6
CONTINUOUS
  9
$CECOLOR
 62
   256
  9
$CELTSCALE
 40
1.0
  9
$DISPSILH
 70
     0
  9
$DIMSCALE
 40
1.0
  9
$DIMASZ
 40
0.18
  9
$DIMEXO
 40
0.0625
  9
$DIMDLI
 40
0.38
  9
$DIMRND
 40
0.0
  9
$DIMDLE
 40
0.0
  9
$DIMEXE
 40
0.18
  9
$DIMTP
 40
0.0
  9
$DIMTM
 40
0.0
  9
$DIMTXT
 40
0.18
  9
$DIMCEN
 40
0.09
  9
$DIMTSZ
 40
0.0
  9
$DIMTOL
 70
     0
  9
$DIMLIM
 70
     0
  9
$DIMTIH
 70
     1
  9
$DIMTOH
 70
     1
  9
$DIMSE1
 70
     0
  9
$DIMSE2
 70
     0
  9
$DIMTAD
 70
     0
  9
$DIMZIN
 70
     0
  9
$DIMBLK
  1

  9
$DIMASO
 70
     1
  9
$DIMSHO
 70
     1
  9
$DIMPOST
  1

  9
$DIMAPOST
  1

  9
$DIMALT
 70
     0
  9
$DIMALTD
 70
     2
  9
$DIMALTF
 40
25.4
  9
$DIMLFAC
 40
1.0
  9
$DIMTOFL
 70
     0
  9
$DIMTVP
 40
0.0
  9
$DIMTIX
 70
     0
  9
$DIMSOXD
 70
     0
  9
$DIMSAH
 70
     0
  9
$DIMBLK1
  1

  9
$DIMBLK2
  1

  9
$DIMSTYLE
  2
STANDARD
  9
$DIMCLRD
 70
     0
  9
$DIMCLRE
 70
     0
  9
$DIMCLRT
 70
     0
  9
$DIMTFAC
 40
1.0
  9
$DIMGAP
 40
0.09
  9
$DIMJUST
 70
     0
  9
$DIMSD1
 70
     0
  9
$DIMSD2
 70
     0
  9
$DIMTOLJ
 70
     1
  9
$DIMTZIN
 70
     0
  9
$DIMALTZ
 70
     0
  9
$DIMALTTZ
 70
     0
  9
$DIMUPT
 70
     0
  9
$DIMDEC
 70
     4
  9
$DIMTDEC
 70
     4
  9
$DIMALTU
 70
     2
  9
$DIMALTTD
 70
     2
  9
$DIMTXSTY
  7
STANDARD
  9
$DIMAUNIT
 70
     0
  9
$DIMADEC
 70
     0
  9
$DIMALTRND
 40
0.0
  9
$DIMAZIN
 70
     0
  9
$DIMDSEP
 70
    46
  9
$DIMATFIT
 70
     3
  9
$DIMFRAC
 70
     0
  9
$DIMLDRBLK
  1

  9
$DIMLUNIT
 70
     2
  9
$DIMLWD
 70
    -2
  9
$DIMLWE
 70
    -2
  9
$DIMTMOVE
 70
     0
  9
$LUNITS
 70
     2
  9
$LUPREC
 70
     4
  9
$SKETCHINC
 40
0.1
  9
$FILLETRAD
 40
0.0
  9
$AUNITS
 70
     0
  9
$AUPREC
 70
     0
  9
$MENU
  1
acad
  9
$ELEVATION
 40
0.0
  9
$PELEVATION
 40
0.0
  9
$THICKNESS
 40
0.0
  9
$LIMCHECK
 70
     0
  9
$CHAMFERA
 40
0.0
  9
$CHAMFERB
 40
0.0
  9
$CHAMFERC
 40
0.0
  9
$CHAMFERD
 40
0.0
  9
$SKPOLY
 70
     0
  9
$TDCREATE
 40
2444971.666666667
  9
$TDUCREATE
 40
2444972.0
  9
$TDUPDATE
 40
2452219.397219908
  9
$TDUUPDATE
 40
2452219.730553241
  9
$TDINDWG
 40
0.0002956019
  9
$TDUSRTIMER
 40
0.0002956019
  9
$USRTIMER
 70
     1
  9
$ANGBASE
 50
0.0
  9
$ANGDIR
 70
     0
  9
$PDMODE
 70
     0
  9
$PDSIZE
 40
0.0
  9
$PLINEWID
 40
0.0
  9
$SPLFRAME
 70
     0
  9
$SPLINETYPE
 70
     6
  9
$SPLINESEGS
 70
     8
  9
$HANDSEED
  5
F5
  9
$SURFTAB1
 70
     6
  9
$SURFTAB2
 70
     6
  9
$SURFTYPE
 70
     6
  9
$SURFU
 70
     6
  9
$SURFV
 70
     6
  9
$UCSBASE
  2

  9
$UCSNAME
  2

  9
$UCSORG
 10
0.0
 20
0.0
 30
0.0
  9
$UCSXDIR
 10
1.0
 20
0.0
 30
0.0
  9
$UCSYDIR
 10
0.0
 20
1.0
 30
0.0
  9
$UCSORTHOREF
  2

  9
$UCSORTHOVIEW
 70
     0
  9
$UCSORGTOP
 10
0.0
 20
0.0
 30
0.0
  9
$UCSORGBOTTOM
 10
0.0
 20
0.0
 30
0.0
  9
$UCSORGLEFT
 10
0.0
 20
0.0
 30
0.0
  9
$UCSORGRIGHT
 10
0.0
 20
0.0
 30
0.0
  9
$UCSORGFRONT
 10
0.0
 20
0.0
 30
0.0
  9
$UCSORGBACK
 10
0.0
 20
0.0
 30
0.0
  9
$PUCSBASE
  2

  9
$PUCSNAME
  2

  9
$PUCSORG
 10
0.0
 20
0.0
 30
0.0
  9
$PUCSXDIR
 10
1.0
 20
0.0
 30
0.0
  9
$PUCSYDIR
 10
0.0
 20
1.0
 30
0.0
  9
$PUCSORTHOREF
  2

  9
$PUCSORTHOVIEW
 70
     0
  9
$PUCSORGTOP
 10
0.0
 20
0.0
 30
0.0
  9
$PUCSORGBOTTOM
 10
0.0
 20
0.0
 30
0.0
  9
$PUCSORGLEFT
 10
0.0
 20
0.0
 30
0.0
  9
$PUCSORGRIGHT
 10
0.0
 20
0.0
 30
0.0
  9
$PUCSORGFRONT
 10
0.0
 20
0.0
 30
0.0
  9
$PUCSORGBACK
 10
0.0
 20
0.0
 30
0.0
  9
$USERI1
 70
     0
  9
$USERI2
 70
     0
  9
$USERI3
 70
     0
  9
$USERI4
 70
     0
  9
$USERI5
 70
     0
  9
$USERR1
 40
0.0
  9
$USERR2
 40
0.0
  9
$USERR3
 40
0.0
  9
$USERR4
 40
0.0
  9
$USERR5
 40
0.0
  9
$WORLDVIEW
 70
     1
  9
$SHADEDGE
 70
     3
  9
$SHADEDIF
 70
    70
  9
$TILEMODE
 70
     1
  9
$MAXACTVP
 70
    16
  9
$PINSBASE
 10
0.0
 20
0.0
 30
0.0
  9
$PLIMCHECK
 70
     0
  9
$PEXTMIN
 10
1.000000000000000E+20
 20
1.000000000000000E+20
 30
1.000000000000000E+20
  9
$PEXTMAX
 10
-1.000000000000000E+20
 20
-1.000000000000000E+20
 30
-1.000000000000000E+20
  9
$PLIMMIN
 10
0.0
 20
0.0
  9
$PLIMMAX
 10
12.0
 20
9.0
  9
$UNITMODE
 70
     0
  9
$VISRETAIN
 70
     0
  9
$PLINEGEN
 70
     1
  9
$PSLTSCALE
 70
     0
  9
$TREEDEPTH
 70
  3020
  9
$CMLSTYLE
  2
STANDARD
  9
$CMLJUST
 70
     0
  9
$CMLSCALE
 40
1.0
  9
$PROXYGRAPHICS
 70
     0
  9
$MEASUREMENT
 70
     0
  9
$CELWEIGHT
370
    -1
  9
$ENDCAPS
280
     0
  9
$JOINSTYLE
280
     0
  9
$LWDISPLAY
290
     0
  9
$INSUNITS
 70
     0
  9
$HYPERLINKBASE
  1

  9
$STYLESHEET
  1

  9
$XEDIT
290
     1
  9
$CEPSNTYPE
380
     0
  9
$PSTYLEMODE
290
     1
  9
$FINGERPRINTGUID
  2
{0AE0CFB4-D1C7-11D5-923F-00805F198AD5}
  9
$VERSIONGUID
  2
{0AE0CFB6-D1C7-11D5-923F-00805F198AD5}
  9
$EXTNAMES
290
     1
  9
$PSVPSCALE
 40
0.0
  9
$OLESTARTUP
290
     0
  0
ENDSEC
  0
SECTION
  2
CLASSES
  0
CLASS
  1
LWPOLYLINE
  2
AcDbPolyline
  3
AutoCAD 2000
 90
        0
280
     0
281
     1
  0
CLASS
  1
IMAGE
  2
AcDbRasterImage
  3
ISM
 90
      127
280
     0
281
     1
  0
CLASS
  1
OLE2FRAME
  2
AcDbOle2Frame
  3
AutoCAD 2000
 90
        0
280
     0
281
     1
  0
CLASS
  1
HATCH
  2
AcDbHatch
  3
AutoCAD 2000
 90
        0
280
     0
281
     1
  0
CLASS
  1
DICTIONARYVAR
  2
AcDbDictionaryVar
  3
AutoCAD 2000
 90
        0
280
     0
281
     0
  0
CLASS
  1
RASTERVARIABLES
  2
AcDbRasterVariables
  3
ISM
 90
        0
280
     0
281
     0
  0
CLASS
  1
IMAGEDEF
  2
AcDbRasterImageDef
  3
ISM
 90
        0
280
     0
281
     0
  0
CLASS
  1
IMAGEDEF_REACTOR
  2
AcDbRasterImageDefReactor
  3
ISM
 90
        1
280
     0
281
     0
  0
CLASS
  1
IDBUFFER
  2
AcDbIdBuffer
  3
AutoCAD 2000
 90
        0
280
     0
281
     0
  0
CLASS
  1
SPATIAL_FILTER
  2
AcDbSpatialFilter
  3
AutoCAD 2000
 90
        0
280
     0
281
     0
  0
CLASS
  1
XRECORD
  2
AcDbXrecord
  3
AutoCAD 2000
 90
        0
280
     0
281
     0
  0
CLASS
  1
SORTENTSTABLE
  2
AcDbSortentsTable
  3
AutoCAD 2000
 90
        0
280
     0
281
     0
  0
CLASS
  1
LAYER_INDEX
  2
AcDbLayerIndex
  3
AutoCAD 2000
 90
        0
280
     0
281
     0
  0
CLASS
  1
SPATIAL_INDEX
  2
AcDbSpatialIndex
  3
AutoCAD 2000
 90
        0
280
     0
281
     0
  0
CLASS
  1
OBJECT_PTR
  2
CAseDLPNTableRecord
  3
ASE-LPNTableRecord
 90
        1
280
     1
281
     0
  0
CLASS
  1
LAYOUT
  2
AcDbLayout
  3
ObjectDBX Classes
 90
        0
280
     0
281
     0
  0
CLASS
  1
PLOTSETTINGS
  2
AcDbPlotSettings
  3
AutoCAD 2000
 90
        0
280
     0
281
     0
  0
CLASS
  1
ACDBDICTIONARYWDFLT
  2
AcDbDictionaryWithDefault
  3
AutoCAD 2000
 90
        0
280
     0
281
     0
  0
CLASS
  1
ACDBPLACEHOLDER
  2
AcDbPlaceHolder
  3
ObjectDBX Classes
 90
        0
280
     0
281
     0
  0
CLASS
  1
VBAPROJECT
  2
AcDbVbaProject
  3
ObjectDBX Classes
 90
        0
280
     0
281
     0
  0
CLASS
  1
WIPEOUT
  2
AcDbWipeout
  3
WipeOut|AutoCAD Express Tool|expresstools@autodesk.com
 90
      127
280
     0
281
     1
  0
CLASS
  1
WIPEOUTVARIABLES
  2
AcDbWipeoutVariables
  3
WipeOut|AutoCAD Express Tool|expresstools@autodesk.com
 90
        0
280
     0
281
     0
  0
CLASS
  1
RTEXT
  2
RText
  3
RText|AutoCAD Express Tool|expresstools@autodesk.com
 90
        0
280
     0
281
     1
  0
CLASS
  1
ARCALIGNEDTEXT
  2
AcDbArcAlignedText
  3
ATEXT|AutoCAD Express Tool|expresstools@autodesk.com
 90
        0
280
     0
281
     1
  0
CLASS
  1
LONG_TRANSACTION
  2
AcDbLongTransaction
  3
AutoCAD 2000
 90
        0
280
     1
281
     0
  0
CLASS
  1
LWPOLYLINE
  2
AcDbPolyline
  3
AutoCAD 2000
 90
        0
280
     0
281
     1
  0
CLASS
  1
HATCH
  2
AcDbHatch
  3
AutoCAD 2000
 90
        0
280
     0
281
     1
  0
CLASS
  1
XRECORD
  2
AcDbXrecord
  3
AutoCAD 2000
 90
        0
280
     0
281
     0
  0
ENDSEC
  0
SECTION
  2
TABLES
  0
TABLE
  2
VPORT
  5
7
330
0
100
AcDbSymbolTable
 70
     2
  0
VPORT
  5
C1
330
7
100
AcDbSymbolTableRecord
100
AcDbViewportTableRecord
  2
*Active
 70
     0
 10
0.0
 20
0.0
 11
1.0
 21
1.0
 12
79.74364268948784
 22
79.74164447795189
 13
0.0
 23
0.0
 14
1.0
 24
1.0
 15
0.0
 25
0.0
 16
0.0
 26
0.0
 36
1.0
 17
0.0
 27
0.0
 37
0.0
 40
82.99533260148597
 41
1.836842105263158
 42
50.0
 43
0.0
 44
0.0
 50
0.0
 51
0.0
 71
     0
 72
   100
 73
     1
 74
     1
 75
     0
 76
     0
 77
     0
 78
     0
281
     0
 65
     1
110
0.0
120
0.0
130
0.0
111
1.0
121
0.0
131
0.0
112
0.0
122
1.0
132
0.0
 79
     0
146
0.0
  0
ENDTAB
  0
TABLE
  2
LTYPE
  5
4
330
0
100
AcDbSymbolTable
 70
     1
  0
LTYPE
  5
11
330
4
100
AcDbSymbolTableRecord
100
AcDbLinetypeTableRecord
  2
BYBLOCK
 70
     0
  3

 72
    65
 73
     0
 40
0.0
  0
LTYPE
  5
12
330
4
100
AcDbSymbolTableRecord
100
AcDbLinetypeTableRecord
  2
BYLAYER
 70
     0
  3

 72
    65
 73
     0
 40
0.0
  0
LTYPE
  5
13
330
4
100
AcDbSymbolTableRecord
100
AcDbLinetypeTableRecord
  2
CONTINUOUS
 70
     0
  3
Solid line
 72
    65
 73
     0
 40
0.0
  0
ENDTAB
  0
TABLE
  2
LAYER
  5
2
330
0
100
AcDbSymbolTable
 70
     2
  0
LAYER
  5
14
330
2
100
AcDbSymbolTableRecord
100
AcDbLayerTableRecord
  2
0
 70
     0
 62
     7
  6
CONTINUOUS
370
    -3
390
0
  0
LAYER
  5
21
330
2
100
AcDbSymbolTableRecord
100
AcDbLayerTableRecord
  2
LAYER_1
 70
     0
 62
     5
  6
CONTINUOUS
370
    -3
390
0
  0
ENDTAB
  0
TABLE
  2
STYLE
  5
3
330
0
100
AcDbSymbolTable
 70
     5
  0
STYLE
  5
17
330
3
100
AcDbSymbolTableRecord
100
AcDbTextStyleTableRecord
  2
STANDARD
 70
     0
 40
0.0
 41
1.0
 50
0.0
 71
     0
 42
0.2
  3
txt
  4

  0
STYLE
  5
1D
330
3
100
AcDbSymbolTableRecord
100
AcDbTextStyleTableRecord
  2
STD
 70
     0
 40
0.0
 41
1.0
 50
0.0
 71
     0
 42
0.2
  3
txt
  4

  0
STYLE
  5
1E
330
3
100
AcDbSymbolTableRecord
100
AcDbTextStyleTableRecord
  2
TATESTD
 70
     4
 40
0.0
 41
1.0
 50
0.0
 71
     0
 42
0.2
  3
txt
  4

  0
STYLE
  5
1F
330
3
100
AcDbSymbolTableRecord
100
AcDbTextStyleTableRecord
  2
KANJISTD
 70
     0
 40
0.0
 41
1.0
 50
0.0
 71
     0
 42
0.2
  3
txt
  4
extfont
  0
STYLE
  5
20
330
3
100
AcDbSymbolTableRecord
100
AcDbTextStyleTableRecord
  2
KANJITATE
 70
     4
 40
0.0
 41
1.0
 50
0.0
 71
     0
 42
0.2
  3
txt
  4
extfont
  0
ENDTAB
  0
TABLE
  2
VIEW
  5
5
330
0
100
AcDbSymbolTable
 70
     0
  0
ENDTAB
  0
TABLE
  2
UCS
  5
6
330
0
100
AcDbSymbolTable
 70
     0
  0
ENDTAB
  0
TABLE
  2
APPID
  5
8
330
0
100
AcDbSymbolTable
 70
     1
  0
APPID
  5
16
330
8
100
AcDbSymbolTableRecord
100
AcDbRegAppTableRecord
  2
ACAD
 70
     0
  0
ENDTAB
  0
TABLE
  2
DIMSTYLE
  5
9
330
0
100
AcDbSymbolTable
 70
     1
100
AcDbDimStyleTable
  0
DIMSTYLE
105
18
330
9
100
AcDbSymbolTableRecord
100
AcDbDimStyleTableRecord
  2
STANDARD
 70
     0
  3

  4

289
     0
340
17
  0
ENDTAB
  0
TABLE
  2
BLOCK_RECORD
  5
1
330
0
100
AcDbSymbolTable
 70
     0
  0
BLOCK_RECORD
  5
A
330
1
100
AcDbSymbolTableRecord
100
AcDbBlockTableRecord
  2
*MODEL_SPACE
340
BC
  0
BLOCK_RECORD
  5
B
330
1
100
AcDbSymbolTableRecord
100
AcDbBlockTableRecord
  2
*PAPER_SPACE
340
BD
  0
ENDTAB
  0
ENDSEC
  0
SECTION
  2
BLOCKS
  0
BLOCK
  5
D
330
A
100
AcDbEntity
  8
0
100
AcDbBlockBegin
  2
*MODEL_SPACE
 70
     0
 10
0.0
 20
0.0
 30
0.0
  3
*MODEL_SPACE
  1

  4

  0
ENDBLK
  5
E
330
A
100
AcDbEntity
  8
0
100
AcDbBlockEnd
  0
BLOCK
  5
F
330
B
100
AcDbEntity
 67
     1
  8
0
100
AcDbBlockBegin
  2
*PAPER_SPACE
 70
     0
 10
0.0
 20
0.0
 30
0.0
  3
*PAPER_SPACE
  1

  4

  0
ENDBLK
  5
10
330
B
100
AcDbEntity
 67
     1
  8
0
100
AcDbBlockEnd
  0
ENDSEC
  0
SECTION
  2
ENTITIES
  0
LWPOLYLINE
  5
9E
330
A
100
AcDbEntity
  8
LAYER_1
 62
     7
100
AcDbPolyline
 90
       23
 70
     1
 43
0.0
 10
18.14910753038194
 20
108.4684868706597
 10
23.97855360243056
 20
111.3833821614583
 10
24.02092827690972
 20
113.9603135850694
 10
31.49850802951389
 20
113.1576063368055
 10
31.49850802951389
 20
115.6079305013021
 10
41.12996148003472
 20
120.5924669053819
 10
141.5886013454861
 20
101.5824300130208
 10
141.3770724826389
 20
86.96592339409722
 10
128.365980360243
 20
85.14898003472221
 10
128.112249077691
 20
83.54391004774305
 10
119.2411282009549
 20
85.36050889756943
 10
119.1567233615451
 20
84.00865342881944
 10
109.5667833116319
 20
82.57239312065971
 10
103.5258083767361
 20
83.33255343967014
 10
103.1034396701389
 20
41.84791937934028
 10
90.68352593315971
 20
41.42555067274305
 10
90.00725368923611
 20
39.65132649739583
 10
72.349072265625
 20
38.8908216688368
 10
70.3212890625
 20
43.6221435546875
 10
67.78638780381944
 20
43.45333387586805
 10
59.25340304904513
 20
44.38282063802083
 10
59.59102240668403
 20
87.9794704861111
 10
18.10638834635417
 20
92.3730007595486
  0
SPLINE
  5
9D
330
A
100
AcDbEntity
  8
LAYER_1
 62
     7
100
AcDbSpline
210
0.0
220
0.0
230
1.0
 70
     8
 71
     3
 72
    20
 73
    16
 74
     0
 42
0.0000000001
 43
0.0000000001
 40
0.0
 40
0.0
 40
0.0
 40
0.0
 40
1.0
 40
1.0
 40
1.0
 40
2.0
 40
2.0
 40
2.0
 40
3.0
 40
3.0
 40
3.0
 40
4.0
 40
4.0
 40
4.0
 40
5.0
 40
5.0
 40
5.0
 40
5.0
 10
75.65309109157985
 20
63.3823499891493
 30
0.0
 10
75.65309109157985
 20
63.3823499891493
 30
0.0
 10
75.68650851779513
 20
75.263623046875
 30
0.0
 10
75.68650851779513
 20
75.263623046875
 30
0.0
 10
75.68650851779513
 20
75.263623046875
 30
0.0
 10
83.23385145399305
 20
88.65953233506944
 30
0.0
 10
83.83984374999999
 20
89.83861626519096
 30
0.0
 10
85.44525824652777
 20
92.96452365451388
 30
0.0
 10
82.36086425781249
 20
94.14756944444444
 30
0.0
 10
80.33342556423611
 20
93.97841525607637
 30
0.0
 10
78.3056423611111
 20
93.80960557725693
 30
0.0
 10
64.61827799479165
 20
92.79536946614583
 30
0.0
 10
64.61827799479165
 20
92.79536946614583
 30
0.0
 10
64.61827799479165
 20
92.79536946614583
 30
0.0
 10
50.55057508680555
 20
94.44298638237846
 30
0.0
 10
50.55057508680555
 20
94.44298638237846
 30
0.0
  0
SPLINE
  5
9C
330
A
100
AcDbEntity
  8
LAYER_1
 62
     7
100
AcDbSpline
210
0.0
220
0.0
230
1.0
 70
     8
 71
     3
 72
    41
 73
    37
 74
     0
 42
0.0000000001
 43
0.0000000001
 40
0.0
 40
0.0
 40
0.0
 40
0.0
 40
1.0
 40
1.0
 40
1.0
 40
2.0
 40
2.0
 40
2.0
 40
3.0
 40
3.0
 40
3.0
 40
4.0
 40
4.0
 40
4.0
 40
5.0
 40
5.0
 40
5.0
 40
6.0
 40
6.0
 40
6.0
 40
7.0
 40
7.0
 40
7.0
 40
8.0
 40
8.0
 40
8.0
 40
9.0
 40
9.0
 40
9.0
 40
10.0
 40
10.0
 40
10.0
 40
11.0
 40
11.0
 40
11.0
 40
12.0
 40
12.0
 40
12.0
 40
12.0
 10
130.0685465494792
 20
100.7294243706597
 30
0.0
 10
130.0685465494792
 20
100.7294243706597
 30
0.0
 10
130.900537109375
 20
99.8082058376736
 30
0.0
 10
130.900537109375
 20
99.8082058376736
 30
0.0
 10
130.900537109375
 20
99.8082058376736
 30
0.0
 10
130.8450710720486
 20
89.92422688802083
 30
0.0
 10
130.8161322699653
 20
89.37352837456596
 30
0.0
 10
130.7741021050347
 20
88.57133789062499
 30
0.0
 10
130.7741021050347
 20
87.85303548177083
 30
0.0
 10
129.7176635742187
 20
87.68370903862846
 30
0.0
 10
128.6617418077257
 20
87.51489935980902
 30
0.0
 10
120.8039957682292
 20
86.2896511501736
 30
0.0
 10
120.8039957682292
 20
86.2896511501736
 30
0.0
 10
120.8039957682292
 20
86.2896511501736
 30
0.0
 10
117.8045233832465
 20
86.03609212239583
 30
0.0
 10
117.8045233832465
 20
86.03609212239583
 30
0.0
 10
117.8045233832465
 20
86.03609212239583
 30
0.0
 10
105.9339301215278
 20
87.59930419921874
 30
0.0
 10
105.9339301215278
 20
87.59930419921874
 30
0.0
 10
105.9339301215278
 20
87.59930419921874
 30
0.0
 10
104.1171590169271
 20
89.79606933593749
 30
0.0
 10
104.1171590169271
 20
89.79606933593749
 30
0.0
 10
104.1171590169271
 20
89.79606933593749
 30
0.0
 10
98.83668891059027
 20
78.05208333333333
 30
0.0
 10
98.83668891059027
 20
78.05208333333333
 30
0.0
 10
98.83668891059027
 20
78.05208333333333
 30
0.0
 10
98.62516004774305
 20
60.18237304687499
 30
0.0
 10
98.62516004774305
 20
60.18237304687499
 30
0.0
 10
98.62516004774305
 20
60.18237304687499
 30
0.0
 10
95.71060926649305
 20
57.18307291666666
 30
0.0
 10
95.71060926649305
 20
57.18307291666666
 30
0.0
 10
95.71060926649305
 20
57.18307291666666
 30
0.0
 10
77.12259657118055
 20
57.43628743489583
 30
0.0
 10
77.12259657118055
 20
57.43628743489583
 30
0.0
 10
77.12259657118055
 20
57.43628743489583
 30
0.0
 10
76.01344807942708
 20
59.5281494140625
 30
0.0
 10
76.01344807942708
 20
59.5281494140625
 30
0.0
  0
SPLINE
  5
9B
330
A
100
AcDbEntity
  8
LAYER_1
 62
     7
100
AcDbSpline
210
0.0
220
0.0
230
1.0
 70
     8
 71
     3
 72
    32
 73
    28
 74
     0
 42
0.0000000001
 43
0.0000000001
 40
0.0
 40
0.0
 40
0.0
 40
0.0
 40
1.0
 40
1.0
 40
1.0
 40
2.0
 40
2.0
 40
2.0
 40
3.0
 40
3.0
 40
3.0
 40
4.0
 40
4.0
 40
4.0
 40
5.0
 40
5.0
 40
5.0
 40
6.0
 40
6.0
 40
6.0
 40
7.0
 40
7.0
 40
7.0
 40
8.0
 40
8.0
 40
8.0
 40
9.0
 40
9.0
 40
9.0
 40
9.0
 10
47.1848890516493
 20
95.87011718749999
 30
0.0
 10
47.1848890516493
 20
95.87011718749999
 30
0.0
 10
46.79077012803819
 20
96.00619845920139
 30
0.0
 10
46.79077012803819
 20
96.00619845920139
 30
0.0
 10
46.79077012803819
 20
96.00619845920139
 30
0.0
 10
45.27027723524305
 20
96.89331054687499
 30
0.0
 10
45.27027723524305
 20
96.89331054687499
 30
0.0
 10
45.27027723524305
 20
96.89331054687499
 30
0.0
 10
45.35468207465277
 20
97.56941053602429
 30
0.0
 10
45.35468207465277
 20
97.56941053602429
 30
0.0
 10
45.35468207465277
 20
97.56941053602429
 30
0.0
 10
49.53702799479166
 20
98.92109375
 30
0.0
 10
50.00159912109375
 20
99.00549858940971
 30
0.0
 10
50.46617024739583
 20
99.08990342881944
 30
0.0
 10
50.80430636935763
 20
99.17430826822915
 30
0.0
 10
50.8465087890625
 20
99.85058051215277
 30
0.0
 10
50.88871120876735
 20
100.5265082465278
 30
0.0
 10
50.8465087890625
 20
112.6084581163194
 30
0.0
 10
50.8465087890625
 20
112.6084581163194
 30
0.0
 10
50.8465087890625
 20
112.6084581163194
 30
0.0
 10
54.35275472005208
 20
115.5235256618924
 30
0.0
 10
54.35275472005208
 20
115.5235256618924
 30
0.0
 10
54.35275472005208
 20
115.5235256618924
 30
0.0
 10
55.44054361979166
 20
115.8571831597222
 30
0.0
 10
55.44054361979166
 20
115.8571831597222
 30
0.0
 10
55.44054361979166
 20
115.8571831597222
 30
0.0
 10
127.9306925455729
 20
102.538616265191
 30
0.0
 10
127.9306925455729
 20
102.538616265191
 30
0.0
  0
SPLINE
  5
9A
330
A
100
AcDbEntity
  8
LAYER_1
 62
     7
100
AcDbSpline
210
0.0
220
0.0
230
1.0
 70
    11
 71
     3
 72
    23
 73
    19
 74
     0
 42
0.0000000001
 43
0.0000000001
 40
0.0
 40
0.0
 40
0.0
 40
0.0
 40
1.0
 40
1.0
 40
1.0
 40
2.0
 40
2.0
 40
2.0
 40
3.0
 40
3.0
 40
3.0
 40
4.0
 40
4.0
 40
4.0
 40
5.0
 40
5.0
 40
5.0
 40
6.0
 40
6.0
 40
6.0
 40
6.0
 10
47.27652859157985
 20
95.58382975260416
 30
0.0
 10
47.17093641493055
 20
95.79466959635415
 30
0.0
 10
46.83297254774305
 20
96.53415934244791
 30
0.0
 10
47.9104261610243
 20
96.72450086805554
 30
0.0
 10
48.98787977430555
 20
96.91432562934027
 30
0.0
 10
50.79741617838541
 20
97.02422417534721
 30
0.0
 10
51.94463297526041
 20
96.49195692274304
 30
0.0
 10
53.01554090711805
 20
95.99414062499999
 30
0.0
 10
52.40972086588541
 20
95.05569661458333
 30
0.0
 10
51.52209201388889
 20
94.90755750868054
 30
0.0
 10
50.63497992621527
 20
94.75993516710069
 30
0.0
 10
50.31854790581597
 20
94.90755750868054
 30
0.0
 10
50.08600396050347
 20
94.88654242621527
 30
0.0
 10
49.85346001519097
 20
94.86552734374999
 30
0.0
 10
50.00556098090277
 20
94.67553032769096
 30
0.0
 10
49.57905815972222
 20
94.67553032769096
 30
0.0
 10
48.56551106770833
 20
94.67553032769096
 30
0.0
 10
47.38246527777778
 20
95.37230088975694
 30
0.0
 10
47.27652859157985
 20
95.58382975260416
 30
0.0
  0
SPLINE
  5
99
330
A
100
AcDbEntity
  8
LAYER_1
 62
     7
100
AcDbSpline
210
0.0
220
0.0
230
1.0
 70
    11
 71
     3
 72
    17
 73
    13
 74
     0
 42
0.0000000001
 43
0.0000000001
 40
0.0
 40
0.0
 40
0.0
 40
0.0
 40
1.0
 40
1.0
 40
1.0
 40
2.0
 40
2.0
 40
2.0
 40
3.0
 40
3.0
 40
3.0
 40
4.0
 40
4.0
 40
4.0
 40
4.0
 10
75.43277723524305
 20
62.5482923719618
 30
0.0
 10
75.66532118055555
 20
64.02675509982639
 30
0.0
 10
77.14498969184027
 20
64.33853624131943
 30
0.0
 10
77.54513753255208
 20
64.04777018229166
 30
0.0
 10
79.25614420572916
 20
62.80150689019096
 30
0.0
 10
78.43224962022569
 20
59.76000434027777
 30
0.0
 10
77.84089898003471
 20
59.35865071614583
 30
0.0
 10
77.24972059461805
 20
58.95729709201388
 30
0.0
 10
76.78463270399305
 20
58.64034830729166
 30
0.0
 10
75.70769585503471
 20
60.09796820746527
 30
0.0
 10
75.36043023003471
 20
60.56787923177082
 30
0.0
 10
75.3721435546875
 20
62.1636474609375
 30
0.0
 10
75.43277723524305
 20
62.5482923719618
 30
0.0
  0
LINE
  5
98
330
A
100
AcDbEntity
  8
LAYER_1
 62
     7
100
AcDbLine
 10
103.5258083767361
 20
83.33255343967014
 30
0.0
 11
103.5258083767361
 21
88.29641927083333
 31
0.0
  0
LINE
  5
97
330
A
100
AcDbEntity
  8
LAYER_1
 62
     7
100
AcDbLine
 10
59.59102240668403
 20
88.06387532552083
 30
0.0
 11
83.07916666666667
 21
93.21773817274304
 31
0.0
  0
SPLINE
  5
96
330
A
100
AcDbEntity
  8
LAYER_1
 62
     7
100
AcDbSpline
210
0.0
220
0.0
230
1.0
 70
     8
 71
     3
 72
    11
 73
     7
 74
     0
 42
0.0000000001
 43
0.0000000001
 40
0.0
 40
0.0
 40
0.0
 40
0.0
 40
1.0
 40
1.0
 40
1.0
 40
2.0
 40
2.0
 40
2.0
 40
2.0
 10
76.6158230251736
 20
42.31266276041666
 30
0.0
 10
76.44701334635415
 20
41.99571397569444
 30
0.0
 10
76.38362358940971
 20
41.57334526909722
 30
0.0
 10
76.15107964409721
 20
41.15080430772569
 30
0.0
 10
75.91853569878471
 20
40.72826334635416
 30
0.0
 10
75.3907470703125
 20
39.35539279513888
 30
0.0
 10
75.43277723524305
 20
39.10183376736111
 30
0.0
  0
SPLINE
  5
95
330
A
100
AcDbEntity
  8
LAYER_1
 62
     7
100
AcDbSpline
210
0.0
220
0.0
230
1.0
 70
     8
 71
     3
 72
    14
 73
    10
 74
     0
 42
0.0000000001
 43
0.0000000001
 40
0.0
 40
0.0
 40
0.0
 40
0.0
 40
1.0
 40
1.0
 40
1.0
 40
2.0
 40
2.0
 40
2.0
 40
3.0
 40
3.0
 40
3.0
 40
3.0
 10
77.8620863172743
 20
39.14403618706597
 30
0.0
 10
78.05208333333333
 20
39.56692165798611
 30
0.0
 10
78.24225260416667
 20
39.63031141493055
 30
0.0
 10
78.22123752170138
 20
39.98929036458333
 30
0.0
 10
78.2002224392361
 20
40.34861382378472
 30
0.0
 10
78.22123752170138
 20
40.53843858506944
 30
0.0
 10
78.41106228298611
 20
40.83437228732639
 30
0.0
 10
78.60157606336804
 20
41.1296169704861
 30
0.0
 10
78.85479058159721
 20
41.57334526909722
 30
0.0
 10
78.91800808376735
 20
42.05910373263889
 30
0.0
  0
SPLINE
  5
94
330
A
100
AcDbEntity
  8
LAYER_1
 62
     7
100
AcDbSpline
210
0.0
220
0.0
230
1.0
 70
     8
 71
     3
 72
    11
 73
     7
 74
     0
 42
0.0000000001
 43
0.0000000001
 40
0.0
 40
0.0
 40
0.0
 40
0.0
 40
1.0
 40
1.0
 40
1.0
 40
2.0
 40
2.0
 40
2.0
 40
2.0
 10
81.51647135416665
 20
41.76351453993055
 30
0.0
 10
81.38934733072917
 20
41.32013075086805
 30
0.0
 10
81.32612982855902
 20
40.83437228732639
 30
0.0
 10
81.22053765190971
 20
40.5806410047743
 30
0.0
 10
81.11511773003471
 20
40.32690972222222
 30
0.0
 10
80.7981689453125
 20
39.69352891710069
 30
0.0
 10
80.71376410590277
 20
39.27098795572916
 30
0.0
  0
SPLINE
  5
93
330
A
100
AcDbEntity
  8
LAYER_1
 62
     7
100
AcDbSpline
210
0.0
220
0.0
230
1.0
 70
     8
 71
     3
 72
     8
 73
     4
 74
     0
 42
0.0000000001
 43
0.0000000001
 40
0.0
 40
0.0
 40
0.0
 40
0.0
 40
1.0
 40
1.0
 40
1.0
 40
1.0
 10
83.69204915364583
 20
41.50995551215277
 30
0.0
 10
83.50170762803819
 20
40.93979220920139
 30
0.0
 10
83.07916666666667
 20
39.88352593315972
 30
0.0
 10
82.86832682291666
 20
39.37658013237847
 30
0.0
  0
SPLINE
  5
92
330
A
100
AcDbEntity
  8
LAYER_1
 62
     7
100
AcDbSpline
210
0.0
220
0.0
230
1.0
 70
     8
 71
     3
 72
     8
 73
     4
 74
     0
 42
0.0000000001
 43
0.0000000001
 40
0.0
 40
0.0
 40
0.0
 40
0.0
 40
1.0
 40
1.0
 40
1.0
 40
1.0
 10
86.05745171440971
 20
41.27741156684027
 30
0.0
 10
85.78322211371527
 20
40.79165310329861
 30
0.0
 10
85.31813422309027
 20
39.77793375651041
 30
0.0
 10
85.33966606987846
 20
39.48217230902777
 30
0.0
  0
SPLINE
  5
91
330
A
100
AcDbEntity
  8
LAYER_1
 62
     7
100
AcDbSpline
210
0.0
220
0.0
230
1.0
 70
     8
 71
     3
 72
     8
 73
     4
 74
     0
 42
0.0000000001
 43
0.0000000001
 40
0.0
 40
0.0
 40
0.0
 40
0.0
 40
1.0
 40
1.0
 40
1.0
 40
1.0
 10
88.57116563585069
 20
41.38334825303819
 30
0.0
 10
88.46557345920138
 20
41.02419704861111
 30
0.0
 10
88.2120144314236
 20
40.01047770182291
 30
0.0
 10
87.81066080729165
 20
39.58793674045138
 30
0.0
  0
LWPOLYLINE
  5
8B
330
A
100
AcDbEntity
  8
LAYER_1
 62
     7
100
AcDbPolyline
 90
        4
 70
     0
 43
0.0
 10
72.349072265625
 20
38.91200900607639
 10
73.97550184461805
 20
42.62961154513889
 10
85.65609809027777
 20
41.27741156684027
 10
90.66233859592013
 20
41.44656575520833
  0
LWPOLYLINE
  5
86
330
A
100
AcDbEntity
  8
LAYER_1
 62
     7
100
AcDbPolyline
 90
        3
 70
     0
 43
0.0
 10
67.78638780381944
 20
43.47452121310764
 10
69.18096245659721
 20
46.07263997395833
 10
70.3212890625
 20
43.64333089192708
  0
LINE
  5
85
330
A
100
AcDbEntity
  8
LAYER_1
 62
     7
100
AcDbLine
 10
106.8634168836805
 20
91.50690375434027
 30
0.0
 11
129.8658026801215
 21
88.29641927083333
 31
0.0
  0
SPLINE
  5
84
330
A
100
AcDbEntity
  8
LAYER_1
 62
     7
100
AcDbSpline
210
0.0
220
0.0
230
1.0
 70
     8
 71
     3
 72
     8
 73
     4
 74
     0
 42
0.0000000001
 43
0.0000000001
 40
0.0
 40
0.0
 40
0.0
 40
0.0
 40
1.0
 40
1.0
 40
1.0
 40
1.0
 10
104.0959716796875
 20
89.79606933593749
 30
0.0
 10
104.4973253038194
 20
90.81013319227429
 30
0.0
 10
105.1312228732639
 20
91.80283745659722
 30
0.0
 10
106.0607096354167
 20
91.63402777777777
 30
0.0
  0
SPLINE
  5
83
330
A
100
AcDbEntity
  8
LAYER_1
 62
     7
100
AcDbSpline
210
0.0
220
0.0
230
1.0
 70
    11
 71
     3
 72
    38
 73
    34
 74
     0
 42
0.0000000001
 43
0.0000000001
 40
0.0
 40
0.0
 40
0.0
 40
0.0
 40
1.0
 40
1.0
 40
1.0
 40
2.0
 40
2.0
 40
2.0
 40
3.0
 40
3.0
 40
3.0
 40
4.0
 40
4.0
 40
4.0
 40
5.0
 40
5.0
 40
5.0
 40
6.0
 40
6.0
 40
6.0
 40
7.0
 40
7.0
 40
7.0
 40
8.0
 40
8.0
 40
8.0
 40
9.0
 40
9.0
 40
9.0
 40
10.0
 40
10.0
 40
10.0
 40
11.0
 40
11.0
 40
11.0
 40
11.0
 10
117.4875745985243
 20
86.01542154947916
 30
0.0
 10
117.5935112847222
 20
86.09982638888889
 30
0.0
 10
117.6357137044271
 20
86.31083848741319
 30
0.0
 10
117.7201185438368
 20
86.37405598958333
 30
0.0
 10
117.8045233832465
 20
86.43779025607638
 30
0.0
 10
117.6779161241319
 20
86.5221950954861
 30
0.0
 10
117.6779161241319
 20
86.5221950954861
 30
0.0
 10
117.6779161241319
 20
86.5221950954861
 30
0.0
 10
117.7833360460069
 20
86.75439453124999
 30
0.0
 10
117.8677408854167
 20
86.71219211154514
 30
0.0
 10
117.9526624891493
 20
86.66998969184027
 30
0.0
 10
118.2480794270833
 20
86.60659993489583
 30
0.0
 10
118.3962185329861
 20
86.48016493055555
 30
0.0
 10
118.5440131293403
 20
86.35304090711804
 30
0.0
 10
118.7548529730903
 20
86.22643364800346
 30
0.0
 10
118.9241794162326
 20
86.37405598958333
 30
0.0
 10
119.0929890950521
 20
86.5221950954861
 30
0.0
 10
119.3255330403646
 20
86.83879937065971
 30
0.0
 10
119.4099378797743
 20
86.69100477430555
 30
0.0
 10
119.494342719184
 20
86.54338243272569
 30
0.0
 10
119.7901041666667
 20
86.31083848741319
 30
0.0
 10
119.5365451388889
 20
86.01542154947916
 30
0.0
 10
119.2195963541667
 20
85.9516872829861
 30
0.0
 10
119.0929890950521
 20
85.90948486328124
 30
0.0
 10
119.0929890950521
 20
85.90948486328124
 30
0.0
 10
119.0929890950521
 20
85.90948486328124
 30
0.0
 10
118.7131673177083
 20
86.16321614583333
 30
0.0
 10
118.7131673177083
 20
86.16321614583333
 30
0.0
 10
118.7131673177083
 20
86.16321614583333
 30
0.0
 10
118.1214721679687
 20
85.93067220052083
 30
0.0
 10
118.1214721679687
 20
85.93067220052083
 30
0.0
 10
118.1214721679687
 20
85.93067220052083
 30
0.0
 10
117.381982421875
 20
85.93067220052083
 30
0.0
 10
117.4875745985243
 20
86.01542154947916
 30
0.0
  0
SPLINE
  5
82
330
A
100
AcDbEntity
  8
LAYER_1
 62
     7
100
AcDbSpline
210
0.0
220
0.0
230
1.0
 70
    11
 71
     3
 72
    17
 73
    13
 74
     0
 42
0.0000000001
 43
0.0000000001
 40
0.0
 40
0.0
 40
0.0
 40
0.0
 40
1.0
 40
1.0
 40
1.0
 40
2.0
 40
2.0
 40
2.0
 40
3.0
 40
3.0
 40
3.0
 40
4.0
 40
4.0
 40
4.0
 40
4.0
 10
120.5717963324653
 20
86.37405598958333
 30
0.0
 10
120.4236572265625
 20
86.64897460937499
 30
0.0
 10
120.3182373046875
 20
86.64897460937499
 30
0.0
 10
120.1914577907986
 20
86.71219211154514
 30
0.0
 10
120.0650227864583
 20
86.77540961371527
 30
0.0
 10
119.7480740017361
 20
86.75439453124999
 30
0.0
 10
119.895696343316
 20
86.58558485243054
 30
0.0
 10
120.0438354492187
 20
86.41643066406249
 30
0.0
 10
120.2126451280382
 20
86.48016493055555
 30
0.0
 10
120.1704427083333
 20
86.20524631076388
 30
0.0
 10
120.2970499674479
 20
86.26863606770833
 30
0.0
 10
120.4663764105903
 20
86.24762098524305
 30
0.0
 10
120.5717963324653
 20
86.37405598958333
 30
0.0
  0
SPLINE
  5
81
330
A
100
AcDbEntity
  8
LAYER_1
 62
     7
100
AcDbSpline
210
0.0
220
0.0
230
1.0
 70
    11
 71
     3
 72
    17
 73
    13
 74
     0
 42
0.0000000001
 43
0.0000000001
 40
0.0
 40
0.0
 40
0.0
 40
0.0
 40
1.0
 40
1.0
 40
1.0
 40
2.0
 40
2.0
 40
2.0
 40
3.0
 40
3.0
 40
3.0
 40
4.0
 40
4.0
 40
4.0
 40
4.0
 10
120.9731499565972
 20
86.60659993489583
 30
0.0
 10
120.76162109375
 20
86.86033121744791
 30
0.0
 10
120.55078125
 20
87.11354573567708
 30
0.0
 10
120.2338324652778
 20
87.26116807725694
 30
0.0
 10
119.9168836805555
 20
87.40930718315971
 30
0.0
 10
119.5365451388889
 20
87.66252170138888
 30
0.0
 10
120.085693359375
 20
87.49371202256944
 30
0.0
 10
120.6351860894097
 20
87.32490234375
 30
0.0
 10
120.9094156901042
 20
87.28287217881943
 30
0.0
 10
121.1629747178819
 20
87.02914089626735
 30
0.0
 10
121.1209445529514
 20
86.83879937065971
 30
0.0
 10
121.0997572157118
 20
86.66998969184027
 30
0.0
 10
120.9731499565972
 20
86.60659993489583
 30
0.0
  0
SPLINE
  5
80
330
A
100
AcDbEntity
  8
LAYER_1
 62
     7
100
AcDbSpline
210
0.0
220
0.0
230
1.0
 70
    11
 71
     3
 72
    17
 73
    13
 74
     0
 42
0.0000000001
 43
0.0000000001
 40
0.0
 40
0.0
 40
0.0
 40
0.0
 40
1.0
 40
1.0
 40
1.0
 40
2.0
 40
2.0
 40
2.0
 40
3.0
 40
3.0
 40
3.0
 40
4.0
 40
4.0
 40
4.0
 40
4.0
 10
116.0302992078993
 20
86.88100179036458
 30
0.0
 10
116.3684353298611
 20
87.38829210069444
 30
0.0
 10
117.5935112847222
 20
87.5360866970486
 30
0.0
 10
118.3540161132812
 20
87.45168185763887
 30
0.0
 10
119.1145209418403
 20
87.36727701822916
 30
0.0
 10
119.0929890950521
 20
87.55710177951389
 30
0.0
 10
118.3962185329861
 20
87.59930419921874
 30
0.0
 10
117.6989312065972
 20
87.6415066189236
 30
0.0
 10
116.2840304904514
 20
87.66252170138888
 30
0.0
 10
115.8403021918403
 20
87.17676323784721
 30
0.0
 10
115.8826768663194
 20
87.11354573567708
 30
0.0
 10
115.9407267252604
 20
86.98952229817708
 30
0.0
 10
116.0302992078993
 20
86.88100179036458
 30
0.0
  0
SPLINE
  5
7F
330
A
100
AcDbEntity
  8
LAYER_1
 62
     7
100
AcDbSpline
210
0.0
220
0.0
230
1.0
 70
    11
 71
     3
 72
    17
 73
    13
 74
     0
 42
0.0000000001
 43
0.0000000001
 40
0.0
 40
0.0
 40
0.0
 40
0.0
 40
1.0
 40
1.0
 40
1.0
 40
2.0
 40
2.0
 40
2.0
 40
3.0
 40
3.0
 40
3.0
 40
4.0
 40
4.0
 40
4.0
 40
4.0
 10
116.7908040364583
 20
86.24762098524305
 30
0.0
 10
116.7908040364583
 20
86.88100179036458
 30
0.0
 10
117.4875745985243
 20
86.94473605685764
 30
0.0
 10
117.8677408854167
 20
86.94473605685764
 30
0.0
 10
118.2480794270833
 20
86.94473605685764
 30
0.0
 10
118.2480794270833
 20
87.0923583984375
 30
0.0
 10
117.8889282226562
 20
87.11354573567708
 30
0.0
 10
117.5301215277778
 20
87.13473307291666
 30
0.0
 10
116.4316528320312
 20
87.00795355902777
 30
0.0
 10
116.4528401692708
 20
86.50118001302083
 30
0.0
 10
116.5582600911458
 20
86.37405598958333
 30
0.0
 10
116.6219943576389
 20
86.30687662760415
 30
0.0
 10
116.7908040364583
 20
86.24762098524305
 30
0.0
  0
SPLINE
  5
7E
330
A
100
AcDbEntity
  8
LAYER_1
 62
     7
100
AcDbSpline
210
0.0
220
0.0
230
1.0
 70
    11
 71
     3
 72
    26
 73
    22
 74
     0
 42
0.0000000001
 43
0.0000000001
 40
0.0
 40
0.0
 40
0.0
 40
0.0
 40
1.0
 40
1.0
 40
1.0
 40
2.0
 40
2.0
 40
2.0
 40
3.0
 40
3.0
 40
3.0
 40
4.0
 40
4.0
 40
4.0
 40
5.0
 40
5.0
 40
5.0
 40
6.0
 40
6.0
 40
6.0
 40
7.0
 40
7.0
 40
7.0
 40
7.0
 10
117.0655504014757
 20
86.12084147135415
 30
0.0
 10
115.9670817057292
 20
86.50118001302083
 30
0.0
 10
115.3993299696181
 20
87.57174343532985
 30
0.0
 10
116.0725016276042
 20
87.85303548177083
 30
0.0
 10
117.3399522569444
 20
88.38082411024305
 30
0.0
 10
119.4969265407986
 20
88.14311252170138
 30
0.0
 10
120.149427625868
 20
88.00065782335069
 30
0.0
 10
121.3107693142361
 20
87.74744330512152
 30
0.0
 10
121.3955186631944
 20
86.86033121744791
 30
0.0
 10
120.9521348741319
 20
86.54338243272569
 30
0.0
 10
120.5084065755208
 20
86.22643364800346
 30
0.0
 10
119.2833306206597
 20
85.93067220052083
 30
0.0
 10
119.1145209418403
 20
85.88829752604165
 30
0.0
 10
118.9453667534722
 20
86.05762396918402
 30
0.0
 10
118.8397745768229
 20
86.16321614583333
 30
0.0
 10
118.6916354709201
 20
86.16321614583333
 30
0.0
 10
118.5440131293403
 20
86.16321614583333
 30
0.0
 10
118.5228257921007
 20
86.09982638888889
 30
0.0
 10
118.3328287760417
 20
85.97270236545138
 30
0.0
 10
118.1426595052083
 20
85.8462673611111
 30
0.0
 10
117.6293402777778
 20
85.92550455729166
 30
0.0
 10
117.0655504014757
 20
86.12084147135415
 30
0.0
  0
LWPOLYLINE
  5
79
330
A
100
AcDbEntity
  8
LAYER_1
 62
     7
100
AcDbPolyline
 90
        3
 70
     0
 43
0.0
 10
128.0752143012153
 20
83.54391004774305
 10
127.3944634331597
 20
85.02237277560764
 10
128.3608127170139
 20
85.14381239149304
  0
LWPOLYLINE
  5
74
330
A
100
AcDbEntity
  8
LAYER_1
 62
     7
100
AcDbPolyline
 90
        3
 70
     0
 43
0.0
 10
119.0774861653646
 20
84.0138210720486
 10
118.2690945095486
 20
85.52966308593749
 10
119.2411282009549
 20
85.36050889756943
  0
SPLINE
  5
73
330
A
100
AcDbEntity
  8
LAYER_1
 62
     7
100
AcDbSpline
210
0.0
220
0.0
230
1.0
 70
    11
 71
     3
 72
    50
 73
    46
 74
     0
 42
0.0000000001
 43
0.0000000001
 40
0.0
 40
0.0
 40
0.0
 40
0.0
 40
1.0
 40
1.0
 40
1.0
 40
2.0
 40
2.0
 40
2.0
 40
3.0
 40
3.0
 40
3.0
 40
4.0
 40
4.0
 40
4.0
 40
5.0
 40
5.0
 40
5.0
 40
6.0
 40
6.0
 40
6.0
 40
7.0
 40
7.0
 40
7.0
 40
8.0
 40
8.0
 40
8.0
 40
9.0
 40
9.0
 40
9.0
 40
10.0
 40
10.0
 40
10.0
 40
11.0
 40
11.0
 40
11.0
 40
12.0
 40
12.0
 40
12.0
 40
13.0
 40
13.0
 40
13.0
 40
14.0
 40
14.0
 40
14.0
 40
15.0
 40
15.0
 40
15.0
 40
15.0
 10
127.3624240451389
 20
100.7905748155382
 30
0.0
 10
127.5632731119792
 20
100.7905748155382
 30
0.0
 10
127.9856418185764
 20
100.8749796549479
 30
0.0
 10
127.9856418185764
 20
100.8749796549479
 30
0.0
 10
127.9856418185764
 20
100.8749796549479
 30
0.0
 10
127.9976996527778
 20
101.1390462239583
 30
0.0
 10
127.9856418185764
 20
101.2234510633681
 30
0.0
 10
127.9646267361111
 20
101.3710734049479
 30
0.0
 10
128.5454698350694
 20
101.4029405381944
 30
0.0
 10
128.5351345486111
 20
101.2551459418403
 30
0.0
 10
128.5244547526042
 20
101.1070068359375
 30
0.0
 10
128.5876722547743
 20
100.6743028428819
 30
0.0
 10
128.5876722547743
 20
100.6743028428819
 30
0.0
 10
128.5876722547743
 20
100.6743028428819
 30
0.0
 10
129.1263129340278
 20
100.2307467990451
 30
0.0
 10
129.2319051106771
 20
100.1041395399305
 30
0.0
 10
129.2530924479167
 20
99.96668023003471
 30
0.0
 10
129.2319051106771
 20
99.73413628472221
 30
0.0
 10
129.2319051106771
 20
99.73413628472221
 30
0.0
 10
129.2319051106771
 20
99.73413628472221
 30
0.0
 10
128.9571587456597
 20
99.85058051215277
 30
0.0
 10
128.8624186197917
 20
99.90346272786458
 30
0.0
 10
128.767333984375
 20
99.95600043402777
 30
0.0
 10
128.6405544704861
 20
99.98786756727429
 30
0.0
 10
128.6298746744792
 20
99.85058051215277
 30
0.0
 10
128.6195393880208
 20
99.71312120225693
 30
0.0
 10
128.6088595920139
 20
99.24837782118054
 30
0.0
 10
128.4080105251736
 20
99.16397298177083
 30
0.0
 10
128.2495361328125
 20
99.21668294270832
 30
0.0
 10
127.9856418185764
 20
99.28041720920137
 30
0.0
 10
127.9222520616319
 20
99.28041720920137
 30
0.0
 10
127.9012369791667
 20
99.38583713107639
 30
0.0
 10
127.9646267361111
 20
99.52329644097222
 30
0.0
 10
128.0066569010417
 20
99.60770128038193
 30
0.0
 10
128.0490315755208
 20
99.69210611979166
 30
0.0
 10
128.0910617404514
 20
100.0510850694444
 30
0.0
 10
128.0700466579861
 20
100.2307467990451
 30
0.0
 10
127.9331041124132
 20
100.2410820855035
 30
0.0
 10
127.4364935980903
 20
100.2519341362847
 30
0.0
 10
127.2992065429687
 20
100.2519341362847
 30
0.0
 10
127.1619194878472
 20
100.2519341362847
 30
0.0
 10
127.0563273111979
 20
100.2832845052083
 30
0.0
 10
127.1092095269097
 20
100.3995564778646
 30
0.0
 10
127.1619194878472
 20
100.5158284505208
 30
0.0
 10
127.1619194878472
 20
100.7905748155382
 30
0.0
 10
127.3624240451389
 20
100.7905748155382
 30
0.0
  0
SPLINE
  5
72
330
A
100
AcDbEntity
  8
LAYER_1
 62
     7
100
AcDbSpline
210
0.0
220
0.0
230
1.0
 70
     8
 71
     3
 72
     8
 73
     4
 74
     0
 42
0.0000000001
 43
0.0000000001
 40
0.0
 40
0.0
 40
0.0
 40
0.0
 40
1.0
 40
1.0
 40
1.0
 40
1.0
 10
127.2466688368055
 20
102.4063245985243
 30
0.0
 10
126.8025960286458
 20
102.300732421875
 30
0.0
 10
126.1692152235243
 20
102.0893758138021
 30
0.0
 10
125.8310791015625
 20
101.1810763888889
 30
0.0
  0
SPLINE
  5
71
330
A
100
AcDbEntity
  8
LAYER_1
 62
     7
100
AcDbSpline
210
0.0
220
0.0
230
1.0
 70
     8
 71
     3
 72
    11
 73
     7
 74
     0
 42
0.0000000001
 43
0.0000000001
 40
0.0
 40
0.0
 40
0.0
 40
0.0
 40
1.0
 40
1.0
 40
1.0
 40
2.0
 40
2.0
 40
2.0
 40
2.0
 10
126.3802273220486
 20
101.0122667100694
 30
0.0
 10
125.7256591796875
 20
99.32244737413194
 30
0.0
 10
127.0351399739583
 20
97.84381239149305
 30
0.0
 10
128.4924153645833
 20
98.49872504340277
 30
0.0
 10
129.9502075195312
 20
99.15329318576389
 30
0.0
 10
129.5488538953993
 20
101.2866685655382
 30
0.0
 10
127.8378472222222
 20
101.7512396918403
 30
0.0
  0
SPLINE
  5
70
330
A
100
AcDbEntity
  8
LAYER_1
 62
     7
100
AcDbSpline
210
0.0
220
0.0
230
1.0
 70
     8
 71
     3
 72
     8
 73
     4
 74
     0
 42
0.0000000001
 43
0.0000000001
 40
0.0
 40
0.0
 40
0.0
 40
0.0
 40
1.0
 40
1.0
 40
1.0
 40
1.0
 10
125.4509128146701
 20
100.1251546223958
 30
0.0
 10
125.3453206380208
 20
98.85787624782985
 30
0.0
 10
126.908704969618
 20
97.01991780598958
 30
0.0
 10
128.8093641493055
 20
97.75940755208333
 30
0.0
  0
SPLINE
  5
6F
330
A
100
AcDbEntity
  8
LAYER_1
 62
     7
100
AcDbSpline
210
0.0
220
0.0
230
1.0
 70
    11
 71
     3
 72
    14
 73
    10
 74
     0
 42
0.0000000001
 43
0.0000000001
 40
0.0
 40
0.0
 40
0.0
 40
0.0
 40
1.0
 40
1.0
 40
1.0
 40
2.0
 40
2.0
 40
2.0
 40
3.0
 40
3.0
 40
3.0
 40
3.0
 10
124.9439670138889
 20
99.99820285373264
 30
0.0
 10
124.8807495117187
 20
97.75940755208333
 30
0.0
 10
127.2888712565104
 20
96.51297200520833
 30
0.0
 10
128.9149563259549
 20
97.80143771701388
 30
0.0
 10
130.143994140625
 20
98.77433268229166
 30
0.0
 10
130.8252617730035
 20
99.97064208984374
 30
0.0
 10
129.1897026909722
 20
101.8149739583333
 30
0.0
 10
127.9951158311632
 20
103.1630398220486
 30
0.0
 10
125.0073567708333
 20
102.2369981553819
 30
0.0
 10
124.9439670138889
 20
99.99820285373264
 30
0.0
  0
SPLINE
  5
6E
330
A
100
AcDbEntity
  8
LAYER_1
 62
     7
100
AcDbSpline
210
0.0
220
0.0
230
1.0
 70
    11
 71
     3
 72
    50
 73
    46
 74
     0
 42
0.0000000001
 43
0.0000000001
 40
0.0
 40
0.0
 40
0.0
 40
0.0
 40
1.0
 40
1.0
 40
1.0
 40
2.0
 40
2.0
 40
2.0
 40
3.0
 40
3.0
 40
3.0
 40
4.0
 40
4.0
 40
4.0
 40
5.0
 40
5.0
 40
5.0
 40
6.0
 40
6.0
 40
6.0
 40
7.0
 40
7.0
 40
7.0
 40
8.0
 40
8.0
 40
8.0
 40
9.0
 40
9.0
 40
9.0
 40
10.0
 40
10.0
 40
10.0
 40
11.0
 40
11.0
 40
11.0
 40
12.0
 40
12.0
 40
12.0
 40
13.0
 40
13.0
 40
13.0
 40
14.0
 40
14.0
 40
14.0
 40
15.0
 40
15.0
 40
15.0
 40
15.0
 10
112.4077813042535
 20
98.93142903645833
 30
0.0
 10
112.6084581163194
 20
98.93142903645833
 30
0.0
 10
113.0308268229167
 20
99.01583387586804
 30
0.0
 10
113.0308268229167
 20
99.01583387586804
 30
0.0
 10
113.0308268229167
 20
99.01583387586804
 30
0.0
 10
113.0428846571181
 20
99.28041720920137
 30
0.0
 10
113.0308268229167
 20
99.3648220486111
 30
0.0
 10
113.0098117404514
 20
99.51244439019096
 30
0.0
 10
113.5906548394097
 20
99.54431152343749
 30
0.0
 10
113.5799750434028
 20
99.39617241753471
 30
0.0
 10
113.5696397569444
 20
99.24837782118054
 30
0.0
 10
113.6330295138889
 20
98.81532931857637
 30
0.0
 10
113.6330295138889
 20
98.81532931857637
 30
0.0
 10
113.6330295138889
 20
98.81532931857637
 30
0.0
 10
114.1716701931424
 20
98.37160101996527
 30
0.0
 10
114.2772623697917
 20
98.24516601562499
 30
0.0
 10
114.2982774522569
 20
98.10770670572916
 30
0.0
 10
114.2772623697917
 20
97.87550726996527
 30
0.0
 10
114.2772623697917
 20
97.87550726996527
 30
0.0
 10
114.2772623697917
 20
97.87550726996527
 30
0.0
 10
114.00234375
 20
97.99195149739583
 30
0.0
 10
113.9076036241319
 20
98.04431694878471
 30
0.0
 10
113.8125189887153
 20
98.09737141927083
 30
0.0
 10
113.6859117296007
 20
98.12872178819444
 30
0.0
 10
113.6750596788194
 20
97.99195149739583
 30
0.0
 10
113.6647243923611
 20
97.85449218749999
 30
0.0
 10
113.6540445963542
 20
97.3897488064236
 30
0.0
 10
113.4533677842882
 20
97.30499945746527
 30
0.0
 10
113.2948933919271
 20
97.35805392795137
 30
0.0
 10
113.0308268229167
 20
97.42127143012152
 30
0.0
 10
112.9676093207465
 20
97.42127143012152
 30
0.0
 10
112.9464219835069
 20
97.52686360677083
 30
0.0
 10
113.0098117404514
 20
97.66415066189235
 30
0.0
 10
113.0520141601562
 20
97.74907226562499
 30
0.0
 10
113.0942165798611
 20
97.83347710503472
 30
0.0
 10
113.136418999566
 20
98.19211154513889
 30
0.0
 10
113.1157484266493
 20
98.37160101996527
 30
0.0
 10
112.9779446072049
 20
98.38245307074652
 30
0.0
 10
112.4818508572049
 20
98.39330512152777
 30
0.0
 10
112.3445638020833
 20
98.39330512152777
 30
0.0
 10
112.2071044921875
 20
98.39330512152777
 30
0.0
 10
112.1016845703125
 20
98.42465549045139
 30
0.0
 10
112.1545667860243
 20
98.54092746310764
 30
0.0
 10
112.2071044921875
 20
98.65719943576389
 30
0.0
 10
112.2071044921875
 20
98.93142903645833
 30
0.0
 10
112.4077813042535
 20
98.93142903645833
 30
0.0
  0
SPLINE
  5
6D
330
A
100
AcDbEntity
  8
LAYER_1
 62
     7
100
AcDbSpline
210
0.0
220
0.0
230
1.0
 70
     8
 71
     3
 72
     8
 73
     4
 74
     0
 42
0.0000000001
 43
0.0000000001
 40
0.0
 40
0.0
 40
0.0
 40
0.0
 40
1.0
 40
1.0
 40
1.0
 40
1.0
 10
112.2915093315972
 20
100.5471788194444
 30
0.0
 10
111.8479532877604
 20
100.4417588975694
 30
0.0
 10
111.2145724826389
 20
100.2307467990451
 30
0.0
 10
110.8764363606771
 20
99.32244737413194
 30
0.0
  0
SPLINE
  5
6C
330
A
100
AcDbEntity
  8
LAYER_1
 62
     7
100
AcDbSpline
210
0.0
220
0.0
230
1.0
 70
     8
 71
     3
 72
    11
 73
     7
 74
     0
 42
0.0000000001
 43
0.0000000001
 40
0.0
 40
0.0
 40
0.0
 40
0.0
 40
1.0
 40
1.0
 40
1.0
 40
2.0
 40
2.0
 40
2.0
 40
2.0
 10
111.4259290907118
 20
99.15329318576389
 30
0.0
 10
110.7708441840278
 20
97.46347384982639
 30
0.0
 10
112.0804972330729
 20
95.9851833767361
 30
0.0
 10
113.5377726236979
 20
96.63975151909722
 30
0.0
 10
114.9955647786458
 20
97.29466417100693
 30
0.0
 10
114.5942111545139
 20
99.42803955078124
 30
0.0
 10
112.8832044813368
 20
99.89261067708333
 30
0.0
  0
SPLINE
  5
6B
330
A
100
AcDbEntity
  8
LAYER_1
 62
     7
100
AcDbSpline
210
0.0
220
0.0
230
1.0
 70
     8
 71
     3
 72
     8
 73
     4
 74
     0
 42
0.0000000001
 43
0.0000000001
 40
0.0
 40
0.0
 40
0.0
 40
0.0
 40
1.0
 40
1.0
 40
1.0
 40
1.0
 10
110.4962700737847
 20
98.26618109809027
 30
0.0
 10
110.3906778971354
 20
96.99873046875
 30
0.0
 10
111.9538899739583
 20
95.16128879123264
 30
0.0
 10
113.8547214084201
 20
95.90077853732637
 30
0.0
  0
SPLINE
  5
6A
330
A
100
AcDbEntity
  8
LAYER_1
 62
     7
100
AcDbSpline
210
0.0
220
0.0
230
1.0
 70
    11
 71
     3
 72
    14
 73
    10
 74
     0
 42
0.0000000001
 43
0.0000000001
 40
0.0
 40
0.0
 40
0.0
 40
0.0
 40
1.0
 40
1.0
 40
1.0
 40
2.0
 40
2.0
 40
2.0
 40
3.0
 40
3.0
 40
3.0
 40
3.0
 10
109.9893242730035
 20
98.13957383897568
 30
0.0
 10
109.9261067708333
 20
95.90077853732637
 30
0.0
 10
112.334228515625
 20
94.65434299045138
 30
0.0
 10
113.9603135850694
 20
95.94280870225694
 30
0.0
 10
115.1891791449653
 20
96.91570366753471
 30
0.0
 10
115.870619032118
 20
98.11201307508679
 30
0.0
 10
114.2348876953125
 20
99.95600043402777
 30
0.0
 10
113.0404730902778
 20
101.3038940429687
 30
0.0
 10
110.0525417751736
 20
100.378369140625
 30
0.0
 10
109.9893242730035
 20
98.13957383897568
 30
0.0
  0
SPLINE
  5
69
330
A
100
AcDbEntity
  8
LAYER_1
 62
     7
100
AcDbSpline
210
0.0
220
0.0
230
1.0
 70
    11
 71
     3
 72
    29
 73
    25
 74
     0
 42
0.0000000001
 43
0.0000000001
 40
0.0
 40
0.0
 40
0.0
 40
0.0
 40
1.0
 40
1.0
 40
1.0
 40
2.0
 40
2.0
 40
2.0
 40
3.0
 40
3.0
 40
3.0
 40
4.0
 40
4.0
 40
4.0
 40
5.0
 40
5.0
 40
5.0
 40
6.0
 40
6.0
 40
6.0
 40
7.0
 40
7.0
 40
7.0
 40
8.0
 40
8.0
 40
8.0
 40
8.0
 10
75.3907470703125
 20
61.95659722222221
 30
0.0
 10
75.3907470703125
 20
61.95659722222221
 30
0.0
 10
75.73766818576388
 20
62.17449951171874
 30
0.0
 10
75.83413085937499
 20
62.25253092447916
 30
0.0
 10
76.15107964409721
 20
62.50574544270832
 30
0.0
 10
76.38362358940971
 20
61.9776123046875
 30
0.0
 10
76.10904947916666
 20
61.80880262586805
 30
0.0
 10
75.89889865451389
 20
61.67926703559027
 30
0.0
 10
75.91853569878471
 20
61.68185085720486
 30
0.0
 10
75.79210069444444
 20
61.61863335503472
 30
0.0
 10
75.66532118055555
 20
61.55524359809027
 30
0.0
 10
75.58091634114582
 20
61.44982367621527
 30
0.0
 10
75.74972601996527
 20
61.38643391927083
 30
0.0
 10
75.91853569878471
 20
61.32304416232638
 30
0.0
 10
75.9612548828125
 20
61.28049723307291
 30
0.0
 10
76.06667480468749
 20
61.23829481336805
 30
0.0
 10
76.1722669813368
 20
61.19609239366319
 30
0.0
 10
75.98192545572915
 20
60.68914659288194
 30
0.0
 10
75.70769585503471
 20
60.85795627170138
 30
0.0
 10
75.43277723524305
 20
61.02728271484374
 30
0.0
 10
75.45396457248263
 20
61.06948513454861
 30
0.0
 10
75.45396457248263
 20
61.06948513454861
 30
0.0
 10
75.45396457248263
 20
61.06948513454861
 30
0.0
 10
75.3907470703125
 20
61.95659722222221
 30
0.0
 10
75.3907470703125
 20
61.95659722222221
 30
0.0
  0
SPLINE
  5
68
330
A
100
AcDbEntity
  8
LAYER_1
 62
     7
100
AcDbSpline
210
0.0
220
0.0
230
1.0
 70
    11
 71
     3
 72
    17
 73
    13
 74
     0
 42
0.0000000001
 43
0.0000000001
 40
0.0
 40
0.0
 40
0.0
 40
0.0
 40
1.0
 40
1.0
 40
1.0
 40
2.0
 40
2.0
 40
2.0
 40
3.0
 40
3.0
 40
3.0
 40
4.0
 40
4.0
 40
4.0
 40
4.0
 10
76.46802842881944
 20
63.98438042534722
 30
0.0
 10
76.86938205295138
 20
63.83624131944444
 30
0.0
 10
77.56356879340277
 20
63.4009535047743
 30
0.0
 10
77.67174479166665
 20
63.13964301215277
 30
0.0
 10
77.81988389756944
 20
62.78031955295138
 30
0.0
 10
78.0730984157986
 20
62.61150987413194
 30
0.0
 10
77.79886881510416
 20
63.18167317708333
 30
0.0
 10
77.6760511610243
 20
63.43661024305555
 30
0.0
 10
77.43954535590277
 20
63.94235026041666
 30
0.0
 10
77.08056640625
 20
64.15319010416665
 30
0.0
 10
76.78463270399305
 20
64.1111599392361
 30
0.0
 10
76.78463270399305
 20
64.04777018229166
 30
0.0
 10
76.46802842881944
 20
63.98438042534722
 30
0.0
  0
SPLINE
  5
67
330
A
100
AcDbEntity
  8
LAYER_1
 62
     7
100
AcDbSpline
210
0.0
220
0.0
230
1.0
 70
     8
 71
     3
 72
     8
 73
     4
 74
     0
 42
0.0000000001
 43
0.0000000001
 40
0.0
 40
0.0
 40
0.0
 40
0.0
 40
1.0
 40
1.0
 40
1.0
 40
1.0
 10
76.93277180989583
 20
59.0417019314236
 30
0.0
 10
78.05208333333333
 20
59.78101942274305
 30
0.0
 10
78.22123752170138
 20
61.21727973090277
 30
0.0
 10
78.09411349826388
 20
62.01998697916666
 30
0.0
  0
SPLINE
  5
66
330
A
100
AcDbEntity
  8
LAYER_1
 62
     7
100
AcDbSpline
210
0.0
220
0.0
230
1.0
 70
    11
 71
     3
 72
    17
 73
    13
 74
     0
 42
0.0000000001
 43
0.0000000001
 40
0.0
 40
0.0
 40
0.0
 40
0.0
 40
1.0
 40
1.0
 40
1.0
 40
2.0
 40
2.0
 40
2.0
 40
3.0
 40
3.0
 40
3.0
 40
4.0
 40
4.0
 40
4.0
 40
4.0
 10
76.00345730251735
 20
59.78101942274305
 30
0.0
 10
76.8483669704861
 20
60.37219780815972
 30
0.0
 10
77.05817328559027
 20
61.17800564236111
 30
0.0
 10
77.01717664930555
 20
61.44982367621527
 30
0.0
 10
76.95378689236111
 20
61.87219238281249
 30
0.0
 10
77.24972059461805
 20
62.10439181857638
 30
0.0
 10
77.2919230143229
 20
61.49185384114583
 30
0.0
 10
77.33412543402777
 20
60.87966037326388
 30
0.0
 10
77.03819173177082
 20
59.8444091796875
 30
0.0
 10
76.31988932291667
 20
59.46407063802083
 30
0.0
 10
76.1972439236111
 20
59.53676215277778
 30
0.0
 10
76.1102552625868
 20
59.61875542534722
 30
0.0
 10
76.00345730251735
 20
59.78101942274305
 30
0.0
  0
SPLINE
  5
65
330
A
100
AcDbEntity
  8
LAYER_1
 62
     7
100
AcDbSpline
210
0.0
220
0.0
230
1.0
 70
    11
 71
     3
 72
    17
 73
    13
 74
     0
 42
0.0000000001
 43
0.0000000001
 40
0.0
 40
0.0
 40
0.0
 40
0.0
 40
1.0
 40
1.0
 40
1.0
 40
2.0
 40
2.0
 40
2.0
 40
3.0
 40
3.0
 40
3.0
 40
4.0
 40
4.0
 40
4.0
 40
4.0
 10
75.87650553385416
 20
63.51980929904514
 30
0.0
 10
76.31988932291667
 20
63.43540445963541
 30
0.0
 10
76.78463270399305
 20
62.90709906684027
 30
0.0
 10
76.89056939019096
 20
62.71710205078124
 30
0.0
 10
76.99616156684027
 20
62.52710503472222
 30
0.0
 10
76.95378689236111
 20
62.21015625
 30
0.0
 10
76.72124294704861
 20
62.46337076822916
 30
0.0
 10
76.48921576605902
 20
62.71710205078124
 30
0.0
 10
76.21446940104165
 20
63.05523817274305
 30
0.0
 10
75.6021036783854
 20
63.07625325520833
 30
0.0
 10
75.66532118055555
 20
63.2240478515625
 30
0.0
 10
75.79210069444444
 20
63.39320203993055
 30
0.0
 10
75.87650553385416
 20
63.51980929904514
 30
0.0
  0
SPLINE
  5
64
330
A
100
AcDbEntity
  8
LAYER_1
 62
     7
100
AcDbSpline
210
0.0
220
0.0
230
1.0
 70
     8
 71
     3
 72
     8
 73
     4
 74
     0
 42
0.0000000001
 43
0.0000000001
 40
0.0
 40
0.0
 40
0.0
 40
0.0
 40
1.0
 40
1.0
 40
1.0
 40
1.0
 10
57.00633951822916
 20
115.248779296875
 30
0.0
 10
56.33023952907985
 20
115.2832302517361
 30
0.0
 10
55.47241075303819
 20
114.862067328559
 30
0.0
 10
55.28206922743055
 20
114.1437649197049
 30
0.0
  0
SPLINE
  5
63
330
A
100
AcDbEntity
  8
LAYER_1
 62
     7
100
AcDbSpline
210
0.0
220
0.0
230
1.0
 70
     8
 71
     3
 72
    11
 73
     7
 74
     0
 42
0.0000000001
 43
0.0000000001
 40
0.0
 40
0.0
 40
0.0
 40
0.0
 40
1.0
 40
1.0
 40
1.0
 40
2.0
 40
2.0
 40
2.0
 40
2.0
 10
56.02138671874999
 20
114.0447184244792
 30
0.0
 10
54.78287489149305
 20
112.1874674479167
 30
0.0
 10
56.48613009982638
 20
110.4962700737847
 30
0.0
 10
58.00713975694444
 20
111.3833821614583
 30
0.0
 10
59.52780490451389
 20
112.2704942491319
 30
0.0
 10
58.32374403211805
 20
114.5942111545139
 30
0.0
 10
57.45764702690972
 20
114.4670871310764
 30
0.0
  0
SPLINE
  5
62
330
A
100
AcDbEntity
  8
LAYER_1
 62
     7
100
AcDbSpline
210
0.0
220
0.0
230
1.0
 70
     8
 71
     3
 72
     8
 73
     4
 74
     0
 42
0.0000000001
 43
0.0000000001
 40
0.0
 40
0.0
 40
0.0
 40
0.0
 40
1.0
 40
1.0
 40
1.0
 40
1.0
 10
54.81732584635416
 20
113.1446872287326
 30
0.0
 10
54.57840847439235
 20
112.6232720269097
 30
0.0
 10
55.41677246093749
 20
110.3288384331597
 30
0.0
 10
57.07730848524305
 20
110.2427110460069
 30
0.0
  0
SPLINE
  5
61
330
A
100
AcDbEntity
  8
LAYER_1
 62
     7
100
AcDbSpline
210
0.0
220
0.0
230
1.0
 70
    11
 71
     3
 72
    14
 73
    10
 74
     0
 42
0.0000000001
 43
0.0000000001
 40
0.0
 40
0.0
 40
0.0
 40
0.0
 40
1.0
 40
1.0
 40
1.0
 40
2.0
 40
2.0
 40
2.0
 40
3.0
 40
3.0
 40
3.0
 40
3.0
 10
54.24716254340277
 20
112.9677815755208
 30
0.0
 10
53.97947862413194
 20
110.6509548611111
 30
0.0
 10
56.42790798611111
 20
109.9946641710069
 30
0.0
 10
57.35222710503471
 20
110.2637261284722
 30
0.0
 10
59.67542724609375
 20
110.9398261176215
 30
0.0
 10
59.6151380750868
 20
112.7025092230903
 30
0.0
 10
59.29560546875
 20
113.7070990668403
 30
0.0
 10
58.66170789930555
 20
115.6923353407118
 30
0.0
 10
54.61544325086805
 20
116.1703423394097
 30
0.0
 10
54.24716254340277
 20
112.9677815755208
 30
0.0
  0
SPLINE
  5
60
330
A
100
AcDbEntity
  8
LAYER_1
 62
     7
100
AcDbSpline
210
0.0
220
0.0
230
1.0
 70
    11
 71
     3
 72
    44
 73
    40
 74
     0
 42
0.0000000001
 43
0.0000000001
 40
0.0
 40
0.0
 40
0.0
 40
0.0
 40
1.0
 40
1.0
 40
1.0
 40
2.0
 40
2.0
 40
2.0
 40
3.0
 40
3.0
 40
3.0
 40
4.0
 40
4.0
 40
4.0
 40
5.0
 40
5.0
 40
5.0
 40
6.0
 40
6.0
 40
6.0
 40
7.0
 40
7.0
 40
7.0
 40
8.0
 40
8.0
 40
8.0
 40
9.0
 40
9.0
 40
9.0
 40
10.0
 40
10.0
 40
10.0
 40
11.0
 40
11.0
 40
11.0
 40
12.0
 40
12.0
 40
12.0
 40
13.0
 40
13.0
 40
13.0
 40
13.0
 10
57.6057861328125
 20
113.6011623806424
 30
0.0
 10
57.6057861328125
 20
113.6011623806424
 30
0.0
 10
57.61749945746527
 20
113.8452473958333
 30
0.0
 10
57.62680121527777
 20
113.9392985026042
 30
0.0
 10
57.64798855251735
 20
114.1501383463542
 30
0.0
 10
58.17594943576388
 20
113.9603135850694
 30
0.0
 10
58.13374701605903
 20
113.8337063259549
 30
0.0
 10
58.09154459635416
 20
113.7070990668403
 30
0.0
 10
58.07052951388889
 20
113.2630262586805
 30
0.0
 10
58.07052951388889
 20
113.2630262586805
 30
0.0
 10
58.07052951388889
 20
113.2630262586805
 30
0.0
 10
58.42916395399305
 20
112.8196424696181
 30
0.0
 10
58.53510064019097
 20
112.6508327907986
 30
0.0
 10
58.64069281684027
 20
112.4820231119792
 30
0.0
 10
58.68272298177083
 20
112.1860894097222
 30
0.0
 10
58.51391330295138
 20
112.2494791666667
 30
0.0
 10
58.34475911458333
 20
112.3126966688368
 30
0.0
 10
58.02815483940972
 20
112.5452406141493
 30
0.0
 10
58.02815483940972
 20
112.5452406141493
 30
0.0
 10
58.02815483940972
 20
112.5452406141493
 30
0.0
 10
57.8167982313368
 20
112.0172797309028
 30
0.0
 10
57.58477105034721
 20
111.869140625
 30
0.0
 10
57.39425726996527
 20
111.9325303819444
 30
0.0
 10
57.22544759114583
 20
111.9962646484375
 30
0.0
 10
57.07730848524305
 20
112.0806694878472
 30
0.0
 10
57.20443250868055
 20
112.3338840060764
 30
0.0
 10
57.52138129340278
 20
112.7562527126736
 30
0.0
 10
57.49984944661458
 20
112.9465942382812
 30
0.0
 10
57.35222710503471
 20
113.030999077691
 30
0.0
 10
56.88748372395833
 20
113.0942165798611
 30
0.0
 10
56.76087646484375
 20
113.1365912543403
 30
0.0
 10
56.63392469618055
 20
113.1786214192708
 30
0.0
 10
56.54951985677083
 20
113.4111653645833
 30
0.0
 10
56.67595486111111
 20
113.5167575412326
 30
0.0
 10
56.8030788845486
 20
113.6223497178819
 30
0.0
 10
56.88748372395833
 20
113.6011623806424
 30
0.0
 10
57.09849582248263
 20
113.6011623806424
 30
0.0
 10
57.30985243055555
 20
113.6011623806424
 30
0.0
 10
57.6057861328125
 20
113.6011623806424
 30
0.0
 10
57.6057861328125
 20
113.6011623806424
 30
0.0
  0
SPLINE
  5
5F
330
A
100
AcDbEntity
  8
LAYER_1
 62
     7
100
AcDbSpline
210
0.0
220
0.0
230
1.0
 70
     8
 71
     3
 72
     8
 73
     4
 74
     0
 42
0.0000000001
 43
0.0000000001
 40
0.0
 40
0.0
 40
0.0
 40
0.0
 40
1.0
 40
1.0
 40
1.0
 40
1.0
 10
76.35434027777777
 20
105.9969753689236
 30
0.0
 10
75.67875705295138
 20
106.0314263237847
 30
0.0
 10
74.8205837673611
 20
105.6102634006076
 30
0.0
 10
74.63006998697917
 20
104.8919609917535
 30
0.0
  0
SPLINE
  5
5E
330
A
100
AcDbEntity
  8
LAYER_1
 62
     7
100
AcDbSpline
210
0.0
220
0.0
230
1.0
 70
     8
 71
     3
 72
    11
 73
     7
 74
     0
 42
0.0000000001
 43
0.0000000001
 40
0.0
 40
0.0
 40
0.0
 40
0.0
 40
1.0
 40
1.0
 40
1.0
 40
2.0
 40
2.0
 40
2.0
 40
2.0
 10
75.3695597330729
 20
104.7932590060764
 30
0.0
 10
74.13156467013889
 20
102.9356635199653
 30
0.0
 10
75.83413085937499
 20
101.2444661458333
 30
0.0
 10
77.35514051649305
 20
102.1315782335069
 30
0.0
 10
78.8758056640625
 20
103.0186903211805
 30
0.0
 10
77.67174479166665
 20
105.3424072265625
 30
0.0
 10
76.80564778645832
 20
105.2157999674479
 30
0.0
  0
SPLINE
  5
5D
330
A
100
AcDbEntity
  8
LAYER_1
 62
     7
100
AcDbSpline
210
0.0
220
0.0
230
1.0
 70
     8
 71
     3
 72
     8
 73
     4
 74
     0
 42
0.0000000001
 43
0.0000000001
 40
0.0
 40
0.0
 40
0.0
 40
0.0
 40
1.0
 40
1.0
 40
1.0
 40
1.0
 10
74.16549886067708
 20
103.8928833007812
 30
0.0
 10
73.92658148871527
 20
103.3714680989583
 30
0.0
 10
74.7649454752604
 20
101.0770345052083
 30
0.0
 10
76.42599826388889
 20
100.9912516276042
 30
0.0
  0
SPLINE
  5
5C
330
A
100
AcDbEntity
  8
LAYER_1
 62
     7
100
AcDbSpline
210
0.0
220
0.0
230
1.0
 70
    11
 71
     3
 72
    14
 73
    10
 74
     0
 42
0.0000000001
 43
0.0000000001
 40
0.0
 40
0.0
 40
0.0
 40
0.0
 40
1.0
 40
1.0
 40
1.0
 40
2.0
 40
2.0
 40
2.0
 40
3.0
 40
3.0
 40
3.0
 40
3.0
 10
73.59533555772569
 20
103.7159776475694
 30
0.0
 10
73.32747938368055
 20
101.3991509331597
 30
0.0
 10
75.77608100043402
 20
100.7428602430556
 30
0.0
 10
76.70022786458333
 20
101.0122667100694
 30
0.0
 10
79.02394476996527
 20
101.6880221896701
 30
0.0
 10
78.96331108940971
 20
103.4507052951389
 30
0.0
 10
78.64360622829861
 20
104.4552951388889
 30
0.0
 10
78.00970865885417
 20
106.4405314127604
 30
0.0
 10
73.96344401041667
 20
106.9185384114583
 30
0.0
 10
73.59533555772569
 20
103.7159776475694
 30
0.0
  0
SPLINE
  5
5B
330
A
100
AcDbEntity
  8
LAYER_1
 62
     7
100
AcDbSpline
210
0.0
220
0.0
230
1.0
 70
    11
 71
     3
 72
    44
 73
    40
 74
     0
 42
0.0000000001
 43
0.0000000001
 40
0.0
 40
0.0
 40
0.0
 40
0.0
 40
1.0
 40
1.0
 40
1.0
 40
2.0
 40
2.0
 40
2.0
 40
3.0
 40
3.0
 40
3.0
 40
4.0
 40
4.0
 40
4.0
 40
5.0
 40
5.0
 40
5.0
 40
6.0
 40
6.0
 40
6.0
 40
7.0
 40
7.0
 40
7.0
 40
8.0
 40
8.0
 40
8.0
 40
9.0
 40
9.0
 40
9.0
 40
10.0
 40
10.0
 40
10.0
 40
11.0
 40
11.0
 40
11.0
 40
12.0
 40
12.0
 40
12.0
 40
13.0
 40
13.0
 40
13.0
 40
13.0
 10
76.95378689236111
 20
104.3498752170139
 30
0.0
 10
76.95378689236111
 20
104.3498752170139
 30
0.0
 10
76.96550021701388
 20
104.5939602322049
 30
0.0
 10
76.97497422960069
 20
104.6874945746528
 30
0.0
 10
76.99616156684027
 20
104.8988511827257
 30
0.0
 10
77.52395019531249
 20
104.708509657118
 30
0.0
 10
77.48192003038194
 20
104.5819023980035
 30
0.0
 10
77.43954535590277
 20
104.4552951388889
 30
0.0
 10
77.4185302734375
 20
104.0117390950521
 30
0.0
 10
77.4185302734375
 20
104.0117390950521
 30
0.0
 10
77.4185302734375
 20
104.0117390950521
 30
0.0
 10
77.77768147786458
 20
103.5681830512153
 30
0.0
 10
77.88327365451389
 20
103.3990288628472
 30
0.0
 10
77.98869357638888
 20
103.2302191840278
 30
0.0
 10
78.03089599609375
 20
102.9342854817708
 30
0.0
 10
77.8620863172743
 20
102.9976752387153
 30
0.0
 10
77.69327663845485
 20
103.0608927408854
 30
0.0
 10
77.37632785373263
 20
103.2934366861979
 30
0.0
 10
77.37632785373263
 20
103.2934366861979
 30
0.0
 10
77.37632785373263
 20
103.2934366861979
 30
0.0
 10
77.16531575520833
 20
102.7654758029514
 30
0.0
 10
76.93277180989583
 20
102.6176812065972
 30
0.0
 10
76.74243028428819
 20
102.6810709635417
 30
0.0
 10
76.57362060546875
 20
102.7444607204861
 30
0.0
 10
76.42599826388889
 20
102.8288655598958
 30
0.0
 10
76.55243326822917
 20
103.082080078125
 30
0.0
 10
76.86938205295138
 20
103.5047932942708
 30
0.0
 10
76.8483669704861
 20
103.6947903103299
 30
0.0
 10
76.70022786458333
 20
103.7791951497396
 30
0.0
 10
76.23548448350694
 20
103.8424126519097
 30
0.0
 10
76.10904947916666
 20
103.8851318359375
 30
0.0
 10
75.98192545572915
 20
103.9268174913194
 30
0.0
 10
75.89752061631944
 20
104.1593614366319
 30
0.0
 10
76.02464463975694
 20
104.2649536132812
 30
0.0
 10
76.15107964409721
 20
104.3708902994792
 30
0.0
 10
76.23548448350694
 20
104.3498752170139
 30
0.0
 10
76.44701334635415
 20
104.3498752170139
 30
0.0
 10
76.65802544487846
 20
104.3498752170139
 30
0.0
 10
76.95378689236111
 20
104.3498752170139
 30
0.0
 10
76.95378689236111
 20
104.3498752170139
 30
0.0
  0
SPLINE
  5
5A
330
A
100
AcDbEntity
  8
LAYER_1
 62
     7
100
AcDbSpline
210
0.0
220
0.0
230
1.0
 70
     8
 71
     3
 72
     8
 73
     4
 74
     0
 42
0.0000000001
 43
0.0000000001
 40
0.0
 40
0.0
 40
0.0
 40
0.0
 40
1.0
 40
1.0
 40
1.0
 40
1.0
 10
94.94200846354165
 20
107.4757826063368
 30
0.0
 10
94.26642523871527
 20
107.509716796875
 30
0.0
 10
93.40807969835069
 20
107.0890706380208
 30
0.0
 10
93.21808268229165
 20
106.3707682291667
 30
0.0
  0
SPLINE
  5
59
330
A
100
AcDbEntity
  8
LAYER_1
 62
     7
100
AcDbSpline
210
0.0
220
0.0
230
1.0
 70
     8
 71
     3
 72
    11
 73
     7
 74
     0
 42
0.0000000001
 43
0.0000000001
 40
0.0
 40
0.0
 40
0.0
 40
0.0
 40
1.0
 40
1.0
 40
1.0
 40
2.0
 40
2.0
 40
2.0
 40
2.0
 10
93.9575724283854
 20
106.271721733941
 30
0.0
 10
92.71906060112846
 20
104.4142985026042
 30
0.0
 10
94.42214355468749
 20
102.7232733832465
 30
0.0
 10
95.94280870225694
 20
103.6103854709201
 30
0.0
 10
97.463818359375
 20
104.4974975585937
 30
0.0
 10
96.25975748697915
 20
106.8206976996528
 30
0.0
 10
95.39366048177082
 20
106.6942626953125
 30
0.0
  0
SPLINE
  5
58
330
A
100
AcDbEntity
  8
LAYER_1
 62
     7
100
AcDbSpline
210
0.0
220
0.0
230
1.0
 70
     8
 71
     3
 72
     8
 73
     4
 74
     0
 42
0.0000000001
 43
0.0000000001
 40
0.0
 40
0.0
 40
0.0
 40
0.0
 40
1.0
 40
1.0
 40
1.0
 40
1.0
 10
92.75351155598958
 20
105.3713460286458
 30
0.0
 10
92.51459418402777
 20
104.8497585720486
 30
0.0
 10
93.3529581705729
 20
102.5553249782986
 30
0.0
 10
95.01349419487846
 20
102.4695421006944
 30
0.0
  0
SPLINE
  5
57
330
A
100
AcDbEntity
  8
LAYER_1
 62
     7
100
AcDbSpline
210
0.0
220
0.0
230
1.0
 70
    11
 71
     3
 72
    14
 73
    10
 74
     0
 42
0.0000000001
 43
0.0000000001
 40
0.0
 40
0.0
 40
0.0
 40
0.0
 40
1.0
 40
1.0
 40
1.0
 40
2.0
 40
2.0
 40
2.0
 40
3.0
 40
3.0
 40
3.0
 40
3.0
 10
92.18283148871527
 20
105.1942681206597
 30
0.0
 10
91.91514756944444
 20
102.87744140625
 30
0.0
 10
94.36409369574652
 20
102.2214952256944
 30
0.0
 10
95.28824055989583
 20
102.490729437934
 30
0.0
 10
97.61161295572916
 20
103.1668294270833
 30
0.0
 10
97.55080702039929
 20
104.9289957682292
 30
0.0
 10
97.2312744140625
 20
105.9335856119792
 30
0.0
 10
96.59772135416665
 20
107.9193386501736
 30
0.0
 10
92.55145670572915
 20
108.3973456488715
 30
0.0
 10
92.18283148871527
 20
105.1942681206597
 30
0.0
  0
SPLINE
  5
56
330
A
100
AcDbEntity
  8
LAYER_1
 62
     7
100
AcDbSpline
210
0.0
220
0.0
230
1.0
 70
    11
 71
     3
 72
    44
 73
    40
 74
     0
 42
0.0000000001
 43
0.0000000001
 40
0.0
 40
0.0
 40
0.0
 40
0.0
 40
1.0
 40
1.0
 40
1.0
 40
2.0
 40
2.0
 40
2.0
 40
3.0
 40
3.0
 40
3.0
 40
4.0
 40
4.0
 40
4.0
 40
5.0
 40
5.0
 40
5.0
 40
6.0
 40
6.0
 40
6.0
 40
7.0
 40
7.0
 40
7.0
 40
8.0
 40
8.0
 40
8.0
 40
9.0
 40
9.0
 40
9.0
 40
10.0
 40
10.0
 40
10.0
 40
11.0
 40
11.0
 40
11.0
 40
12.0
 40
12.0
 40
12.0
 40
13.0
 40
13.0
 40
13.0
 40
13.0
 10
95.541455078125
 20
105.8281656901042
 30
0.0
 10
95.541455078125
 20
105.8281656901042
 30
0.0
 10
95.55351291232638
 20
106.0724229600694
 30
0.0
 10
95.56247016059027
 20
106.1661295572917
 30
0.0
 10
95.58417426215277
 20
106.3773139105903
 30
0.0
 10
96.11196289062499
 20
106.1873168945312
 30
0.0
 10
96.06993272569443
 20
106.0607096354167
 30
0.0
 10
96.02721354166665
 20
105.9335856119792
 30
0.0
 10
96.00619845920139
 20
105.4902018229167
 30
0.0
 10
96.00619845920139
 20
105.4902018229167
 30
0.0
 10
96.00619845920139
 20
105.4902018229167
 30
0.0
 10
96.36517740885415
 20
105.0464735243055
 30
0.0
 10
96.47076958550346
 20
104.8776638454861
 30
0.0
 10
96.57670627170138
 20
104.708509657118
 30
0.0
 10
96.61890869140625
 20
104.413092719184
 30
0.0
 10
96.44958224826388
 20
104.4763102213542
 30
0.0
 10
96.28077256944444
 20
104.5396999782986
 30
0.0
 10
95.96382378472221
 20
104.7722439236111
 30
0.0
 10
95.96382378472221
 20
104.7722439236111
 30
0.0
 10
95.96382378472221
 20
104.7722439236111
 30
0.0
 10
95.75298394097221
 20
104.2437662760417
 30
0.0
 10
95.52043999565971
 20
104.0961439344618
 30
0.0
 10
95.33044297960069
 20
104.1593614366319
 30
0.0
 10
95.16163330078125
 20
104.2227511935764
 30
0.0
 10
95.01349419487846
 20
104.3071560329861
 30
0.0
 10
95.14010145399304
 20
104.5607150607639
 30
0.0
 10
95.45705023871527
 20
104.9832560221354
 30
0.0
 10
95.43603515624999
 20
105.1732530381944
 30
0.0
 10
95.28824055989583
 20
105.2580023871528
 30
0.0
 10
94.82349717881944
 20
105.3213921440972
 30
0.0
 10
94.69654541015625
 20
105.3634223090278
 30
0.0
 10
94.56993815104165
 20
105.4057969835069
 30
0.0
 10
94.48553331163194
 20
105.6378241644965
 30
0.0
 10
94.61214057074652
 20
105.7437608506944
 30
0.0
 10
94.7387478298611
 20
105.8491807725694
 30
0.0
 10
94.82349717881944
 20
105.8281656901042
 30
0.0
 10
95.03468153211804
 20
105.8281656901042
 30
0.0
 10
95.24603814019096
 20
105.8281656901042
 30
0.0
 10
95.541455078125
 20
105.8281656901042
 30
0.0
 10
95.541455078125
 20
105.8281656901042
 30
0.0
  0
SPLINE
  5
55
330
A
100
AcDbEntity
  8
LAYER_1
 62
     7
100
AcDbSpline
210
0.0
220
0.0
230
1.0
 70
     8
 71
     3
 72
     8
 73
     4
 74
     0
 42
0.0000000001
 43
0.0000000001
 40
0.0
 40
0.0
 40
0.0
 40
0.0
 40
1.0
 40
1.0
 40
1.0
 40
1.0
 10
85.23631320529513
 20
94.15532090928819
 30
0.0
 10
85.58082275390625
 20
93.85955946180555
 30
0.0
 10
85.80251464843749
 20
93.37500678168402
 30
0.0
 10
85.91379123263889
 20
92.54990641276041
 30
0.0
  0
LINE
  5
54
330
A
100
AcDbEntity
  8
LAYER_1
 62
     7
100
AcDbLine
 10
84.007275390625
 20
94.57786187065972
 30
0.0
 11
84.6093058268229
 21
94.48381076388888
 31
0.0
  0
LINE
  5
53
330
A
100
AcDbEntity
  8
LAYER_1
 62
     7
100
AcDbLine
 10
52.57853054470485
 20
98.83668891059027
 30
0.0
 11
82.78340521918402
 21
94.7387478298611
 31
0.0
  0
SPLINE
  5
52
330
A
100
AcDbEntity
  8
LAYER_1
 62
     7
100
AcDbSpline
210
0.0
220
0.0
230
1.0
 70
     8
 71
     3
 72
     8
 73
     4
 74
     0
 42
0.0000000001
 43
0.0000000001
 40
0.0
 40
0.0
 40
0.0
 40
0.0
 40
1.0
 40
1.0
 40
1.0
 40
1.0
 10
85.99423421223958
 20
90.55640190972221
 30
0.0
 10
85.95340983072916
 20
88.66607801649305
 30
0.0
 10
85.76289605034721
 20
60.05697157118055
 30
0.0
 10
85.76289605034721
 20
60.05697157118055
 30
0.0
  0
SPLINE
  5
51
330
A
100
AcDbEntity
  8
LAYER_1
 62
     7
100
AcDbSpline
210
0.0
220
0.0
230
1.0
 70
     8
 71
     3
 72
     8
 73
     4
 74
     0
 42
0.0000000001
 43
0.0000000001
 40
0.0
 40
0.0
 40
0.0
 40
0.0
 40
1.0
 40
1.0
 40
1.0
 40
1.0
 10
85.96236707899305
 20
92.08016764322916
 30
0.0
 10
85.96236707899305
 20
92.08016764322916
 30
0.0
 10
85.99027235243055
 20
91.59682074652777
 30
0.0
 10
85.99543999565971
 20
91.31949055989583
 30
0.0
  0
LINE
  5
50
330
A
100
AcDbEntity
  8
LAYER_1
 62
     7
100
AcDbLine
 10
85.7565226236979
 20
59.08683268229166
 30
0.0
 11
85.75393880208333
 21
58.40952690972222
 31
0.0
  0
LINE
  5
4F
330
A
100
AcDbEntity
  8
LAYER_1
 62
     7
100
AcDbLine
 10
85.74877115885415
 20
57.31088595920139
 30
0.0
 11
85.65609809027777
 21
41.29894341362847
 31
0.0
  0
SPLINE
  5
4E
330
A
100
AcDbEntity
  8
LAYER_1
 62
     7
100
AcDbSpline
210
0.0
220
0.0
230
1.0
 70
     8
 71
     3
 72
     8
 73
     4
 74
     0
 42
0.0000000001
 43
0.0000000001
 40
0.0
 40
0.0
 40
0.0
 40
0.0
 40
1.0
 40
1.0
 40
1.0
 40
1.0
 10
95.1823038736979
 20
63.62540147569444
 30
0.0
 10
94.71773274739583
 20
63.51980929904514
 30
0.0
 10
93.87265082465277
 20
63.39320203993055
 30
0.0
 10
93.68282606336804
 20
62.67489963107639
 30
0.0
  0
SPLINE
  5
4D
330
A
100
AcDbEntity
  8
LAYER_1
 62
     7
100
AcDbSpline
210
0.0
220
0.0
230
1.0
 70
     8
 71
     3
 72
    11
 73
     7
 74
     0
 42
0.0000000001
 43
0.0000000001
 40
0.0
 40
0.0
 40
0.0
 40
0.0
 40
1.0
 40
1.0
 40
1.0
 40
2.0
 40
2.0
 40
2.0
 40
2.0
 10
94.29519178602429
 20
62.37896592881944
 30
0.0
 10
93.05719672309027
 20
60.52171495225694
 30
0.0
 10
94.76027967664929
 20
58.830517578125
 30
0.0
 10
96.28077256944444
 20
59.7176296657986
 30
0.0
 10
97.80143771701388
 20
60.60474175347222
 30
0.0
 10
96.59772135416665
 20
62.92811414930555
 30
0.0
 10
95.73179660373263
 20
62.80150689019096
 30
0.0
  0
SPLINE
  5
4C
330
A
100
AcDbEntity
  8
LAYER_1
 62
     7
100
AcDbSpline
210
0.0
220
0.0
230
1.0
 70
     8
 71
     3
 72
     8
 73
     4
 74
     0
 42
0.0000000001
 43
0.0000000001
 40
0.0
 40
0.0
 40
0.0
 40
0.0
 40
1.0
 40
1.0
 40
1.0
 40
1.0
 10
93.19706759982638
 20
61.85117730034722
 30
0.0
 10
92.9435085720486
 20
61.13287489149305
 30
0.0
 10
93.19706759982638
 20
59.0417019314236
 30
0.0
 10
95.35163031684027
 20
58.57695855034721
 30
0.0
  0
SPLINE
  5
4B
330
A
100
AcDbEntity
  8
LAYER_1
 62
     7
100
AcDbSpline
210
0.0
220
0.0
230
1.0
 70
    11
 71
     3
 72
    14
 73
    10
 74
     0
 42
0.0000000001
 43
0.0000000001
 40
0.0
 40
0.0
 40
0.0
 40
0.0
 40
1.0
 40
1.0
 40
1.0
 40
2.0
 40
2.0
 40
2.0
 40
3.0
 40
3.0
 40
3.0
 40
3.0
 10
92.52096761067708
 20
61.3016845703125
 30
0.0
 10
92.25311143663194
 20
58.98485785590277
 30
0.0
 10
94.70222981770833
 20
58.32891167534721
 30
0.0
 10
95.62585991753471
 20
58.5979736328125
 30
0.0
 10
97.94957682291665
 20
59.2742458767361
 30
0.0
 10
97.8889431423611
 20
61.03641221788194
 30
0.0
 10
97.56923828124999
 20
62.04100206163194
 30
0.0
 10
96.93585747612846
 20
64.02675509982639
 30
0.0
 10
92.88907606336805
 20
64.50458984375
 30
0.0
 10
92.52096761067708
 20
61.3016845703125
 30
0.0
  0
SPLINE
  5
4A
330
A
100
AcDbEntity
  8
LAYER_1
 62
     7
100
AcDbSpline
210
0.0
220
0.0
230
1.0
 70
    11
 71
     3
 72
    44
 73
    40
 74
     0
 42
0.0000000001
 43
0.0000000001
 40
0.0
 40
0.0
 40
0.0
 40
0.0
 40
1.0
 40
1.0
 40
1.0
 40
2.0
 40
2.0
 40
2.0
 40
3.0
 40
3.0
 40
3.0
 40
4.0
 40
4.0
 40
4.0
 40
5.0
 40
5.0
 40
5.0
 40
6.0
 40
6.0
 40
6.0
 40
7.0
 40
7.0
 40
7.0
 40
8.0
 40
8.0
 40
8.0
 40
9.0
 40
9.0
 40
9.0
 40
10.0
 40
10.0
 40
10.0
 40
11.0
 40
11.0
 40
11.0
 40
12.0
 40
12.0
 40
12.0
 40
13.0
 40
13.0
 40
13.0
 40
13.0
 10
95.87941894531249
 20
61.93558213975694
 30
0.0
 10
95.87941894531249
 20
61.93558213975694
 30
0.0
 10
95.89147677951388
 20
62.17966715494791
 30
0.0
 10
95.90060628255208
 20
62.27354600694444
 30
0.0
 10
95.92179361979166
 20
62.48455810546874
 30
0.0
 10
96.44958224826388
 20
62.29456108940972
 30
0.0
 10
96.40755208333333
 20
62.16812608506944
 30
0.0
 10
96.36517740885415
 20
62.04100206163194
 30
0.0
 10
96.34416232638888
 20
61.59744601779514
 30
0.0
 10
96.34416232638888
 20
61.59744601779514
 30
0.0
 10
96.34416232638888
 20
61.59744601779514
 30
0.0
 10
96.70331353081596
 20
61.15388997395833
 30
0.0
 10
96.80890570746527
 20
60.98508029513889
 30
0.0
 10
96.91467013888888
 20
60.81592610677082
 30
0.0
 10
96.95704481336804
 20
60.5203369140625
 30
0.0
 10
96.78771837022569
 20
60.58372667100694
 30
0.0
 10
96.61890869140625
 20
60.64711642795138
 30
0.0
 10
96.30195990668402
 20
60.87966037326388
 30
0.0
 10
96.30195990668402
 20
60.87966037326388
 30
0.0
 10
96.30195990668402
 20
60.87966037326388
 30
0.0
 10
96.09094780815971
 20
60.35118272569444
 30
0.0
 10
95.85840386284721
 20
60.20338812934028
 30
0.0
 10
95.66857910156249
 20
60.26677788628471
 30
0.0
 10
95.49925265842013
 20
60.33016764322916
 30
0.0
 10
95.35163031684027
 20
60.41457248263888
 30
0.0
 10
95.47806532118055
 20
60.66813151041666
 30
0.0
 10
95.79501410590277
 20
61.09050021701388
 30
0.0
 10
95.7739990234375
 20
61.28049723307291
 30
0.0
 10
95.62585991753471
 20
61.36541883680555
 30
0.0
 10
95.16163330078125
 20
61.42863633897569
 30
0.0
 10
95.03468153211804
 20
61.47083875868055
 30
0.0
 10
94.90790201822915
 20
61.51304117838541
 30
0.0
 10
94.82349717881944
 20
61.74558512369791
 30
0.0
 10
94.95027669270833
 20
61.85117730034722
 30
0.0
 10
95.07671169704861
 20
61.95659722222221
 30
0.0
 10
95.16163330078125
 20
61.93558213975694
 30
0.0
 10
95.37264539930554
 20
61.93558213975694
 30
0.0
 10
95.58417426215277
 20
61.93558213975694
 30
0.0
 10
95.87941894531249
 20
61.93558213975694
 30
0.0
 10
95.87941894531249
 20
61.93558213975694
 30
0.0
  0
SPLINE
  5
49
330
A
100
AcDbEntity
  8
LAYER_1
 62
     7
100
AcDbSpline
210
0.0
220
0.0
230
1.0
 70
     8
 71
     3
 72
     8
 73
     4
 74
     0
 42
0.0000000001
 43
0.0000000001
 40
0.0
 40
0.0
 40
0.0
 40
0.0
 40
1.0
 40
1.0
 40
1.0
 40
1.0
 10
93.25218912760415
 20
86.64897460937499
 30
0.0
 10
92.57660590277777
 20
86.6834255642361
 30
0.0
 10
91.71826036241319
 20
86.26209038628471
 30
0.0
 10
91.52826334635415
 20
85.54378797743055
 30
0.0
  0
SPLINE
  5
48
330
A
100
AcDbEntity
  8
LAYER_1
 62
     7
100
AcDbSpline
210
0.0
220
0.0
230
1.0
 70
     8
 71
     3
 72
    11
 73
     7
 74
     0
 42
0.0000000001
 43
0.0000000001
 40
0.0
 40
0.0
 40
0.0
 40
0.0
 40
1.0
 40
1.0
 40
1.0
 40
2.0
 40
2.0
 40
2.0
 40
2.0
 10
92.2677530924479
 20
85.44491373697916
 30
0.0
 10
91.02924126519096
 20
83.58749050564235
 30
0.0
 10
92.73232421874999
 20
81.89646538628472
 30
0.0
 10
94.25298936631944
 20
82.78357747395833
 30
0.0
 10
95.7739990234375
 20
83.67068956163193
 30
0.0
 10
94.56993815104165
 20
85.99388970269096
 30
0.0
 10
93.70384114583332
 20
85.86728244357639
 30
0.0
  0
SPLINE
  5
47
330
A
100
AcDbEntity
  8
LAYER_1
 62
     7
100
AcDbSpline
210
0.0
220
0.0
230
1.0
 70
     8
 71
     3
 72
     8
 73
     4
 74
     0
 42
0.0000000001
 43
0.0000000001
 40
0.0
 40
0.0
 40
0.0
 40
0.0
 40
1.0
 40
1.0
 40
1.0
 40
1.0
 10
91.06369222005208
 20
84.54436577690971
 30
0.0
 10
90.82477484809027
 20
84.02329508463541
 30
0.0
 10
91.6631388346354
 20
81.7283447265625
 30
0.0
 10
93.32367485894096
 20
81.64273410373264
 30
0.0
  0
SPLINE
  5
46
330
A
100
AcDbEntity
  8
LAYER_1
 62
     7
100
AcDbSpline
210
0.0
220
0.0
230
1.0
 70
    11
 71
     3
 72
    14
 73
    10
 74
     0
 42
0.0000000001
 43
0.0000000001
 40
0.0
 40
0.0
 40
0.0
 40
0.0
 40
1.0
 40
1.0
 40
1.0
 40
2.0
 40
2.0
 40
2.0
 40
3.0
 40
3.0
 40
3.0
 40
3.0
 10
90.49352891710069
 20
84.36780463324652
 30
0.0
 10
90.22532823350694
 20
82.05046115451388
 30
0.0
 10
92.67427435980902
 20
81.39468722873264
 30
0.0
 10
93.59842122395833
 20
81.66392144097222
 30
0.0
 10
95.92179361979166
 20
82.33984917534721
 30
0.0
 10
95.86098768446179
 20
84.10201551649305
 30
0.0
 10
95.541455078125
 20
85.10677761501735
 30
0.0
 10
94.90790201822915
 20
87.0923583984375
 30
0.0
 10
90.86163736979165
 20
87.57053765190972
 30
0.0
 10
90.49352891710069
 20
84.36780463324652
 30
0.0
  0
SPLINE
  5
45
330
A
100
AcDbEntity
  8
LAYER_1
 62
     7
100
AcDbSpline
210
0.0
220
0.0
230
1.0
 70
    11
 71
     3
 72
    44
 73
    40
 74
     0
 42
0.0000000001
 43
0.0000000001
 40
0.0
 40
0.0
 40
0.0
 40
0.0
 40
1.0
 40
1.0
 40
1.0
 40
2.0
 40
2.0
 40
2.0
 40
3.0
 40
3.0
 40
3.0
 40
4.0
 40
4.0
 40
4.0
 40
5.0
 40
5.0
 40
5.0
 40
6.0
 40
6.0
 40
6.0
 40
7.0
 40
7.0
 40
7.0
 40
8.0
 40
8.0
 40
8.0
 40
9.0
 40
9.0
 40
9.0
 40
10.0
 40
10.0
 40
10.0
 40
11.0
 40
11.0
 40
11.0
 40
12.0
 40
12.0
 40
12.0
 40
13.0
 40
13.0
 40
13.0
 40
13.0
 10
93.8516357421875
 20
85.00118543836805
 30
0.0
 10
93.8516357421875
 20
85.00118543836805
 30
0.0
 10
93.86369357638888
 20
85.24544270833333
 30
0.0
 10
93.87265082465277
 20
85.33932156032985
 30
0.0
 10
93.89435492621527
 20
85.55033365885416
 30
0.0
 10
94.42214355468749
 20
85.36050889756943
 30
0.0
 10
94.38011338975694
 20
85.23372938368055
 30
0.0
 10
94.33739420572915
 20
85.10677761501735
 30
0.0
 10
94.3167236328125
 20
84.66322157118054
 30
0.0
 10
94.3167236328125
 20
84.66322157118054
 30
0.0
 10
94.3167236328125
 20
84.66322157118054
 30
0.0
 10
94.67535807291665
 20
84.21966552734374
 30
0.0
 10
94.78095024956596
 20
84.05085584852429
 30
0.0
 10
94.88688693576388
 20
83.88204616970485
 30
0.0
 10
94.92908935546875
 20
83.58628472222222
 30
0.0
 10
94.76027967664929
 20
83.64950222439235
 30
0.0
 10
94.59095323350694
 20
83.7127197265625
 30
0.0
 10
94.27400444878471
 20
83.945263671875
 30
0.0
 10
94.27400444878471
 20
83.945263671875
 30
0.0
 10
94.27400444878471
 20
83.945263671875
 30
0.0
 10
94.06316460503471
 20
83.41695827907985
 30
0.0
 10
93.83062065972221
 20
83.26933593749999
 30
0.0
 10
93.64062364366319
 20
83.33255343967014
 30
0.0
 10
93.47129720052082
 20
83.39577094184027
 30
0.0
 10
93.32367485894096
 20
83.48017578125
 30
0.0
 10
93.45028211805554
 20
83.73390706380208
 30
0.0
 10
93.76723090277777
 20
84.1564480251736
 30
0.0
 10
93.74621582031249
 20
84.34661729600694
 30
0.0
 10
93.59842122395833
 20
84.43102213541665
 30
0.0
 10
93.13367784288194
 20
84.4944118923611
 30
0.0
 10
93.00672607421875
 20
84.53661431206596
 30
0.0
 10
92.88011881510415
 20
84.57881673177083
 30
0.0
 10
92.79571397569444
 20
84.81136067708333
 30
0.0
 10
92.92232123480902
 20
84.91678059895833
 30
0.0
 10
93.0489284939236
 20
85.02237277560764
 30
0.0
 10
93.13367784288194
 20
85.00118543836805
 30
0.0
 10
93.34486219618054
 20
85.00118543836805
 30
0.0
 10
93.55621880425346
 20
85.00118543836805
 30
0.0
 10
93.8516357421875
 20
85.00118543836805
 30
0.0
 10
93.8516357421875
 20
85.00118543836805
 30
0.0
  0
LINE
  5
44
330
A
100
AcDbEntity
  8
LAYER_1
 62
     7
100
AcDbLine
 10
50.88871120876735
 20
112.6508327907986
 30
0.0
 11
51.81802571614583
 21
112.8196424696181
 31
0.0
  0
SPLINE
  5
43
330
A
100
AcDbEntity
  8
LAYER_1
 62
     7
100
AcDbSpline
210
0.0
220
0.0
230
1.0
 70
     8
 71
     3
 72
    17
 73
    13
 74
     0
 42
0.0000000001
 43
0.0000000001
 40
0.0
 40
0.0
 40
0.0
 40
0.0
 40
1.0
 40
1.0
 40
1.0
 40
2.0
 40
2.0
 40
2.0
 40
3.0
 40
3.0
 40
3.0
 40
4.0
 40
4.0
 40
4.0
 40
4.0
 10
45.43908691406249
 20
96.80890570746527
 30
0.0
 10
45.43908691406249
 20
96.80890570746527
 30
0.0
 10
50.46617024739583
 20
98.37160101996527
 30
0.0
 10
50.8465087890625
 20
98.45652262369791
 30
0.0
 10
51.22684733072916
 20
98.54092746310764
 30
0.0
 10
51.69141845703125
 20
98.58312988281249
 30
0.0
 10
51.7336208767361
 20
99.30143229166666
 30
0.0
 10
51.77582329644097
 20
100.0193901909722
 30
0.0
 10
51.86022813585069
 20
112.7772677951389
 30
0.0
 10
51.86022813585069
 20
112.7772677951389
 30
0.0
 10
51.86022813585069
 20
112.7772677951389
 30
0.0
 10
55.53562825520833
 20
115.8189425998264
 30
0.0
 10
55.53562825520833
 20
115.8189425998264
 30
0.0
  0
SPLINE
  5
42
330
A
100
AcDbEntity
  8
LAYER_1
 62
     7
100
AcDbSpline
210
0.0
220
0.0
230
1.0
 70
    11
 71
     3
 72
    17
 73
    13
 74
     0
 42
0.0000000001
 43
0.0000000001
 40
0.0
 40
0.0
 40
0.0
 40
0.0
 40
1.0
 40
1.0
 40
1.0
 40
2.0
 40
2.0
 40
2.0
 40
3.0
 40
3.0
 40
3.0
 40
4.0
 40
4.0
 40
4.0
 40
4.0
 10
52.28276909722221
 20
95.33009847005208
 30
0.0
 10
52.11395941840277
 20
95.68924967447916
 30
0.0
 10
51.88141547309027
 20
95.85840386284721
 30
0.0
 10
51.52209201388889
 20
96.00619845920139
 30
0.0
 10
51.16345757378472
 20
96.15399305555555
 30
0.0
 10
51.07870822482639
 20
96.30213216145833
 30
0.0
 10
51.45887451171875
 20
96.1960232204861
 30
0.0
 10
51.83904079861111
 20
96.0906032986111
 30
0.0
 10
52.3037841796875
 20
96.00619845920139
 30
0.0
 10
52.49412570529513
 20
95.77365451388889
 30
0.0
 10
52.536328125
 20
95.56264241536458
 30
0.0
 10
52.38818901909722
 20
95.45705023871527
 30
0.0
 10
52.28276909722221
 20
95.33009847005208
 30
0.0
  0
SPLINE
  5
41
330
A
100
AcDbEntity
  8
LAYER_1
 62
     7
100
AcDbSpline
210
0.0
220
0.0
230
1.0
 70
    11
 71
     3
 72
    17
 73
    13
 74
     0
 42
0.0000000001
 43
0.0000000001
 40
0.0
 40
0.0
 40
0.0
 40
0.0
 40
1.0
 40
1.0
 40
1.0
 40
2.0
 40
2.0
 40
2.0
 40
3.0
 40
3.0
 40
3.0
 40
4.0
 40
4.0
 40
4.0
 40
4.0
 10
51.2900648328993
 20
94.90755750868054
 30
0.0
 10
51.31125217013889
 20
95.01366644965277
 30
0.0
 10
51.37446967230903
 20
95.09807128906249
 30
0.0
 10
51.31125217013889
 20
95.20349121093749
 30
0.0
 10
51.24786241319444
 20
95.3089111328125
 30
0.0
 10
51.14244249131944
 20
95.52043999565971
 30
0.0
 10
51.37446967230903
 20
95.47823757595485
 30
0.0
 10
51.60649685329861
 20
95.43603515624999
 30
0.0
 10
51.94463297526041
 20
95.24569363064235
 30
0.0
 10
51.92344563802083
 20
95.07688395182291
 30
0.0
 10
51.7336208767361
 20
94.99247911241319
 30
0.0
 10
51.58582628038194
 20
94.90755750868054
 30
0.0
 10
51.2900648328993
 20
94.90755750868054
 30
0.0
  0
SPLINE
  5
40
330
A
100
AcDbEntity
  8
LAYER_1
 62
     7
100
AcDbSpline
210
0.0
220
0.0
230
1.0
 70
    11
 71
     3
 72
    35
 73
    31
 74
     0
 42
0.0000000001
 43
0.0000000001
 40
0.0
 40
0.0
 40
0.0
 40
0.0
 40
1.0
 40
1.0
 40
1.0
 40
2.0
 40
2.0
 40
2.0
 40
3.0
 40
3.0
 40
3.0
 40
4.0
 40
4.0
 40
4.0
 40
5.0
 40
5.0
 40
5.0
 40
6.0
 40
6.0
 40
6.0
 40
7.0
 40
7.0
 40
7.0
 40
8.0
 40
8.0
 40
8.0
 40
9.0
 40
9.0
 40
9.0
 40
10.0
 40
10.0
 40
10.0
 40
10.0
 10
48.96686469184027
 20
94.75993516710069
 30
0.0
 10
48.96686469184027
 20
94.92874484592014
 30
0.0
 10
48.96686469184027
 20
95.01366644965277
 30
0.0
 10
49.07228461371528
 20
95.05569661458333
 30
0.0
 10
49.05126953124999
 20
95.20349121093749
 30
0.0
 10
48.96686469184027
 20
95.43603515624999
 30
0.0
 10
49.26210937499999
 20
95.39331597222221
 30
0.0
 10
49.55804307725694
 20
95.35128580729166
 30
0.0
 10
49.64244791666666
 20
95.22450629340277
 30
0.0
 10
49.74786783854166
 20
95.14010145399304
 30
0.0
 10
49.85346001519097
 20
95.05569661458333
 30
0.0
 10
50.18642849392361
 20
94.93132866753471
 30
0.0
 10
50.27600097656249
 20
95.07688395182291
 30
0.0
 10
50.44515516493055
 20
95.35128580729166
 30
0.0
 10
50.74108886718749
 20
95.47823757595485
 30
0.0
 10
50.82549370659721
 20
95.3089111328125
 30
0.0
 10
50.90989854600694
 20
95.14010145399304
 30
0.0
 10
50.93091362847222
 20
94.99247911241319
 30
0.0
 10
50.93091362847222
 20
94.99247911241319
 30
0.0
 10
50.93091362847222
 20
94.99247911241319
 30
0.0
 10
51.03633355034722
 20
94.54857855902777
 30
0.0
 10
50.8465087890625
 20
94.5062038845486
 30
0.0
 10
50.65616726345485
 20
94.46417371961805
 30
0.0
 10
50.31854790581597
 20
94.6333279079861
 30
0.0
 10
50.14922146267361
 20
94.69671766493055
 30
0.0
 10
49.98041178385416
 20
94.75993516710069
 30
0.0
 10
49.87499186197916
 20
94.69671766493055
 30
0.0
 10
49.79024251302083
 20
94.6333279079861
 30
0.0
 10
49.70583767361111
 20
94.56993815104165
 30
0.0
 10
48.96686469184027
 20
94.59112548828124
 30
0.0
 10
48.96686469184027
 20
94.75993516710069
 30
0.0
  0
SPLINE
  5
3F
330
A
100
AcDbEntity
  8
LAYER_1
 62
     7
100
AcDbSpline
210
0.0
220
0.0
230
1.0
 70
    11
 71
     3
 72
    17
 73
    13
 74
     0
 42
0.0000000001
 43
0.0000000001
 40
0.0
 40
0.0
 40
0.0
 40
0.0
 40
1.0
 40
1.0
 40
1.0
 40
2.0
 40
2.0
 40
2.0
 40
3.0
 40
3.0
 40
3.0
 40
4.0
 40
4.0
 40
4.0
 40
4.0
 10
48.31177978515625
 20
94.92874484592014
 30
0.0
 10
47.9104261610243
 20
95.64704725477429
 30
0.0
 10
48.96686469184027
 20
95.66823459201387
 30
0.0
 10
49.49465332031249
 20
95.66823459201387
 30
0.0
 10
50.02278645833333
 20
95.66823459201387
 30
0.0
 10
49.79024251302083
 20
95.79466959635415
 30
0.0
 10
49.45262315538194
 20
95.81585693359374
 30
0.0
 10
49.11448703342013
 20
95.83738878038193
 30
0.0
 10
47.72042914496527
 20
95.85840386284721
 30
0.0
 10
47.88923882378472
 20
95.18247612847222
 30
0.0
 10
48.01601833767361
 20
95.09807128906249
 30
0.0
 10
48.11885443793403
 20
95.0333034939236
 30
0.0
 10
48.31177978515625
 20
94.92874484592014
 30
0.0
  0
SPLINE
  5
3E
330
A
100
AcDbEntity
  8
LAYER_1
 62
     7
100
AcDbSpline
210
0.0
220
0.0
230
1.0
 70
    11
 71
     3
 72
    17
 73
    13
 74
     0
 42
0.0000000001
 43
0.0000000001
 40
0.0
 40
0.0
 40
0.0
 40
0.0
 40
1.0
 40
1.0
 40
1.0
 40
2.0
 40
2.0
 40
2.0
 40
3.0
 40
3.0
 40
3.0
 40
4.0
 40
4.0
 40
4.0
 40
4.0
 10
47.29254828559027
 20
95.64584147135416
 30
0.0
 10
48.00292697482639
 20
96.27405463324652
 30
0.0
 10
49.80092230902778
 20
96.21721055772568
 30
0.0
 10
50.0438015407986
 20
96.1960232204861
 30
0.0
 10
50.29736056857639
 20
96.17500813802083
 30
0.0
 10
50.48735758463541
 20
96.25941297743054
 30
0.0
 10
50.00159912109375
 20
96.30213216145833
 30
0.0
 10
49.51584065755208
 20
96.34416232638888
 30
0.0
 10
48.01601833767361
 20
96.44975450303818
 30
0.0
 10
47.14992133246528
 20
95.9851833767361
 30
0.0
 10
47.17093641493055
 20
95.94280870225694
 30
0.0
 10
47.172314453125
 20
95.53456488715277
 30
0.0
 10
47.29254828559027
 20
95.64584147135416
 30
0.0
  0
LINE
  5
3D
330
A
100
AcDbEntity
  8
LAYER_1
 62
     7
100
AcDbLine
 10
130.7701402452257
 20
88.38358018663193
 30
0.0
 11
141.1662326388889
 21
86.96592339409722
 31
0.0
  0
LINE
  5
3C
330
A
100
AcDbEntity
  8
LAYER_1
 62
     7
100
AcDbLine
 10
41.08793131510416
 20
100.6109130859375
 30
0.0
 11
50.70663791232639
 21
99.30143229166666
 31
0.0
  0
SPLINE
  5
3B
330
A
100
AcDbEntity
  8
LAYER_1
 62
     7
100
AcDbSpline
210
0.0
220
0.0
230
1.0
 70
     8
 71
     3
 72
    17
 73
    13
 74
     0
 42
0.0000000001
 43
0.0000000001
 40
0.0
 40
0.0
 40
0.0
 40
0.0
 40
1.0
 40
1.0
 40
1.0
 40
2.0
 40
2.0
 40
2.0
 40
3.0
 40
3.0
 40
3.0
 40
4.0
 40
4.0
 40
4.0
 40
4.0
 10
31.37138400607639
 20
99.85058051215277
 30
0.0
 10
31.83612738715278
 20
100.1041395399305
 30
0.0
 10
33.23035753038194
 20
100.7376925998264
 30
0.0
 10
33.90611300998263
 20
101.2444661458333
 30
0.0
 10
34.58221299913194
 20
101.7512396918403
 30
0.0
 10
34.96255154079861
 20
101.6668348524305
 30
0.0
 10
35.46932508680555
 20
101.8361612955729
 30
0.0
 10
35.97609863281249
 20
102.0049709743924
 30
0.0
 10
38.25726860894097
 20
102.8076782226562
 30
0.0
 10
38.6798095703125
 20
103.1034396701389
 30
0.0
 10
39.10217827690972
 20
103.3990288628472
 30
0.0
 10
40.83420003255208
 20
104.2017361111111
 30
0.0
 10
41.12996148003472
 20
104.3708902994792
 30
0.0
  0
SPLINE
  5
3A
330
A
100
AcDbEntity
  8
LAYER_1
 62
     7
100
AcDbSpline
210
0.0
220
0.0
230
1.0
 70
     8
 71
     3
 72
    17
 73
    13
 74
     0
 42
0.0000000001
 43
0.0000000001
 40
0.0
 40
0.0
 40
0.0
 40
0.0
 40
1.0
 40
1.0
 40
1.0
 40
2.0
 40
2.0
 40
2.0
 40
3.0
 40
3.0
 40
3.0
 40
4.0
 40
4.0
 40
4.0
 40
4.0
 10
31.41358642578125
 20
103.5681830512153
 30
0.0
 10
32.3856201171875
 20
103.8641167534722
 30
0.0
 10
33.01900092230903
 20
104.3281711154514
 30
0.0
 10
33.52594672309027
 20
104.6663072374132
 30
0.0
 10
34.03272026909722
 20
105.004443359375
 30
0.0
 10
34.32865397135416
 20
105.4268120659722
 30
0.0
 10
34.91983235677083
 20
105.4268120659722
 30
0.0
 10
35.51152750651041
 20
105.4268120659722
 30
0.0
 10
36.56744927300347
 20
105.7647759331597
 30
0.0
 10
37.11694200303819
 20
106.0179904513889
 30
0.0
 10
37.66591796874999
 20
106.271721733941
 30
0.0
 10
40.83420003255208
 20
107.792731391059
 30
0.0
 10
41.12996148003472
 20
108.0459459092882
 30
0.0
  0
SPLINE
  5
39
330
A
100
AcDbEntity
  8
LAYER_1
 62
     7
100
AcDbSpline
210
0.0
220
0.0
230
1.0
 70
     8
 71
     3
 72
    17
 73
    13
 74
     0
 42
0.0000000001
 43
0.0000000001
 40
0.0
 40
0.0
 40
0.0
 40
0.0
 40
1.0
 40
1.0
 40
1.0
 40
2.0
 40
2.0
 40
2.0
 40
3.0
 40
3.0
 40
3.0
 40
4.0
 40
4.0
 40
4.0
 40
4.0
 10
31.45613335503472
 20
107.327643500434
 30
0.0
 10
31.79375271267361
 20
107.5813747829861
 30
0.0
 10
33.31476236979167
 20
108.6376410590278
 30
0.0
 10
33.82170817057291
 20
108.8064507378472
 30
0.0
 10
34.32865397135416
 20
108.9752604166667
 30
0.0
 10
34.54001057942708
 20
109.1867892795139
 30
0.0
 10
35.68033718532985
 20
109.2711941189236
 30
0.0
 10
36.82118055555555
 20
109.3555989583333
 30
0.0
 10
37.11694200303819
 20
109.7779676649305
 30
0.0
 10
37.70829264322916
 20
110.0739013671875
 30
0.0
 10
38.29947102864583
 20
110.3691460503472
 30
0.0
 10
40.66539035373263
 20
111.5099894205729
 30
0.0
 10
41.08793131510416
 20
111.8901557074653
 30
0.0
  0
SPLINE
  5
38
330
A
100
AcDbEntity
  8
LAYER_1
 62
     7
100
AcDbSpline
210
0.0
220
0.0
230
1.0
 70
     8
 71
     3
 72
    17
 73
    13
 74
     0
 42
0.0000000001
 43
0.0000000001
 40
0.0
 40
0.0
 40
0.0
 40
0.0
 40
1.0
 40
1.0
 40
1.0
 40
2.0
 40
2.0
 40
2.0
 40
3.0
 40
3.0
 40
3.0
 40
4.0
 40
4.0
 40
4.0
 40
4.0
 10
31.49850802951389
 20
111.0874484592014
 30
0.0
 10
32.30069851345486
 20
111.6365966796875
 30
0.0
 10
33.69510091145833
 20
112.3126966688368
 30
0.0
 10
34.15984429253472
 20
112.6928629557292
 30
0.0
 10
34.6244154188368
 20
113.0732014973958
 30
0.0
 10
35.13136121961805
 20
113.0732014973958
 30
0.0
 10
35.93406846788194
 20
113.2420111762153
 30
0.0
 10
36.73677571614583
 20
113.4111653645833
 30
0.0
 10
37.91964925130208
 20
113.8337063259549
 30
0.0
 10
38.51099989149305
 20
114.1718424479167
 30
0.0
 10
39.10217827690972
 20
114.5094618055556
 30
0.0
 10
40.66539035373263
 20
115.2277642144097
 30
0.0
 10
41.04555664062499
 20
115.5235256618924
 30
0.0
  0
SPLINE
  5
37
330
A
100
AcDbEntity
  8
LAYER_1
 62
     7
100
AcDbSpline
210
0.0
220
0.0
230
1.0
 70
     8
 71
     3
 72
    17
 73
    13
 74
     0
 42
0.0000000001
 43
0.0000000001
 40
0.0
 40
0.0
 40
0.0
 40
0.0
 40
1.0
 40
1.0
 40
1.0
 40
2.0
 40
2.0
 40
2.0
 40
3.0
 40
3.0
 40
3.0
 40
4.0
 40
4.0
 40
4.0
 40
4.0
 10
31.54053819444444
 20
113.8337063259549
 30
0.0
 10
31.9205322265625
 20
114.0025160047743
 30
0.0
 10
33.23035753038194
 20
114.3826822916667
 30
0.0
 10
33.90611300998263
 20
114.9318305121528
 30
0.0
 10
34.58221299913194
 20
115.4813232421875
 30
0.0
 10
34.54001057942708
 20
115.6923353407118
 30
0.0
 10
35.00458170572917
 20
115.6923353407118
 30
0.0
 10
35.46932508680555
 20
115.6923353407118
 30
0.0
 10
36.69440104166667
 20
115.8611450195312
 30
0.0
 10
36.989990234375
 20
116.0304714626736
 30
0.0
 10
37.28575168185763
 20
116.1992811414931
 30
0.0
 10
40.7075927734375
 20
118.1426595052083
 30
0.0
 10
41.08793131510416
 20
118.3114691840278
 30
0.0
  0
SPLINE
  5
36
330
A
100
AcDbEntity
  8
LAYER_1
 62
     7
100
AcDbSpline
210
0.0
220
0.0
230
1.0
 70
     8
 71
     3
 72
    11
 73
     7
 74
     0
 42
0.0000000001
 43
0.0000000001
 40
0.0
 40
0.0
 40
0.0
 40
0.0
 40
1.0
 40
1.0
 40
1.0
 40
2.0
 40
2.0
 40
2.0
 40
2.0
 10
23.97855360243056
 20
112.9043918185764
 30
0.0
 10
25.03447536892361
 20
112.6508327907986
 30
0.0
 10
27.35819227430555
 20
112.0172797309028
 30
0.0
 10
28.32970920138889
 20
112.0172797309028
 30
0.0
 10
29.30174289279514
 20
112.0172797309028
 30
0.0
 10
30.86461046006944
 20
111.4255845811632
 30
0.0
 10
31.41358642578125
 20
111.467787000868
 30
0.0
  0
SPLINE
  5
35
330
A
100
AcDbEntity
  8
LAYER_1
 62
     7
100
AcDbSpline
210
0.0
220
0.0
230
1.0
 70
     8
 71
     3
 72
    14
 73
    10
 74
     0
 42
0.0000000001
 43
0.0000000001
 40
0.0
 40
0.0
 40
0.0
 40
0.0
 40
1.0
 40
1.0
 40
1.0
 40
2.0
 40
2.0
 40
2.0
 40
3.0
 40
3.0
 40
3.0
 40
3.0
 10
23.89414876302083
 20
109.4825507269965
 30
0.0
 10
25.03447536892361
 20
109.3132242838542
 30
0.0
 10
25.49956325954861
 20
108.9752604166667
 30
0.0
 10
26.72429470486111
 20
108.8908555772569
 30
0.0
 10
27.94954291449653
 20
108.8064507378472
 30
0.0
 10
29.51275499131944
 20
108.5954386393229
 30
0.0
 10
30.10393337673611
 20
108.38408203125
 30
0.0
 10
30.69580078125
 20
108.1725531684028
 30
0.0
 10
31.28697916666667
 20
108.0037434895833
 30
0.0
 10
31.45613335503472
 20
107.9615410698785
 30
0.0
  0
SPLINE
  5
34
330
A
100
AcDbEntity
  8
LAYER_1
 62
     7
100
AcDbSpline
210
0.0
220
0.0
230
1.0
 70
     8
 71
     3
 72
    14
 73
    10
 74
     0
 42
0.0000000001
 43
0.0000000001
 40
0.0
 40
0.0
 40
0.0
 40
0.0
 40
1.0
 40
1.0
 40
1.0
 40
2.0
 40
2.0
 40
2.0
 40
3.0
 40
3.0
 40
3.0
 40
3.0
 10
23.85211859809028
 20
106.0607096354167
 30
0.0
 10
24.35889214409722
 20
106.0607096354167
 30
0.0
 10
25.6263427734375
 20
105.7227457682292
 30
0.0
 10
26.72429470486111
 20
105.5534193250868
 30
0.0
 10
27.82293565538194
 20
105.3846096462674
 30
0.0
 10
28.62564290364583
 20
105.3424072265625
 30
0.0
 10
29.38614773220486
 20
105.2157999674479
 30
0.0
 10
30.14630805121528
 20
105.0888481987847
 30
0.0
 10
31.0337646484375
 20
104.9620686848958
 30
0.0
 10
31.37138400607639
 20
104.7507120768229
 30
0.0
  0
SPLINE
  5
33
330
A
100
AcDbEntity
  8
LAYER_1
 62
     7
100
AcDbSpline
210
0.0
220
0.0
230
1.0
 70
     8
 71
     3
 72
    14
 73
    10
 74
     0
 42
0.0000000001
 43
0.0000000001
 40
0.0
 40
0.0
 40
0.0
 40
0.0
 40
1.0
 40
1.0
 40
1.0
 40
2.0
 40
2.0
 40
2.0
 40
3.0
 40
3.0
 40
3.0
 40
3.0
 10
23.80974392361111
 20
102.1737806532118
 30
0.0
 10
24.31668972439236
 20
101.9205661349826
 30
0.0
 10
26.25972357855903
 20
101.4980251736111
 30
0.0
 10
26.47108018663194
 20
101.5403998480903
 30
0.0
 10
26.68226453993055
 20
101.5824300130208
 30
0.0
 10
28.71004774305555
 20
101.2866685655382
 30
0.0
 10
29.51275499131944
 20
101.1178588867187
 30
0.0
 10
30.31546223958333
 20
100.9490492078993
 30
0.0
 10
30.99104546440972
 20
100.8220974392361
 30
0.0
 10
31.37138400607639
 20
100.8641276041667
 30
0.0
  0
SPLINE
  5
32
330
A
100
AcDbEntity
  8
LAYER_1
 62
     7
100
AcDbSpline
210
0.0
220
0.0
230
1.0
 70
     8
 71
     3
 72
    14
 73
    10
 74
     0
 42
0.0000000001
 43
0.0000000001
 40
0.0
 40
0.0
 40
0.0
 40
0.0
 40
1.0
 40
1.0
 40
1.0
 40
2.0
 40
2.0
 40
2.0
 40
3.0
 40
3.0
 40
3.0
 40
3.0
 10
23.76719699435764
 20
99.1322781032986
 30
0.0
 10
24.23228488498264
 20
99.04787326388887
 30
0.0
 10
24.95007052951389
 20
98.83668891059027
 30
0.0
 10
25.8371826171875
 20
98.66753472222221
 30
0.0
 10
26.72429470486111
 20
98.49872504340277
 30
0.0
 10
28.878857421875
 20
98.1183865017361
 30
0.0
 10
29.51275499131944
 20
97.99195149739583
 30
0.0
 10
30.14630805121528
 20
97.86482747395833
 30
0.0
 10
30.906640625
 20
97.65381537543402
 30
0.0
 10
31.37138400607639
 20
97.73822021484374
 30
0.0
  0
SPLINE
  5
31
330
A
100
AcDbEntity
  8
LAYER_1
 62
     7
100
AcDbSpline
210
0.0
220
0.0
230
1.0
 70
     8
 71
     3
 72
    14
 73
    10
 74
     0
 42
0.0000000001
 43
0.0000000001
 40
0.0
 40
0.0
 40
0.0
 40
0.0
 40
1.0
 40
1.0
 40
1.0
 40
2.0
 40
2.0
 40
2.0
 40
3.0
 40
3.0
 40
3.0
 40
3.0
 10
18.10638834635417
 20
94.23197428385416
 30
0.0
 10
18.61333414713542
 20
94.52739122178819
 30
0.0
 10
19.71180284288194
 20
95.16128879123264
 30
0.0
 10
20.09214138454861
 20
95.541455078125
 30
0.0
 10
20.47247992621528
 20
95.92179361979166
 30
0.0
 10
21.65483669704861
 20
96.4285671657986
 30
0.0
 10
21.86636555989583
 20
96.51297200520833
 30
0.0
 10
22.07789442274305
 20
96.59737684461804
 30
0.0
 10
23.42957763671875
 20
97.48448893229165
 30
0.0
 10
23.72499457465278
 20
97.4424587673611
 30
0.0
  0
SPLINE
  5
30
330
A
100
AcDbEntity
  8
LAYER_1
 62
     7
100
AcDbSpline
210
0.0
220
0.0
230
1.0
 70
     8
 71
     3
 72
    14
 73
    10
 74
     0
 42
0.0000000001
 43
0.0000000001
 40
0.0
 40
0.0
 40
0.0
 40
0.0
 40
1.0
 40
1.0
 40
1.0
 40
2.0
 40
2.0
 40
2.0
 40
3.0
 40
3.0
 40
3.0
 40
3.0
 10
18.10638834635417
 20
97.35805392795137
 30
0.0
 10
18.48672688802083
 20
97.4424587673611
 30
0.0
 10
19.92298719618055
 20
97.94923231336804
 30
0.0
 10
20.17654622395833
 20
98.28719618055554
 30
0.0
 10
20.43010525173611
 20
98.62533230251735
 30
0.0
 10
20.81044379340278
 20
98.75193956163193
 30
0.0
 10
21.44399685329861
 20
99.1322781032986
 30
0.0
 10
22.07789442274305
 20
99.51244439019096
 30
0.0
 10
23.38737521701389
 20
100.3151516384549
 30
0.0
 10
23.76719699435764
 20
100.3573540581597
 30
0.0
  0
SPLINE
  5
2F
330
A
100
AcDbEntity
  8
LAYER_1
 62
     7
100
AcDbSpline
210
0.0
220
0.0
230
1.0
 70
     8
 71
     3
 72
    14
 73
    10
 74
     0
 42
0.0000000001
 43
0.0000000001
 40
0.0
 40
0.0
 40
0.0
 40
0.0
 40
1.0
 40
1.0
 40
1.0
 40
2.0
 40
2.0
 40
2.0
 40
3.0
 40
3.0
 40
3.0
 40
3.0
 10
18.10638834635417
 20
100.5688829210069
 30
0.0
 10
18.69825575086805
 20
100.9065022786458
 30
0.0
 10
19.205029296875
 20
100.8641276041667
 30
0.0
 10
19.79620768229167
 20
101.4136203342014
 30
0.0
 10
20.38807508680555
 20
101.9627685546875
 30
0.0
 10
20.76824137369792
 20
102.4695421006944
 30
0.0
 10
21.27518717447916
 20
102.7232733832465
 30
0.0
 10
21.78196072048611
 20
102.9764879014757
 30
0.0
 10
23.30262586805555
 20
104.2861409505208
 30
0.0
 10
23.85211859809028
 20
104.2861409505208
 30
0.0
  0
SPLINE
  5
2E
330
A
100
AcDbEntity
  8
LAYER_1
 62
     7
100
AcDbSpline
210
0.0
220
0.0
230
1.0
 70
     8
 71
     3
 72
    14
 73
    10
 74
     0
 42
0.0000000001
 43
0.0000000001
 40
0.0
 40
0.0
 40
0.0
 40
0.0
 40
1.0
 40
1.0
 40
1.0
 40
2.0
 40
2.0
 40
2.0
 40
3.0
 40
3.0
 40
3.0
 40
3.0
 10
18.10638834635417
 20
103.948004828559
 30
0.0
 10
18.36011962890625
 20
104.1593614366319
 30
0.0
 10
19.50096299913194
 20
104.2861409505208
 30
0.0
 10
20.13434380425347
 20
105.0888481987847
 30
0.0
 10
20.76824137369792
 20
105.8915554470486
 30
0.0
 10
20.72603895399305
 20
106.3561265733507
 30
0.0
 10
21.48602701822917
 20
106.4827338324653
 30
0.0
 10
22.2467041015625
 20
106.6098578559028
 30
0.0
 10
23.64058973524305
 20
107.6657796223958
 30
0.0
 10
23.85211859809028
 20
107.7505289713542
 30
0.0
  0
SPLINE
  5
2D
330
A
100
AcDbEntity
  8
LAYER_1
 62
     7
100
AcDbSpline
210
0.0
220
0.0
230
1.0
 70
     8
 71
     3
 72
    14
 73
    10
 74
     0
 42
0.0000000001
 43
0.0000000001
 40
0.0
 40
0.0
 40
0.0
 40
0.0
 40
1.0
 40
1.0
 40
1.0
 40
2.0
 40
2.0
 40
2.0
 40
3.0
 40
3.0
 40
3.0
 40
3.0
 10
18.10638834635417
 20
106.736292860243
 30
0.0
 10
18.8670654296875
 20
107.0744289822049
 30
0.0
 10
20.05114474826389
 20
107.4718207465278
 30
0.0
 10
20.21874864366319
 20
107.9193386501736
 30
0.0
 10
20.47247992621528
 20
108.5954386393229
 30
0.0
 10
21.57043185763889
 20
108.9330579969618
 30
0.0
 10
22.33110894097222
 20
109.1867892795139
 30
0.0
 10
23.09144151475694
 20
109.4400037977431
 30
0.0
 10
23.34517279730903
 20
109.94677734375
 30
0.0
 10
23.76719699435764
 20
110.115931532118
 30
0.0
  0
LINE
  5
2C
330
A
100
AcDbEntity
  8
LAYER_1
 62
     7
100
AcDbLine
 10
23.9365234375
 20
111.3833821614583
 30
0.0
 11
23.76719699435764
 21
96.51297200520833
 31
0.0
  0
LINE
  5
2B
330
A
100
AcDbEntity
  8
LAYER_1
 62
     7
100
AcDbLine
 10
31.49850802951389
 20
113.1576063368055
 30
0.0
 11
31.37138400607639
 21
97.27364908854166
 31
0.0
  0
LWPOLYLINE
  5
22
330
A
100
AcDbEntity
  8
LAYER_1
 62
     7
100
AcDbPolyline
 90
        7
 70
     0
 43
0.0
 10
18.10638834635417
 20
92.3730007595486
 10
24.19008246527778
 20
94.65434299045138
 10
23.76719699435764
 20
96.51297200520833
 10
32.47002495659722
 20
95.07688395182291
 10
31.37138400607639
 20
97.27364908854166
 10
41.08793131510416
 20
100.6532877604167
 10
41.08793131510416
 20
120.5080620659722
  0
ENDSEC
  0
SECTION
  2
OBJECTS
  0
DICTIONARY
  5
19
330
0
100
AcDbDictionary
281
     1
  3
ACAD_COLOR
350
ED
  3
ACAD_GROUP
350
1A
  3
ACAD_LAYOUT
350
BA
  3
ACAD_MATERIAL
350
EF
  3
ACAD_MLINESTYLE
350
1B
  3
ACAD_PLOTSETTINGS
350
BB
  3
ACAD_PLOTSTYLENAME
350
B8
  3
ACDBHEADERROUNDTRIPXREC
350
EC
  0
DICTIONARY
  5
ED
102
{ACAD_REACTORS
330
19
102
}
330
19
100
AcDbDictionary
281
     1
  0
DICTIONARY
  5
1A
102
{ACAD_REACTORS
330
19
102
}
330
19
100
AcDbDictionary
281
     1
  0
DICTIONARY
  5
BA
102
{ACAD_REACTORS
330
19
102
}
330
19
100
AcDbDictionary
281
     1
  3
Layout1
350
BD
  3
Model
350
BC
  0
DICTIONARY
  5
EF
102
{ACAD_REACTORS
330
19
102
}
330
19
100
AcDbDictionary
281
     1
  0
DICTIONARY
  5
1B
102
{ACAD_REACTORS
330
19
102
}
330
19
100
AcDbDictionary
281
     1
  3
STANDARD
350
1C
  0
DICTIONARY
  5
BB
102
{ACAD_REACTORS
330
19
102
}
330
19
100
AcDbDictionary
281
     1
  0
ACDBDICTIONARYWDFLT
  5
B8
102
{ACAD_REACTORS
330
19
102
}
330
19
100
AcDbDictionary
281
     1
  3
Normal
350
B9
100
AcDbDictionaryWithDefault
340
B9
  0
DICTIONARY
  5
EC
102
{ACAD_REACTORS
330
19
102
}
330
19
100
AcDbDictionary
281
     1
  3
COLORDICT
350
EE
  3
MATERIALDICT
350
F0
  0
LAYOUT
  5
BD
102
{ACAD_REACTORS
330
BA
102
}
102
{ACAD_XDICTIONARY
360
F1
102
}
330
BA
100
AcDbPlotSettings
  1

  2
Support Center HP LaserJet 4
  4

  6

 40
0.0
 41
0.0
 42
0.0
 43
0.0
 44
0.0
 45
0.0
 46
0.0
 47
0.0
 48
0.0
 49
0.0
140
0.0
141
0.0
142
1.0
143
1.0
 70
   688
 72
     0
 73
     0
 74
     5
  7

 75
    16
147
1.0
148
0.0
149
0.0
100
AcDbLayout
  1
Layout1
 70
     0
 71
     1
 10
0.0
 20
0.0
 11
12.0
 21
9.0
 12
0.0
 22
0.0
 32
0.0
 14
1.000000000000000E+20
 24
1.000000000000000E+20
 34
1.000000000000000E+20
 15
-1.000000000000000E+20
 25
-1.000000000000000E+20
 35
-1.000000000000000E+20
146
0.0
 13
0.0
 23
0.0
 33
0.0
 16
1.0
 26
0.0
 36
0.0
 17
0.0
 27
1.0
 37
0.0
 76
     0
330
B
  0
LAYOUT
  5
BC
102
{ACAD_REACTORS
330
BA
102
}
102
{ACAD_XDICTIONARY
360
F3
102
}
330
BA
100
AcDbPlotSettings
  1

  2
Support Center HP LaserJet 4
  4

  6

 40
0.0
 41
0.0
 42
0.0
 43
0.0
 44
0.0
 45
0.0
 46
0.0
 47
0.0
 48
0.0
 49
0.0
140
0.0
141
0.0
142
1.0
143
1.0
 70
  1712
 72
     0
 73
     0
 74
     0
  7

 75
     0
147
1.0
148
0.0
149
0.0
100
AcDbLayout
  1
Model
 70
     1
 71
     0
 10
0.0
 20
0.0
 11
12.0
 21
9.0
 12
0.0
 22
0.0
 32
0.0
 14
0.0
 24
0.0
 34
0.0
 15
0.0
 25
0.0
 35
0.0
146
0.0
 13
0.0
 23
0.0
 33
0.0
 16
1.0
 26
0.0
 36
0.0
 17
0.0
 27
1.0
 37
0.0
 76
     0
330
A
  0
MLINESTYLE
  5
1C
102
{ACAD_REACTORS
330
1B
102
}
330
1B
100
AcDbMlineStyle
  2
STANDARD
 70
     0
  3

 62
     0
 51
90.0000000000002
 52
90.0000000000002
 71
     2
 49
0.5
 62
   256
  6
BYLAYER
 49
-0.5
 62
   256
  6
BYLAYER
  0
ACDBPLACEHOLDER
  5
B9
102
{ACAD_REACTORS
330
B8
102
}
330
B8
  0
XRECORD
  5
EE
102
{ACAD_REACTORS
330
EC
102
}
330
EC
100
AcDbXrecord
340
ED
  0
XRECORD
  5
F0
102
{ACAD_REACTORS
330
EC
102
}
330
EC
100
AcDbXrecord
340
EF
  0
DICTIONARY
  5
F1
330
BD
100
AcDbDictionary
280
     1
281
     1
  3
ACAD_XREC_ROUNDTRIP
360
F2
  0
DICTIONARY
  5
F3
330
BC
100
AcDbDictionary
280
     1
281
     1
  3
ACAD_XREC_ROUNDTRIP
360
F4
  0
XRECORD
  5
F2
102
{ACAD_REACTORS
330
F1
102
}
330
F1
100
AcDbXrecord
102
SHADEPLOT
 70
 30248
102
SHADEPLOTRESLEVEL
 70
 31688
102
SHADEPLOTCUSTOMDPI
 70
-28568
  0
XRECORD
  5
F4
102
{ACAD_REACTORS
330
F3
102
}
330
F3
100
AcDbXrecord
102
SHADEPLOT
 70
 -5928
102
SHADEPLOTRESLEVEL
 70
 -5872
102
SHADEPLOTCUSTOMDPI
 70
 -5816
  0
ENDSEC
  0
EOF
