  0
SECTION
  2
HEADER
  9
$ACADVER
  1
AC1015
  9
$ACADMAINTVER
 70
     6
  9
$DWGCODEPAGE
  3
ANSI_1252
  9
$INSBASE
 10
0.0
 20
0.0
 30
0.0
  9
$EXTMIN
 10
62.98338367661357
 20
93.09569375840262
 30
-0.0015258207003612
  9
$EXTMAX
 10
152.9166167429773
 20
186.3043066756073
 30
0.0000000349246008
  9
$LIMMIN
 10
62.89676378038194
 20
93.0985378689236
  9
$LIMMAX
 10
153.003236219618
 20
186.3014621310764
  9
$ORTHOMODE
 70
     0
  9
$REGENMODE
 70
     1
  9
$FILLMODE
 70
     1
  9
$QTEXTMODE
 70
     0
  9
$MIRRTEXT
 70
     1
  9
$LTSCALE
 40
1.0
  9
$ATTMODE
 70
     1
  9
$TEXTSIZE
 40
0.2
  9
$TRACEWID
 40
0.05
  9
$TEXTSTYLE
  7
STANDARD
  9
$CLAYER
  8
0
  9
$CELTYPE
  6
CONTINUOUS
  9
$CECOLOR
 62
   256
  9
$CELTSCALE
 40
1.0
  9
$DISPSILH
 70
     0
  9
$DIMSCALE
 40
1.0
  9
$DIMASZ
 40
0.18
  9
$DIMEXO
 40
0.0625
  9
$DIMDLI
 40
0.38
  9
$DIMRND
 40
0.0
  9
$DIMDLE
 40
0.0
  9
$DIMEXE
 40
0.18
  9
$DIMTP
 40
0.0
  9
$DIMTM
 40
0.0
  9
$DIMTXT
 40
0.18
  9
$DIMCEN
 40
0.09
  9
$DIMTSZ
 40
0.0
  9
$DIMTOL
 70
     0
  9
$DIMLIM
 70
     0
  9
$DIMTIH
 70
     1
  9
$DIMTOH
 70
     1
  9
$DIMSE1
 70
     0
  9
$DIMSE2
 70
     0
  9
$DIMTAD
 70
     0
  9
$DIMZIN
 70
     0
  9
$DIMBLK
  1

  9
$DIMASO
 70
     1
  9
$DIMSHO
 70
     1
  9
$DIMPOST
  1

  9
$DIMAPOST
  1

  9
$DIMALT
 70
     0
  9
$DIMALTD
 70
     2
  9
$DIMALTF
 40
25.4
  9
$DIMLFAC
 40
1.0
  9
$DIMTOFL
 70
     0
  9
$DIMTVP
 40
0.0
  9
$DIMTIX
 70
     0
  9
$DIMSOXD
 70
     0
  9
$DIMSAH
 70
     0
  9
$DIMBLK1
  1

  9
$DIMBLK2
  1

  9
$DIMSTYLE
  2
STANDARD
  9
$DIMCLRD
 70
     0
  9
$DIMCLRE
 70
     0
  9
$DIMCLRT
 70
     0
  9
$DIMTFAC
 40
1.0
  9
$DIMGAP
 40
0.09
  9
$DIMJUST
 70
     0
  9
$DIMSD1
 70
     0
  9
$DIMSD2
 70
     0
  9
$DIMTOLJ
 70
     1
  9
$DIMTZIN
 70
     0
  9
$DIMALTZ
 70
     0
  9
$DIMALTTZ
 70
     0
  9
$DIMUPT
 70
     0
  9
$DIMDEC
 70
     4
  9
$DIMTDEC
 70
     4
  9
$DIMALTU
 70
     2
  9
$DIMALTTD
 70
     2
  9
$DIMTXSTY
  7
STANDARD
  9
$DIMAUNIT
 70
     0
  9
$DIMADEC
 70
     0
  9
$DIMALTRND
 40
0.0
  9
$DIMAZIN
 70
     0
  9
$DIMDSEP
 70
    46
  9
$DIMATFIT
 70
     3
  9
$DIMFRAC
 70
     0
  9
$DIMLDRBLK
  1

  9
$DIMLUNIT
 70
     2
  9
$DIMLWD
 70
    -2
  9
$DIMLWE
 70
    -2
  9
$DIMTMOVE
 70
     0
  9
$LUNITS
 70
     2
  9
$LUPREC
 70
     4
  9
$SKETCHINC
 40
0.1
  9
$FILLETRAD
 40
0.0
  9
$AUNITS
 70
     0
  9
$AUPREC
 70
     0
  9
$MENU
  1
acad
  9
$ELEVATION
 40
0.0
  9
$PELEVATION
 40
0.0
  9
$THICKNESS
 40
0.0
  9
$LIMCHECK
 70
     0
  9
$CHAMFERA
 40
0.0
  9
$CHAMFERB
 40
0.0
  9
$CHAMFERC
 40
0.0
  9
$CHAMFERD
 40
0.0
  9
$SKPOLY
 70
     0
  9
$TDCREATE
 40
2444971.666666667
  9
$TDUCREATE
 40
2444972.0
  9
$TDUPDATE
 40
2452219.394162847
  9
$TDUUPDATE
 40
2452219.727496181
  9
$TDINDWG
 40
0.0002752315
  9
$TDUSRTIMER
 40
0.0002752315
  9
$USRTIMER
 70
     1
  9
$ANGBASE
 50
0.0
  9
$ANGDIR
 70
     0
  9
$PDMODE
 70
     0
  9
$PDSIZE
 40
0.0
  9
$PLINEWID
 40
0.0
  9
$SPLFRAME
 70
     0
  9
$SPLINETYPE
 70
     6
  9
$SPLINESEGS
 70
     8
  9
$HANDSEED
  5
15C
  9
$SURFTAB1
 70
     6
  9
$SURFTAB2
 70
     6
  9
$SURFTYPE
 70
     6
  9
$SURFU
 70
     6
  9
$SURFV
 70
     6
  9
$UCSBASE
  2

  9
$UCSNAME
  2

  9
$UCSORG
 10
0.0
 20
0.0
 30
0.0
  9
$UCSXDIR
 10
1.0
 20
0.0
 30
0.0
  9
$UCSYDIR
 10
0.0
 20
1.0
 30
0.0
  9
$UCSORTHOREF
  2

  9
$UCSORTHOVIEW
 70
     0
  9
$UCSORGTOP
 10
0.0
 20
0.0
 30
0.0
  9
$UCSORGBOTTOM
 10
0.0
 20
0.0
 30
0.0
  9
$UCSORGLEFT
 10
0.0
 20
0.0
 30
0.0
  9
$UCSORGRIGHT
 10
0.0
 20
0.0
 30
0.0
  9
$UCSORGFRONT
 10
0.0
 20
0.0
 30
0.0
  9
$UCSORGBACK
 10
0.0
 20
0.0
 30
0.0
  9
$PUCSBASE
  2

  9
$PUCSNAME
  2

  9
$PUCSORG
 10
0.0
 20
0.0
 30
0.0
  9
$PUCSXDIR
 10
1.0
 20
0.0
 30
0.0
  9
$PUCSYDIR
 10
0.0
 20
1.0
 30
0.0
  9
$PUCSORTHOREF
  2

  9
$PUCSORTHOVIEW
 70
     0
  9
$PUCSORGTOP
 10
0.0
 20
0.0
 30
0.0
  9
$PUCSORGBOTTOM
 10
0.0
 20
0.0
 30
0.0
  9
$PUCSORGLEFT
 10
0.0
 20
0.0
 30
0.0
  9
$PUCSORGRIGHT
 10
0.0
 20
0.0
 30
0.0
  9
$PUCSORGFRONT
 10
0.0
 20
0.0
 30
0.0
  9
$PUCSORGBACK
 10
0.0
 20
0.0
 30
0.0
  9
$USERI1
 70
     0
  9
$USERI2
 70
     0
  9
$USERI3
 70
     0
  9
$USERI4
 70
     0
  9
$USERI5
 70
     0
  9
$USERR1
 40
0.0
  9
$USERR2
 40
0.0
  9
$USERR3
 40
0.0
  9
$USERR4
 40
0.0
  9
$USERR5
 40
0.0
  9
$WORLDVIEW
 70
     1
  9
$SHADEDGE
 70
     3
  9
$SHADEDIF
 70
    70
  9
$TILEMODE
 70
     1
  9
$MAXACTVP
 70
    16
  9
$PINSBASE
 10
0.0
 20
0.0
 30
0.0
  9
$PLIMCHECK
 70
     0
  9
$PEXTMIN
 10
1.000000000000000E+20
 20
1.000000000000000E+20
 30
1.000000000000000E+20
  9
$PEXTMAX
 10
-1.000000000000000E+20
 20
-1.000000000000000E+20
 30
-1.000000000000000E+20
  9
$PLIMMIN
 10
0.0
 20
0.0
  9
$PLIMMAX
 10
12.0
 20
9.0
  9
$UNITMODE
 70
     0
  9
$VISRETAIN
 70
     0
  9
$PLINEGEN
 70
     1
  9
$PSLTSCALE
 70
     0
  9
$TREEDEPTH
 70
  3020
  9
$CMLSTYLE
  2
STANDARD
  9
$CMLJUST
 70
     0
  9
$CMLSCALE
 40
1.0
  9
$PROXYGRAPHICS
 70
     0
  9
$MEASUREMENT
 70
     0
  9
$CELWEIGHT
370
    -1
  9
$ENDCAPS
280
     0
  9
$JOINSTYLE
280
     0
  9
$LWDISPLAY
290
     0
  9
$INSUNITS
 70
     0
  9
$HYPERLINKBASE
  1

  9
$STYLESHEET
  1

  9
$XEDIT
290
     1
  9
$CEPSNTYPE
380
     0
  9
$PSTYLEMODE
290
     1
  9
$FINGERPRINTGUID
  2
{0AE0CFA2-D1C7-11D5-923F-00805F198AD5}
  9
$VERSIONGUID
  2
{0AE0CFA4-D1C7-11D5-923F-00805F198AD5}
  9
$EXTNAMES
290
     1
  9
$PSVPSCALE
 40
0.0
  9
$OLESTARTUP
290
     0
  0
ENDSEC
  0
SECTION
  2
CLASSES
  0
CLASS
  1
LWPOLYLINE
  2
AcDbPolyline
  3
AutoCAD 2000
 90
        0
280
     0
281
     1
  0
CLASS
  1
IMAGE
  2
AcDbRasterImage
  3
ISM
 90
      127
280
     0
281
     1
  0
CLASS
  1
OLE2FRAME
  2
AcDbOle2Frame
  3
AutoCAD 2000
 90
        0
280
     0
281
     1
  0
CLASS
  1
HATCH
  2
AcDbHatch
  3
AutoCAD 2000
 90
        0
280
     0
281
     1
  0
CLASS
  1
DICTIONARYVAR
  2
AcDbDictionaryVar
  3
AutoCAD 2000
 90
        0
280
     0
281
     0
  0
CLASS
  1
RASTERVARIABLES
  2
AcDbRasterVariables
  3
ISM
 90
        0
280
     0
281
     0
  0
CLASS
  1
IMAGEDEF
  2
AcDbRasterImageDef
  3
ISM
 90
        0
280
     0
281
     0
  0
CLASS
  1
IMAGEDEF_REACTOR
  2
AcDbRasterImageDefReactor
  3
ISM
 90
        1
280
     0
281
     0
  0
CLASS
  1
IDBUFFER
  2
AcDbIdBuffer
  3
AutoCAD 2000
 90
        0
280
     0
281
     0
  0
CLASS
  1
SPATIAL_FILTER
  2
AcDbSpatialFilter
  3
AutoCAD 2000
 90
        0
280
     0
281
     0
  0
CLASS
  1
XRECORD
  2
AcDbXrecord
  3
AutoCAD 2000
 90
        0
280
     0
281
     0
  0
CLASS
  1
SORTENTSTABLE
  2
AcDbSortentsTable
  3
AutoCAD 2000
 90
        0
280
     0
281
     0
  0
CLASS
  1
LAYER_INDEX
  2
AcDbLayerIndex
  3
AutoCAD 2000
 90
        0
280
     0
281
     0
  0
CLASS
  1
SPATIAL_INDEX
  2
AcDbSpatialIndex
  3
AutoCAD 2000
 90
        0
280
     0
281
     0
  0
CLASS
  1
OBJECT_PTR
  2
CAseDLPNTableRecord
  3
ASE-LPNTableRecord
 90
        1
280
     1
281
     0
  0
CLASS
  1
LAYOUT
  2
AcDbLayout
  3
ObjectDBX Classes
 90
        0
280
     0
281
     0
  0
CLASS
  1
PLOTSETTINGS
  2
AcDbPlotSettings
  3
AutoCAD 2000
 90
        0
280
     0
281
     0
  0
CLASS
  1
ACDBDICTIONARYWDFLT
  2
AcDbDictionaryWithDefault
  3
AutoCAD 2000
 90
        0
280
     0
281
     0
  0
CLASS
  1
ACDBPLACEHOLDER
  2
AcDbPlaceHolder
  3
ObjectDBX Classes
 90
        0
280
     0
281
     0
  0
CLASS
  1
VBAPROJECT
  2
AcDbVbaProject
  3
ObjectDBX Classes
 90
        0
280
     0
281
     0
  0
CLASS
  1
WIPEOUT
  2
AcDbWipeout
  3
WipeOut|AutoCAD Express Tool|expresstools@autodesk.com
 90
      127
280
     0
281
     1
  0
CLASS
  1
WIPEOUTVARIABLES
  2
AcDbWipeoutVariables
  3
WipeOut|AutoCAD Express Tool|expresstools@autodesk.com
 90
        0
280
     0
281
     0
  0
CLASS
  1
RTEXT
  2
RText
  3
RText|AutoCAD Express Tool|expresstools@autodesk.com
 90
        0
280
     0
281
     1
  0
CLASS
  1
ARCALIGNEDTEXT
  2
AcDbArcAlignedText
  3
ATEXT|AutoCAD Express Tool|expresstools@autodesk.com
 90
        0
280
     0
281
     1
  0
CLASS
  1
LONG_TRANSACTION
  2
AcDbLongTransaction
  3
AutoCAD 2000
 90
        0
280
     1
281
     0
  0
CLASS
  1
LWPOLYLINE
  2
AcDbPolyline
  3
AutoCAD 2000
 90
        0
280
     0
281
     1
  0
CLASS
  1
HATCH
  2
AcDbHatch
  3
AutoCAD 2000
 90
        0
280
     0
281
     1
  0
CLASS
  1
XRECORD
  2
AcDbXrecord
  3
AutoCAD 2000
 90
        0
280
     0
281
     0
  0
ENDSEC
  0
SECTION
  2
TABLES
  0
TABLE
  2
VPORT
  5
7
330
0
100
AcDbSymbolTable
 70
     2
  0
VPORT
  5
128
330
7
100
AcDbSymbolTableRecord
100
AcDbViewportTableRecord
  2
*Active
 70
     0
 10
0.0
 20
0.0
 11
1.0
 21
1.0
 12
107.9500002097955
 22
139.700000217005
 13
0.0
 23
0.0
 14
1.0
 24
1.0
 15
0.0
 25
0.0
 16
0.0
 26
0.0
 36
1.0
 17
0.0
 27
0.0
 37
0.0
 40
94.67646508912918
 41
1.836842105263158
 42
50.0
 43
0.0
 44
0.0
 50
0.0
 51
0.0
 71
     0
 72
   100
 73
     1
 74
     1
 75
     0
 76
     0
 77
     0
 78
     0
281
     0
 65
     1
110
0.0
120
0.0
130
0.0
111
1.0
121
0.0
131
0.0
112
0.0
122
1.0
132
0.0
 79
     0
146
0.0
  0
ENDTAB
  0
TABLE
  2
LTYPE
  5
4
330
0
100
AcDbSymbolTable
 70
     1
  0
LTYPE
  5
11
330
4
100
AcDbSymbolTableRecord
100
AcDbLinetypeTableRecord
  2
BYBLOCK
 70
     0
  3

 72
    65
 73
     0
 40
0.0
  0
LTYPE
  5
12
330
4
100
AcDbSymbolTableRecord
100
AcDbLinetypeTableRecord
  2
BYLAYER
 70
     0
  3

 72
    65
 73
     0
 40
0.0
  0
LTYPE
  5
13
330
4
100
AcDbSymbolTableRecord
100
AcDbLinetypeTableRecord
  2
CONTINUOUS
 70
     0
  3
Solid line
 72
    65
 73
     0
 40
0.0
  0
ENDTAB
  0
TABLE
  2
LAYER
  5
2
330
0
100
AcDbSymbolTable
 70
     2
  0
LAYER
  5
14
330
2
100
AcDbSymbolTableRecord
100
AcDbLayerTableRecord
  2
0
 70
     0
 62
     7
  6
CONTINUOUS
370
    -3
390
0
  0
LAYER
  5
21
330
2
100
AcDbSymbolTableRecord
100
AcDbLayerTableRecord
  2
LAYER_1
 70
     0
 62
     5
  6
CONTINUOUS
370
    -3
390
0
  0
ENDTAB
  0
TABLE
  2
STYLE
  5
3
330
0
100
AcDbSymbolTable
 70
     5
  0
STYLE
  5
17
330
3
100
AcDbSymbolTableRecord
100
AcDbTextStyleTableRecord
  2
STANDARD
 70
     0
 40
0.0
 41
1.0
 50
0.0
 71
     0
 42
0.2
  3
txt
  4

  0
STYLE
  5
1D
330
3
100
AcDbSymbolTableRecord
100
AcDbTextStyleTableRecord
  2
STD
 70
     0
 40
0.0
 41
1.0
 50
0.0
 71
     0
 42
0.2
  3
txt
  4

  0
STYLE
  5
1E
330
3
100
AcDbSymbolTableRecord
100
AcDbTextStyleTableRecord
  2
TATESTD
 70
     4
 40
0.0
 41
1.0
 50
0.0
 71
     0
 42
0.2
  3
txt
  4

  0
STYLE
  5
1F
330
3
100
AcDbSymbolTableRecord
100
AcDbTextStyleTableRecord
  2
KANJISTD
 70
     0
 40
0.0
 41
1.0
 50
0.0
 71
     0
 42
0.2
  3
txt
  4
extfont
  0
STYLE
  5
20
330
3
100
AcDbSymbolTableRecord
100
AcDbTextStyleTableRecord
  2
KANJITATE
 70
     4
 40
0.0
 41
1.0
 50
0.0
 71
     0
 42
0.2
  3
txt
  4
extfont
  0
ENDTAB
  0
TABLE
  2
VIEW
  5
5
330
0
100
AcDbSymbolTable
 70
     0
  0
ENDTAB
  0
TABLE
  2
UCS
  5
6
330
0
100
AcDbSymbolTable
 70
     0
  0
ENDTAB
  0
TABLE
  2
APPID
  5
8
330
0
100
AcDbSymbolTable
 70
     1
  0
APPID
  5
16
330
8
100
AcDbSymbolTableRecord
100
AcDbRegAppTableRecord
  2
ACAD
 70
     0
  0
ENDTAB
  0
TABLE
  2
DIMSTYLE
  5
9
330
0
100
AcDbSymbolTable
 70
     1
100
AcDbDimStyleTable
  0
DIMSTYLE
105
18
330
9
100
AcDbSymbolTableRecord
100
AcDbDimStyleTableRecord
  2
STANDARD
 70
     0
  3

  4

289
     0
340
17
  0
ENDTAB
  0
TABLE
  2
BLOCK_RECORD
  5
1
330
0
100
AcDbSymbolTable
 70
     9
  0
BLOCK_RECORD
  5
A
330
1
100
AcDbSymbolTableRecord
100
AcDbBlockTableRecord
  2
*MODEL_SPACE
340
123
  0
BLOCK_RECORD
  5
B
330
1
100
AcDbSymbolTableRecord
100
AcDbBlockTableRecord
  2
*PAPER_SPACE
340
124
  0
BLOCK_RECORD
  5
34
330
1
100
AcDbSymbolTableRecord
100
AcDbBlockTableRecord
  2
AI9-BLK1
340
0
102
{BLKREFS
331
35
102
}
  0
BLOCK_RECORD
  5
4E
330
1
100
AcDbSymbolTableRecord
100
AcDbBlockTableRecord
  2
AI9-BLK2
340
0
102
{BLKREFS
331
4F
102
}
  0
BLOCK_RECORD
  5
8F
330
1
100
AcDbSymbolTableRecord
100
AcDbBlockTableRecord
  2
AI9-BLK3
340
0
102
{BLKREFS
331
90
102
}
  0
BLOCK_RECORD
  5
A2
330
1
100
AcDbSymbolTableRecord
100
AcDbBlockTableRecord
  2
AI9-BLK4
340
0
102
{BLKREFS
331
A3
102
}
  0
BLOCK_RECORD
  5
A5
330
1
100
AcDbSymbolTableRecord
100
AcDbBlockTableRecord
  2
AI9-BLK5
340
0
102
{BLKREFS
331
A6
102
}
  0
BLOCK_RECORD
  5
AF
330
1
100
AcDbSymbolTableRecord
100
AcDbBlockTableRecord
  2
AI9-BLK6
340
0
102
{BLKREFS
331
B0
102
}
  0
BLOCK_RECORD
  5
CC
330
1
100
AcDbSymbolTableRecord
100
AcDbBlockTableRecord
  2
AI9-BLK7
340
0
102
{BLKREFS
331
CD
102
}
  0
BLOCK_RECORD
  5
DD
330
1
100
AcDbSymbolTableRecord
100
AcDbBlockTableRecord
  2
AI9-BLK8
340
0
102
{BLKREFS
331
DE
102
}
  0
BLOCK_RECORD
  5
FC
330
1
100
AcDbSymbolTableRecord
100
AcDbBlockTableRecord
  2
AI9-BLK9
340
0
102
{BLKREFS
331
FD
102
}
  0
ENDTAB
  0
ENDSEC
  0
SECTION
  2
BLOCKS
  0
BLOCK
  5
D
330
A
100
AcDbEntity
  8
0
100
AcDbBlockBegin
  2
*MODEL_SPACE
 70
     0
 10
0.0
 20
0.0
 30
0.0
  3
*MODEL_SPACE
  1

  4

  0
ENDBLK
  5
E
330
A
100
AcDbEntity
  8
0
100
AcDbBlockEnd
  0
BLOCK
  5
F
330
B
100
AcDbEntity
 67
     1
  8
0
100
AcDbBlockBegin
  2
*PAPER_SPACE
 70
     0
 10
0.0
 20
0.0
 30
0.0
  3
*PAPER_SPACE
  1

  4

  0
ENDBLK
  5
10
330
B
100
AcDbEntity
 67
     1
  8
0
100
AcDbBlockEnd
  0
BLOCK
  5
36
330
34
100
AcDbEntity
  8
LAYER_1
 62
     7
100
AcDbBlockBegin
  2
AI9-BLK1
 70
     0
 10
0.0
 20
0.0
 30
0.0
  3
AI9-BLK1
  1

  4

  0
LWPOLYLINE
  5
43
330
34
100
AcDbEntity
  8
LAYER_1
 62
     7
100
AcDbPolyline
 90
        8
 70
     1
 43
0.0
 10
-3.742062717013889
 20
5.661842176649305
 10
-3.742062717013889
 20
-5.661842176649305
 10
3.742062717013889
 20
-5.661842176649305
 10
3.742062717013889
 20
-2.783809407552083
 10
1.794550238715278
 20
-1.56424560546875
 10
1.794550238715278
 20
1.532895236545139
 10
3.742062717013889
 20
2.799312337239583
 10
3.742062717013889
 20
5.661842176649305
  0
CIRCLE
  5
42
330
34
100
AcDbEntity
  8
LAYER_1
 62
     7
100
AcDbCircle
 10
2.474956597222222
 20
4.452958170572916
 30
0.0
 40
0.7510308159722221
  0
CIRCLE
  5
41
330
34
100
AcDbEntity
  8
LAYER_1
 62
     7
100
AcDbCircle
 10
2.474956597222222
 20
-4.414889865451388
 30
0.0
 40
0.7512030707465277
  0
CIRCLE
  5
40
330
34
100
AcDbEntity
  8
LAYER_1
 62
     7
100
AcDbCircle
 10
0.5043619791666666
 20
-0.5674072265625
 30
0.0
 40
0.7510308159722221
  0
CIRCLE
  5
3F
330
34
100
AcDbEntity
  8
LAYER_1
 62
     7
100
AcDbCircle
 10
-0.9735839843749999
 20
-3.159841579861111
 30
0.0
 40
0.7510308159722221
  0
SPLINE
  5
3E
330
34
100
AcDbEntity
  8
LAYER_1
 62
     7
100
AcDbSpline
210
0.0
220
0.0
230
1.0
 70
     8
 71
     3
 72
    17
 73
    13
 74
     0
 42
0.0000000001
 43
0.0000000001
 40
0.0
 40
0.0
 40
0.0
 40
0.0
 40
1.0
 40
1.0
 40
1.0
 40
2.0
 40
2.0
 40
2.0
 40
3.0
 40
3.0
 40
3.0
 40
4.0
 40
4.0
 40
4.0
 40
4.0
 10
-0.2225531684027778
 20
4.816760253906249
 30
0.0
 10
-0.2225531684027778
 20
4.816760253906249
 30
0.0
 10
-0.2225531684027778
 20
2.51767578125
 30
0.0
 10
-0.2225531684027778
 20
2.51767578125
 30
0.0
 10
-0.2225531684027778
 20
2.102541775173611
 30
0.0
 10
-0.5587944878472222
 20
1.766644965277778
 30
0.0
 10
-0.9735839843749999
 20
1.766644965277778
 30
0.0
 10
-1.388717990451389
 20
1.766644965277778
 30
0.0
 10
-1.724959309895833
 20
2.102541775173611
 30
0.0
 10
-1.724959309895833
 20
2.51767578125
 30
0.0
 10
-1.724959309895833
 20
2.51767578125
 30
0.0
 10
-1.724959309895833
 20
4.769906955295139
 30
0.0
 10
-1.724959309895833
 20
4.769906955295139
 30
0.0
  0
CIRCLE
  5
3D
330
34
100
AcDbEntity
  8
LAYER_1
 62
     7
100
AcDbCircle
 10
-0.9735839843749999
 20
2.51767578125
 30
0.0
 40
0.7510308159722221
  0
LWPOLYLINE
  5
37
330
34
100
AcDbEntity
  8
LAYER_1
 62
     7
100
AcDbPolyline
 90
        4
 70
     1
 43
0.0
 10
-3.742062717013889
 20
5.661842176649305
 10
-3.742062717013889
 20
-5.661842176649305
 10
-2.897153049045139
 20
-5.661842176649305
 10
-2.897153049045139
 20
5.661842176649305
  0
ENDBLK
  5
4D
330
34
100
AcDbEntity
  8
LAYER_1
100
AcDbBlockEnd
  0
BLOCK
  5
50
330
4E
100
AcDbEntity
  8
LAYER_1
 62
     7
100
AcDbBlockBegin
  2
AI9-BLK2
 70
     0
 10
0.0
 20
0.0
 30
0.0
  3
AI9-BLK2
  1

  4

  0
LWPOLYLINE
  5
5D
330
4E
100
AcDbEntity
  8
LAYER_1
 62
     7
100
AcDbPolyline
 90
        8
 70
     1
 43
0.0
 10
3.741976589626736
 20
-5.661756049262152
 10
3.741976589626736
 20
5.661756049262152
 10
-3.741976589626736
 20
5.661756049262152
 10
-3.741976589626736
 20
2.783895534939236
 10
-1.794636366102431
 20
1.563814968532986
 10
-1.794636366102431
 20
-1.532464599609375
 10
-3.741976589626736
 20
-2.799398464626736
 10
-3.741976589626736
 20
-5.661756049262152
  0
CIRCLE
  5
5C
330
4E
100
AcDbEntity
  8
LAYER_1
 62
     7
100
AcDbCircle
 10
-2.475042724609375
 20
-4.453044297960069
 30
0.0
 40
0.7510308159722221
  0
CIRCLE
  5
5B
330
4E
100
AcDbEntity
  8
LAYER_1
 62
     7
100
AcDbCircle
 10
-2.475042724609375
 20
4.41463148328993
 30
0.0
 40
0.7510308159722221
  0
CIRCLE
  5
5A
330
4E
100
AcDbEntity
  8
LAYER_1
 62
     7
100
AcDbCircle
 10
-0.5044481065538194
 20
0.5673210991753471
 30
0.0
 40
0.7510308159722221
  0
CIRCLE
  5
59
330
4E
100
AcDbEntity
  8
LAYER_1
 62
     7
100
AcDbCircle
 10
0.9734978569878472
 20
3.159755452473958
 30
0.0
 40
0.7510308159722221
  0
SPLINE
  5
58
330
4E
100
AcDbEntity
  8
LAYER_1
 62
     7
100
AcDbSpline
210
0.0
220
0.0
230
1.0
 70
     8
 71
     3
 72
    17
 73
    13
 74
     0
 42
0.0000000001
 43
0.0000000001
 40
0.0
 40
0.0
 40
0.0
 40
0.0
 40
1.0
 40
1.0
 40
1.0
 40
2.0
 40
2.0
 40
2.0
 40
3.0
 40
3.0
 40
3.0
 40
4.0
 40
4.0
 40
4.0
 40
4.0
 10
0.222467041015625
 20
-4.817363145616319
 30
0.0
 10
0.222467041015625
 20
-4.817363145616319
 30
0.0
 10
0.222467041015625
 20
-2.517761908637153
 30
0.0
 10
0.222467041015625
 20
-2.517761908637153
 30
0.0
 10
0.222467041015625
 20
-2.102972412109375
 30
0.0
 10
0.5587083604600694
 20
-1.76673109266493
 30
0.0
 10
0.9734978569878472
 20
-1.76673109266493
 30
0.0
 10
1.388631863064236
 20
-1.76673109266493
 30
0.0
 10
1.724528672960069
 20
-2.102972412109375
 30
0.0
 10
1.724528672960069
 20
-2.517761908637153
 30
0.0
 10
1.724528672960069
 20
-2.517761908637153
 30
0.0
 10
1.724528672960069
 20
-4.769993082682292
 30
0.0
 10
1.724528672960069
 20
-4.769993082682292
 30
0.0
  0
CIRCLE
  5
57
330
4E
100
AcDbEntity
  8
LAYER_1
 62
     7
100
AcDbCircle
 10
0.9734978569878472
 20
-2.517761908637153
 30
0.0
 40
0.7510308159722221
  0
LWPOLYLINE
  5
51
330
4E
100
AcDbEntity
  8
LAYER_1
 62
     7
100
AcDbPolyline
 90
        4
 70
     1
 43
0.0
 10
3.741976589626736
 20
-5.661756049262152
 10
3.741976589626736
 20
5.661756049262152
 10
2.897239176432291
 20
5.661756049262152
 10
2.897239176432291
 20
-5.661756049262152
  0
ENDBLK
  5
67
330
4E
100
AcDbEntity
  8
LAYER_1
100
AcDbBlockEnd
  0
BLOCK
  5
91
330
8F
100
AcDbEntity
  8
LAYER_1
 62
     7
100
AcDbBlockBegin
  2
AI9-BLK3
 70
     0
 10
0.0
 20
0.0
 30
0.0
  3
AI9-BLK3
  1

  4

  0
SPLINE
  5
A0
330
8F
100
AcDbEntity
  8
LAYER_1
 62
     7
100
AcDbSpline
210
0.0
220
0.0
230
1.0
 70
    11
 71
     3
 72
    35
 73
    31
 74
     0
 42
0.0000000001
 43
0.0000000001
 40
0.0
 40
0.0
 40
0.0
 40
0.0
 40
1.0
 40
1.0
 40
1.0
 40
2.0
 40
2.0
 40
2.0
 40
3.0
 40
3.0
 40
3.0
 40
4.0
 40
4.0
 40
4.0
 40
5.0
 40
5.0
 40
5.0
 40
6.0
 40
6.0
 40
6.0
 40
7.0
 40
7.0
 40
7.0
 40
8.0
 40
8.0
 40
8.0
 40
9.0
 40
9.0
 40
9.0
 40
10.0
 40
10.0
 40
10.0
 40
10.0
 10
-9.283843315972222
 20
-29.17952813042534
 30
0.0
 10
-9.283843315972222
 20
-29.17952813042534
 30
0.0
 10
-9.282120768229166
 20
-37.5032233344184
 30
0.0
 10
-9.282120768229166
 20
-37.5032233344184
 30
0.0
 10
-9.282120768229166
 20
-37.94850192599826
 30
0.0
 10
-9.170671929253471
 20
-38.14142727322048
 30
0.0
 10
-8.678540039062499
 20
-38.14142727322048
 30
0.0
 10
-8.678540039062499
 20
-38.14142727322048
 30
0.0
 10
8.684396701388888
 20
-38.14314982096354
 30
0.0
 10
8.684396701388888
 20
-38.14314982096354
 30
0.0
 10
9.059050835503472
 20
-38.14314982096354
 30
0.0
 10
9.277814398871527
 20
-37.94850192599826
 30
0.0
 10
9.277814398871527
 20
-37.5032233344184
 30
0.0
 10
9.277814398871527
 20
-37.5032233344184
 30
0.0
 10
9.283843315972222
 20
-29.18469577365451
 30
0.0
 10
9.283843315972222
 20
-29.18469577365451
 30
0.0
 10
9.283843315972222
 20
-29.18469577365451
 30
0.0
 10
1.611960177951389
 20
-29.18469577365451
 30
0.0
 10
1.611960177951389
 20
-29.18469577365451
 30
0.0
 10
1.611960177951389
 20
-29.18469577365451
 30
0.0
 10
1.611960177951389
 20
-33.19134182400173
 30
0.0
 10
1.611960177951389
 20
-33.19134182400173
 30
0.0
 10
1.611960177951389
 20
-33.19134182400173
 30
0.0
 10
-1.668459743923611
 20
-33.19134182400173
 30
0.0
 10
-1.668459743923611
 20
-33.19134182400173
 30
0.0
 10
-1.668459743923611
 20
-33.19134182400173
 30
0.0
 10
-1.668459743923611
 20
-29.18469577365451
 30
0.0
 10
-1.668459743923611
 20
-29.18469577365451
 30
0.0
 10
-1.668459743923611
 20
-29.18469577365451
 30
0.0
 10
-9.283843315972222
 20
-29.17952813042534
 30
0.0
 10
-9.283843315972222
 20
-29.17952813042534
 30
0.0
  0
SPLINE
  5
9F
330
8F
100
AcDbEntity
  8
LAYER_1
 62
     7
100
AcDbSpline
210
0.0
220
0.0
230
1.0
 70
    11
 71
     3
 72
    35
 73
    31
 74
     0
 42
0.0000000001
 43
0.0000000001
 40
0.0
 40
0.0
 40
0.0
 40
0.0
 40
1.0
 40
1.0
 40
1.0
 40
2.0
 40
2.0
 40
2.0
 40
3.0
 40
3.0
 40
3.0
 40
4.0
 40
4.0
 40
4.0
 40
5.0
 40
5.0
 40
5.0
 40
6.0
 40
6.0
 40
6.0
 40
7.0
 40
7.0
 40
7.0
 40
8.0
 40
8.0
 40
8.0
 40
9.0
 40
9.0
 40
9.0
 40
10.0
 40
10.0
 40
10.0
 40
10.0
 10
-9.283843315972222
 20
29.21621839735243
 30
0.0
 10
-9.283843315972222
 20
29.21621839735243
 30
0.0
 10
-9.282120768229166
 20
37.53991360134548
 30
0.0
 10
-9.282120768229166
 20
37.53991360134548
 30
0.0
 10
-9.282120768229166
 20
37.98484768337674
 30
0.0
 10
-9.170671929253471
 20
38.17828979492187
 30
0.0
 10
-8.678540039062499
 20
38.17828979492187
 30
0.0
 10
-8.678540039062499
 20
38.17828979492187
 30
0.0
 10
8.684396701388888
 20
38.18001234266492
 30
0.0
 10
8.684396701388888
 20
38.18001234266492
 30
0.0
 10
9.059050835503472
 20
38.18001234266492
 30
0.0
 10
9.277814398871527
 20
37.98484768337674
 30
0.0
 10
9.277814398871527
 20
37.53991360134548
 30
0.0
 10
9.277814398871527
 20
37.53991360134548
 30
0.0
 10
9.283843315972222
 20
29.22104153103298
 30
0.0
 10
9.283843315972222
 20
29.22104153103298
 30
0.0
 10
9.283843315972222
 20
29.22104153103298
 30
0.0
 10
1.611960177951389
 20
29.22104153103298
 30
0.0
 10
1.611960177951389
 20
29.22104153103298
 30
0.0
 10
1.611960177951389
 20
29.22104153103298
 30
0.0
 10
1.611960177951389
 20
33.22803209092881
 30
0.0
 10
1.611960177951389
 20
33.22803209092881
 30
0.0
 10
1.611960177951389
 20
33.22803209092881
 30
0.0
 10
-1.668459743923611
 20
33.22803209092881
 30
0.0
 10
-1.668459743923611
 20
33.22803209092881
 30
0.0
 10
-1.668459743923611
 20
33.22803209092881
 30
0.0
 10
-1.668459743923611
 20
29.22104153103298
 30
0.0
 10
-1.668459743923611
 20
29.22104153103298
 30
0.0
 10
-1.668459743923611
 20
29.22104153103298
 30
0.0
 10
-9.283843315972222
 20
29.21621839735243
 30
0.0
 10
-9.283843315972222
 20
29.21621839735243
 30
0.0
  0
SPLINE
  5
9E
330
8F
100
AcDbEntity
  8
LAYER_1
 62
     7
100
AcDbSpline
210
0.0
220
0.0
230
1.0
 70
     8
 71
     3
 72
    14
 73
    10
 74
     0
 42
0.0000000001
 43
0.0000000001
 40
0.0
 40
0.0
 40
0.0
 40
0.0
 40
1.0
 40
1.0
 40
1.0
 40
2.0
 40
2.0
 40
2.0
 40
3.0
 40
3.0
 40
3.0
 40
3.0
 10
1.683962673611111
 20
-32.50921291775173
 30
0.0
 10
2.182640245225694
 20
-32.6042975531684
 30
0.0
 10
2.581410047743055
 20
-32.69593709309896
 30
0.0
 10
2.798795572916666
 20
-32.7779303656684
 30
0.0
 10
3.798906792534722
 20
-33.15241224500868
 30
0.0
 10
5.798267957899305
 20
-33.27781372070312
 30
0.0
 10
6.61044921875
 20
-33.43370429144965
 30
0.0
 10
7.42314724392361
 20
-33.58993937174479
 30
0.0
 10
9.234750705295138
 20
-34.24623006184896
 30
0.0
 10
9.234750705295138
 20
-34.24623006184896
 30
0.0
  0
SPLINE
  5
9D
330
8F
100
AcDbEntity
  8
LAYER_1
 62
     7
100
AcDbSpline
210
0.0
220
0.0
230
1.0
 70
     8
 71
     3
 72
    11
 73
     7
 74
     0
 42
0.0000000001
 43
0.0000000001
 40
0.0
 40
0.0
 40
0.0
 40
0.0
 40
1.0
 40
1.0
 40
1.0
 40
2.0
 40
2.0
 40
2.0
 40
2.0
 10
-9.260761176215278
 20
-30.55963338216145
 30
0.0
 10
-7.948179796006944
 20
-30.65299546983507
 30
0.0
 10
-4.69893798828125
 20
-31.6215840657552
 30
0.0
 10
-3.855750868055555
 20
-31.71546291775173
 30
0.0
 10
-3.548276095920139
 20
-31.74991387261284
 30
0.0
 10
-2.713701714409722
 20
-31.85016615125868
 30
0.0
 10
-1.728748914930556
 20
-31.98245781792534
 30
0.0
  0
SPLINE
  5
9C
330
8F
100
AcDbEntity
  8
LAYER_1
 62
     7
100
AcDbSpline
210
0.0
220
0.0
230
1.0
 70
     8
 71
     3
 72
    14
 73
    10
 74
     0
 42
0.0000000001
 43
0.0000000001
 40
0.0
 40
0.0
 40
0.0
 40
0.0
 40
1.0
 40
1.0
 40
1.0
 40
2.0
 40
2.0
 40
2.0
 40
3.0
 40
3.0
 40
3.0
 40
3.0
 10
1.650889756944444
 20
-31.52512139214409
 30
0.0
 10
2.159385850694444
 20
-31.64277140299479
 30
0.0
 10
2.570730251736111
 20
-31.75077514648437
 30
0.0
 10
2.798795572916666
 20
-31.83638576931423
 30
0.0
 10
3.798906792534722
 20
-32.21155666775174
 30
0.0
 10
5.798267957899305
 20
-32.33644137912326
 30
0.0
 10
6.61044921875
 20
-32.4926764594184
 30
0.0
 10
7.42314724392361
 20
-32.64908379448784
 30
0.0
 10
9.234750705295138
 20
-33.3050299750434
 30
0.0
 10
9.234750705295138
 20
-33.3050299750434
 30
0.0
  0
SPLINE
  5
9B
330
8F
100
AcDbEntity
  8
LAYER_1
 62
     7
100
AcDbSpline
210
0.0
220
0.0
230
1.0
 70
     8
 71
     3
 72
    11
 73
     7
 74
     0
 42
0.0000000001
 43
0.0000000001
 40
0.0
 40
0.0
 40
0.0
 40
0.0
 40
1.0
 40
1.0
 40
1.0
 40
2.0
 40
2.0
 40
2.0
 40
2.0
 10
-7.729416232638888
 20
-29.18504028320312
 30
0.0
 10
-6.417179361979166
 20
-29.27840237087673
 30
0.0
 10
-4.386640082465277
 20
-30.46575453016493
 30
0.0
 10
-3.543108452690972
 20
-30.55963338216145
 30
0.0
 10
-3.256304253472222
 20
-30.59150051540798
 30
0.0
 10
-2.547475857204861
 20
-30.70604994032118
 30
0.0
 10
-1.697398546006944
 20
-30.85763414171007
 30
0.0
  0
SPLINE
  5
9A
330
8F
100
AcDbEntity
  8
LAYER_1
 62
     7
100
AcDbSpline
210
0.0
220
0.0
230
1.0
 70
     8
 71
     3
 72
    14
 73
    10
 74
     0
 42
0.0000000001
 43
0.0000000001
 40
0.0
 40
0.0
 40
0.0
 40
0.0
 40
1.0
 40
1.0
 40
1.0
 40
2.0
 40
2.0
 40
2.0
 40
3.0
 40
3.0
 40
3.0
 40
3.0
 10
1.711178927951389
 20
-30.62646823459201
 30
0.0
 10
2.759693739149305
 20
-30.83903062608507
 30
0.0
 10
3.70364990234375
 20
-31.05572713216145
 30
0.0
 10
4.099319118923611
 20
-31.20386623806423
 30
0.0
 10
5.099430338541667
 20
-31.57903713650173
 30
0.0
 10
7.09879150390625
 20
-31.70374959309896
 30
0.0
 10
7.910972764756944
 20
-31.8601569281684
 30
0.0
 10
8.723670789930555
 20
-32.01604749891493
 30
0.0
 10
9.234750705295138
 20
-32.02810533311632
 30
0.0
 10
9.234750705295138
 20
-32.02810533311632
 30
0.0
  0
SPLINE
  5
99
330
8F
100
AcDbEntity
  8
LAYER_1
 62
     7
100
AcDbSpline
210
0.0
220
0.0
230
1.0
 70
     8
 71
     3
 72
    11
 73
     7
 74
     0
 42
0.0000000001
 43
0.0000000001
 40
0.0
 40
0.0
 40
0.0
 40
0.0
 40
1.0
 40
1.0
 40
1.0
 40
2.0
 40
2.0
 40
2.0
 40
2.0
 10
-4.261927625868055
 20
-29.21604614257812
 30
0.0
 10
-2.949690755208333
 20
-29.46616007486979
 30
0.0
 10
-3.086116536458333
 20
-29.83306274414062
 30
0.0
 10
-2.242584906684028
 20
-29.92711385091146
 30
0.0
 10
-2.124934895833333
 20
-29.93986070421007
 30
0.0
 10
-1.936488172743055
 20
-29.96707695855034
 30
0.0
 10
-1.6960205078125
 20
-30.00462849934896
 30
0.0
  0
SPLINE
  5
98
330
8F
100
AcDbEntity
  8
LAYER_1
 62
     7
100
AcDbSpline
210
0.0
220
0.0
230
1.0
 70
     8
 71
     3
 72
    11
 73
     7
 74
     0
 42
0.0000000001
 43
0.0000000001
 40
0.0
 40
0.0
 40
0.0
 40
0.0
 40
1.0
 40
1.0
 40
1.0
 40
2.0
 40
2.0
 40
2.0
 40
2.0
 10
1.674488661024306
 20
-29.5596944173177
 30
0.0
 10
2.51767578125
 20
-29.65357326931423
 30
0.0
 10
5.325773111979166
 20
-30.17688327365451
 30
0.0
 10
6.325367567274305
 20
-30.5518819173177
 30
0.0
 10
7.057450358072916
 20
-30.82628377278646
 30
0.0
 10
8.325762261284721
 20
-30.96701592339409
 30
0.0
 10
9.270924207899304
 20
-31.08363240559896
 30
0.0
  0
SPLINE
  5
97
330
8F
100
AcDbEntity
  8
LAYER_1
 62
     7
100
AcDbSpline
210
0.0
220
0.0
230
1.0
 70
     8
 71
     3
 72
    11
 73
     7
 74
     0
 42
0.0000000001
 43
0.0000000001
 40
0.0
 40
0.0
 40
0.0
 40
0.0
 40
1.0
 40
1.0
 40
1.0
 40
2.0
 40
2.0
 40
2.0
 40
2.0
 10
5.022604709201389
 20
-29.18934665256076
 30
0.0
 10
5.969316948784722
 20
-29.38571709526909
 30
0.0
 10
6.797345648871527
 20
-29.57950371636284
 30
0.0
 10
7.161319986979166
 20
-29.71592949761284
 30
0.0
 10
7.690831163194444
 20
-29.91453925238715
 30
0.0
 10
8.501806640624999
 20
-30.0432135687934
 30
0.0
 10
9.267479112413193
 20
-30.14312133789062
 30
0.0
  0
SPLINE
  5
96
330
8F
100
AcDbEntity
  8
LAYER_1
 62
     7
100
AcDbSpline
210
0.0
220
0.0
230
1.0
 70
     8
 71
     3
 72
    17
 73
    13
 74
     0
 42
0.0000000001
 43
0.0000000001
 40
0.0
 40
0.0
 40
0.0
 40
0.0
 40
1.0
 40
1.0
 40
1.0
 40
2.0
 40
2.0
 40
2.0
 40
3.0
 40
3.0
 40
3.0
 40
4.0
 40
4.0
 40
4.0
 40
4.0
 10
-9.260761176215278
 20
-31.94197794596354
 30
0.0
 10
-7.948179796006944
 20
-32.03585679796007
 30
0.0
 10
-4.69893798828125
 20
-33.0042731391059
 30
0.0
 10
-3.855750868055555
 20
-33.09780748155382
 30
0.0
 10
-3.012046983506944
 20
-33.19168633355034
 30
0.0
 10
1.267967393663194
 20
-33.68399047851563
 30
0.0
 10
2.8618408203125
 20
-34.0274664984809
 30
0.0
 10
3.90518798828125
 20
-34.25277574327257
 30
0.0
 10
5.298212348090277
 20
-34.4646491156684
 30
0.0
 10
6.110910373263889
 20
-34.62105645073785
 30
0.0
 10
6.923091634114583
 20
-34.77729153103299
 30
0.0
 10
9.234750705295138
 20
-35.24582451714409
 30
0.0
 10
9.234750705295138
 20
-35.24582451714409
 30
0.0
  0
SPLINE
  5
95
330
8F
100
AcDbEntity
  8
LAYER_1
 62
     7
100
AcDbSpline
210
0.0
220
0.0
230
1.0
 70
     8
 71
     3
 72
    17
 73
    13
 74
     0
 42
0.0000000001
 43
0.0000000001
 40
0.0
 40
0.0
 40
0.0
 40
0.0
 40
1.0
 40
1.0
 40
1.0
 40
2.0
 40
2.0
 40
2.0
 40
3.0
 40
3.0
 40
3.0
 40
4.0
 40
4.0
 40
4.0
 40
4.0
 10
-9.260761176215278
 20
-33.62146199544271
 30
0.0
 10
-7.948179796006944
 20
-33.71499633789063
 30
0.0
 10
-4.69893798828125
 20
-34.14081013997396
 30
0.0
 10
-3.855750868055555
 20
-34.23468899197049
 30
0.0
 10
-3.012046983506944
 20
-34.3282233344184
 30
0.0
 10
1.267967393663194
 20
-34.82035522460937
 30
0.0
 10
2.8618408203125
 20
-35.16400349934896
 30
0.0
 10
3.90518798828125
 20
-35.38931274414063
 30
0.0
 10
5.298212348090277
 20
-35.60153062608507
 30
0.0
 10
6.110910373263889
 20
-35.75742119683159
 30
0.0
 10
6.923091634114583
 20
-35.91365627712673
 30
0.0
 10
9.234750705295138
 20
-36.38218926323784
 30
0.0
 10
9.234750705295138
 20
-36.38218926323784
 30
0.0
  0
SPLINE
  5
94
330
8F
100
AcDbEntity
  8
LAYER_1
 62
     7
100
AcDbSpline
210
0.0
220
0.0
230
1.0
 70
     8
 71
     3
 72
    17
 73
    13
 74
     0
 42
0.0000000001
 43
0.0000000001
 40
0.0
 40
0.0
 40
0.0
 40
0.0
 40
1.0
 40
1.0
 40
1.0
 40
2.0
 40
2.0
 40
2.0
 40
3.0
 40
3.0
 40
3.0
 40
4.0
 40
4.0
 40
4.0
 40
4.0
 10
-9.260761176215278
 20
-34.65619642469618
 30
0.0
 10
-7.948179796006944
 20
-34.75024753146701
 30
0.0
 10
-4.917701551649305
 20
-35.46458808051215
 30
0.0
 10
-4.074169921875
 20
-35.55846693250868
 30
0.0
 10
-3.230810546875
 20
-35.65182902018229
 30
0.0
 10
1.112076822916667
 20
-36.15188462999132
 30
0.0
 10
2.705433485243055
 20
-36.4955329047309
 30
0.0
 10
3.749297417534722
 20
-36.72084214952257
 30
0.0
 10
5.298212348090277
 20
-36.63643731011285
 30
0.0
 10
6.110910373263889
 20
-36.79215562608507
 30
0.0
 10
6.923091634114583
 20
-36.94856296115451
 30
0.0
 10
9.234750705295138
 20
-37.41709594726562
 30
0.0
 10
9.234750705295138
 20
-37.41709594726562
 30
0.0
  0
SPLINE
  5
93
330
8F
100
AcDbEntity
  8
LAYER_1
 62
     7
100
AcDbSpline
210
0.0
220
0.0
230
1.0
 70
     8
 71
     3
 72
    14
 73
    10
 74
     0
 42
0.0000000001
 43
0.0000000001
 40
0.0
 40
0.0
 40
0.0
 40
0.0
 40
1.0
 40
1.0
 40
1.0
 40
2.0
 40
2.0
 40
2.0
 40
3.0
 40
3.0
 40
3.0
 40
3.0
 10
-9.260761176215278
 20
-35.74966973198784
 30
0.0
 10
-7.948179796006944
 20
-35.84354858398437
 30
0.0
 10
-4.917701551649305
 20
-36.55788913302951
 30
0.0
 10
-4.074169921875
 20
-36.65194023980035
 30
0.0
 10
-3.230810546875
 20
-36.74564683702257
 30
0.0
 10
1.112076822916667
 20
-37.24518568250868
 30
0.0
 10
2.705433485243055
 20
-37.58900621202257
 30
0.0
 10
3.749297417534722
 20
-37.81414320203993
 30
0.0
 10
5.267206488715277
 20
-37.99501071506076
 30
0.0
 10
6.079560004340277
 20
-38.1512457953559
 30
0.0
  0
SPLINE
  5
92
330
8F
100
AcDbEntity
  8
LAYER_1
 62
     7
100
AcDbSpline
210
0.0
220
0.0
230
1.0
 70
     8
 71
     3
 72
    11
 73
     7
 74
     0
 42
0.0000000001
 43
0.0000000001
 40
0.0
 40
0.0
 40
0.0
 40
0.0
 40
1.0
 40
1.0
 40
1.0
 40
2.0
 40
2.0
 40
2.0
 40
2.0
 10
-9.260761176215278
 20
-36.98783704969618
 30
0.0
 10
-7.948179796006944
 20
-37.08119913736979
 30
0.0
 10
-6.323817274305555
 20
-37.49547186957465
 30
0.0
 10
-5.480113389756944
 20
-37.58900621202257
 30
0.0
 10
-4.636409505208333
 20
-37.68271280924479
 30
0.0
 10
-1.418690321180556
 20
-37.83912014431423
 30
0.0
 10
0.1746663411458333
 20
-38.18276841905382
 30
0.0
  0
ENDBLK
  5
A1
330
8F
100
AcDbEntity
  8
LAYER_1
100
AcDbBlockEnd
  0
BLOCK
  5
A4
330
A2
100
AcDbEntity
  8
LAYER_1
 62
     7
100
AcDbBlockBegin
  2
AI9-BLK4
 70
     0
 10
0.0
 20
0.0
 30
0.0
  3
AI9-BLK4
  1

  4

  0
LWPOLYLINE
  5
C5
330
A2
100
AcDbEntity
  8
LAYER_1
 62
     7
100
AcDbPolyline
 90
        4
 70
     1
 43
0.0
 10
-1.668459743923611
 20
-33.20279676649305
 10
1.611960177951389
 20
-33.20279676649305
 10
1.611960177951389
 20
33.20279676649305
 10
-1.668459743923611
 20
33.20279676649305
  0
LWPOLYLINE
  5
BF
330
A2
100
AcDbEntity
  8
LAYER_1
 62
     7
100
AcDbPolyline
 90
        4
 70
     1
 43
0.0
 10
9.277814398871527
 20
27.27723253038194
 10
9.283843315972222
 20
-29.1982177734375
 10
1.627463107638889
 20
-29.1982177734375
 10
1.627463107638889
 20
27.27723253038194
  0
LWPOLYLINE
  5
B9
330
A2
100
AcDbEntity
  8
LAYER_1
 62
     7
100
AcDbPolyline
 90
        4
 70
     1
 43
0.0
 10
-1.7115234375
 20
27.27723253038194
 10
-1.7115234375
 20
-29.1982177734375
 10
-9.283843315972222
 20
-29.19098307291667
 10
-9.282120768229166
 20
27.27723253038194
  0
INSERT
  5
B0
330
A2
100
AcDbEntity
  8
LAYER_1
 62
     7
100
AcDbBlockReference
  2
AI9-BLK6
 10
-5.497511121961805
 20
-0.9598036024305555
 30
0.0
  0
INSERT
  5
A6
330
A2
100
AcDbEntity
  8
LAYER_1
 62
     7
100
AcDbBlockReference
  2
AI9-BLK5
 10
5.469950358072916
 20
-0.9598036024305555
 30
0.0
  0
ENDBLK
  5
CB
330
A2
100
AcDbEntity
  8
LAYER_1
100
AcDbBlockEnd
  0
BLOCK
  5
A7
330
A5
100
AcDbEntity
  8
LAYER_1
 62
     7
100
AcDbBlockBegin
  2
AI9-BLK5
 70
     0
 10
0.0
 20
0.0
 30
0.0
  3
AI9-BLK5
  1

  4

  0
LINE
  5
AD
330
A5
100
AcDbEntity
  8
LAYER_1
 62
     7
100
AcDbLine
 10
-2.702849663628472
 20
28.2370361328125
 30
0.0
 11
-2.704572211371528
 21
-28.23186848958333
 31
0.0
  0
LINE
  5
AC
330
A5
100
AcDbEntity
  8
LAYER_1
 62
     7
100
AcDbLine
 10
-1.6216064453125
 20
28.2370361328125
 30
0.0
 11
-1.622812228732639
 21
-28.23324652777778
 31
0.0
  0
LINE
  5
AB
330
A5
100
AcDbEntity
  8
LAYER_1
 62
     7
100
AcDbLine
 10
-0.539846462673611
 20
28.2370361328125
 30
0.0
 11
-0.5407077365451388
 21
-28.2341078016493
 31
0.0
  0
LINE
  5
AA
330
A5
100
AcDbEntity
  8
LAYER_1
 62
     7
100
AcDbLine
 10
0.5413967556423611
 20
28.2370361328125
 30
0.0
 11
0.5407077365451388
 21
-28.23531358506944
 31
0.0
  0
LINE
  5
A9
330
A5
100
AcDbEntity
  8
LAYER_1
 62
     7
100
AcDbLine
 10
1.62315673828125
 20
28.2370361328125
 30
0.0
 11
1.622467719184028
 21
-28.23634711371528
 31
0.0
  0
LINE
  5
A8
330
A5
100
AcDbEntity
  8
LAYER_1
 62
     7
100
AcDbLine
 10
2.704572211371528
 20
28.2370361328125
 30
0.0
 11
2.704227701822917
 21
-28.2370361328125
 31
0.0
  0
ENDBLK
  5
AE
330
A5
100
AcDbEntity
  8
LAYER_1
100
AcDbBlockEnd
  0
BLOCK
  5
B1
330
AF
100
AcDbEntity
  8
LAYER_1
 62
     7
100
AcDbBlockBegin
  2
AI9-BLK6
 70
     0
 10
0.0
 20
0.0
 30
0.0
  3
AI9-BLK6
  1

  4

  0
LINE
  5
B7
330
AF
100
AcDbEntity
  8
LAYER_1
 62
     7
100
AcDbLine
 10
-2.702849663628472
 20
28.2370361328125
 30
0.0
 11
-2.704572211371528
 21
-28.23186848958333
 31
0.0
  0
LINE
  5
B6
330
AF
100
AcDbEntity
  8
LAYER_1
 62
     7
100
AcDbLine
 10
-1.6216064453125
 20
28.2370361328125
 30
0.0
 11
-1.622812228732639
 21
-28.23324652777778
 31
0.0
  0
LINE
  5
B5
330
AF
100
AcDbEntity
  8
LAYER_1
 62
     7
100
AcDbLine
 10
-0.539846462673611
 20
28.2370361328125
 30
0.0
 11
-0.5410522460937499
 21
-28.2341078016493
 31
0.0
  0
LINE
  5
B4
330
AF
100
AcDbEntity
  8
LAYER_1
 62
     7
100
AcDbLine
 10
0.5413967556423611
 20
28.2370361328125
 30
0.0
 11
0.5407077365451388
 21
-28.23531358506944
 31
0.0
  0
LINE
  5
B3
330
AF
100
AcDbEntity
  8
LAYER_1
 62
     7
100
AcDbLine
 10
1.622812228732639
 20
28.2370361328125
 30
0.0
 11
1.622467719184028
 21
-28.23634711371528
 31
0.0
  0
LINE
  5
B2
330
AF
100
AcDbEntity
  8
LAYER_1
 62
     7
100
AcDbLine
 10
2.704572211371528
 20
28.2370361328125
 30
0.0
 11
2.704227701822917
 21
-28.2370361328125
 31
0.0
  0
ENDBLK
  5
B8
330
AF
100
AcDbEntity
  8
LAYER_1
100
AcDbBlockEnd
  0
BLOCK
  5
CE
330
CC
100
AcDbEntity
  8
LAYER_1
 62
     7
100
AcDbBlockBegin
  2
AI9-BLK7
 70
     0
 10
0.0
 20
0.0
 30
0.0
  3
AI9-BLK7
  1

  4

  0
SPLINE
  5
DB
330
CC
100
AcDbEntity
  8
LAYER_1
 62
     7
100
AcDbSpline
210
0.0
220
0.0
230
1.0
 70
     8
 71
     3
 72
    14
 73
    10
 74
     0
 42
0.0000000001
 43
0.0000000001
 40
0.0
 40
0.0
 40
0.0
 40
0.0
 40
1.0
 40
1.0
 40
1.0
 40
2.0
 40
2.0
 40
2.0
 40
3.0
 40
3.0
 40
3.0
 40
3.0
 10
1.676297336154514
 20
-1.189935980902778
 30
0.0
 10
2.174974907769097
 20
-1.095195855034722
 30
0.0
 10
2.573744710286458
 20
-1.00303955078125
 30
0.0
 10
2.791130235460069
 20
-0.9215630425347221
 30
0.0
 10
3.791241455078125
 20
-0.5465643988715278
 30
0.0
 10
5.790602620442708
 20
-0.4216796875
 30
0.0
 10
6.602783881293402
 20
-0.2652723524305555
 30
0.0
 10
7.415481906467013
 20
-0.1090372721354167
 30
0.0
 10
9.227085367838541
 20
0.5467366536458332
 30
0.0
 10
9.227085367838541
 20
0.5467366536458332
 30
0.0
  0
SPLINE
  5
DA
330
CC
100
AcDbEntity
  8
LAYER_1
 62
     7
100
AcDbSpline
210
0.0
220
0.0
230
1.0
 70
     8
 71
     3
 72
    11
 73
     7
 74
     0
 42
0.0000000001
 43
0.0000000001
 40
0.0
 40
0.0
 40
0.0
 40
0.0
 40
1.0
 40
1.0
 40
1.0
 40
2.0
 40
2.0
 40
2.0
 40
2.0
 10
-9.268426513671875
 20
-3.139860026041666
 30
0.0
 10
-7.955845133463541
 20
-3.045981174045139
 30
0.0
 10
-4.706603325737847
 20
-2.077392578125
 30
0.0
 10
-3.863416205512153
 20
-1.983685980902778
 30
0.0
 10
-3.555941433376736
 20
-1.949579535590278
 30
0.0
 10
-2.721367051866319
 20
-1.849327256944444
 30
0.0
 10
-1.736414252387153
 20
-1.717035590277778
 30
0.0
  0
SPLINE
  5
D9
330
CC
100
AcDbEntity
  8
LAYER_1
 62
     7
100
AcDbSpline
210
0.0
220
0.0
230
1.0
 70
     8
 71
     3
 72
    14
 73
    10
 74
     0
 42
0.0000000001
 43
0.0000000001
 40
0.0
 40
0.0
 40
0.0
 40
0.0
 40
1.0
 40
1.0
 40
1.0
 40
2.0
 40
2.0
 40
2.0
 40
3.0
 40
3.0
 40
3.0
 40
3.0
 10
1.643224419487847
 20
-2.173855251736111
 30
0.0
 10
2.151720513237847
 20
-2.056722005208333
 30
0.0
 10
2.563064914279514
 20
-1.948201497395833
 30
0.0
 10
2.791130235460069
 20
-1.862590874565972
 30
0.0
 10
3.791241455078125
 20
-1.487936740451389
 30
0.0
 10
5.790602620442708
 20
-1.362535264756944
 30
0.0
 10
6.602783881293402
 20
-1.206816948784722
 30
0.0
 10
7.415481906467013
 20
-1.050409613715278
 30
0.0
 10
9.227085367838541
 20
-0.3941189236111111
 30
0.0
 10
9.227085367838541
 20
-0.3941189236111111
 30
0.0
  0
SPLINE
  5
D8
330
CC
100
AcDbEntity
  8
LAYER_1
 62
     7
100
AcDbSpline
210
0.0
220
0.0
230
1.0
 70
     8
 71
     3
 72
    11
 73
     7
 74
     0
 42
0.0000000001
 43
0.0000000001
 40
0.0
 40
0.0
 40
0.0
 40
0.0
 40
1.0
 40
1.0
 40
1.0
 40
2.0
 40
2.0
 40
2.0
 40
2.0
 10
-7.858865695529513
 20
-4.446412489149306
 30
0.0
 10
-6.546801079644097
 20
-4.352878146701388
 30
0.0
 10
-4.394305419921874
 20
-3.233222113715278
 30
0.0
 10
-3.550773790147569
 20
-3.139860026041666
 30
0.0
 10
-3.263969590928819
 20
-3.107992892795139
 30
0.0
 10
-2.555141194661458
 20
-2.993443467881944
 30
0.0
 10
-1.705063883463541
 20
-2.841514756944444
 30
0.0
  0
SPLINE
  5
D7
330
CC
100
AcDbEntity
  8
LAYER_1
 62
     7
100
AcDbSpline
210
0.0
220
0.0
230
1.0
 70
     8
 71
     3
 72
    14
 73
    10
 74
     0
 42
0.0000000001
 43
0.0000000001
 40
0.0
 40
0.0
 40
0.0
 40
0.0
 40
1.0
 40
1.0
 40
1.0
 40
2.0
 40
2.0
 40
2.0
 40
3.0
 40
3.0
 40
3.0
 40
3.0
 10
1.703513590494792
 20
-3.073025173611111
 30
0.0
 10
2.752028401692708
 20
-2.859946017795139
 30
0.0
 10
3.695984564887152
 20
-2.643766276041666
 30
0.0
 10
4.091653781467014
 20
-2.495282660590278
 30
0.0
 10
5.091765001085069
 20
-2.120456271701389
 30
0.0
 10
7.091126166449652
 20
-1.99522705078125
 30
0.0
 10
7.903307427300346
 20
-1.839336480034722
 30
0.0
 10
8.716005452473958
 20
-1.682929144965278
 30
0.0
 10
9.227085367838541
 20
-1.671388075086805
 30
0.0
 10
9.227085367838541
 20
-1.671388075086805
 30
0.0
  0
SPLINE
  5
D6
330
CC
100
AcDbEntity
  8
LAYER_1
 62
     7
100
AcDbSpline
210
0.0
220
0.0
230
1.0
 70
     8
 71
     3
 72
    11
 73
     7
 74
     0
 42
0.0000000001
 43
0.0000000001
 40
0.0
 40
0.0
 40
0.0
 40
0.0
 40
1.0
 40
1.0
 40
1.0
 40
2.0
 40
2.0
 40
2.0
 40
2.0
 10
-4.269592963324652
 20
-4.483102756076389
 30
0.0
 10
-2.95735609266493
 20
-4.233333333333333
 30
0.0
 10
-3.09378187391493
 20
-3.865913899739583
 30
0.0
 10
-2.250250244140625
 20
-3.772379557291667
 30
0.0
 10
-2.132600233289931
 20
-3.759115939670139
 30
0.0
 10
-1.944153510199653
 20
-3.732416449652777
 30
0.0
 10
-1.703685845269097
 20
-3.694520399305555
 30
0.0
  0
SPLINE
  5
D5
330
CC
100
AcDbEntity
  8
LAYER_1
 62
     7
100
AcDbSpline
210
0.0
220
0.0
230
1.0
 70
     8
 71
     3
 72
    11
 73
     7
 74
     0
 42
0.0000000001
 43
0.0000000001
 40
0.0
 40
0.0
 40
0.0
 40
0.0
 40
1.0
 40
1.0
 40
1.0
 40
2.0
 40
2.0
 40
2.0
 40
2.0
 10
1.666823323567708
 20
-4.1392822265625
 30
0.0
 10
2.510010443793403
 20
-4.045920138888889
 30
0.0
 10
5.318107774522569
 20
-3.522265625
 30
0.0
 10
6.317702229817708
 20
-3.147611490885416
 30
0.0
 10
7.049785020616318
 20
-2.872865125868055
 30
0.0
 10
8.318096923828124
 20
-2.732477484809027
 30
0.0
 10
9.263258870442707
 20
-2.615861002604166
 30
0.0
  0
SPLINE
  5
D4
330
CC
100
AcDbEntity
  8
LAYER_1
 62
     7
100
AcDbSpline
210
0.0
220
0.0
230
1.0
 70
     8
 71
     3
 72
    11
 73
     7
 74
     0
 42
0.0000000001
 43
0.0000000001
 40
0.0
 40
0.0
 40
0.0
 40
0.0
 40
1.0
 40
1.0
 40
1.0
 40
2.0
 40
2.0
 40
2.0
 40
2.0
 10
5.091248236762152
 20
-4.477935112847222
 30
0.0
 10
6.037443712022569
 20
-4.281909179687499
 30
0.0
 10
6.78968031141493
 20
-4.119645182291666
 30
0.0
 10
7.153654649522569
 20
-3.983047146267361
 30
0.0
 10
7.683165825737847
 20
-3.784437391493055
 30
0.0
 10
8.494141303168401
 20
-3.656279839409722
 30
0.0
 10
9.259813774956596
 20
-3.555855305989583
 30
0.0
  0
SPLINE
  5
D3
330
CC
100
AcDbEntity
  8
LAYER_1
 62
     7
100
AcDbSpline
210
0.0
220
0.0
230
1.0
 70
     8
 71
     3
 72
    17
 73
    13
 74
     0
 42
0.0000000001
 43
0.0000000001
 40
0.0
 40
0.0
 40
0.0
 40
0.0
 40
1.0
 40
1.0
 40
1.0
 40
2.0
 40
2.0
 40
2.0
 40
3.0
 40
3.0
 40
3.0
 40
4.0
 40
4.0
 40
4.0
 40
4.0
 10
-9.268426513671875
 20
-1.757515462239583
 30
0.0
 10
-7.955845133463541
 20
-1.663636610243055
 30
0.0
 10
-4.706603325737847
 20
-0.6952202690972221
 30
0.0
 10
-3.863416205512153
 20
-0.6011691623263888
 30
0.0
 10
-3.019712320963541
 20
-0.5078070746527778
 30
0.0
 10
1.260302056206597
 20
-0.0155029296875
 30
0.0
 10
2.854175482855903
 20
0.3279730902777778
 30
0.0
 10
3.897522650824652
 20
0.5532823350694444
 30
0.0
 10
5.29054701063368
 20
0.7655002170138888
 30
0.0
 10
6.103245035807291
 20
0.9219075520833333
 30
0.0
 10
6.915426296657985
 20
1.077798122829861
 30
0.0
 10
9.227085367838541
 20
1.546847873263889
 30
0.0
 10
9.227085367838541
 20
1.546847873263889
 30
0.0
  0
SPLINE
  5
D2
330
CC
100
AcDbEntity
  8
LAYER_1
 62
     7
100
AcDbSpline
210
0.0
220
0.0
230
1.0
 70
     8
 71
     3
 72
    17
 73
    13
 74
     0
 42
0.0000000001
 43
0.0000000001
 40
0.0
 40
0.0
 40
0.0
 40
0.0
 40
1.0
 40
1.0
 40
1.0
 40
2.0
 40
2.0
 40
2.0
 40
3.0
 40
3.0
 40
3.0
 40
4.0
 40
4.0
 40
4.0
 40
4.0
 10
-9.268426513671875
 20
-0.0780314127604167
 30
0.0
 10
-7.955845133463541
 20
0.0158474392361111
 30
0.0
 10
-4.706603325737847
 20
0.4413167317708333
 30
0.0
 10
-3.863416205512153
 20
0.5351955837673611
 30
0.0
 10
-3.019712320963541
 20
0.6290744357638889
 30
0.0
 10
1.260302056206597
 20
1.12086181640625
 30
0.0
 10
2.854175482855903
 20
1.464510091145833
 30
0.0
 10
3.897522650824652
 20
1.6898193359375
 30
0.0
 10
5.29054701063368
 20
1.902037217881944
 30
0.0
 10
6.103245035807291
 20
2.058444552951389
 30
0.0
 10
6.915426296657985
 20
2.214679633246528
 30
0.0
 10
9.227085367838541
 20
2.683212619357639
 30
0.0
 10
9.227085367838541
 20
2.683212619357639
 30
0.0
  0
SPLINE
  5
D1
330
CC
100
AcDbEntity
  8
LAYER_1
 62
     7
100
AcDbSpline
210
0.0
220
0.0
230
1.0
 70
     8
 71
     3
 72
    17
 73
    13
 74
     0
 42
0.0000000001
 43
0.0000000001
 40
0.0
 40
0.0
 40
0.0
 40
0.0
 40
1.0
 40
1.0
 40
1.0
 40
2.0
 40
2.0
 40
2.0
 40
3.0
 40
3.0
 40
3.0
 40
4.0
 40
4.0
 40
4.0
 40
4.0
 10
-9.268426513671875
 20
0.9567030164930555
 30
0.0
 10
-7.955845133463541
 20
1.050754123263889
 30
0.0
 10
-4.925366889105902
 20
1.765094672309028
 30
0.0
 10
-4.081835259331597
 20
1.858973524305555
 30
0.0
 10
-3.238475884331597
 20
1.952852376302083
 30
0.0
 10
1.104411485460069
 20
2.452907986111111
 30
0.0
 10
2.697768147786458
 20
2.796384006076389
 30
0.0
 10
3.741632080078125
 20
3.021348741319444
 30
0.0
 10
5.29054701063368
 20
2.936943901909722
 30
0.0
 10
6.103245035807291
 20
3.093178982204861
 30
0.0
 10
6.915426296657985
 20
3.2494140625
 30
0.0
 10
9.227085367838541
 20
3.717947048611111
 30
0.0
 10
9.227085367838541
 20
3.717947048611111
 30
0.0
  0
SPLINE
  5
D0
330
CC
100
AcDbEntity
  8
LAYER_1
 62
     7
100
AcDbSpline
210
0.0
220
0.0
230
1.0
 70
     8
 71
     3
 72
    14
 73
    10
 74
     0
 42
0.0000000001
 43
0.0000000001
 40
0.0
 40
0.0
 40
0.0
 40
0.0
 40
1.0
 40
1.0
 40
1.0
 40
2.0
 40
2.0
 40
2.0
 40
3.0
 40
3.0
 40
3.0
 40
3.0
 10
-9.268426513671875
 20
2.050520833333333
 30
0.0
 10
-7.955845133463541
 20
2.14405517578125
 30
0.0
 10
-4.925366889105902
 20
2.858912489149305
 30
0.0
 10
-4.081835259331597
 20
2.952446831597222
 30
0.0
 10
-3.238475884331597
 20
3.046153428819444
 30
0.0
 10
1.104411485460069
 20
3.546209038628472
 30
0.0
 10
2.697768147786458
 20
3.889857313368055
 30
0.0
 10
3.741632080078125
 20
4.115166558159721
 30
0.0
 10
5.25954115125868
 20
4.296034071180555
 30
0.0
 10
6.07189466688368
 20
4.452269151475695
 30
0.0
  0
SPLINE
  5
CF
330
CC
100
AcDbEntity
  8
LAYER_1
 62
     7
100
AcDbSpline
210
0.0
220
0.0
230
1.0
 70
     8
 71
     3
 72
    11
 73
     7
 74
     0
 42
0.0000000001
 43
0.0000000001
 40
0.0
 40
0.0
 40
0.0
 40
0.0
 40
1.0
 40
1.0
 40
1.0
 40
2.0
 40
2.0
 40
2.0
 40
2.0
 10
-9.268426513671875
 20
3.288343641493055
 30
0.0
 10
-7.955845133463541
 20
3.382050238715277
 30
0.0
 10
-6.331482611762152
 20
3.795978461371528
 30
0.0
 10
-5.487778727213541
 20
3.889857313368055
 30
0.0
 10
-4.644074842664931
 20
3.983736165364583
 30
0.0
 10
-1.426355658637153
 20
4.139626736111111
 30
0.0
 10
0.1670010036892361
 20
4.483275010850695
 30
0.0
  0
ENDBLK
  5
DC
330
CC
100
AcDbEntity
  8
LAYER_1
100
AcDbBlockEnd
  0
BLOCK
  5
DF
330
DD
100
AcDbEntity
  8
LAYER_1
 62
     7
100
AcDbBlockBegin
  2
AI9-BLK8
 70
     0
 10
0.0
 20
0.0
 30
0.0
  3
AI9-BLK8
  1

  4

  0
SPLINE
  5
FA
330
DD
100
AcDbEntity
  8
LAYER_1
 62
     7
100
AcDbSpline
210
0.0
220
0.0
230
1.0
 70
     8
 71
     3
 72
    23
 73
    19
 74
     0
 42
0.0000000001
 43
0.0000000001
 40
0.0
 40
0.0
 40
0.0
 40
0.0
 40
1.0
 40
1.0
 40
1.0
 40
2.0
 40
2.0
 40
2.0
 40
3.0
 40
3.0
 40
3.0
 40
4.0
 40
4.0
 40
4.0
 40
5.0
 40
5.0
 40
5.0
 40
6.0
 40
6.0
 40
6.0
 40
6.0
 10
10.0427978515625
 20
-17.42012532552083
 30
0.0
 10
10.0427978515625
 20
-17.42012532552083
 30
0.0
 10
22.11682400173611
 20
-4.098802354600694
 30
0.0
 10
22.11682400173611
 20
-4.098802354600694
 30
0.0
 10
22.11682400173611
 20
-4.098802354600694
 30
0.0
 10
22.11682400173611
 20
13.91870252821181
 30
0.0
 10
22.11682400173611
 20
13.91870252821181
 30
0.0
 10
22.11682400173611
 20
15.54892171223958
 30
0.0
 10
20.67815212673611
 20
15.54892171223958
 30
0.0
 10
19.80223659939236
 20
14.98564860026042
 30
0.0
 10
19.80223659939236
 20
14.98564860026042
 30
0.0
 10
10.13650444878472
 20
9.668143717447915
 30
0.0
 10
10.13650444878472
 20
9.668143717447915
 30
0.0
 10
10.13650444878472
 20
9.668143717447915
 30
0.0
 10
10.13650444878472
 20
20.67866889105903
 30
0.0
 10
10.13650444878472
 20
20.67866889105903
 30
0.0
 10
10.13650444878472
 20
20.67866889105903
 30
0.0
 10
9.231650119357639
 20
20.67866889105903
 30
0.0
 10
9.231650119357639
 20
20.67866889105903
 30
0.0
  0
SPLINE
  5
F9
330
DD
100
AcDbEntity
  8
LAYER_1
 62
     7
100
AcDbSpline
210
0.0
220
0.0
230
1.0
 70
     8
 71
     3
 72
    23
 73
    19
 74
     0
 42
0.0000000001
 43
0.0000000001
 40
0.0
 40
0.0
 40
0.0
 40
0.0
 40
1.0
 40
1.0
 40
1.0
 40
2.0
 40
2.0
 40
2.0
 40
3.0
 40
3.0
 40
3.0
 40
4.0
 40
4.0
 40
4.0
 40
5.0
 40
5.0
 40
5.0
 40
6.0
 40
6.0
 40
6.0
 40
6.0
 10
-9.230099826388889
 20
20.67866889105903
 30
0.0
 10
-9.230099826388889
 20
20.67866889105903
 30
0.0
 10
-10.13684895833333
 20
20.67866889105903
 30
0.0
 10
-10.13684895833333
 20
20.67866889105903
 30
0.0
 10
-10.13684895833333
 20
20.67866889105903
 30
0.0
 10
-10.13684895833333
 20
9.668143717447915
 30
0.0
 10
-10.13684895833333
 20
9.668143717447915
 30
0.0
 10
-10.13684895833333
 20
9.668143717447915
 30
0.0
 10
-19.80206434461805
 20
14.98564860026042
 30
0.0
 10
-19.80206434461805
 20
14.98564860026042
 30
0.0
 10
-20.67815212673611
 20
15.54892171223958
 30
0.0
 10
-22.11682400173611
 20
15.54892171223958
 30
0.0
 10
-22.11682400173611
 20
13.91870252821181
 30
0.0
 10
-22.11682400173611
 20
13.91870252821181
 30
0.0
 10
-22.11682400173611
 20
-4.098802354600694
 30
0.0
 10
-22.11682400173611
 20
-4.098802354600694
 30
0.0
 10
-22.11682400173611
 20
-4.098802354600694
 30
0.0
 10
-10.04314236111111
 20
-17.42012532552083
 30
0.0
 10
-10.04314236111111
 20
-17.42012532552083
 30
0.0
  0
CIRCLE
  5
F8
330
DD
100
AcDbEntity
  8
LAYER_1
 62
     7
100
AcDbCircle
 10
-16.0486328125
 20
-4.845010036892361
 30
0.0
 40
0.7510308159722221
  0
CIRCLE
  5
F7
330
DD
100
AcDbEntity
  8
LAYER_1
 62
     7
100
AcDbCircle
 10
-16.0486328125
 20
-0.5285637749565971
 30
0.0
 40
0.7512891981336805
  0
CIRCLE
  5
F6
330
DD
100
AcDbEntity
  8
LAYER_1
 62
     7
100
AcDbCircle
 10
-16.0486328125
 20
3.788140869140625
 30
0.0
 40
0.7512891981336805
  0
CIRCLE
  5
F5
330
DD
100
AcDbEntity
  8
LAYER_1
 62
     7
100
AcDbCircle
 10
-16.0486328125
 20
8.104587131076388
 30
0.0
 40
0.7510308159722221
  0
CIRCLE
  5
F4
330
DD
100
AcDbEntity
  8
LAYER_1
 62
     7
100
AcDbCircle
 10
-20.55309516059027
 20
-2.467894151475694
 30
0.0
 40
0.7510308159722221
  0
CIRCLE
  5
F3
330
DD
100
AcDbEntity
  8
LAYER_1
 62
     7
100
AcDbCircle
 10
-20.55309516059027
 20
1.473467339409722
 30
0.0
 40
0.7512030707465277
  0
CIRCLE
  5
F2
330
DD
100
AcDbEntity
  8
LAYER_1
 62
     7
100
AcDbCircle
 10
-20.55309516059027
 20
5.414656575520833
 30
0.0
 40
0.7512030707465277
  0
CIRCLE
  5
F1
330
DD
100
AcDbEntity
  8
LAYER_1
 62
     7
100
AcDbCircle
 10
-20.55309516059027
 20
9.35601806640625
 30
0.0
 40
0.7510308159722221
  0
CIRCLE
  5
F0
330
DD
100
AcDbEntity
  8
LAYER_1
 62
     7
100
AcDbCircle
 10
-20.55309516059027
 20
13.29720730251736
 30
0.0
 40
0.7510308159722221
  0
CIRCLE
  5
EF
330
DD
100
AcDbEntity
  8
LAYER_1
 62
     7
100
AcDbCircle
 10
16.34594455295139
 20
-4.845010036892361
 30
0.0
 40
0.7510308159722221
  0
CIRCLE
  5
EE
330
DD
100
AcDbEntity
  8
LAYER_1
 62
     7
100
AcDbCircle
 10
16.34594455295139
 20
-0.5285637749565971
 30
0.0
 40
0.7512891981336805
  0
CIRCLE
  5
ED
330
DD
100
AcDbEntity
  8
LAYER_1
 62
     7
100
AcDbCircle
 10
16.34594455295139
 20
3.788140869140625
 30
0.0
 40
0.7512891981336805
  0
CIRCLE
  5
EC
330
DD
100
AcDbEntity
  8
LAYER_1
 62
     7
100
AcDbCircle
 10
16.34594455295139
 20
8.104587131076388
 30
0.0
 40
0.7510308159722221
  0
CIRCLE
  5
EB
330
DD
100
AcDbEntity
  8
LAYER_1
 62
     7
100
AcDbCircle
 10
20.71690945095486
 20
-2.467894151475694
 30
0.0
 40
0.7510308159722221
  0
CIRCLE
  5
EA
330
DD
100
AcDbEntity
  8
LAYER_1
 62
     7
100
AcDbCircle
 10
20.71690945095486
 20
1.473467339409722
 30
0.0
 40
0.7512030707465277
  0
CIRCLE
  5
E9
330
DD
100
AcDbEntity
  8
LAYER_1
 62
     7
100
AcDbCircle
 10
20.71690945095486
 20
5.414656575520833
 30
0.0
 40
0.7512030707465277
  0
CIRCLE
  5
E8
330
DD
100
AcDbEntity
  8
LAYER_1
 62
     7
100
AcDbCircle
 10
20.71690945095486
 20
9.35601806640625
 30
0.0
 40
0.7510308159722221
  0
CIRCLE
  5
E7
330
DD
100
AcDbEntity
  8
LAYER_1
 62
     7
100
AcDbCircle
 10
20.71690945095486
 20
13.29720730251736
 30
0.0
 40
0.7510308159722221
  0
SPLINE
  5
E6
330
DD
100
AcDbEntity
  8
LAYER_1
 62
     7
100
AcDbSpline
210
0.0
220
0.0
230
1.0
 70
    11
 71
     3
 72
    41
 73
    37
 74
     0
 42
0.0000000001
 43
0.0000000001
 40
0.0
 40
0.0
 40
0.0
 40
0.0
 40
1.0
 40
1.0
 40
1.0
 40
2.0
 40
2.0
 40
2.0
 40
3.0
 40
3.0
 40
3.0
 40
4.0
 40
4.0
 40
4.0
 40
5.0
 40
5.0
 40
5.0
 40
6.0
 40
6.0
 40
6.0
 40
7.0
 40
7.0
 40
7.0
 40
8.0
 40
8.0
 40
8.0
 40
9.0
 40
9.0
 40
9.0
 40
10.0
 40
10.0
 40
10.0
 40
11.0
 40
11.0
 40
11.0
 40
12.0
 40
12.0
 40
12.0
 40
12.0
 10
9.991810438368054
 20
-11.07822129991319
 30
0.0
 10
9.991810438368054
 20
-11.07822129991319
 30
0.0
 10
9.992843967013888
 20
-19.37056613498264
 30
0.0
 10
9.992843967013888
 20
-19.37056613498264
 30
0.0
 10
9.992843967013888
 20
-20.33898247612847
 30
0.0
 10
9.610438368055554
 20
-20.67866889105903
 30
0.0
 10
8.657352701822916
 20
-20.67866889105903
 30
0.0
 10
8.657352701822916
 20
-20.67866889105903
 30
0.0
 10
-8.682329644097221
 20
-20.67866889105903
 30
0.0
 10
-8.682329644097221
 20
-20.67866889105903
 30
0.0
 10
-9.635243055555554
 20
-20.67866889105903
 30
0.0
 10
-10.01764865451389
 20
-20.33898247612847
 30
0.0
 10
-10.01764865451389
 20
-19.37056613498264
 30
0.0
 10
-10.01764865451389
 20
-19.37056613498264
 30
0.0
 10
-10.01764865451389
 20
-11.08976236979167
 30
0.0
 10
-10.01764865451389
 20
-11.08976236979167
 30
0.0
 10
-10.01764865451389
 20
-11.08976236979167
 30
0.0
 10
-9.287288411458333
 20
-11.09234619140625
 30
0.0
 10
-9.287288411458333
 20
-11.09234619140625
 30
0.0
 10
-9.287288411458333
 20
-11.09234619140625
 30
0.0
 10
-9.285565863715277
 20
-19.40191650390625
 30
0.0
 10
-9.285565863715277
 20
-19.40191650390625
 30
0.0
 10
-9.285565863715277
 20
-19.84719509548611
 30
0.0
 10
-9.174461534288193
 20
-20.04012044270833
 30
0.0
 10
-8.682329644097221
 20
-20.04012044270833
 30
0.0
 10
-8.682329644097221
 20
-20.04012044270833
 30
0.0
 10
8.680607096354166
 20
-20.04184299045139
 30
0.0
 10
8.680607096354166
 20
-20.04184299045139
 30
0.0
 10
9.05526123046875
 20
-20.04184299045139
 30
0.0
 10
9.274541558159722
 20
-19.84719509548611
 30
0.0
 10
9.274541558159722
 20
-19.40191650390625
 30
0.0
 10
9.274541558159722
 20
-19.40191650390625
 30
0.0
 10
9.274541558159722
 20
-11.08338894314236
 30
0.0
 10
9.274541558159722
 20
-11.08338894314236
 30
0.0
 10
9.274541558159722
 20
-11.08338894314236
 30
0.0
 10
9.991810438368054
 20
-11.07822129991319
 30
0.0
 10
9.991810438368054
 20
-11.07822129991319
 30
0.0
  0
LWPOLYLINE
  5
E0
330
DD
100
AcDbEntity
  8
LAYER_1
 62
     7
100
AcDbPolyline
 90
        4
 70
     1
 43
0.0
 10
-9.292111545138889
 20
9.519660101996527
 10
-9.292111545138889
 20
20.67866889105903
 10
-10.13684895833333
 20
20.67866889105903
 10
-10.13684895833333
 20
9.519660101996527
  0
ENDBLK
  5
FB
330
DD
100
AcDbEntity
  8
LAYER_1
100
AcDbBlockEnd
  0
BLOCK
  5
FE
330
FC
100
AcDbEntity
  8
LAYER_1
 62
     7
100
AcDbBlockBegin
  2
AI9-BLK9
 70
     0
 10
0.0
 20
0.0
 30
0.0
  3
AI9-BLK9
  1

  4

  0
LWPOLYLINE
  5
10F
330
FC
100
AcDbEntity
  8
LAYER_1
 62
     7
100
AcDbPolyline
 90
       12
 70
     1
 43
0.0
 10
43.41888292100694
 20
-43.48916286892361
 10
43.41888292100694
 20
-0.4998833550347222
 10
41.87255181206597
 20
1.374593098958333
 10
44.96538628472222
 20
4.123779296875
 10
43.41888292100694
 20
5.498716905381944
 10
43.41888292100694
 20
44.05157470703124
 10
-43.41888292100694
 20
44.05157470703124
 10
-43.41888292100694
 20
5.498716905381944
 10
-44.96538628472222
 20
4.123779296875
 10
-41.87255181206597
 20
1.374593098958333
 10
-43.41888292100694
 20
-0.4998833550347222
 10
-43.41888292100694
 20
-43.48916286892361
  0
LWPOLYLINE
  5
107
330
FC
100
AcDbEntity
  8
LAYER_1
 62
     7
100
AcDbPolyline
 90
        6
 70
     0
 43
0.0
 10
-43.41888292100694
 20
46.60146213107638
 10
-43.41888292100694
 20
5.498716905381944
 10
-44.96538628472222
 20
4.123779296875
 10
-41.87255181206597
 20
1.374593098958333
 10
-43.41888292100694
 20
-0.4998833550347222
 10
-43.41888292100694
 20
-46.60146213107638
  0
LWPOLYLINE
  5
FF
330
FC
100
AcDbEntity
  8
LAYER_1
 62
     7
100
AcDbPolyline
 90
        6
 70
     0
 43
0.0
 10
43.41888292100694
 20
46.60146213107638
 10
43.41888292100694
 20
5.498716905381944
 10
44.96538628472222
 20
4.123779296875
 10
41.87255181206597
 20
1.374593098958333
 10
43.41888292100694
 20
-0.4998833550347222
 10
43.41888292100694
 20
-46.60146213107638
  0
ENDBLK
  5
11D
330
FC
100
AcDbEntity
  8
LAYER_1
100
AcDbBlockEnd
  0
ENDSEC
  0
SECTION
  2
ENTITIES
  0
INSERT
  5
FD
330
A
100
AcDbEntity
  8
LAYER_1
 62
     7
100
AcDbBlockReference
  2
AI9-BLK9
 10
107.95
 20
139.7
 30
0.0
  0
INSERT
  5
DE
330
A
100
AcDbEntity
  8
LAYER_1
 62
     7
100
AcDbBlockReference
  2
AI9-BLK8
 10
108.0078776041667
 20
127.469049750434
 30
0.0
  0
INSERT
  5
CD
330
A
100
AcDbEntity
  8
LAYER_1
 62
     7
100
AcDbBlockReference
  2
AI9-BLK7
 10
108.0134758843316
 20
179.3389241536458
 30
0.0
  0
INSERT
  5
A3
330
A
100
AcDbEntity
  8
LAYER_1
 62
     7
100
AcDbBlockReference
  2
AI9-BLK4
 10
108.005810546875
 20
145.5818115234375
 30
0.0
  0
INSERT
  5
90
330
A
100
AcDbEntity
  8
LAYER_1
 62
     7
100
AcDbBlockReference
  2
AI9-BLK3
 10
108.005810546875
 20
145.5703565809462
 30
0.0
  0
LINE
  5
8E
330
A
100
AcDbEntity
  8
LAYER_1
 62
     7
100
AcDbLine
 10
72.72217610677083
 20
107.4289293077257
 30
0.0
 11
97.3029324001736
 21
107.4272067599826
 31
0.0
  0
LINE
  5
8D
330
A
100
AcDbEntity
  8
LAYER_1
 62
     7
100
AcDbLine
 10
118.8602728949653
 20
107.4289293077257
 30
0.0
 11
146.0424207899305
 21
107.4272067599826
 31
0.0
  0
LINE
  5
8C
330
A
100
AcDbEntity
  8
LAYER_1
 62
     7
100
AcDbLine
 10
119.5716851128472
 20
148.1401394314236
 30
0.0
 11
146.0424207899305
 21
148.1384168836806
 31
0.0
  0
LWPOLYLINE
  5
86
330
A
100
AcDbEntity
  8
LAYER_1
 62
     7
100
AcDbPolyline
 90
        4
 70
     1
 43
0.0
 10
118.1405924479167
 20
136.9887098524305
 10
118.1405924479167
 20
148.147718641493
 10
117.2724283854167
 20
148.147718641493
 10
117.2724283854167
 20
136.9887098524305
  0
LINE
  5
85
330
A
100
AcDbEntity
  8
LAYER_1
 62
     7
100
AcDbLine
 10
76.10009223090277
 20
156.9065294053819
 30
0.0
 11
76.10009223090277
 21
182.8064127604167
 31
0.0
  0
LINE
  5
84
330
A
100
AcDbEntity
  8
LAYER_1
 62
     7
100
AcDbLine
 10
76.10009223090277
 20
108.4848510742187
 30
0.0
 11
76.10009223090277
 21
139.3895968967014
 31
0.0
  0
HATCH
  5
83
330
A
100
AcDbEntity
  8
LAYER_1
 62
     7
100
AcDbHatch
 10
0.0
 20
0.0
 30
0.0
210
0.0
220
0.0
230
1.0
  2
SOLID
 70
     1
 71
     0
 91
        1
 92
        1
 93
        1
 72
     4
 94
        3
 73
     0
 74
     0
 95
       14
 96
       10
 40
0.0
 40
0.0
 40
0.0
 40
0.0
 40
1.0
 40
1.0
 40
1.0
 40
2.0
 40
2.0
 40
2.0
 40
3.0
 40
3.0
 40
3.0
 40
3.0
 10
76.81839463975693
 20
181.3164089626736
 10
76.81839463975693
 20
181.3164089626736
 10
76.09458007812499
 20
183.2520358615451
 10
76.09458007812499
 20
183.2520358615451
 10
76.09458007812499
 20
183.2520358615451
 10
75.37059326171874
 20
181.3164089626736
 10
75.37059326171874
 20
181.3164089626736
 10
75.77935384114582
 20
181.4864244249132
 10
76.49455566406249
 20
181.4697157118056
 10
76.81839463975693
 20
181.3164089626736
 97
        0
 75
     0
 76
     1
 98
        1
 10
0.0
 20
0.0
  0
HATCH
  5
82
330
A
100
AcDbEntity
  8
LAYER_1
 62
     7
100
AcDbHatch
 10
0.0
 20
0.0
 30
0.0
210
0.0
220
0.0
230
1.0
  2
SOLID
 70
     1
 71
     0
 91
        1
 92
        1
 93
        1
 72
     4
 94
        3
 73
     0
 74
     0
 95
       14
 96
       10
 40
0.0
 40
0.0
 40
0.0
 40
0.0
 40
1.0
 40
1.0
 40
1.0
 40
2.0
 40
2.0
 40
2.0
 40
3.0
 40
3.0
 40
3.0
 40
3.0
 10
76.81839463975693
 20
109.853759765625
 10
76.81839463975693
 20
109.853759765625
 10
76.09458007812499
 20
107.9176161024305
 10
76.09458007812499
 20
107.9176161024305
 10
76.09458007812499
 20
107.9176161024305
 10
75.37059326171874
 20
109.853759765625
 10
75.37059326171874
 20
109.853759765625
 10
75.77935384114582
 20
109.6832275390625
 10
76.49455566406249
 20
109.7001085069444
 10
76.81839463975693
 20
109.853759765625
 97
        0
 75
     0
 76
     1
 98
        1
 10
0.0
 20
0.0
  0
HATCH
  5
81
330
A
100
AcDbEntity
  8
LAYER_1
 62
     7
100
AcDbHatch
 10
0.0
 20
0.0
 30
0.0
210
0.0
220
0.0
230
1.0
  2
SOLID
 70
     1
 71
     0
 91
        2
 92
       16
 93
        1
 72
     4
 94
        3
 73
     0
 74
     0
 95
       20
 96
       16
 40
0.0
 40
0.0
 40
0.0
 40
0.0
 40
1.0
 40
1.0
 40
1.0
 40
2.0
 40
2.0
 40
2.0
 40
3.0
 40
3.0
 40
3.0
 40
4.0
 40
4.0
 40
4.0
 40
5.0
 40
5.0
 40
5.0
 40
5.0
 10
75.69959988064235
 20
152.0833957248264
 10
75.69959988064235
 20
152.0833957248264
 10
76.3984375
 20
152.0833957248264
 10
76.3984375
 20
152.0833957248264
 10
77.03974202473958
 20
152.0833957248264
 10
77.30243055555555
 20
152.5614027235243
 10
77.26022813585068
 20
153.7384195963542
 10
77.22870551215277
 20
154.6370727539062
 10
77.1026150173611
 20
155.2360026041667
 10
76.3984375
 20
155.2360026041667
 10
76.3984375
 20
155.2360026041667
 10
75.69959988064235
 20
155.2360026041667
 10
75.69959988064235
 20
155.2360026041667
 10
75.69959988064235
 20
155.2360026041667
 10
75.69959988064235
 20
152.0833957248264
 10
75.69959988064235
 20
152.0833957248264
 97
        0
 92
        1
 93
        1
 72
     4
 94
        3
 73
     0
 74
     0
 95
       20
 96
       16
 40
0.0
 40
0.0
 40
0.0
 40
0.0
 40
1.0
 40
1.0
 40
1.0
 40
2.0
 40
2.0
 40
2.0
 40
3.0
 40
3.0
 40
3.0
 40
4.0
 40
4.0
 40
4.0
 40
5.0
 40
5.0
 40
5.0
 40
5.0
 10
75.26327853732639
 20
151.6889322916667
 10
75.26327853732639
 20
151.6889322916667
 10
75.26327853732639
 20
155.6301215277778
 10
75.26327853732639
 20
155.6301215277778
 10
75.26327853732639
 20
155.6301215277778
 10
76.34607204861111
 20
155.6301215277778
 10
76.34607204861111
 20
155.6301215277778
 10
77.57545437282985
 20
155.6301215277778
 10
77.74374728732639
 20
154.6319051106771
 10
77.71239691840277
 20
153.6595269097222
 10
77.68104654947916
 20
152.6980007595486
 10
77.49156629774305
 20
151.6889322916667
 10
76.42479248046874
 20
151.6889322916667
 10
76.42479248046874
 20
151.6889322916667
 10
75.26327853732639
 20
151.6889322916667
 10
75.26327853732639
 20
151.6889322916667
 97
        0
 75
     0
 76
     1
 98
        1
 10
0.0
 20
0.0
  0
HATCH
  5
80
330
A
100
AcDbEntity
  8
LAYER_1
 62
     7
100
AcDbHatch
 10
0.0
 20
0.0
 30
0.0
210
0.0
220
0.0
230
1.0
  2
SOLID
 70
     1
 71
     0
 91
        1
 92
        1
 93
        1
 72
     4
 94
        3
 73
     0
 74
     0
 95
       56
 96
       52
 40
0.0
 40
0.0
 40
0.0
 40
0.0
 40
1.0
 40
1.0
 40
1.0
 40
2.0
 40
2.0
 40
2.0
 40
3.0
 40
3.0
 40
3.0
 40
4.0
 40
4.0
 40
4.0
 40
5.0
 40
5.0
 40
5.0
 40
6.0
 40
6.0
 40
6.0
 40
7.0
 40
7.0
 40
7.0
 40
8.0
 40
8.0
 40
8.0
 40
9.0
 40
9.0
 40
9.0
 40
10.0
 40
10.0
 40
10.0
 40
11.0
 40
11.0
 40
11.0
 40
12.0
 40
12.0
 40
12.0
 40
13.0
 40
13.0
 40
13.0
 40
14.0
 40
14.0
 40
14.0
 40
15.0
 40
15.0
 40
15.0
 40
16.0
 40
16.0
 40
16.0
 40
17.0
 40
17.0
 40
17.0
 40
17.0
 10
74.27763671874999
 20
147.0256510416667
 10
74.0885009765625
 20
146.8575303819444
 10
74.00461290147568
 20
146.7000895182292
 10
73.99376085069444
 20
146.4527316623264
 10
73.99376085069444
 20
146.4527316623264
 10
75.65998128255208
 20
146.4527316623264
 10
75.65998128255208
 20
146.4527316623264
 10
75.65998128255208
 20
146.4527316623264
 10
75.65998128255208
 20
146.0587849934896
 10
75.65998128255208
 20
146.0587849934896
 10
75.65998128255208
 20
146.0587849934896
 10
73.54210883246527
 20
146.0587849934896
 10
73.54210883246527
 20
146.0587849934896
 10
73.54727647569443
 20
146.3424886067708
 10
73.58431125217014
 20
146.6315321180555
 10
73.69972195095485
 20
146.9102403428819
 10
73.75742730034722
 20
147.0466661241319
 10
73.89436984592014
 20
147.1939439561632
 10
74.00978054470485
 20
147.3041870117187
 10
74.00978054470485
 20
147.3041870117187
 10
74.76132812499999
 20
148.0293796115451
 10
74.76132812499999
 20
148.0293796115451
 10
75.06621907552082
 20
148.3234185112847
 10
75.17129448784722
 20
148.4812038845486
 10
75.17129448784722
 20
148.9121853298611
 10
75.17129448784722
 20
149.3114718967014
 10
75.03469645182291
 20
149.605510796441
 10
74.58769531249999
 20
149.605510796441
 10
74.04647081163193
 20
149.605510796441
 10
73.99944525824652
 20
149.0749660915799
 10
74.00978054470485
 20
148.6598320855035
 10
74.00978054470485
 20
148.6598320855035
 10
73.57345920138889
 20
148.6598320855035
 10
73.57345920138889
 20
148.6598320855035
 10
73.57345920138889
 20
148.6598320855035
 10
73.57345920138889
 20
148.9015055338542
 10
73.57345920138889
 20
148.9015055338542
 10
73.57345920138889
 20
149.1903767903646
 10
73.64718424479166
 20
149.4637451171875
 10
73.82598470052082
 20
149.6899156358507
 10
73.94690755208333
 20
149.8161783854167
 10
74.16739366319443
 20
149.9999742296007
 10
74.60871039496527
 20
149.9999742296007
 10
75.28153754340278
 20
149.9999742296007
 10
75.62294650607639
 20
149.5529730902778
 10
75.62294650607639
 20
148.9015055338542
 10
75.62294650607639
 20
148.3234185112847
 10
75.39178059895832
 20
148.0397148980035
 10
74.98732638888889
 20
147.6719509548611
 10
74.98732638888889
 20
147.6719509548611
 10
74.27763671874999
 20
147.0256510416667
 10
74.27763671874999
 20
147.0256510416667
 97
        0
 75
     0
 76
     1
 98
        1
 10
0.0
 20
0.0
  0
HATCH
  5
7F
330
A
100
AcDbEntity
  8
LAYER_1
 62
     7
100
AcDbHatch
 10
0.0
 20
0.0
 30
0.0
210
0.0
220
0.0
230
1.0
  2
SOLID
 70
     1
 71
     0
 91
        2
 92
       16
 93
        1
 72
     4
 94
        3
 73
     0
 74
     0
 95
       17
 96
       13
 40
0.0
 40
0.0
 40
0.0
 40
0.0
 40
1.0
 40
1.0
 40
1.0
 40
2.0
 40
2.0
 40
2.0
 40
3.0
 40
3.0
 40
3.0
 40
4.0
 40
4.0
 40
4.0
 40
4.0
 10
77.25213216145832
 20
146.3740112304687
 10
77.90359971788193
 20
146.3740112304687
 10
77.87741699218749
 20
147.3093546549479
 10
77.87741699218749
 20
148.0660698784722
 10
77.87741699218749
 20
148.6231418185764
 10
77.93495008680554
 20
149.5584852430555
 10
77.25213216145832
 20
149.605510796441
 10
76.55828993055555
 20
149.6477132161458
 10
76.63201497395832
 20
148.4284939236111
 10
76.63201497395832
 20
148.0660698784722
 10
76.63201497395832
 20
147.3093546549479
 10
76.52693956163193
 20
146.3740112304687
 10
77.25213216145832
 20
146.3740112304687
 97
        0
 92
        1
 93
        1
 72
     4
 94
        3
 73
     0
 74
     0
 95
       17
 96
       13
 40
0.0
 40
0.0
 40
0.0
 40
0.0
 40
1.0
 40
1.0
 40
1.0
 40
2.0
 40
2.0
 40
2.0
 40
3.0
 40
3.0
 40
3.0
 40
4.0
 40
4.0
 40
4.0
 40
4.0
 10
76.18019070095485
 20
147.9978569878472
 10
76.18019070095485
 20
148.7333848741319
 10
76.22756076388889
 20
149.9999742296007
 10
77.25213216145832
 20
149.9999742296007
 10
78.35576850043402
 20
149.9999742296007
 10
78.32941351996527
 20
148.7494045681424
 10
78.32941351996527
 20
147.9978569878472
 10
78.32941351996527
 20
147.1043714735243
 10
78.28221571180555
 20
145.9800645616319
 10
77.25213216145832
 20
145.9800645616319
 10
76.20137803819443
 20
145.9800645616319
 10
76.18019070095485
 20
147.2990193684896
 10
76.18019070095485
 20
147.9978569878472
 97
        0
 75
     0
 76
     1
 98
        1
 10
0.0
 20
0.0
  0
HATCH
  5
7E
330
A
100
AcDbEntity
  8
LAYER_1
 62
     7
100
AcDbHatch
 10
0.0
 20
0.0
 30
0.0
210
0.0
220
0.0
230
1.0
  2
SOLID
 70
     1
 71
     0
 91
        2
 92
        1
 93
        1
 72
     4
 94
        3
 73
     0
 74
     0
 95
       17
 96
       13
 40
0.0
 40
0.0
 40
0.0
 40
0.0
 40
1.0
 40
1.0
 40
1.0
 40
2.0
 40
2.0
 40
2.0
 40
3.0
 40
3.0
 40
3.0
 40
4.0
 40
4.0
 40
4.0
 40
4.0
 10
79.89141981336805
 20
149.9419243706597
 10
79.89141981336805
 20
149.9419243706597
 10
80.16496039496528
 20
149.9419243706597
 10
80.16496039496528
 20
149.9419243706597
 10
80.16496039496528
 20
149.9419243706597
 10
79.91209038628472
 20
148.7545722113715
 10
79.91209038628472
 20
148.7545722113715
 10
79.91209038628472
 20
148.7545722113715
 10
79.63854980468749
 20
148.7545722113715
 10
79.63854980468749
 20
148.7545722113715
 10
79.63854980468749
 20
148.7545722113715
 10
79.89141981336805
 20
149.9419243706597
 10
79.89141981336805
 20
149.9419243706597
 97
        0
 92
        1
 93
        1
 72
     4
 94
        3
 73
     0
 74
     0
 95
       17
 96
       13
 40
0.0
 40
0.0
 40
0.0
 40
0.0
 40
1.0
 40
1.0
 40
1.0
 40
2.0
 40
2.0
 40
2.0
 40
3.0
 40
3.0
 40
3.0
 40
4.0
 40
4.0
 40
4.0
 40
4.0
 10
79.30833740234374
 20
149.9419243706597
 10
79.30833740234374
 20
149.9419243706597
 10
79.58136121961805
 20
149.9419243706597
 10
79.58136121961805
 20
149.9419243706597
 10
79.58136121961805
 20
149.9419243706597
 10
79.32849121093749
 20
148.7545722113715
 10
79.32849121093749
 20
148.7545722113715
 10
79.32849121093749
 20
148.7545722113715
 10
79.05563964843749
 20
148.7545722113715
 10
79.05563964843749
 20
148.7545722113715
 10
79.05563964843749
 20
148.7545722113715
 10
79.30833740234374
 20
149.9419243706597
 10
79.30833740234374
 20
149.9419243706597
 97
        0
 75
     0
 76
     1
 98
        1
 10
0.0
 20
0.0
  0
HATCH
  5
7D
330
A
100
AcDbEntity
  8
LAYER_1
 62
     7
100
AcDbHatch
 10
0.0
 20
0.0
 30
0.0
210
0.0
220
0.0
230
1.0
  2
SOLID
 70
     1
 71
     0
 91
        1
 92
        1
 93
        1
 72
     4
 94
        3
 73
     0
 74
     0
 95
       71
 96
       67
 40
0.0
 40
0.0
 40
0.0
 40
0.0
 40
1.0
 40
1.0
 40
1.0
 40
2.0
 40
2.0
 40
2.0
 40
3.0
 40
3.0
 40
3.0
 40
4.0
 40
4.0
 40
4.0
 40
5.0
 40
5.0
 40
5.0
 40
6.0
 40
6.0
 40
6.0
 40
7.0
 40
7.0
 40
7.0
 40
8.0
 40
8.0
 40
8.0
 40
9.0
 40
9.0
 40
9.0
 40
10.0
 40
10.0
 40
10.0
 40
11.0
 40
11.0
 40
11.0
 40
12.0
 40
12.0
 40
12.0
 40
13.0
 40
13.0
 40
13.0
 40
14.0
 40
14.0
 40
14.0
 40
15.0
 40
15.0
 40
15.0
 40
16.0
 40
16.0
 40
16.0
 40
17.0
 40
17.0
 40
17.0
 40
18.0
 40
18.0
 40
18.0
 40
19.0
 40
19.0
 40
19.0
 40
20.0
 40
20.0
 40
20.0
 40
21.0
 40
21.0
 40
21.0
 40
22.0
 40
22.0
 40
22.0
 40
22.0
 10
73.73710123697916
 20
144.369482421875
 10
73.73710123697916
 20
144.369482421875
 10
74.50466851128472
 20
144.369482421875
 10
74.50466851128472
 20
144.369482421875
 10
74.50466851128472
 20
144.369482421875
 10
74.50466851128472
 20
140.4282931857639
 10
74.50466851128472
 20
140.4282931857639
 10
74.50466851128472
 20
140.4282931857639
 10
74.06834716796874
 20
140.4282931857639
 10
74.06834716796874
 20
140.4282931857639
 10
74.06834716796874
 20
140.4282931857639
 10
74.06834716796874
 20
143.6756401909722
 10
74.06834716796874
 20
143.6756401909722
 10
74.06834716796874
 20
143.8441053602431
 10
74.07919921874999
 20
144.0067138671875
 10
74.06834716796874
 20
144.1751790364583
 10
74.06834716796874
 20
144.1751790364583
 10
74.05801188151041
 20
144.1751790364583
 10
74.05801188151041
 20
144.1751790364583
 10
74.01064181857639
 20
143.9440131293403
 10
73.97360704210068
 20
143.7965630425347
 10
73.9369167751736
 20
143.6442898220486
 10
73.9369167751736
 20
143.6442898220486
 10
73.11181640625
 20
140.4282931857639
 10
73.11181640625
 20
140.4282931857639
 10
73.11181640625
 20
140.4282931857639
 10
72.59160698784721
 20
140.4282931857639
 10
72.59160698784721
 20
140.4282931857639
 10
72.59160698784721
 20
140.4282931857639
 10
71.76702338324652
 20
143.6914876302083
 10
71.76702338324652
 20
143.6914876302083
 10
71.72998860677083
 20
143.8280856662326
 10
71.69863823784722
 20
143.9595160590278
 10
71.65109592013889
 20
144.1751790364583
 10
71.65109592013889
 20
144.1751790364583
 10
71.64076063368054
 20
144.1751790364583
 10
71.64076063368054
 20
144.1751790364583
 10
71.64076063368054
 20
144.0067138671875
 10
71.65109592013889
 20
143.8332533094618
 10
71.65109592013889
 20
143.6653049045139
 10
71.65109592013889
 20
143.6653049045139
 10
71.65109592013889
 20
140.4282931857639
 10
71.65109592013889
 20
140.4282931857639
 10
71.65109592013889
 20
140.4282931857639
 10
71.21494683159722
 20
140.4282931857639
 10
71.21494683159722
 20
140.4282931857639
 10
71.21494683159722
 20
140.4282931857639
 10
71.21494683159722
 20
144.369482421875
 10
71.21494683159722
 20
144.369482421875
 10
71.21494683159722
 20
144.369482421875
 10
71.98750949435764
 20
144.369482421875
 10
71.98750949435764
 20
144.369482421875
 10
71.98750949435764
 20
144.369482421875
 10
72.76007215711805
 20
141.295423719618
 10
72.76007215711805
 20
141.295423719618
 10
72.8017578125
 20
141.1271308051215
 10
72.82294514973958
 20
140.9643500434028
 10
72.84413248697916
 20
140.7119967990451
 10
72.84413248697916
 20
140.7119967990451
 10
72.85446777343749
 20
140.7119967990451
 10
72.85446777343749
 20
140.7119967990451
 10
72.88065049913193
 20
140.9118123372396
 10
72.90683322482639
 20
141.1059434678819
 10
72.95437554253472
 20
141.3005913628472
 10
72.95437554253472
 20
141.3005913628472
 10
73.73710123697916
 20
144.369482421875
 10
73.73710123697916
 20
144.369482421875
 97
        0
 75
     0
 76
     1
 98
        1
 10
0.0
 20
0.0
  0
HATCH
  5
7C
330
A
100
AcDbEntity
  8
LAYER_1
 62
     7
100
AcDbHatch
 10
0.0
 20
0.0
 30
0.0
210
0.0
220
0.0
230
1.0
  2
SOLID
 70
     1
 71
     0
 91
        2
 92
       16
 93
        1
 72
     4
 94
        3
 73
     0
 74
     0
 95
       17
 96
       13
 40
0.0
 40
0.0
 40
0.0
 40
0.0
 40
1.0
 40
1.0
 40
1.0
 40
2.0
 40
2.0
 40
2.0
 40
3.0
 40
3.0
 40
3.0
 40
4.0
 40
4.0
 40
4.0
 40
4.0
 10
76.36915418836804
 20
144.0542561848958
 10
76.36915418836804
 20
144.0542561848958
 10
76.35881890190971
 20
144.0542561848958
 10
76.35881890190971
 20
144.0542561848958
 10
76.35881890190971
 20
144.0542561848958
 10
75.83860948350694
 20
141.9573988172743
 10
75.83860948350694
 20
141.9573988172743
 10
75.83860948350694
 20
141.9573988172743
 10
76.8790283203125
 20
141.9573988172743
 10
76.8790283203125
 20
141.9573988172743
 10
76.8790283203125
 20
141.9573988172743
 10
76.36915418836804
 20
144.0542561848958
 10
76.36915418836804
 20
144.0542561848958
 97
        0
 92
        1
 93
        1
 72
     4
 94
        3
 73
     0
 74
     0
 95
       29
 96
       25
 40
0.0
 40
0.0
 40
0.0
 40
0.0
 40
1.0
 40
1.0
 40
1.0
 40
2.0
 40
2.0
 40
2.0
 40
3.0
 40
3.0
 40
3.0
 40
4.0
 40
4.0
 40
4.0
 40
5.0
 40
5.0
 40
5.0
 40
6.0
 40
6.0
 40
6.0
 40
7.0
 40
7.0
 40
7.0
 40
8.0
 40
8.0
 40
8.0
 40
8.0
 10
76.0854505750868
 20
144.369482421875
 10
76.0854505750868
 20
144.369482421875
 10
76.66370985243054
 20
144.369482421875
 10
76.66370985243054
 20
144.369482421875
 10
76.66370985243054
 20
144.369482421875
 10
77.77234157986111
 20
140.4282931857639
 10
77.77234157986111
 20
140.4282931857639
 10
77.77234157986111
 20
140.4282931857639
 10
77.28899468315971
 20
140.4282931857639
 10
77.28899468315971
 20
140.4282931857639
 10
77.28899468315971
 20
140.4282931857639
 10
76.97893608940971
 20
141.5634521484375
 10
76.97893608940971
 20
141.5634521484375
 10
76.97893608940971
 20
141.5634521484375
 10
75.73353407118054
 20
141.5634521484375
 10
75.73353407118054
 20
141.5634521484375
 10
75.73353407118054
 20
141.5634521484375
 10
75.44466281467014
 20
140.4282931857639
 10
75.44466281467014
 20
140.4282931857639
 10
75.44466281467014
 20
140.4282931857639
 10
74.96114366319443
 20
140.4282931857639
 10
74.96114366319443
 20
140.4282931857639
 10
74.96114366319443
 20
140.4282931857639
 10
76.0854505750868
 20
144.369482421875
 10
76.0854505750868
 20
144.369482421875
 97
        0
 75
     0
 76
     1
 98
        1
 10
0.0
 20
0.0
  0
HATCH
  5
7B
330
A
100
AcDbEntity
  8
LAYER_1
 62
     7
100
AcDbHatch
 10
0.0
 20
0.0
 30
0.0
210
0.0
220
0.0
230
1.0
  2
SOLID
 70
     1
 71
     0
 91
        1
 92
        1
 93
        1
 72
     4
 94
        3
 73
     0
 74
     0
 95
       41
 96
       37
 40
0.0
 40
0.0
 40
0.0
 40
0.0
 40
1.0
 40
1.0
 40
1.0
 40
2.0
 40
2.0
 40
2.0
 40
3.0
 40
3.0
 40
3.0
 40
4.0
 40
4.0
 40
4.0
 40
5.0
 40
5.0
 40
5.0
 40
6.0
 40
6.0
 40
6.0
 40
7.0
 40
7.0
 40
7.0
 40
8.0
 40
8.0
 40
8.0
 40
9.0
 40
9.0
 40
9.0
 40
10.0
 40
10.0
 40
10.0
 40
11.0
 40
11.0
 40
11.0
 40
12.0
 40
12.0
 40
12.0
 40
12.0
 10
79.03324652777778
 20
142.4512532552083
 10
79.03324652777778
 20
142.4512532552083
 10
77.94528537326389
 20
144.369482421875
 10
77.94528537326389
 20
144.369482421875
 10
77.94528537326389
 20
144.369482421875
 10
78.46032714843749
 20
144.369482421875
 10
78.46032714843749
 20
144.369482421875
 10
78.46032714843749
 20
144.369482421875
 10
79.2854275173611
 20
142.8298692491319
 10
79.2854275173611
 20
142.8298692491319
 10
79.2854275173611
 20
142.8298692491319
 10
80.11052788628471
 20
144.369482421875
 10
80.11052788628471
 20
144.369482421875
 10
80.11052788628471
 20
144.369482421875
 10
80.62522515190972
 20
144.369482421875
 10
80.62522515190972
 20
144.369482421875
 10
80.62522515190972
 20
144.369482421875
 10
79.54312065972222
 20
142.4512532552083
 10
79.54312065972222
 20
142.4512532552083
 10
79.54312065972222
 20
142.4512532552083
 10
80.65709228515624
 20
140.4282931857639
 10
80.65709228515624
 20
140.4282931857639
 10
80.65709228515624
 20
140.4282931857639
 10
80.12086317274304
 20
140.4282931857639
 10
80.12086317274304
 20
140.4282931857639
 10
80.12086317274304
 20
140.4282931857639
 10
79.2854275173611
 20
142.0784939236111
 10
79.2854275173611
 20
142.0784939236111
 10
79.2854275173611
 20
142.0784939236111
 10
78.43414442274305
 20
140.4282931857639
 10
78.43414442274305
 20
140.4282931857639
 10
78.43414442274305
 20
140.4282931857639
 10
77.91393500434027
 20
140.4282931857639
 10
77.91393500434027
 20
140.4282931857639
 10
77.91393500434027
 20
140.4282931857639
 10
79.03324652777778
 20
142.4512532552083
 10
79.03324652777778
 20
142.4512532552083
 97
        0
 75
     0
 76
     1
 98
        1
 10
0.0
 20
0.0
  0
HATCH
  5
7A
330
A
100
AcDbEntity
  8
LAYER_1
 62
     7
100
AcDbHatch
 10
0.0
 20
0.0
 30
0.0
210
0.0
220
0.0
230
1.0
  2
SOLID
 70
     1
 71
     0
 91
        1
 92
        1
 93
        1
 72
     4
 94
        3
 73
     0
 74
     0
 95
       17
 96
       13
 40
0.0
 40
0.0
 40
0.0
 40
0.0
 40
1.0
 40
1.0
 40
1.0
 40
2.0
 40
2.0
 40
2.0
 40
3.0
 40
3.0
 40
3.0
 40
4.0
 40
4.0
 40
4.0
 40
4.0
 10
81.16610514322916
 20
140.4282931857639
 10
81.16610514322916
 20
140.4282931857639
 10
81.16610514322916
 20
140.9536702473958
 10
81.16610514322916
 20
140.9536702473958
 10
81.16610514322916
 20
140.9536702473958
 10
81.64462890624999
 20
140.9536702473958
 10
81.64462890624999
 20
140.9536702473958
 10
81.64462890624999
 20
140.9536702473958
 10
81.64462890624999
 20
140.4282931857639
 10
81.64462890624999
 20
140.4282931857639
 10
81.64462890624999
 20
140.4282931857639
 10
81.16610514322916
 20
140.4282931857639
 10
81.16610514322916
 20
140.4282931857639
 97
        0
 75
     0
 76
     1
 98
        1
 10
0.0
 20
0.0
  0
LINE
  5
79
330
A
100
AcDbEntity
  8
LAYER_1
 62
     7
100
AcDbLine
 10
139.9253092447917
 20
139.1393107096354
 30
0.0
 11
139.9253092447917
 21
147.5108927408854
 31
0.0
  0
LINE
  5
78
330
A
100
AcDbEntity
  8
LAYER_1
 62
     7
100
AcDbLine
 10
139.9253092447917
 20
108.4848510742187
 30
0.0
 11
139.9253092447917
 21
121.8099636501736
 31
0.0
  0
HATCH
  5
77
330
A
100
AcDbEntity
  8
LAYER_1
 62
     7
100
AcDbHatch
 10
0.0
 20
0.0
 30
0.0
210
0.0
220
0.0
230
1.0
  2
SOLID
 70
     1
 71
     0
 91
        1
 92
        1
 93
        1
 72
     4
 94
        3
 73
     0
 74
     0
 95
       14
 96
       10
 40
0.0
 40
0.0
 40
0.0
 40
0.0
 40
1.0
 40
1.0
 40
1.0
 40
2.0
 40
2.0
 40
2.0
 40
3.0
 40
3.0
 40
3.0
 40
3.0
 10
140.6430948893229
 20
146.0208889431424
 10
140.6430948893229
 20
146.0208889431424
 10
139.9191080729167
 20
147.9570326063368
 10
139.9191080729167
 20
147.9570326063368
 10
139.9191080729167
 20
147.9570326063368
 10
139.1952935112847
 20
146.0208889431424
 10
139.1952935112847
 20
146.0208889431424
 10
139.6043986002604
 20
146.1914211697049
 10
140.3197726779514
 20
146.1741956922743
 10
140.6430948893229
 20
146.0208889431424
 97
        0
 75
     0
 76
     1
 98
        1
 10
0.0
 20
0.0
  0
HATCH
  5
76
330
A
100
AcDbEntity
  8
LAYER_1
 62
     7
100
AcDbHatch
 10
0.0
 20
0.0
 30
0.0
210
0.0
220
0.0
230
1.0
  2
SOLID
 70
     1
 71
     0
 91
        1
 92
        1
 93
        1
 72
     4
 94
        3
 73
     0
 74
     0
 95
       14
 96
       10
 40
0.0
 40
0.0
 40
0.0
 40
0.0
 40
1.0
 40
1.0
 40
1.0
 40
2.0
 40
2.0
 40
2.0
 40
3.0
 40
3.0
 40
3.0
 40
3.0
 10
140.6430948893229
 20
109.853759765625
 10
140.6430948893229
 20
109.853759765625
 10
139.9191080729167
 20
107.9176161024305
 10
139.9191080729167
 20
107.9176161024305
 10
139.9191080729167
 20
107.9176161024305
 10
139.1952935112847
 20
109.853759765625
 10
139.1952935112847
 20
109.853759765625
 10
139.6043986002604
 20
109.6832275390625
 10
140.3197726779514
 20
109.7001085069444
 10
140.6430948893229
 20
109.853759765625
 97
        0
 75
     0
 76
     1
 98
        1
 10
0.0
 20
0.0
  0
HATCH
  5
75
330
A
100
AcDbEntity
  8
LAYER_1
 62
     7
100
AcDbHatch
 10
0.0
 20
0.0
 30
0.0
210
0.0
220
0.0
230
1.0
  2
SOLID
 70
     1
 71
     0
 91
        1
 92
        1
 93
        1
 72
     4
 94
        3
 73
     0
 74
     0
 95
       23
 96
       19
 40
0.0
 40
0.0
 40
0.0
 40
0.0
 40
1.0
 40
1.0
 40
1.0
 40
2.0
 40
2.0
 40
2.0
 40
3.0
 40
3.0
 40
3.0
 40
4.0
 40
4.0
 40
4.0
 40
5.0
 40
5.0
 40
5.0
 40
6.0
 40
6.0
 40
6.0
 40
6.0
 10
135.3075032552083
 20
134.0474595811632
 10
135.3075032552083
 20
134.0474595811632
 10
135.3075032552083
 20
137.9881320529514
 10
135.3075032552083
 20
137.9881320529514
 10
135.3075032552083
 20
137.9881320529514
 10
135.74365234375
 20
137.9881320529514
 10
135.74365234375
 20
137.9881320529514
 10
135.74365234375
 20
137.9881320529514
 10
135.74365234375
 20
134.44140625
 10
135.74365234375
 20
134.44140625
 10
135.74365234375
 20
134.44140625
 10
137.3518229166667
 20
134.44140625
 10
137.3518229166667
 20
134.44140625
 10
137.3518229166667
 20
134.44140625
 10
137.3518229166667
 20
134.0474595811632
 10
137.3518229166667
 20
134.0474595811632
 10
137.3518229166667
 20
134.0474595811632
 10
135.3075032552083
 20
134.0474595811632
 10
135.3075032552083
 20
134.0474595811632
 97
        0
 75
     0
 76
     1
 98
        1
 10
0.0
 20
0.0
  0
HATCH
  5
74
330
A
100
AcDbEntity
  8
LAYER_1
 62
     7
100
AcDbHatch
 10
0.0
 20
0.0
 30
0.0
210
0.0
220
0.0
230
1.0
  2
SOLID
 70
     1
 71
     0
 91
        1
 92
        1
 93
        1
 72
     4
 94
        3
 73
     0
 74
     0
 95
       41
 96
       37
 40
0.0
 40
0.0
 40
0.0
 40
0.0
 40
1.0
 40
1.0
 40
1.0
 40
2.0
 40
2.0
 40
2.0
 40
3.0
 40
3.0
 40
3.0
 40
4.0
 40
4.0
 40
4.0
 40
5.0
 40
5.0
 40
5.0
 40
6.0
 40
6.0
 40
6.0
 40
7.0
 40
7.0
 40
7.0
 40
8.0
 40
8.0
 40
8.0
 40
9.0
 40
9.0
 40
9.0
 40
10.0
 40
10.0
 40
10.0
 40
11.0
 40
11.0
 40
11.0
 40
12.0
 40
12.0
 40
12.0
 40
12.0
 10
137.7828043619792
 20
134.0474595811632
 10
137.7828043619792
 20
134.0474595811632
 10
137.7828043619792
 20
137.9881320529514
 10
137.7828043619792
 20
137.9881320529514
 10
137.7828043619792
 20
137.9881320529514
 10
139.7533989800347
 20
137.9881320529514
 10
139.7533989800347
 20
137.9881320529514
 10
139.7533989800347
 20
137.9881320529514
 10
139.7533989800347
 20
137.5941853841146
 10
139.7533989800347
 20
137.5941853841146
 10
139.7533989800347
 20
137.5941853841146
 10
138.2186089409722
 20
137.5941853841146
 10
138.2186089409722
 20
137.5941853841146
 10
138.2186089409722
 20
137.5941853841146
 10
138.2186089409722
 20
136.291078016493
 10
138.2186089409722
 20
136.291078016493
 10
138.2186089409722
 20
136.291078016493
 10
139.6586588541667
 20
136.291078016493
 10
139.6586588541667
 20
136.291078016493
 10
139.6586588541667
 20
136.291078016493
 10
139.6586588541667
 20
135.8969590928819
 10
139.6586588541667
 20
135.8969590928819
 10
139.6586588541667
 20
135.8969590928819
 10
138.2186089409722
 20
135.8969590928819
 10
138.2186089409722
 20
135.8969590928819
 10
138.2186089409722
 20
135.8969590928819
 10
138.2186089409722
 20
134.44140625
 10
138.2186089409722
 20
134.44140625
 10
138.2186089409722
 20
134.44140625
 10
139.763734266493
 20
134.44140625
 10
139.763734266493
 20
134.44140625
 10
139.763734266493
 20
134.44140625
 10
139.763734266493
 20
134.0474595811632
 10
139.763734266493
 20
134.0474595811632
 10
139.763734266493
 20
134.0474595811632
 10
137.7828043619792
 20
134.0474595811632
 10
137.7828043619792
 20
134.0474595811632
 97
        0
 75
     0
 76
     1
 98
        1
 10
0.0
 20
0.0
  0
HATCH
  5
73
330
A
100
AcDbEntity
  8
LAYER_1
 62
     7
100
AcDbHatch
 10
0.0
 20
0.0
 30
0.0
210
0.0
220
0.0
230
1.0
  2
SOLID
 70
     1
 71
     0
 91
        1
 92
        1
 93
        1
 72
     4
 94
        3
 73
     0
 74
     0
 95
       56
 96
       52
 40
0.0
 40
0.0
 40
0.0
 40
0.0
 40
1.0
 40
1.0
 40
1.0
 40
2.0
 40
2.0
 40
2.0
 40
3.0
 40
3.0
 40
3.0
 40
4.0
 40
4.0
 40
4.0
 40
5.0
 40
5.0
 40
5.0
 40
6.0
 40
6.0
 40
6.0
 40
7.0
 40
7.0
 40
7.0
 40
8.0
 40
8.0
 40
8.0
 40
9.0
 40
9.0
 40
9.0
 40
10.0
 40
10.0
 40
10.0
 40
11.0
 40
11.0
 40
11.0
 40
12.0
 40
12.0
 40
12.0
 40
13.0
 40
13.0
 40
13.0
 40
14.0
 40
14.0
 40
14.0
 40
15.0
 40
15.0
 40
15.0
 40
16.0
 40
16.0
 40
16.0
 40
17.0
 40
17.0
 40
17.0
 40
17.0
 10
142.0182047526042
 20
136.9533976236979
 10
142.0495551215278
 20
137.3628472222222
 10
141.8290690104167
 20
137.6729058159722
 10
141.392919921875
 20
137.6729058159722
 10
140.7567830403646
 20
137.6729058159722
 10
140.6887424045139
 20
137.2737915039062
 10
140.6887424045139
 20
136.9689005533854
 10
140.6887424045139
 20
136.6958767361111
 10
140.8096652560764
 20
136.5274115668403
 10
141.0616739908854
 20
136.4326714409722
 10
141.2718248155382
 20
136.3539510091146
 10
141.4768079969618
 20
136.2752305772569
 10
141.6869588216146
 20
136.196337890625
 10
142.4333387586806
 20
135.9181464301215
 10
142.5697645399305
 20
135.6551133897569
 10
142.5697645399305
 20
135.1349039713542
 10
142.5697645399305
 20
134.3890407986111
 10
142.102092827691
 20
133.9527194552951
 10
141.3453776041667
 20
133.9527194552951
 10
140.956598578559
 20
133.9527194552951
 10
140.4940945095486
 20
134.0629625108507
 10
140.2684407552083
 20
134.5780042860243
 10
140.1843804253472
 20
134.7721354166667
 10
140.1895480685764
 20
135.0878784179687
 10
140.1843804253472
 20
135.2980292426215
 10
140.1843804253472
 20
135.2980292426215
 10
140.6201850043403
 20
135.2980292426215
 10
140.6201850043403
 20
135.2980292426215
 10
140.5995144314236
 20
134.7146023220486
 10
140.7097574869792
 20
134.3466661241319
 10
141.3665649414062
 20
134.3466661241319
 10
141.8080539279514
 20
134.3466661241319
 10
142.1181125217014
 20
134.5728366427951
 10
142.1181125217014
 20
135.0353407118055
 10
142.1181125217014
 20
135.6344428168403
 10
141.8764390733507
 20
135.6396104600694
 10
141.4768079969618
 20
135.7918836805555
 10
141.2614895290799
 20
135.8759440104167
 10
140.9147406684028
 20
135.9861870659722
 10
140.7042453342014
 20
136.0964301215278
 10
140.3313137478299
 20
136.2859103732639
 10
140.2370903862847
 20
136.601136610243
 10
140.2370903862847
 20
136.990087890625
 10
140.2370903862847
 20
137.6415554470486
 10
140.693910047743
 20
138.0670247395833
 10
141.3350423177083
 20
138.0670247395833
 10
142.0550672743055
 20
138.0670247395833
 10
142.4965562608507
 20
137.6940931532118
 10
142.4543538411458
 20
136.9533976236979
 10
142.4543538411458
 20
136.9533976236979
 10
142.0182047526042
 20
136.9533976236979
 10
142.0182047526042
 20
136.9533976236979
 97
        0
 75
     0
 76
     1
 98
        1
 10
0.0
 20
0.0
  0
HATCH
  5
72
330
A
100
AcDbEntity
  8
LAYER_1
 62
     7
100
AcDbHatch
 10
0.0
 20
0.0
 30
0.0
210
0.0
220
0.0
230
1.0
  2
SOLID
 70
     1
 71
     0
 91
        1
 92
        1
 93
        1
 72
     4
 94
        3
 73
     0
 74
     0
 95
       56
 96
       52
 40
0.0
 40
0.0
 40
0.0
 40
0.0
 40
1.0
 40
1.0
 40
1.0
 40
2.0
 40
2.0
 40
2.0
 40
3.0
 40
3.0
 40
3.0
 40
4.0
 40
4.0
 40
4.0
 40
5.0
 40
5.0
 40
5.0
 40
6.0
 40
6.0
 40
6.0
 40
7.0
 40
7.0
 40
7.0
 40
8.0
 40
8.0
 40
8.0
 40
9.0
 40
9.0
 40
9.0
 40
10.0
 40
10.0
 40
10.0
 40
11.0
 40
11.0
 40
11.0
 40
12.0
 40
12.0
 40
12.0
 40
13.0
 40
13.0
 40
13.0
 40
14.0
 40
14.0
 40
14.0
 40
15.0
 40
15.0
 40
15.0
 40
16.0
 40
16.0
 40
16.0
 40
17.0
 40
17.0
 40
17.0
 40
17.0
 10
144.8345703125
 20
136.9533976236979
 10
144.8659206814236
 20
137.3628472222222
 10
144.6454345703125
 20
137.6729058159722
 10
144.2092854817708
 20
137.6729058159722
 10
143.5731486002604
 20
137.6729058159722
 10
143.5051079644097
 20
137.2737915039062
 10
143.5051079644097
 20
136.9689005533854
 10
143.5051079644097
 20
136.6958767361111
 10
143.6256863064236
 20
136.5274115668403
 10
143.8780395507812
 20
136.4326714409722
 10
144.088190375434
 20
136.3539510091146
 10
144.2931735568576
 20
136.2752305772569
 10
144.5033243815104
 20
136.196337890625
 10
145.2497043185764
 20
135.9181464301215
 10
145.3861300998264
 20
135.6551133897569
 10
145.3861300998264
 20
135.1349039713542
 10
145.3861300998264
 20
134.3890407986111
 10
144.9184583875868
 20
133.9527194552951
 10
144.1617431640625
 20
133.9527194552951
 10
143.7729641384549
 20
133.9527194552951
 10
143.3104600694444
 20
134.0629625108507
 10
143.0848063151042
 20
134.5780042860243
 10
143.0004014756944
 20
134.7721354166667
 10
143.0055691189236
 20
135.0878784179687
 10
143.0004014756944
 20
135.2980292426215
 10
143.0004014756944
 20
135.2980292426215
 10
143.4365505642361
 20
135.2980292426215
 10
143.4365505642361
 20
135.2980292426215
 10
143.4155354817708
 20
134.7146023220486
 10
143.526123046875
 20
134.3466661241319
 10
144.1829305013021
 20
134.3466661241319
 10
144.6244194878472
 20
134.3466661241319
 10
144.9344780815972
 20
134.5728366427951
 10
144.9344780815972
 20
135.0353407118055
 10
144.9344780815972
 20
135.6344428168403
 10
144.6928046332465
 20
135.6396104600694
 10
144.2931735568576
 20
135.7918836805555
 10
144.0778550889757
 20
135.8759440104167
 10
143.73076171875
 20
135.9861870659722
 10
143.5206108940972
 20
136.0964301215278
 10
143.1476793077257
 20
136.2859103732639
 10
143.0529391818576
 20
136.601136610243
 10
143.0529391818576
 20
136.990087890625
 10
143.0529391818576
 20
137.6415554470486
 10
143.5102756076389
 20
138.0670247395833
 10
144.1514078776042
 20
138.0670247395833
 10
144.8710883246528
 20
138.0670247395833
 10
145.3129218207465
 20
137.6940931532118
 10
145.2707194010417
 20
136.9533976236979
 10
145.2707194010417
 20
136.9533976236979
 10
144.8345703125
 20
136.9533976236979
 10
144.8345703125
 20
136.9533976236979
 97
        0
 75
     0
 76
     1
 98
        1
 10
0.0
 20
0.0
  0
HATCH
  5
71
330
A
100
AcDbEntity
  8
LAYER_1
 62
     7
100
AcDbHatch
 10
0.0
 20
0.0
 30
0.0
210
0.0
220
0.0
230
1.0
  2
SOLID
 70
     1
 71
     0
 91
        1
 92
        1
 93
        1
 72
     4
 94
        3
 73
     0
 74
     0
 95
       29
 96
       25
 40
0.0
 40
0.0
 40
0.0
 40
0.0
 40
1.0
 40
1.0
 40
1.0
 40
2.0
 40
2.0
 40
2.0
 40
3.0
 40
3.0
 40
3.0
 40
4.0
 40
4.0
 40
4.0
 40
5.0
 40
5.0
 40
5.0
 40
6.0
 40
6.0
 40
6.0
 40
7.0
 40
7.0
 40
7.0
 40
8.0
 40
8.0
 40
8.0
 40
8.0
 10
134.5147867838542
 20
132.3581570095486
 10
134.5147867838542
 20
132.3581570095486
 10
136.9895711263021
 20
132.3581570095486
 10
136.9895711263021
 20
132.3581570095486
 10
136.9895711263021
 20
132.3581570095486
 10
136.9895711263021
 20
131.9640380859375
 10
136.9895711263021
 20
131.9640380859375
 10
136.9895711263021
 20
131.9640380859375
 10
135.9703396267361
 20
131.9640380859375
 10
135.9703396267361
 20
131.9640380859375
 10
135.9703396267361
 20
131.9640380859375
 10
135.9703396267361
 20
128.4169677734375
 10
135.9703396267361
 20
128.4169677734375
 10
135.9703396267361
 20
128.4169677734375
 10
135.5340182834201
 20
128.4169677734375
 10
135.5340182834201
 20
128.4169677734375
 10
135.5340182834201
 20
128.4169677734375
 10
135.5340182834201
 20
131.9640380859375
 10
135.5340182834201
 20
131.9640380859375
 10
135.5340182834201
 20
131.9640380859375
 10
134.5147867838542
 20
131.9640380859375
 10
134.5147867838542
 20
131.9640380859375
 10
134.5147867838542
 20
131.9640380859375
 10
134.5147867838542
 20
132.3581570095486
 10
134.5147867838542
 20
132.3581570095486
 97
        0
 75
     0
 76
     1
 98
        1
 10
0.0
 20
0.0
  0
HATCH
  5
70
330
A
100
AcDbEntity
  8
LAYER_1
 62
     7
100
AcDbHatch
 10
0.0
 20
0.0
 30
0.0
210
0.0
220
0.0
230
1.0
  2
SOLID
 70
     1
 71
     0
 91
        1
 92
        1
 93
        1
 72
     4
 94
        3
 73
     0
 74
     0
 95
       41
 96
       37
 40
0.0
 40
0.0
 40
0.0
 40
0.0
 40
1.0
 40
1.0
 40
1.0
 40
2.0
 40
2.0
 40
2.0
 40
3.0
 40
3.0
 40
3.0
 40
4.0
 40
4.0
 40
4.0
 40
5.0
 40
5.0
 40
5.0
 40
6.0
 40
6.0
 40
6.0
 40
7.0
 40
7.0
 40
7.0
 40
8.0
 40
8.0
 40
8.0
 40
9.0
 40
9.0
 40
9.0
 40
10.0
 40
10.0
 40
10.0
 40
11.0
 40
11.0
 40
11.0
 40
12.0
 40
12.0
 40
12.0
 40
12.0
 10
137.3731825086805
 20
128.4169677734375
 10
137.3731825086805
 20
128.4169677734375
 10
137.3731825086805
 20
132.3581570095486
 10
137.3731825086805
 20
132.3581570095486
 10
137.3731825086805
 20
132.3581570095486
 10
137.8095038519965
 20
132.3581570095486
 10
137.8095038519965
 20
132.3581570095486
 10
137.8095038519965
 20
132.3581570095486
 10
137.8095038519965
 20
130.7131239149306
 10
137.8095038519965
 20
130.7131239149306
 10
137.8095038519965
 20
130.7131239149306
 10
139.3175944010417
 20
130.7131239149306
 10
139.3175944010417
 20
130.7131239149306
 10
139.3175944010417
 20
130.7131239149306
 10
139.3175944010417
 20
132.3581570095486
 10
139.3175944010417
 20
132.3581570095486
 10
139.3175944010417
 20
132.3581570095486
 10
139.7537434895833
 20
132.3581570095486
 10
139.7537434895833
 20
132.3581570095486
 10
139.7537434895833
 20
132.3581570095486
 10
139.7537434895833
 20
128.4169677734375
 10
139.7537434895833
 20
128.4169677734375
 10
139.7537434895833
 20
128.4169677734375
 10
139.3175944010417
 20
128.4169677734375
 10
139.3175944010417
 20
128.4169677734375
 10
139.3175944010417
 20
128.4169677734375
 10
139.3175944010417
 20
130.3190049913195
 10
139.3175944010417
 20
130.3190049913195
 10
139.3175944010417
 20
130.3190049913195
 10
137.8095038519965
 20
130.3190049913195
 10
137.8095038519965
 20
130.3190049913195
 10
137.8095038519965
 20
130.3190049913195
 10
137.8095038519965
 20
128.4169677734375
 10
137.8095038519965
 20
128.4169677734375
 10
137.8095038519965
 20
128.4169677734375
 10
137.3731825086805
 20
128.4169677734375
 10
137.3731825086805
 20
128.4169677734375
 97
        0
 75
     0
 76
     1
 98
        1
 10
0.0
 20
0.0
  0
HATCH
  5
6F
330
A
100
AcDbEntity
  8
LAYER_1
 62
     7
100
AcDbHatch
 10
0.0
 20
0.0
 30
0.0
210
0.0
220
0.0
230
1.0
  2
SOLID
 70
     1
 71
     0
 91
        2
 92
       16
 93
        1
 72
     4
 94
        3
 73
     0
 74
     0
 95
       17
 96
       13
 40
0.0
 40
0.0
 40
0.0
 40
0.0
 40
1.0
 40
1.0
 40
1.0
 40
2.0
 40
2.0
 40
2.0
 40
3.0
 40
3.0
 40
3.0
 40
4.0
 40
4.0
 40
4.0
 40
4.0
 10
141.529345703125
 20
132.0429307725694
 10
141.529345703125
 20
132.0429307725694
 10
141.5186659071181
 20
132.0429307725694
 10
141.5186659071181
 20
132.0429307725694
 10
141.5186659071181
 20
132.0429307725694
 10
140.9984564887153
 20
129.9460734049479
 10
140.9984564887153
 20
129.9460734049479
 10
140.9984564887153
 20
129.9460734049479
 10
142.0392198350695
 20
129.9460734049479
 10
142.0392198350695
 20
129.9460734049479
 10
142.0392198350695
 20
129.9460734049479
 10
141.529345703125
 20
132.0429307725694
 10
141.529345703125
 20
132.0429307725694
 97
        0
 92
        1
 93
        1
 72
     4
 94
        3
 73
     0
 74
     0
 95
       29
 96
       25
 40
0.0
 40
0.0
 40
0.0
 40
0.0
 40
1.0
 40
1.0
 40
1.0
 40
2.0
 40
2.0
 40
2.0
 40
3.0
 40
3.0
 40
3.0
 40
4.0
 40
4.0
 40
4.0
 40
5.0
 40
5.0
 40
5.0
 40
6.0
 40
6.0
 40
6.0
 40
7.0
 40
7.0
 40
7.0
 40
8.0
 40
8.0
 40
8.0
 40
8.0
 10
141.2454698350694
 20
132.3581570095486
 10
141.2454698350694
 20
132.3581570095486
 10
141.8235568576389
 20
132.3581570095486
 10
141.8235568576389
 20
132.3581570095486
 10
141.8235568576389
 20
132.3581570095486
 10
142.9323608398437
 20
128.4169677734375
 10
142.9323608398437
 20
128.4169677734375
 10
142.9323608398437
 20
128.4169677734375
 10
142.4488416883681
 20
128.4169677734375
 10
142.4488416883681
 20
128.4169677734375
 10
142.4488416883681
 20
128.4169677734375
 10
142.1387830946181
 20
129.5521267361111
 10
142.1387830946181
 20
129.5521267361111
 10
142.1387830946181
 20
129.5521267361111
 10
140.8933810763889
 20
129.5521267361111
 10
140.8933810763889
 20
129.5521267361111
 10
140.8933810763889
 20
129.5521267361111
 10
140.6043375651042
 20
128.4169677734375
 10
140.6043375651042
 20
128.4169677734375
 10
140.6043375651042
 20
128.4169677734375
 10
140.1211629231771
 20
128.4169677734375
 10
140.1211629231771
 20
128.4169677734375
 10
140.1211629231771
 20
128.4169677734375
 10
141.2454698350694
 20
132.3581570095486
 10
141.2454698350694
 20
132.3581570095486
 97
        0
 75
     0
 76
     1
 98
        1
 10
0.0
 20
0.0
  0
HATCH
  5
6E
330
A
100
AcDbEntity
  8
LAYER_1
 62
     7
100
AcDbHatch
 10
0.0
 20
0.0
 30
0.0
210
0.0
220
0.0
230
1.0
  2
SOLID
 70
     1
 71
     0
 91
        1
 92
        1
 93
        1
 72
     4
 94
        3
 73
     0
 74
     0
 95
       53
 96
       49
 40
0.0
 40
0.0
 40
0.0
 40
0.0
 40
1.0
 40
1.0
 40
1.0
 40
2.0
 40
2.0
 40
2.0
 40
3.0
 40
3.0
 40
3.0
 40
4.0
 40
4.0
 40
4.0
 40
5.0
 40
5.0
 40
5.0
 40
6.0
 40
6.0
 40
6.0
 40
7.0
 40
7.0
 40
7.0
 40
8.0
 40
8.0
 40
8.0
 40
9.0
 40
9.0
 40
9.0
 40
10.0
 40
10.0
 40
10.0
 40
11.0
 40
11.0
 40
11.0
 40
12.0
 40
12.0
 40
12.0
 40
13.0
 40
13.0
 40
13.0
 40
14.0
 40
14.0
 40
14.0
 40
15.0
 40
15.0
 40
15.0
 40
16.0
 40
16.0
 40
16.0
 40
16.0
 10
145.2491875542535
 20
132.3581570095486
 10
145.2491875542535
 20
132.3581570095486
 10
145.6855088975694
 20
132.3581570095486
 10
145.6855088975694
 20
132.3581570095486
 10
145.6855088975694
 20
132.3581570095486
 10
145.6855088975694
 20
128.4169677734375
 10
145.6855088975694
 20
128.4169677734375
 10
145.6855088975694
 20
128.4169677734375
 10
144.97099609375
 20
128.4169677734375
 10
144.97099609375
 20
128.4169677734375
 10
144.97099609375
 20
128.4169677734375
 10
143.8671875
 20
131.5695746527778
 10
143.8671875
 20
131.5695746527778
 10
143.8044867621528
 20
131.7483751085069
 10
143.7569444444444
 20
131.9270033094618
 10
143.7200819227431
 20
132.1635091145833
 10
143.7200819227431
 20
132.1635091145833
 10
143.7097466362847
 20
132.1635091145833
 10
143.7097466362847
 20
132.1635091145833
 10
143.7149142795139
 20
131.9640380859375
 10
143.7200819227431
 20
131.7590549045139
 10
143.7200819227431
 20
131.5592393663195
 10
143.7200819227431
 20
131.5592393663195
 10
143.7200819227431
 20
128.4169677734375
 10
143.7200819227431
 20
128.4169677734375
 10
143.7200819227431
 20
128.4169677734375
 10
143.28427734375
 20
128.4169677734375
 10
143.28427734375
 20
128.4169677734375
 10
143.28427734375
 20
128.4169677734375
 10
143.28427734375
 20
132.3581570095486
 10
143.28427734375
 20
132.3581570095486
 10
143.28427734375
 20
132.3581570095486
 10
143.993450249566
 20
132.3581570095486
 10
143.993450249566
 20
132.3581570095486
 10
143.993450249566
 20
132.3581570095486
 10
145.1125895182292
 20
129.1313083224826
 10
145.1125895182292
 20
129.1313083224826
 10
145.1601318359375
 20
129.0107299804687
 10
145.1966498480903
 20
128.8844672309028
 10
145.2491875542535
 20
128.7006713867187
 10
145.2491875542535
 20
128.7006713867187
 10
145.2600396050347
 20
128.7006713867187
 10
145.2600396050347
 20
128.7006713867187
 10
145.2548719618056
 20
128.8424370659722
 10
145.2491875542535
 20
128.9947102864583
 10
145.2491875542535
 20
129.1421603732639
 10
145.2491875542535
 20
129.1421603732639
 10
145.2491875542535
 20
132.3581570095486
 10
145.2491875542535
 20
132.3581570095486
 97
        0
 75
     0
 76
     1
 98
        1
 10
0.0
 20
0.0
  0
HATCH
  5
6D
330
A
100
AcDbEntity
  8
LAYER_1
 62
     7
100
AcDbHatch
 10
0.0
 20
0.0
 30
0.0
210
0.0
220
0.0
230
1.0
  2
SOLID
 70
     1
 71
     0
 91
        2
 92
       16
 93
        1
 72
     4
 94
        3
 73
     0
 74
     0
 95
       17
 96
       13
 40
0.0
 40
0.0
 40
0.0
 40
0.0
 40
1.0
 40
1.0
 40
1.0
 40
2.0
 40
2.0
 40
2.0
 40
3.0
 40
3.0
 40
3.0
 40
4.0
 40
4.0
 40
4.0
 40
4.0
 10
132.9014485677083
 20
124.893324110243
 10
132.3864067925347
 20
124.893324110243
 10
132.2921834309896
 20
124.4626871744792
 10
132.2921834309896
 20
124.1002631293403
 10
132.2658284505208
 20
123.3538831922743
 10
132.5390245225694
 20
123.1015299479167
 10
132.9329711914062
 20
123.1015299479167
 10
133.4480129665799
 20
123.1015299479167
 10
133.5370686848958
 20
123.6587741427951
 10
133.5370686848958
 20
124.0578884548611
 10
133.5370686848958
 20
124.4890421549479
 10
133.405810546875
 20
124.893324110243
 10
132.9014485677083
 20
124.893324110243
 97
        0
 92
        1
 93
        1
 72
     4
 94
        3
 73
     0
 74
     0
 95
       35
 96
       31
 40
0.0
 40
0.0
 40
0.0
 40
0.0
 40
1.0
 40
1.0
 40
1.0
 40
2.0
 40
2.0
 40
2.0
 40
3.0
 40
3.0
 40
3.0
 40
4.0
 40
4.0
 40
4.0
 40
5.0
 40
5.0
 40
5.0
 40
6.0
 40
6.0
 40
6.0
 40
7.0
 40
7.0
 40
7.0
 40
8.0
 40
8.0
 40
8.0
 40
9.0
 40
9.0
 40
9.0
 40
10.0
 40
10.0
 40
10.0
 40
10.0
 10
131.8086642795139
 20
124.5364122178819
 10
131.8086642795139
 20
125.3560004340278
 10
131.8400146484375
 20
126.7274929470486
 10
132.9751736111111
 20
126.7274929470486
 10
133.5582560221354
 20
126.7274929470486
 10
133.8791666666667
 20
126.3545613606771
 10
133.8946695963542
 20
125.7869818793403
 10
133.8946695963542
 20
125.7869818793403
 10
133.4480129665799
 20
125.7869818793403
 10
133.4480129665799
 20
125.7869818793403
 10
133.4480129665799
 20
126.1444105360243
 10
133.2955674913195
 20
126.3333740234375
 10
132.9226359049479
 20
126.3333740234375
 10
132.2551486545139
 20
126.3333740234375
 10
132.260316297743
 20
125.2245700412326
 10
132.2396457248264
 20
124.8042683919271
 10
132.2396457248264
 20
124.8042683919271
 10
132.2499810112847
 20
124.8042683919271
 10
132.2499810112847
 20
124.8042683919271
 10
132.4024264865451
 20
125.1406819661458
 10
132.6912977430555
 20
125.2877875434028
 10
132.9751736111111
 20
125.2877875434028
 10
133.6793511284722
 20
125.2877875434028
 10
133.9894097222222
 20
124.7203803168403
 10
133.9894097222222
 20
124.0842434353299
 10
133.9894097222222
 20
123.2436401367187
 10
133.5427530924479
 20
122.7074110243055
 10
132.9438232421875
 20
122.7074110243055
 10
131.8873847113715
 20
122.7074110243055
 10
131.8086642795139
 20
123.7268147786458
 10
131.8086642795139
 20
124.5364122178819
 97
        0
 75
     0
 76
     1
 98
        1
 10
0.0
 20
0.0
  0
HATCH
  5
6C
330
A
100
AcDbEntity
  8
LAYER_1
 62
     7
100
AcDbHatch
 10
0.0
 20
0.0
 30
0.0
210
0.0
220
0.0
230
1.0
  2
SOLID
 70
     1
 71
     0
 91
        2
 92
       16
 93
        1
 72
     4
 94
        3
 73
     0
 74
     0
 95
       17
 96
       13
 40
0.0
 40
0.0
 40
0.0
 40
0.0
 40
1.0
 40
1.0
 40
1.0
 40
2.0
 40
2.0
 40
2.0
 40
3.0
 40
3.0
 40
3.0
 40
4.0
 40
4.0
 40
4.0
 40
4.0
 10
135.4186075846354
 20
123.1015299479167
 10
136.0702473958333
 20
123.1015299479167
 10
136.0438924153646
 20
124.0372178819444
 10
136.0438924153646
 20
124.7939331054687
 10
136.0438924153646
 20
125.3508327907986
 10
136.1019422743055
 20
126.2861762152778
 10
135.4186075846354
 20
126.3333740234375
 10
134.7252821180555
 20
126.3757486979167
 10
134.7984903971354
 20
125.1561848958333
 10
134.7984903971354
 20
124.7939331054687
 10
134.7984903971354
 20
124.0372178819444
 10
134.693414984809
 20
123.1015299479167
 10
135.4186075846354
 20
123.1015299479167
 97
        0
 92
        1
 93
        1
 72
     4
 94
        3
 73
     0
 74
     0
 95
       17
 96
       13
 40
0.0
 40
0.0
 40
0.0
 40
0.0
 40
1.0
 40
1.0
 40
1.0
 40
2.0
 40
2.0
 40
2.0
 40
3.0
 40
3.0
 40
3.0
 40
4.0
 40
4.0
 40
4.0
 40
4.0
 10
134.3466661241319
 20
124.7255479600694
 10
134.3466661241319
 20
125.4610758463542
 10
134.3942084418403
 20
126.7274929470486
 10
135.4186075846354
 20
126.7274929470486
 10
136.5222439236111
 20
126.7274929470486
 10
136.4960611979167
 20
125.4769232855903
 10
136.4960611979167
 20
124.7255479600694
 10
136.4960611979167
 20
123.8322347005208
 10
136.4486911349826
 20
122.7074110243055
 10
135.4186075846354
 20
122.7074110243055
 10
134.3678534613715
 20
122.7074110243055
 10
134.3466661241319
 20
124.0265380859375
 10
134.3466661241319
 20
124.7255479600694
 97
        0
 75
     0
 76
     1
 98
        1
 10
0.0
 20
0.0
  0
HATCH
  5
6B
330
A
100
AcDbEntity
  8
LAYER_1
 62
     7
100
AcDbHatch
 10
0.0
 20
0.0
 30
0.0
210
0.0
220
0.0
230
1.0
  2
SOLID
 70
     1
 71
     0
 91
        5
 92
        1
 93
        1
 72
     4
 94
        3
 73
     0
 74
     0
 95
       17
 96
       13
 40
0.0
 40
0.0
 40
0.0
 40
0.0
 40
1.0
 40
1.0
 40
1.0
 40
2.0
 40
2.0
 40
2.0
 40
3.0
 40
3.0
 40
3.0
 40
4.0
 40
4.0
 40
4.0
 40
4.0
 10
138.0098361545139
 20
122.7074110243055
 10
138.0098361545139
 20
122.7074110243055
 10
137.7259602864583
 20
122.7074110243055
 10
137.7259602864583
 20
122.7074110243055
 10
137.7259602864583
 20
122.7074110243055
 10
139.4864040798611
 20
126.7274929470486
 10
139.4864040798611
 20
126.7274929470486
 10
139.4864040798611
 20
126.7274929470486
 10
139.7542602539062
 20
126.7274929470486
 10
139.7542602539062
 20
126.7274929470486
 10
139.7542602539062
 20
126.7274929470486
 10
138.0098361545139
 20
122.7074110243055
 10
138.0098361545139
 20
122.7074110243055
 97
        0
 92
       16
 93
        1
 72
     4
 94
        3
 73
     0
 74
     0
 95
       17
 96
       13
 40
0.0
 40
0.0
 40
0.0
 40
0.0
 40
1.0
 40
1.0
 40
1.0
 40
2.0
 40
2.0
 40
2.0
 40
3.0
 40
3.0
 40
3.0
 40
4.0
 40
4.0
 40
4.0
 40
4.0
 10
137.9834811740451
 20
125.639704047309
 10
137.9834811740451
 20
125.902392578125
 10
137.9834811740451
 20
126.3597290039062
 10
137.620884874132
 20
126.3597290039062
 10
137.2686238606771
 20
126.3597290039062
 10
137.2686238606771
 20
125.902392578125
 10
137.2686238606771
 20
125.639704047309
 10
137.2686238606771
 20
125.3980305989583
 10
137.3056586371528
 20
125.0459418402778
 10
137.6260525173611
 20
125.0459418402778
 10
137.9464463975695
 20
125.0459418402778
 10
137.9834811740451
 20
125.3980305989583
 10
137.9834811740451
 20
125.639704047309
 97
        0
 92
        1
 93
        1
 72
     4
 94
        3
 73
     0
 74
     0
 95
       17
 96
       13
 40
0.0
 40
0.0
 40
0.0
 40
0.0
 40
1.0
 40
1.0
 40
1.0
 40
2.0
 40
2.0
 40
2.0
 40
3.0
 40
3.0
 40
3.0
 40
4.0
 40
4.0
 40
4.0
 40
4.0
 10
138.3353976779514
 20
125.7132568359375
 10
138.3353976779514
 20
124.9828965928819
 10
138.104059516059
 20
124.709528266059
 10
137.5998697916667
 20
124.7517306857639
 10
137.1635484483507
 20
124.7882486979167
 10
136.9163628472222
 20
124.9989162868924
 10
136.9163628472222
 20
125.7292765299479
 10
136.9163628472222
 20
126.2176188151042
 10
137.0848280164931
 20
126.6537679036458
 10
137.6470675998264
 20
126.6537679036458
 10
138.1884643554687
 20
126.6537679036458
 10
138.3353976779514
 20
126.1759331597222
 10
138.3353976779514
 20
125.7132568359375
 97
        0
 92
       16
 93
        1
 72
     4
 94
        3
 73
     0
 74
     0
 95
       17
 96
       13
 40
0.0
 40
0.0
 40
0.0
 40
0.0
 40
1.0
 40
1.0
 40
1.0
 40
2.0
 40
2.0
 40
2.0
 40
3.0
 40
3.0
 40
3.0
 40
4.0
 40
4.0
 40
4.0
 40
4.0
 10
140.2481146918403
 20
123.6742770724826
 10
140.2481146918403
 20
123.9373101128472
 10
140.2481146918403
 20
124.3943020290799
 10
139.8856906467014
 20
124.3943020290799
 10
139.5332573784722
 20
124.3943020290799
 10
139.5332573784722
 20
123.9373101128472
 10
139.5332573784722
 20
123.6742770724826
 10
139.5332573784722
 20
123.4326036241319
 10
139.5704644097222
 20
123.080859375
 10
139.8908582899306
 20
123.080859375
 10
140.2112521701389
 20
123.080859375
 10
140.2481146918403
 20
123.4326036241319
 10
140.2481146918403
 20
123.6742770724826
 97
        0
 92
        1
 93
        1
 72
     4
 94
        3
 73
     0
 74
     0
 95
       17
 96
       13
 40
0.0
 40
0.0
 40
0.0
 40
0.0
 40
1.0
 40
1.0
 40
1.0
 40
2.0
 40
2.0
 40
2.0
 40
3.0
 40
3.0
 40
3.0
 40
4.0
 40
4.0
 40
4.0
 40
4.0
 10
139.8433159722222
 20
122.7863037109375
 10
139.5070746527778
 20
122.7918158637153
 10
139.1815131293403
 20
123.0489922417535
 10
139.1815131293403
 20
123.779352484809
 10
139.1815131293403
 20
124.2680392795139
 10
139.3494615342882
 20
124.6888576931424
 10
139.9118733723958
 20
124.6888576931424
 10
140.4530978732639
 20
124.6888576931424
 10
140.6000311957465
 20
124.2263536241319
 10
140.6000311957465
 20
123.7638495551215
 10
140.6000311957465
 20
123.033489312066
 10
140.2956570095486
 20
122.7811360677083
 10
139.8433159722222
 20
122.7863037109375
 97
        0
 75
     0
 76
     1
 98
        1
 10
0.0
 20
0.0
  0
HATCH
  5
6A
330
A
100
AcDbEntity
  8
LAYER_1
 62
     7
100
AcDbHatch
 10
0.0
 20
0.0
 30
0.0
210
0.0
220
0.0
230
1.0
  2
SOLID
 70
     1
 71
     0
 91
        2
 92
       16
 93
        1
 72
     4
 94
        3
 73
     0
 74
     0
 95
       17
 96
       13
 40
0.0
 40
0.0
 40
0.0
 40
0.0
 40
1.0
 40
1.0
 40
1.0
 40
2.0
 40
2.0
 40
2.0
 40
3.0
 40
3.0
 40
3.0
 40
4.0
 40
4.0
 40
4.0
 40
4.0
 10
142.7049845377604
 20
125.7964558919271
 10
142.3203396267361
 20
125.7964558919271
 10
142.2243937174479
 20
125.3942409939236
 10
142.2273220486111
 20
124.8929796006944
 10
142.2304226345486
 20
124.2415120442708
 10
142.2967407226562
 20
123.8959689670139
 10
142.7110134548611
 20
123.8959689670139
 10
143.125286187066
 20
123.8959689670139
 10
143.1916042751736
 20
124.2415120442708
 10
143.1947048611111
 20
124.8929796006944
 10
143.1976331922743
 20
125.3942409939236
 10
143.1011705186632
 20
125.7964558919271
 10
142.7049845377604
 20
125.7964558919271
 97
        0
 92
        1
 93
        1
 72
     4
 94
        3
 73
     0
 74
     0
 95
       17
 96
       13
 40
0.0
 40
0.0
 40
0.0
 40
0.0
 40
1.0
 40
1.0
 40
1.0
 40
2.0
 40
2.0
 40
2.0
 40
3.0
 40
3.0
 40
3.0
 40
4.0
 40
4.0
 40
4.0
 40
4.0
 10
142.7170423719618
 20
126.0221096462674
 10
143.3745388454861
 20
126.0221096462674
 10
143.4554985894097
 20
125.4152560763889
 10
143.4525702582465
 20
124.8990085177951
 10
143.4496419270833
 20
124.2742404513889
 10
143.3686821831597
 20
123.6708319769965
 10
142.7110134548611
 20
123.6708319769965
 10
142.0533447265625
 20
123.6708319769965
 10
141.9754855685764
 20
124.2742404513889
 10
141.9694566514757
 20
124.8990085177951
 10
141.9694566514757
 20
125.4152560763889
 10
142.0474880642361
 20
126.0221096462674
 10
142.7170423719618
 20
126.0221096462674
 97
        0
 75
     0
 76
     1
 98
        1
 10
0.0
 20
0.0
  0
HATCH
  5
69
330
A
100
AcDbEntity
  8
LAYER_1
 62
     7
100
AcDbHatch
 10
0.0
 20
0.0
 30
0.0
210
0.0
220
0.0
230
1.0
  2
SOLID
 70
     1
 71
     0
 91
        1
 92
        1
 93
        1
 72
     4
 94
        3
 73
     0
 74
     0
 95
       35
 96
       31
 40
0.0
 40
0.0
 40
0.0
 40
0.0
 40
1.0
 40
1.0
 40
1.0
 40
2.0
 40
2.0
 40
2.0
 40
3.0
 40
3.0
 40
3.0
 40
4.0
 40
4.0
 40
4.0
 40
5.0
 40
5.0
 40
5.0
 40
6.0
 40
6.0
 40
6.0
 40
7.0
 40
7.0
 40
7.0
 40
8.0
 40
8.0
 40
8.0
 40
9.0
 40
9.0
 40
9.0
 40
10.0
 40
10.0
 40
10.0
 40
10.0
 10
143.7884670681424
 20
123.7247477213542
 10
143.7884670681424
 20
123.7247477213542
 10
143.7884670681424
 20
125.976806640625
 10
143.7884670681424
 20
125.976806640625
 10
143.7884670681424
 20
125.976806640625
 10
144.8455946180555
 20
125.976806640625
 10
144.8455946180555
 20
125.976806640625
 10
144.8455946180555
 20
125.976806640625
 10
144.8455946180555
 20
125.7516696506076
 10
144.8455946180555
 20
125.7516696506076
 10
144.8455946180555
 20
125.7516696506076
 10
144.0377197265625
 20
125.7516696506076
 10
144.0377197265625
 20
125.7516696506076
 10
144.0377197265625
 20
125.7516696506076
 10
144.0377197265625
 20
125.0132134331597
 10
144.0377197265625
 20
125.0132134331597
 10
144.0377197265625
 20
125.0132134331597
 10
144.7884060329861
 20
125.0132134331597
 10
144.7884060329861
 20
125.0132134331597
 10
144.7884060329861
 20
125.0132134331597
 10
144.7884060329861
 20
124.7879041883681
 10
144.7884060329861
 20
124.7879041883681
 10
144.7884060329861
 20
124.7879041883681
 10
144.0377197265625
 20
124.7879041883681
 10
144.0377197265625
 20
124.7879041883681
 10
144.0377197265625
 20
124.7879041883681
 10
144.0377197265625
 20
123.7247477213542
 10
144.0377197265625
 20
123.7247477213542
 10
144.0377197265625
 20
123.7247477213542
 10
143.7884670681424
 20
123.7247477213542
 10
143.7884670681424
 20
123.7247477213542
 97
        0
 75
     0
 76
     1
 98
        1
 10
0.0
 20
0.0
  0
HATCH
  5
68
330
A
100
AcDbEntity
  8
LAYER_1
 62
     7
100
AcDbHatch
 10
0.0
 20
0.0
 30
0.0
210
0.0
220
0.0
230
1.0
  2
SOLID
 70
     1
 71
     0
 91
        2
 92
       16
 93
        1
 72
     4
 94
        3
 73
     0
 74
     0
 95
       20
 96
       16
 40
0.0
 40
0.0
 40
0.0
 40
0.0
 40
1.0
 40
1.0
 40
1.0
 40
2.0
 40
2.0
 40
2.0
 40
3.0
 40
3.0
 40
3.0
 40
4.0
 40
4.0
 40
4.0
 40
5.0
 40
5.0
 40
5.0
 40
5.0
 10
146.599664984809
 20
123.1807671440972
 10
146.599664984809
 20
123.1807671440972
 10
147.2985026041667
 20
123.1807671440972
 10
147.2985026041667
 20
123.1807671440972
 10
147.9398071289062
 20
123.1807671440972
 10
148.2024956597222
 20
123.6587741427951
 10
148.1602932400174
 20
124.835791015625
 10
148.1287706163194
 20
125.7344441731771
 10
148.0026801215278
 20
126.3333740234375
 10
147.2985026041667
 20
126.3333740234375
 10
147.2985026041667
 20
126.3333740234375
 10
146.599664984809
 20
126.3333740234375
 10
146.599664984809
 20
126.3333740234375
 10
146.599664984809
 20
126.3333740234375
 10
146.599664984809
 20
123.1807671440972
 10
146.599664984809
 20
123.1807671440972
 97
        0
 92
        1
 93
        1
 72
     4
 94
        3
 73
     0
 74
     0
 95
       20
 96
       16
 40
0.0
 40
0.0
 40
0.0
 40
0.0
 40
1.0
 40
1.0
 40
1.0
 40
2.0
 40
2.0
 40
2.0
 40
3.0
 40
3.0
 40
3.0
 40
4.0
 40
4.0
 40
4.0
 40
5.0
 40
5.0
 40
5.0
 40
5.0
 10
146.163343641493
 20
122.7863037109375
 10
146.163343641493
 20
122.7863037109375
 10
146.163343641493
 20
126.7274929470486
 10
146.163343641493
 20
126.7274929470486
 10
146.163343641493
 20
126.7274929470486
 10
147.2461371527778
 20
126.7274929470486
 10
147.2461371527778
 20
126.7274929470486
 10
148.4755194769965
 20
126.7274929470486
 10
148.643812391493
 20
125.7292765299479
 10
148.6121175130208
 20
124.7568983289931
 10
148.5805948893229
 20
123.7953721788194
 10
148.3916314019097
 20
122.7863037109375
 10
147.3248575846354
 20
122.7863037109375
 10
147.3248575846354
 20
122.7863037109375
 10
146.163343641493
 20
122.7863037109375
 10
146.163343641493
 20
122.7863037109375
 97
        0
 75
     0
 76
     1
 98
        1
 10
0.0
 20
0.0
  0
INSERT
  5
4F
330
A
100
AcDbEntity
  8
LAYER_1
 62
     7
100
AcDbBlockReference
  2
AI9-BLK2
 10
94.97378946940103
 20
165.8993482801649
 30
0.0
  0
INSERT
  5
35
330
A
100
AcDbEntity
  8
LAYER_1
 62
     7
100
AcDbBlockReference
  2
AI9-BLK1
 10
121.0144911024305
 20
155.7177992078993
 30
0.0
  0
HATCH
  5
33
330
A
100
AcDbEntity
  8
LAYER_1
 62
     7
100
AcDbHatch
 10
0.0
 20
0.0
 30
0.0
210
0.0
220
0.0
230
1.0
  2
SOLID
 70
     1
 71
     0
 91
        1
 92
        1
 93
        1
 72
     4
 94
        3
 73
     0
 74
     0
 95
       56
 96
       52
 40
0.0
 40
0.0
 40
0.0
 40
0.0
 40
1.0
 40
1.0
 40
1.0
 40
2.0
 40
2.0
 40
2.0
 40
3.0
 40
3.0
 40
3.0
 40
4.0
 40
4.0
 40
4.0
 40
5.0
 40
5.0
 40
5.0
 40
6.0
 40
6.0
 40
6.0
 40
7.0
 40
7.0
 40
7.0
 40
8.0
 40
8.0
 40
8.0
 40
9.0
 40
9.0
 40
9.0
 40
10.0
 40
10.0
 40
10.0
 40
11.0
 40
11.0
 40
11.0
 40
12.0
 40
12.0
 40
12.0
 40
13.0
 40
13.0
 40
13.0
 40
14.0
 40
14.0
 40
14.0
 40
15.0
 40
15.0
 40
15.0
 40
16.0
 40
16.0
 40
16.0
 40
17.0
 40
17.0
 40
17.0
 40
17.0
 10
122.1765218098958
 20
131.7897162543403
 10
122.4891642252604
 20
131.8034966362847
 10
122.5882107204861
 20
132.0625678168403
 10
122.5882107204861
 20
132.2909776475694
 10
122.5882107204861
 20
132.4627156575521
 10
122.5399793836806
 20
132.752964952257
 10
122.2330213758681
 20
132.752964952257
 10
122.0611111111111
 20
132.752964952257
 10
122.0051283094618
 20
132.6315253363715
 10
121.9767062717014
 20
132.5135308159722
 10
121.9767062717014
 20
132.5135308159722
 10
121.8444146050347
 20
131.9361328125
 10
121.8444146050347
 20
131.9361328125
 10
121.7824028862847
 20
131.6743055555556
 10
121.6249620225694
 20
131.4769015842014
 10
121.3035346137153
 20
131.4769015842014
 10
120.8246663411458
 20
131.4769015842014
 10
120.6925469292535
 20
131.9218356662326
 10
120.6925469292535
 20
132.2685845269097
 10
120.6925469292535
 20
132.6427218967014
 10
120.8053738064236
 20
132.7891384548611
 10
120.8866780598958
 20
132.8795722113715
 10
121.0417073567708
 20
133.0513102213542
 10
121.2105170355903
 20
133.0850721571181
 10
121.3996527777778
 20
133.0850721571181
 10
121.3996527777778
 20
133.0850721571181
 10
121.3996527777778
 20
132.8287570529514
 10
121.3996527777778
 20
132.8287570529514
 10
121.0330946180555
 20
132.8287570529514
 10
120.9262966579861
 20
132.5304117838542
 10
120.9262966579861
 20
132.27099609375
 10
120.9262966579861
 20
132.0739366319444
 10
120.9767673068576
 20
131.7418294270833
 10
121.2670166015625
 20
131.7418294270833
 10
121.4785454644097
 20
131.7418294270833
 10
121.5460693359375
 20
131.8403591579861
 10
121.6249620225694
 20
132.1724663628472
 10
121.6249620225694
 20
132.1724663628472
 10
121.7203911675347
 20
132.5867390950521
 10
121.7203911675347
 20
132.5867390950521
 10
121.7513970269097
 20
132.7188585069444
 10
121.8444146050347
 20
133.017376030816
 10
122.196331108941
 20
133.017376030816
 10
122.5120741102431
 20
133.017376030816
 10
122.8216159396701
 20
132.8118760850694
 10
122.8216159396701
 20
132.3219835069444
 10
122.8216159396701
 20
131.6147054036458
 10
122.3990749782986
 20
131.5445977105035
 10
122.1765218098958
 20
131.5334011501736
 10
122.1765218098958
 20
131.5334011501736
 10
122.1765218098958
 20
131.7897162543403
 10
122.1765218098958
 20
131.7897162543403
 97
        0
 75
     0
 76
     1
 98
        1
 10
0.0
 20
0.0
  0
HATCH
  5
32
330
A
100
AcDbEntity
  8
LAYER_1
 62
     7
100
AcDbHatch
 10
0.0
 20
0.0
 30
0.0
210
0.0
220
0.0
230
1.0
  2
SOLID
 70
     1
 71
     0
 91
        1
 92
        1
 93
        1
 72
     4
 94
        3
 73
     0
 74
     0
 95
       17
 96
       13
 40
0.0
 40
0.0
 40
0.0
 40
0.0
 40
1.0
 40
1.0
 40
1.0
 40
2.0
 40
2.0
 40
2.0
 40
3.0
 40
3.0
 40
3.0
 40
4.0
 40
4.0
 40
4.0
 40
4.0
 10
120.7459459092882
 20
130.815960015191
 10
120.7459459092882
 20
130.815960015191
 10
120.7459459092882
 20
131.0889838324653
 10
120.7459459092882
 20
131.0889838324653
 10
120.7459459092882
 20
131.0889838324653
 10
122.7682169596354
 20
131.0889838324653
 10
122.7682169596354
 20
131.0889838324653
 10
122.7682169596354
 20
131.0889838324653
 10
122.7682169596354
 20
130.815960015191
 10
122.7682169596354
 20
130.815960015191
 10
122.7682169596354
 20
130.815960015191
 10
120.7459459092882
 20
130.815960015191
 10
120.7459459092882
 20
130.815960015191
 97
        0
 75
     0
 76
     1
 98
        1
 10
0.0
 20
0.0
  0
HATCH
  5
31
330
A
100
AcDbEntity
  8
LAYER_1
 62
     7
100
AcDbHatch
 10
0.0
 20
0.0
 30
0.0
210
0.0
220
0.0
230
1.0
  2
SOLID
 70
     1
 71
     0
 91
        1
 92
        1
 93
        1
 72
     4
 94
        3
 73
     0
 74
     0
 95
       59
 96
       55
 40
0.0
 40
0.0
 40
0.0
 40
0.0
 40
1.0
 40
1.0
 40
1.0
 40
2.0
 40
2.0
 40
2.0
 40
3.0
 40
3.0
 40
3.0
 40
4.0
 40
4.0
 40
4.0
 40
5.0
 40
5.0
 40
5.0
 40
6.0
 40
6.0
 40
6.0
 40
7.0
 40
7.0
 40
7.0
 40
8.0
 40
8.0
 40
8.0
 40
9.0
 40
9.0
 40
9.0
 40
10.0
 40
10.0
 40
10.0
 40
11.0
 40
11.0
 40
11.0
 40
12.0
 40
12.0
 40
12.0
 40
13.0
 40
13.0
 40
13.0
 40
14.0
 40
14.0
 40
14.0
 40
15.0
 40
15.0
 40
15.0
 40
16.0
 40
16.0
 40
16.0
 40
17.0
 40
17.0
 40
17.0
 40
18.0
 40
18.0
 40
18.0
 40
18.0
 10
120.7459459092882
 20
128.6846516927083
 10
120.7459459092882
 20
128.6846516927083
 10
121.9401882595486
 20
128.6846516927083
 10
121.9401882595486
 20
128.6846516927083
 10
121.9994439019097
 20
128.6846516927083
 10
122.2557590060764
 20
128.6791395399305
 10
122.444377983941
 20
128.6791395399305
 10
122.444377983941
 20
128.6791395399305
 10
122.444377983941
 20
128.6846516927083
 10
122.444377983941
 20
128.6846516927083
 10
122.444377983941
 20
128.6846516927083
 10
120.7459459092882
 20
129.2536092122396
 10
120.7459459092882
 20
129.2536092122396
 10
120.7459459092882
 20
129.2536092122396
 10
120.7459459092882
 20
129.5240492078993
 10
120.7459459092882
 20
129.5240492078993
 10
120.7459459092882
 20
129.5240492078993
 10
122.4414496527778
 20
130.0930067274306
 10
122.4414496527778
 20
130.0930067274306
 10
122.4414496527778
 20
130.0930067274306
 10
122.4414496527778
 20
130.0985188802083
 10
122.4414496527778
 20
130.0985188802083
 10
122.2557590060764
 20
130.0985188802083
 10
121.9994439019097
 20
130.0930067274306
 10
121.9401882595486
 20
130.0930067274306
 10
121.9401882595486
 20
130.0930067274306
 10
120.7459459092882
 20
130.0930067274306
 10
120.7459459092882
 20
130.0930067274306
 10
120.7459459092882
 20
130.0930067274306
 10
120.7459459092882
 20
130.3577623155382
 10
120.7459459092882
 20
130.3577623155382
 10
120.7459459092882
 20
130.3577623155382
 10
122.7682169596354
 20
130.3577623155382
 10
122.7682169596354
 20
130.3577623155382
 10
122.7682169596354
 20
130.3577623155382
 10
122.7682169596354
 20
129.9662272135417
 10
122.7682169596354
 20
129.9662272135417
 10
122.7682169596354
 20
129.9662272135417
 10
121.0585883246528
 20
129.3888292100695
 10
121.0585883246528
 20
129.3888292100695
 10
121.0585883246528
 20
129.3888292100695
 10
121.0585883246528
 20
129.3833170572917
 10
121.0585883246528
 20
129.3833170572917
 10
121.0585883246528
 20
129.3833170572917
 10
122.7682169596354
 20
128.8086751302083
 10
122.7682169596354
 20
128.8086751302083
 10
122.7682169596354
 20
128.8086751302083
 10
122.7682169596354
 20
128.4198961046007
 10
122.7682169596354
 20
128.4198961046007
 10
122.7682169596354
 20
128.4198961046007
 10
120.7459459092882
 20
128.4198961046007
 10
120.7459459092882
 20
128.4198961046007
 10
120.7459459092882
 20
128.4198961046007
 10
120.7459459092882
 20
128.6846516927083
 10
120.7459459092882
 20
128.6846516927083
 97
        0
 75
     0
 76
     1
 98
        1
 10
0.0
 20
0.0
  0
HATCH
  5
30
330
A
100
AcDbEntity
  8
LAYER_1
 62
     7
100
AcDbHatch
 10
0.0
 20
0.0
 30
0.0
210
0.0
220
0.0
230
1.0
  2
SOLID
 70
     1
 71
     0
 91
        2
 92
       16
 93
        1
 72
     4
 94
        3
 73
     0
 74
     0
 95
       20
 96
       16
 40
0.0
 40
0.0
 40
0.0
 40
0.0
 40
1.0
 40
1.0
 40
1.0
 40
2.0
 40
2.0
 40
2.0
 40
3.0
 40
3.0
 40
3.0
 40
4.0
 40
4.0
 40
4.0
 40
5.0
 40
5.0
 40
5.0
 40
5.0
 10
121.8333902994792
 20
127.7033162434896
 10
121.8333902994792
 20
127.7033162434896
 10
121.8333902994792
 20
127.1598524305556
 10
121.8333902994792
 20
127.1598524305556
 10
121.8333902994792
 20
126.9149061414931
 10
121.9233072916667
 20
126.7485080295139
 10
122.196331108941
 20
126.7485080295139
 10
122.4529907226562
 20
126.7485080295139
 10
122.5344672309028
 20
126.9235188802083
 10
122.5344672309028
 20
127.1486558702257
 10
122.5344672309028
 20
127.1486558702257
 10
122.5344672309028
 20
127.7033162434896
 10
122.5344672309028
 20
127.7033162434896
 10
122.5344672309028
 20
127.7033162434896
 10
121.8333902994792
 20
127.7033162434896
 10
121.8333902994792
 20
127.7033162434896
 97
        0
 92
        1
 93
        1
 72
     4
 94
        3
 73
     0
 74
     0
 95
       26
 96
       22
 40
0.0
 40
0.0
 40
0.0
 40
0.0
 40
1.0
 40
1.0
 40
1.0
 40
2.0
 40
2.0
 40
2.0
 40
3.0
 40
3.0
 40
3.0
 40
4.0
 40
4.0
 40
4.0
 40
5.0
 40
5.0
 40
5.0
 40
6.0
 40
6.0
 40
6.0
 40
7.0
 40
7.0
 40
7.0
 40
7.0
 10
120.7459459092882
 20
127.7033162434896
 10
120.7459459092882
 20
127.7033162434896
 10
120.7459459092882
 20
127.9766845703125
 10
120.7459459092882
 20
127.9766845703125
 10
120.7459459092882
 20
127.9766845703125
 10
122.7682169596354
 20
127.9766845703125
 10
122.7682169596354
 20
127.9766845703125
 10
122.7682169596354
 20
127.9766845703125
 10
122.7682169596354
 20
127.0668348524306
 10
122.7682169596354
 20
127.0668348524306
 10
122.7682169596354
 20
126.6926974826389
 10
122.5261990017361
 20
126.4670437282986
 10
122.1992594401042
 20
126.4670437282986
 10
121.9177951388889
 20
126.4670437282986
 10
121.5994683159722
 20
126.6275851779514
 10
121.5994683159722
 20
127.0668348524306
 10
121.5994683159722
 20
127.0668348524306
 10
121.5994683159722
 20
127.7033162434896
 10
121.5994683159722
 20
127.7033162434896
 10
121.5994683159722
 20
127.7033162434896
 10
120.7459459092882
 20
127.7033162434896
 10
120.7459459092882
 20
127.7033162434896
 97
        0
 75
     0
 76
     1
 98
        1
 10
0.0
 20
0.0
  0
HATCH
  5
2F
330
A
100
AcDbEntity
  8
LAYER_1
 62
     7
100
AcDbHatch
 10
0.0
 20
0.0
 30
0.0
210
0.0
220
0.0
230
1.0
  2
SOLID
 70
     1
 71
     0
 91
        1
 92
        1
 93
        1
 72
     4
 94
        3
 73
     0
 74
     0
 95
       56
 96
       52
 40
0.0
 40
0.0
 40
0.0
 40
0.0
 40
1.0
 40
1.0
 40
1.0
 40
2.0
 40
2.0
 40
2.0
 40
3.0
 40
3.0
 40
3.0
 40
4.0
 40
4.0
 40
4.0
 40
5.0
 40
5.0
 40
5.0
 40
6.0
 40
6.0
 40
6.0
 40
7.0
 40
7.0
 40
7.0
 40
8.0
 40
8.0
 40
8.0
 40
9.0
 40
9.0
 40
9.0
 40
10.0
 40
10.0
 40
10.0
 40
11.0
 40
11.0
 40
11.0
 40
12.0
 40
12.0
 40
12.0
 40
13.0
 40
13.0
 40
13.0
 40
14.0
 40
14.0
 40
14.0
 40
15.0
 40
15.0
 40
15.0
 40
16.0
 40
16.0
 40
16.0
 40
17.0
 40
17.0
 40
17.0
 40
17.0
 10
122.1765218098958
 20
124.9076212565104
 10
122.4891642252604
 20
124.9219184027778
 10
122.5882107204861
 20
125.1809895833333
 10
122.5882107204861
 20
125.4088826497396
 10
122.5882107204861
 20
125.5806206597222
 10
122.5399793836806
 20
125.8710422092014
 10
122.2330213758681
 20
125.8710422092014
 10
122.0611111111111
 20
125.8710422092014
 10
122.0051283094618
 20
125.7499471028646
 10
121.9767062717014
 20
125.6316080729167
 10
121.9767062717014
 20
125.6316080729167
 10
121.8444146050347
 20
125.0540378146701
 10
121.8444146050347
 20
125.0540378146701
 10
121.7824028862847
 20
124.7922105577257
 10
121.6249620225694
 20
124.5949788411458
 10
121.3035346137153
 20
124.5949788411458
 10
120.8246663411458
 20
124.5949788411458
 10
120.6925469292535
 20
125.0402574327257
 10
120.6925469292535
 20
125.3864895290799
 10
120.6925469292535
 20
125.7611436631944
 10
120.8053738064236
 20
125.9075602213542
 10
120.8866780598958
 20
125.9974772135417
 10
121.0417073567708
 20
126.1693874782986
 10
121.2105170355903
 20
126.2034939236111
 10
121.3996527777778
 20
126.2034939236111
 10
121.3996527777778
 20
126.2034939236111
 10
121.3996527777778
 20
125.9471788194444
 10
121.3996527777778
 20
125.9471788194444
 10
121.0330946180555
 20
125.9471788194444
 10
120.9262966579861
 20
125.6483167860243
 10
120.9262966579861
 20
125.389417860243
 10
120.9262966579861
 20
125.1923583984375
 10
120.9767673068576
 20
124.8599066840278
 10
121.2670166015625
 20
124.8599066840278
 10
121.4785454644097
 20
124.8599066840278
 10
121.5460693359375
 20
124.9584364149306
 10
121.6249620225694
 20
125.2908881293403
 10
121.6249620225694
 20
125.2908881293403
 10
121.7203911675347
 20
125.7046440972222
 10
121.7203911675347
 20
125.7046440972222
 10
121.7513970269097
 20
125.8369357638889
 10
121.8444146050347
 20
126.135797797309
 10
122.196331108941
 20
126.135797797309
 10
122.5120741102431
 20
126.135797797309
 10
122.8216159396701
 20
125.9299533420139
 10
122.8216159396701
 20
125.4398885091146
 10
122.8216159396701
 20
124.7331271701389
 10
122.3990749782986
 20
124.6625027126736
 10
122.1765218098958
 20
124.6514784071181
 10
122.1765218098958
 20
124.6514784071181
 10
122.1765218098958
 20
124.9076212565104
 10
122.1765218098958
 20
124.9076212565104
 97
        0
 75
     0
 76
     1
 98
        1
 10
0.0
 20
0.0
  0
HATCH
  5
2E
330
A
100
AcDbEntity
  8
LAYER_1
 62
     7
100
AcDbHatch
 10
0.0
 20
0.0
 30
0.0
210
0.0
220
0.0
230
1.0
  2
SOLID
 70
     1
 71
     0
 91
        2
 92
       16
 93
        1
 72
     4
 94
        3
 73
     0
 74
     0
 95
       17
 96
       13
 40
0.0
 40
0.0
 40
0.0
 40
0.0
 40
1.0
 40
1.0
 40
1.0
 40
2.0
 40
2.0
 40
2.0
 40
3.0
 40
3.0
 40
3.0
 40
4.0
 40
4.0
 40
4.0
 40
4.0
 10
122.5795979817708
 20
123.3681803385417
 10
122.5795979817708
 20
123.8074300130208
 10
122.2330213758681
 20
124.0721856011285
 10
121.7570814344618
 20
124.0721856011285
 10
121.2811414930555
 20
124.0721856011285
 10
120.9345648871528
 20
123.8074300130208
 10
120.9345648871528
 20
123.3681803385417
 10
120.9345648871528
 20
122.9284138997396
 10
121.2811414930555
 20
122.6640028211806
 10
121.7570814344618
 20
122.6640028211806
 10
122.2330213758681
 20
122.6640028211806
 10
122.5795979817708
 20
122.9284138997396
 10
122.5795979817708
 20
123.3681803385417
 97
        0
 92
        1
 93
        1
 72
     4
 94
        3
 73
     0
 74
     0
 95
       17
 96
       13
 40
0.0
 40
0.0
 40
0.0
 40
0.0
 40
1.0
 40
1.0
 40
1.0
 40
2.0
 40
2.0
 40
2.0
 40
3.0
 40
3.0
 40
3.0
 40
4.0
 40
4.0
 40
4.0
 40
4.0
 10
120.6925469292535
 20
123.3681803385417
 10
120.6925469292535
 20
124.12265625
 10
121.3204155815972
 20
124.3538221571181
 10
121.7570814344618
 20
124.3538221571181
 10
122.1937472873264
 20
124.3538221571181
 10
122.8216159396701
 20
124.12265625
 10
122.8216159396701
 20
123.3681803385417
 10
122.8216159396701
 20
122.6131876627604
 10
122.1937472873264
 20
122.382366265191
 10
121.7570814344618
 20
122.382366265191
 10
121.3204155815972
 20
122.382366265191
 10
120.6925469292535
 20
122.6131876627604
 10
120.6925469292535
 20
123.3681803385417
 97
        0
 75
     0
 76
     1
 98
        1
 10
0.0
 20
0.0
  0
HATCH
  5
2D
330
A
100
AcDbEntity
  8
LAYER_1
 62
     7
100
AcDbHatch
 10
0.0
 20
0.0
 30
0.0
210
0.0
220
0.0
230
1.0
  2
SOLID
 70
     1
 71
     0
 91
        1
 92
        1
 93
        1
 72
     4
 94
        3
 73
     0
 74
     0
 95
       41
 96
       37
 40
0.0
 40
0.0
 40
0.0
 40
0.0
 40
1.0
 40
1.0
 40
1.0
 40
2.0
 40
2.0
 40
2.0
 40
3.0
 40
3.0
 40
3.0
 40
4.0
 40
4.0
 40
4.0
 40
5.0
 40
5.0
 40
5.0
 40
6.0
 40
6.0
 40
6.0
 40
7.0
 40
7.0
 40
7.0
 40
8.0
 40
8.0
 40
8.0
 40
9.0
 40
9.0
 40
9.0
 40
10.0
 40
10.0
 40
10.0
 40
11.0
 40
11.0
 40
11.0
 40
12.0
 40
12.0
 40
12.0
 40
12.0
 10
122.7682169596354
 20
120.7192464192708
 10
122.7682169596354
 20
120.7192464192708
 10
122.7682169596354
 20
120.4543185763889
 10
122.7682169596354
 20
120.4543185763889
 10
122.7682169596354
 20
120.4543185763889
 10
120.7459459092882
 20
120.4543185763889
 10
120.7459459092882
 20
120.4543185763889
 10
120.7459459092882
 20
120.4543185763889
 10
120.7459459092882
 20
120.7614488389757
 10
120.7459459092882
 20
120.7614488389757
 10
120.7459459092882
 20
120.7614488389757
 10
122.3797824435764
 20
121.7892930772569
 10
122.3797824435764
 20
121.7892930772569
 10
122.3797824435764
 20
121.7892930772569
 10
122.3797824435764
 20
121.794977484809
 10
122.3797824435764
 20
121.794977484809
 10
122.3797824435764
 20
121.794977484809
 10
120.7459459092882
 20
121.794977484809
 10
120.7459459092882
 20
121.794977484809
 10
120.7459459092882
 20
121.794977484809
 10
120.7459459092882
 20
122.0597330729167
 10
120.7459459092882
 20
122.0597330729167
 10
120.7459459092882
 20
122.0597330729167
 10
122.7682169596354
 20
122.0597330729167
 10
122.7682169596354
 20
122.0597330729167
 10
122.7682169596354
 20
122.0597330729167
 10
122.7682169596354
 20
121.7358940972222
 10
122.7682169596354
 20
121.7358940972222
 10
122.7682169596354
 20
121.7358940972222
 10
121.1347249348958
 20
120.7247585720486
 10
121.1347249348958
 20
120.7247585720486
 10
121.1347249348958
 20
120.7247585720486
 10
121.1347249348958
 20
120.7192464192708
 10
121.1347249348958
 20
120.7192464192708
 10
121.1347249348958
 20
120.7192464192708
 10
122.7682169596354
 20
120.7192464192708
 10
122.7682169596354
 20
120.7192464192708
 97
        0
 75
     0
 76
     1
 98
        1
 10
0.0
 20
0.0
  0
HATCH
  5
2C
330
A
100
AcDbEntity
  8
LAYER_1
 62
     7
100
AcDbHatch
 10
0.0
 20
0.0
 30
0.0
210
0.0
220
0.0
230
1.0
  2
SOLID
 70
     1
 71
     0
 91
        1
 92
        1
 93
        1
 72
     4
 94
        3
 73
     0
 74
     0
 95
       56
 96
       52
 40
0.0
 40
0.0
 40
0.0
 40
0.0
 40
1.0
 40
1.0
 40
1.0
 40
2.0
 40
2.0
 40
2.0
 40
3.0
 40
3.0
 40
3.0
 40
4.0
 40
4.0
 40
4.0
 40
5.0
 40
5.0
 40
5.0
 40
6.0
 40
6.0
 40
6.0
 40
7.0
 40
7.0
 40
7.0
 40
8.0
 40
8.0
 40
8.0
 40
9.0
 40
9.0
 40
9.0
 40
10.0
 40
10.0
 40
10.0
 40
11.0
 40
11.0
 40
11.0
 40
12.0
 40
12.0
 40
12.0
 40
13.0
 40
13.0
 40
13.0
 40
14.0
 40
14.0
 40
14.0
 40
15.0
 40
15.0
 40
15.0
 40
16.0
 40
16.0
 40
16.0
 40
17.0
 40
17.0
 40
17.0
 40
17.0
 10
119.7348103841146
 20
131.8202053493924
 10
120.0264377170139
 20
131.8331244574653
 10
120.118421766493
 20
132.0751424153646
 10
120.118421766493
 20
132.287877061632
 10
120.118421766493
 20
132.4480740017361
 10
120.0736355251736
 20
132.7188585069444
 10
119.7873480902778
 20
132.7188585069444
 10
119.6271511501736
 20
132.7188585069444
 10
119.5746134440104
 20
132.6056871202257
 10
119.5482584635417
 20
132.4954440646701
 10
119.5482584635417
 20
132.4954440646701
 10
119.4247517903646
 20
131.9568033854167
 10
119.4247517903646
 20
131.9568033854167
 10
119.3670464409722
 20
131.7125461154514
 10
119.219768608941
 20
131.528578016493
 10
118.9205620659722
 20
131.528578016493
 10
118.473388671875
 20
131.528578016493
 10
118.3503987630208
 20
131.9437120225694
 10
118.3503987630208
 20
132.2668619791667
 10
118.3503987630208
 20
132.6165391710069
 10
118.4554741753472
 20
132.752964952257
 10
118.5316107855903
 20
132.8370252821181
 10
118.6759602864583
 20
132.9972222222222
 10
118.8334011501736
 20
133.0285725911458
 10
119.0096177842882
 20
133.0285725911458
 10
119.0096177842882
 20
133.0285725911458
 10
119.0096177842882
 20
132.7894829644097
 10
119.0096177842882
 20
132.7894829644097
 10
118.6680365668403
 20
132.7894829644097
 10
118.568128797743
 20
132.5114637586806
 10
118.568128797743
 20
132.2692735460069
 10
118.568128797743
 20
132.0854777018229
 10
118.6156711154514
 20
131.7754191080729
 10
118.8861111111111
 20
131.7754191080729
 10
119.0831705729167
 20
131.7754191080729
 10
119.1462158203125
 20
131.8675754123264
 10
119.219768608941
 20
132.1776340060764
 10
119.219768608941
 20
132.1776340060764
 10
119.3093410915799
 20
132.5638292100694
 10
119.3093410915799
 20
132.5638292100694
 10
119.3381076388889
 20
132.6871636284722
 10
119.4247517903646
 20
132.9656995985243
 10
119.7532416449653
 20
132.9656995985243
 10
120.0474527994792
 20
132.9656995985243
 10
120.3364963107639
 20
132.7739800347222
 10
120.3364963107639
 20
132.3168158637153
 10
120.3364963107639
 20
131.6574245876736
 10
119.9423773871528
 20
131.5916232638889
 10
119.7348103841146
 20
131.5812879774306
 10
119.7348103841146
 20
131.5812879774306
 10
119.7348103841146
 20
131.8202053493924
 10
119.7348103841146
 20
131.8202053493924
 97
        0
 75
     0
 76
     1
 98
        1
 10
0.0
 20
0.0
  0
HATCH
  5
2B
330
A
100
AcDbEntity
  8
LAYER_1
 62
     7
100
AcDbHatch
 10
0.0
 20
0.0
 30
0.0
210
0.0
220
0.0
230
1.0
  2
SOLID
 70
     1
 71
     0
 91
        1
 92
        1
 93
        1
 72
     4
 94
        3
 73
     0
 74
     0
 95
       53
 96
       49
 40
0.0
 40
0.0
 40
0.0
 40
0.0
 40
1.0
 40
1.0
 40
1.0
 40
2.0
 40
2.0
 40
2.0
 40
3.0
 40
3.0
 40
3.0
 40
4.0
 40
4.0
 40
4.0
 40
5.0
 40
5.0
 40
5.0
 40
6.0
 40
6.0
 40
6.0
 40
7.0
 40
7.0
 40
7.0
 40
8.0
 40
8.0
 40
8.0
 40
9.0
 40
9.0
 40
9.0
 40
10.0
 40
10.0
 40
10.0
 40
11.0
 40
11.0
 40
11.0
 40
12.0
 40
12.0
 40
12.0
 40
13.0
 40
13.0
 40
13.0
 40
14.0
 40
14.0
 40
14.0
 40
15.0
 40
15.0
 40
15.0
 40
16.0
 40
16.0
 40
16.0
 40
16.0
 10
119.5823649088542
 20
130.9503187391493
 10
119.5823649088542
 20
130.9503187391493
 10
118.6892239040799
 20
130.9503187391493
 10
118.6892239040799
 20
130.9503187391493
 10
118.5815646701389
 20
130.9503187391493
 10
118.5815646701389
 20
130.8585069444444
 10
118.5815646701389
 20
130.8113091362847
 10
118.5815646701389
 20
130.8113091362847
 10
118.5815646701389
 20
130.7298326280382
 10
118.5815646701389
 20
130.7298326280382
 10
118.5815646701389
 20
130.7298326280382
 10
118.4003526475694
 20
130.7298326280382
 10
118.4003526475694
 20
130.7298326280382
 10
118.3920844184028
 20
130.813720703125
 10
118.3817491319444
 20
130.879694281684
 10
118.3817491319444
 20
130.9032931857639
 10
118.3817491319444
 20
131.1317030164931
 10
118.510595703125
 20
131.1816569010417
 10
118.6759602864583
 20
131.1816569010417
 10
118.6759602864583
 20
131.1816569010417
 10
119.5823649088542
 20
131.1816569010417
 10
119.5823649088542
 20
131.1816569010417
 10
119.5823649088542
 20
131.1816569010417
 10
119.5823649088542
 20
131.3683810763889
 10
119.5823649088542
 20
131.3683810763889
 10
119.5823649088542
 20
131.3683810763889
 10
119.7744289822049
 20
131.3683810763889
 10
119.7744289822049
 20
131.3683810763889
 10
119.7744289822049
 20
131.3683810763889
 10
119.7744289822049
 20
131.1816569010417
 10
119.7744289822049
 20
131.1816569010417
 10
119.7744289822049
 20
131.1816569010417
 10
120.1576958550347
 20
131.1816569010417
 10
120.1576958550347
 20
131.1816569010417
 10
120.1576958550347
 20
131.1816569010417
 10
120.1576958550347
 20
130.9503187391493
 10
120.1576958550347
 20
130.9503187391493
 10
120.1576958550347
 20
130.9503187391493
 10
119.7744289822049
 20
130.9503187391493
 10
119.7744289822049
 20
130.9503187391493
 10
119.7744289822049
 20
130.9503187391493
 10
119.7744289822049
 20
130.7298326280382
 10
119.7744289822049
 20
130.7298326280382
 10
119.7744289822049
 20
130.7298326280382
 10
119.5823649088542
 20
130.7298326280382
 10
119.5823649088542
 20
130.7298326280382
 10
119.5823649088542
 20
130.7298326280382
 10
119.5823649088542
 20
130.9503187391493
 10
119.5823649088542
 20
130.9503187391493
 97
        0
 75
     0
 76
     1
 98
        1
 10
0.0
 20
0.0
  0
HATCH
  5
2A
330
A
100
AcDbEntity
  8
LAYER_1
 62
     7
100
AcDbHatch
 10
0.0
 20
0.0
 30
0.0
210
0.0
220
0.0
230
1.0
  2
SOLID
 70
     1
 71
     0
 91
        1
 92
        1
 93
        1
 72
     4
 94
        3
 73
     0
 74
     0
 95
       38
 96
       34
 40
0.0
 40
0.0
 40
0.0
 40
0.0
 40
1.0
 40
1.0
 40
1.0
 40
2.0
 40
2.0
 40
2.0
 40
3.0
 40
3.0
 40
3.0
 40
4.0
 40
4.0
 40
4.0
 40
5.0
 40
5.0
 40
5.0
 40
6.0
 40
6.0
 40
6.0
 40
7.0
 40
7.0
 40
7.0
 40
8.0
 40
8.0
 40
8.0
 40
9.0
 40
9.0
 40
9.0
 40
10.0
 40
10.0
 40
10.0
 40
11.0
 40
11.0
 40
11.0
 40
11.0
 10
118.4003526475694
 20
130.241490342882
 10
118.4003526475694
 20
130.241490342882
 10
118.4003526475694
 20
130.47265625
 10
118.4003526475694
 20
130.47265625
 10
118.4003526475694
 20
130.47265625
 10
119.7744289822049
 20
130.47265625
 10
119.7744289822049
 20
130.47265625
 10
119.7744289822049
 20
130.47265625
 10
119.7744289822049
 20
130.2549262152778
 10
119.7744289822049
 20
130.2549262152778
 10
119.7744289822049
 20
130.2549262152778
 10
119.5458468967014
 20
130.2549262152778
 10
119.5458468967014
 20
130.2549262152778
 10
119.5458468967014
 20
130.2549262152778
 10
119.5458468967014
 20
130.2492418077257
 10
119.5458468967014
 20
130.2492418077257
 10
119.7060438368056
 20
130.1574300130208
 10
119.8135308159722
 20
130.0365071614583
 10
119.8135308159722
 20
129.8628743489583
 10
119.8135308159722
 20
129.8341078016493
 10
119.8111192491319
 20
129.8211886935764
 10
119.8059516059028
 20
129.8025851779514
 10
119.8059516059028
 20
129.8025851779514
 10
119.5665174696181
 20
129.8025851779514
 10
119.5665174696181
 20
129.8025851779514
 10
119.5665174696181
 20
129.8025851779514
 10
119.5665174696181
 20
129.8892293294271
 10
119.5665174696181
 20
129.8892293294271
 10
119.5665174696181
 20
130.1050645616319
 10
119.3983968098958
 20
130.241490342882
 10
119.1985812717014
 20
130.241490342882
 10
119.1985812717014
 20
130.241490342882
 10
118.4003526475694
 20
130.241490342882
 10
118.4003526475694
 20
130.241490342882
 97
        0
 75
     0
 76
     1
 98
        1
 10
0.0
 20
0.0
  0
HATCH
  5
29
330
A
100
AcDbEntity
  8
LAYER_1
 62
     7
100
AcDbHatch
 10
0.0
 20
0.0
 30
0.0
210
0.0
220
0.0
230
1.0
  2
SOLID
 70
     1
 71
     0
 91
        2
 92
       16
 93
        1
 72
     4
 94
        3
 73
     0
 74
     0
 95
       17
 96
       13
 40
0.0
 40
0.0
 40
0.0
 40
0.0
 40
1.0
 40
1.0
 40
1.0
 40
2.0
 40
2.0
 40
2.0
 40
3.0
 40
3.0
 40
3.0
 40
4.0
 40
4.0
 40
4.0
 40
4.0
 10
118.5629611545139
 20
129.0701578776042
 10
118.5629611545139
 20
128.7390842013889
 10
118.9045423719618
 20
128.6708713107639
 10
119.0883382161458
 20
128.6708713107639
 10
119.2723063151042
 20
128.6708713107639
 10
119.6137152777778
 20
128.7390842013889
 10
119.6137152777778
 20
129.0701578776042
 10
119.6137152777778
 20
129.4012315538194
 10
119.2723063151042
 20
129.469788953993
 10
119.0883382161458
 20
129.469788953993
 10
118.9045423719618
 20
129.469788953993
 10
118.5629611545139
 20
129.4012315538194
 10
118.5629611545139
 20
129.0701578776042
 97
        0
 92
        1
 93
        1
 72
     4
 94
        3
 73
     0
 74
     0
 95
       17
 96
       13
 40
0.0
 40
0.0
 40
0.0
 40
0.0
 40
1.0
 40
1.0
 40
1.0
 40
2.0
 40
2.0
 40
2.0
 40
3.0
 40
3.0
 40
3.0
 40
4.0
 40
4.0
 40
4.0
 40
4.0
 10
119.8135308159722
 20
129.0701578776042
 10
119.8135308159722
 20
128.6312527126736
 10
119.4431830512153
 20
128.4319539388021
 10
119.0883382161458
 20
128.4319539388021
 10
118.7334933810764
 20
128.4319539388021
 10
118.3631456163194
 20
128.6312527126736
 10
118.3631456163194
 20
129.0701578776042
 10
118.3631456163194
 20
129.5090630425347
 10
118.7334933810764
 20
129.7088785807292
 10
119.0883382161458
 20
129.7088785807292
 10
119.4431830512153
 20
129.7088785807292
 10
119.8135308159722
 20
129.5090630425347
 10
119.8135308159722
 20
129.0701578776042
 97
        0
 75
     0
 76
     1
 98
        1
 10
0.0
 20
0.0
  0
HATCH
  5
28
330
A
100
AcDbEntity
  8
LAYER_1
 62
     7
100
AcDbHatch
 10
0.0
 20
0.0
 30
0.0
210
0.0
220
0.0
230
1.0
  2
SOLID
 70
     1
 71
     0
 91
        1
 92
        1
 93
        1
 72
     4
 94
        3
 73
     0
 74
     0
 95
       44
 96
       40
 40
0.0
 40
0.0
 40
0.0
 40
0.0
 40
1.0
 40
1.0
 40
1.0
 40
2.0
 40
2.0
 40
2.0
 40
3.0
 40
3.0
 40
3.0
 40
4.0
 40
4.0
 40
4.0
 40
5.0
 40
5.0
 40
5.0
 40
6.0
 40
6.0
 40
6.0
 40
7.0
 40
7.0
 40
7.0
 40
8.0
 40
8.0
 40
8.0
 40
9.0
 40
9.0
 40
9.0
 40
10.0
 40
10.0
 40
10.0
 40
11.0
 40
11.0
 40
11.0
 40
12.0
 40
12.0
 40
12.0
 40
13.0
 40
13.0
 40
13.0
 40
13.0
 10
118.4003526475694
 20
127.0499538845486
 10
118.4003526475694
 20
127.0499538845486
 10
118.4003526475694
 20
127.281292046441
 10
118.4003526475694
 20
127.281292046441
 10
118.4003526475694
 20
127.281292046441
 10
119.2461235894097
 20
127.281292046441
 10
119.2461235894097
 20
127.281292046441
 10
119.4850409613715
 20
127.281292046441
 10
119.6061360677083
 20
127.3493326822917
 10
119.6061360677083
 20
127.5753309461805
 10
119.6061360677083
 20
127.7067613389757
 10
119.5220757378472
 20
127.9380995008681
 10
119.1491441514757
 20
127.9380995008681
 10
119.1491441514757
 20
127.9380995008681
 10
118.4003526475694
 20
127.9380995008681
 10
118.4003526475694
 20
127.9380995008681
 10
118.4003526475694
 20
127.9380995008681
 10
118.4003526475694
 20
128.1692654079861
 10
118.4003526475694
 20
128.1692654079861
 10
118.4003526475694
 20
128.1692654079861
 10
119.7744289822049
 20
128.1692654079861
 10
119.7744289822049
 20
128.1692654079861
 10
119.7744289822049
 20
128.1692654079861
 10
119.7744289822049
 20
127.9513631184896
 10
119.7744289822049
 20
127.9513631184896
 10
119.7744289822049
 20
127.9513631184896
 10
119.5797810872396
 20
127.9513631184896
 10
119.5797810872396
 20
127.9513631184896
 10
119.5797810872396
 20
127.9513631184896
 10
119.5797810872396
 20
127.9461954752604
 10
119.5797810872396
 20
127.9461954752604
 10
119.653333875868
 20
127.8962415907118
 10
119.8135308159722
 20
127.7675672743056
 10
119.8135308159722
 20
127.531061469184
 10
119.8135308159722
 20
127.3179823133681
 10
119.7270589192708
 20
127.0499538845486
 10
119.3356960720486
 20
127.0499538845486
 10
119.3356960720486
 20
127.0499538845486
 10
118.4003526475694
 20
127.0499538845486
 10
118.4003526475694
 20
127.0499538845486
 97
        0
 75
     0
 76
     1
 98
        1
 10
0.0
 20
0.0
  0
HATCH
  5
27
330
A
100
AcDbEntity
  8
LAYER_1
 62
     7
100
AcDbHatch
 10
0.0
 20
0.0
 30
0.0
210
0.0
220
0.0
230
1.0
  2
SOLID
 70
     1
 71
     0
 91
        2
 92
       16
 93
        1
 72
     4
 94
        3
 73
     0
 74
     0
 95
       17
 96
       13
 40
0.0
 40
0.0
 40
0.0
 40
0.0
 40
1.0
 40
1.0
 40
1.0
 40
2.0
 40
2.0
 40
2.0
 40
3.0
 40
3.0
 40
3.0
 40
4.0
 40
4.0
 40
4.0
 40
4.0
 10
118.5605495876736
 20
126.164564344618
 10
118.5605495876736
 20
126.0178032769097
 10
118.6577012803819
 20
125.7890489366319
 10
119.0225368923611
 20
125.7890489366319
 10
119.2461235894097
 20
125.7890489366319
 10
119.6061360677083
 20
125.825739203559
 10
119.6061360677083
 20
126.1593967013889
 10
119.6061360677083
 20
126.5169976128472
 10
119.267138671875
 20
126.5354288736979
 10
119.0910942925347
 20
126.5354288736979
 10
118.7891316731771
 20
126.5354288736979
 10
118.5605495876736
 20
126.41708984375
 10
118.5605495876736
 20
126.164564344618
 97
        0
 92
        1
 93
        1
 72
     4
 94
        3
 73
     0
 74
     0
 95
       53
 96
       49
 40
0.0
 40
0.0
 40
0.0
 40
0.0
 40
1.0
 40
1.0
 40
1.0
 40
2.0
 40
2.0
 40
2.0
 40
3.0
 40
3.0
 40
3.0
 40
4.0
 40
4.0
 40
4.0
 40
5.0
 40
5.0
 40
5.0
 40
6.0
 40
6.0
 40
6.0
 40
7.0
 40
7.0
 40
7.0
 40
8.0
 40
8.0
 40
8.0
 40
9.0
 40
9.0
 40
9.0
 40
10.0
 40
10.0
 40
10.0
 40
11.0
 40
11.0
 40
11.0
 40
12.0
 40
12.0
 40
12.0
 40
13.0
 40
13.0
 40
13.0
 40
14.0
 40
14.0
 40
14.0
 40
15.0
 40
15.0
 40
15.0
 40
16.0
 40
16.0
 40
16.0
 40
16.0
 10
118.5130072699653
 20
125.5682183159722
 10
118.3159478081597
 20
125.5682183159722
 10
117.8219211154514
 20
125.5708021375868
 10
117.8219211154514
 20
126.2069390190972
 10
117.8219211154514
 20
126.3695475260417
 10
117.8667073567708
 20
126.6875298394097
 10
118.2318874782986
 20
126.7323160807292
 10
118.2318874782986
 20
126.7323160807292
 10
118.2318874782986
 20
126.5009779188368
 10
118.2318874782986
 20
126.5009779188368
 10
118.0139851888021
 20
126.4591200086805
 10
118.0139851888021
 20
126.2460408528646
 10
118.0139851888021
 20
126.1909193250868
 10
118.0139851888021
 20
125.7918050130208
 10
118.3343790690104
 20
125.7993842230903
 10
118.4971598307292
 20
125.7993842230903
 10
118.4971598307292
 20
125.7993842230903
 10
118.5553819444444
 20
125.7993842230903
 10
118.5553819444444
 20
125.7993842230903
 10
118.5553819444444
 20
125.7993842230903
 10
118.5553819444444
 20
125.8045518663194
 10
118.5553819444444
 20
125.8045518663194
 10
118.5553819444444
 20
125.8045518663194
 10
118.5445298936632
 20
125.8045518663194
 10
118.5445298936632
 20
125.8045518663194
 10
118.4472059461806
 20
125.8653578016493
 10
118.3607340494792
 20
125.9859361436632
 10
118.3607340494792
 20
126.1697319878472
 10
118.3607340494792
 20
126.6379204644097
 10
118.7994669596354
 20
126.7743462456597
 10
119.1279568142361
 20
126.7743462456597
 10
119.5138075086805
 20
126.7743462456597
 10
119.8135308159722
 20
126.5669514973958
 10
119.8135308159722
 20
126.2017713758681
 10
119.8135308159722
 20
125.952001953125
 10
119.6585015190972
 20
125.8469265407986
 10
119.5797810872396
 20
125.7918050130208
 10
119.5797810872396
 20
125.7918050130208
 10
119.5797810872396
 20
125.7866373697917
 10
119.5797810872396
 20
125.7866373697917
 10
119.5797810872396
 20
125.7866373697917
 10
119.7744289822049
 20
125.7866373697917
 10
119.7744289822049
 20
125.7866373697917
 10
119.7744289822049
 20
125.7866373697917
 10
119.7744289822049
 20
125.5682183159722
 10
119.7744289822049
 20
125.5682183159722
 10
119.7744289822049
 20
125.5682183159722
 10
118.5130072699653
 20
125.5682183159722
 10
118.5130072699653
 20
125.5682183159722
 97
        0
 75
     0
 76
     1
 98
        1
 10
0.0
 20
0.0
  0
HATCH
  5
26
330
A
100
AcDbEntity
  8
LAYER_1
 62
     7
100
AcDbHatch
 10
0.0
 20
0.0
 30
0.0
210
0.0
220
0.0
230
1.0
  2
SOLID
 70
     1
 71
     0
 91
        1
 92
        1
 93
        1
 72
     4
 94
        3
 73
     0
 74
     0
 95
       17
 96
       13
 40
0.0
 40
0.0
 40
0.0
 40
0.0
 40
1.0
 40
1.0
 40
1.0
 40
2.0
 40
2.0
 40
2.0
 40
3.0
 40
3.0
 40
3.0
 40
4.0
 40
4.0
 40
4.0
 40
4.0
 10
119.0096177842882
 20
124.554498969184
 10
119.0096177842882
 20
124.554498969184
 10
119.0096177842882
 20
125.1978705512153
 10
119.0096177842882
 20
125.1978705512153
 10
119.0096177842882
 20
125.1978705512153
 10
119.2461235894097
 20
125.1978705512153
 10
119.2461235894097
 20
125.1978705512153
 10
119.2461235894097
 20
125.1978705512153
 10
119.2461235894097
 20
124.554498969184
 10
119.2461235894097
 20
124.554498969184
 10
119.2461235894097
 20
124.554498969184
 10
119.0096177842882
 20
124.554498969184
 10
119.0096177842882
 20
124.554498969184
 97
        0
 75
     0
 76
     1
 98
        1
 10
0.0
 20
0.0
  0
HATCH
  5
25
330
A
100
AcDbEntity
  8
LAYER_1
 62
     7
100
AcDbHatch
 10
0.0
 20
0.0
 30
0.0
210
0.0
220
0.0
230
1.0
  2
SOLID
 70
     1
 71
     0
 91
        1
 92
        1
 93
        1
 72
     4
 94
        3
 73
     0
 74
     0
 95
       29
 96
       25
 40
0.0
 40
0.0
 40
0.0
 40
0.0
 40
1.0
 40
1.0
 40
1.0
 40
2.0
 40
2.0
 40
2.0
 40
3.0
 40
3.0
 40
3.0
 40
4.0
 40
4.0
 40
4.0
 40
5.0
 40
5.0
 40
5.0
 40
6.0
 40
6.0
 40
6.0
 40
7.0
 40
7.0
 40
7.0
 40
8.0
 40
8.0
 40
8.0
 40
8.0
 10
120.2865424262153
 20
124.8232164171007
 10
120.2865424262153
 20
124.8232164171007
 10
120.2865424262153
 20
123.2910101996528
 10
120.2865424262153
 20
123.2910101996528
 10
120.2865424262153
 20
123.2910101996528
 10
120.0603719075521
 20
123.2910101996528
 10
120.0603719075521
 20
123.2910101996528
 10
120.0603719075521
 20
123.2910101996528
 10
120.0603719075521
 20
123.9297309027778
 10
120.0603719075521
 20
123.9297309027778
 10
120.0603719075521
 20
123.9297309027778
 10
118.4003526475694
 20
123.9297309027778
 10
118.4003526475694
 20
123.9297309027778
 10
118.4003526475694
 20
123.9297309027778
 10
118.4003526475694
 20
124.18466796875
 10
118.4003526475694
 20
124.18466796875
 10
118.4003526475694
 20
124.18466796875
 10
120.0603719075521
 20
124.18466796875
 10
120.0603719075521
 20
124.18466796875
 10
120.0603719075521
 20
124.18466796875
 10
120.0603719075521
 20
124.8232164171007
 10
120.0603719075521
 20
124.8232164171007
 10
120.0603719075521
 20
124.8232164171007
 10
120.2865424262153
 20
124.8232164171007
 10
120.2865424262153
 20
124.8232164171007
 97
        0
 75
     0
 76
     1
 98
        1
 10
0.0
 20
0.0
  0
HATCH
  5
24
330
A
100
AcDbEntity
  8
LAYER_1
 62
     7
100
AcDbHatch
 10
0.0
 20
0.0
 30
0.0
210
0.0
220
0.0
230
1.0
  2
SOLID
 70
     1
 71
     0
 91
        2
 92
        1
 93
        1
 72
     4
 94
        3
 73
     0
 74
     0
 95
       17
 96
       13
 40
0.0
 40
0.0
 40
0.0
 40
0.0
 40
1.0
 40
1.0
 40
1.0
 40
2.0
 40
2.0
 40
2.0
 40
3.0
 40
3.0
 40
3.0
 40
4.0
 40
4.0
 40
4.0
 40
4.0
 10
120.023681640625
 20
123.1235785590278
 10
120.023681640625
 20
123.1235785590278
 10
120.2865424262153
 20
123.1235785590278
 10
120.2865424262153
 20
123.1235785590278
 10
120.2865424262153
 20
123.1235785590278
 10
120.2865424262153
 20
122.8922403971354
 10
120.2865424262153
 20
122.8922403971354
 10
120.2865424262153
 20
122.8922403971354
 10
120.023681640625
 20
122.8922403971354
 10
120.023681640625
 20
122.8922403971354
 10
120.023681640625
 20
122.8922403971354
 10
120.023681640625
 20
123.1235785590278
 10
120.023681640625
 20
123.1235785590278
 97
        0
 92
        1
 93
        1
 72
     4
 94
        3
 73
     0
 74
     0
 95
       17
 96
       13
 40
0.0
 40
0.0
 40
0.0
 40
0.0
 40
1.0
 40
1.0
 40
1.0
 40
2.0
 40
2.0
 40
2.0
 40
3.0
 40
3.0
 40
3.0
 40
4.0
 40
4.0
 40
4.0
 40
4.0
 10
118.4003526475694
 20
122.8922403971354
 10
118.4003526475694
 20
122.8922403971354
 10
118.4003526475694
 20
123.1235785590278
 10
118.4003526475694
 20
123.1235785590278
 10
118.4003526475694
 20
123.1235785590278
 10
119.7744289822049
 20
123.1235785590278
 10
119.7744289822049
 20
123.1235785590278
 10
119.7744289822049
 20
123.1235785590278
 10
119.7744289822049
 20
122.8922403971354
 10
119.7744289822049
 20
122.8922403971354
 10
119.7744289822049
 20
122.8922403971354
 10
118.4003526475694
 20
122.8922403971354
 10
118.4003526475694
 20
122.8922403971354
 97
        0
 75
     0
 76
     1
 98
        1
 10
0.0
 20
0.0
  0
HATCH
  5
23
330
A
100
AcDbEntity
  8
LAYER_1
 62
     7
100
AcDbHatch
 10
0.0
 20
0.0
 30
0.0
210
0.0
220
0.0
230
1.0
  2
SOLID
 70
     1
 71
     0
 91
        2
 92
       16
 93
        1
 72
     4
 94
        3
 73
     0
 74
     0
 95
       14
 96
       10
 40
0.0
 40
0.0
 40
0.0
 40
0.0
 40
1.0
 40
1.0
 40
1.0
 40
2.0
 40
2.0
 40
2.0
 40
3.0
 40
3.0
 40
3.0
 40
3.0
 10
119.1961697048611
 20
121.5994683159722
 10
119.4087320963542
 20
121.6129041883681
 10
119.6061360677083
 20
121.701959906684
 10
119.6061360677083
 20
121.983251953125
 10
119.6061360677083
 20
122.196331108941
 10
119.4087320963542
 20
122.3642795138889
 10
119.1961697048611
 20
122.3642795138889
 10
119.1961697048611
 20
122.3642795138889
 10
119.1961697048611
 20
121.5994683159722
 10
119.1961697048611
 20
121.5994683159722
 97
        0
 92
        1
 93
        1
 72
     4
 94
        3
 73
     0
 74
     0
 95
       32
 96
       28
 40
0.0
 40
0.0
 40
0.0
 40
0.0
 40
1.0
 40
1.0
 40
1.0
 40
2.0
 40
2.0
 40
2.0
 40
3.0
 40
3.0
 40
3.0
 40
4.0
 40
4.0
 40
4.0
 40
5.0
 40
5.0
 40
5.0
 40
6.0
 40
6.0
 40
6.0
 40
7.0
 40
7.0
 40
7.0
 40
8.0
 40
8.0
 40
8.0
 40
9.0
 40
9.0
 40
9.0
 40
9.0
 10
118.8309895833333
 20
121.3789822048611
 10
118.7655327690972
 20
121.3867336697049
 10
118.5708848741319
 20
121.449951171875
 10
118.4554741753472
 20
121.6232394748264
 10
118.413099500868
 20
121.6864569769965
 10
118.3607340494792
 20
121.7755126953125
 10
118.3607340494792
 20
121.9965155707465
 10
118.3607340494792
 20
122.3828830295139
 10
118.6521891276042
 20
122.6114651150174
 10
119.0487196180555
 20
122.6114651150174
 10
119.4747056749132
 20
122.6114651150174
 10
119.8135308159722
 20
122.4064819335937
 10
119.8135308159722
 20
121.9517293294271
 10
119.8135308159722
 20
121.5550265842014
 10
119.498304578993
 20
121.3603786892361
 10
119.0122016059028
 20
121.3603786892361
 10
119.0122016059028
 20
121.3603786892361
 10
119.0122016059028
 20
122.3642795138889
 10
119.0122016059028
 20
122.3642795138889
 10
118.7259141710069
 20
122.3642795138889
 10
118.5605495876736
 20
122.2302652994792
 10
118.5605495876736
 20
121.9649929470486
 10
118.5605495876736
 20
121.7467461480035
 10
118.7283257378472
 20
121.6180718315972
 10
118.8309895833333
 20
121.6101481119792
 10
118.8309895833333
 20
121.6101481119792
 10
118.8309895833333
 20
121.3789822048611
 10
118.8309895833333
 20
121.3789822048611
 97
        0
 75
     0
 76
     1
 98
        1
 10
0.0
 20
0.0
  0
HATCH
  5
22
330
A
100
AcDbEntity
  8
LAYER_1
 62
     7
100
AcDbHatch
 10
0.0
 20
0.0
 30
0.0
210
0.0
220
0.0
230
1.0
  2
SOLID
 70
     1
 71
     0
 91
        4
 92
       16
 93
        1
 72
     4
 94
        3
 73
     0
 74
     0
 95
       20
 96
       16
 40
0.0
 40
0.0
 40
0.0
 40
0.0
 40
1.0
 40
1.0
 40
1.0
 40
2.0
 40
2.0
 40
2.0
 40
3.0
 40
3.0
 40
3.0
 40
4.0
 40
4.0
 40
4.0
 40
5.0
 40
5.0
 40
5.0
 40
5.0
 10
119.9179172092014
 20
120.8591172960069
 10
119.9179172092014
 20
120.7752292209201
 10
119.9237738715278
 20
120.7002983940972
 10
120.0247151692708
 20
120.7002983940972
 10
120.1056749131944
 20
120.7002983940972
 10
120.120661078559
 20
120.7740234375
 10
120.120661078559
 20
120.8429253472222
 10
120.120661078559
 20
120.8429253472222
 10
120.120661078559
 20
120.9779730902778
 10
120.120661078559
 20
120.9779730902778
 10
120.120661078559
 20
120.9779730902778
 10
119.9179172092014
 20
120.9779730902778
 10
119.9179172092014
 20
120.9779730902778
 10
119.9179172092014
 20
120.9779730902778
 10
119.9179172092014
 20
120.8591172960069
 10
119.9179172092014
 20
120.8591172960069
 97
        0
 92
        1
 93
        1
 72
     4
 94
        3
 73
     0
 74
     0
 95
       35
 96
       31
 40
0.0
 40
0.0
 40
0.0
 40
0.0
 40
1.0
 40
1.0
 40
1.0
 40
2.0
 40
2.0
 40
2.0
 40
3.0
 40
3.0
 40
3.0
 40
4.0
 40
4.0
 40
4.0
 40
5.0
 40
5.0
 40
5.0
 40
6.0
 40
6.0
 40
6.0
 40
7.0
 40
7.0
 40
7.0
 40
8.0
 40
8.0
 40
8.0
 40
9.0
 40
9.0
 40
9.0
 40
10.0
 40
10.0
 40
10.0
 40
10.0
 10
119.5499810112847
 20
120.9779730902778
 10
119.5499810112847
 20
120.9779730902778
 10
119.5499810112847
 20
121.0771918402778
 10
119.5499810112847
 20
121.0771918402778
 10
119.5499810112847
 20
121.0771918402778
 10
120.2045491536458
 20
121.0771918402778
 10
120.2045491536458
 20
121.0771918402778
 10
120.2045491536458
 20
121.0771918402778
 10
120.2045491536458
 20
120.8277669270833
 10
120.2045491536458
 20
120.8277669270833
 10
120.2045491536458
 20
120.6730821397569
 10
120.147705078125
 20
120.5966010199653
 10
120.0185139973958
 20
120.5966010199653
 10
119.901380750868
 20
120.5966010199653
 10
119.8502210828993
 20
120.6701538085937
 10
119.8386800130208
 20
120.7660997178819
 10
119.8386800130208
 20
120.7660997178819
 10
119.5499810112847
 20
120.5800645616319
 10
119.5499810112847
 20
120.5800645616319
 10
119.5499810112847
 20
120.5800645616319
 10
119.5499810112847
 20
120.6913411458333
 10
119.5499810112847
 20
120.6913411458333
 10
119.5499810112847
 20
120.6913411458333
 10
119.8338568793403
 20
120.8639404296875
 10
119.8338568793403
 20
120.8639404296875
 10
119.8338568793403
 20
120.8639404296875
 10
119.8338568793403
 20
120.9779730902778
 10
119.8338568793403
 20
120.9779730902778
 10
119.8338568793403
 20
120.9779730902778
 10
119.5499810112847
 20
120.9779730902778
 10
119.5499810112847
 20
120.9779730902778
 97
        0
 92
       16
 93
        1
 72
     4
 94
        3
 73
     0
 74
     0
 95
       17
 96
       13
 40
0.0
 40
0.0
 40
0.0
 40
0.0
 40
1.0
 40
1.0
 40
1.0
 40
2.0
 40
2.0
 40
2.0
 40
3.0
 40
3.0
 40
3.0
 40
4.0
 40
4.0
 40
4.0
 40
4.0
 10
119.4045979817708
 20
120.8579115125868
 10
119.4045979817708
 20
120.6012518988715
 10
119.6056193033854
 20
120.3985080295139
 10
119.8789876302083
 20
120.3985080295139
 10
120.147705078125
 20
120.3985080295139
 10
120.3506212022569
 20
120.6012518988715
 10
120.3506212022569
 20
120.8579115125868
 10
120.3506212022569
 20
121.1174994574653
 10
120.147705078125
 20
121.3204155815972
 10
119.8789876302083
 20
121.3204155815972
 10
119.6056193033854
 20
121.3204155815972
 10
119.4045979817708
 20
121.1174994574653
 10
119.4045979817708
 20
120.8579115125868
 97
        0
 92
        1
 93
        1
 72
     4
 94
        3
 73
     0
 74
     0
 95
       17
 96
       13
 40
0.0
 40
0.0
 40
0.0
 40
0.0
 40
1.0
 40
1.0
 40
1.0
 40
2.0
 40
2.0
 40
2.0
 40
3.0
 40
3.0
 40
3.0
 40
4.0
 40
4.0
 40
4.0
 40
4.0
 10
119.8789876302083
 20
121.4344482421875
 10
120.2045491536458
 20
121.4344482421875
 10
120.4450168185764
 20
121.1702094184028
 10
120.4450168185764
 20
120.8579115125868
 10
120.4450168185764
 20
120.5487141927083
 10
120.2045491536458
 20
120.2843031141493
 10
119.8789876302083
 20
120.2843031141493
 10
119.5499810112847
 20
120.2843031141493
 10
119.3102023654514
 20
120.5487141927083
 10
119.3102023654514
 20
120.8579115125868
 10
119.3102023654514
 20
121.1702094184028
 10
119.5499810112847
 20
121.4344482421875
 10
119.8789876302083
 20
121.4344482421875
 97
        0
 75
     0
 76
     1
 98
        1
 10
0.0
 20
0.0
  0
ENDSEC
  0
SECTION
  2
OBJECTS
  0
DICTIONARY
  5
19
330
0
100
AcDbDictionary
281
     1
  3
ACAD_COLOR
350
154
  3
ACAD_GROUP
350
1A
  3
ACAD_LAYOUT
350
121
  3
ACAD_MATERIAL
350
156
  3
ACAD_MLINESTYLE
350
1B
  3
ACAD_PLOTSETTINGS
350
122
  3
ACAD_PLOTSTYLENAME
350
11F
  3
ACDBHEADERROUNDTRIPXREC
350
153
  0
DICTIONARY
  5
154
102
{ACAD_REACTORS
330
19
102
}
330
19
100
AcDbDictionary
281
     1
  0
DICTIONARY
  5
1A
102
{ACAD_REACTORS
330
19
102
}
330
19
100
AcDbDictionary
281
     1
  0
DICTIONARY
  5
121
102
{ACAD_REACTORS
330
19
102
}
330
19
100
AcDbDictionary
281
     1
  3
Layout1
350
124
  3
Model
350
123
  0
DICTIONARY
  5
156
102
{ACAD_REACTORS
330
19
102
}
330
19
100
AcDbDictionary
281
     1
  0
DICTIONARY
  5
1B
102
{ACAD_REACTORS
330
19
102
}
330
19
100
AcDbDictionary
281
     1
  3
STANDARD
350
1C
  0
DICTIONARY
  5
122
102
{ACAD_REACTORS
330
19
102
}
330
19
100
AcDbDictionary
281
     1
  0
ACDBDICTIONARYWDFLT
  5
11F
102
{ACAD_REACTORS
330
19
102
}
330
19
100
AcDbDictionary
281
     1
  3
Normal
350
120
100
AcDbDictionaryWithDefault
340
120
  0
DICTIONARY
  5
153
102
{ACAD_REACTORS
330
19
102
}
330
19
100
AcDbDictionary
281
     1
  3
COLORDICT
350
155
  3
MATERIALDICT
350
157
  0
LAYOUT
  5
124
102
{ACAD_REACTORS
330
121
102
}
102
{ACAD_XDICTIONARY
360
158
102
}
330
121
100
AcDbPlotSettings
  1

  2
Support Center HP LaserJet 4
  4

  6

 40
0.0
 41
0.0
 42
0.0
 43
0.0
 44
0.0
 45
0.0
 46
0.0
 47
0.0
 48
0.0
 49
0.0
140
0.0
141
0.0
142
1.0
143
1.0
 70
   688
 72
     0
 73
     0
 74
     5
  7

 75
    16
147
1.0
148
0.0
149
0.0
100
AcDbLayout
  1
Layout1
 70
     0
 71
     1
 10
0.0
 20
0.0
 11
12.0
 21
9.0
 12
0.0
 22
0.0
 32
0.0
 14
1.000000000000000E+20
 24
1.000000000000000E+20
 34
1.000000000000000E+20
 15
-1.000000000000000E+20
 25
-1.000000000000000E+20
 35
-1.000000000000000E+20
146
0.0
 13
0.0
 23
0.0
 33
0.0
 16
1.0
 26
0.0
 36
0.0
 17
0.0
 27
1.0
 37
0.0
 76
     0
330
B
  0
LAYOUT
  5
123
102
{ACAD_REACTORS
330
121
102
}
102
{ACAD_XDICTIONARY
360
15A
102
}
330
121
100
AcDbPlotSettings
  1

  2
Support Center HP LaserJet 4
  4

  6

 40
0.0
 41
0.0
 42
0.0
 43
0.0
 44
0.0
 45
0.0
 46
0.0
 47
0.0
 48
0.0
 49
0.0
140
0.0
141
0.0
142
1.0
143
1.0
 70
  1712
 72
     0
 73
     0
 74
     0
  7

 75
     0
147
1.0
148
0.0
149
0.0
100
AcDbLayout
  1
Model
 70
     1
 71
     0
 10
0.0
 20
0.0
 11
12.0
 21
9.0
 12
0.0
 22
0.0
 32
0.0
 14
0.0
 24
0.0
 34
0.0
 15
0.0
 25
0.0
 35
0.0
146
0.0
 13
0.0
 23
0.0
 33
0.0
 16
1.0
 26
0.0
 36
0.0
 17
0.0
 27
1.0
 37
0.0
 76
     0
330
A
  0
MLINESTYLE
  5
1C
102
{ACAD_REACTORS
330
1B
102
}
330
1B
100
AcDbMlineStyle
  2
STANDARD
 70
     0
  3

 62
     0
 51
90.0000000000002
 52
90.0000000000002
 71
     2
 49
0.5
 62
   256
  6
BYLAYER
 49
-0.5
 62
   256
  6
BYLAYER
  0
ACDBPLACEHOLDER
  5
120
102
{ACAD_REACTORS
330
11F
102
}
330
11F
  0
XRECORD
  5
155
102
{ACAD_REACTORS
330
153
102
}
330
153
100
AcDbXrecord
340
154
  0
XRECORD
  5
157
102
{ACAD_REACTORS
330
153
102
}
330
153
100
AcDbXrecord
340
156
  0
DICTIONARY
  5
158
330
124
100
AcDbDictionary
280
     1
281
     1
  3
ACAD_XREC_ROUNDTRIP
360
159
  0
DICTIONARY
  5
15A
330
123
100
AcDbDictionary
280
     1
281
     1
  3
ACAD_XREC_ROUNDTRIP
360
15B
  0
XRECORD
  5
159
102
{ACAD_REACTORS
330
158
102
}
330
158
100
AcDbXrecord
102
SHADEPLOT
 70
     0
102
SHADEPLOTRESLEVEL
 70
     0
102
SHADEPLOTCUSTOMDPI
 70
     0
  0
XRECORD
  5
15B
102
{ACAD_REACTORS
330
15A
102
}
330
15A
100
AcDbXrecord
102
SHADEPLOT
 70
     0
102
SHADEPLOTRESLEVEL
 70
     0
102
SHADEPLOTCUSTOMDPI
 70
     0
  0
ENDSEC
  0
EOF
