  0
SECTION
  2
HEADER
  9
$ACADVER
  1
AC1015
  9
$ACADMAINTVER
 70
    20
  9
$DWGCODEPAGE
  3
ANSI_1252
  9
$INSBASE
 10
0.0
 20
0.0
 30
0.0
  9
$EXTMIN
 10
0.3728529810334265
 20
-0.5484591383995945
 30
0.0
  9
$EXTMAX
 10
24.71778873307105
 20
91.94279781249436
 30
0.0
  9
$LIMMIN
 10
95.69062771267359
 20
96.35932074652778
  9
$LIMMAX
 10
120.2128173828125
 20
189.039968532986
  9
$ORTHOMODE
 70
     0
  9
$REGENMODE
 70
     1
  9
$FILLMODE
 70
     1
  9
$QTEXTMODE
 70
     0
  9
$MIRRTEXT
 70
     1
  9
$LTSCALE
 40
1.0
  9
$ATTMODE
 70
     1
  9
$TEXTSIZE
 40
0.0
  9
$TRACEWID
 40
0.05
  9
$TEXTSTYLE
  7
Standard
  9
$CLAYER
  8
0
  9
$CELTYPE
  6
Continuous
  9
$CECOLOR
 62
   256
  9
$CELTSCALE
 40
1.0
  9
$DISPSILH
 70
     0
  9
$DIMSCALE
 40
1.0
  9
$DIMASZ
 40
0.18
  9
$DIMEXO
 40
0.0625
  9
$DIMDLI
 40
0.38
  9
$DIMRND
 40
0.0
  9
$DIMDLE
 40
0.0
  9
$DIMEXE
 40
0.18
  9
$DIMTP
 40
0.0
  9
$DIMTM
 40
0.0
  9
$DIMTXT
 40
0.18
  9
$DIMCEN
 40
0.09
  9
$DIMTSZ
 40
0.0
  9
$DIMTOL
 70
     0
  9
$DIMLIM
 70
     0
  9
$DIMTIH
 70
     1
  9
$DIMTOH
 70
     1
  9
$DIMSE1
 70
     0
  9
$DIMSE2
 70
     0
  9
$DIMTAD
 70
     0
  9
$DIMZIN
 70
     0
  9
$DIMBLK
  1

  9
$DIMASO
 70
     1
  9
$DIMSHO
 70
     1
  9
$DIMPOST
  1

  9
$DIMAPOST
  1

  9
$DIMALT
 70
     0
  9
$DIMALTD
 70
     2
  9
$DIMALTF
 40
25.4
  9
$DIMLFAC
 40
1.0
  9
$DIMTOFL
 70
     0
  9
$DIMTVP
 40
0.0
  9
$DIMTIX
 70
     0
  9
$DIMSOXD
 70
     0
  9
$DIMSAH
 70
     0
  9
$DIMBLK1
  1

  9
$DIMBLK2
  1

  9
$DIMSTYLE
  2
Standard
  9
$DIMCLRD
 70
     0
  9
$DIMCLRE
 70
     0
  9
$DIMCLRT
 70
     0
  9
$DIMTFAC
 40
1.0
  9
$DIMGAP
 40
0.09
  9
$DIMJUST
 70
     0
  9
$DIMSD1
 70
     0
  9
$DIMSD2
 70
     0
  9
$DIMTOLJ
 70
     1
  9
$DIMTZIN
 70
     0
  9
$DIMALTZ
 70
     0
  9
$DIMALTTZ
 70
     0
  9
$DIMUPT
 70
     0
  9
$DIMDEC
 70
     4
  9
$DIMTDEC
 70
     4
  9
$DIMALTU
 70
     2
  9
$DIMALTTD
 70
     2
  9
$DIMTXSTY
  7
Standard
  9
$DIMAUNIT
 70
     0
  9
$DIMADEC
 70
     0
  9
$DIMALTRND
 40
0.0
  9
$DIMAZIN
 70
     0
  9
$DIMDSEP
 70
     0
  9
$DIMATFIT
 70
     3
  9
$DIMFRAC
 70
     0
  9
$DIMLDRBLK
  1

  9
$DIMLUNIT
 70
     2
  9
$DIMLWD
 70
     0
  9
$DIMLWE
 70
     0
  9
$DIMTMOVE
 70
     0
  9
$LUNITS
 70
     2
  9
$LUPREC
 70
     4
  9
$SKETCHINC
 40
0.1
  9
$FILLETRAD
 40
0.0
  9
$AUNITS
 70
     0
  9
$AUPREC
 70
     0
  9
$MENU
  1
acad
  9
$ELEVATION
 40
0.0
  9
$PELEVATION
 40
0.0
  9
$THICKNESS
 40
0.0
  9
$LIMCHECK
 70
     0
  9
$CHAMFERA
 40
0.0
  9
$CHAMFERB
 40
0.0
  9
$CHAMFERC
 40
0.0
  9
$CHAMFERD
 40
0.0
  9
$SKPOLY
 70
     0
  9
$TDCREATE
 40
2454579.486093518
  9
$TDUCREATE
 40
2454579.777760185
  9
$TDUPDATE
 40
2454579.501033935
  9
$TDUUPDATE
 40
2454579.792700602
  9
$TDINDWG
 40
0.0015361111
  9
$TDUSRTIMER
 40
0.0015361111
  9
$USRTIMER
 70
     1
  9
$ANGBASE
 50
0.0
  9
$ANGDIR
 70
     0
  9
$PDMODE
 70
     0
  9
$PDSIZE
 40
0.0
  9
$PLINEWID
 40
0.0
  9
$SPLFRAME
 70
     0
  9
$SPLINETYPE
 70
     6
  9
$SPLINESEGS
 70
     8
  9
$HANDSEED
  5
106
  9
$SURFTAB1
 70
     6
  9
$SURFTAB2
 70
     6
  9
$SURFTYPE
 70
     6
  9
$SURFU
 70
     6
  9
$SURFV
 70
     6
  9
$UCSBASE
  2

  9
$UCSNAME
  2

  9
$UCSORG
 10
0.0
 20
0.0
 30
0.0
  9
$UCSXDIR
 10
1.0
 20
0.0
 30
0.0
  9
$UCSYDIR
 10
0.0
 20
1.0
 30
0.0
  9
$UCSORTHOREF
  2

  9
$UCSORTHOVIEW
 70
     0
  9
$UCSORGTOP
 10
0.0
 20
0.0
 30
0.0
  9
$UCSORGBOTTOM
 10
0.0
 20
0.0
 30
0.0
  9
$UCSORGLEFT
 10
0.0
 20
0.0
 30
0.0
  9
$UCSORGRIGHT
 10
0.0
 20
0.0
 30
0.0
  9
$UCSORGFRONT
 10
0.0
 20
0.0
 30
0.0
  9
$UCSORGBACK
 10
0.0
 20
0.0
 30
0.0
  9
$PUCSBASE
  2

  9
$PUCSNAME
  2

  9
$PUCSORG
 10
0.0
 20
0.0
 30
0.0
  9
$PUCSXDIR
 10
1.0
 20
0.0
 30
0.0
  9
$PUCSYDIR
 10
0.0
 20
1.0
 30
0.0
  9
$PUCSORTHOREF
  2

  9
$PUCSORTHOVIEW
 70
     0
  9
$PUCSORGTOP
 10
0.0
 20
0.0
 30
0.0
  9
$PUCSORGBOTTOM
 10
0.0
 20
0.0
 30
0.0
  9
$PUCSORGLEFT
 10
0.0
 20
0.0
 30
0.0
  9
$PUCSORGRIGHT
 10
0.0
 20
0.0
 30
0.0
  9
$PUCSORGFRONT
 10
0.0
 20
0.0
 30
0.0
  9
$PUCSORGBACK
 10
0.0
 20
0.0
 30
0.0
  9
$USERI1
 70
     0
  9
$USERI2
 70
     0
  9
$USERI3
 70
     0
  9
$USERI4
 70
     0
  9
$USERI5
 70
     0
  9
$USERR1
 40
0.0
  9
$USERR2
 40
0.0
  9
$USERR3
 40
0.0
  9
$USERR4
 40
0.0
  9
$USERR5
 40
0.0
  9
$WORLDVIEW
 70
     1
  9
$SHADEDGE
 70
     3
  9
$SHADEDIF
 70
    70
  9
$TILEMODE
 70
     1
  9
$MAXACTVP
 70
    16
  9
$PINSBASE
 10
0.0
 20
0.0
 30
0.0
  9
$PLIMCHECK
 70
     0
  9
$PEXTMIN
 10
1.000000000000000E+20
 20
1.000000000000000E+20
 30
1.000000000000000E+20
  9
$PEXTMAX
 10
-1.000000000000000E+20
 20
-1.000000000000000E+20
 30
-1.000000000000000E+20
  9
$PLIMMIN
 10
0.0
 20
0.0
  9
$PLIMMAX
 10
12.0
 20
9.0
  9
$UNITMODE
 70
     0
  9
$VISRETAIN
 70
     0
  9
$PLINEGEN
 70
     1
  9
$PSLTSCALE
 70
     0
  9
$TREEDEPTH
 70
  3020
  9
$CMLSTYLE
  2
Standard
  9
$CMLJUST
 70
     0
  9
$CMLSCALE
 40
1.0
  9
$PROXYGRAPHICS
 70
     0
  9
$MEASUREMENT
 70
     1
  9
$CELWEIGHT
370
    -1
  9
$ENDCAPS
280
     0
  9
$JOINSTYLE
280
     0
  9
$LWDISPLAY
290
     0
  9
$INSUNITS
 70
     0
  9
$HYPERLINKBASE
  1

  9
$STYLESHEET
  1
monochrome.ctb
  9
$XEDIT
290
     1
  9
$CEPSNTYPE
380
     0
  9
$PSTYLEMODE
290
     1
  9
$FINGERPRINTGUID
  2

  9
$VERSIONGUID
  2
{DAF4D563-99FB-44C4-BE37-2FC2FF74C7AE}
  9
$EXTNAMES
290
     1
  9
$PSVPSCALE
 40
0.0
  9
$OLESTARTUP
290
     0
  0
ENDSEC
  0
SECTION
  2
CLASSES
  0
CLASS
  1
IMAGE
  2
AcDbRasterImage
  3
ISM
 90
    32895
280
     0
281
     1
  0
CLASS
  1
DICTIONARYVAR
  2
AcDbDictionaryVar
  3
ObjectDBX Classes
 90
        0
280
     0
281
     0
  0
CLASS
  1
RASTERVARIABLES
  2
AcDbRasterVariables
  3
ISM
 90
    32768
280
     0
281
     0
  0
CLASS
  1
IMAGEDEF
  2
AcDbRasterImageDef
  3
ISM
 90
    32768
280
     0
281
     0
  0
CLASS
  1
IMAGEDEF_REACTOR
  2
AcDbRasterImageDefReactor
  3
ISM
 90
    32769
280
     0
281
     0
  0
CLASS
  1
IDBUFFER
  2
AcDbIdBuffer
  3
ObjectDBX Classes
 90
    32768
280
     0
281
     0
  0
CLASS
  1
SPATIAL_FILTER
  2
AcDbSpatialFilter
  3
ObjectDBX Classes
 90
    32768
280
     0
281
     0
  0
CLASS
  1
SORTENTSTABLE
  2
AcDbSortentsTable
  3
ObjectDBX Classes
 90
        0
280
     0
281
     0
  0
CLASS
  1
LAYER_INDEX
  2
AcDbLayerIndex
  3
ObjectDBX Classes
 90
    32768
280
     0
281
     0
  0
CLASS
  1
SPATIAL_INDEX
  2
AcDbSpatialIndex
  3
ObjectDBX Classes
 90
    32768
280
     0
281
     0
  0
CLASS
  1
OBJECT_PTR
  2
CAseDLPNTableRecord
  3
"ASE-LPNTableRecord"
 90
    32769
280
     0
281
     0
  0
CLASS
  1
LAYOUT
  2
AcDbLayout
  3
ObjectDBX Classes
 90
        0
280
     0
281
     0
  0
CLASS
  1
PLOTSETTINGS
  2
AcDbPlotSettings
  3
ObjectDBX Classes
 90
    32768
280
     0
281
     0
  0
CLASS
  1
ACDBDICTIONARYWDFLT
  2
AcDbDictionaryWithDefault
  3
ObjectDBX Classes
 90
        0
280
     0
281
     0
  0
CLASS
  1
ACDBPLACEHOLDER
  2
AcDbPlaceHolder
  3
ObjectDBX Classes
 90
        0
280
     0
281
     0
  0
CLASS
  1
VBA_PROJECT
  2
AcDbVbaProject
  3
acad
 90
    32768
280
     0
281
     0
  0
CLASS
  1
WIPEOUT
  2
AcDbWipeout
  3
"WipeOut|Product Desc: Object Enabler for WipeOut entity^I^I^I^I^I^I|Company: Autodesk, Inc.^I^I^I^I^I^I|WEB Address: www.autodesk.com"
 90
    32895
280
     0
281
     1
  0
CLASS
  1
WIPEOUTVARIABLES
  2
AcDbWipeoutVariables
  3
"WipeOut|Product Desc:     WipeOut Dbx Application|Company:          Autodesk, Inc.|WEB Address:      www.autodesk.com"
 90
        0
280
     0
281
     0
  0
CLASS
  1
RTEXT
  2
RText
  3
RText|AutoCAD Express Tool|expresstools@autodesk.com
 90
    32768
280
     0
281
     1
  0
CLASS
  1
ARCALIGNEDTEXT
  2
AcDbArcAlignedText
  3
ATEXT|AutoCAD Express Tool|expresstools@autodesk.com
 90
    32768
280
     0
281
     1
  0
CLASS
  1
TABLESTYLE
  2
AcDbTableStyle
  3
ObjectDBX Classes
 90
     2047
280
     0
281
     0
  0
ENDSEC
  0
SECTION
  2
TABLES
  0
TABLE
  2
VPORT
  5
7
330
0
100
AcDbSymbolTable
 70
     2
  0
VPORT
  5
100
330
7
100
AcDbSymbolTableRecord
100
AcDbViewportTableRecord
  2
*Active
 70
     0
 10
0.0
 20
0.0
 11
1.0
 21
1.0
 12
22.70334182305241
 22
43.19993742110341
 13
0.0
 23
0.0
 14
1.0
 24
1.0
 15
0.0
 25
0.0
 16
0.0
 26
0.0
 36
1.0
 17
0.0
 27
0.0
 37
0.0
 40
119.687529913496
 41
1.760162601626016
 42
50.0
 43
0.0
 44
0.0
 50
0.0
 51
0.0
 71
     0
 72
   100
 73
     1
 74
     1
 75
     0
 76
     0
 77
     0
 78
     0
281
     0
 65
     0
110
0.0
120
0.0
130
0.0
111
1.0
121
0.0
131
0.0
112
0.0
122
1.0
132
0.0
 79
     0
146
0.0
  0
ENDTAB
  0
TABLE
  2
LTYPE
  5
4
330
0
100
AcDbSymbolTable
 70
     1
  0
LTYPE
  5
11
330
4
100
AcDbSymbolTableRecord
100
AcDbLinetypeTableRecord
  2
ByBlock
 70
     0
  3

 72
    65
 73
     0
 40
0.0
  0
LTYPE
  5
12
330
4
100
AcDbSymbolTableRecord
100
AcDbLinetypeTableRecord
  2
ByLayer
 70
     0
  3

 72
    65
 73
     0
 40
0.0
  0
LTYPE
  5
13
330
4
100
AcDbSymbolTableRecord
100
AcDbLinetypeTableRecord
  2
Continuous
 70
     0
  3
Solid line
 72
    65
 73
     0
 40
0.0
  0
ENDTAB
  0
TABLE
  2
LAYER
  5
2
330
0
100
AcDbSymbolTable
 70
     2
  0
LAYER
  5
14
330
2
100
AcDbSymbolTableRecord
100
AcDbLayerTableRecord
  2
0
 70
     0
 62
     7
  6
Continuous
370
    -3
390
1D
  0
LAYER
  5
28
330
2
100
AcDbSymbolTableRecord
100
AcDbLayerTableRecord
  2
LAYER_1
 70
     0
 62
     5
  6
Continuous
370
    -3
390
1D
  0
ENDTAB
  0
TABLE
  2
STYLE
  5
3
330
0
100
AcDbSymbolTable
 70
     1
  0
STYLE
  5
17
330
3
100
AcDbSymbolTableRecord
100
AcDbTextStyleTableRecord
  2
Standard
 70
     0
 40
0.0
 41
1.0
 50
0.0
 71
     0
 42
0.0
  3
txt
  4

  0
ENDTAB
  0
TABLE
  2
VIEW
  5
5
330
0
100
AcDbSymbolTable
 70
     0
  0
ENDTAB
  0
TABLE
  2
UCS
  5
6
330
0
100
AcDbSymbolTable
 70
     0
  0
ENDTAB
  0
TABLE
  2
APPID
  5
8
330
0
100
AcDbSymbolTable
 70
     2
  0
APPID
  5
16
330
8
100
AcDbSymbolTableRecord
100
AcDbRegAppTableRecord
  2
ACAD
 70
     0
  0
APPID
  5
EA
330
8
100
AcDbSymbolTableRecord
100
AcDbRegAppTableRecord
  2
ACAD_PSEXT
 70
     0
  0
ENDTAB
  0
TABLE
  2
DIMSTYLE
  5
9
330
0
100
AcDbSymbolTable
 70
     1
100
AcDbDimStyleTable
 71
     1
340
18
  0
DIMSTYLE
105
18
330
9
100
AcDbSymbolTableRecord
100
AcDbDimStyleTableRecord
  2
Standard
 70
     0
289
     0
340
17
  0
ENDTAB
  0
TABLE
  2
BLOCK_RECORD
  5
1
330
0
100
AcDbSymbolTable
 70
     0
  0
BLOCK_RECORD
  5
A
102
{ACAD_XDICTIONARY
360
DA
102
}
330
1
100
AcDbSymbolTableRecord
100
AcDbBlockTableRecord
  2
*MODEL_SPACE
340
20
  0
BLOCK_RECORD
  5
B
330
1
100
AcDbSymbolTableRecord
100
AcDbBlockTableRecord
  2
*PAPER_SPACE
340
21
  0
ENDTAB
  0
ENDSEC
  0
SECTION
  2
BLOCKS
  0
BLOCK
  5
D
330
A
100
AcDbEntity
  8
0
100
AcDbBlockBegin
  2
*MODEL_SPACE
 70
     0
 10
0.0
 20
0.0
 30
0.0
  3
*MODEL_SPACE
  1

  0
ENDBLK
  5
E
330
A
100
AcDbEntity
  8
0
100
AcDbBlockEnd
  0
BLOCK
  5
F
330
B
100
AcDbEntity
 67
     1
  8
0
100
AcDbBlockBegin
  2
*PAPER_SPACE
 70
     0
 10
0.0
 20
0.0
 30
0.0
  3
*PAPER_SPACE
  1

  0
ENDBLK
  5
10
330
B
100
AcDbEntity
 67
     1
  8
0
100
AcDbBlockEnd
  0
ENDSEC
  0
SECTION
  2
ENTITIES
  0
SPLINE
  5
8C
330
A
100
AcDbEntity
  8
0
100
AcDbSpline
210
0.0
220
0.0
230
1.0
 70
    11
 71
     3
 72
    17
 73
    13
 74
     0
 42
0.0000000001
 43
0.0000000001
 40
0.0
 40
0.0
 40
0.0
 40
0.0
 40
1.0
 40
1.0
 40
1.0
 40
2.0
 40
2.0
 40
2.0
 40
3.0
 40
3.0
 40
3.0
 40
4.0
 40
4.0
 40
4.0
 40
4.0
 10
19.29640830615516
 20
63.45857877003424
 30
0.0
 10
18.83269845372459
 20
63.58845886986062
 30
0.0
 10
18.40964072803015
 20
64.18859450354118
 30
0.0
 10
18.28286121414126
 20
64.96408549746478
 30
0.0
 10
18.16056032438432
 20
65.71167121795089
 30
0.0
 10
18.35314116205792
 20
66.38690993322867
 30
0.0
 10
18.72314441726625
 20
66.67784824703075
 30
0.0
 10
19.18650976014821
 20
66.54796814720437
 30
0.0
 10
19.60991199539126
 20
65.94731574920091
 30
0.0
 10
19.73669150928015
 20
65.17216926482591
 30
0.0
 10
19.85864788948848
 20
64.4245835443398
 30
0.0
 10
19.66641156136349
 20
63.74951708383632
 30
0.0
 10
19.29640830615516
 20
63.45857877003424
 30
0.0
  0
SPLINE
  5
8D
330
A
100
AcDbEntity
  8
0
100
AcDbSpline
210
0.0
220
0.0
230
1.0
 70
    11
 71
     3
 72
    26
 73
    22
 74
     0
 42
0.0000000001
 43
0.0000000001
 40
0.0
 40
0.0
 40
0.0
 40
0.0
 40
1.0
 40
1.0
 40
1.0
 40
2.0
 40
2.0
 40
2.0
 40
3.0
 40
3.0
 40
3.0
 40
4.0
 40
4.0
 40
4.0
 40
5.0
 40
5.0
 40
5.0
 40
6.0
 40
6.0
 40
6.0
 40
7.0
 40
7.0
 40
7.0
 40
7.0
 10
14.3061874945232
 20
9.523714132447437
 30
0.0
 10
13.9771808755996
 20
9.327343689739095
 30
0.0
 10
13.49107790250932
 20
9.202631233141872
 30
0.0
 10
12.94468575841209
 20
9.202631233141872
 30
0.0
 10
12.14972997499195
 20
9.202631233141872
 30
0.0
 10
11.57302099061695
 20
9.464458490086315
 30
0.0
 10
11.33220881613779
 20
9.829294102065489
 30
0.0
 10
11.57302099061695
 20
10.19412971404465
 30
0.0
 10
12.14972997499195
 20
10.4594020664752
 30
0.0
 10
12.94468575841209
 20
10.4594020664752
 30
0.0
 10
13.43216676969682
 20
10.4594020664752
 30
0.0
 10
13.87141644417598
 20
10.36018331647521
 30
0.0
 10
14.1942218912246
 20
10.19929735727382
 30
0.0
 10
14.1942218912246
 20
10.19929735727382
 30
0.0
 10
14.15184721674542
 20
10.19964186682243
 30
0.0
 10
14.15184721674542
 20
10.19964186682243
 30
0.0
 10
14.15184721674542
 20
10.19964186682243
 30
0.0
 10
14.32272395285653
 20
9.601573290433549
 30
0.0
 10
14.32272395285653
 20
9.601573290433549
 30
0.0
 10
14.32272395285653
 20
9.601573290433549
 30
0.0
 10
14.3061874945232
 20
9.523714132447437
 30
0.0
 10
14.3061874945232
 20
9.523714132447437
 30
0.0
  0
SPLINE
  5
8E
330
A
100
AcDbEntity
  8
0
100
AcDbSpline
210
0.0
220
0.0
230
1.0
 70
    11
 71
     3
 72
   302
 73
   298
 74
     0
 42
0.0000000001
 43
0.0000000001
 40
0.0
 40
0.0
 40
0.0
 40
0.0
 40
1.0
 40
1.0
 40
1.0
 40
2.0
 40
2.0
 40
2.0
 40
3.0
 40
3.0
 40
3.0
 40
4.0
 40
4.0
 40
4.0
 40
5.0
 40
5.0
 40
5.0
 40
6.0
 40
6.0
 40
6.0
 40
7.0
 40
7.0
 40
7.0
 40
8.0
 40
8.0
 40
8.0
 40
9.0
 40
9.0
 40
9.0
 40
10.0
 40
10.0
 40
10.0
 40
11.0
 40
11.0
 40
11.0
 40
12.0
 40
12.0
 40
12.0
 40
13.0
 40
13.0
 40
13.0
 40
14.0
 40
14.0
 40
14.0
 40
15.0
 40
15.0
 40
15.0
 40
16.0
 40
16.0
 40
16.0
 40
17.0
 40
17.0
 40
17.0
 40
18.0
 40
18.0
 40
18.0
 40
19.0
 40
19.0
 40
19.0
 40
20.0
 40
20.0
 40
20.0
 40
21.0
 40
21.0
 40
21.0
 40
22.0
 40
22.0
 40
22.0
 40
23.0
 40
23.0
 40
23.0
 40
24.0
 40
24.0
 40
24.0
 40
25.0
 40
25.0
 40
25.0
 40
26.0
 40
26.0
 40
26.0
 40
27.0
 40
27.0
 40
27.0
 40
28.0
 40
28.0
 40
28.0
 40
29.0
 40
29.0
 40
29.0
 40
30.0
 40
30.0
 40
30.0
 40
31.0
 40
31.0
 40
31.0
 40
32.0
 40
32.0
 40
32.0
 40
33.0
 40
33.0
 40
33.0
 40
34.0
 40
34.0
 40
34.0
 40
35.0
 40
35.0
 40
35.0
 40
36.0
 40
36.0
 40
36.0
 40
37.0
 40
37.0
 40
37.0
 40
38.0
 40
38.0
 40
38.0
 40
39.0
 40
39.0
 40
39.0
 40
40.0
 40
40.0
 40
40.0
 40
41.0
 40
41.0
 40
41.0
 40
42.0
 40
42.0
 40
42.0
 40
43.0
 40
43.0
 40
43.0
 40
44.0
 40
44.0
 40
44.0
 40
45.0
 40
45.0
 40
45.0
 40
46.0
 40
46.0
 40
46.0
 40
47.0
 40
47.0
 40
47.0
 40
48.0
 40
48.0
 40
48.0
 40
49.0
 40
49.0
 40
49.0
 40
50.0
 40
50.0
 40
50.0
 40
51.0
 40
51.0
 40
51.0
 40
52.0
 40
52.0
 40
52.0
 40
53.0
 40
53.0
 40
53.0
 40
54.0
 40
54.0
 40
54.0
 40
55.0
 40
55.0
 40
55.0
 40
56.0
 40
56.0
 40
56.0
 40
57.0
 40
57.0
 40
57.0
 40
58.0
 40
58.0
 40
58.0
 40
59.0
 40
59.0
 40
59.0
 40
60.0
 40
60.0
 40
60.0
 40
61.0
 40
61.0
 40
61.0
 40
62.0
 40
62.0
 40
62.0
 40
63.0
 40
63.0
 40
63.0
 40
64.0
 40
64.0
 40
64.0
 40
65.0
 40
65.0
 40
65.0
 40
66.0
 40
66.0
 40
66.0
 40
67.0
 40
67.0
 40
67.0
 40
68.0
 40
68.0
 40
68.0
 40
69.0
 40
69.0
 40
69.0
 40
70.0
 40
70.0
 40
70.0
 40
71.0
 40
71.0
 40
71.0
 40
72.0
 40
72.0
 40
72.0
 40
73.0
 40
73.0
 40
73.0
 40
74.0
 40
74.0
 40
74.0
 40
75.0
 40
75.0
 40
75.0
 40
76.0
 40
76.0
 40
76.0
 40
77.0
 40
77.0
 40
77.0
 40
78.0
 40
78.0
 40
78.0
 40
79.0
 40
79.0
 40
79.0
 40
80.0
 40
80.0
 40
80.0
 40
81.0
 40
81.0
 40
81.0
 40
82.0
 40
82.0
 40
82.0
 40
83.0
 40
83.0
 40
83.0
 40
84.0
 40
84.0
 40
84.0
 40
85.0
 40
85.0
 40
85.0
 40
86.0
 40
86.0
 40
86.0
 40
87.0
 40
87.0
 40
87.0
 40
88.0
 40
88.0
 40
88.0
 40
89.0
 40
89.0
 40
89.0
 40
90.0
 40
90.0
 40
90.0
 40
91.0
 40
91.0
 40
91.0
 40
92.0
 40
92.0
 40
92.0
 40
93.0
 40
93.0
 40
93.0
 40
94.0
 40
94.0
 40
94.0
 40
95.0
 40
95.0
 40
95.0
 40
96.0
 40
96.0
 40
96.0
 40
97.0
 40
97.0
 40
97.0
 40
98.0
 40
98.0
 40
98.0
 40
99.0
 40
99.0
 40
99.0
 40
99.0
 10
8.545126567873907
 20
26.05328227480854
 30
0.0
 10
8.545126567873907
 20
26.05328227480854
 30
0.0
 10
9.04242610129404
 20
27.93878303435716
 30
0.0
 10
9.04242610129404
 20
27.93878303435716
 30
0.0
 10
9.04242610129404
 20
27.93878303435716
 30
0.0
 10
9.04242610129404
 20
30.40374885466966
 30
0.0
 10
9.04242610129404
 20
30.40374885466966
 30
0.0
 10
9.0162433755996
 20
31.16821554303771
 30
0.0
 10
9.229839295738486
 20
31.61848952307243
 30
0.0
 10
9.229839295738486
 20
31.61848952307243
 30
0.0
 10
9.229839295738486
 20
31.61848952307243
 30
0.0
 10
9.627575569610016
 20
32.27099060814187
 30
0.0
 10
9.627575569610016
 20
32.27099060814187
 30
0.0
 10
9.972946392092651
 20
32.75778260032938
 30
0.0
 10
9.970879334800983
 20
33.55118809078077
 30
0.0
 10
9.970879334800983
 20
33.55118809078077
 30
0.0
 10
9.970879334800983
 20
33.55118809078077
 30
0.0
 10
9.970879334800983
 20
35.2299831211627
 30
0.0
 10
9.970879334800983
 20
35.2299831211627
 30
0.0
 10
9.923509271866961
 20
36.26420078609327
 30
0.0
 10
9.502346348689869
 20
36.76580668887105
 30
0.0
 10
9.502346348689869
 20
36.76580668887105
 30
0.0
 10
9.502346348689869
 20
36.76580668887105
 30
0.0
 10
8.78128786344682
 20
37.68805875050297
 30
0.0
 10
8.78128786344682
 20
37.68805875050297
 30
0.0
 10
8.263834521432926
 20
38.30163025657937
 30
0.0
 10
8.252121196780151
 20
38.84113220970439
 30
0.0
 10
8.252121196780151
 20
38.84113220970439
 30
0.0
 10
8.252121196780151
 20
38.84113220970439
 30
0.0
 10
8.252121196780151
 20
42.30999885466964
 30
0.0
 10
8.252121196780151
 20
42.30999885466964
 30
0.0
 10
8.288639208932934
 20
43.03794753088491
 30
0.0
 10
8.759239252335703
 20
43.68183587723909
 30
0.0
 10
8.759239252335703
 20
43.68183587723909
 30
0.0
 10
8.759239252335703
 20
43.68183587723909
 30
0.0
 10
9.477541661189874
 20
44.82130120927034
 30
0.0
 10
9.477541661189874
 20
44.82130120927034
 30
0.0
 10
9.972946392092651
 20
45.6388223681245
 30
0.0
 10
9.971912863446817
 20
46.54333218800299
 30
0.0
 10
9.971912863446817
 20
46.54333218800299
 30
0.0
 10
9.971912863446817
 20
46.54333218800299
 30
0.0
 10
9.971912863446817
 20
48.16011549963493
 30
0.0
 10
9.971912863446817
 20
48.16011549963493
 30
0.0
 10
9.948141704592657
 20
48.86188145015577
 30
0.0
 10
9.527151036189877
 20
49.45633267628425
 30
0.0
 10
9.527151036189877
 20
49.45633267628425
 30
0.0
 10
9.527151036189877
 20
49.45633267628425
 30
0.0
 10
8.784043939835711
 20
50.4471421380898
 30
0.0
 10
8.784043939835711
 20
50.4471421380898
 30
0.0
 10
8.263834521432926
 20
51.09120273921828
 30
0.0
 10
8.252121196780151
 20
51.86428216630161
 30
0.0
 10
8.252121196780151
 20
51.86428216630161
 30
0.0
 10
8.252121196780151
 20
51.86428216630161
 30
0.0
 10
8.252121196780151
 20
54.95797791282938
 30
0.0
 10
8.252121196780151
 20
54.95797791282938
 30
0.0
 10
8.263834521432926
 20
55.72588969668355
 30
0.0
 10
8.808848627335706
 20
56.5180894037148
 30
0.0
 10
8.808848627335706
 20
56.5180894037148
 30
0.0
 10
8.808848627335706
 20
56.5180894037148
 30
0.0
 10
9.502346348689869
 20
57.70699185597173
 30
0.0
 10
9.502346348689869
 20
57.70699185597173
 30
0.0
 10
9.972946392092651
 20
58.5491454475516
 30
0.0
 10
9.971912863446817
 20
59.26331374182241
 30
0.0
 10
9.971912863446817
 20
59.26331374182241
 30
0.0
 10
9.971912863446817
 20
59.26331374182241
 30
0.0
 10
9.971912863446817
 20
61.22942973574605
 30
0.0
 10
9.971912863446817
 20
61.22942973574605
 30
0.0
 10
9.923509271866961
 20
62.11309672793355
 30
0.0
 10
9.428104540964184
 20
62.732352641562
 30
0.0
 10
9.428104540964184
 20
62.732352641562
 30
0.0
 10
9.428104540964184
 20
62.732352641562
 30
0.0
 10
8.78128786344682
 20
63.72591817975645
 30
0.0
 10
8.78128786344682
 20
63.72591817975645
 30
0.0
 10
8.288639208932934
 20
64.49072937767313
 30
0.0
 10
8.296218419002372
 20
65.14736457732588
 30
0.0
 10
8.296218419002372
 20
65.14736457732588
 30
0.0
 10
8.296218419002372
 20
65.14736457732588
 30
0.0
 10
8.296218419002372
 20
68.41090353131896
 30
0.0
 10
8.296218419002372
 20
68.41090353131896
 30
0.0
 10
8.288639208932934
 20
69.24565016760367
 30
0.0
 10
8.808848627335706
 20
69.91451545623213
 30
0.0
 10
8.808848627335706
 20
69.91451545623213
 30
0.0
 10
8.808848627335706
 20
69.91451545623213
 30
0.0
 10
9.398648974557929
 20
70.8489976068398
 30
0.0
 10
9.398648974557929
 20
70.8489976068398
 30
0.0
 10
9.956926698082241
 20
71.67892110944395
 30
0.0
 10
9.971912863446817
 20
72.47249885466963
 30
0.0
 10
9.971912863446817
 20
72.47249885466963
 30
0.0
 10
9.971912863446817
 20
72.47249885466963
 30
0.0
 10
9.971912863446817
 20
74.08721510900993
 30
0.0
 10
9.971912863446817
 20
74.08721510900993
 30
0.0
 10
9.972946392092651
 20
74.94935025440923
 30
0.0
 10
9.531974169870423
 20
75.51882453826339
 30
0.0
 10
9.531974169870423
 20
75.51882453826339
 30
0.0
 10
9.531974169870423
 20
75.51882453826339
 30
0.0
 10
8.78128786344682
 20
76.44142110944397
 30
0.0
 10
8.78128786344682
 20
76.44142110944397
 30
0.0
 10
8.288639208932934
 20
77.00538324052034
 30
0.0
 10
8.296218419002372
 20
77.70921624833285
 30
0.0
 10
8.296218419002372
 20
77.70921624833285
 30
0.0
 10
8.296218419002372
 20
77.70921624833285
 30
0.0
 10
8.296218419002372
 20
80.96448697315922
 30
0.0
 10
8.296218419002372
 20
80.96448697315922
 30
0.0
 10
8.263834521432926
 20
81.75737569928768
 30
0.0
 10
8.684997444610019
 20
82.45087342064188
 30
0.0
 10
8.684997444610019
 20
82.45087342064188
 30
0.0
 10
8.684997444610019
 20
82.45087342064188
 30
0.0
 10
9.403299853464176
 20
83.76379931039883
 30
0.0
 10
9.403299853464176
 20
83.76379931039883
 30
0.0
 10
9.932466520130844
 20
84.60164653262104
 30
0.0
 10
9.948141704592657
 20
85.39832486378422
 30
0.0
 10
9.948141704592657
 20
85.39832486378422
 30
0.0
 10
9.948141704592657
 20
85.39832486378422
 30
0.0
 10
9.927815641224597
 20
86.93638774355854
 30
0.0
 10
9.927815641224597
 20
86.93638774355854
 30
0.0
 10
9.923509271866961
 20
87.48553596404464
 30
0.0
 10
9.398648974557929
 20
88.00574538244742
 30
0.0
 10
9.398648974557929
 20
88.00574538244742
 30
0.0
 10
9.398648974557929
 20
88.00574538244742
 30
0.0
 10
8.684997444610019
 20
88.84789897402727
 30
0.0
 10
8.684997444610019
 20
88.84789897402727
 30
0.0
 10
8.139983338707239
 20
89.61581075788144
 30
0.0
 10
8.253326980200284
 20
90.59973002871478
 30
0.0
 10
8.253326980200284
 20
90.59973002871478
 30
0.0
 10
8.253326980200284
 20
90.59973002871478
 30
0.0
 10
7.619946175078766
 20
91.01193570362797
 30
0.0
 10
7.619946175078766
 20
91.01193570362797
 30
0.0
 10
7.619946175078766
 20
91.01193570362797
 30
0.0
 10
0.7259655978218121
 20
90.05282112029464
 30
0.0
 10
0.7259655978218121
 20
90.05282112029464
 30
0.0
 10
0.7259655978218121
 20
90.05282112029464
 30
0.0
 10
0.3731878200440377
 20
89.96462667585019
 30
0.0
 10
0.3731878200440377
 20
89.61184889807244
 30
0.0
 10
0.3731878200440377
 20
89.61184889807244
 30
0.0
 10
0.3731878200440377
 20
14.02921000918354
 30
0.0
 10
0.3731878200440377
 20
14.02921000918354
 30
0.0
 10
0.3731878200440377
 20
14.02921000918354
 30
0.0
 10
0.2849933755995977
 20
9.443098898072435
 30
0.0
 10
2.842632264488486
 20
7.414626675850215
 30
0.0
 10
2.842632264488486
 20
7.414626675850215
 30
0.0
 10
12.8086044867107
 20
0.535460009183538
 30
0.0
 10
12.8086044867107
 20
0.535460009183538
 30
0.0
 10
12.8086044867107
 20
0.535460009183538
 30
0.0
 10
14.83707670893292
 20
-1.140234435260893
 30
0.0
 10
18.80582670893292
 20
-0.3464844352609049
 30
0.0
 10
18.80582670893292
 20
-0.3464844352609049
 30
0.0
 10
24.8912433755996
 20
0.9764322314057665
 30
0.0
 10
24.71485448671071
 20
8.561154453627992
 30
0.0
 10
24.71485448671071
 20
8.561154453627992
 30
0.0
 10
22.61610231657181
 20
31.39318027828075
 30
0.0
 10
22.61610231657181
 20
31.39318027828075
 30
0.0
 10
22.61610231657181
 20
31.39318027828075
 30
0.0
 10
21.15469281136349
 20
90.13188606170091
 30
0.0
 10
21.15469281136349
 20
90.13188606170091
 30
0.0
 10
21.15469281136349
 20
90.13188606170091
 30
0.0
 10
16.51277115337737
 20
91.90490445362799
 30
0.0
 10
16.51277115337737
 20
91.90490445362799
 30
0.0
 10
16.51277115337737
 20
91.90490445362799
 30
0.0
 10
15.89541004226626
 20
91.99309889807244
 30
0.0
 10
15.54263226448849
 20
91.90490445362799
 30
0.0
 10
15.54263226448849
 20
91.90490445362799
 30
0.0
 10
8.506369243655157
 20
91.11511631343701
 30
0.0
 10
8.506369243655157
 20
91.11511631343701
 30
0.0
 10
8.506369243655157
 20
91.11511631343701
 30
0.0
 10
8.4925888617107
 20
90.02767192324604
 30
0.0
 10
9.03760296761348
 20
89.25976013939187
 30
0.0
 10
9.03760296761348
 20
89.25976013939187
 30
0.0
 10
9.751254497561404
 20
88.41760654781202
 30
0.0
 10
9.751254497561404
 20
88.41760654781202
 30
0.0
 10
9.751254497561404
 20
88.41760654781202
 30
0.0
 10
10.27611479487042
 20
87.89739712940924
 30
0.0
 10
10.28042116422807
 20
87.3482489089231
 30
0.0
 10
10.28042116422807
 20
87.3482489089231
 30
0.0
 10
10.30074722759612
 20
85.22210822966965
 30
0.0
 10
10.30074722759612
 20
85.22210822966965
 30
0.0
 10
10.30074722759612
 20
85.22210822966965
 30
0.0
 10
10.28507204313432
 20
84.42542989850647
 30
0.0
 10
9.755905376467651
 20
83.58758267628424
 30
0.0
 10
9.755905376467651
 20
83.58758267628424
 30
0.0
 10
9.03760296761348
 20
82.27465678652727
 30
0.0
 10
9.03760296761348
 20
82.27465678652727
 30
0.0
 10
9.03760296761348
 20
82.27465678652727
 30
0.0
 10
8.616440044436401
 20
81.58115906517311
 30
0.0
 10
8.648823942005847
 20
80.78827033904465
 30
0.0
 10
8.648823942005847
 20
80.78827033904465
 30
0.0
 10
8.648823942005847
 20
78.297294047812
 30
0.0
 10
8.648823942005847
 20
78.297294047812
 30
0.0
 10
8.648823942005847
 20
78.297294047812
 30
0.0
 10
8.641244731936396
 20
77.59346103999949
 30
0.0
 10
9.133893386450296
 20
77.02949890892312
 30
0.0
 10
9.133893386450296
 20
77.02949890892312
 30
0.0
 10
9.884579692873899
 20
76.10690233774256
 30
0.0
 10
9.884579692873899
 20
76.10690233774256
 30
0.0
 10
9.884579692873899
 20
76.10690233774256
 30
0.0
 10
10.32555191509612
 20
75.5374280538884
 30
0.0
 10
10.32451838645029
 20
74.67529290848908
 30
0.0
 10
10.32451838645029
 20
74.67529290848908
 30
0.0
 10
10.32451838645029
 20
72.00241557558978
 30
0.0
 10
10.32451838645029
 20
72.00241557558978
 30
0.0
 10
10.32451838645029
 20
72.00241557558978
 30
0.0
 10
10.25096559782181
 20
71.20866557558979
 30
0.0
 10
9.751254497561404
 20
70.37891432775992
 30
0.0
 10
9.751254497561404
 20
70.37891432775992
 30
0.0
 10
9.161454150339181
 20
69.44443217715228
 30
0.0
 10
9.161454150339181
 20
69.44443217715228
 30
0.0
 10
9.161454150339181
 20
69.44443217715228
 30
0.0
 10
8.641244731936396
 20
68.77556688852381
 30
0.0
 10
8.648823942005847
 20
67.94082025223911
 30
0.0
 10
8.648823942005847
 20
67.94082025223911
 30
0.0
 10
8.648823942005847
 20
65.61796462072867
 30
0.0
 10
8.648823942005847
 20
65.61796462072867
 30
0.0
 10
8.648823942005847
 20
65.61796462072867
 30
0.0
 10
8.641244731936396
 20
64.96132942107589
 30
0.0
 10
9.133893386450296
 20
64.19651822315923
 30
0.0
 10
9.133893386450296
 20
64.19651822315923
 30
0.0
 10
9.780710063967646
 20
63.20295268496479
 30
0.0
 10
9.780710063967646
 20
63.20295268496479
 30
0.0
 10
9.780710063967646
 20
63.20295268496479
 30
0.0
 10
10.27611479487042
 20
62.58369677133631
 30
0.0
 10
10.32451838645029
 20
61.7000297791488
 30
0.0
 10
10.32451838645029
 20
61.7000297791488
 30
0.0
 10
10.32451838645029
 20
59.08726936248216
 30
0.0
 10
10.32451838645029
 20
59.08726936248216
 30
0.0
 10
10.32451838645029
 20
59.08726936248216
 30
0.0
 10
10.32555191509612
 20
58.37310106821131
 30
0.0
 10
9.854951871693344
 20
57.53094747663145
 30
0.0
 10
9.854951871693344
 20
57.53094747663145
 30
0.0
 10
9.161454150339181
 20
56.34204502437452
 30
0.0
 10
9.161454150339181
 20
56.34204502437452
 30
0.0
 10
9.161454150339181
 20
56.34204502437452
 30
0.0
 10
8.616440044436401
 20
55.54984531734326
 30
0.0
 10
8.604726719783627
 20
54.7819335334891
 30
0.0
 10
8.604726719783627
 20
54.7819335334891
 30
0.0
 10
8.604726719783627
 20
52.33505446447868
 30
0.0
 10
8.604726719783627
 20
52.33505446447868
 30
0.0
 10
8.604726719783627
 20
52.33505446447868
 30
0.0
 10
8.616440044436401
 20
51.56197503739536
 30
0.0
 10
9.136649462839173
 20
50.91791443626688
 30
0.0
 10
9.136649462839173
 20
50.91791443626688
 30
0.0
 10
9.879756559193339
 20
49.92710497446132
 30
0.0
 10
9.879756559193339
 20
49.92710497446132
 30
0.0
 10
9.879756559193339
 20
49.92710497446132
 30
0.0
 10
10.30074722759612
 20
49.33265374833284
 30
0.0
 10
10.32451838645029
 20
48.630887797812
 30
0.0
 10
10.32451838645029
 20
48.630887797812
 30
0.0
 10
10.32451838645029
 20
46.24963779781201
 30
0.0
 10
10.32451838645029
 20
46.24963779781201
 30
0.0
 10
10.32451838645029
 20
46.24963779781201
 30
0.0
 10
10.32555191509612
 20
45.34512797793353
 30
0.0
 10
9.83014718419335
 20
44.52760681907936
 30
0.0
 10
9.83014718419335
 20
44.52760681907936
 30
0.0
 10
9.111844775339179
 20
43.38814148704812
 30
0.0
 10
9.111844775339179
 20
43.38814148704812
 30
0.0
 10
9.111844775339179
 20
43.38814148704812
 30
0.0
 10
8.641244731936396
 20
42.74425314069397
 30
0.0
 10
8.604726719783627
 20
42.01647671925299
 30
0.0
 10
8.604726719783627
 20
42.01647671925299
 30
0.0
 10
8.604726719783627
 20
39.37064338591965
 30
0.0
 10
8.604726719783627
 20
39.37064338591965
 30
0.0
 10
8.604726719783627
 20
39.37064338591965
 30
0.0
 10
8.616440044436401
 20
38.83114143279464
 30
0.0
 10
9.133893386450296
 20
38.21791443626687
 30
0.0
 10
9.133893386450296
 20
38.21791443626687
 30
0.0
 10
9.854951871693344
 20
37.29531786508632
 30
0.0
 10
9.854951871693344
 20
37.29531786508632
 30
0.0
 10
9.854951871693344
 20
37.29531786508632
 30
0.0
 10
10.27611479487042
 20
36.79371196230853
 30
0.0
 10
10.32348485780446
 20
35.759494297378
 30
0.0
 10
10.32348485780446
 20
35.759494297378
 30
0.0
 10
10.32348485780446
 20
33.25766595536409
 30
0.0
 10
10.32348485780446
 20
33.25766595536409
 30
0.0
 10
10.32348485780446
 20
33.25766595536409
 30
0.0
 10
10.32555191509612
 20
32.46460497446133
 30
0.0
 10
9.980181092613491
 20
31.97746847272522
 30
0.0
 10
9.980181092613491
 20
31.97746847272522
 30
0.0
 10
9.582444818741961
 20
31.32496738765578
 30
0.0
 10
9.582444818741961
 20
31.32496738765578
 30
0.0
 10
9.582444818741961
 20
31.32496738765578
 30
0.0
 10
9.427760031415573
 20
30.81578227480854
 30
0.0
 10
9.395031624297516
 20
30.11022671925299
 30
0.0
 10
9.395031624297516
 20
30.11022671925299
 30
0.0
 10
9.395031624297516
 20
28.17477207515576
 30
0.0
 10
9.395031624297516
 20
28.17477207515576
 30
0.0
 10
9.395031624297516
 20
28.17477207515576
 30
0.0
 10
13.55515667855099
 20
12.3166530430377
 30
0.0
 10
13.55515667855099
 20
12.3166530430377
 30
0.0
 10
13.55515667855099
 20
12.3166530430377
 30
0.0
 10
10.36224218202321
 20
11.57078987029466
 30
0.0
 10
10.36224218202321
 20
11.57078987029466
 30
0.0
 10
10.36224218202321
 20
11.57078987029466
 30
0.0
 10
10.40599489469681
 20
11.2900145881766
 30
0.0
 10
10.40599489469681
 20
11.2900145881766
 30
0.0
 10
10.40599489469681
 20
11.2900145881766
 30
0.0
 10
8.55942371414126
 20
26.06292854216966
 30
0.0
 10
8.55942371414126
 20
26.06292854216966
 30
0.0
 10
8.55942371414126
 20
26.06292854216966
 30
0.0
 10
8.545126567873907
 20
26.05328227480854
 30
0.0
 10
8.545126567873907
 20
26.05328227480854
 30
0.0
  0
SPLINE
  5
8F
330
A
100
AcDbEntity
  8
0
100
AcDbSpline
210
0.0
220
0.0
230
1.0
 70
    11
 71
     3
 72
    17
 73
    13
 74
     0
 42
0.0000000001
 43
0.0000000001
 40
0.0
 40
0.0
 40
0.0
 40
0.0
 40
1.0
 40
1.0
 40
1.0
 40
2.0
 40
2.0
 40
2.0
 40
3.0
 40
3.0
 40
3.0
 40
4.0
 40
4.0
 40
4.0
 40
4.0
 10
7.083544807891257
 20
85.20901686682243
 30
0.0
 10
7.009819764488483
 20
85.3447536289752
 30
0.0
 10
6.974335280981534
 20
85.51356330779466
 30
0.0
 10
6.998106439835709
 20
85.6920192539752
 30
0.0
 10
7.042892681155151
 20
86.03101664980853
 30
0.0
 10
7.278537212405154
 20
86.28767626352381
 30
0.0
 10
7.550355246259314
 20
86.3186821228988
 30
0.0
 10
7.624769308759312
 20
86.18260085119741
 30
0.0
 10
7.659220263620426
 20
86.0141356819266
 30
0.0
 10
7.635449104766266
 20
85.83533522619742
 30
0.0
 10
7.590662863446823
 20
85.49633783036409
 30
0.0
 10
7.355362841745431
 20
85.24002272619744
 30
0.0
 10
7.083544807891257
 20
85.20901686682243
 30
0.0
  0
SPLINE
  5
90
330
A
100
AcDbEntity
  8
0
100
AcDbSpline
210
0.0
220
0.0
230
1.0
 70
    11
 71
     3
 72
    17
 73
    13
 74
     0
 42
0.0000000001
 43
0.0000000001
 40
0.0
 40
0.0
 40
0.0
 40
0.0
 40
1.0
 40
1.0
 40
1.0
 40
2.0
 40
2.0
 40
2.0
 40
3.0
 40
3.0
 40
3.0
 40
4.0
 40
4.0
 40
4.0
 40
4.0
 10
6.818961474557923
 20
72.15623908904466
 30
0.0
 10
6.745236431155149
 20
72.29232036074605
 30
0.0
 10
6.7097519476482
 20
72.46078553001687
 30
0.0
 10
6.733523106502374
 20
72.63958598574605
 30
0.0
 10
6.778309347821817
 20
72.97858338157938
 30
0.0
 10
7.01395387907182
 20
73.23489848574602
 30
0.0
 10
7.28577191292598
 20
73.26590434512103
 30
0.0
 10
7.360185975425991
 20
73.13016758296827
 30
0.0
 10
7.394636930287092
 20
72.96135790414881
 30
0.0
 10
7.370865771432931
 20
72.78290195796826
 30
0.0
 10
7.326079530113489
 20
72.44390456213493
 30
0.0
 10
7.090779508412097
 20
72.18724494841966
 30
0.0
 10
6.818961474557923
 20
72.15623908904466
 30
0.0
  0
SPLINE
  5
91
330
A
100
AcDbEntity
  8
0
100
AcDbSpline
210
0.0
220
0.0
230
1.0
 70
    11
 71
     3
 72
    17
 73
    13
 74
     0
 42
0.0000000001
 43
0.0000000001
 40
0.0
 40
0.0
 40
0.0
 40
0.0
 40
1.0
 40
1.0
 40
1.0
 40
2.0
 40
2.0
 40
2.0
 40
3.0
 40
3.0
 40
3.0
 40
4.0
 40
4.0
 40
4.0
 40
4.0
 10
6.930065803985016
 20
59.93355706864536
 30
0.0
 10
7.035485725860013
 20
60.03277581864534
 30
0.0
 10
7.152446717613486
 20
60.10994595753423
 30
0.0
 10
7.28577191292598
 20
60.12527663244743
 30
0.0
 10
7.360185975425991
 20
59.98919536074605
 30
0.0
 10
7.394636930287092
 20
59.82073019147519
 30
0.0
 10
7.370865771432931
 20
59.64192973574604
 30
0.0
 10
7.334864523603073
 20
59.36890591847173
 30
0.0
 10
7.085956374731537
 20
59.14290765458286
 30
0.0
 10
6.972440478464179
 20
59.05798605085021
 30
0.0
 10
6.968823128203766
 20
59.05522997446131
 30
0.0
 10
6.924209141658622
 20
59.92804491586757
 30
0.0
 10
6.930065803985016
 20
59.93355706864536
 30
0.0
  0
SPLINE
  5
92
330
A
100
AcDbEntity
  8
0
100
AcDbSpline
210
0.0
220
0.0
230
1.0
 70
    11
 71
     3
 72
    17
 73
    13
 74
     0
 42
0.0000000001
 43
0.0000000001
 40
0.0
 40
0.0
 40
0.0
 40
0.0
 40
1.0
 40
1.0
 40
1.0
 40
2.0
 40
2.0
 40
2.0
 40
3.0
 40
3.0
 40
3.0
 40
4.0
 40
4.0
 40
4.0
 40
4.0
 10
13.25715591900237
 20
86.00276686682242
 30
0.0
 10
13.18343087559959
 20
86.13850362897521
 30
0.0
 10
13.14794639209265
 20
86.30731330779465
 30
0.0
 10
13.17171755094682
 20
86.48576925397518
 30
0.0
 10
13.21650379226626
 20
86.82476664980852
 30
0.0
 10
13.45214832351627
 20
87.08142626352382
 30
0.0
 10
13.72396635737043
 20
87.11243212289883
 30
0.0
 10
13.79838041987042
 20
86.97635085119744
 30
0.0
 10
13.83283137473154
 20
86.8078856819266
 30
0.0
 10
13.80906021587738
 20
86.62908522619742
 30
0.0
 10
13.76427397455792
 20
86.29008783036409
 30
0.0
 10
13.52897395285654
 20
86.03377272619743
 30
0.0
 10
13.25715591900237
 20
86.00276686682242
 30
0.0
  0
SPLINE
  5
93
330
A
100
AcDbEntity
  8
0
100
AcDbSpline
210
0.0
220
0.0
230
1.0
 70
    11
 71
     3
 72
    17
 73
    13
 74
     0
 42
0.0000000001
 43
0.0000000001
 40
0.0
 40
0.0
 40
0.0
 40
0.0
 40
1.0
 40
1.0
 40
1.0
 40
2.0
 40
2.0
 40
2.0
 40
3.0
 40
3.0
 40
3.0
 40
4.0
 40
4.0
 40
4.0
 40
4.0
 10
12.99257258566903
 20
73.03818353348908
 30
0.0
 10
12.91884754226626
 20
73.17426480519047
 30
0.0
 10
12.88336305875931
 20
73.34272997446131
 30
0.0
 10
12.90713421761349
 20
73.52153043019048
 30
0.0
 10
12.95192045893293
 20
73.86052782602381
 30
0.0
 10
13.18756499018293
 20
74.11684293019049
 30
0.0
 10
13.45938302403709
 20
74.14784878956549
 30
0.0
 10
13.53379708653709
 20
74.01211202741269
 30
0.0
 10
13.5682480413982
 20
73.84330234859326
 30
0.0
 10
13.54447688254404
 20
73.66484640241269
 30
0.0
 10
13.49969064122459
 20
73.32584900657936
 30
0.0
 10
13.26439061952321
 20
73.06918939286409
 30
0.0
 10
12.99257258566903
 20
73.03818353348908
 30
0.0
  0
SPLINE
  5
94
330
A
100
AcDbEntity
  8
0
100
AcDbSpline
210
0.0
220
0.0
230
1.0
 70
    11
 71
     3
 72
    17
 73
    13
 74
     0
 42
0.0000000001
 43
0.0000000001
 40
0.0
 40
0.0
 40
0.0
 40
0.0
 40
1.0
 40
1.0
 40
1.0
 40
2.0
 40
2.0
 40
2.0
 40
3.0
 40
3.0
 40
3.0
 40
4.0
 40
4.0
 40
4.0
 40
4.0
 10
12.99257258566903
 20
60.16179464460019
 30
0.0
 10
12.91884754226626
 20
60.2978759163016
 30
0.0
 10
12.88336305875931
 20
60.46634108557244
 30
0.0
 10
12.90713421761349
 20
60.64514154130158
 30
0.0
 10
12.95192045893293
 20
60.98413893713491
 30
0.0
 10
13.18756499018293
 20
61.24045404130159
 30
0.0
 10
13.45938302403709
 20
61.27180441022521
 30
0.0
 10
13.53379708653709
 20
61.13572313852383
 30
0.0
 10
13.5682480413982
 20
60.96725796925297
 30
0.0
 10
13.54447688254404
 20
60.78845751352382
 30
0.0
 10
13.49969064122459
 20
60.44946011769049
 30
0.0
 10
13.26439061952321
 20
60.19314501352382
 30
0.0
 10
12.99257258566903
 20
60.16179464460019
 30
0.0
  0
SPLINE
  5
95
330
A
100
AcDbEntity
  8
0
100
AcDbSpline
210
0.0
220
0.0
230
1.0
 70
    11
 71
     3
 72
    17
 73
    13
 74
     0
 42
0.0000000001
 43
0.0000000001
 40
0.0
 40
0.0
 40
0.0
 40
0.0
 40
1.0
 40
1.0
 40
1.0
 40
2.0
 40
2.0
 40
2.0
 40
3.0
 40
3.0
 40
3.0
 40
4.0
 40
4.0
 40
4.0
 40
4.0
 10
12.99257258566903
 20
47.37360020015576
 30
0.0
 10
12.91884754226626
 20
47.50968147185715
 30
0.0
 10
12.88336305875931
 20
47.67814664112798
 30
0.0
 10
12.90713421761349
 20
47.85694709685715
 30
0.0
 10
12.95192045893293
 20
48.19594449269049
 30
0.0
 10
13.18756499018293
 20
48.45225959685716
 30
0.0
 10
13.45938302403709
 20
48.48360996578076
 30
0.0
 10
13.53379708653709
 20
48.34752869407937
 30
0.0
 10
13.5682480413982
 20
48.17906352480854
 30
0.0
 10
13.54447688254404
 20
48.00026306907937
 30
0.0
 10
13.49969064122459
 20
47.66126567324604
 30
0.0
 10
13.26439061952321
 20
47.40495056907936
 30
0.0
 10
12.99257258566903
 20
47.37360020015576
 30
0.0
  0
SPLINE
  5
96
330
A
100
AcDbEntity
  8
0
100
AcDbSpline
210
0.0
220
0.0
230
1.0
 70
    11
 71
     3
 72
    17
 73
    13
 74
     0
 42
0.0000000001
 43
0.0000000001
 40
0.0
 40
0.0
 40
0.0
 40
0.0
 40
1.0
 40
1.0
 40
1.0
 40
2.0
 40
2.0
 40
2.0
 40
3.0
 40
3.0
 40
3.0
 40
4.0
 40
4.0
 40
4.0
 40
4.0
 10
12.99257258566903
 20
34.40901686682243
 30
0.0
 10
12.91884754226626
 20
34.54509813852381
 30
0.0
 10
12.88336305875931
 20
34.71356330779464
 30
0.0
 10
12.90713421761349
 20
34.89236376352382
 30
0.0
 10
12.95192045893293
 20
35.23101664980855
 30
0.0
 10
13.18756499018293
 20
35.48767626352383
 30
0.0
 10
13.45938302403709
 20
35.51868212289882
 30
0.0
 10
13.53379708653709
 20
35.38260085119744
 30
0.0
 10
13.5682480413982
 20
35.21413568192661
 30
0.0
 10
13.54447688254404
 20
35.03533522619743
 30
0.0
 10
13.49969064122459
 20
34.6963378303641
 30
0.0
 10
13.26439061952321
 20
34.44002272619743
 30
0.0
 10
12.99257258566903
 20
34.40901686682243
 30
0.0
  0
SPLINE
  5
97
330
A
100
AcDbEntity
  8
0
100
AcDbSpline
210
0.0
220
0.0
230
1.0
 70
    11
 71
     3
 72
    17
 73
    13
 74
     0
 42
0.0000000001
 43
0.0000000001
 40
0.0
 40
0.0
 40
0.0
 40
0.0
 40
1.0
 40
1.0
 40
1.0
 40
2.0
 40
2.0
 40
2.0
 40
3.0
 40
3.0
 40
3.0
 40
4.0
 40
4.0
 40
4.0
 40
4.0
 10
10.61097807612043
 20
79.12360020015576
 30
0.0
 10
10.53725303271765
 20
79.25968147185715
 30
0.0
 10
10.50176854921071
 20
79.42849115067661
 30
0.0
 10
10.52553970806487
 20
79.60694709685715
 30
0.0
 10
10.57067045893292
 20
79.94594449269048
 30
0.0
 10
10.80597048063431
 20
80.20260410640576
 30
0.0
 10
11.0781330240371
 20
80.23360996578075
 30
0.0
 10
11.15220257698848
 20
80.09752869407938
 30
0.0
 10
11.18699804139821
 20
79.92906352480854
 30
0.0
 10
11.16322688254403
 20
79.75026306907937
 30
0.0
 10
11.11844064122459
 20
79.41126567324603
 30
0.0
 10
10.8831406195232
 20
79.15495056907936
 30
0.0
 10
10.61097807612043
 20
79.12360020015576
 30
0.0
  0
SPLINE
  5
98
330
A
100
AcDbEntity
  8
0
100
AcDbSpline
210
0.0
220
0.0
230
1.0
 70
    11
 71
     3
 72
    17
 73
    13
 74
     0
 42
0.0000000001
 43
0.0000000001
 40
0.0
 40
0.0
 40
0.0
 40
0.0
 40
1.0
 40
1.0
 40
1.0
 40
2.0
 40
2.0
 40
2.0
 40
3.0
 40
3.0
 40
3.0
 40
4.0
 40
4.0
 40
4.0
 40
4.0
 10
10.61097807612043
 20
66.33540575571131
 30
0.0
 10
10.53725303271765
 20
66.47148702741269
 30
0.0
 10
10.50176854921071
 20
66.64029670623214
 30
0.0
 10
10.52553970806487
 20
66.8187526524127
 30
0.0
 10
10.57067045893292
 20
67.15775004824603
 30
0.0
 10
10.80597048063431
 20
67.41440966196133
 30
0.0
 10
11.0781330240371
 20
67.44541552133632
 30
0.0
 10
11.15220257698848
 20
67.30933424963492
 30
0.0
 10
11.18699804139821
 20
67.14086908036408
 30
0.0
 10
11.16322688254403
 20
66.96206862463494
 30
0.0
 10
11.11844064122459
 20
66.62307122880161
 30
0.0
 10
10.8831406195232
 20
66.36675612463493
 30
0.0
 10
10.61097807612043
 20
66.33540575571131
 30
0.0
  0
SPLINE
  5
99
330
A
100
AcDbEntity
  8
0
100
AcDbSpline
210
0.0
220
0.0
230
1.0
 70
    11
 71
     3
 72
    17
 73
    13
 74
     0
 42
0.0000000001
 43
0.0000000001
 40
0.0
 40
0.0
 40
0.0
 40
0.0
 40
1.0
 40
1.0
 40
1.0
 40
2.0
 40
2.0
 40
2.0
 40
3.0
 40
3.0
 40
3.0
 40
4.0
 40
4.0
 40
4.0
 40
4.0
 10
10.61097807612043
 20
53.370822422378
 30
0.0
 10
10.53725303271765
 20
53.50690369407939
 30
0.0
 10
10.50176854921071
 20
53.67536886335021
 30
0.0
 10
10.52553970806487
 20
53.85416931907936
 30
0.0
 10
10.57067045893292
 20
54.19316671491269
 30
0.0
 10
10.80597048063431
 20
54.44948181907936
 30
0.0
 10
11.0781330240371
 20
54.48048767845437
 30
0.0
 10
11.15220257698848
 20
54.34440640675298
 30
0.0
 10
11.18699804139821
 20
54.17594123748215
 30
0.0
 10
11.16322688254403
 20
53.99714078175297
 30
0.0
 10
11.11844064122459
 20
53.65848789546827
 30
0.0
 10
10.8831406195232
 20
53.401828281753
 30
0.0
 10
10.61097807612043
 20
53.370822422378
 30
0.0
  0
SPLINE
  5
9A
330
A
100
AcDbEntity
  8
0
100
AcDbSpline
210
0.0
220
0.0
230
1.0
 70
    11
 71
     3
 72
    17
 73
    13
 74
     0
 42
0.0000000001
 43
0.0000000001
 40
0.0
 40
0.0
 40
0.0
 40
0.0
 40
1.0
 40
1.0
 40
1.0
 40
2.0
 40
2.0
 40
2.0
 40
3.0
 40
3.0
 40
3.0
 40
4.0
 40
4.0
 40
4.0
 40
4.0
 10
10.61097807612043
 20
40.40623908904466
 30
0.0
 10
10.53725303271765
 20
40.54232036074604
 30
0.0
 10
10.50176854921071
 20
40.71078553001687
 30
0.0
 10
10.52553970806487
 20
40.88958598574605
 30
0.0
 10
10.57067045893292
 20
41.22858338157938
 30
0.0
 10
10.80597048063431
 20
41.48489848574603
 30
0.0
 10
11.0781330240371
 20
41.51624885466965
 30
0.0
 10
11.15220257698848
 20
41.38016758296827
 30
0.0
 10
11.18699804139821
 20
41.21170241369743
 30
0.0
 10
11.16322688254403
 20
41.03290195796826
 30
0.0
 10
11.11844064122459
 20
40.69390456213493
 30
0.0
 10
10.8831406195232
 20
40.43758945796826
 30
0.0
 10
10.61097807612043
 20
40.40623908904466
 30
0.0
  0
ELLIPSE
  5
9B
330
A
100
AcDbEntity
  8
0
100
AcDbEllipse
 10
18.67853043072112
 20
64.99724454151861
 30
0.0
 11
0.3081637912326389
 21
-1.880936008029514
 31
0.0
210
0.0
220
0.0
230
1.0
 40
0.6054216615035913
 41
0.0
 42
6.283185307179586
  0
SPLINE
  5
9C
330
A
100
AcDbEntity
  8
0
100
AcDbSpline
210
0.0
220
0.0
230
1.0
 70
    11
 71
     3
 72
    17
 73
    13
 74
     0
 42
0.0000000001
 43
0.0000000001
 40
0.0
 40
0.0
 40
0.0
 40
0.0
 40
1.0
 40
1.0
 40
1.0
 40
2.0
 40
2.0
 40
2.0
 40
3.0
 40
3.0
 40
3.0
 40
4.0
 40
4.0
 40
4.0
 40
4.0
 10
4.510919753637793
 20
61.97632643713491
 30
0.0
 10
4.37897259651973
 20
62.79298632211755
 30
0.0
 10
3.967800450252369
 20
63.42929545840227
 30
0.0
 10
3.528550775773211
 20
63.56399869190922
 30
0.0
 10
3.225210118221127
 20
63.2439493212495
 30
0.0
 10
3.083444438967646
 20
62.57473952307243
 30
0.0
 10
3.202300233238489
 20
61.83869487246479
 30
0.0
 10
3.33441964513085
 20
61.02203498748214
 30
0.0
 10
3.745591791398211
 20
60.38572585119742
 30
0.0
 10
4.184841465877369
 20
60.25119487246477
 30
0.0
 10
4.488182123429453
 20
60.57107198835019
 30
0.0
 10
4.629947802682934
 20
61.24028178652729
 30
0.0
 10
4.510919753637793
 20
61.97632643713491
 30
0.0
  0
ELLIPSE
  5
9D
330
A
100
AcDbEntity
  8
0
100
AcDbEllipse
 10
3.525622444610007
 20
61.81294278370611
 30
0.0
 11
0.3167765299479165
 21
-1.958795166015624
 31
0.0
210
0.0
220
0.0
230
0.9999999999999996
 40
0.540111363131885
 41
0.0
 42
6.283185307179586
  0
SPLINE
  5
9E
330
A
100
AcDbEntity
  8
0
100
AcDbSpline
210
0.0
220
0.0
230
1.0
 70
     8
 71
     3
 72
     8
 73
     4
 74
     0
 42
0.0000000001
 43
0.0000000001
 40
0.0
 40
0.0
 40
0.0
 40
0.0
 40
1.0
 40
1.0
 40
1.0
 40
1.0
 10
4.962055007544037
 20
9.825504497030763
 30
0.0
 10
4.962055007544037
 20
9.825504497030763
 30
0.0
 10
4.63959407004404
 20
9.13441834251688
 30
0.0
 10
5.238523920304459
 20
8.765793125502995
 30
0.0
  0
SPLINE
  5
9F
330
A
100
AcDbEntity
  8
0
100
AcDbSpline
210
0.0
220
0.0
230
1.0
 70
     8
 71
     3
 72
     8
 73
     4
 74
     0
 42
0.0000000001
 43
0.0000000001
 40
0.0
 40
0.0
 40
0.0
 40
0.0
 40
1.0
 40
1.0
 40
1.0
 40
1.0
 10
18.4144638617107
 20
12.81998149355854
 30
0.0
 10
18.4144638617107
 20
12.81998149355854
 30
0.0
 10
18.69041601014821
 20
12.45135627654466
 30
0.0
 10
18.64459624018293
 20
12.08273105953077
 30
0.0
  0
SPLINE
  5
A0
330
A
100
AcDbEntity
  8
0
100
AcDbSpline
210
0.0
220
0.0
230
1.0
 70
     8
 71
     3
 72
     8
 73
     4
 74
     0
 42
0.0000000001
 43
0.0000000001
 40
0.0
 40
0.0
 40
0.0
 40
0.0
 40
1.0
 40
1.0
 40
1.0
 40
1.0
 10
5.253337830894736
 20
10.11937114199604
 30
0.0
 10
5.253337830894736
 20
10.11937114199604
 30
0.0
 10
5.791289491050989
 20
9.3645507209891
 30
0.0
 10
5.723593364748907
 20
8.708260030884929
 30
0.0
  0
SPLINE
  5
A1
330
A
100
AcDbEntity
  8
0
100
AcDbSpline
210
0.0
220
0.0
230
1.0
 70
     8
 71
     3
 72
    11
 73
     7
 74
     0
 42
0.0000000001
 43
0.0000000001
 40
0.0
 40
0.0
 40
0.0
 40
0.0
 40
1.0
 40
1.0
 40
1.0
 40
2.0
 40
2.0
 40
2.0
 40
2.0
 10
18.0920029242107
 20
13.05011387203076
 30
0.0
 10
18.0920029242107
 20
13.05011387203076
 30
0.0
 10
17.43640125320377
 20
13.21478943626688
 30
0.0
 10
17.40091676969682
 20
12.45135627654466
 30
0.0
 10
17.37921266813431
 20
11.9814452522391
 30
0.0
 10
17.7695419867107
 20
11.48397346404465
 30
0.0
 10
18.36829958219681
 20
11.6221217930377
 30
0.0
  0
SPLINE
  5
A2
330
A
100
AcDbEntity
  8
0
100
AcDbSpline
210
0.0
220
0.0
230
1.0
 70
     8
 71
     3
 72
     8
 73
     4
 74
     0
 42
0.0000000001
 43
0.0000000001
 40
0.0
 40
0.0
 40
0.0
 40
0.0
 40
1.0
 40
1.0
 40
1.0
 40
1.0
 10
12.30889338645029
 20
2.475737786961317
 30
0.0
 10
12.30889338645029
 20
2.475737786961317
 30
0.0
 10
13.01427668723154
 20
2.00548225310716
 30
0.0
 10
13.60235448671071
 20
1.770182231405769
 30
0.0
  0
SPLINE
  5
A3
330
A
100
AcDbEntity
  8
0
100
AcDbSpline
210
0.0
220
0.0
230
1.0
 70
     8
 71
     3
 72
     8
 73
     4
 74
     0
 42
0.0000000001
 43
0.0000000001
 40
0.0
 40
0.0
 40
0.0
 40
0.0
 40
1.0
 40
1.0
 40
1.0
 40
1.0
 10
20.18765450841209
 20
3.534071120294655
 30
0.0
 10
20.18765450841209
 20
3.534071120294655
 30
0.0
 10
21.01068782004404
 20
3.534415629843266
 30
0.0
 10
21.36346559782182
 20
4.474926697551595
 30
0.0
  0
SPLINE
  5
A4
330
A
100
AcDbEntity
  8
0
100
AcDbSpline
210
0.0
220
0.0
230
1.0
 70
     8
 71
     3
 72
    11
 73
     7
 74
     0
 42
0.0000000001
 43
0.0000000001
 40
0.0
 40
0.0
 40
0.0
 40
0.0
 40
1.0
 40
1.0
 40
1.0
 40
2.0
 40
2.0
 40
2.0
 40
2.0
 10
14.19043228618987
 20
1.887659987482152
 30
0.0
 10
14.19043228618987
 20
1.887659987482152
 30
0.0
 10
13.8376545084121
 20
2.945993320815489
 30
0.0
 10
12.77914892030445
 20
2.945993320815489
 30
0.0
 10
12.1912433755996
 20
2.945993320815489
 30
0.0
 10
12.1912433755996
 20
2.945993320815489
 30
0.0
 10
12.1912433755996
 20
2.945993320815489
 30
0.0
  0
SPLINE
  5
A5
330
A
100
AcDbEntity
  8
0
100
AcDbSpline
210
0.0
220
0.0
230
1.0
 70
     8
 71
     3
 72
    11
 73
     7
 74
     0
 42
0.0000000001
 43
0.0000000001
 40
0.0
 40
0.0
 40
0.0
 40
0.0
 40
1.0
 40
1.0
 40
1.0
 40
2.0
 40
2.0
 40
2.0
 40
2.0
 10
21.01068782004404
 20
5.062659987482149
 30
0.0
 10
21.01068782004404
 20
5.062659987482149
 30
0.0
 10
20.42261002056488
 20
5.180482253107157
 30
0.0
 10
19.9523544867107
 20
4.827704475329383
 30
0.0
 10
19.48209895285654
 20
4.474926697551595
 30
0.0
 10
19.48209895285654
 20
4.004326654148826
 30
0.0
 10
19.59957670893293
 20
3.534071120294655
 30
0.0
  0
SPLINE
  5
A6
330
A
100
AcDbEntity
  8
0
100
AcDbSpline
210
0.0
220
0.0
230
1.0
 70
     8
 71
     3
 72
    11
 73
     7
 74
     0
 42
0.0000000001
 43
0.0000000001
 40
0.0
 40
0.0
 40
0.0
 40
0.0
 40
1.0
 40
1.0
 40
1.0
 40
2.0
 40
2.0
 40
2.0
 40
2.0
 10
14.3061874945232
 20
9.523714132447437
 30
0.0
 10
14.45570463862043
 20
9.612942105537712
 30
0.0
 10
14.57249337559959
 20
9.716983989218263
 30
0.0
 10
14.64759645719681
 20
9.831016649808546
 30
0.0
 10
14.5542343695232
 20
9.971921055190492
 30
0.0
 10
14.39748252490516
 20
10.09801154998216
 30
0.0
 10
14.1942218912246
 20
10.19929735727382
 30
0.0
  0
ELLIPSE
  5
A7
330
A
100
AcDbEntity
  8
0
100
AcDbEllipse
 10
12.94468575841209
 20
10.1241942756766
 30
0.0
 11
1.80488552517361
 21
0.0
 31
0.0
210
0.0
220
0.0
230
1.0
 40
0.5105936247375454
 41
0.0
 42
6.283185307179586
  0
SPLINE
  5
AB
330
A
100
AcDbEntity
  8
0
100
AcDbSpline
210
0.0
220
0.0
230
1.0
 70
     8
 71
     3
 72
    23
 73
    19
 74
     0
 42
0.0000000001
 43
0.0000000001
 40
0.0
 40
0.0
 40
0.0
 40
0.0
 40
1.0
 40
1.0
 40
1.0
 40
2.0
 40
2.0
 40
2.0
 40
3.0
 40
3.0
 40
3.0
 40
4.0
 40
4.0
 40
4.0
 40
5.0
 40
5.0
 40
5.0
 40
6.0
 40
6.0
 40
6.0
 40
6.0
 10
11.67930218636348
 20
3.538549744426603
 30
0.0
 10
11.67930218636348
 20
3.538549744426603
 30
0.0
 10
13.70501833219681
 20
2.211498963176595
 30
0.0
 10
16.28883994678016
 20
2.910164327759929
 30
0.0
 10
16.28883994678016
 20
2.910164327759929
 30
0.0
 10
20.5318195474746
 20
3.621921055190483
 30
0.0
 10
20.68857139209265
 20
8.285202305190495
 30
0.0
 10
20.68857139209265
 20
8.285202305190495
 30
0.0
 10
20.82809775928016
 20
9.472726719252989
 30
0.0
 10
20.19971234261348
 20
9.8916503303641
 30
0.0
 10
20.19971234261348
 20
9.8916503303641
 30
0.0
 10
16.55342328011348
 20
12.57848029998216
 30
0.0
 10
16.55342328011348
 20
12.57848029998216
 30
0.0
 10
16.55342328011348
 20
12.57848029998216
 30
0.0
 10
16.06490874018293
 20
12.92781298227382
 30
0.0
 10
15.36624337559959
 20
12.71835117671827
 30
0.0
 10
15.36624337559959
 20
12.71835117671827
 30
0.0
 10
13.51657160910653
 20
12.3101073616141
 30
0.0
 10
13.51657160910653
 20
12.3101073616141
 30
0.0
  0
POLYLINE
  5
AC
330
A
100
AcDbEntity
  8
0
100
AcDb2dPolyline
 66
     1
 10
0.0
 20
0.0
 30
0.0
  0
VERTEX
  5
AD
330
AC
100
AcDbEntity
  8
0
100
AcDbVertex
100
AcDb2dVertex
 10
8.55942371414126
 20
26.06292854216966
 30
0.0
  0
VERTEX
  5
AE
330
AC
100
AcDbEntity
  8
0
100
AcDbVertex
100
AcDb2dVertex
 10
8.303280864748899
 20
28.11344937550298
 30
0.0
  0
VERTEX
  5
AF
330
AC
100
AcDbEntity
  8
0
100
AcDbVertex
100
AcDb2dVertex
 10
5.69431005311695
 20
88.23019335336757
 30
0.0
  0
VERTEX
  5
B0
330
AC
100
AcDbEntity
  8
0
100
AcDbVertex
100
AcDb2dVertex
 10
2.078337830894739
 20
89.67058777611063
 30
0.0
  0
SEQEND
  5
B1
330
AC
100
AcDbEntity
  8
0
  0
LINE
  5
B2
330
A
100
AcDbEntity
  8
0
100
AcDbLine
 10
16.07179893115516
 20
89.37672113114535
 30
0.0
 11
16.07179893115516
 21
12.73316508730855
 31
0.0
  0
ELLIPSE
  5
B3
330
A
100
AcDbEntity
  8
0
100
AcDbEllipse
 10
7.605132264488489
 20
85.5988294210759
 30
0.0
 11
-0.1040418836805555
 21
-0.7801418728298611
 31
0.0
210
0.0
220
0.0
230
1.0
 40
0.8235108504565262
 41
0.0
 42
6.283185307179586
  0
ELLIPSE
  5
B4
330
A
100
AcDbEntity
  8
0
100
AcDbEllipse
 10
7.340548931155154
 20
72.54622389807242
 30
0.0
 11
-0.1040418836805556
 21
-0.7803141276041666
 31
0.0
210
0.0
220
0.0
230
1.0
 40
0.8233610502378002
 41
0.0
 42
6.283185307179586
  0
SPLINE
  5
B5
330
A
100
AcDbEntity
  8
0
100
AcDbSpline
210
0.0
220
0.0
230
1.0
 70
     8
 71
     3
 72
    17
 73
    13
 74
     0
 42
0.0000000001
 43
0.0000000001
 40
0.0
 40
0.0
 40
0.0
 40
0.0
 40
1.0
 40
1.0
 40
1.0
 40
2.0
 40
2.0
 40
2.0
 40
3.0
 40
3.0
 40
3.0
 40
4.0
 40
4.0
 40
4.0
 40
4.0
 10
6.994833599123907
 20
58.71967767411409
 30
0.0
 10
7.066491585235013
 20
58.66989604433978
 30
0.0
 10
7.147968093481537
 20
58.63682312767311
 30
0.0
 10
7.236507047474589
 20
58.62493754824605
 30
0.0
 10
7.592040901641269
 20
58.57773974008633
 30
0.0
 10
7.925526144696817
 20
58.88883186248214
 30
0.0
 10
7.983059239314869
 20
59.31981330779466
 30
0.0
 10
8.040592333932934
 20
59.75079475310714
 30
0.0
 10
7.799091140356537
 20
60.13802348574604
 30
0.0
 10
7.444590814835706
 20
60.18556580345436
 30
0.0
 10
7.246325569610007
 20
60.21209303869743
 30
0.0
 10
7.054606005807926
 20
60.12682692541618
 30
0.0
 10
6.913873855200293
 20
59.97145311899256
 30
0.0
  0
SPLINE
  5
B6
330
A
100
AcDbEntity
  8
0
100
AcDbSpline
210
0.0
220
0.0
230
1.0
 70
     8
 71
     3
 72
    11
 73
     7
 74
     0
 42
0.0000000001
 43
0.0000000001
 40
0.0
 40
0.0
 40
0.0
 40
0.0
 40
1.0
 40
1.0
 40
1.0
 40
2.0
 40
2.0
 40
2.0
 40
2.0
 10
7.49506146370723
 20
45.68825948835019
 30
0.0
 10
7.741558045738486
 20
45.77628167802034
 30
0.0
 10
7.939823290964184
 20
46.03190776308979
 30
0.0
 10
7.983059239314869
 20
46.35522997446132
 30
0.0
 10
8.040592333932934
 20
46.7862114197738
 30
0.0
 10
7.799091140356537
 20
47.17344015241271
 30
0.0
 10
7.444590814835706
 20
47.22098247012103
 30
0.0
  0
ELLIPSE
  5
B7
330
A
100
AcDbEntity
  8
0
100
AcDbEllipse
 10
13.77874337559959
 20
86.39257942107589
 30
0.0
 11
-0.1040418836805555
 21
-0.7801418728298611
 31
0.0
210
0.0
220
0.0
230
1.0
 40
0.8235108504565262
 41
0.0
 42
6.283185307179586
  0
ELLIPSE
  5
B8
330
A
100
AcDbEntity
  8
0
100
AcDbEllipse
 10
13.51416004226627
 20
73.42816834251689
 30
0.0
 11
-0.1040418836805556
 21
-0.7803141276041666
 31
0.0
210
0.0
220
0.0
230
1.0
 40
0.8233610502378002
 41
0.0
 42
6.283185307179586
  0
ELLIPSE
  5
B9
330
A
100
AcDbEntity
  8
0
100
AcDbEllipse
 10
13.51416004226627
 20
60.55177945362799
 30
0.0
 11
-0.1040418836805556
 21
-0.7803141276041666
 31
0.0
210
0.0
220
0.0
230
1.0
 40
0.8233610502378002
 41
0.0
 42
6.283185307179586
  0
ELLIPSE
  5
BA
330
A
100
AcDbEntity
  8
0
100
AcDbEllipse
 10
13.51416004226627
 20
47.76358500918353
 30
0.0
 11
-0.1040418836805556
 21
-0.7803141276041666
 31
0.0
210
0.0
220
0.0
230
1.0
 40
0.8233610502378002
 41
0.0
 42
6.283185307179586
  0
ELLIPSE
  5
BB
330
A
100
AcDbEntity
  8
0
100
AcDbEllipse
 10
13.51416004226627
 20
34.7988294210759
 30
0.0
 11
-0.1040418836805555
 21
-0.7801418728298611
 31
0.0
210
0.0
220
0.0
230
1.0
 40
0.8235108504565262
 41
0.0
 42
6.283185307179586
  0
SPLINE
  5
BC
330
A
100
AcDbEntity
  8
0
100
AcDbSpline
210
0.0
220
0.0
230
1.0
 70
     8
 71
     3
 72
    11
 73
     7
 74
     0
 42
0.0000000001
 43
0.0000000001
 40
0.0
 40
0.0
 40
0.0
 40
0.0
 40
1.0
 40
1.0
 40
1.0
 40
2.0
 40
2.0
 40
2.0
 40
2.0
 10
6.086878683759323
 20
78.22684184512103
 30
0.0
 10
6.240185432891266
 20
78.35189881126687
 30
0.0
 10
6.352840055287103
 20
78.55050856604119
 30
0.0
 10
6.384018169436401
 20
78.78477505909673
 30
0.0
 10
6.429493429853067
 20
79.12463372880158
 30
0.0
 10
6.288761279245434
 20
79.43744839894048
 30
0.0
 10
6.05328900276973
 20
79.5776637852252
 30
0.0
  0
ELLIPSE
  5
BD
330
A
100
AcDbEntity
  8
0
100
AcDbEllipse
 10
11.13256553271765
 20
79.51375726395785
 30
0.0
 11
-0.1040418836805555
 21
-0.7801418728298611
 31
0.0
210
0.0
220
0.0
230
1.0
 40
0.8235108504565262
 41
0.0
 42
6.283185307179586
  0
ELLIPSE
  5
BE
330
A
100
AcDbEntity
  8
0
100
AcDbEllipse
 10
11.13256553271765
 20
66.7255628195134
 30
0.0
 11
-0.1040418836805555
 21
-0.7801418728298611
 31
0.0
210
0.0
220
0.0
230
1.0
 40
0.8235108504565262
 41
0.0
 42
6.283185307179586
  0
ELLIPSE
  5
BF
330
A
100
AcDbEntity
  8
0
100
AcDbEllipse
 10
11.13256553271765
 20
53.76080723140576
 30
0.0
 11
-0.1040418836805556
 21
-0.7803141276041666
 31
0.0
210
0.0
220
0.0
230
1.0
 40
0.8233610502378002
 41
0.0
 42
6.283185307179586
  0
ELLIPSE
  5
C0
330
A
100
AcDbEntity
  8
0
100
AcDbEllipse
 10
11.13256553271765
 20
40.79622389807243
 30
0.0
 11
-0.1040418836805556
 21
-0.7803141276041666
 31
0.0
210
0.0
220
0.0
230
1.0
 40
0.8233610502378002
 41
0.0
 42
6.283185307179586
  0
ELLIPSE
  5
C1
330
A
100
AcDbEntity
  8
0
100
AcDbEllipse
 10
11.13256553271765
 20
40.79622389807243
 30
0.0
 11
-0.1040418836805556
 21
-0.7803141276041666
 31
0.0
210
0.0
220
0.0
230
1.0
 40
0.8233610502378002
 41
0.0
 42
6.283185307179586
  0
LINE
  5
C2
330
A
100
AcDbEntity
  8
0
100
AcDbLine
 10
4.900560053116961
 20
88.05380446447868
 30
0.0
 11
5.621446283585711
 21
88.14906135466966
 31
0.0
  0
LINE
  5
C3
330
A
100
AcDbEntity
  8
0
100
AcDbLine
 10
20.25414485129404
 20
89.97323941456548
 30
0.0
 11
21.06959895285654
 21
90.08227668670089
 31
0.0
  0
SPLINE
  5
C4
330
A
100
AcDbEntity
  8
0
100
AcDbSpline
210
0.0
220
0.0
230
1.0
 70
     8
 71
     3
 72
    20
 73
    16
 74
     0
 42
0.0000000001
 43
0.0000000001
 40
0.0
 40
0.0
 40
0.0
 40
0.0
 40
1.0
 40
1.0
 40
1.0
 40
2.0
 40
2.0
 40
2.0
 40
3.0
 40
3.0
 40
3.0
 40
4.0
 40
4.0
 40
4.0
 40
5.0
 40
5.0
 40
5.0
 40
5.0
 10
0.5345905435683421
 20
89.92793640892312
 30
0.0
 10
0.5345905435683421
 20
89.92793640892312
 30
0.0
 10
0.4445012966065463
 20
89.77032329043352
 30
0.0
 10
0.8141600422662662
 20
89.61184889807244
 30
0.0
 10
0.8141600422662662
 20
89.61184889807244
 30
0.0
 10
4.867142626901681
 20
87.96681580345437
 30
0.0
 10
4.867142626901681
 20
87.96681580345437
 30
0.0
 10
4.867142626901681
 20
87.96681580345437
 30
0.0
 10
7.451997770130844
 20
27.93602695796827
 30
0.0
 10
7.451997770130844
 20
27.93602695796827
 30
0.0
 10
7.451997770130844
 20
27.93602695796827
 30
0.0
 10
10.33916004226625
 20
4.945182231405766
 30
0.0
 10
10.33916004226625
 20
4.945182231405766
 30
0.0
 10
10.33916004226625
 20
4.945182231405766
 30
0.0
 10
10.42735448671071
 20
1.858376675850209
 30
0.0
 10
13.95513226448848
 20
-0.0819011019275706
 30
0.0
  0
SPLINE
  5
C5
330
A
100
AcDbEntity
  8
0
100
AcDbSpline
210
0.0
220
0.0
230
1.0
 70
     8
 71
     3
 72
    11
 73
     7
 74
     0
 42
0.0000000001
 43
0.0000000001
 40
0.0
 40
0.0
 40
0.0
 40
0.0
 40
1.0
 40
1.0
 40
1.0
 40
2.0
 40
2.0
 40
2.0
 40
2.0
 10
10.37929540467945
 20
11.53564989633632
 30
0.0
 10
10.37929540467945
 20
11.53564989633632
 30
0.0
 10
11.2211044867107
 20
4.768793342516872
 30
0.0
 10
11.2211044867107
 20
4.768793342516872
 30
0.0
 10
11.2211044867107
 20
4.768793342516872
 30
0.0
 10
11.83846559782182
 20
1.417404453627995
 30
0.0
 10
15.27529285476626
 20
0.4352077305377123
 30
0.0
  0
SPLINE
  5
C6
330
A
100
AcDbEntity
  8
0
100
AcDbSpline
210
0.0
220
0.0
230
1.0
 70
     8
 71
     3
 72
    29
 73
    25
 74
     0
 42
0.0000000001
 43
0.0000000001
 40
0.0
 40
0.0
 40
0.0
 40
0.0
 40
1.0
 40
1.0
 40
1.0
 40
2.0
 40
2.0
 40
2.0
 40
3.0
 40
3.0
 40
3.0
 40
4.0
 40
4.0
 40
4.0
 40
5.0
 40
5.0
 40
5.0
 40
6.0
 40
6.0
 40
6.0
 40
7.0
 40
7.0
 40
7.0
 40
8.0
 40
8.0
 40
8.0
 40
8.0
 10
15.27529285476626
 20
0.4352077305377123
 30
0.0
 10
16.18135296761348
 20
0.1868163459891008
 30
0.0
 10
17.87978504226626
 20
0.2788003954682665
 30
0.0
 10
19.1586044867107
 20
0.7118488980724323
 30
0.0
 10
19.1586044867107
 20
0.7118488980724323
 30
0.0
 10
23.9211044867107
 20
2.122960009183543
 30
0.0
 10
23.9211044867107
 20
8.120182231405763
 30
0.0
 10
23.9211044867107
 20
8.120182231405763
 30
0.0
 10
21.92294910476626
 20
31.2391845100516
 30
0.0
 10
21.92294910476626
 20
31.2391845100516
 30
0.0
 10
21.92294910476626
 20
31.2391845100516
 30
0.0
 10
20.30513226448848
 20
89.90588779781202
 30
0.0
 10
20.30513226448848
 20
89.90588779781202
 30
0.0
 10
20.30513226448848
 20
89.90588779781202
 30
0.0
 10
16.60096559782181
 20
91.31699890892312
 30
0.0
 10
16.60096559782181
 20
91.31699890892312
 30
0.0
 10
16.60096559782181
 20
91.31699890892312
 30
0.0
 10
16.07179893115516
 20
91.4344766649995
 30
0.0
 10
15.66011002056487
 20
91.4344766649995
 30
0.0
 10
15.66011002056487
 20
91.4344766649995
 30
0.0
 10
9.2952961099746
 20
90.65433479216965
 30
0.0
 10
9.2952961099746
 20
90.65433479216965
 30
0.0
 10
9.2952961099746
 20
90.65433479216965
 30
0.0
 10
8.568208707630844
 20
91.07377516760367
 30
0.0
 10
8.568208707630844
 20
91.07377516760367
 30
0.0
  0
LINE
  5
C7
330
A
100
AcDbEntity
  8
0
100
AcDbLine
 10
8.033874397735019
 20
90.53634027177032
 30
0.0
 11
2.137076708932923
 21
89.72949890892314
 31
0.0
  0
SPLINE
  5
C8
330
A
100
AcDbEntity
  8
0
100
AcDbSpline
210
0.0
220
0.0
230
1.0
 70
     8
 71
     3
 72
   128
 73
   124
 74
     0
 42
0.0000000001
 43
0.0000000001
 40
0.0
 40
0.0
 40
0.0
 40
0.0
 40
1.0
 40
1.0
 40
1.0
 40
2.0
 40
2.0
 40
2.0
 40
3.0
 40
3.0
 40
3.0
 40
4.0
 40
4.0
 40
4.0
 40
5.0
 40
5.0
 40
5.0
 40
6.0
 40
6.0
 40
6.0
 40
7.0
 40
7.0
 40
7.0
 40
8.0
 40
8.0
 40
8.0
 40
9.0
 40
9.0
 40
9.0
 40
10.0
 40
10.0
 40
10.0
 40
11.0
 40
11.0
 40
11.0
 40
12.0
 40
12.0
 40
12.0
 40
13.0
 40
13.0
 40
13.0
 40
14.0
 40
14.0
 40
14.0
 40
15.0
 40
15.0
 40
15.0
 40
16.0
 40
16.0
 40
16.0
 40
17.0
 40
17.0
 40
17.0
 40
18.0
 40
18.0
 40
18.0
 40
19.0
 40
19.0
 40
19.0
 40
20.0
 40
20.0
 40
20.0
 40
21.0
 40
21.0
 40
21.0
 40
22.0
 40
22.0
 40
22.0
 40
23.0
 40
23.0
 40
23.0
 40
24.0
 40
24.0
 40
24.0
 40
25.0
 40
25.0
 40
25.0
 40
26.0
 40
26.0
 40
26.0
 40
27.0
 40
27.0
 40
27.0
 40
28.0
 40
28.0
 40
28.0
 40
29.0
 40
29.0
 40
29.0
 40
30.0
 40
30.0
 40
30.0
 40
31.0
 40
31.0
 40
31.0
 40
32.0
 40
32.0
 40
32.0
 40
33.0
 40
33.0
 40
33.0
 40
34.0
 40
34.0
 40
34.0
 40
35.0
 40
35.0
 40
35.0
 40
36.0
 40
36.0
 40
36.0
 40
37.0
 40
37.0
 40
37.0
 40
38.0
 40
38.0
 40
38.0
 40
39.0
 40
39.0
 40
39.0
 40
40.0
 40
40.0
 40
40.0
 40
41.0
 40
41.0
 40
41.0
 40
41.0
 10
14.07605511605098
 20
12.42103943626688
 30
0.0
 10
14.07605511605098
 20
12.42103943626688
 30
0.0
 10
10.10058717985306
 20
28.05694980953076
 30
0.0
 10
10.10058717985306
 20
28.05694980953076
 30
0.0
 10
10.10058717985306
 20
28.05694980953076
 30
0.0
 10
10.10058717985306
 20
29.99240445362799
 30
0.0
 10
10.10058717985306
 20
29.99240445362799
 30
0.0
 10
10.13331558697112
 20
30.69796000918355
 30
0.0
 10
10.28800037429751
 20
31.20714512203075
 30
0.0
 10
10.28800037429751
 20
31.20714512203075
 30
0.0
 10
10.28800037429751
 20
31.20714512203075
 30
0.0
 10
10.68573664816904
 20
31.8596462071002
 30
0.0
 10
10.68573664816904
 20
31.8596462071002
 30
0.0
 10
11.03110747065167
 20
32.34678270883633
 30
0.0
 10
11.02904041336
 20
33.1398436897391
 30
0.0
 10
11.02904041336
 20
33.1398436897391
 30
0.0
 10
11.02904041336
 20
33.1398436897391
 30
0.0
 10
11.02904041336
 20
35.64167203175298
 30
0.0
 10
11.02904041336
 20
35.64167203175298
 30
0.0
 10
10.98167035042598
 20
36.67588969668354
 30
0.0
 10
10.56050742724891
 20
37.17749559946132
 30
0.0
 10
10.56050742724891
 20
37.17749559946132
 30
0.0
 10
10.56050742724891
 20
37.17749559946132
 30
0.0
 10
9.839448942005844
 20
38.10009217064187
 30
0.0
 10
9.839448942005844
 20
38.10009217064187
 30
0.0
 10
9.32199559999195
 20
38.71331916716965
 30
0.0
 10
9.310282275339176
 20
39.25282112029466
 30
0.0
 10
9.310282275339176
 20
39.25282112029466
 30
0.0
 10
9.310282275339176
 20
39.25282112029466
 30
0.0
 10
9.310282275339176
 20
41.898654453628
 30
0.0
 10
9.310282275339176
 20
41.898654453628
 30
0.0
 10
9.346800287491959
 20
42.62660312984327
 30
0.0
 10
9.817400330894741
 20
43.27049147619741
 30
0.0
 10
9.817400330894741
 20
43.27049147619741
 30
0.0
 10
9.817400330894741
 20
43.27049147619741
 30
0.0
 10
10.5357027397489
 20
44.40995680822867
 30
0.0
 10
10.5357027397489
 20
44.40995680822867
 30
0.0
 10
11.03110747065167
 20
45.22747796708283
 30
0.0
 10
11.03007394200584
 20
46.13198778696132
 30
0.0
 10
11.03007394200584
 20
46.13198778696132
 30
0.0
 10
11.03007394200584
 20
46.13198778696132
 30
0.0
 10
11.03007394200584
 20
48.51323778696131
 30
0.0
 10
11.03007394200584
 20
48.51323778696131
 30
0.0
 10
11.00630278315168
 20
49.21500373748215
 30
0.0
 10
10.5853121147489
 20
49.80945496361063
 30
0.0
 10
10.5853121147489
 20
49.80945496361063
 30
0.0
 10
10.5853121147489
 20
49.80945496361063
 30
0.0
 10
9.842205018394736
 20
50.80026442541619
 30
0.0
 10
9.842205018394736
 20
50.80026442541619
 30
0.0
 10
9.32199559999195
 20
51.44432502654466
 30
0.0
 10
9.310282275339176
 20
52.21740445362799
 30
0.0
 10
9.310282275339176
 20
52.21740445362799
 30
0.0
 10
9.310282275339176
 20
52.21740445362799
 30
0.0
 10
9.310282275339176
 20
54.66428352263839
 30
0.0
 10
9.310282275339176
 20
54.66428352263839
 30
0.0
 10
9.32199559999195
 20
55.43219530649257
 30
0.0
 10
9.86700970589473
 20
56.22439501352381
 30
0.0
 10
9.86700970589473
 20
56.22439501352381
 30
0.0
 10
9.86700970589473
 20
56.22439501352381
 30
0.0
 10
10.56050742724891
 20
57.41329746578076
 30
0.0
 10
10.56050742724891
 20
57.41329746578076
 30
0.0
 10
11.03110747065167
 20
58.25545105736061
 30
0.0
 10
11.03007394200584
 20
58.96961935163147
 30
0.0
 10
11.03007394200584
 20
58.96961935163147
 30
0.0
 10
11.03007394200584
 20
58.96961935163147
 30
0.0
 10
11.03007394200584
 20
61.58237976829811
 30
0.0
 10
11.03007394200584
 20
61.58237976829811
 30
0.0
 10
10.98167035042598
 20
62.46604676048561
 30
0.0
 10
10.48626561952321
 20
63.08530267411409
 30
0.0
 10
10.48626561952321
 20
63.08530267411409
 30
0.0
 10
10.48626561952321
 20
63.08530267411409
 30
0.0
 10
9.839448942005844
 20
64.07886821230853
 30
0.0
 10
9.839448942005844
 20
64.07886821230853
 30
0.0
 10
9.346800287491959
 20
64.84367941022519
 30
0.0
 10
9.354379497561396
 20
65.50031460987797
 30
0.0
 10
9.354379497561396
 20
65.50031460987797
 30
0.0
 10
9.354379497561396
 20
65.50031460987797
 30
0.0
 10
9.354379497561396
 20
67.82317024138841
 30
0.0
 10
9.354379497561396
 20
67.82317024138841
 30
0.0
 10
9.346800287491959
 20
68.65791687767312
 30
0.0
 10
9.86700970589473
 20
69.32678216630158
 30
0.0
 10
9.86700970589473
 20
69.32678216630158
 30
0.0
 10
9.86700970589473
 20
69.32678216630158
 30
0.0
 10
10.45681005311695
 20
70.26126431690922
 30
0.0
 10
10.45681005311695
 20
70.26126431690922
 30
0.0
 10
10.95652115337738
 20
71.09101556473909
 30
0.0
 10
11.03007394200584
 20
71.88476556473908
 30
0.0
 10
11.03007394200584
 20
71.88476556473908
 30
0.0
 10
11.03007394200584
 20
71.88476556473908
 30
0.0
 10
11.03007394200584
 20
74.55764289763838
 30
0.0
 10
11.03007394200584
 20
74.55764289763838
 30
0.0
 10
11.03110747065167
 20
75.41977804303771
 30
0.0
 10
10.59013524842946
 20
75.98925232689187
 30
0.0
 10
10.59013524842946
 20
75.98925232689187
 30
0.0
 10
10.59013524842946
 20
75.98925232689187
 30
0.0
 10
9.839448942005844
 20
76.91184889807242
 30
0.0
 10
9.839448942005844
 20
76.91184889807242
 30
0.0
 10
9.346800287491959
 20
77.47581102914883
 30
0.0
 10
9.354379497561396
 20
78.1796440369613
 30
0.0
 10
9.354379497561396
 20
78.1796440369613
 30
0.0
 10
9.354379497561396
 20
78.1796440369613
 30
0.0
 10
9.354379497561396
 20
80.67062032819395
 30
0.0
 10
9.354379497561396
 20
80.67062032819395
 30
0.0
 10
9.32199559999195
 20
81.46350905432241
 30
0.0
 10
9.743158523169043
 20
82.1570067756766
 30
0.0
 10
9.743158523169043
 20
82.1570067756766
 30
0.0
 10
9.743158523169043
 20
82.1570067756766
 30
0.0
 10
10.4614609320232
 20
83.46993266543355
 30
0.0
 10
10.4614609320232
 20
83.46993266543355
 30
0.0
 10
10.99062759868987
 20
84.30777988765576
 30
0.0
 10
11.00630278315168
 20
85.10445821881894
 30
0.0
 10
11.00630278315168
 20
85.10445821881894
 30
0.0
 10
11.00630278315168
 20
85.10445821881894
 30
0.0
 10
10.98597671978362
 20
87.23059889807242
 30
0.0
 10
10.98597671978362
 20
87.23059889807242
 30
0.0
 10
10.98167035042598
 20
87.77974711855854
 30
0.0
 10
10.45681005311695
 20
88.29995653696132
 30
0.0
 10
10.45681005311695
 20
88.29995653696132
 30
0.0
 10
10.45681005311695
 20
88.29995653696132
 30
0.0
 10
9.743158523169043
 20
89.14211012854117
 30
0.0
 10
9.743158523169043
 20
89.14211012854117
 30
0.0
 10
9.198144417266263
 20
89.91002191239536
 30
0.0
 10
9.311488058759323
 20
90.81418722272522
 30
0.0
 10
9.311488058759323
 20
90.81418722272522
 30
0.0
  0
SPLINE
  5
C9
330
A
100
AcDbEntity
  8
0
100
AcDbSpline
210
0.0
220
0.0
230
1.0
 70
    11
 71
     3
 72
    17
 73
    13
 74
     0
 42
0.0000000001
 43
0.0000000001
 40
0.0
 40
0.0
 40
0.0
 40
0.0
 40
1.0
 40
1.0
 40
1.0
 40
2.0
 40
2.0
 40
2.0
 40
3.0
 40
3.0
 40
3.0
 40
4.0
 40
4.0
 40
4.0
 40
4.0
 10
19.29640830615516
 20
63.45857877003424
 30
0.0
 10
18.83269845372459
 20
63.58845886986062
 30
0.0
 10
18.40964072803015
 20
64.18859450354118
 30
0.0
 10
18.28286121414126
 20
64.96408549746478
 30
0.0
 10
18.16056032438432
 20
65.71167121795089
 30
0.0
 10
18.35314116205792
 20
66.38690993322867
 30
0.0
 10
18.72314441726625
 20
66.67784824703075
 30
0.0
 10
19.18650976014821
 20
66.54796814720437
 30
0.0
 10
19.60991199539126
 20
65.94731574920091
 30
0.0
 10
19.73669150928015
 20
65.17216926482591
 30
0.0
 10
19.85864788948848
 20
64.4245835443398
 30
0.0
 10
19.66641156136349
 20
63.74951708383632
 30
0.0
 10
19.29640830615516
 20
63.45857877003424
 30
0.0
  0
SPLINE
  5
CA
330
A
100
AcDbEntity
  8
0
100
AcDbSpline
210
0.0
220
0.0
230
1.0
 70
    11
 71
     3
 72
    26
 73
    22
 74
     0
 42
0.0000000001
 43
0.0000000001
 40
0.0
 40
0.0
 40
0.0
 40
0.0
 40
1.0
 40
1.0
 40
1.0
 40
2.0
 40
2.0
 40
2.0
 40
3.0
 40
3.0
 40
3.0
 40
4.0
 40
4.0
 40
4.0
 40
5.0
 40
5.0
 40
5.0
 40
6.0
 40
6.0
 40
6.0
 40
7.0
 40
7.0
 40
7.0
 40
7.0
 10
14.3061874945232
 20
9.523714132447437
 30
0.0
 10
13.9771808755996
 20
9.327343689739095
 30
0.0
 10
13.49107790250932
 20
9.202631233141872
 30
0.0
 10
12.94468575841209
 20
9.202631233141872
 30
0.0
 10
12.14972997499195
 20
9.202631233141872
 30
0.0
 10
11.57302099061695
 20
9.464458490086315
 30
0.0
 10
11.33220881613779
 20
9.829294102065489
 30
0.0
 10
11.57302099061695
 20
10.19412971404465
 30
0.0
 10
12.14972997499195
 20
10.4594020664752
 30
0.0
 10
12.94468575841209
 20
10.4594020664752
 30
0.0
 10
13.43216676969682
 20
10.4594020664752
 30
0.0
 10
13.87141644417598
 20
10.36018331647521
 30
0.0
 10
14.1942218912246
 20
10.19929735727382
 30
0.0
 10
14.1942218912246
 20
10.19929735727382
 30
0.0
 10
14.15184721674542
 20
10.19964186682243
 30
0.0
 10
14.15184721674542
 20
10.19964186682243
 30
0.0
 10
14.15184721674542
 20
10.19964186682243
 30
0.0
 10
14.32272395285653
 20
9.601573290433549
 30
0.0
 10
14.32272395285653
 20
9.601573290433549
 30
0.0
 10
14.32272395285653
 20
9.601573290433549
 30
0.0
 10
14.3061874945232
 20
9.523714132447437
 30
0.0
 10
14.3061874945232
 20
9.523714132447437
 30
0.0
  0
SPLINE
  5
CB
330
A
100
AcDbEntity
  8
0
100
AcDbSpline
210
0.0
220
0.0
230
1.0
 70
    11
 71
     3
 72
   302
 73
   298
 74
     0
 42
0.0000000001
 43
0.0000000001
 40
0.0
 40
0.0
 40
0.0
 40
0.0
 40
1.0
 40
1.0
 40
1.0
 40
2.0
 40
2.0
 40
2.0
 40
3.0
 40
3.0
 40
3.0
 40
4.0
 40
4.0
 40
4.0
 40
5.0
 40
5.0
 40
5.0
 40
6.0
 40
6.0
 40
6.0
 40
7.0
 40
7.0
 40
7.0
 40
8.0
 40
8.0
 40
8.0
 40
9.0
 40
9.0
 40
9.0
 40
10.0
 40
10.0
 40
10.0
 40
11.0
 40
11.0
 40
11.0
 40
12.0
 40
12.0
 40
12.0
 40
13.0
 40
13.0
 40
13.0
 40
14.0
 40
14.0
 40
14.0
 40
15.0
 40
15.0
 40
15.0
 40
16.0
 40
16.0
 40
16.0
 40
17.0
 40
17.0
 40
17.0
 40
18.0
 40
18.0
 40
18.0
 40
19.0
 40
19.0
 40
19.0
 40
20.0
 40
20.0
 40
20.0
 40
21.0
 40
21.0
 40
21.0
 40
22.0
 40
22.0
 40
22.0
 40
23.0
 40
23.0
 40
23.0
 40
24.0
 40
24.0
 40
24.0
 40
25.0
 40
25.0
 40
25.0
 40
26.0
 40
26.0
 40
26.0
 40
27.0
 40
27.0
 40
27.0
 40
28.0
 40
28.0
 40
28.0
 40
29.0
 40
29.0
 40
29.0
 40
30.0
 40
30.0
 40
30.0
 40
31.0
 40
31.0
 40
31.0
 40
32.0
 40
32.0
 40
32.0
 40
33.0
 40
33.0
 40
33.0
 40
34.0
 40
34.0
 40
34.0
 40
35.0
 40
35.0
 40
35.0
 40
36.0
 40
36.0
 40
36.0
 40
37.0
 40
37.0
 40
37.0
 40
38.0
 40
38.0
 40
38.0
 40
39.0
 40
39.0
 40
39.0
 40
40.0
 40
40.0
 40
40.0
 40
41.0
 40
41.0
 40
41.0
 40
42.0
 40
42.0
 40
42.0
 40
43.0
 40
43.0
 40
43.0
 40
44.0
 40
44.0
 40
44.0
 40
45.0
 40
45.0
 40
45.0
 40
46.0
 40
46.0
 40
46.0
 40
47.0
 40
47.0
 40
47.0
 40
48.0
 40
48.0
 40
48.0
 40
49.0
 40
49.0
 40
49.0
 40
50.0
 40
50.0
 40
50.0
 40
51.0
 40
51.0
 40
51.0
 40
52.0
 40
52.0
 40
52.0
 40
53.0
 40
53.0
 40
53.0
 40
54.0
 40
54.0
 40
54.0
 40
55.0
 40
55.0
 40
55.0
 40
56.0
 40
56.0
 40
56.0
 40
57.0
 40
57.0
 40
57.0
 40
58.0
 40
58.0
 40
58.0
 40
59.0
 40
59.0
 40
59.0
 40
60.0
 40
60.0
 40
60.0
 40
61.0
 40
61.0
 40
61.0
 40
62.0
 40
62.0
 40
62.0
 40
63.0
 40
63.0
 40
63.0
 40
64.0
 40
64.0
 40
64.0
 40
65.0
 40
65.0
 40
65.0
 40
66.0
 40
66.0
 40
66.0
 40
67.0
 40
67.0
 40
67.0
 40
68.0
 40
68.0
 40
68.0
 40
69.0
 40
69.0
 40
69.0
 40
70.0
 40
70.0
 40
70.0
 40
71.0
 40
71.0
 40
71.0
 40
72.0
 40
72.0
 40
72.0
 40
73.0
 40
73.0
 40
73.0
 40
74.0
 40
74.0
 40
74.0
 40
75.0
 40
75.0
 40
75.0
 40
76.0
 40
76.0
 40
76.0
 40
77.0
 40
77.0
 40
77.0
 40
78.0
 40
78.0
 40
78.0
 40
79.0
 40
79.0
 40
79.0
 40
80.0
 40
80.0
 40
80.0
 40
81.0
 40
81.0
 40
81.0
 40
82.0
 40
82.0
 40
82.0
 40
83.0
 40
83.0
 40
83.0
 40
84.0
 40
84.0
 40
84.0
 40
85.0
 40
85.0
 40
85.0
 40
86.0
 40
86.0
 40
86.0
 40
87.0
 40
87.0
 40
87.0
 40
88.0
 40
88.0
 40
88.0
 40
89.0
 40
89.0
 40
89.0
 40
90.0
 40
90.0
 40
90.0
 40
91.0
 40
91.0
 40
91.0
 40
92.0
 40
92.0
 40
92.0
 40
93.0
 40
93.0
 40
93.0
 40
94.0
 40
94.0
 40
94.0
 40
95.0
 40
95.0
 40
95.0
 40
96.0
 40
96.0
 40
96.0
 40
97.0
 40
97.0
 40
97.0
 40
98.0
 40
98.0
 40
98.0
 40
99.0
 40
99.0
 40
99.0
 40
99.0
 10
8.545126567873907
 20
26.05328227480854
 30
0.0
 10
8.545126567873907
 20
26.05328227480854
 30
0.0
 10
9.04242610129404
 20
27.93878303435716
 30
0.0
 10
9.04242610129404
 20
27.93878303435716
 30
0.0
 10
9.04242610129404
 20
27.93878303435716
 30
0.0
 10
9.04242610129404
 20
30.40374885466966
 30
0.0
 10
9.04242610129404
 20
30.40374885466966
 30
0.0
 10
9.0162433755996
 20
31.16821554303771
 30
0.0
 10
9.229839295738486
 20
31.61848952307243
 30
0.0
 10
9.229839295738486
 20
31.61848952307243
 30
0.0
 10
9.229839295738486
 20
31.61848952307243
 30
0.0
 10
9.627575569610016
 20
32.27099060814187
 30
0.0
 10
9.627575569610016
 20
32.27099060814187
 30
0.0
 10
9.972946392092651
 20
32.75778260032938
 30
0.0
 10
9.970879334800983
 20
33.55118809078077
 30
0.0
 10
9.970879334800983
 20
33.55118809078077
 30
0.0
 10
9.970879334800983
 20
33.55118809078077
 30
0.0
 10
9.970879334800983
 20
35.2299831211627
 30
0.0
 10
9.970879334800983
 20
35.2299831211627
 30
0.0
 10
9.923509271866961
 20
36.26420078609327
 30
0.0
 10
9.502346348689869
 20
36.76580668887105
 30
0.0
 10
9.502346348689869
 20
36.76580668887105
 30
0.0
 10
9.502346348689869
 20
36.76580668887105
 30
0.0
 10
8.78128786344682
 20
37.68805875050297
 30
0.0
 10
8.78128786344682
 20
37.68805875050297
 30
0.0
 10
8.263834521432926
 20
38.30163025657937
 30
0.0
 10
8.252121196780151
 20
38.84113220970439
 30
0.0
 10
8.252121196780151
 20
38.84113220970439
 30
0.0
 10
8.252121196780151
 20
38.84113220970439
 30
0.0
 10
8.252121196780151
 20
42.30999885466964
 30
0.0
 10
8.252121196780151
 20
42.30999885466964
 30
0.0
 10
8.288639208932934
 20
43.03794753088491
 30
0.0
 10
8.759239252335703
 20
43.68183587723909
 30
0.0
 10
8.759239252335703
 20
43.68183587723909
 30
0.0
 10
8.759239252335703
 20
43.68183587723909
 30
0.0
 10
9.477541661189874
 20
44.82130120927034
 30
0.0
 10
9.477541661189874
 20
44.82130120927034
 30
0.0
 10
9.972946392092651
 20
45.6388223681245
 30
0.0
 10
9.971912863446817
 20
46.54333218800299
 30
0.0
 10
9.971912863446817
 20
46.54333218800299
 30
0.0
 10
9.971912863446817
 20
46.54333218800299
 30
0.0
 10
9.971912863446817
 20
48.16011549963493
 30
0.0
 10
9.971912863446817
 20
48.16011549963493
 30
0.0
 10
9.948141704592657
 20
48.86188145015577
 30
0.0
 10
9.527151036189877
 20
49.45633267628425
 30
0.0
 10
9.527151036189877
 20
49.45633267628425
 30
0.0
 10
9.527151036189877
 20
49.45633267628425
 30
0.0
 10
8.784043939835711
 20
50.4471421380898
 30
0.0
 10
8.784043939835711
 20
50.4471421380898
 30
0.0
 10
8.263834521432926
 20
51.09120273921828
 30
0.0
 10
8.252121196780151
 20
51.86428216630161
 30
0.0
 10
8.252121196780151
 20
51.86428216630161
 30
0.0
 10
8.252121196780151
 20
51.86428216630161
 30
0.0
 10
8.252121196780151
 20
54.95797791282938
 30
0.0
 10
8.252121196780151
 20
54.95797791282938
 30
0.0
 10
8.263834521432926
 20
55.72588969668355
 30
0.0
 10
8.808848627335706
 20
56.5180894037148
 30
0.0
 10
8.808848627335706
 20
56.5180894037148
 30
0.0
 10
8.808848627335706
 20
56.5180894037148
 30
0.0
 10
9.502346348689869
 20
57.70699185597173
 30
0.0
 10
9.502346348689869
 20
57.70699185597173
 30
0.0
 10
9.972946392092651
 20
58.5491454475516
 30
0.0
 10
9.971912863446817
 20
59.26331374182241
 30
0.0
 10
9.971912863446817
 20
59.26331374182241
 30
0.0
 10
9.971912863446817
 20
59.26331374182241
 30
0.0
 10
9.971912863446817
 20
61.22942973574605
 30
0.0
 10
9.971912863446817
 20
61.22942973574605
 30
0.0
 10
9.923509271866961
 20
62.11309672793355
 30
0.0
 10
9.428104540964184
 20
62.732352641562
 30
0.0
 10
9.428104540964184
 20
62.732352641562
 30
0.0
 10
9.428104540964184
 20
62.732352641562
 30
0.0
 10
8.78128786344682
 20
63.72591817975645
 30
0.0
 10
8.78128786344682
 20
63.72591817975645
 30
0.0
 10
8.288639208932934
 20
64.49072937767313
 30
0.0
 10
8.296218419002372
 20
65.14736457732588
 30
0.0
 10
8.296218419002372
 20
65.14736457732588
 30
0.0
 10
8.296218419002372
 20
65.14736457732588
 30
0.0
 10
8.296218419002372
 20
68.41090353131896
 30
0.0
 10
8.296218419002372
 20
68.41090353131896
 30
0.0
 10
8.288639208932934
 20
69.24565016760367
 30
0.0
 10
8.808848627335706
 20
69.91451545623213
 30
0.0
 10
8.808848627335706
 20
69.91451545623213
 30
0.0
 10
8.808848627335706
 20
69.91451545623213
 30
0.0
 10
9.398648974557929
 20
70.8489976068398
 30
0.0
 10
9.398648974557929
 20
70.8489976068398
 30
0.0
 10
9.956926698082241
 20
71.67892110944395
 30
0.0
 10
9.971912863446817
 20
72.47249885466963
 30
0.0
 10
9.971912863446817
 20
72.47249885466963
 30
0.0
 10
9.971912863446817
 20
72.47249885466963
 30
0.0
 10
9.971912863446817
 20
74.08721510900993
 30
0.0
 10
9.971912863446817
 20
74.08721510900993
 30
0.0
 10
9.972946392092651
 20
74.94935025440923
 30
0.0
 10
9.531974169870423
 20
75.51882453826339
 30
0.0
 10
9.531974169870423
 20
75.51882453826339
 30
0.0
 10
9.531974169870423
 20
75.51882453826339
 30
0.0
 10
8.78128786344682
 20
76.44142110944397
 30
0.0
 10
8.78128786344682
 20
76.44142110944397
 30
0.0
 10
8.288639208932934
 20
77.00538324052034
 30
0.0
 10
8.296218419002372
 20
77.70921624833285
 30
0.0
 10
8.296218419002372
 20
77.70921624833285
 30
0.0
 10
8.296218419002372
 20
77.70921624833285
 30
0.0
 10
8.296218419002372
 20
80.96448697315922
 30
0.0
 10
8.296218419002372
 20
80.96448697315922
 30
0.0
 10
8.263834521432926
 20
81.75737569928768
 30
0.0
 10
8.684997444610019
 20
82.45087342064188
 30
0.0
 10
8.684997444610019
 20
82.45087342064188
 30
0.0
 10
8.684997444610019
 20
82.45087342064188
 30
0.0
 10
9.403299853464176
 20
83.76379931039883
 30
0.0
 10
9.403299853464176
 20
83.76379931039883
 30
0.0
 10
9.932466520130844
 20
84.60164653262104
 30
0.0
 10
9.948141704592657
 20
85.39832486378422
 30
0.0
 10
9.948141704592657
 20
85.39832486378422
 30
0.0
 10
9.948141704592657
 20
85.39832486378422
 30
0.0
 10
9.927815641224597
 20
86.93638774355854
 30
0.0
 10
9.927815641224597
 20
86.93638774355854
 30
0.0
 10
9.923509271866961
 20
87.48553596404464
 30
0.0
 10
9.398648974557929
 20
88.00574538244742
 30
0.0
 10
9.398648974557929
 20
88.00574538244742
 30
0.0
 10
9.398648974557929
 20
88.00574538244742
 30
0.0
 10
8.684997444610019
 20
88.84789897402727
 30
0.0
 10
8.684997444610019
 20
88.84789897402727
 30
0.0
 10
8.139983338707239
 20
89.61581075788144
 30
0.0
 10
8.253326980200284
 20
90.59973002871478
 30
0.0
 10
8.253326980200284
 20
90.59973002871478
 30
0.0
 10
8.253326980200284
 20
90.59973002871478
 30
0.0
 10
7.619946175078766
 20
91.01193570362797
 30
0.0
 10
7.619946175078766
 20
91.01193570362797
 30
0.0
 10
7.619946175078766
 20
91.01193570362797
 30
0.0
 10
0.7259655978218121
 20
90.05282112029464
 30
0.0
 10
0.7259655978218121
 20
90.05282112029464
 30
0.0
 10
0.7259655978218121
 20
90.05282112029464
 30
0.0
 10
0.3731878200440377
 20
89.96462667585019
 30
0.0
 10
0.3731878200440377
 20
89.61184889807244
 30
0.0
 10
0.3731878200440377
 20
89.61184889807244
 30
0.0
 10
0.3731878200440377
 20
14.02921000918354
 30
0.0
 10
0.3731878200440377
 20
14.02921000918354
 30
0.0
 10
0.3731878200440377
 20
14.02921000918354
 30
0.0
 10
0.2849933755995977
 20
9.443098898072435
 30
0.0
 10
2.842632264488486
 20
7.414626675850215
 30
0.0
 10
2.842632264488486
 20
7.414626675850215
 30
0.0
 10
12.8086044867107
 20
0.535460009183538
 30
0.0
 10
12.8086044867107
 20
0.535460009183538
 30
0.0
 10
12.8086044867107
 20
0.535460009183538
 30
0.0
 10
14.83707670893292
 20
-1.140234435260893
 30
0.0
 10
18.80582670893292
 20
-0.3464844352609049
 30
0.0
 10
18.80582670893292
 20
-0.3464844352609049
 30
0.0
 10
24.8912433755996
 20
0.9764322314057665
 30
0.0
 10
24.71485448671071
 20
8.561154453627992
 30
0.0
 10
24.71485448671071
 20
8.561154453627992
 30
0.0
 10
22.61610231657181
 20
31.39318027828075
 30
0.0
 10
22.61610231657181
 20
31.39318027828075
 30
0.0
 10
22.61610231657181
 20
31.39318027828075
 30
0.0
 10
21.15469281136349
 20
90.13188606170091
 30
0.0
 10
21.15469281136349
 20
90.13188606170091
 30
0.0
 10
21.15469281136349
 20
90.13188606170091
 30
0.0
 10
16.51277115337737
 20
91.90490445362799
 30
0.0
 10
16.51277115337737
 20
91.90490445362799
 30
0.0
 10
16.51277115337737
 20
91.90490445362799
 30
0.0
 10
15.89541004226626
 20
91.99309889807244
 30
0.0
 10
15.54263226448849
 20
91.90490445362799
 30
0.0
 10
15.54263226448849
 20
91.90490445362799
 30
0.0
 10
8.506369243655157
 20
91.11511631343701
 30
0.0
 10
8.506369243655157
 20
91.11511631343701
 30
0.0
 10
8.506369243655157
 20
91.11511631343701
 30
0.0
 10
8.4925888617107
 20
90.02767192324604
 30
0.0
 10
9.03760296761348
 20
89.25976013939187
 30
0.0
 10
9.03760296761348
 20
89.25976013939187
 30
0.0
 10
9.751254497561404
 20
88.41760654781202
 30
0.0
 10
9.751254497561404
 20
88.41760654781202
 30
0.0
 10
9.751254497561404
 20
88.41760654781202
 30
0.0
 10
10.27611479487042
 20
87.89739712940924
 30
0.0
 10
10.28042116422807
 20
87.3482489089231
 30
0.0
 10
10.28042116422807
 20
87.3482489089231
 30
0.0
 10
10.30074722759612
 20
85.22210822966965
 30
0.0
 10
10.30074722759612
 20
85.22210822966965
 30
0.0
 10
10.30074722759612
 20
85.22210822966965
 30
0.0
 10
10.28507204313432
 20
84.42542989850647
 30
0.0
 10
9.755905376467651
 20
83.58758267628424
 30
0.0
 10
9.755905376467651
 20
83.58758267628424
 30
0.0
 10
9.03760296761348
 20
82.27465678652727
 30
0.0
 10
9.03760296761348
 20
82.27465678652727
 30
0.0
 10
9.03760296761348
 20
82.27465678652727
 30
0.0
 10
8.616440044436401
 20
81.58115906517311
 30
0.0
 10
8.648823942005847
 20
80.78827033904465
 30
0.0
 10
8.648823942005847
 20
80.78827033904465
 30
0.0
 10
8.648823942005847
 20
78.297294047812
 30
0.0
 10
8.648823942005847
 20
78.297294047812
 30
0.0
 10
8.648823942005847
 20
78.297294047812
 30
0.0
 10
8.641244731936396
 20
77.59346103999949
 30
0.0
 10
9.133893386450296
 20
77.02949890892312
 30
0.0
 10
9.133893386450296
 20
77.02949890892312
 30
0.0
 10
9.884579692873899
 20
76.10690233774256
 30
0.0
 10
9.884579692873899
 20
76.10690233774256
 30
0.0
 10
9.884579692873899
 20
76.10690233774256
 30
0.0
 10
10.32555191509612
 20
75.5374280538884
 30
0.0
 10
10.32451838645029
 20
74.67529290848908
 30
0.0
 10
10.32451838645029
 20
74.67529290848908
 30
0.0
 10
10.32451838645029
 20
72.00241557558978
 30
0.0
 10
10.32451838645029
 20
72.00241557558978
 30
0.0
 10
10.32451838645029
 20
72.00241557558978
 30
0.0
 10
10.25096559782181
 20
71.20866557558979
 30
0.0
 10
9.751254497561404
 20
70.37891432775992
 30
0.0
 10
9.751254497561404
 20
70.37891432775992
 30
0.0
 10
9.161454150339181
 20
69.44443217715228
 30
0.0
 10
9.161454150339181
 20
69.44443217715228
 30
0.0
 10
9.161454150339181
 20
69.44443217715228
 30
0.0
 10
8.641244731936396
 20
68.77556688852381
 30
0.0
 10
8.648823942005847
 20
67.94082025223911
 30
0.0
 10
8.648823942005847
 20
67.94082025223911
 30
0.0
 10
8.648823942005847
 20
65.61796462072867
 30
0.0
 10
8.648823942005847
 20
65.61796462072867
 30
0.0
 10
8.648823942005847
 20
65.61796462072867
 30
0.0
 10
8.641244731936396
 20
64.96132942107589
 30
0.0
 10
9.133893386450296
 20
64.19651822315923
 30
0.0
 10
9.133893386450296
 20
64.19651822315923
 30
0.0
 10
9.780710063967646
 20
63.20295268496479
 30
0.0
 10
9.780710063967646
 20
63.20295268496479
 30
0.0
 10
9.780710063967646
 20
63.20295268496479
 30
0.0
 10
10.27611479487042
 20
62.58369677133631
 30
0.0
 10
10.32451838645029
 20
61.7000297791488
 30
0.0
 10
10.32451838645029
 20
61.7000297791488
 30
0.0
 10
10.32451838645029
 20
59.08726936248216
 30
0.0
 10
10.32451838645029
 20
59.08726936248216
 30
0.0
 10
10.32451838645029
 20
59.08726936248216
 30
0.0
 10
10.32555191509612
 20
58.37310106821131
 30
0.0
 10
9.854951871693344
 20
57.53094747663145
 30
0.0
 10
9.854951871693344
 20
57.53094747663145
 30
0.0
 10
9.161454150339181
 20
56.34204502437452
 30
0.0
 10
9.161454150339181
 20
56.34204502437452
 30
0.0
 10
9.161454150339181
 20
56.34204502437452
 30
0.0
 10
8.616440044436401
 20
55.54984531734326
 30
0.0
 10
8.604726719783627
 20
54.7819335334891
 30
0.0
 10
8.604726719783627
 20
54.7819335334891
 30
0.0
 10
8.604726719783627
 20
52.33505446447868
 30
0.0
 10
8.604726719783627
 20
52.33505446447868
 30
0.0
 10
8.604726719783627
 20
52.33505446447868
 30
0.0
 10
8.616440044436401
 20
51.56197503739536
 30
0.0
 10
9.136649462839173
 20
50.91791443626688
 30
0.0
 10
9.136649462839173
 20
50.91791443626688
 30
0.0
 10
9.879756559193339
 20
49.92710497446132
 30
0.0
 10
9.879756559193339
 20
49.92710497446132
 30
0.0
 10
9.879756559193339
 20
49.92710497446132
 30
0.0
 10
10.30074722759612
 20
49.33265374833284
 30
0.0
 10
10.32451838645029
 20
48.630887797812
 30
0.0
 10
10.32451838645029
 20
48.630887797812
 30
0.0
 10
10.32451838645029
 20
46.24963779781201
 30
0.0
 10
10.32451838645029
 20
46.24963779781201
 30
0.0
 10
10.32451838645029
 20
46.24963779781201
 30
0.0
 10
10.32555191509612
 20
45.34512797793353
 30
0.0
 10
9.83014718419335
 20
44.52760681907936
 30
0.0
 10
9.83014718419335
 20
44.52760681907936
 30
0.0
 10
9.111844775339179
 20
43.38814148704812
 30
0.0
 10
9.111844775339179
 20
43.38814148704812
 30
0.0
 10
9.111844775339179
 20
43.38814148704812
 30
0.0
 10
8.641244731936396
 20
42.74425314069397
 30
0.0
 10
8.604726719783627
 20
42.01647671925299
 30
0.0
 10
8.604726719783627
 20
42.01647671925299
 30
0.0
 10
8.604726719783627
 20
39.37064338591965
 30
0.0
 10
8.604726719783627
 20
39.37064338591965
 30
0.0
 10
8.604726719783627
 20
39.37064338591965
 30
0.0
 10
8.616440044436401
 20
38.83114143279464
 30
0.0
 10
9.133893386450296
 20
38.21791443626687
 30
0.0
 10
9.133893386450296
 20
38.21791443626687
 30
0.0
 10
9.854951871693344
 20
37.29531786508632
 30
0.0
 10
9.854951871693344
 20
37.29531786508632
 30
0.0
 10
9.854951871693344
 20
37.29531786508632
 30
0.0
 10
10.27611479487042
 20
36.79371196230853
 30
0.0
 10
10.32348485780446
 20
35.759494297378
 30
0.0
 10
10.32348485780446
 20
35.759494297378
 30
0.0
 10
10.32348485780446
 20
33.25766595536409
 30
0.0
 10
10.32348485780446
 20
33.25766595536409
 30
0.0
 10
10.32348485780446
 20
33.25766595536409
 30
0.0
 10
10.32555191509612
 20
32.46460497446133
 30
0.0
 10
9.980181092613491
 20
31.97746847272522
 30
0.0
 10
9.980181092613491
 20
31.97746847272522
 30
0.0
 10
9.582444818741961
 20
31.32496738765578
 30
0.0
 10
9.582444818741961
 20
31.32496738765578
 30
0.0
 10
9.582444818741961
 20
31.32496738765578
 30
0.0
 10
9.427760031415573
 20
30.81578227480854
 30
0.0
 10
9.395031624297516
 20
30.11022671925299
 30
0.0
 10
9.395031624297516
 20
30.11022671925299
 30
0.0
 10
9.395031624297516
 20
28.17477207515576
 30
0.0
 10
9.395031624297516
 20
28.17477207515576
 30
0.0
 10
9.395031624297516
 20
28.17477207515576
 30
0.0
 10
13.55515667855099
 20
12.3166530430377
 30
0.0
 10
13.55515667855099
 20
12.3166530430377
 30
0.0
 10
13.55515667855099
 20
12.3166530430377
 30
0.0
 10
10.36224218202321
 20
11.57078987029466
 30
0.0
 10
10.36224218202321
 20
11.57078987029466
 30
0.0
 10
10.36224218202321
 20
11.57078987029466
 30
0.0
 10
10.40599489469681
 20
11.2900145881766
 30
0.0
 10
10.40599489469681
 20
11.2900145881766
 30
0.0
 10
10.40599489469681
 20
11.2900145881766
 30
0.0
 10
8.55942371414126
 20
26.06292854216966
 30
0.0
 10
8.55942371414126
 20
26.06292854216966
 30
0.0
 10
8.55942371414126
 20
26.06292854216966
 30
0.0
 10
8.545126567873907
 20
26.05328227480854
 30
0.0
 10
8.545126567873907
 20
26.05328227480854
 30
0.0
  0
SPLINE
  5
CC
330
A
100
AcDbEntity
  8
0
100
AcDbSpline
210
0.0
220
0.0
230
1.0
 70
    11
 71
     3
 72
    17
 73
    13
 74
     0
 42
0.0000000001
 43
0.0000000001
 40
0.0
 40
0.0
 40
0.0
 40
0.0
 40
1.0
 40
1.0
 40
1.0
 40
2.0
 40
2.0
 40
2.0
 40
3.0
 40
3.0
 40
3.0
 40
4.0
 40
4.0
 40
4.0
 40
4.0
 10
7.083544807891257
 20
85.20901686682243
 30
0.0
 10
7.009819764488483
 20
85.3447536289752
 30
0.0
 10
6.974335280981534
 20
85.51356330779466
 30
0.0
 10
6.998106439835709
 20
85.6920192539752
 30
0.0
 10
7.042892681155151
 20
86.03101664980853
 30
0.0
 10
7.278537212405154
 20
86.28767626352381
 30
0.0
 10
7.550355246259314
 20
86.3186821228988
 30
0.0
 10
7.624769308759312
 20
86.18260085119741
 30
0.0
 10
7.659220263620426
 20
86.0141356819266
 30
0.0
 10
7.635449104766266
 20
85.83533522619742
 30
0.0
 10
7.590662863446823
 20
85.49633783036409
 30
0.0
 10
7.355362841745431
 20
85.24002272619744
 30
0.0
 10
7.083544807891257
 20
85.20901686682243
 30
0.0
  0
SPLINE
  5
CD
330
A
100
AcDbEntity
  8
0
100
AcDbSpline
210
0.0
220
0.0
230
1.0
 70
    11
 71
     3
 72
    17
 73
    13
 74
     0
 42
0.0000000001
 43
0.0000000001
 40
0.0
 40
0.0
 40
0.0
 40
0.0
 40
1.0
 40
1.0
 40
1.0
 40
2.0
 40
2.0
 40
2.0
 40
3.0
 40
3.0
 40
3.0
 40
4.0
 40
4.0
 40
4.0
 40
4.0
 10
6.818961474557923
 20
72.15623908904466
 30
0.0
 10
6.745236431155149
 20
72.29232036074605
 30
0.0
 10
6.7097519476482
 20
72.46078553001687
 30
0.0
 10
6.733523106502374
 20
72.63958598574605
 30
0.0
 10
6.778309347821817
 20
72.97858338157938
 30
0.0
 10
7.01395387907182
 20
73.23489848574602
 30
0.0
 10
7.28577191292598
 20
73.26590434512103
 30
0.0
 10
7.360185975425991
 20
73.13016758296827
 30
0.0
 10
7.394636930287092
 20
72.96135790414881
 30
0.0
 10
7.370865771432931
 20
72.78290195796826
 30
0.0
 10
7.326079530113489
 20
72.44390456213493
 30
0.0
 10
7.090779508412097
 20
72.18724494841966
 30
0.0
 10
6.818961474557923
 20
72.15623908904466
 30
0.0
  0
SPLINE
  5
CE
330
A
100
AcDbEntity
  8
0
100
AcDbSpline
210
0.0
220
0.0
230
1.0
 70
    11
 71
     3
 72
    17
 73
    13
 74
     0
 42
0.0000000001
 43
0.0000000001
 40
0.0
 40
0.0
 40
0.0
 40
0.0
 40
1.0
 40
1.0
 40
1.0
 40
2.0
 40
2.0
 40
2.0
 40
3.0
 40
3.0
 40
3.0
 40
4.0
 40
4.0
 40
4.0
 40
4.0
 10
6.930065803985016
 20
59.93355706864536
 30
0.0
 10
7.035485725860013
 20
60.03277581864534
 30
0.0
 10
7.152446717613486
 20
60.10994595753423
 30
0.0
 10
7.28577191292598
 20
60.12527663244743
 30
0.0
 10
7.360185975425991
 20
59.98919536074605
 30
0.0
 10
7.394636930287092
 20
59.82073019147519
 30
0.0
 10
7.370865771432931
 20
59.64192973574604
 30
0.0
 10
7.334864523603073
 20
59.36890591847173
 30
0.0
 10
7.085956374731537
 20
59.14290765458286
 30
0.0
 10
6.972440478464179
 20
59.05798605085021
 30
0.0
 10
6.968823128203766
 20
59.05522997446131
 30
0.0
 10
6.924209141658622
 20
59.92804491586757
 30
0.0
 10
6.930065803985016
 20
59.93355706864536
 30
0.0
  0
SPLINE
  5
CF
330
A
100
AcDbEntity
  8
0
100
AcDbSpline
210
0.0
220
0.0
230
1.0
 70
    11
 71
     3
 72
    17
 73
    13
 74
     0
 42
0.0000000001
 43
0.0000000001
 40
0.0
 40
0.0
 40
0.0
 40
0.0
 40
1.0
 40
1.0
 40
1.0
 40
2.0
 40
2.0
 40
2.0
 40
3.0
 40
3.0
 40
3.0
 40
4.0
 40
4.0
 40
4.0
 40
4.0
 10
13.25715591900237
 20
86.00276686682242
 30
0.0
 10
13.18343087559959
 20
86.13850362897521
 30
0.0
 10
13.14794639209265
 20
86.30731330779465
 30
0.0
 10
13.17171755094682
 20
86.48576925397518
 30
0.0
 10
13.21650379226626
 20
86.82476664980852
 30
0.0
 10
13.45214832351627
 20
87.08142626352382
 30
0.0
 10
13.72396635737043
 20
87.11243212289883
 30
0.0
 10
13.79838041987042
 20
86.97635085119744
 30
0.0
 10
13.83283137473154
 20
86.8078856819266
 30
0.0
 10
13.80906021587738
 20
86.62908522619742
 30
0.0
 10
13.76427397455792
 20
86.29008783036409
 30
0.0
 10
13.52897395285654
 20
86.03377272619743
 30
0.0
 10
13.25715591900237
 20
86.00276686682242
 30
0.0
  0
SPLINE
  5
D0
330
A
100
AcDbEntity
  8
0
100
AcDbSpline
210
0.0
220
0.0
230
1.0
 70
    11
 71
     3
 72
    17
 73
    13
 74
     0
 42
0.0000000001
 43
0.0000000001
 40
0.0
 40
0.0
 40
0.0
 40
0.0
 40
1.0
 40
1.0
 40
1.0
 40
2.0
 40
2.0
 40
2.0
 40
3.0
 40
3.0
 40
3.0
 40
4.0
 40
4.0
 40
4.0
 40
4.0
 10
12.99257258566903
 20
73.03818353348908
 30
0.0
 10
12.91884754226626
 20
73.17426480519047
 30
0.0
 10
12.88336305875931
 20
73.34272997446131
 30
0.0
 10
12.90713421761349
 20
73.52153043019048
 30
0.0
 10
12.95192045893293
 20
73.86052782602381
 30
0.0
 10
13.18756499018293
 20
74.11684293019049
 30
0.0
 10
13.45938302403709
 20
74.14784878956549
 30
0.0
 10
13.53379708653709
 20
74.01211202741269
 30
0.0
 10
13.5682480413982
 20
73.84330234859326
 30
0.0
 10
13.54447688254404
 20
73.66484640241269
 30
0.0
 10
13.49969064122459
 20
73.32584900657936
 30
0.0
 10
13.26439061952321
 20
73.06918939286409
 30
0.0
 10
12.99257258566903
 20
73.03818353348908
 30
0.0
  0
SPLINE
  5
D1
330
A
100
AcDbEntity
  8
0
100
AcDbSpline
210
0.0
220
0.0
230
1.0
 70
    11
 71
     3
 72
    17
 73
    13
 74
     0
 42
0.0000000001
 43
0.0000000001
 40
0.0
 40
0.0
 40
0.0
 40
0.0
 40
1.0
 40
1.0
 40
1.0
 40
2.0
 40
2.0
 40
2.0
 40
3.0
 40
3.0
 40
3.0
 40
4.0
 40
4.0
 40
4.0
 40
4.0
 10
12.99257258566903
 20
60.16179464460019
 30
0.0
 10
12.91884754226626
 20
60.2978759163016
 30
0.0
 10
12.88336305875931
 20
60.46634108557244
 30
0.0
 10
12.90713421761349
 20
60.64514154130158
 30
0.0
 10
12.95192045893293
 20
60.98413893713491
 30
0.0
 10
13.18756499018293
 20
61.24045404130159
 30
0.0
 10
13.45938302403709
 20
61.27180441022521
 30
0.0
 10
13.53379708653709
 20
61.13572313852383
 30
0.0
 10
13.5682480413982
 20
60.96725796925297
 30
0.0
 10
13.54447688254404
 20
60.78845751352382
 30
0.0
 10
13.49969064122459
 20
60.44946011769049
 30
0.0
 10
13.26439061952321
 20
60.19314501352382
 30
0.0
 10
12.99257258566903
 20
60.16179464460019
 30
0.0
  0
SPLINE
  5
D2
330
A
100
AcDbEntity
  8
0
100
AcDbSpline
210
0.0
220
0.0
230
1.0
 70
    11
 71
     3
 72
    17
 73
    13
 74
     0
 42
0.0000000001
 43
0.0000000001
 40
0.0
 40
0.0
 40
0.0
 40
0.0
 40
1.0
 40
1.0
 40
1.0
 40
2.0
 40
2.0
 40
2.0
 40
3.0
 40
3.0
 40
3.0
 40
4.0
 40
4.0
 40
4.0
 40
4.0
 10
12.99257258566903
 20
47.37360020015576
 30
0.0
 10
12.91884754226626
 20
47.50968147185715
 30
0.0
 10
12.88336305875931
 20
47.67814664112798
 30
0.0
 10
12.90713421761349
 20
47.85694709685715
 30
0.0
 10
12.95192045893293
 20
48.19594449269049
 30
0.0
 10
13.18756499018293
 20
48.45225959685716
 30
0.0
 10
13.45938302403709
 20
48.48360996578076
 30
0.0
 10
13.53379708653709
 20
48.34752869407937
 30
0.0
 10
13.5682480413982
 20
48.17906352480854
 30
0.0
 10
13.54447688254404
 20
48.00026306907937
 30
0.0
 10
13.49969064122459
 20
47.66126567324604
 30
0.0
 10
13.26439061952321
 20
47.40495056907936
 30
0.0
 10
12.99257258566903
 20
47.37360020015576
 30
0.0
  0
SPLINE
  5
D3
330
A
100
AcDbEntity
  8
0
100
AcDbSpline
210
0.0
220
0.0
230
1.0
 70
    11
 71
     3
 72
    17
 73
    13
 74
     0
 42
0.0000000001
 43
0.0000000001
 40
0.0
 40
0.0
 40
0.0
 40
0.0
 40
1.0
 40
1.0
 40
1.0
 40
2.0
 40
2.0
 40
2.0
 40
3.0
 40
3.0
 40
3.0
 40
4.0
 40
4.0
 40
4.0
 40
4.0
 10
12.99257258566903
 20
34.40901686682243
 30
0.0
 10
12.91884754226626
 20
34.54509813852381
 30
0.0
 10
12.88336305875931
 20
34.71356330779464
 30
0.0
 10
12.90713421761349
 20
34.89236376352382
 30
0.0
 10
12.95192045893293
 20
35.23101664980855
 30
0.0
 10
13.18756499018293
 20
35.48767626352383
 30
0.0
 10
13.45938302403709
 20
35.51868212289882
 30
0.0
 10
13.53379708653709
 20
35.38260085119744
 30
0.0
 10
13.5682480413982
 20
35.21413568192661
 30
0.0
 10
13.54447688254404
 20
35.03533522619743
 30
0.0
 10
13.49969064122459
 20
34.6963378303641
 30
0.0
 10
13.26439061952321
 20
34.44002272619743
 30
0.0
 10
12.99257258566903
 20
34.40901686682243
 30
0.0
  0
SPLINE
  5
D4
330
A
100
AcDbEntity
  8
0
100
AcDbSpline
210
0.0
220
0.0
230
1.0
 70
    11
 71
     3
 72
    17
 73
    13
 74
     0
 42
0.0000000001
 43
0.0000000001
 40
0.0
 40
0.0
 40
0.0
 40
0.0
 40
1.0
 40
1.0
 40
1.0
 40
2.0
 40
2.0
 40
2.0
 40
3.0
 40
3.0
 40
3.0
 40
4.0
 40
4.0
 40
4.0
 40
4.0
 10
10.61097807612043
 20
79.12360020015576
 30
0.0
 10
10.53725303271765
 20
79.25968147185715
 30
0.0
 10
10.50176854921071
 20
79.42849115067661
 30
0.0
 10
10.52553970806487
 20
79.60694709685715
 30
0.0
 10
10.57067045893292
 20
79.94594449269048
 30
0.0
 10
10.80597048063431
 20
80.20260410640576
 30
0.0
 10
11.0781330240371
 20
80.23360996578075
 30
0.0
 10
11.15220257698848
 20
80.09752869407938
 30
0.0
 10
11.18699804139821
 20
79.92906352480854
 30
0.0
 10
11.16322688254403
 20
79.75026306907937
 30
0.0
 10
11.11844064122459
 20
79.41126567324603
 30
0.0
 10
10.8831406195232
 20
79.15495056907936
 30
0.0
 10
10.61097807612043
 20
79.12360020015576
 30
0.0
  0
SPLINE
  5
D5
330
A
100
AcDbEntity
  8
0
100
AcDbSpline
210
0.0
220
0.0
230
1.0
 70
    11
 71
     3
 72
    17
 73
    13
 74
     0
 42
0.0000000001
 43
0.0000000001
 40
0.0
 40
0.0
 40
0.0
 40
0.0
 40
1.0
 40
1.0
 40
1.0
 40
2.0
 40
2.0
 40
2.0
 40
3.0
 40
3.0
 40
3.0
 40
4.0
 40
4.0
 40
4.0
 40
4.0
 10
10.61097807612043
 20
66.33540575571131
 30
0.0
 10
10.53725303271765
 20
66.47148702741269
 30
0.0
 10
10.50176854921071
 20
66.64029670623214
 30
0.0
 10
10.52553970806487
 20
66.8187526524127
 30
0.0
 10
10.57067045893292
 20
67.15775004824603
 30
0.0
 10
10.80597048063431
 20
67.41440966196133
 30
0.0
 10
11.0781330240371
 20
67.44541552133632
 30
0.0
 10
11.15220257698848
 20
67.30933424963492
 30
0.0
 10
11.18699804139821
 20
67.14086908036408
 30
0.0
 10
11.16322688254403
 20
66.96206862463494
 30
0.0
 10
11.11844064122459
 20
66.62307122880161
 30
0.0
 10
10.8831406195232
 20
66.36675612463493
 30
0.0
 10
10.61097807612043
 20
66.33540575571131
 30
0.0
  0
SPLINE
  5
D6
330
A
100
AcDbEntity
  8
0
100
AcDbSpline
210
0.0
220
0.0
230
1.0
 70
    11
 71
     3
 72
    17
 73
    13
 74
     0
 42
0.0000000001
 43
0.0000000001
 40
0.0
 40
0.0
 40
0.0
 40
0.0
 40
1.0
 40
1.0
 40
1.0
 40
2.0
 40
2.0
 40
2.0
 40
3.0
 40
3.0
 40
3.0
 40
4.0
 40
4.0
 40
4.0
 40
4.0
 10
10.61097807612043
 20
53.370822422378
 30
0.0
 10
10.53725303271765
 20
53.50690369407939
 30
0.0
 10
10.50176854921071
 20
53.67536886335021
 30
0.0
 10
10.52553970806487
 20
53.85416931907936
 30
0.0
 10
10.57067045893292
 20
54.19316671491269
 30
0.0
 10
10.80597048063431
 20
54.44948181907936
 30
0.0
 10
11.0781330240371
 20
54.48048767845437
 30
0.0
 10
11.15220257698848
 20
54.34440640675298
 30
0.0
 10
11.18699804139821
 20
54.17594123748215
 30
0.0
 10
11.16322688254403
 20
53.99714078175297
 30
0.0
 10
11.11844064122459
 20
53.65848789546827
 30
0.0
 10
10.8831406195232
 20
53.401828281753
 30
0.0
 10
10.61097807612043
 20
53.370822422378
 30
0.0
  0
SPLINE
  5
D7
330
A
100
AcDbEntity
  8
0
100
AcDbSpline
210
0.0
220
0.0
230
1.0
 70
    11
 71
     3
 72
    17
 73
    13
 74
     0
 42
0.0000000001
 43
0.0000000001
 40
0.0
 40
0.0
 40
0.0
 40
0.0
 40
1.0
 40
1.0
 40
1.0
 40
2.0
 40
2.0
 40
2.0
 40
3.0
 40
3.0
 40
3.0
 40
4.0
 40
4.0
 40
4.0
 40
4.0
 10
10.61097807612043
 20
40.40623908904466
 30
0.0
 10
10.53725303271765
 20
40.54232036074604
 30
0.0
 10
10.50176854921071
 20
40.71078553001687
 30
0.0
 10
10.52553970806487
 20
40.88958598574605
 30
0.0
 10
10.57067045893292
 20
41.22858338157938
 30
0.0
 10
10.80597048063431
 20
41.48489848574603
 30
0.0
 10
11.0781330240371
 20
41.51624885466965
 30
0.0
 10
11.15220257698848
 20
41.38016758296827
 30
0.0
 10
11.18699804139821
 20
41.21170241369743
 30
0.0
 10
11.16322688254403
 20
41.03290195796826
 30
0.0
 10
11.11844064122459
 20
40.69390456213493
 30
0.0
 10
10.8831406195232
 20
40.43758945796826
 30
0.0
 10
10.61097807612043
 20
40.40623908904466
 30
0.0
  0
LINE
  5
DC
330
A
100
AcDbEntity
  8
LAYER_1
 62
     7
100
AcDbLine
 10
19.67289642465985
 20
9.44088869098055
 30
0.0
 11
11.70869693464249
 21
7.373831399313884
 31
0.0
  0
LINE
  5
DE
330
A
100
AcDbEntity
  8
LAYER_1
 62
     7
100
AcDbLine
 10
19.94505896806262
 20
8.600629901918056
 30
0.0
 11
11.96466752926053
 21
6.504978317716667
 31
0.0
  0
ENDSEC
  0
SECTION
  2
OBJECTS
  0
DICTIONARY
  5
19
330
0
100
AcDbDictionary
281
     1
  3
ACAD_COLOR
350
86
  3
ACAD_GROUP
350
1A
  3
ACAD_LAYOUT
350
1E
  3
ACAD_MATERIAL
350
85
  3
ACAD_MLINESTYLE
350
1B
  3
ACAD_PLOTSETTINGS
350
22
  3
ACAD_PLOTSTYLENAME
350
1F
  3
ACAD_TABLESTYLE
350
87
  3
ACAD_WIPEOUT_VARS
350
23
  3
ACDBHEADERROUNDTRIPXREC
350
101
  3
AcDbVariableDictionary
350
F9
  0
DICTIONARY
  5
DA
330
A
100
AcDbDictionary
280
     1
281
     1
  3
ACAD_SORTENTS
360
DB
  0
DICTIONARY
  5
86
102
{ACAD_REACTORS
330
19
102
}
330
19
100
AcDbDictionary
281
     1
  0
DICTIONARY
  5
1A
102
{ACAD_REACTORS
330
19
102
}
330
19
100
AcDbDictionary
281
     1
  0
DICTIONARY
  5
1E
102
{ACAD_REACTORS
330
19
102
}
330
19
100
AcDbDictionary
281
     1
  3
Layout1
350
21
  3
Model
350
20
  0
DICTIONARY
  5
85
102
{ACAD_REACTORS
330
19
102
}
330
19
100
AcDbDictionary
281
     1
  0
DICTIONARY
  5
1B
102
{ACAD_REACTORS
330
19
102
}
330
19
100
AcDbDictionary
281
     1
  3
Standard
350
1C
  0
DICTIONARY
  5
22
102
{ACAD_REACTORS
330
19
102
}
330
19
100
AcDbDictionary
281
     1
  0
ACDBDICTIONARYWDFLT
  5
1F
102
{ACAD_REACTORS
330
19
102
}
330
19
100
AcDbDictionary
281
     1
  3
Normal
350
1D
100
AcDbDictionaryWithDefault
340
1D
  0
DICTIONARY
  5
87
102
{ACAD_REACTORS
330
19
102
}
330
19
100
AcDbDictionary
281
     1
  3
Standard
350
88
  0
WIPEOUTVARIABLES
  5
23
330
19
100
AcDbWipeoutVariables
 70
     1
  0
DICTIONARY
  5
101
102
{ACAD_REACTORS
330
19
102
}
330
19
100
AcDbDictionary
281
     1
  0
DICTIONARY
  5
F9
102
{ACAD_REACTORS
330
19
102
}
330
19
100
AcDbDictionary
281
     1
  3
CTABLESTYLE
350
FA
  3
DIMASSOC
350
FB
  3
PROJECTNAME
350
FC
  0
SORTENTSTABLE
  5
DB
102
{ACAD_REACTORS
330
DA
102
}
330
DA
100
AcDbSortentsTable
330
A
331
CF
  5
D5
331
A0
  5
A0
331
C5
  5
CB
331
94
  5
94
331
B9
  5
BF
331
DC
  5
B4
331
D0
  5
D6
331
A1
  5
A1
331
C6
  5
CC
331
95
  5
95
331
BA
  5
C0
331
A2
  5
A2
331
D1
  5
D7
331
C7
  5
CD
331
96
  5
96
331
BB
  5
C1
331
DE
  5
AA
331
D2
  5
D8
331
A3
  5
A3
331
97
  5
97
331
BC
  5
C2
331
A4
  5
A4
331
D3
  5
D9
331
8C
  5
8C
331
98
  5
98
331
BD
  5
C3
331
D4
  5
DC
331
A5
  5
A5
331
C8
  5
CE
331
99
  5
99
331
8D
  5
8D
331
BE
  5
C4
331
D5
  5
DD
331
A6
  5
A6
331
B2
  5
B8
331
C9
  5
CF
331
8E
  5
8E
331
9A
  5
9A
331
BF
  5
C5
331
B3
  5
B9
331
D6
  5
DE
331
A7
  5
A7
331
CA
  5
D0
331
9B
  5
9B
331
8F
  5
8F
331
C0
  5
C6
331
D7
  5
DF
331
B4
  5
BA
331
CB
  5
D1
331
9C
  5
9C
331
C1
  5
C7
331
90
  5
90
331
B5
  5
BB
331
CC
  5
D2
331
9D
  5
9D
331
91
  5
91
331
C2
  5
C8
331
B6
  5
BC
331
CD
  5
D3
331
9E
  5
9E
331
C3
  5
C9
331
92
  5
92
331
B7
  5
BD
331
AB
  5
B6
331
CE
  5
D4
331
9F
  5
9F
331
C4
  5
CA
331
93
  5
93
331
AC
  5
B7
331
B8
  5
BE
  0
LAYOUT
  5
21
102
{ACAD_XDICTIONARY
360
104
102
}
102
{ACAD_REACTORS
330
1E
102
}
330
1E
100
AcDbPlotSettings
  1

  2

  4

  6

 40
0.0
 41
0.0
 42
0.0
 43
0.0
 44
0.0
 45
0.0
 46
0.0
 47
0.0
 48
0.0
 49
0.0
140
0.0
141
0.0
142
1.0
143
1.0
 70
     0
 72
     0
 73
     0
 74
     0
  7
monochrome.ctb
 75
     0
147
1.0
148
0.0
149
0.0
100
AcDbLayout
  1
Layout1
 70
     0
 71
     1
 10
0.0
 20
0.0
 11
12.0
 21
9.0
 12
0.0
 22
0.0
 32
0.0
 14
1.000000000000000E+20
 24
1.000000000000000E+20
 34
1.000000000000000E+20
 15
-1.000000000000000E+20
 25
-1.000000000000000E+20
 35
-1.000000000000000E+20
146
0.0
 13
0.0
 23
0.0
 33
0.0
 16
1.0
 26
0.0
 36
0.0
 17
0.0
 27
1.0
 37
0.0
 76
     0
330
B
  0
LAYOUT
  5
20
102
{ACAD_XDICTIONARY
360
102
102
}
102
{ACAD_REACTORS
330
1E
102
}
330
1E
100
AcDbPlotSettings
  1

  2
HP LaserJet 2100 Series PS
  4
Letter
  6

 40
5.365749835968017
 41
5.408073902130126
 42
5.132904052734375
 43
5.090576171875
 44
215.8999938964844
 45
279.3999938964844
 46
67.28855542112636
 47
0.0
 48
0.0
 49
0.0
140
0.0
141
0.0
142
1.0
143
8.738077911617372
 70
 11316
 72
     0
 73
     0
 74
     1
  7
monochrome.ctb
 75
     0
147
0.1144416438162549
148
-9.214117804815588
149
13.98079369699222
100
AcDbLayout
  1
Model
 70
     0
 71
     0
 10
0.0
 20
0.0
 11
0.0
 21
0.0
 12
0.0
 22
0.0
 32
0.0
 14
0.0
 24
0.0
 34
0.0
 15
0.0
 25
0.0
 35
0.0
146
0.0
 13
0.0
 23
0.0
 33
0.0
 16
0.0
 26
0.0
 36
0.0
 17
0.0
 27
0.0
 37
0.0
 76
     0
330
A
1001
ACAD_PSEXT
1000
HP LaserJet 2100 Series PS
1000
HP LaserJet 2100 Series PS
1000
LPT1:
1000

1070
     0
  0
MLINESTYLE
  5
1C
102
{ACAD_REACTORS
330
1B
102
}
330
1B
100
AcDbMlineStyle
  2
STANDARD
 70
     0
  3

 62
     0
 51
90.0
 52
90.0
 71
     2
 49
0.5
 62
   256
  6
BYLAYER
 49
-0.5
 62
   256
  6
BYLAYER
  0
ACDBPLACEHOLDER
  5
1D
102
{ACAD_REACTORS
330
1F
102
}
330
1F
  0
TABLESTYLE
  5
88
102
{ACAD_REACTORS
330
87
102
}
330
87
100
AcDbTableStyle
  3
Standard
 70
     0
 71
     0
 40
1.5
 41
1.5
280
     0
281
     0
  7
Standard
140
4.5
170
     2
 62
     0
 63
     7
283
     0
274
    -2
284
     1
 64
     0
275
    -2
285
     1
 65
     0
276
    -2
286
     1
 66
     0
277
    -2
287
     1
 67
     0
278
    -2
288
     1
 68
     0
279
    -2
289
     1
 69
     0
  7
Standard
140
6.0
170
     5
 62
     0
 63
     7
283
     0
274
    -2
284
     1
 64
     0
275
    -2
285
     1
 65
     0
276
    -2
286
     1
 66
     0
277
    -2
287
     1
 67
     0
278
    -2
288
     1
 68
     0
279
    -2
289
     1
 69
     0
  7
Standard
140
4.5
170
     5
 62
     0
 63
     7
283
     0
274
    -2
284
     1
 64
     0
275
    -2
285
     1
 65
     0
276
    -2
286
     1
 66
     0
277
    -2
287
     1
 67
     0
278
    -2
288
     1
 68
     0
279
    -2
289
     1
 69
     0
  0
DICTIONARYVAR
  5
FA
102
{ACAD_REACTORS
330
F9
102
}
330
F9
100
DictionaryVariables
280
     0
  1
STANDARD
  0
DICTIONARYVAR
  5
FB
102
{ACAD_REACTORS
330
F9
102
}
330
F9
100
DictionaryVariables
280
     0
  1
1
  0
DICTIONARYVAR
  5
FC
102
{ACAD_REACTORS
330
F9
102
}
330
F9
100
DictionaryVariables
280
     0
  1

  0
DICTIONARY
  5
104
330
21
100
AcDbDictionary
280
     1
281
     1
  3
ACAD_XREC_ROUNDTRIP
360
105
  0
DICTIONARY
  5
102
330
20
100
AcDbDictionary
280
     1
281
     1
  3
ACAD_XREC_ROUNDTRIP
360
103
  0
XRECORD
  5
105
102
{ACAD_REACTORS
330
104
102
}
330
104
100
AcDbXrecord
280
     1
102
SHADEPLOT
 70
     0
102
SHADEPLOTRESLEVEL
 70
     2
102
SHADEPLOTCUSTOMDPI
 70
   300
  0
XRECORD
  5
103
102
{ACAD_REACTORS
330
102
102
}
330
102
100
AcDbXrecord
280
     1
102
SHADEPLOT
 70
     0
102
SHADEPLOTRESLEVEL
 70
     2
102
SHADEPLOTCUSTOMDPI
 70
   300
  0
ENDSEC
  0
EOF
