  0
SECTION
  2
HEADER
  9
$ACADVER
  1
AC1015
  9
$ACADMAINTVER
 70
     6
  9
$DWGCODEPAGE
  3
ANSI_1252
  9
$INSBASE
 10
0.0
 20
0.0
 30
0.0
  9
$EXTMIN
 10
60.50729761974283
 20
137.0196174867677
 30
-0.0015258207003612
  9
$EXTMAX
 10
191.2471009803761
 20
219.0067854548169
 30
0.0000000349246008
  9
$LIMMIN
 10
60.38149956597222
 20
136.8913859049479
  9
$LIMMAX
 10
191.2431070963542
 20
218.481410047743
  9
$ORTHOMODE
 70
     0
  9
$REGENMODE
 70
     1
  9
$FILLMODE
 70
     1
  9
$QTEXTMODE
 70
     0
  9
$MIRRTEXT
 70
     1
  9
$LTSCALE
 40
1.0
  9
$ATTMODE
 70
     1
  9
$TEXTSIZE
 40
0.2
  9
$TRACEWID
 40
0.05
  9
$TEXTSTYLE
  7
STANDARD
  9
$CLAYER
  8
0
  9
$CELTYPE
  6
CONTINUOUS
  9
$CECOLOR
 62
   256
  9
$CELTSCALE
 40
1.0
  9
$DISPSILH
 70
     0
  9
$DIMSCALE
 40
1.0
  9
$DIMASZ
 40
0.18
  9
$DIMEXO
 40
0.0625
  9
$DIMDLI
 40
0.38
  9
$DIMRND
 40
0.0
  9
$DIMDLE
 40
0.0
  9
$DIMEXE
 40
0.18
  9
$DIMTP
 40
0.0
  9
$DIMTM
 40
0.0
  9
$DIMTXT
 40
0.18
  9
$DIMCEN
 40
0.09
  9
$DIMTSZ
 40
0.0
  9
$DIMTOL
 70
     0
  9
$DIMLIM
 70
     0
  9
$DIMTIH
 70
     1
  9
$DIMTOH
 70
     1
  9
$DIMSE1
 70
     0
  9
$DIMSE2
 70
     0
  9
$DIMTAD
 70
     0
  9
$DIMZIN
 70
     0
  9
$DIMBLK
  1

  9
$DIMASO
 70
     1
  9
$DIMSHO
 70
     1
  9
$DIMPOST
  1

  9
$DIMAPOST
  1

  9
$DIMALT
 70
     0
  9
$DIMALTD
 70
     2
  9
$DIMALTF
 40
25.4
  9
$DIMLFAC
 40
1.0
  9
$DIMTOFL
 70
     0
  9
$DIMTVP
 40
0.0
  9
$DIMTIX
 70
     0
  9
$DIMSOXD
 70
     0
  9
$DIMSAH
 70
     0
  9
$DIMBLK1
  1

  9
$DIMBLK2
  1

  9
$DIMSTYLE
  2
STANDARD
  9
$DIMCLRD
 70
     0
  9
$DIMCLRE
 70
     0
  9
$DIMCLRT
 70
     0
  9
$DIMTFAC
 40
1.0
  9
$DIMGAP
 40
0.09
  9
$DIMJUST
 70
     0
  9
$DIMSD1
 70
     0
  9
$DIMSD2
 70
     0
  9
$DIMTOLJ
 70
     1
  9
$DIMTZIN
 70
     0
  9
$DIMALTZ
 70
     0
  9
$DIMALTTZ
 70
     0
  9
$DIMUPT
 70
     0
  9
$DIMDEC
 70
     4
  9
$DIMTDEC
 70
     4
  9
$DIMALTU
 70
     2
  9
$DIMALTTD
 70
     2
  9
$DIMTXSTY
  7
STANDARD
  9
$DIMAUNIT
 70
     0
  9
$DIMADEC
 70
     0
  9
$DIMALTRND
 40
0.0
  9
$DIMAZIN
 70
     0
  9
$DIMDSEP
 70
    46
  9
$DIMATFIT
 70
     3
  9
$DIMFRAC
 70
     0
  9
$DIMLDRBLK
  1

  9
$DIMLUNIT
 70
     2
  9
$DIMLWD
 70
    -2
  9
$DIMLWE
 70
    -2
  9
$DIMTMOVE
 70
     0
  9
$LUNITS
 70
     2
  9
$LUPREC
 70
     4
  9
$SKETCHINC
 40
0.1
  9
$FILLETRAD
 40
0.0
  9
$AUNITS
 70
     0
  9
$AUPREC
 70
     0
  9
$MENU
  1
acad
  9
$ELEVATION
 40
0.0
  9
$PELEVATION
 40
0.0
  9
$THICKNESS
 40
0.0
  9
$LIMCHECK
 70
     0
  9
$CHAMFERA
 40
0.0
  9
$CHAMFERB
 40
0.0
  9
$CHAMFERC
 40
0.0
  9
$CHAMFERD
 40
0.0
  9
$SKPOLY
 70
     0
  9
$TDCREATE
 40
2444971.666666667
  9
$TDUCREATE
 40
2444972.0
  9
$TDUPDATE
 40
2452219.400314583
  9
$TDUUPDATE
 40
2452219.733647917
  9
$TDINDWG
 40
0.0021658565
  9
$TDUSRTIMER
 40
0.0021658565
  9
$USRTIMER
 70
     1
  9
$ANGBASE
 50
0.0
  9
$ANGDIR
 70
     0
  9
$PDMODE
 70
     0
  9
$PDSIZE
 40
0.0
  9
$PLINEWID
 40
0.0
  9
$SPLFRAME
 70
     0
  9
$SPLINETYPE
 70
     6
  9
$SPLINESEGS
 70
     8
  9
$HANDSEED
  5
124
  9
$SURFTAB1
 70
     6
  9
$SURFTAB2
 70
     6
  9
$SURFTYPE
 70
     6
  9
$SURFU
 70
     6
  9
$SURFV
 70
     6
  9
$UCSBASE
  2

  9
$UCSNAME
  2

  9
$UCSORG
 10
0.0
 20
0.0
 30
0.0
  9
$UCSXDIR
 10
1.0
 20
0.0
 30
0.0
  9
$UCSYDIR
 10
0.0
 20
1.0
 30
0.0
  9
$UCSORTHOREF
  2

  9
$UCSORTHOVIEW
 70
     0
  9
$UCSORGTOP
 10
0.0
 20
0.0
 30
0.0
  9
$UCSORGBOTTOM
 10
0.0
 20
0.0
 30
0.0
  9
$UCSORGLEFT
 10
0.0
 20
0.0
 30
0.0
  9
$UCSORGRIGHT
 10
0.0
 20
0.0
 30
0.0
  9
$UCSORGFRONT
 10
0.0
 20
0.0
 30
0.0
  9
$UCSORGBACK
 10
0.0
 20
0.0
 30
0.0
  9
$PUCSBASE
  2

  9
$PUCSNAME
  2

  9
$PUCSORG
 10
0.0
 20
0.0
 30
0.0
  9
$PUCSXDIR
 10
1.0
 20
0.0
 30
0.0
  9
$PUCSYDIR
 10
0.0
 20
1.0
 30
0.0
  9
$PUCSORTHOREF
  2

  9
$PUCSORTHOVIEW
 70
     0
  9
$PUCSORGTOP
 10
0.0
 20
0.0
 30
0.0
  9
$PUCSORGBOTTOM
 10
0.0
 20
0.0
 30
0.0
  9
$PUCSORGLEFT
 10
0.0
 20
0.0
 30
0.0
  9
$PUCSORGRIGHT
 10
0.0
 20
0.0
 30
0.0
  9
$PUCSORGFRONT
 10
0.0
 20
0.0
 30
0.0
  9
$PUCSORGBACK
 10
0.0
 20
0.0
 30
0.0
  9
$USERI1
 70
     0
  9
$USERI2
 70
     0
  9
$USERI3
 70
     0
  9
$USERI4
 70
     0
  9
$USERI5
 70
     0
  9
$USERR1
 40
0.0
  9
$USERR2
 40
0.0
  9
$USERR3
 40
0.0
  9
$USERR4
 40
0.0
  9
$USERR5
 40
0.0
  9
$WORLDVIEW
 70
     1
  9
$SHADEDGE
 70
     3
  9
$SHADEDIF
 70
    70
  9
$TILEMODE
 70
     1
  9
$MAXACTVP
 70
    16
  9
$PINSBASE
 10
0.0
 20
0.0
 30
0.0
  9
$PLIMCHECK
 70
     0
  9
$PEXTMIN
 10
1.000000000000000E+20
 20
1.000000000000000E+20
 30
1.000000000000000E+20
  9
$PEXTMAX
 10
-1.000000000000000E+20
 20
-1.000000000000000E+20
 30
-1.000000000000000E+20
  9
$PLIMMIN
 10
0.0
 20
0.0
  9
$PLIMMAX
 10
12.0
 20
9.0
  9
$UNITMODE
 70
     0
  9
$VISRETAIN
 70
     0
  9
$PLINEGEN
 70
     1
  9
$PSLTSCALE
 70
     0
  9
$TREEDEPTH
 70
  3020
  9
$CMLSTYLE
  2
STANDARD
  9
$CMLJUST
 70
     0
  9
$CMLSCALE
 40
1.0
  9
$PROXYGRAPHICS
 70
     0
  9
$MEASUREMENT
 70
     0
  9
$CELWEIGHT
370
    -1
  9
$ENDCAPS
280
     0
  9
$JOINSTYLE
280
     0
  9
$LWDISPLAY
290
     0
  9
$INSUNITS
 70
     0
  9
$HYPERLINKBASE
  1

  9
$STYLESHEET
  1

  9
$XEDIT
290
     1
  9
$CEPSNTYPE
380
     0
  9
$PSTYLEMODE
290
     1
  9
$FINGERPRINTGUID
  2
{0AE0CFBA-D1C7-11D5-923F-00805F198AD5}
  9
$VERSIONGUID
  2
{0AE0CFBC-D1C7-11D5-923F-00805F198AD5}
  9
$EXTNAMES
290
     1
  9
$PSVPSCALE
 40
0.0
  9
$OLESTARTUP
290
     0
  0
ENDSEC
  0
SECTION
  2
CLASSES
  0
CLASS
  1
LWPOLYLINE
  2
AcDbPolyline
  3
AutoCAD 2000
 90
        0
280
     0
281
     1
  0
CLASS
  1
IMAGE
  2
AcDbRasterImage
  3
ISM
 90
      127
280
     0
281
     1
  0
CLASS
  1
OLE2FRAME
  2
AcDbOle2Frame
  3
AutoCAD 2000
 90
        0
280
     0
281
     1
  0
CLASS
  1
HATCH
  2
AcDbHatch
  3
AutoCAD 2000
 90
        0
280
     0
281
     1
  0
CLASS
  1
DICTIONARYVAR
  2
AcDbDictionaryVar
  3
AutoCAD 2000
 90
        0
280
     0
281
     0
  0
CLASS
  1
RASTERVARIABLES
  2
AcDbRasterVariables
  3
ISM
 90
        0
280
     0
281
     0
  0
CLASS
  1
IMAGEDEF
  2
AcDbRasterImageDef
  3
ISM
 90
        0
280
     0
281
     0
  0
CLASS
  1
IMAGEDEF_REACTOR
  2
AcDbRasterImageDefReactor
  3
ISM
 90
        1
280
     0
281
     0
  0
CLASS
  1
IDBUFFER
  2
AcDbIdBuffer
  3
AutoCAD 2000
 90
        0
280
     0
281
     0
  0
CLASS
  1
SPATIAL_FILTER
  2
AcDbSpatialFilter
  3
AutoCAD 2000
 90
        0
280
     0
281
     0
  0
CLASS
  1
XRECORD
  2
AcDbXrecord
  3
AutoCAD 2000
 90
        0
280
     0
281
     0
  0
CLASS
  1
SORTENTSTABLE
  2
AcDbSortentsTable
  3
AutoCAD 2000
 90
        0
280
     0
281
     0
  0
CLASS
  1
LAYER_INDEX
  2
AcDbLayerIndex
  3
AutoCAD 2000
 90
        0
280
     0
281
     0
  0
CLASS
  1
SPATIAL_INDEX
  2
AcDbSpatialIndex
  3
AutoCAD 2000
 90
        0
280
     0
281
     0
  0
CLASS
  1
OBJECT_PTR
  2
CAseDLPNTableRecord
  3
ASE-LPNTableRecord
 90
        1
280
     1
281
     0
  0
CLASS
  1
LAYOUT
  2
AcDbLayout
  3
ObjectDBX Classes
 90
        0
280
     0
281
     0
  0
CLASS
  1
PLOTSETTINGS
  2
AcDbPlotSettings
  3
AutoCAD 2000
 90
        0
280
     0
281
     0
  0
CLASS
  1
ACDBDICTIONARYWDFLT
  2
AcDbDictionaryWithDefault
  3
AutoCAD 2000
 90
        0
280
     0
281
     0
  0
CLASS
  1
ACDBPLACEHOLDER
  2
AcDbPlaceHolder
  3
ObjectDBX Classes
 90
        0
280
     0
281
     0
  0
CLASS
  1
VBAPROJECT
  2
AcDbVbaProject
  3
ObjectDBX Classes
 90
        0
280
     0
281
     0
  0
CLASS
  1
WIPEOUT
  2
AcDbWipeout
  3
WipeOut|AutoCAD Express Tool|expresstools@autodesk.com
 90
      127
280
     0
281
     1
  0
CLASS
  1
WIPEOUTVARIABLES
  2
AcDbWipeoutVariables
  3
WipeOut|AutoCAD Express Tool|expresstools@autodesk.com
 90
        0
280
     0
281
     0
  0
CLASS
  1
RTEXT
  2
RText
  3
RText|AutoCAD Express Tool|expresstools@autodesk.com
 90
        0
280
     0
281
     1
  0
CLASS
  1
ARCALIGNEDTEXT
  2
AcDbArcAlignedText
  3
ATEXT|AutoCAD Express Tool|expresstools@autodesk.com
 90
        0
280
     0
281
     1
  0
CLASS
  1
LONG_TRANSACTION
  2
AcDbLongTransaction
  3
AutoCAD 2000
 90
        0
280
     1
281
     0
  0
CLASS
  1
LWPOLYLINE
  2
AcDbPolyline
  3
AutoCAD 2000
 90
        0
280
     0
281
     1
  0
CLASS
  1
HATCH
  2
AcDbHatch
  3
AutoCAD 2000
 90
        0
280
     0
281
     1
  0
CLASS
  1
XRECORD
  2
AcDbXrecord
  3
AutoCAD 2000
 90
        0
280
     0
281
     0
  0
ENDSEC
  0
SECTION
  2
TABLES
  0
TABLE
  2
VPORT
  5
7
330
0
100
AcDbSymbolTable
 70
     2
  0
VPORT
  5
F0
330
7
100
AcDbSymbolTableRecord
100
AcDbViewportTableRecord
  2
*Active
 70
     0
 10
0.0
 20
0.0
 11
1.0
 21
1.0
 12
125.8771993000595
 22
178.0132014707923
 13
0.0
 23
0.0
 14
1.0
 24
1.0
 15
0.0
 25
0.0
 16
0.0
 26
0.0
 36
1.0
 17
0.0
 27
0.0
 37
0.0
 40
83.27830447148307
 41
1.836842105263158
 42
50.0
 43
0.0
 44
0.0
 50
0.0
 51
0.0
 71
     0
 72
   100
 73
     1
 74
     1
 75
     0
 76
     0
 77
     0
 78
     0
281
     0
 65
     1
110
0.0
120
0.0
130
0.0
111
1.0
121
0.0
131
0.0
112
0.0
122
1.0
132
0.0
 79
     0
146
0.0
  0
ENDTAB
  0
TABLE
  2
LTYPE
  5
4
330
0
100
AcDbSymbolTable
 70
     1
  0
LTYPE
  5
11
330
4
100
AcDbSymbolTableRecord
100
AcDbLinetypeTableRecord
  2
BYBLOCK
 70
     0
  3

 72
    65
 73
     0
 40
0.0
  0
LTYPE
  5
12
330
4
100
AcDbSymbolTableRecord
100
AcDbLinetypeTableRecord
  2
BYLAYER
 70
     0
  3

 72
    65
 73
     0
 40
0.0
  0
LTYPE
  5
13
330
4
100
AcDbSymbolTableRecord
100
AcDbLinetypeTableRecord
  2
CONTINUOUS
 70
     0
  3
Solid line
 72
    65
 73
     0
 40
0.0
  0
ENDTAB
  0
TABLE
  2
LAYER
  5
2
330
0
100
AcDbSymbolTable
 70
     2
  0
LAYER
  5
14
330
2
100
AcDbSymbolTableRecord
100
AcDbLayerTableRecord
  2
0
 70
     0
 62
     7
  6
CONTINUOUS
370
    -3
390
0
  0
LAYER
  5
21
330
2
100
AcDbSymbolTableRecord
100
AcDbLayerTableRecord
  2
LAYER_1
 70
     0
 62
     5
  6
CONTINUOUS
370
    -3
390
0
  0
ENDTAB
  0
TABLE
  2
STYLE
  5
3
330
0
100
AcDbSymbolTable
 70
     5
  0
STYLE
  5
17
330
3
100
AcDbSymbolTableRecord
100
AcDbTextStyleTableRecord
  2
STANDARD
 70
     0
 40
0.0
 41
1.0
 50
0.0
 71
     0
 42
0.2
  3
txt
  4

  0
STYLE
  5
1D
330
3
100
AcDbSymbolTableRecord
100
AcDbTextStyleTableRecord
  2
STD
 70
     0
 40
0.0
 41
1.0
 50
0.0
 71
     0
 42
0.2
  3
txt
  4

  0
STYLE
  5
1E
330
3
100
AcDbSymbolTableRecord
100
AcDbTextStyleTableRecord
  2
TATESTD
 70
     4
 40
0.0
 41
1.0
 50
0.0
 71
     0
 42
0.2
  3
txt
  4

  0
STYLE
  5
1F
330
3
100
AcDbSymbolTableRecord
100
AcDbTextStyleTableRecord
  2
KANJISTD
 70
     0
 40
0.0
 41
1.0
 50
0.0
 71
     0
 42
0.2
  3
txt
  4
extfont
  0
STYLE
  5
20
330
3
100
AcDbSymbolTableRecord
100
AcDbTextStyleTableRecord
  2
KANJITATE
 70
     4
 40
0.0
 41
1.0
 50
0.0
 71
     0
 42
0.2
  3
txt
  4
extfont
  0
ENDTAB
  0
TABLE
  2
VIEW
  5
5
330
0
100
AcDbSymbolTable
 70
     0
  0
ENDTAB
  0
TABLE
  2
UCS
  5
6
330
0
100
AcDbSymbolTable
 70
     0
  0
ENDTAB
  0
TABLE
  2
APPID
  5
8
330
0
100
AcDbSymbolTable
 70
     1
  0
APPID
  5
16
330
8
100
AcDbSymbolTableRecord
100
AcDbRegAppTableRecord
  2
ACAD
 70
     0
  0
ENDTAB
  0
TABLE
  2
DIMSTYLE
  5
9
330
0
100
AcDbSymbolTable
 70
     1
100
AcDbDimStyleTable
  0
DIMSTYLE
105
18
330
9
100
AcDbSymbolTableRecord
100
AcDbDimStyleTableRecord
  2
STANDARD
 70
     0
  3

  4

289
     0
340
17
  0
ENDTAB
  0
TABLE
  2
BLOCK_RECORD
  5
1
330
0
100
AcDbSymbolTable
 70
     5
  0
BLOCK_RECORD
  5
A
330
1
100
AcDbSymbolTableRecord
100
AcDbBlockTableRecord
  2
*MODEL_SPACE
340
EB
  0
BLOCK_RECORD
  5
B
330
1
100
AcDbSymbolTableRecord
100
AcDbBlockTableRecord
  2
*PAPER_SPACE
340
EC
  0
BLOCK_RECORD
  5
22
330
1
100
AcDbSymbolTableRecord
100
AcDbBlockTableRecord
  2
AI9-BLK1
340
0
102
{BLKREFS
331
23
102
}
  0
BLOCK_RECORD
  5
3D
330
1
100
AcDbSymbolTableRecord
100
AcDbBlockTableRecord
  2
AI9-BLK2
340
0
102
{BLKREFS
331
3E
102
}
  0
BLOCK_RECORD
  5
43
330
1
100
AcDbSymbolTableRecord
100
AcDbBlockTableRecord
  2
AI9-BLK3
340
0
102
{BLKREFS
331
44
102
}
  0
BLOCK_RECORD
  5
5E
330
1
100
AcDbSymbolTableRecord
100
AcDbBlockTableRecord
  2
AI9-BLK4
340
0
102
{BLKREFS
331
5F
102
}
  0
BLOCK_RECORD
  5
68
330
1
100
AcDbSymbolTableRecord
100
AcDbBlockTableRecord
  2
AI9-BLK5
340
0
102
{BLKREFS
331
69
102
}
  0
ENDTAB
  0
ENDSEC
  0
SECTION
  2
BLOCKS
  0
BLOCK
  5
D
330
A
100
AcDbEntity
  8
0
100
AcDbBlockBegin
  2
*MODEL_SPACE
 70
     0
 10
0.0
 20
0.0
 30
0.0
  3
*MODEL_SPACE
  1

  4

  0
ENDBLK
  5
E
330
A
100
AcDbEntity
  8
0
100
AcDbBlockEnd
  0
BLOCK
  5
F
330
B
100
AcDbEntity
 67
     1
  8
0
100
AcDbBlockBegin
  2
*PAPER_SPACE
 70
     0
 10
0.0
 20
0.0
 30
0.0
  3
*PAPER_SPACE
  1

  4

  0
ENDBLK
  5
10
330
B
100
AcDbEntity
 67
     1
  8
0
100
AcDbBlockEnd
  0
BLOCK
  5
24
330
22
100
AcDbEntity
  8
LAYER_1
 62
     7
100
AcDbBlockBegin
  2
AI9-BLK1
 70
     0
 10
0.0
 20
0.0
 30
0.0
  3
AI9-BLK1
  1

  4

  0
HATCH
  5
3B
330
22
100
AcDbEntity
  8
LAYER_1
 62
     7
100
AcDbHatch
 10
0.0
 20
0.0
 30
0.0
210
0.0
220
0.0
230
1.0
  2
SOLID
 70
     1
 71
     0
 91
        2
 92
       16
 93
        1
 72
     4
 94
        3
 73
     0
 74
     0
 95
       29
 96
       25
 40
0.0
 40
0.0
 40
0.0
 40
0.0
 40
1.0
 40
1.0
 40
1.0
 40
2.0
 40
2.0
 40
2.0
 40
3.0
 40
3.0
 40
3.0
 40
4.0
 40
4.0
 40
4.0
 40
5.0
 40
5.0
 40
5.0
 40
6.0
 40
6.0
 40
6.0
 40
7.0
 40
7.0
 40
7.0
 40
8.0
 40
8.0
 40
8.0
 40
8.0
 10
-13.58590630425347
 20
3.348460557725694
 10
-13.58590630425347
 20
3.348460557725694
 10
-13.09945882161458
 20
3.348460557725694
 10
-13.09945882161458
 20
3.348460557725694
 10
-13.09945882161458
 20
3.348460557725694
 10
-12.80886501736111
 20
4.489476182725694
 10
-12.80886501736111
 20
4.489476182725694
 10
-12.80886501736111
 20
4.489476182725694
 10
-11.55622829861111
 20
4.489476182725694
 10
-11.55622829861111
 20
4.489476182725694
 10
-11.55622829861111
 20
4.489476182725694
 10
-11.24461941189236
 20
3.348460557725694
 10
-11.24461941189236
 20
3.348460557725694
 10
-11.24461941189236
 20
3.348460557725694
 10
-10.75817192925347
 20
3.348460557725694
 10
-10.75817192925347
 20
3.348460557725694
 10
-10.75817192925347
 20
3.348460557725694
 10
-11.87352159288194
 20
7.317210557725693
 10
-11.87352159288194
 20
7.317210557725693
 10
-11.87352159288194
 20
7.317210557725693
 10
-12.45488145616319
 20
7.317210557725693
 10
-12.45488145616319
 20
7.317210557725693
 10
-12.45488145616319
 20
7.317210557725693
 10
-13.58590630425347
 20
3.348460557725694
 10
-13.58590630425347
 20
3.348460557725694
 97
        0
 92
        1
 93
        1
 72
     4
 94
        3
 73
     0
 74
     0
 95
       17
 96
       13
 40
0.0
 40
0.0
 40
0.0
 40
0.0
 40
1.0
 40
1.0
 40
1.0
 40
2.0
 40
2.0
 40
2.0
 40
3.0
 40
3.0
 40
3.0
 40
4.0
 40
4.0
 40
4.0
 40
4.0
 10
-11.65665283203125
 20
4.886351182725694
 10
-11.65665283203125
 20
4.886351182725694
 10
-12.7032728407118
 20
4.886351182725694
 10
-12.7032728407118
 20
4.886351182725694
 10
-12.7032728407118
 20
4.886351182725694
 10
-12.17996283637153
 20
7.003017849392361
 10
-12.17996283637153
 20
7.003017849392361
 10
-12.17996283637153
 20
7.003017849392361
 10
-12.16928304036458
 20
7.003017849392361
 10
-12.16928304036458
 20
7.003017849392361
 10
-12.16928304036458
 20
7.003017849392361
 10
-11.65665283203125
 20
4.886351182725694
 10
-11.65665283203125
 20
4.886351182725694
 97
        0
 75
     0
 76
     1
 98
        1
 10
0.0
 20
0.0
  0
HATCH
  5
3A
330
22
100
AcDbEntity
  8
LAYER_1
 62
     7
100
AcDbHatch
 10
0.0
 20
0.0
 30
0.0
210
0.0
220
0.0
230
1.0
  2
SOLID
 70
     1
 71
     0
 91
        2
 92
       16
 93
        1
 72
     4
 94
        3
 73
     0
 74
     0
 95
       38
 96
       34
 40
0.0
 40
0.0
 40
0.0
 40
0.0
 40
1.0
 40
1.0
 40
1.0
 40
2.0
 40
2.0
 40
2.0
 40
3.0
 40
3.0
 40
3.0
 40
4.0
 40
4.0
 40
4.0
 40
5.0
 40
5.0
 40
5.0
 40
6.0
 40
6.0
 40
6.0
 40
7.0
 40
7.0
 40
7.0
 40
8.0
 40
8.0
 40
8.0
 40
9.0
 40
9.0
 40
9.0
 40
10.0
 40
10.0
 40
10.0
 40
11.0
 40
11.0
 40
11.0
 40
11.0
 10
-9.900343153211805
 20
3.652662489149305
 10
-9.900343153211805
 20
3.652662489149305
 10
-9.88966335720486
 20
3.652662489149305
 10
-9.88966335720486
 20
3.652662489149305
 10
-9.741351996527778
 20
3.414434136284722
 10
-9.57185329861111
 20
3.266122775607639
 10
-9.275402832031249
 20
3.266122775607639
 10
-8.483719889322916
 20
3.266122775607639
 10
-8.336786566840278
 20
4.17803955078125
 10
-8.336786566840278
 20
5.016403537326388
 10
-8.336786566840278
 20
5.621534559461805
 10
-8.551760525173611
 20
6.374287923177083
 10
-9.296417914496526
 20
6.374287923177083
 10
-9.534818522135415
 20
6.35809597439236
 10
-9.77339138454861
 20
6.241996256510416
 10
-9.905683051215277
 20
5.966388617621528
 10
-9.905683051215277
 20
5.966388617621528
 10
-9.916190592447915
 20
5.966388617621528
 10
-9.916190592447915
 20
5.966388617621528
 10
-9.916190592447915
 20
5.966388617621528
 10
-9.916190592447915
 20
6.291950141059028
 10
-9.916190592447915
 20
6.291950141059028
 10
-9.916190592447915
 20
6.291950141059028
 10
-10.32064480251736
 20
6.291950141059028
 10
-10.32064480251736
 20
6.291950141059028
 10
-10.32064480251736
 20
6.291950141059028
 10
-10.32064480251736
 20
2.350933159722222
 10
-10.32064480251736
 20
2.350933159722222
 10
-10.32064480251736
 20
2.350933159722222
 10
-9.900343153211805
 20
2.350933159722222
 10
-9.900343153211805
 20
2.350933159722222
 10
-9.900343153211805
 20
2.350933159722222
 10
-9.900343153211805
 20
3.652662489149305
 10
-9.900343153211805
 20
3.652662489149305
 97
        0
 92
        1
 93
        1
 72
     4
 94
        3
 73
     0
 74
     0
 95
       17
 96
       13
 40
0.0
 40
0.0
 40
0.0
 40
0.0
 40
1.0
 40
1.0
 40
1.0
 40
2.0
 40
2.0
 40
2.0
 40
3.0
 40
3.0
 40
3.0
 40
4.0
 40
4.0
 40
4.0
 40
4.0
 10
-8.766734483506944
 20
4.873259819878472
 10
-8.766734483506944
 20
4.077098253038194
 10
-8.904710557725693
 20
3.620967610677083
 10
-9.338792588975693
 20
3.620967610677083
 10
-9.916190592447915
 20
3.620967610677083
 10
-9.900343153211805
 20
4.416956922743055
 10
-9.900343153211805
 20
4.825372992621527
 10
-9.900343153211805
 20
5.244813368055555
 10
-9.88966335720486
 20
6.019443088107638
 10
-9.344304741753472
 20
6.019443088107638
 10
-8.809281412760416
 20
6.019443088107638
 10
-8.766734483506944
 20
5.26048855251736
 10
-8.766734483506944
 20
4.873259819878472
 97
        0
 75
     0
 76
     1
 98
        1
 10
0.0
 20
0.0
  0
HATCH
  5
39
330
22
100
AcDbEntity
  8
LAYER_1
 62
     7
100
AcDbHatch
 10
0.0
 20
0.0
 30
0.0
210
0.0
220
0.0
230
1.0
  2
SOLID
 70
     1
 71
     0
 91
        2
 92
       16
 93
        1
 72
     4
 94
        3
 73
     0
 74
     0
 95
       38
 96
       34
 40
0.0
 40
0.0
 40
0.0
 40
0.0
 40
1.0
 40
1.0
 40
1.0
 40
2.0
 40
2.0
 40
2.0
 40
3.0
 40
3.0
 40
3.0
 40
4.0
 40
4.0
 40
4.0
 40
5.0
 40
5.0
 40
5.0
 40
6.0
 40
6.0
 40
6.0
 40
7.0
 40
7.0
 40
7.0
 40
8.0
 40
8.0
 40
8.0
 40
9.0
 40
9.0
 40
9.0
 40
10.0
 40
10.0
 40
10.0
 40
11.0
 40
11.0
 40
11.0
 40
11.0
 10
-7.254509819878471
 20
3.652662489149305
 10
-7.254509819878471
 20
3.652662489149305
 10
-7.243830023871527
 20
3.652662489149305
 10
-7.243830023871527
 20
3.652662489149305
 10
-7.095518663194444
 20
3.414434136284722
 10
-6.926019965277777
 20
3.266122775607639
 10
-6.629569498697916
 20
3.266122775607639
 10
-5.837886555989583
 20
3.266122775607639
 10
-5.690953233506944
 20
4.17803955078125
 10
-5.690953233506944
 20
5.016403537326388
 10
-5.690953233506944
 20
5.621534559461805
 10
-5.905927191840277
 20
6.374287923177083
 10
-6.650584581163193
 20
6.374287923177083
 10
-6.888985188802082
 20
6.35809597439236
 10
-7.127558051215277
 20
6.241996256510416
 10
-7.259849717881944
 20
5.966388617621528
 10
-7.259849717881944
 20
5.966388617621528
 10
-7.270357259114583
 20
5.966388617621528
 10
-7.270357259114583
 20
5.966388617621528
 10
-7.270357259114583
 20
5.966388617621528
 10
-7.270357259114583
 20
6.291950141059028
 10
-7.270357259114583
 20
6.291950141059028
 10
-7.270357259114583
 20
6.291950141059028
 10
-7.674811469184027
 20
6.291950141059028
 10
-7.674811469184027
 20
6.291950141059028
 10
-7.674811469184027
 20
6.291950141059028
 10
-7.674811469184027
 20
2.350933159722222
 10
-7.674811469184027
 20
2.350933159722222
 10
-7.674811469184027
 20
2.350933159722222
 10
-7.254509819878471
 20
2.350933159722222
 10
-7.254509819878471
 20
2.350933159722222
 10
-7.254509819878471
 20
2.350933159722222
 10
-7.254509819878471
 20
3.652662489149305
 10
-7.254509819878471
 20
3.652662489149305
 97
        0
 92
        1
 93
        1
 72
     4
 94
        3
 73
     0
 74
     0
 95
       17
 96
       13
 40
0.0
 40
0.0
 40
0.0
 40
0.0
 40
1.0
 40
1.0
 40
1.0
 40
2.0
 40
2.0
 40
2.0
 40
3.0
 40
3.0
 40
3.0
 40
4.0
 40
4.0
 40
4.0
 40
4.0
 10
-6.12090115017361
 20
4.873259819878472
 10
-6.12090115017361
 20
4.077098253038194
 10
-6.258877224392361
 20
3.620967610677083
 10
-6.692959255642361
 20
3.620967610677083
 10
-7.270357259114583
 20
3.620967610677083
 10
-7.254509819878471
 20
4.416956922743055
 10
-7.254509819878471
 20
4.825372992621527
 10
-7.254509819878471
 20
5.244813368055555
 10
-7.243830023871527
 20
6.019443088107638
 10
-6.698471408420138
 20
6.019443088107638
 10
-6.163448079427083
 20
6.019443088107638
 10
-6.12090115017361
 20
5.26048855251736
 10
-6.12090115017361
 20
4.873259819878472
 97
        0
 75
     0
 76
     1
 98
        1
 10
0.0
 20
0.0
  0
HATCH
  5
38
330
22
100
AcDbEntity
  8
LAYER_1
 62
     7
100
AcDbHatch
 10
0.0
 20
0.0
 30
0.0
210
0.0
220
0.0
230
1.0
  2
SOLID
 70
     1
 71
     0
 91
        1
 92
        1
 93
        1
 72
     4
 94
        3
 73
     0
 74
     0
 95
       17
 96
       13
 40
0.0
 40
0.0
 40
0.0
 40
0.0
 40
1.0
 40
1.0
 40
1.0
 40
2.0
 40
2.0
 40
2.0
 40
3.0
 40
3.0
 40
3.0
 40
4.0
 40
4.0
 40
4.0
 40
4.0
 10
-5.028978135850694
 20
3.348460557725694
 10
-5.028978135850694
 20
3.348460557725694
 10
-5.028978135850694
 20
7.317210557725693
 10
-5.028978135850694
 20
7.317210557725693
 10
-5.028978135850694
 20
7.317210557725693
 10
-4.608676486545138
 20
7.317210557725693
 10
-4.608676486545138
 20
7.317210557725693
 10
-4.608676486545138
 20
7.317210557725693
 10
-4.608676486545138
 20
3.348460557725694
 10
-4.608676486545138
 20
3.348460557725694
 10
-4.608676486545138
 20
3.348460557725694
 10
-5.028978135850694
 20
3.348460557725694
 10
-5.028978135850694
 20
3.348460557725694
 97
        0
 75
     0
 76
     1
 98
        1
 10
0.0
 20
0.0
  0
HATCH
  5
37
330
22
100
AcDbEntity
  8
LAYER_1
 62
     7
100
AcDbHatch
 10
0.0
 20
0.0
 30
0.0
210
0.0
220
0.0
230
1.0
  2
SOLID
 70
     1
 71
     0
 91
        2
 92
        1
 93
        1
 72
     4
 94
        3
 73
     0
 74
     0
 95
       17
 96
       13
 40
0.0
 40
0.0
 40
0.0
 40
0.0
 40
1.0
 40
1.0
 40
1.0
 40
2.0
 40
2.0
 40
2.0
 40
3.0
 40
3.0
 40
3.0
 40
4.0
 40
4.0
 40
4.0
 40
4.0
 10
-3.854200575086805
 20
6.788043891059028
 10
-3.854200575086805
 20
6.788043891059028
 10
-3.854200575086805
 20
7.317210557725693
 10
-3.854200575086805
 20
7.317210557725693
 10
-3.854200575086805
 20
7.317210557725693
 10
-3.43389892578125
 20
7.317210557725693
 10
-3.43389892578125
 20
7.317210557725693
 10
-3.43389892578125
 20
7.317210557725693
 10
-3.43389892578125
 20
6.788043891059028
 10
-3.43389892578125
 20
6.788043891059028
 10
-3.43389892578125
 20
6.788043891059028
 10
-3.854200575086805
 20
6.788043891059028
 10
-3.854200575086805
 20
6.788043891059028
 97
        0
 92
        1
 93
        1
 72
     4
 94
        3
 73
     0
 74
     0
 95
       17
 96
       13
 40
0.0
 40
0.0
 40
0.0
 40
0.0
 40
1.0
 40
1.0
 40
1.0
 40
2.0
 40
2.0
 40
2.0
 40
3.0
 40
3.0
 40
3.0
 40
4.0
 40
4.0
 40
4.0
 40
4.0
 10
-3.854200575086805
 20
3.348460557725694
 10
-3.854200575086805
 20
3.348460557725694
 10
-3.854200575086805
 20
6.291950141059028
 10
-3.854200575086805
 20
6.291950141059028
 10
-3.854200575086805
 20
6.291950141059028
 10
-3.43389892578125
 20
6.291950141059028
 10
-3.43389892578125
 20
6.291950141059028
 10
-3.43389892578125
 20
6.291950141059028
 10
-3.43389892578125
 20
3.348460557725694
 10
-3.43389892578125
 20
3.348460557725694
 10
-3.43389892578125
 20
3.348460557725694
 10
-3.854200575086805
 20
3.348460557725694
 10
-3.854200575086805
 20
3.348460557725694
 97
        0
 75
     0
 76
     1
 98
        1
 10
0.0
 20
0.0
  0
HATCH
  5
36
330
22
100
AcDbEntity
  8
LAYER_1
 62
     7
100
AcDbHatch
 10
0.0
 20
0.0
 30
0.0
210
0.0
220
0.0
230
1.0
  2
SOLID
 70
     1
 71
     0
 91
        2
 92
       16
 93
        1
 72
     4
 94
        3
 73
     0
 74
     0
 95
       29
 96
       25
 40
0.0
 40
0.0
 40
0.0
 40
0.0
 40
1.0
 40
1.0
 40
1.0
 40
2.0
 40
2.0
 40
2.0
 40
3.0
 40
3.0
 40
3.0
 40
4.0
 40
4.0
 40
4.0
 40
5.0
 40
5.0
 40
5.0
 40
6.0
 40
6.0
 40
6.0
 40
7.0
 40
7.0
 40
7.0
 40
8.0
 40
8.0
 40
8.0
 40
8.0
 10
-1.382172309027778
 20
4.324456108940971
 10
-1.355817328559028
 20
3.991143120659722
 10
-1.466921657986111
 20
3.620967610677083
 10
-1.869481065538194
 20
3.620967610677083
 10
-2.456869845920139
 20
3.620967610677083
 10
-2.388656955295139
 20
4.382850477430555
 10
-2.399164496527777
 20
4.779725477430556
 10
-2.399164496527777
 20
4.779725477430556
 10
-0.9687608506944444
 20
4.779725477430556
 10
-0.9687608506944444
 20
4.779725477430556
 10
-0.9896036783854166
 20
5.471328396267361
 10
-0.9368937174479166
 20
6.374287923177083
 10
-1.888429090711805
 20
6.374287923177083
 10
-2.666676161024305
 20
6.374287923177083
 10
-2.829112413194444
 20
5.444801161024305
 10
-2.829112413194444
 20
4.822100151909722
 10
-2.829112413194444
 20
3.636642795138889
 10
-2.435854763454861
 20
3.266122775607639
 10
-1.877749294704861
 20
3.266122775607639
 10
-1.261421712239583
 20
3.266122775607639
 10
-0.9672105577256943
 20
3.747747124565972
 10
-0.9935655381944444
 20
4.324456108940971
 10
-0.9935655381944444
 20
4.324456108940971
 10
-1.382172309027778
 20
4.324456108940971
 10
-1.382172309027778
 20
4.324456108940971
 97
        0
 92
        1
 93
        1
 72
     4
 94
        3
 73
     0
 74
     0
 95
       14
 96
       10
 40
0.0
 40
0.0
 40
0.0
 40
0.0
 40
1.0
 40
1.0
 40
1.0
 40
2.0
 40
2.0
 40
2.0
 40
3.0
 40
3.0
 40
3.0
 40
3.0
 10
-2.399164496527777
 20
5.125440809461805
 10
-2.383144802517361
 20
5.476496039496527
 10
-2.372465006510416
 20
6.019443088107638
 10
-1.882916937934028
 20
6.019443088107638
 10
-1.393541124131944
 20
6.019443088107638
 10
-1.414728461371528
 20
5.471328396267361
 10
-1.398708767361111
 20
5.125440809461805
 10
-1.398708767361111
 20
5.125440809461805
 10
-2.399164496527777
 20
5.125440809461805
 10
-2.399164496527777
 20
5.125440809461805
 97
        0
 75
     0
 76
     1
 98
        1
 10
0.0
 20
0.0
  0
HATCH
  5
35
330
22
100
AcDbEntity
  8
LAYER_1
 62
     7
100
AcDbHatch
 10
0.0
 20
0.0
 30
0.0
210
0.0
220
0.0
230
1.0
  2
SOLID
 70
     1
 71
     0
 91
        2
 92
       16
 93
        1
 72
     4
 94
        3
 73
     0
 74
     0
 95
       38
 96
       34
 40
0.0
 40
0.0
 40
0.0
 40
0.0
 40
1.0
 40
1.0
 40
1.0
 40
2.0
 40
2.0
 40
2.0
 40
3.0
 40
3.0
 40
3.0
 40
4.0
 40
4.0
 40
4.0
 40
5.0
 40
5.0
 40
5.0
 40
6.0
 40
6.0
 40
6.0
 40
7.0
 40
7.0
 40
7.0
 40
8.0
 40
8.0
 40
8.0
 40
9.0
 40
9.0
 40
9.0
 40
10.0
 40
10.0
 40
10.0
 40
11.0
 40
11.0
 40
11.0
 40
11.0
 10
1.116899956597222
 20
5.993088107638888
 10
1.116899956597222
 20
5.993088107638888
 10
1.106392415364583
 20
5.993088107638888
 10
1.106392415364583
 20
5.993088107638888
 10
0.91002197265625
 20
6.247163899739583
 10
0.7294989691840277
 20
6.374287923177083
 10
0.4275363498263888
 20
6.374287923177083
 10
-0.2018825954861111
 20
6.374287923177083
 10
-0.4859307183159722
 20
5.690436469184028
 10
-0.4540635850694444
 20
4.825372992621527
 10
-0.4437282986111111
 20
4.56561279296875
 10
-0.5176255967881944
 20
3.266122775607639
 10
0.4060045030381944
 20
3.266122775607639
 10
0.7613661024305555
 20
3.266122775607639
 10
0.9417168511284721
 20
3.382567003038194
 10
1.122067599826389
 20
3.732244194878472
 10
1.122067599826389
 20
3.732244194878472
 10
1.132919650607639
 20
3.732244194878472
 10
1.132919650607639
 20
3.732244194878472
 10
1.132919650607639
 20
3.732244194878472
 10
1.132919650607639
 20
3.348460557725694
 10
1.132919650607639
 20
3.348460557725694
 10
1.132919650607639
 20
3.348460557725694
 10
1.537029351128472
 20
3.348460557725694
 10
1.537029351128472
 20
3.348460557725694
 10
1.537029351128472
 20
3.348460557725694
 10
1.537029351128472
 20
7.317210557725693
 10
1.537029351128472
 20
7.317210557725693
 10
1.537029351128472
 20
7.317210557725693
 10
1.116899956597222
 20
7.317210557725693
 10
1.116899956597222
 20
7.317210557725693
 10
1.116899956597222
 20
7.317210557725693
 10
1.116899956597222
 20
5.993088107638888
 10
1.116899956597222
 20
5.993088107638888
 97
        0
 92
        1
 93
        1
 72
     4
 94
        3
 73
     0
 74
     0
 95
       20
 96
       16
 40
0.0
 40
0.0
 40
0.0
 40
0.0
 40
1.0
 40
1.0
 40
1.0
 40
2.0
 40
2.0
 40
2.0
 40
3.0
 40
3.0
 40
3.0
 40
4.0
 40
4.0
 40
4.0
 40
5.0
 40
5.0
 40
5.0
 40
5.0
 10
1.116899956597222
 20
4.501706271701388
 10
1.116899956597222
 20
4.167359754774306
 10
0.9949435763888888
 20
3.620967610677083
 10
0.5600002712673611
 20
3.620967610677083
 10
-0.0127468532986111
 20
3.620967610677083
 10
-0.0339341905381944
 20
4.199399142795139
 10
-0.0339341905381944
 20
4.836052788628471
 10
-0.0339341905381944
 20
5.743490939670139
 10
0.1939588758680556
 20
6.019443088107638
 10
0.54415283203125
 20
6.019443088107638
 10
1.106392415364583
 20
6.019443088107638
 10
1.116899956597222
 20
5.271168348524305
 10
1.116899956597222
 20
4.867747667100694
 10
1.116899956597222
 20
4.867747667100694
 10
1.116899956597222
 20
4.501706271701388
 10
1.116899956597222
 20
4.501706271701388
 97
        0
 75
     0
 76
     1
 98
        1
 10
0.0
 20
0.0
  0
HATCH
  5
34
330
22
100
AcDbEntity
  8
LAYER_1
 62
     7
100
AcDbHatch
 10
0.0
 20
0.0
 30
0.0
210
0.0
220
0.0
230
1.0
  2
SOLID
 70
     1
 71
     0
 91
        1
 92
        1
 93
        1
 72
     4
 94
        3
 73
     0
 74
     0
 95
       44
 96
       40
 40
0.0
 40
0.0
 40
0.0
 40
0.0
 40
1.0
 40
1.0
 40
1.0
 40
2.0
 40
2.0
 40
2.0
 40
3.0
 40
3.0
 40
3.0
 40
4.0
 40
4.0
 40
4.0
 40
5.0
 40
5.0
 40
5.0
 40
6.0
 40
6.0
 40
6.0
 40
7.0
 40
7.0
 40
7.0
 40
8.0
 40
8.0
 40
8.0
 40
9.0
 40
9.0
 40
9.0
 40
10.0
 40
10.0
 40
10.0
 40
11.0
 40
11.0
 40
11.0
 40
12.0
 40
12.0
 40
12.0
 40
13.0
 40
13.0
 40
13.0
 40
13.0
 10
-11.41963026258681
 20
0.8383639865451388
 10
-11.43013780381944
 20
1.309136284722222
 10
-11.58396131727431
 20
1.711351182725694
 10
-12.13483208550347
 20
1.711351182725694
 10
-12.89723171657986
 20
1.711351182725694
 10
-12.9079115125868
 20
0.6268351236979166
 10
-12.9079115125868
 20
0.1030083550347222
 10
-12.92892659505208
 20
-0.4364935980902777
 10
-12.93960639105903
 20
-1.637453884548611
 10
-12.13483208550347
 20
-1.637453884548611
 10
-11.61014404296875
 20
-1.637453884548611
 10
-11.49921196831597
 20
-1.208711751302083
 10
-11.44615749782986
 20
-0.7749742296006944
 10
-11.43547770182292
 20
-0.6850572374131944
 10
-11.43013780381944
 20
-0.5951402452256944
 10
-11.41963026258681
 20
-0.5052232530381944
 10
-11.41963026258681
 20
-0.5052232530381944
 10
-10.98141411675347
 20
-0.5052232530381944
 10
-10.98141411675347
 20
-0.5052232530381944
 10
-10.99192165798611
 20
-0.58446044921875
 10
-10.99192165798611
 20
-0.6692097981770833
 10
-11.00242919921875
 20
-0.7486192491319443
 10
-11.0289564344618
 20
-1.07125244140625
 10
-11.04480387369792
 20
-1.314476182725694
 10
-11.23480088975694
 20
-1.589739312065972
 10
-11.44064534505208
 20
-1.875337727864583
 10
-11.71625298394097
 20
-2.034156629774305
 10
-12.09762505425347
 20
-2.034156629774305
 10
-13.32046169704861
 20
-2.034156629774305
 10
-13.36266411675347
 20
-0.85421142578125
 10
-13.36266411675347
 20
0.0926730685763889
 10
-13.36266411675347
 20
0.9866753472222222
 10
-13.23054470486111
 20
2.108226182725694
 10
-12.10296495225694
 20
2.108226182725694
 10
-11.35107286241319
 20
2.108226182725694
 10
-10.96005452473958
 20
1.547364637586805
 10
-10.98141411675347
 20
0.8383639865451388
 10
-10.98141411675347
 20
0.8383639865451388
 10
-11.41963026258681
 20
0.8383639865451388
 10
-11.41963026258681
 20
0.8383639865451388
 97
        0
 75
     0
 76
     1
 98
        1
 10
0.0
 20
0.0
  0
HATCH
  5
33
330
22
100
AcDbEntity
  8
LAYER_1
 62
     7
100
AcDbHatch
 10
0.0
 20
0.0
 30
0.0
210
0.0
220
0.0
230
1.0
  2
SOLID
 70
     1
 71
     0
 91
        2
 92
       16
 93
        1
 72
     4
 94
        3
 73
     0
 74
     0
 95
       17
 96
       13
 40
0.0
 40
0.0
 40
0.0
 40
0.0
 40
1.0
 40
1.0
 40
1.0
 40
2.0
 40
2.0
 40
2.0
 40
3.0
 40
3.0
 40
3.0
 40
4.0
 40
4.0
 40
4.0
 40
4.0
 10
-8.328518337673611
 20
-0.37052001953125
 10
-8.328518337673611
 20
0.5207261827256944
 10
-8.653907606336805
 20
1.082621256510417
 10
-9.378583441840277
 20
1.082621256510417
 10
-10.10360378689236
 20
1.082621256510417
 10
-10.42882080078125
 20
0.5207261827256944
 10
-10.42882080078125
 20
-0.37052001953125
 10
-10.42882080078125
 20
-1.644171820746528
 10
-10.01437581380208
 20
-2.025543891059028
 10
-9.378583441840277
 20
-2.025543891059028
 10
-8.732455783420138
 20
-2.025543891059028
 10
-8.328518337673611
 20
-1.649683973524305
 10
-8.328518337673611
 20
-0.37052001953125
 97
        0
 92
        1
 93
        1
 72
     4
 94
        3
 73
     0
 74
     0
 95
       17
 96
       13
 40
0.0
 40
0.0
 40
0.0
 40
0.0
 40
1.0
 40
1.0
 40
1.0
 40
2.0
 40
2.0
 40
2.0
 40
3.0
 40
3.0
 40
3.0
 40
4.0
 40
4.0
 40
4.0
 40
4.0
 10
-8.758466254340277
 20
-0.5035007052951388
 10
-8.758466254340277
 20
-1.19837646484375
 10
-8.88042263454861
 20
-1.670699055989583
 10
-9.378583441840277
 20
-1.670699055989583
 10
-9.86640896267361
 20
-1.670699055989583
 10
-9.998872884114583
 20
-1.19837646484375
 10
-9.998872884114583
 20
-0.5035007052951388
 10
-9.998872884114583
 20
0.3882622612847222
 10
-9.808014594184026
 20
0.7277764214409722
 10
-9.378583441840277
 20
0.7277764214409722
 10
-8.938817003038194
 20
0.7277764214409722
 10
-8.758466254340277
 20
0.3882622612847222
 10
-8.758466254340277
 20
-0.5035007052951388
 97
        0
 75
     0
 76
     1
 98
        1
 10
0.0
 20
0.0
  0
HATCH
  5
32
330
22
100
AcDbEntity
  8
LAYER_1
 62
     7
100
AcDbHatch
 10
0.0
 20
0.0
 30
0.0
210
0.0
220
0.0
230
1.0
  2
SOLID
 70
     1
 71
     0
 91
        1
 92
        1
 93
        1
 72
     4
 94
        3
 73
     0
 74
     0
 95
       47
 96
       43
 40
0.0
 40
0.0
 40
0.0
 40
0.0
 40
1.0
 40
1.0
 40
1.0
 40
2.0
 40
2.0
 40
2.0
 40
3.0
 40
3.0
 40
3.0
 40
4.0
 40
4.0
 40
4.0
 40
5.0
 40
5.0
 40
5.0
 40
6.0
 40
6.0
 40
6.0
 40
7.0
 40
7.0
 40
7.0
 40
8.0
 40
8.0
 40
8.0
 40
9.0
 40
9.0
 40
9.0
 40
10.0
 40
10.0
 40
10.0
 40
11.0
 40
11.0
 40
11.0
 40
12.0
 40
12.0
 40
12.0
 40
13.0
 40
13.0
 40
13.0
 40
14.0
 40
14.0
 40
14.0
 40
14.0
 10
-7.265189615885416
 20
0.6802341037326388
 10
-7.265189615885416
 20
0.6802341037326388
 10
-7.254509819878471
 20
0.6802341037326388
 10
-7.254509819878471
 20
0.6802341037326388
 10
-7.053316243489583
 20
0.9341376410590278
 10
-6.836102973090277
 20
1.082621256510417
 10
-6.518292914496527
 20
1.082621256510417
 10
-6.078354220920138
 20
1.082621256510417
 10
-5.791205512152778
 20
0.8497328016493054
 10
-5.791205512152778
 20
0.3303846571180555
 10
-5.791205512152778
 20
0.3303846571180555
 10
-5.791205512152778
 20
-1.943206108940972
 10
-5.791205512152778
 20
-1.943206108940972
 10
-5.791205512152778
 20
-1.943206108940972
 10
-6.211334906684027
 20
-1.943206108940972
 10
-6.211334906684027
 20
-1.943206108940972
 10
-6.211334906684027
 20
-1.943206108940972
 10
-6.211334906684027
 20
0.2137681749131944
 10
-6.211334906684027
 20
0.2137681749131944
 10
-6.211334906684027
 20
0.5210706922743055
 10
-6.311931694878472
 20
0.7277764214409722
 10
-6.650929090711805
 20
0.7277764214409722
 10
-6.80423583984375
 20
0.7277764214409722
 10
-6.952719455295139
 20
0.6695543077256944
 10
-7.063996039496527
 20
0.5634453667534721
 10
-7.233494737413194
 20
0.4099663628472222
 10
-7.254509819878471
 20
0.24029541015625
 10
-7.254509819878471
 20
0.0260104709201389
 10
-7.254509819878471
 20
0.0260104709201389
 10
-7.254509819878471
 20
-1.943206108940972
 10
-7.254509819878471
 20
-1.943206108940972
 10
-7.254509819878471
 20
-1.943206108940972
 10
-7.674811469184027
 20
-1.943206108940972
 10
-7.674811469184027
 20
-1.943206108940972
 10
-7.674811469184027
 20
-1.943206108940972
 10
-7.674811469184027
 20
1.000283474392361
 10
-7.674811469184027
 20
1.000283474392361
 10
-7.674811469184027
 20
1.000283474392361
 10
-7.265189615885416
 20
1.000283474392361
 10
-7.265189615885416
 20
1.000283474392361
 10
-7.265189615885416
 20
1.000283474392361
 10
-7.265189615885416
 20
0.6802341037326388
 10
-7.265189615885416
 20
0.6802341037326388
 97
        0
 75
     0
 76
     1
 98
        1
 10
0.0
 20
0.0
  0
HATCH
  5
31
330
22
100
AcDbEntity
  8
LAYER_1
 62
     7
100
AcDbHatch
 10
0.0
 20
0.0
 30
0.0
210
0.0
220
0.0
230
1.0
  2
SOLID
 70
     1
 71
     0
 91
        1
 92
        1
 93
        1
 72
     4
 94
        3
 73
     0
 74
     0
 95
       35
 96
       31
 40
0.0
 40
0.0
 40
0.0
 40
0.0
 40
1.0
 40
1.0
 40
1.0
 40
2.0
 40
2.0
 40
2.0
 40
3.0
 40
3.0
 40
3.0
 40
4.0
 40
4.0
 40
4.0
 40
5.0
 40
5.0
 40
5.0
 40
6.0
 40
6.0
 40
6.0
 40
7.0
 40
7.0
 40
7.0
 40
8.0
 40
8.0
 40
8.0
 40
9.0
 40
9.0
 40
9.0
 40
10.0
 40
10.0
 40
10.0
 40
10.0
 10
-4.748375108506944
 20
-0.5987575954861111
 10
-4.748375108506944
 20
-0.9863308376736111
 10
-4.722020128038194
 20
-1.670699055989583
 10
-4.185618760850694
 20
-1.670699055989583
 10
-3.729143608940972
 20
-1.670699055989583
 10
-3.686768934461805
 20
-1.277958170572917
 10
-3.665237087673611
 20
-0.9172566731770833
 10
-3.665237087673611
 20
-0.9172566731770833
 10
-3.268362087673611
 20
-0.9172566731770833
 10
-3.268362087673611
 20
-0.9172566731770833
 10
-3.284381781684028
 20
-1.485008409288194
 10
-3.49591064453125
 20
-2.025543891059028
 10
-4.154096137152777
 20
-2.025543891059028
 10
-5.052749294704861
 20
-2.025543891059028
 10
-5.178323025173611
 20
-1.27279052734375
 10
-5.178323025173611
 20
-0.5086683485243055
 10
-5.178323025173611
 20
0.2130791558159722
 10
-5.063084581163194
 20
1.082621256510417
 10
-4.164603678385416
 20
1.082621256510417
 10
-3.571702745225694
 20
1.082621256510417
 10
-3.287999131944444
 20
0.6218397352430555
 10
-3.293166775173611
 20
0.0751030815972222
 10
-3.293166775173611
 20
0.0751030815972222
 10
-3.68194580078125
 20
0.0751030815972222
 10
-3.68194580078125
 20
0.0751030815972222
 10
-3.687113444010417
 20
0.3987698025173611
 10
-3.772207302517361
 20
0.7277764214409722
 10
-4.170115831163194
 20
0.7277764214409722
 10
-4.77989773220486
 20
0.7277764214409722
 10
-4.748375108506944
 20
-0.1796617296006944
 10
-4.748375108506944
 20
-0.5987575954861111
 97
        0
 75
     0
 76
     1
 98
        1
 10
0.0
 20
0.0
  0
HATCH
  5
30
330
22
100
AcDbEntity
  8
LAYER_1
 62
     7
100
AcDbHatch
 10
0.0
 20
0.0
 30
0.0
210
0.0
220
0.0
230
1.0
  2
SOLID
 70
     1
 71
     0
 91
        2
 92
       16
 93
        1
 72
     4
 94
        3
 73
     0
 74
     0
 95
       29
 96
       25
 40
0.0
 40
0.0
 40
0.0
 40
0.0
 40
1.0
 40
1.0
 40
1.0
 40
2.0
 40
2.0
 40
2.0
 40
3.0
 40
3.0
 40
3.0
 40
4.0
 40
4.0
 40
4.0
 40
5.0
 40
5.0
 40
5.0
 40
6.0
 40
6.0
 40
6.0
 40
7.0
 40
7.0
 40
7.0
 40
8.0
 40
8.0
 40
8.0
 40
8.0
 10
-1.382172309027778
 20
-0.9672105577256943
 10
-1.355817328559028
 20
-1.300523546006944
 10
-1.466921657986111
 20
-1.670699055989583
 10
-1.869481065538194
 20
-1.670699055989583
 10
-2.456869845920139
 20
-1.670699055989583
 10
-2.388656955295139
 20
-0.9088161892361111
 10
-2.399164496527777
 20
-0.5119411892361111
 10
-2.399164496527777
 20
-0.5119411892361111
 10
-0.9687608506944444
 20
-0.5119411892361111
 10
-0.9687608506944444
 20
-0.5119411892361111
 10
-0.9896036783854166
 20
0.1796617296006944
 10
-0.9368937174479166
 20
1.082621256510417
 10
-1.888084581163194
 20
1.082621256510417
 10
-2.666676161024305
 20
1.082621256510417
 10
-2.829112413194444
 20
0.1531344943576389
 10
-2.829112413194444
 20
-0.4695665147569444
 10
-2.829112413194444
 20
-1.655023871527778
 10
-2.435854763454861
 20
-2.025543891059028
 10
-1.87740478515625
 20
-2.025543891059028
 10
-1.261249457465278
 20
-2.025543891059028
 10
-0.9668660481770832
 20
-1.543919542100694
 10
-0.9935655381944444
 20
-0.9672105577256943
 10
-0.9935655381944444
 20
-0.9672105577256943
 10
-1.382172309027778
 20
-0.9672105577256943
 10
-1.382172309027778
 20
-0.9672105577256943
 97
        0
 92
        1
 93
        1
 72
     4
 94
        3
 73
     0
 74
     0
 95
       14
 96
       10
 40
0.0
 40
0.0
 40
0.0
 40
0.0
 40
1.0
 40
1.0
 40
1.0
 40
2.0
 40
2.0
 40
2.0
 40
3.0
 40
3.0
 40
3.0
 40
3.0
 10
-2.399164496527777
 20
-0.1662258572048611
 10
-2.383144802517361
 20
0.1848293728298611
 10
-2.372465006510416
 20
0.7277764214409722
 10
-1.882916937934028
 20
0.7277764214409722
 10
-1.393368869357639
 20
0.7277764214409722
 10
-1.414728461371528
 20
0.1796617296006944
 10
-1.398708767361111
 20
-0.1662258572048611
 10
-1.398708767361111
 20
-0.1662258572048611
 10
-2.399164496527777
 20
-0.1662258572048611
 10
-2.399164496527777
 20
-0.1662258572048611
 97
        0
 75
     0
 76
     1
 98
        1
 10
0.0
 20
0.0
  0
HATCH
  5
2F
330
22
100
AcDbEntity
  8
LAYER_1
 62
     7
100
AcDbHatch
 10
0.0
 20
0.0
 30
0.0
210
0.0
220
0.0
230
1.0
  2
SOLID
 70
     1
 71
     0
 91
        1
 92
        1
 93
        1
 72
     4
 94
        3
 73
     0
 74
     0
 95
       47
 96
       43
 40
0.0
 40
0.0
 40
0.0
 40
0.0
 40
1.0
 40
1.0
 40
1.0
 40
2.0
 40
2.0
 40
2.0
 40
3.0
 40
3.0
 40
3.0
 40
4.0
 40
4.0
 40
4.0
 40
5.0
 40
5.0
 40
5.0
 40
6.0
 40
6.0
 40
6.0
 40
7.0
 40
7.0
 40
7.0
 40
8.0
 40
8.0
 40
8.0
 40
9.0
 40
9.0
 40
9.0
 40
10.0
 40
10.0
 40
10.0
 40
11.0
 40
11.0
 40
11.0
 40
12.0
 40
12.0
 40
12.0
 40
13.0
 40
13.0
 40
13.0
 40
14.0
 40
14.0
 40
14.0
 40
14.0
 10
0.0794094509548611
 20
0.6802341037326388
 10
0.0794094509548611
 20
0.6802341037326388
 10
0.0900892469618056
 20
0.6802341037326388
 10
0.0900892469618056
 20
0.6802341037326388
 10
0.2912828233506944
 20
0.9341376410590278
 10
0.5083238389756944
 20
1.082621256510417
 10
0.8263061523437499
 20
1.082621256510417
 10
1.26658935546875
 20
1.082621256510417
 10
1.553565809461805
 20
0.8497328016493054
 10
1.553565809461805
 20
0.3303846571180555
 10
1.553565809461805
 20
0.3303846571180555
 10
1.553565809461805
 20
-1.943206108940972
 10
1.553565809461805
 20
-1.943206108940972
 10
1.553565809461805
 20
-1.943206108940972
 10
1.133436414930555
 20
-1.943206108940972
 10
1.133436414930555
 20
-1.943206108940972
 10
1.133436414930555
 20
-1.943206108940972
 10
1.133436414930555
 20
0.2137681749131944
 10
1.133436414930555
 20
0.2137681749131944
 10
1.133436414930555
 20
0.5210706922743055
 10
1.033011881510417
 20
0.7277764214409722
 10
0.6940144856770832
 20
0.7277764214409722
 10
0.5401909722222221
 20
0.7277764214409722
 10
0.3918796115451388
 20
0.6695543077256944
 10
0.2807752821180555
 20
0.5634453667534721
 10
0.1112765842013889
 20
0.4099663628472222
 10
0.0900892469618056
 20
0.24029541015625
 10
0.0900892469618056
 20
0.0260104709201389
 10
0.0900892469618056
 20
0.0260104709201389
 10
0.0900892469618056
 20
-1.943206108940972
 10
0.0900892469618056
 20
-1.943206108940972
 10
0.0900892469618056
 20
-1.943206108940972
 10
-0.3300401475694444
 20
-1.943206108940972
 10
-0.3300401475694444
 20
-1.943206108940972
 10
-0.3300401475694444
 20
-1.943206108940972
 10
-0.3300401475694444
 20
1.000283474392361
 10
-0.3300401475694444
 20
1.000283474392361
 10
-0.3300401475694444
 20
1.000283474392361
 10
0.0794094509548611
 20
1.000283474392361
 10
0.0794094509548611
 20
1.000283474392361
 10
0.0794094509548611
 20
1.000283474392361
 10
0.0794094509548611
 20
0.6802341037326388
 10
0.0794094509548611
 20
0.6802341037326388
 97
        0
 75
     0
 76
     1
 98
        1
 10
0.0
 20
0.0
  0
HATCH
  5
2E
330
22
100
AcDbEntity
  8
LAYER_1
 62
     7
100
AcDbHatch
 10
0.0
 20
0.0
 30
0.0
210
0.0
220
0.0
230
1.0
  2
SOLID
 70
     1
 71
     0
 91
        1
 92
        1
 93
        1
 72
     4
 94
        3
 73
     0
 74
     0
 95
       53
 96
       49
 40
0.0
 40
0.0
 40
0.0
 40
0.0
 40
1.0
 40
1.0
 40
1.0
 40
2.0
 40
2.0
 40
2.0
 40
3.0
 40
3.0
 40
3.0
 40
4.0
 40
4.0
 40
4.0
 40
5.0
 40
5.0
 40
5.0
 40
6.0
 40
6.0
 40
6.0
 40
7.0
 40
7.0
 40
7.0
 40
8.0
 40
8.0
 40
8.0
 40
9.0
 40
9.0
 40
9.0
 40
10.0
 40
10.0
 40
10.0
 40
11.0
 40
11.0
 40
11.0
 40
12.0
 40
12.0
 40
12.0
 40
13.0
 40
13.0
 40
13.0
 40
14.0
 40
14.0
 40
14.0
 40
15.0
 40
15.0
 40
15.0
 40
16.0
 40
16.0
 40
16.0
 40
16.0
 10
2.804824490017361
 20
0.9999389648437499
 10
2.804824490017361
 20
0.9999389648437499
 10
3.297128634982639
 20
0.9999389648437499
 10
3.297128634982639
 20
0.9999389648437499
 10
3.297128634982639
 20
0.9999389648437499
 10
3.297128634982639
 20
0.6454386393229166
 10
3.297128634982639
 20
0.6454386393229166
 10
3.297128634982639
 20
0.6454386393229166
 10
2.810336642795139
 20
0.6454386393229166
 10
2.810336642795139
 20
0.6454386393229166
 10
2.810336642795139
 20
0.6454386393229166
 10
2.810336642795139
 20
-1.360468207465278
 10
2.810336642795139
 20
-1.360468207465278
 10
2.810336642795139
 20
-1.461237250434028
 10
2.773129611545139
 20
-1.588016764322917
 10
3.006190321180555
 20
-1.588016764322917
 10
3.006190321180555
 20
-1.588016764322917
 10
3.286448838975694
 20
-1.588016764322917
 10
3.286448838975694
 20
-1.588016764322917
 10
3.286448838975694
 20
-1.588016764322917
 10
3.286448838975694
 20
-1.94251708984375
 10
3.286448838975694
 20
-1.94251708984375
 10
3.286448838975694
 20
-1.94251708984375
 10
2.826356336805555
 20
-1.94251708984375
 10
2.826356336805555
 20
-1.94251708984375
 10
2.576242404513889
 20
-1.948029242621528
 10
2.390207248263889
 20
-1.905654568142361
 10
2.390207248263889
 20
-1.461237250434028
 10
2.390207248263889
 20
-1.461237250434028
 10
2.390207248263889
 20
0.6454386393229166
 10
2.390207248263889
 20
0.6454386393229166
 10
2.390207248263889
 20
0.6454386393229166
 10
1.98282470703125
 20
0.6454386393229166
 10
1.98282470703125
 20
0.6454386393229166
 10
1.98282470703125
 20
0.6454386393229166
 10
1.98282470703125
 20
0.9999389648437499
 10
1.98282470703125
 20
0.9999389648437499
 10
1.98282470703125
 20
0.9999389648437499
 10
2.390207248263889
 20
0.9999389648437499
 10
2.390207248263889
 20
0.9999389648437499
 10
2.390207248263889
 20
0.9999389648437499
 10
2.390207248263889
 20
1.798856608072917
 10
2.390207248263889
 20
1.798856608072917
 10
2.390207248263889
 20
1.798856608072917
 10
2.804824490017361
 20
1.798856608072917
 10
2.804824490017361
 20
1.798856608072917
 10
2.804824490017361
 20
1.798856608072917
 10
2.804824490017361
 20
0.9999389648437499
 10
2.804824490017361
 20
0.9999389648437499
 97
        0
 75
     0
 76
     1
 98
        1
 10
0.0
 20
0.0
  0
HATCH
  5
2D
330
22
100
AcDbEntity
  8
LAYER_1
 62
     7
100
AcDbHatch
 10
0.0
 20
0.0
 30
0.0
210
0.0
220
0.0
230
1.0
  2
SOLID
 70
     1
 71
     0
 91
        1
 92
        1
 93
        1
 72
     4
 94
        3
 73
     0
 74
     0
 95
       32
 96
       28
 40
0.0
 40
0.0
 40
0.0
 40
0.0
 40
1.0
 40
1.0
 40
1.0
 40
2.0
 40
2.0
 40
2.0
 40
3.0
 40
3.0
 40
3.0
 40
4.0
 40
4.0
 40
4.0
 40
5.0
 40
5.0
 40
5.0
 40
6.0
 40
6.0
 40
6.0
 40
7.0
 40
7.0
 40
7.0
 40
8.0
 40
8.0
 40
8.0
 40
9.0
 40
9.0
 40
9.0
 40
9.0
 10
4.240740288628472
 20
0.5196926540798611
 10
4.240740288628472
 20
0.5196926540798611
 10
4.251420084635416
 20
0.5196926540798611
 10
4.251420084635416
 20
0.5196926540798611
 10
4.42608642578125
 20
0.9062323676215277
 10
4.674477810329861
 20
1.070391167534722
 10
5.113727484809028
 20
1.033356391059028
 10
5.113727484809028
 20
1.033356391059028
 10
5.113727484809028
 20
0.6206339518229166
 10
5.113727484809028
 20
0.6206339518229166
 10
4.574053276909722
 20
0.7158908420138889
 10
4.256759982638888
 20
0.3768934461805555
 10
4.256759982638888
 20
-0.1583021375868055
 10
4.256759982638888
 20
-0.1583021375868055
 10
4.256759982638888
 20
-1.943206108940972
 10
4.256759982638888
 20
-1.943206108940972
 10
4.256759982638888
 20
-1.943206108940972
 10
3.836630588107639
 20
-1.943206108940972
 10
3.836630588107639
 20
-1.943206108940972
 10
3.836630588107639
 20
-1.943206108940972
 10
3.836630588107639
 20
1.000283474392361
 10
3.836630588107639
 20
1.000283474392361
 10
3.836630588107639
 20
1.000283474392361
 10
4.240740288628472
 20
1.000283474392361
 10
4.240740288628472
 20
1.000283474392361
 10
4.240740288628472
 20
1.000283474392361
 10
4.240740288628472
 20
0.5196926540798611
 10
4.240740288628472
 20
0.5196926540798611
 97
        0
 75
     0
 76
     1
 98
        1
 10
0.0
 20
0.0
  0
HATCH
  5
2C
330
22
100
AcDbEntity
  8
LAYER_1
 62
     7
100
AcDbHatch
 10
0.0
 20
0.0
 30
0.0
210
0.0
220
0.0
230
1.0
  2
SOLID
 70
     1
 71
     0
 91
        2
 92
       16
 93
        1
 72
     4
 94
        3
 73
     0
 74
     0
 95
       56
 96
       52
 40
0.0
 40
0.0
 40
0.0
 40
0.0
 40
1.0
 40
1.0
 40
1.0
 40
2.0
 40
2.0
 40
2.0
 40
3.0
 40
3.0
 40
3.0
 40
4.0
 40
4.0
 40
4.0
 40
5.0
 40
5.0
 40
5.0
 40
6.0
 40
6.0
 40
6.0
 40
7.0
 40
7.0
 40
7.0
 40
8.0
 40
8.0
 40
8.0
 40
9.0
 40
9.0
 40
9.0
 40
10.0
 40
10.0
 40
10.0
 40
11.0
 40
11.0
 40
11.0
 40
12.0
 40
12.0
 40
12.0
 40
13.0
 40
13.0
 40
13.0
 40
14.0
 40
14.0
 40
14.0
 40
15.0
 40
15.0
 40
15.0
 40
16.0
 40
16.0
 40
16.0
 40
17.0
 40
17.0
 40
17.0
 40
17.0
 10
7.373021104600694
 20
-1.640037706163194
 10
7.314971245659722
 20
-1.645205349392361
 10
7.251409233940971
 20
-1.650372992621528
 10
7.193187120225693
 20
-1.634525553385417
 10
7.108782280815972
 20
-1.59215087890625
 10
7.119117567274305
 20
-1.486041937934028
 10
7.119117567274305
 20
-1.411627875434028
 10
7.119117567274305
 20
-1.411627875434028
 10
7.119117567274305
 20
0.2818088107638889
 10
7.119117567274305
 20
0.2818088107638889
 10
7.119117567274305
 20
0.3510552300347222
 10
7.193187120225693
 20
1.082621256510417
 10
6.321750217013888
 20
1.082621256510417
 10
5.726609971788194
 20
1.082621256510417
 10
5.427747938368055
 20
0.8180379231770832
 10
5.448935275607639
 20
0.2075670030381944
 10
5.448935275607639
 20
0.2075670030381944
 10
5.821005588107639
 20
0.2075670030381944
 10
5.821005588107639
 20
0.2075670030381944
 10
5.815837944878472
 20
0.5525933159722222
 10
5.869064670138888
 20
0.7277764214409722
 10
6.252503797743055
 20
0.7277764214409722
 10
6.59339599609375
 20
0.7277764214409722
 10
6.720692274305555
 20
0.6003078884548611
 10
6.720692274305555
 20
0.2661336263020833
 10
6.720692274305555
 20
0.1121378580729167
 10
6.731199815538194
 20
-0.00465087890625
 10
6.641282823350694
 20
-0.0737250434027778
 10
6.588228352864583
 20
-0.1159274631076389
 10
5.992054578993055
 20
-0.3388251410590277
 10
5.752792697482638
 20
-0.44493408203125
 10
5.349027506510416
 20
-0.6254570855034721
 10
5.333180067274305
 20
-1.049892849392361
 10
5.333180067274305
 20
-1.161513943142361
 10
5.333180067274305
 20
-1.697398546006944
 10
5.501128472222222
 20
-2.025543891059028
 10
6.088000488281249
 20
-2.025543891059028
 10
6.369809299045138
 20
-2.025543891059028
 10
6.641282823350694
 20
-1.808502875434028
 10
6.741535101996528
 20
-1.54874267578125
 10
6.741535101996528
 20
-1.54874267578125
 10
6.752214898003472
 20
-1.54874267578125
 10
6.752214898003472
 20
-1.54874267578125
 10
6.794072808159721
 20
-1.952163357204861
 10
6.925158691406249
 20
-1.983858235677083
 10
7.277936469184027
 20
-1.968010796440972
 10
7.309631347656249
 20
-1.957331000434028
 10
7.341326226128472
 20
-1.952163357204861
 10
7.373021104600694
 20
-1.946651204427083
 10
7.373021104600694
 20
-1.946651204427083
 10
7.373021104600694
 20
-1.640037706163194
 10
7.373021104600694
 20
-1.640037706163194
 97
        0
 92
        1
 93
        1
 72
     4
 94
        3
 73
     0
 74
     0
 95
       20
 96
       16
 40
0.0
 40
0.0
 40
0.0
 40
0.0
 40
1.0
 40
1.0
 40
1.0
 40
2.0
 40
2.0
 40
2.0
 40
3.0
 40
3.0
 40
3.0
 40
4.0
 40
4.0
 40
4.0
 40
5.0
 40
5.0
 40
5.0
 40
5.0
 10
6.689169650607639
 20
-1.071080186631944
 10
6.689169650607639
 20
-1.54874267578125
 10
6.338114420572916
 20
-1.670699055989583
 10
6.178261990017361
 20
-1.670699055989583
 10
5.837886555989583
 20
-1.670699055989583
 10
5.763127983940971
 20
-1.479840766059028
 10
5.763127983940971
 20
-1.182701280381944
 10
5.763127983940971
 20
-0.9809909396701388
 10
5.826862250434028
 20
-0.7632609049479167
 10
6.023921712239583
 20
-0.673171657986111
 10
6.247336154513889
 20
-0.5668904622395833
 10
6.48177490234375
 20
-0.4768012152777778
 10
6.689169650607639
 20
-0.3548448350694444
 10
6.689169650607639
 20
-0.3548448350694444
 10
6.689169650607639
 20
-1.071080186631944
 10
6.689169650607639
 20
-1.071080186631944
 97
        0
 75
     0
 76
     1
 98
        1
 10
0.0
 20
0.0
  0
HATCH
  5
2B
330
22
100
AcDbEntity
  8
LAYER_1
 62
     7
100
AcDbHatch
 10
0.0
 20
0.0
 30
0.0
210
0.0
220
0.0
230
1.0
  2
SOLID
 70
     1
 71
     0
 91
        1
 92
        1
 93
        1
 72
     4
 94
        3
 73
     0
 74
     0
 95
       53
 96
       49
 40
0.0
 40
0.0
 40
0.0
 40
0.0
 40
1.0
 40
1.0
 40
1.0
 40
2.0
 40
2.0
 40
2.0
 40
3.0
 40
3.0
 40
3.0
 40
4.0
 40
4.0
 40
4.0
 40
5.0
 40
5.0
 40
5.0
 40
6.0
 40
6.0
 40
6.0
 40
7.0
 40
7.0
 40
7.0
 40
8.0
 40
8.0
 40
8.0
 40
9.0
 40
9.0
 40
9.0
 40
10.0
 40
10.0
 40
10.0
 40
11.0
 40
11.0
 40
11.0
 40
12.0
 40
12.0
 40
12.0
 40
13.0
 40
13.0
 40
13.0
 40
14.0
 40
14.0
 40
14.0
 40
15.0
 40
15.0
 40
15.0
 40
16.0
 40
16.0
 40
16.0
 40
16.0
 10
8.387601725260415
 20
0.9999389648437499
 10
8.387601725260415
 20
0.9999389648437499
 10
8.879733615451388
 20
0.9999389648437499
 10
8.879733615451388
 20
0.9999389648437499
 10
8.879733615451388
 20
0.9999389648437499
 10
8.879733615451388
 20
0.6454386393229166
 10
8.879733615451388
 20
0.6454386393229166
 10
8.879733615451388
 20
0.6454386393229166
 10
8.392941623263889
 20
0.6454386393229166
 10
8.392941623263889
 20
0.6454386393229166
 10
8.392941623263889
 20
0.6454386393229166
 10
8.392941623263889
 20
-1.360468207465278
 10
8.392941623263889
 20
-1.360468207465278
 10
8.392941623263889
 20
-1.461237250434028
 10
8.355734592013889
 20
-1.588016764322917
 10
8.588795301649304
 20
-1.588016764322917
 10
8.588795301649304
 20
-1.588016764322917
 10
8.86922607421875
 20
-1.588016764322917
 10
8.86922607421875
 20
-1.588016764322917
 10
8.86922607421875
 20
-1.588016764322917
 10
8.86922607421875
 20
-1.94251708984375
 10
8.86922607421875
 20
-1.94251708984375
 10
8.86922607421875
 20
-1.94251708984375
 10
8.408961317274304
 20
-1.94251708984375
 10
8.408961317274304
 20
-1.94251708984375
 10
8.158847384982638
 20
-1.948029242621528
 10
7.972812228732638
 20
-1.905654568142361
 10
7.972812228732638
 20
-1.461237250434028
 10
7.972812228732638
 20
-1.461237250434028
 10
7.972812228732638
 20
0.6454386393229166
 10
7.972812228732638
 20
0.6454386393229166
 10
7.972812228732638
 20
0.6454386393229166
 10
7.565257432725693
 20
0.6454386393229166
 10
7.565257432725693
 20
0.6454386393229166
 10
7.565257432725693
 20
0.6454386393229166
 10
7.565257432725693
 20
0.9999389648437499
 10
7.565257432725693
 20
0.9999389648437499
 10
7.565257432725693
 20
0.9999389648437499
 10
7.972812228732638
 20
0.9999389648437499
 10
7.972812228732638
 20
0.9999389648437499
 10
7.972812228732638
 20
0.9999389648437499
 10
7.972812228732638
 20
1.798856608072917
 10
7.972812228732638
 20
1.798856608072917
 10
7.972812228732638
 20
1.798856608072917
 10
8.387601725260415
 20
1.798856608072917
 10
8.387601725260415
 20
1.798856608072917
 10
8.387601725260415
 20
1.798856608072917
 10
8.387601725260415
 20
0.9999389648437499
 10
8.387601725260415
 20
0.9999389648437499
 97
        0
 75
     0
 76
     1
 98
        1
 10
0.0
 20
0.0
  0
HATCH
  5
2A
330
22
100
AcDbEntity
  8
LAYER_1
 62
     7
100
AcDbHatch
 10
0.0
 20
0.0
 30
0.0
210
0.0
220
0.0
230
1.0
  2
SOLID
 70
     1
 71
     0
 91
        2
 92
       16
 93
        1
 72
     4
 94
        3
 73
     0
 74
     0
 95
       29
 96
       25
 40
0.0
 40
0.0
 40
0.0
 40
0.0
 40
1.0
 40
1.0
 40
1.0
 40
2.0
 40
2.0
 40
2.0
 40
3.0
 40
3.0
 40
3.0
 40
4.0
 40
4.0
 40
4.0
 40
5.0
 40
5.0
 40
5.0
 40
6.0
 40
6.0
 40
6.0
 40
7.0
 40
7.0
 40
7.0
 40
8.0
 40
8.0
 40
8.0
 40
8.0
 10
10.66687689887153
 20
-0.9672105577256943
 10
10.69305962456597
 20
-1.300523546006944
 10
10.58195529513889
 20
-1.670699055989583
 10
10.17939588758681
 20
-1.670699055989583
 10
9.592007107204861
 20
-1.670699055989583
 10
9.660564507378471
 20
-0.9088161892361111
 10
9.649884711371527
 20
-0.5119411892361111
 10
9.649884711371527
 20
-0.5119411892361111
 10
11.08011610243056
 20
-0.5119411892361111
 10
11.08011610243056
 20
-0.5119411892361111
 10
11.05927327473958
 20
0.1796617296006944
 10
11.11198323567708
 20
1.082621256510417
 10
10.1607923719618
 20
1.082621256510417
 10
9.382545301649305
 20
1.082621256510417
 10
9.219936794704861
 20
0.1531344943576389
 10
9.219936794704861
 20
-0.4695665147569444
 10
9.219936794704861
 20
-1.655023871527778
 10
9.613022189670138
 20
-2.025543891059028
 10
10.17147216796875
 20
-2.025543891059028
 10
10.78762749565972
 20
-2.025543891059028
 10
11.08201090494792
 20
-1.543919542100694
 10
11.05531141493056
 20
-0.9672105577256943
 10
11.05531141493056
 20
-0.9672105577256943
 10
10.66687689887153
 20
-0.9672105577256943
 10
10.66687689887153
 20
-0.9672105577256943
 97
        0
 92
        1
 93
        1
 72
     4
 94
        3
 73
     0
 74
     0
 95
       14
 96
       10
 40
0.0
 40
0.0
 40
0.0
 40
0.0
 40
1.0
 40
1.0
 40
1.0
 40
2.0
 40
2.0
 40
2.0
 40
3.0
 40
3.0
 40
3.0
 40
3.0
 10
9.649884711371527
 20
-0.1662258572048611
 10
9.665732150607639
 20
0.1848293728298611
 10
9.676584201388888
 20
0.7277764214409722
 10
10.16596001519097
 20
0.7277764214409722
 10
10.65550808376736
 20
0.7277764214409722
 10
10.63449300130208
 20
0.1796617296006944
 10
10.65016818576389
 20
-0.1662258572048611
 10
10.65016818576389
 20
-0.1662258572048611
 10
9.649884711371527
 20
-0.1662258572048611
 10
9.649884711371527
 20
-0.1662258572048611
 97
        0
 75
     0
 76
     1
 98
        1
 10
0.0
 20
0.0
  0
HATCH
  5
29
330
22
100
AcDbEntity
  8
LAYER_1
 62
     7
100
AcDbHatch
 10
0.0
 20
0.0
 30
0.0
210
0.0
220
0.0
230
1.0
  2
SOLID
 70
     1
 71
     0
 91
        2
 92
       16
 93
        1
 72
     4
 94
        3
 73
     0
 74
     0
 95
       38
 96
       34
 40
0.0
 40
0.0
 40
0.0
 40
0.0
 40
1.0
 40
1.0
 40
1.0
 40
2.0
 40
2.0
 40
2.0
 40
3.0
 40
3.0
 40
3.0
 40
4.0
 40
4.0
 40
4.0
 40
5.0
 40
5.0
 40
5.0
 40
6.0
 40
6.0
 40
6.0
 40
7.0
 40
7.0
 40
7.0
 40
8.0
 40
8.0
 40
8.0
 40
9.0
 40
9.0
 40
9.0
 40
10.0
 40
10.0
 40
10.0
 40
11.0
 40
11.0
 40
11.0
 40
11.0
 10
13.16577690972222
 20
0.7014214409722221
 10
13.16577690972222
 20
0.7014214409722221
 10
13.15526936848958
 20
0.7014214409722221
 10
13.15526936848958
 20
0.7014214409722221
 10
12.95907118055555
 20
0.9554972330729166
 10
12.77872043185764
 20
1.082621256510417
 10
12.47641330295139
 20
1.082621256510417
 10
11.84699435763889
 20
1.082621256510417
 10
11.56329074435764
 20
0.3987698025173611
 10
11.59481336805555
 20
-0.4662936740451388
 10
11.60532090928819
 20
-0.7260538736979166
 10
11.53159586588542
 20
-2.025543891059028
 10
12.4552259657118
 20
-2.025543891059028
 10
12.81041531032986
 20
-2.025543891059028
 10
12.99093831380208
 20
-1.909099663628472
 10
13.17111680772569
 20
-1.559422471788194
 10
13.17111680772569
 20
-1.559422471788194
 10
13.18179660373264
 20
-1.559422471788194
 10
13.18179660373264
 20
-1.559422471788194
 10
13.18179660373264
 20
-1.559422471788194
 10
13.18179660373264
 20
-1.943206108940972
 10
13.18179660373264
 20
-1.943206108940972
 10
13.18179660373264
 20
-1.943206108940972
 10
13.58590630425347
 20
-1.943206108940972
 10
13.58590630425347
 20
-1.943206108940972
 10
13.58590630425347
 20
-1.943206108940972
 10
13.58590630425347
 20
2.025543891059028
 10
13.58590630425347
 20
2.025543891059028
 10
13.58590630425347
 20
2.025543891059028
 10
13.16577690972222
 20
2.025543891059028
 10
13.16577690972222
 20
2.025543891059028
 10
13.16577690972222
 20
2.025543891059028
 10
13.16577690972222
 20
0.7014214409722221
 10
13.16577690972222
 20
0.7014214409722221
 97
        0
 92
        1
 93
        1
 72
     4
 94
        3
 73
     0
 74
     0
 95
       20
 96
       16
 40
0.0
 40
0.0
 40
0.0
 40
0.0
 40
1.0
 40
1.0
 40
1.0
 40
2.0
 40
2.0
 40
2.0
 40
3.0
 40
3.0
 40
3.0
 40
4.0
 40
4.0
 40
4.0
 40
5.0
 40
5.0
 40
5.0
 40
5.0
 10
13.16577690972222
 20
-0.7899603949652777
 10
13.16577690972222
 20
-1.124306911892361
 10
13.04382052951389
 20
-1.670699055989583
 10
12.60887722439236
 20
-1.670699055989583
 10
12.03613009982639
 20
-1.670699055989583
 10
12.0149427625868
 20
-1.092267523871528
 10
12.0149427625868
 20
-0.4556138780381944
 10
12.0149427625868
 20
0.4518242730034722
 10
12.24300808376736
 20
0.7277764214409722
 10
12.59320203993056
 20
0.7277764214409722
 10
13.15526936848958
 20
0.7277764214409722
 10
13.16577690972222
 20
-0.0204983181423611
 10
13.16577690972222
 20
-0.4239189995659722
 10
13.16577690972222
 20
-0.4239189995659722
 10
13.16577690972222
 20
-0.7899603949652777
 10
13.16577690972222
 20
-0.7899603949652777
 97
        0
 75
     0
 76
     1
 98
        1
 10
0.0
 20
0.0
  0
HATCH
  5
28
330
22
100
AcDbEntity
  8
LAYER_1
 62
     7
100
AcDbHatch
 10
0.0
 20
0.0
 30
0.0
210
0.0
220
0.0
230
1.0
  2
SOLID
 70
     1
 71
     0
 91
        1
 92
        1
 93
        1
 72
     4
 94
        3
 73
     0
 74
     0
 95
       23
 96
       19
 40
0.0
 40
0.0
 40
0.0
 40
0.0
 40
1.0
 40
1.0
 40
1.0
 40
2.0
 40
2.0
 40
2.0
 40
3.0
 40
3.0
 40
3.0
 40
4.0
 40
4.0
 40
4.0
 40
5.0
 40
5.0
 40
5.0
 40
6.0
 40
6.0
 40
6.0
 40
6.0
 10
-13.20556776258681
 20
-7.234872775607638
 10
-13.20556776258681
 20
-7.234872775607638
 10
-13.20556776258681
 20
-3.266122775607639
 10
-13.20556776258681
 20
-3.266122775607639
 10
-13.20556776258681
 20
-3.266122775607639
 10
-12.76735161675347
 20
-3.266122775607639
 10
-12.76735161675347
 20
-3.266122775607639
 10
-12.76735161675347
 20
-3.266122775607639
 10
-12.76735161675347
 20
-6.837997775607638
 10
-12.76735161675347
 20
-6.837997775607638
 10
-12.76735161675347
 20
-6.837997775607638
 10
-11.14798448350694
 20
-6.837997775607638
 10
-11.14798448350694
 20
-6.837997775607638
 10
-11.14798448350694
 20
-6.837997775607638
 10
-11.14798448350694
 20
-7.234872775607638
 10
-11.14798448350694
 20
-7.234872775607638
 10
-11.14798448350694
 20
-7.234872775607638
 10
-13.20556776258681
 20
-7.234872775607638
 10
-13.20556776258681
 20
-7.234872775607638
 97
        0
 75
     0
 76
     1
 98
        1
 10
0.0
 20
0.0
  0
HATCH
  5
27
330
22
100
AcDbEntity
  8
LAYER_1
 62
     7
100
AcDbHatch
 10
0.0
 20
0.0
 30
0.0
210
0.0
220
0.0
230
1.0
  2
SOLID
 70
     1
 71
     0
 91
        2
 92
       16
 93
        1
 72
     4
 94
        3
 73
     0
 74
     0
 95
       17
 96
       13
 40
0.0
 40
0.0
 40
0.0
 40
0.0
 40
1.0
 40
1.0
 40
1.0
 40
2.0
 40
2.0
 40
2.0
 40
3.0
 40
3.0
 40
3.0
 40
4.0
 40
4.0
 40
4.0
 40
4.0
 10
-8.624968804253472
 20
-5.662186686197916
 10
-8.624968804253472
 20
-4.770940483940972
 10
-8.95018581814236
 20
-4.20904541015625
 10
-9.675033908420138
 20
-4.20904541015625
 10
-10.39988199869792
 20
-4.20904541015625
 10
-10.72509901258681
 20
-4.770940483940972
 10
-10.72509901258681
 20
-5.662186686197916
 10
-10.72509901258681
 20
-6.935838487413194
 10
-10.31082628038194
 20
-7.317210557725693
 10
-9.675033908420138
 20
-7.317210557725693
 10
-9.028733995225693
 20
-7.317210557725693
 10
-8.624968804253472
 20
-6.941350640190971
 10
-8.624968804253472
 20
-5.662186686197916
 97
        0
 92
        1
 93
        1
 72
     4
 94
        3
 73
     0
 74
     0
 95
       17
 96
       13
 40
0.0
 40
0.0
 40
0.0
 40
0.0
 40
1.0
 40
1.0
 40
1.0
 40
2.0
 40
2.0
 40
2.0
 40
3.0
 40
3.0
 40
3.0
 40
4.0
 40
4.0
 40
4.0
 40
4.0
 10
-9.054916720920138
 20
-5.795167371961805
 10
-9.054916720920138
 20
-6.490043131510416
 10
-9.176873101128471
 20
-6.96236572265625
 10
-9.675033908420138
 20
-6.96236572265625
 10
-10.16285942925347
 20
-6.96236572265625
 10
-10.29515109592014
 20
-6.490043131510416
 10
-10.29515109592014
 20
-5.795167371961805
 10
-10.29515109592014
 20
-4.903404405381944
 10
-10.10429280598958
 20
-4.563890245225694
 10
-9.675033908420138
 20
-4.563890245225694
 10
-9.235095214843749
 20
-4.563890245225694
 10
-9.054916720920138
 20
-4.903404405381944
 10
-9.054916720920138
 20
-5.795167371961805
 97
        0
 75
     0
 76
     1
 98
        1
 10
0.0
 20
0.0
  0
HATCH
  5
26
330
22
100
AcDbEntity
  8
LAYER_1
 62
     7
100
AcDbHatch
 10
0.0
 20
0.0
 30
0.0
210
0.0
220
0.0
230
1.0
  2
SOLID
 70
     1
 71
     0
 91
        2
 92
       16
 93
        1
 72
     4
 94
        3
 73
     0
 74
     0
 95
       56
 96
       52
 40
0.0
 40
0.0
 40
0.0
 40
0.0
 40
1.0
 40
1.0
 40
1.0
 40
2.0
 40
2.0
 40
2.0
 40
3.0
 40
3.0
 40
3.0
 40
4.0
 40
4.0
 40
4.0
 40
5.0
 40
5.0
 40
5.0
 40
6.0
 40
6.0
 40
6.0
 40
7.0
 40
7.0
 40
7.0
 40
8.0
 40
8.0
 40
8.0
 40
9.0
 40
9.0
 40
9.0
 40
10.0
 40
10.0
 40
10.0
 40
11.0
 40
11.0
 40
11.0
 40
12.0
 40
12.0
 40
12.0
 40
13.0
 40
13.0
 40
13.0
 40
14.0
 40
14.0
 40
14.0
 40
15.0
 40
15.0
 40
15.0
 40
16.0
 40
16.0
 40
16.0
 40
17.0
 40
17.0
 40
17.0
 40
17.0
 10
-6.146739366319444
 20
-6.93170437282986
 10
-6.205133734809027
 20
-6.936872016059027
 10
-6.268523491753472
 20
-6.942039659288194
 10
-6.32674560546875
 20
-6.926192220052083
 10
-6.411322699652777
 20
-6.883817545572916
 10
-6.400815158420138
 20
-6.777708604600694
 10
-6.400815158420138
 20
-6.703294542100694
 10
-6.400815158420138
 20
-6.703294542100694
 10
-6.400815158420138
 20
-5.009857855902777
 10
-6.400815158420138
 20
-5.009857855902777
 10
-6.400815158420138
 20
-4.940611436631944
 10
-6.32674560546875
 20
-4.20904541015625
 10
-7.19835476345486
 20
-4.20904541015625
 10
-7.793150499131944
 20
-4.20904541015625
 10
-8.092012532552083
 20
-4.473628743489583
 10
-8.070997450086805
 20
-5.084099663628471
 10
-8.070997450086805
 20
-5.084099663628471
 10
-7.698927137586805
 20
-5.084099663628471
 10
-7.698927137586805
 20
-5.084099663628471
 10
-7.704267035590277
 20
-4.739073350694444
 10
-7.651040310329861
 20
-4.563890245225694
 10
-7.267601182725694
 20
-4.563890245225694
 10
-6.926536729600694
 20
-4.563890245225694
 10
-6.799412706163194
 20
-4.691358778211805
 10
-6.799412706163194
 20
-5.025533040364583
 10
-6.799412706163194
 20
-5.17952880859375
 10
-6.78873291015625
 20
-5.296317545572916
 10
-6.878649902343749
 20
-5.365391710069444
 10
-6.932048882378472
 20
-5.407594129774305
 10
-7.528050401475694
 20
-5.630491807725694
 10
-7.767312282986111
 20
-5.736600748697916
 10
-8.171249728732638
 20
-5.917123752170139
 10
-8.186752658420138
 20
-6.341559516059027
 10
-8.186752658420138
 20
-6.453180609809027
 10
-8.186752658420138
 20
-6.98906521267361
 10
-8.018976508246528
 20
-7.317210557725693
 10
-7.432276746961805
 20
-7.317210557725693
 10
-7.150123426649305
 20
-7.317210557725693
 10
-6.878649902343749
 20
-7.100169542100693
 10
-6.778225368923611
 20
-6.840409342447916
 10
-6.778225368923611
 20
-6.840409342447916
 10
-6.767890082465277
 20
-6.840409342447916
 10
-6.767890082465277
 20
-6.840409342447916
 10
-6.726032172309028
 20
-7.243830023871527
 10
-6.594774034288194
 20
-7.275524902343749
 10
-6.241996256510416
 20
-7.259677463107638
 10
-6.210301378038194
 20
-7.248997667100694
 10
-6.178606499565972
 20
-7.243830023871527
 10
-6.146739366319444
 20
-7.23831787109375
 10
-6.146739366319444
 20
-7.23831787109375
 10
-6.146739366319444
 20
-6.93170437282986
 10
-6.146739366319444
 20
-6.93170437282986
 97
        0
 92
        1
 93
        1
 72
     4
 94
        3
 73
     0
 74
     0
 95
       20
 96
       16
 40
0.0
 40
0.0
 40
0.0
 40
0.0
 40
1.0
 40
1.0
 40
1.0
 40
2.0
 40
2.0
 40
2.0
 40
3.0
 40
3.0
 40
3.0
 40
4.0
 40
4.0
 40
4.0
 40
5.0
 40
5.0
 40
5.0
 40
5.0
 10
-6.830763075086805
 20
-6.362746853298611
 10
-6.830763075086805
 20
-6.840409342447916
 10
-7.182162814670138
 20
-6.96236572265625
 10
-7.341670735677083
 20
-6.96236572265625
 10
-7.682390679253472
 20
-6.96236572265625
 10
-7.756804741753472
 20
-6.771507432725694
 10
-7.756804741753472
 20
-6.47436794704861
 10
-7.756804741753472
 20
-6.272657606336805
 10
-7.692898220486111
 20
-6.054927571614583
 10
-7.496011013454861
 20
-5.964838324652777
 10
-7.27242431640625
 20
-5.85855712890625
 10
-7.038502332899305
 20
-5.768467881944444
 10
-6.830763075086805
 20
-5.646511501736111
 10
-6.830763075086805
 20
-5.646511501736111
 10
-6.830763075086805
 20
-6.362746853298611
 10
-6.830763075086805
 20
-6.362746853298611
 97
        0
 75
     0
 76
     1
 98
        1
 10
0.0
 20
0.0
  0
HATCH
  5
25
330
22
100
AcDbEntity
  8
LAYER_1
 62
     7
100
AcDbHatch
 10
0.0
 20
0.0
 30
0.0
210
0.0
220
0.0
230
1.0
  2
SOLID
 70
     1
 71
     0
 91
        2
 92
       16
 93
        1
 72
     4
 94
        3
 73
     0
 74
     0
 95
       38
 96
       34
 40
0.0
 40
0.0
 40
0.0
 40
0.0
 40
1.0
 40
1.0
 40
1.0
 40
2.0
 40
2.0
 40
2.0
 40
3.0
 40
3.0
 40
3.0
 40
4.0
 40
4.0
 40
4.0
 40
5.0
 40
5.0
 40
5.0
 40
6.0
 40
6.0
 40
6.0
 40
7.0
 40
7.0
 40
7.0
 40
8.0
 40
8.0
 40
8.0
 40
9.0
 40
9.0
 40
9.0
 40
10.0
 40
10.0
 40
10.0
 40
11.0
 40
11.0
 40
11.0
 40
11.0
 10
-4.174766710069444
 20
-4.590245225694444
 10
-4.174766710069444
 20
-4.590245225694444
 10
-4.185274251302083
 20
-4.590245225694444
 10
-4.185274251302083
 20
-4.590245225694444
 10
-4.381472439236111
 20
-4.336169433593749
 10
-4.561823187934027
 20
-4.20904541015625
 10
-4.864130316840277
 20
-4.20904541015625
 10
-5.493549262152778
 20
-4.20904541015625
 10
-5.777252875434027
 20
-4.892896864149305
 10
-5.74573025173611
 20
-5.757960340711805
 10
-5.735222710503471
 20
-6.017720540364583
 10
-5.808947753906249
 20
-7.317210557725693
 10
-4.885317654079861
 20
-7.317210557725693
 10
-4.530128309461805
 20
-7.317210557725693
 10
-4.349605305989583
 20
-7.200766330295139
 10
-4.169426812065971
 20
-6.851089138454861
 10
-4.169426812065971
 20
-6.851089138454861
 10
-4.158747016059027
 20
-6.851089138454861
 10
-4.158747016059027
 20
-6.851089138454861
 10
-4.158747016059027
 20
-6.851089138454861
 10
-4.158747016059027
 20
-7.234872775607638
 10
-4.158747016059027
 20
-7.234872775607638
 10
-4.158747016059027
 20
-7.234872775607638
 10
-3.754637315538194
 20
-7.234872775607638
 10
-3.754637315538194
 20
-7.234872775607638
 10
-3.754637315538194
 20
-7.234872775607638
 10
-3.754637315538194
 20
-3.266122775607639
 10
-3.754637315538194
 20
-3.266122775607639
 10
-3.754637315538194
 20
-3.266122775607639
 10
-4.174766710069444
 20
-3.266122775607639
 10
-4.174766710069444
 20
-3.266122775607639
 10
-4.174766710069444
 20
-3.266122775607639
 10
-4.174766710069444
 20
-4.590245225694444
 10
-4.174766710069444
 20
-4.590245225694444
 97
        0
 92
        1
 93
        1
 72
     4
 94
        3
 73
     0
 74
     0
 95
       20
 96
       16
 40
0.0
 40
0.0
 40
0.0
 40
0.0
 40
1.0
 40
1.0
 40
1.0
 40
2.0
 40
2.0
 40
2.0
 40
3.0
 40
3.0
 40
3.0
 40
4.0
 40
4.0
 40
4.0
 40
5.0
 40
5.0
 40
5.0
 40
5.0
 10
-4.174766710069444
 20
-6.081627061631944
 10
-4.174766710069444
 20
-6.415973578559028
 10
-4.296723090277777
 20
-6.96236572265625
 10
-4.731666395399305
 20
-6.96236572265625
 10
-5.304413519965277
 20
-6.96236572265625
 10
-5.325600857204861
 20
-6.383934190538194
 10
-5.325600857204861
 20
-5.747280544704861
 10
-5.325600857204861
 20
-4.839842393663194
 10
-5.097535536024306
 20
-4.563890245225694
 10
-4.747341579861111
 20
-4.563890245225694
 10
-4.185274251302083
 20
-4.563890245225694
 10
-4.174766710069444
 20
-5.312164984809027
 10
-4.174766710069444
 20
-5.715585666232639
 10
-4.174766710069444
 20
-5.715585666232639
 10
-4.174766710069444
 20
-6.081627061631944
 10
-4.174766710069444
 20
-6.081627061631944
 97
        0
 75
     0
 76
     1
 98
        1
 10
0.0
 20
0.0
  0
ENDBLK
  5
3C
330
22
100
AcDbEntity
  8
LAYER_1
100
AcDbBlockEnd
  0
BLOCK
  5
3F
330
3D
100
AcDbEntity
  8
LAYER_1
 62
     7
100
AcDbBlockBegin
  2
AI9-BLK2
 70
     0
 10
0.0
 20
0.0
 30
0.0
  3
AI9-BLK2
  1

  4

  0
SPLINE
  5
41
330
3D
100
AcDbEntity
  8
LAYER_1
 62
     7
100
AcDbSpline
210
0.0
220
0.0
230
1.0
 70
     8
 71
     3
 72
    11
 73
     7
 74
     0
 42
0.0000000001
 43
0.0000000001
 40
0.0
 40
0.0
 40
0.0
 40
0.0
 40
1.0
 40
1.0
 40
1.0
 40
2.0
 40
2.0
 40
2.0
 40
2.0
 10
-12.90894504123264
 20
-6.270159912109374
 30
0.0
 10
-4.618667263454861
 20
-7.063909912109375
 30
0.0
 10
-0.9145005967881944
 20
-0.6257154676649305
 30
0.0
 10
-0.9145005967881944
 20
-0.6257154676649305
 30
0.0
 10
-0.9145005967881944
 20
-0.6257154676649305
 30
0.0
 10
2.602252875434028
 20
7.411003282335069
 30
0.0
 10
14.07855495876736
 20
6.606228976779513
 30
0.0
  0
HATCH
  5
40
330
3D
100
AcDbEntity
  8
LAYER_1
 62
     7
100
AcDbHatch
 10
0.0
 20
0.0
 30
0.0
210
0.0
220
0.0
230
1.0
  2
SOLID
 70
     1
 71
     0
 91
        1
 92
        1
 93
        1
 72
     4
 94
        3
 73
     0
 74
     0
 95
       29
 96
       25
 40
0.0
 40
0.0
 40
0.0
 40
0.0
 40
1.0
 40
1.0
 40
1.0
 40
2.0
 40
2.0
 40
2.0
 40
3.0
 40
3.0
 40
3.0
 40
4.0
 40
4.0
 40
4.0
 40
5.0
 40
5.0
 40
5.0
 40
6.0
 40
6.0
 40
6.0
 40
7.0
 40
7.0
 40
7.0
 40
8.0
 40
8.0
 40
8.0
 40
8.0
 10
-12.77734239366319
 20
-6.283940294053819
 10
-12.77734239366319
 20
-6.283940294053819
 10
-12.53411865234375
 20
-6.785890706380208
 10
-12.53411865234375
 20
-6.785890706380208
 10
-12.53411865234375
 20
-6.785890706380208
 10
-12.55151638454861
 20
-6.795192464192708
 10
-12.55151638454861
 20
-6.795192464192708
 10
-12.55151638454861
 20
-6.795192464192708
 10
-13.29565700954861
 20
-6.413820393880208
 10
-13.29565700954861
 20
-6.413820393880208
 10
-13.55972357855903
 20
-6.328554280598958
 10
-13.82361789279514
 20
-6.243632676866319
 10
-14.08733995225694
 20
-6.158194308810764
 10
-13.81224907769097
 20
-6.124949137369791
 10
-13.53698594835069
 20
-6.091359456380208
 10
-13.26155056423611
 20
-6.057769775390624
 10
-13.26155056423611
 20
-6.057769775390624
 10
-12.45849880642361
 20
-5.824709065755208
 10
-12.45849880642361
 20
-5.824709065755208
 10
-12.45849880642361
 20
-5.824709065755208
 10
-12.44316813151042
 20
-5.834355333116319
 10
-12.44316813151042
 20
-5.834355333116319
 10
-12.44316813151042
 20
-5.834355333116319
 10
-12.77734239366319
 20
-6.283940294053819
 10
-12.77734239366319
 20
-6.283940294053819
 97
        0
 75
     0
 76
     1
 98
        1
 10
0.0
 20
0.0
  0
ENDBLK
  5
42
330
3D
100
AcDbEntity
  8
LAYER_1
100
AcDbBlockEnd
  0
BLOCK
  5
45
330
43
100
AcDbEntity
  8
LAYER_1
 62
     7
100
AcDbBlockBegin
  2
AI9-BLK3
 70
     0
 10
0.0
 20
0.0
 30
0.0
  3
AI9-BLK3
  1

  4

  0
HATCH
  5
5C
330
43
100
AcDbEntity
  8
LAYER_1
 62
     7
100
AcDbHatch
 10
0.0
 20
0.0
 30
0.0
210
0.0
220
0.0
230
1.0
  2
SOLID
 70
     1
 71
     0
 91
        1
 92
        1
 93
        1
 72
     4
 94
        3
 73
     0
 74
     0
 95
       56
 96
       52
 40
0.0
 40
0.0
 40
0.0
 40
0.0
 40
1.0
 40
1.0
 40
1.0
 40
2.0
 40
2.0
 40
2.0
 40
3.0
 40
3.0
 40
3.0
 40
4.0
 40
4.0
 40
4.0
 40
5.0
 40
5.0
 40
5.0
 40
6.0
 40
6.0
 40
6.0
 40
7.0
 40
7.0
 40
7.0
 40
8.0
 40
8.0
 40
8.0
 40
9.0
 40
9.0
 40
9.0
 40
10.0
 40
10.0
 40
10.0
 40
11.0
 40
11.0
 40
11.0
 40
12.0
 40
12.0
 40
12.0
 40
13.0
 40
13.0
 40
13.0
 40
14.0
 40
14.0
 40
14.0
 40
15.0
 40
15.0
 40
15.0
 40
16.0
 40
16.0
 40
16.0
 40
17.0
 40
17.0
 40
17.0
 40
17.0
 10
-11.26287841796875
 20
4.118611653645833
 10
-11.23118353949653
 20
4.531334092881944
 10
-11.45339219835069
 20
4.843459743923611
 10
-11.89298638237847
 20
4.843459743923611
 10
-12.53342963324653
 20
4.843459743923611
 10
-12.60233154296875
 20
4.441417100694444
 10
-12.60233154296875
 20
4.134459092881945
 10
-12.60233154296875
 20
3.859540473090278
 10
-12.48037516276042
 20
3.690041775173611
 10
-12.22647162543403
 20
3.594957139756944
 10
-12.01459825303819
 20
3.515719943576388
 10
-11.80823703342014
 20
3.436310492621527
 10
-11.59653591579861
 20
3.356901041666666
 10
-10.84636637369792
 20
3.076642523871528
 10
-10.70890706380208
 20
2.812059190538194
 10
-10.70890706380208
 20
2.288232421875
 10
-10.70890706380208
 20
1.537201605902778
 10
-11.17950710720486
 20
1.097951931423611
 10
-11.93983968098958
 20
1.097951931423611
 10
-12.33051350911458
 20
1.097951931423611
 10
-12.79525689019097
 20
1.209056260850694
 10
-13.02228868272569
 20
1.727715386284722
 10
-13.10669352213542
 20
1.923224555121528
 10
-13.10135362413194
 20
2.240690104166666
 10
-13.10669352213542
 20
2.452391221788194
 10
-13.10669352213542
 20
2.452391221788194
 10
-12.66847737630208
 20
2.452391221788194
 10
-12.66847737630208
 20
2.452391221788194
 10
-12.68949245876736
 20
1.865174696180555
 10
-12.57856038411458
 20
1.494826931423611
 10
-11.91882459852431
 20
1.494826931423611
 10
-11.47509629991319
 20
1.494826931423611
 10
-11.16365966796875
 20
1.722203233506944
 10
-11.16365966796875
 20
2.187807888454861
 10
-11.16365966796875
 20
2.790871853298611
 10
-11.40653889973958
 20
2.796384006076389
 10
-11.80823703342014
 20
2.949518500434027
 10
-12.02527804904514
 20
3.034267849392361
 10
-12.37478298611111
 20
3.145372178819444
 10
-12.58648410373264
 20
3.256476508246528
 10
-12.96182725694444
 20
3.446818033854167
 10
-13.05708414713542
 20
3.764111328125
 10
-13.05708414713542
 20
4.155646430121528
 10
-13.05708414713542
 20
4.811764865451388
 10
-12.59699164496528
 20
5.240334743923611
 10
-11.95103624131944
 20
5.240334743923611
 10
-11.22601589626736
 20
5.240334743923611
 10
-10.78228759765625
 20
4.864647081163194
 10
-10.82466227213542
 20
4.118611653645833
 10
-10.82466227213542
 20
4.118611653645833
 10
-11.26287841796875
 20
4.118611653645833
 10
-11.26287841796875
 20
4.118611653645833
 97
        0
 75
     0
 76
     1
 98
        1
 10
0.0
 20
0.0
  0
HATCH
  5
5B
330
43
100
AcDbEntity
  8
LAYER_1
 62
     7
100
AcDbHatch
 10
0.0
 20
0.0
 30
0.0
210
0.0
220
0.0
230
1.0
  2
SOLID
 70
     1
 71
     0
 91
        1
 92
        1
 93
        1
 72
     4
 94
        3
 73
     0
 74
     0
 95
       53
 96
       49
 40
0.0
 40
0.0
 40
0.0
 40
0.0
 40
1.0
 40
1.0
 40
1.0
 40
2.0
 40
2.0
 40
2.0
 40
3.0
 40
3.0
 40
3.0
 40
4.0
 40
4.0
 40
4.0
 40
5.0
 40
5.0
 40
5.0
 40
6.0
 40
6.0
 40
6.0
 40
7.0
 40
7.0
 40
7.0
 40
8.0
 40
8.0
 40
8.0
 40
9.0
 40
9.0
 40
9.0
 40
10.0
 40
10.0
 40
10.0
 40
11.0
 40
11.0
 40
11.0
 40
12.0
 40
12.0
 40
12.0
 40
13.0
 40
13.0
 40
13.0
 40
14.0
 40
14.0
 40
14.0
 40
15.0
 40
15.0
 40
15.0
 40
16.0
 40
16.0
 40
16.0
 40
16.0
 10
-9.56685791015625
 20
4.131875271267361
 10
-9.56685791015625
 20
4.131875271267361
 10
-9.074898274739583
 20
4.131875271267361
 10
-9.074898274739583
 20
4.131875271267361
 10
-9.074898274739583
 20
4.131875271267361
 10
-9.074898274739583
 20
3.777374945746527
 10
-9.074898274739583
 20
3.777374945746527
 10
-9.074898274739583
 20
3.777374945746527
 10
-9.561690266927082
 20
3.777374945746527
 10
-9.561690266927082
 20
3.777374945746527
 10
-9.561690266927082
 20
3.777374945746527
 10
-9.561690266927082
 20
1.771468098958333
 10
-9.561690266927082
 20
1.771468098958333
 10
-9.561690266927082
 20
1.671043565538194
 10
-9.598897298177082
 20
1.543919542100694
 10
-9.366008843315971
 20
1.543919542100694
 10
-9.366008843315971
 20
1.543919542100694
 10
-9.085578070746527
 20
1.543919542100694
 10
-9.085578070746527
 20
1.543919542100694
 10
-9.085578070746527
 20
1.543919542100694
 10
-9.085578070746527
 20
1.189419216579861
 10
-9.085578070746527
 20
1.189419216579861
 10
-9.085578070746527
 20
1.189419216579861
 10
-9.545842827690972
 20
1.189419216579861
 10
-9.545842827690972
 20
1.189419216579861
 10
-9.795612250434028
 20
1.184079318576389
 10
-9.981991916232637
 20
1.226453993055555
 10
-9.981991916232637
 20
1.671043565538194
 10
-9.981991916232637
 20
1.671043565538194
 10
-9.981991916232637
 20
3.777374945746527
 10
-9.981991916232637
 20
3.777374945746527
 10
-9.981991916232637
 20
3.777374945746527
 10
-10.38937445746528
 20
3.777374945746527
 10
-10.38937445746528
 20
3.777374945746527
 10
-10.38937445746528
 20
3.777374945746527
 10
-10.38937445746528
 20
4.131875271267361
 10
-10.38937445746528
 20
4.131875271267361
 10
-10.38937445746528
 20
4.131875271267361
 10
-9.981991916232637
 20
4.131875271267361
 10
-9.981991916232637
 20
4.131875271267361
 10
-9.981991916232637
 20
4.131875271267361
 10
-9.981991916232637
 20
4.930965169270833
 10
-9.981991916232637
 20
4.930965169270833
 10
-9.981991916232637
 20
4.930965169270833
 10
-9.56685791015625
 20
4.930965169270833
 10
-9.56685791015625
 20
4.930965169270833
 10
-9.56685791015625
 20
4.930965169270833
 10
-9.56685791015625
 20
4.131875271267361
 10
-9.56685791015625
 20
4.131875271267361
 97
        0
 75
     0
 76
     1
 98
        1
 10
0.0
 20
0.0
  0
HATCH
  5
5A
330
43
100
AcDbEntity
  8
LAYER_1
 62
     7
100
AcDbHatch
 10
0.0
 20
0.0
 30
0.0
210
0.0
220
0.0
230
1.0
  2
SOLID
 70
     1
 71
     0
 91
        1
 92
        1
 93
        1
 72
     4
 94
        3
 73
     0
 74
     0
 95
       32
 96
       28
 40
0.0
 40
0.0
 40
0.0
 40
0.0
 40
1.0
 40
1.0
 40
1.0
 40
2.0
 40
2.0
 40
2.0
 40
3.0
 40
3.0
 40
3.0
 40
4.0
 40
4.0
 40
4.0
 40
5.0
 40
5.0
 40
5.0
 40
6.0
 40
6.0
 40
6.0
 40
7.0
 40
7.0
 40
7.0
 40
8.0
 40
8.0
 40
8.0
 40
9.0
 40
9.0
 40
9.0
 40
9.0
 10
-8.13128662109375
 20
3.652145724826389
 10
-8.13128662109375
 20
3.652145724826389
 10
-8.12077907986111
 20
3.652145724826389
 10
-8.12077907986111
 20
3.652145724826389
 10
-7.946112738715277
 20
4.038340928819444
 10
-7.697204589843749
 20
4.202327473958333
 10
-7.258299424913194
 20
4.165464952256945
 10
-7.258299424913194
 20
4.165464952256945
 10
-7.258299424913194
 20
3.752570258246527
 10
-7.258299424913194
 20
3.752570258246527
 10
-7.797801378038193
 20
3.8478271484375
 10
-8.115439181857639
 20
3.508829752604167
 10
-8.115439181857639
 20
2.974150933159722
 10
-8.115439181857639
 20
2.974150933159722
 10
-8.115439181857639
 20
1.188902452256944
 10
-8.115439181857639
 20
1.188902452256944
 10
-8.115439181857639
 20
1.188902452256944
 10
-8.535396321614583
 20
1.188902452256944
 10
-8.535396321614583
 20
1.188902452256944
 10
-8.535396321614583
 20
1.188902452256944
 10
-8.535396321614583
 20
4.132392035590278
 10
-8.535396321614583
 20
4.132392035590278
 10
-8.535396321614583
 20
4.132392035590278
 10
-8.13128662109375
 20
4.132392035590278
 10
-8.13128662109375
 20
4.132392035590278
 10
-8.13128662109375
 20
4.132392035590278
 10
-8.13128662109375
 20
3.652145724826389
 10
-8.13128662109375
 20
3.652145724826389
 97
        0
 75
     0
 76
     1
 98
        1
 10
0.0
 20
0.0
  0
HATCH
  5
59
330
43
100
AcDbEntity
  8
LAYER_1
 62
     7
100
AcDbHatch
 10
0.0
 20
0.0
 30
0.0
210
0.0
220
0.0
230
1.0
  2
SOLID
 70
     1
 71
     0
 91
        2
 92
       16
 93
        1
 72
     4
 94
        3
 73
     0
 74
     0
 95
       17
 96
       13
 40
0.0
 40
0.0
 40
0.0
 40
0.0
 40
1.0
 40
1.0
 40
1.0
 40
2.0
 40
2.0
 40
2.0
 40
3.0
 40
3.0
 40
3.0
 40
4.0
 40
4.0
 40
4.0
 40
4.0
 10
-4.831229654947916
 20
2.761416286892361
 10
-4.831229654947916
 20
3.653179253472222
 10
-5.156446668836805
 20
4.214557562934028
 10
-5.881294759114583
 20
4.214557562934028
 10
-6.606487358940972
 20
4.214557562934028
 10
-6.93135986328125
 20
3.653179253472222
 10
-6.93135986328125
 20
2.761416286892361
 10
-6.93135986328125
 20
1.487936740451389
 10
-6.517259385850694
 20
1.106736924913194
 10
-5.881294759114583
 20
1.106736924913194
 10
-5.234994845920139
 20
1.106736924913194
 10
-4.831229654947916
 20
1.482424587673611
 10
-4.831229654947916
 20
2.761416286892361
 97
        0
 92
        1
 93
        1
 72
     4
 94
        3
 73
     0
 74
     0
 95
       17
 96
       13
 40
0.0
 40
0.0
 40
0.0
 40
0.0
 40
1.0
 40
1.0
 40
1.0
 40
2.0
 40
2.0
 40
2.0
 40
3.0
 40
3.0
 40
3.0
 40
4.0
 40
4.0
 40
4.0
 40
4.0
 10
-5.261177571614583
 20
2.628952365451389
 10
-5.261177571614583
 20
1.933559841579861
 10
-5.382961697048611
 20
1.461237250434028
 10
-5.881294759114583
 20
1.461237250434028
 10
-6.36894802517361
 20
1.461237250434028
 10
-6.501411946614582
 20
1.933559841579861
 10
-6.501411946614582
 20
2.628952365451389
 10
-6.501411946614582
 20
3.520198567708333
 10
-6.310553656684027
 20
3.860057237413194
 10
-5.881294759114583
 20
3.860057237413194
 10
-5.441356065538194
 20
3.860057237413194
 10
-5.261177571614583
 20
3.520198567708333
 10
-5.261177571614583
 20
2.628952365451389
 97
        0
 75
     0
 76
     1
 98
        1
 10
0.0
 20
0.0
  0
HATCH
  5
58
330
43
100
AcDbEntity
  8
LAYER_1
 62
     7
100
AcDbHatch
 10
0.0
 20
0.0
 30
0.0
210
0.0
220
0.0
230
1.0
  2
SOLID
 70
     1
 71
     0
 91
        1
 92
        1
 93
        1
 72
     4
 94
        3
 73
     0
 74
     0
 95
       47
 96
       43
 40
0.0
 40
0.0
 40
0.0
 40
0.0
 40
1.0
 40
1.0
 40
1.0
 40
2.0
 40
2.0
 40
2.0
 40
3.0
 40
3.0
 40
3.0
 40
4.0
 40
4.0
 40
4.0
 40
5.0
 40
5.0
 40
5.0
 40
6.0
 40
6.0
 40
6.0
 40
7.0
 40
7.0
 40
7.0
 40
8.0
 40
8.0
 40
8.0
 40
9.0
 40
9.0
 40
9.0
 40
10.0
 40
10.0
 40
10.0
 40
11.0
 40
11.0
 40
11.0
 40
12.0
 40
12.0
 40
12.0
 40
13.0
 40
13.0
 40
13.0
 40
14.0
 40
14.0
 40
14.0
 40
14.0
 10
-3.767728678385416
 20
3.812342664930555
 10
-3.767728678385416
 20
3.812342664930555
 10
-3.757221137152778
 20
3.812342664930555
 10
-3.757221137152778
 20
3.812342664930555
 10
-3.555855305989583
 20
4.066590711805556
 10
-3.338642035590278
 20
4.214557562934028
 10
-3.021176486545139
 20
4.214557562934028
 10
-2.580893283420139
 20
4.214557562934028
 10
-2.293744574652778
 20
3.981841362847222
 10
-2.293744574652778
 20
3.462320963541667
 10
-2.293744574652778
 20
3.462320963541667
 10
-2.293744574652778
 20
1.188902452256944
 10
-2.293744574652778
 20
1.188902452256944
 10
-2.293744574652778
 20
1.188902452256944
 10
-2.713873969184028
 20
1.188902452256944
 10
-2.713873969184028
 20
1.188902452256944
 10
-2.713873969184028
 20
1.188902452256944
 10
-2.713873969184028
 20
3.345876736111111
 10
-2.713873969184028
 20
3.345876736111111
 10
-2.713873969184028
 20
3.653351508246527
 10
-2.814470757378472
 20
3.860057237413194
 10
-3.153468153211805
 20
3.860057237413194
 10
-3.307119411892361
 20
3.860057237413194
 10
-3.455258517795139
 20
3.801662868923611
 10
-3.566535101996527
 20
3.695726182725694
 10
-3.736033799913194
 20
3.541902669270833
 10
-3.757221137152778
 20
3.372403971354166
 10
-3.757221137152778
 20
3.158291286892361
 10
-3.757221137152778
 20
3.158291286892361
 10
-3.757221137152778
 20
1.188902452256944
 10
-3.757221137152778
 20
1.188902452256944
 10
-3.757221137152778
 20
1.188902452256944
 10
-4.177350531684027
 20
1.188902452256944
 10
-4.177350531684027
 20
1.188902452256944
 10
-4.177350531684027
 20
1.188902452256944
 10
-4.177350531684027
 20
4.132392035590278
 10
-4.177350531684027
 20
4.132392035590278
 10
-4.177350531684027
 20
4.132392035590278
 10
-3.767728678385416
 20
4.132392035590278
 10
-3.767728678385416
 20
4.132392035590278
 10
-3.767728678385416
 20
4.132392035590278
 10
-3.767728678385416
 20
3.812342664930555
 10
-3.767728678385416
 20
3.812342664930555
 97
        0
 75
     0
 76
     1
 98
        1
 10
0.0
 20
0.0
  0
HATCH
  5
57
330
43
100
AcDbEntity
  8
LAYER_1
 62
     7
100
AcDbHatch
 10
0.0
 20
0.0
 30
0.0
210
0.0
220
0.0
230
1.0
  2
SOLID
 70
     1
 71
     0
 91
        2
 92
       16
 93
        1
 72
     4
 94
        3
 73
     0
 74
     0
 95
       50
 96
       46
 40
0.0
 40
0.0
 40
0.0
 40
0.0
 40
1.0
 40
1.0
 40
1.0
 40
2.0
 40
2.0
 40
2.0
 40
3.0
 40
3.0
 40
3.0
 40
4.0
 40
4.0
 40
4.0
 40
5.0
 40
5.0
 40
5.0
 40
6.0
 40
6.0
 40
6.0
 40
7.0
 40
7.0
 40
7.0
 40
8.0
 40
8.0
 40
8.0
 40
9.0
 40
9.0
 40
9.0
 40
10.0
 40
10.0
 40
10.0
 40
11.0
 40
11.0
 40
11.0
 40
12.0
 40
12.0
 40
12.0
 40
13.0
 40
13.0
 40
13.0
 40
14.0
 40
14.0
 40
14.0
 40
15.0
 40
15.0
 40
15.0
 40
15.0
 10
-0.0763088650173611
 20
3.801662868923611
 10
-0.0763088650173611
 20
3.801662868923611
 10
-0.0869886610243056
 20
3.801662868923611
 10
-0.0869886610243056
 20
3.801662868923611
 10
-0.2299601236979167
 20
4.08226589626736
 10
-0.4738728841145833
 20
4.214557562934028
 10
-0.7444851345486111
 20
4.214557562934028
 10
-1.520665147569444
 20
4.214557562934028
 10
-1.67276611328125
 20
3.302813042534722
 10
-1.67276611328125
 20
2.681834581163194
 10
-1.67276611328125
 20
1.493104383680555
 10
-1.290016004774305
 20
1.106736924913194
 10
-0.733633083767361
 20
1.106736924913194
 10
-0.4633653428819444
 20
1.106736924913194
 10
-0.2723347981770833
 20
1.228521050347222
 10
-0.0974962022569444
 20
1.530311414930555
 10
-0.0974962022569444
 20
1.530311414930555
 10
-0.0869886610243056
 20
1.530311414930555
 10
-0.0869886610243056
 20
1.530311414930555
 10
-0.0921563042534722
 20
1.207161458333333
 10
-0.0230821397569444
 20
0.5434638129340277
 10
-0.7019382052951388
 20
0.5434638129340277
 10
-0.9563585069444444
 20
0.5434638129340277
 10
-1.126029459635417
 20
0.6435438368055555
 10
-1.163236490885417
 20
0.9067491319444444
 10
-1.163236490885417
 20
0.9067491319444444
 10
-1.568035210503472
 20
0.9067491319444444
 10
-1.568035210503472
 20
0.9067491319444444
 10
-1.510329861111111
 20
0.4060045030381944
 10
-1.163236490885417
 20
0.1889634874131944
 10
-0.6912584092881944
 20
0.1889634874131944
 10
-0.3677639431423611
 20
0.1889634874131944
 10
-0.0654568142361111
 20
0.3052354600694444
 10
0.1205783420138889
 20
0.5961737738715277
 10
0.3171210394965278
 20
0.9067491319444444
 10
0.3438205295138889
 20
1.180978732638889
 10
0.3438205295138889
 20
1.540818956163194
 10
0.3438205295138889
 20
1.540818956163194
 10
0.3438205295138889
 20
4.132392035590278
 10
0.3438205295138889
 20
4.132392035590278
 10
0.3438205295138889
 20
4.132392035590278
 10
-0.0763088650173611
 20
4.132392035590278
 10
-0.0763088650173611
 20
4.132392035590278
 10
-0.0763088650173611
 20
4.132392035590278
 10
-0.0763088650173611
 20
3.801662868923611
 10
-0.0763088650173611
 20
3.801662868923611
 97
        0
 92
        1
 93
        1
 72
     4
 94
        3
 73
     0
 74
     0
 95
       17
 96
       13
 40
0.0
 40
0.0
 40
0.0
 40
0.0
 40
1.0
 40
1.0
 40
1.0
 40
2.0
 40
2.0
 40
2.0
 40
3.0
 40
3.0
 40
3.0
 40
4.0
 40
4.0
 40
4.0
 40
4.0
 10
-0.6649034288194444
 20
3.860057237413194
 10
-0.1982652452256944
 20
3.860057237413194
 10
-0.0763088650173611
 20
3.308152940538194
 10
-0.0763088650173611
 20
2.724209255642361
 10
-0.0763088650173611
 20
2.251886664496527
 10
-0.0707967122395833
 20
1.461237250434028
 10
-0.7072781032986111
 20
1.461237250434028
 10
-1.12086181640625
 20
1.461237250434028
 10
-1.242818196614583
 20
1.938899739583333
 10
-1.242818196614583
 20
2.660647243923611
 10
-1.242818196614583
 20
3.058555772569444
 10
-1.221803114149306
 20
3.860057237413194
 10
-0.6649034288194444
 20
3.860057237413194
 97
        0
 75
     0
 76
     1
 98
        1
 10
0.0
 20
0.0
  0
HATCH
  5
56
330
43
100
AcDbEntity
  8
LAYER_1
 62
     7
100
AcDbHatch
 10
0.0
 20
0.0
 30
0.0
210
0.0
220
0.0
230
1.0
  2
SOLID
 70
     1
 71
     0
 91
        1
 92
        1
 93
        1
 72
     4
 94
        3
 73
     0
 74
     0
 95
       17
 96
       13
 40
0.0
 40
0.0
 40
0.0
 40
0.0
 40
1.0
 40
1.0
 40
1.0
 40
2.0
 40
2.0
 40
2.0
 40
3.0
 40
3.0
 40
3.0
 40
4.0
 40
4.0
 40
4.0
 40
4.0
 10
0.9737562391493054
 20
2.644110785590278
 10
0.9737562391493054
 20
2.644110785590278
 10
0.9737562391493054
 20
3.082326931423611
 10
0.9737562391493054
 20
3.082326931423611
 10
0.9737562391493054
 20
3.082326931423611
 10
2.262049696180555
 20
3.082326931423611
 10
2.262049696180555
 20
3.082326931423611
 10
2.262049696180555
 20
3.082326931423611
 10
2.262049696180555
 20
2.644110785590278
 10
2.262049696180555
 20
2.644110785590278
 10
2.262049696180555
 20
2.644110785590278
 10
0.9737562391493054
 20
2.644110785590278
 10
0.9737562391493054
 20
2.644110785590278
 97
        0
 75
     0
 76
     1
 98
        1
 10
0.0
 20
0.0
  0
HATCH
  5
55
330
43
100
AcDbEntity
  8
LAYER_1
 62
     7
100
AcDbHatch
 10
0.0
 20
0.0
 30
0.0
210
0.0
220
0.0
230
1.0
  2
SOLID
 70
     1
 71
     0
 91
        2
 92
       16
 93
        1
 72
     4
 94
        3
 73
     0
 74
     0
 95
       20
 96
       16
 40
0.0
 40
0.0
 40
0.0
 40
0.0
 40
1.0
 40
1.0
 40
1.0
 40
2.0
 40
2.0
 40
2.0
 40
3.0
 40
3.0
 40
3.0
 40
4.0
 40
4.0
 40
4.0
 40
5.0
 40
5.0
 40
5.0
 40
5.0
 10
4.101730685763888
 20
1.188902452256944
 10
5.175566948784722
 20
1.188902452256944
 10
5.365736219618055
 20
2.204861111111111
 10
5.397603352864583
 20
3.173277452256944
 10
5.429298231336805
 20
4.152373589409722
 10
5.26014404296875
 20
5.157652452256944
 10
4.022321234809027
 20
5.157652452256944
 10
4.022321234809027
 20
5.157652452256944
 10
2.933671061197916
 20
5.157652452256944
 10
2.933671061197916
 20
5.157652452256944
 10
2.933671061197916
 20
5.157652452256944
 10
2.933671061197916
 20
1.188902452256944
 10
2.933671061197916
 20
1.188902452256944
 10
2.933671061197916
 20
1.188902452256944
 10
4.101730685763888
 20
1.188902452256944
 10
4.101730685763888
 20
1.188902452256944
 97
        0
 92
        1
 93
        1
 72
     4
 94
        3
 73
     0
 74
     0
 95
       20
 96
       16
 40
0.0
 40
0.0
 40
0.0
 40
0.0
 40
1.0
 40
1.0
 40
1.0
 40
2.0
 40
2.0
 40
2.0
 40
3.0
 40
3.0
 40
3.0
 40
4.0
 40
4.0
 40
4.0
 40
5.0
 40
5.0
 40
5.0
 40
5.0
 10
3.37188720703125
 20
4.760777452256944
 10
3.37188720703125
 20
4.760777452256944
 10
4.075375705295139
 20
4.760777452256944
 10
4.075375705295139
 20
4.760777452256944
 10
4.784031846788194
 20
4.760777452256944
 10
4.910983615451388
 20
4.157541232638889
 10
4.942850748697916
 20
3.2525146484375
 10
4.985225423177083
 20
2.067401801215278
 10
4.72064208984375
 20
1.585777452256944
 10
4.075375705295139
 20
1.585777452256944
 10
4.075375705295139
 20
1.585777452256944
 10
3.37188720703125
 20
1.585777452256944
 10
3.37188720703125
 20
1.585777452256944
 10
3.37188720703125
 20
1.585777452256944
 10
3.37188720703125
 20
4.760777452256944
 10
3.37188720703125
 20
4.760777452256944
 97
        0
 75
     0
 76
     1
 98
        1
 10
0.0
 20
0.0
  0
HATCH
  5
54
330
43
100
AcDbEntity
  8
LAYER_1
 62
     7
100
AcDbHatch
 10
0.0
 20
0.0
 30
0.0
210
0.0
220
0.0
230
1.0
  2
SOLID
 70
     1
 71
     0
 91
        1
 92
        1
 93
        1
 72
     4
 94
        3
 73
     0
 74
     0
 95
       32
 96
       28
 40
0.0
 40
0.0
 40
0.0
 40
0.0
 40
1.0
 40
1.0
 40
1.0
 40
2.0
 40
2.0
 40
2.0
 40
3.0
 40
3.0
 40
3.0
 40
4.0
 40
4.0
 40
4.0
 40
5.0
 40
5.0
 40
5.0
 40
6.0
 40
6.0
 40
6.0
 40
7.0
 40
7.0
 40
7.0
 40
8.0
 40
8.0
 40
8.0
 40
9.0
 40
9.0
 40
9.0
 40
9.0
 10
6.563423665364582
 20
3.652145724826389
 10
6.563423665364582
 20
3.652145724826389
 10
6.574103461371527
 20
3.652145724826389
 10
6.574103461371527
 20
3.652145724826389
 10
6.748597547743055
 20
4.038340928819444
 10
6.997505696614582
 20
4.202327473958333
 10
7.436755371093749
 20
4.165464952256945
 10
7.436755371093749
 20
4.165464952256945
 10
7.436755371093749
 20
3.752570258246527
 10
7.436755371093749
 20
3.752570258246527
 10
6.896908908420138
 20
3.8478271484375
 10
6.579271104600694
 20
3.508829752604167
 10
6.579271104600694
 20
2.974150933159722
 10
6.579271104600694
 20
2.974150933159722
 10
6.579271104600694
 20
1.188902452256944
 10
6.579271104600694
 20
1.188902452256944
 10
6.579271104600694
 20
1.188902452256944
 10
6.15931396484375
 20
1.188902452256944
 10
6.15931396484375
 20
1.188902452256944
 10
6.15931396484375
 20
1.188902452256944
 10
6.15931396484375
 20
4.132392035590278
 10
6.15931396484375
 20
4.132392035590278
 10
6.15931396484375
 20
4.132392035590278
 10
6.563423665364582
 20
4.132392035590278
 10
6.563423665364582
 20
4.132392035590278
 10
6.563423665364582
 20
4.132392035590278
 10
6.563423665364582
 20
3.652145724826389
 10
6.563423665364582
 20
3.652145724826389
 97
        0
 75
     0
 76
     1
 98
        1
 10
0.0
 20
0.0
  0
HATCH
  5
53
330
43
100
AcDbEntity
  8
LAYER_1
 62
     7
100
AcDbHatch
 10
0.0
 20
0.0
 30
0.0
210
0.0
220
0.0
230
1.0
  2
SOLID
 70
     1
 71
     0
 91
        2
 92
        1
 93
        1
 72
     4
 94
        3
 73
     0
 74
     0
 95
       17
 96
       13
 40
0.0
 40
0.0
 40
0.0
 40
0.0
 40
1.0
 40
1.0
 40
1.0
 40
2.0
 40
2.0
 40
2.0
 40
3.0
 40
3.0
 40
3.0
 40
4.0
 40
4.0
 40
4.0
 40
4.0
 10
7.871870930989583
 20
4.628485785590278
 10
7.871870930989583
 20
4.628485785590278
 10
7.871870930989583
 20
5.157652452256944
 10
7.871870930989583
 20
5.157652452256944
 10
7.871870930989583
 20
5.157652452256944
 10
8.291828070746528
 20
5.157652452256944
 10
8.291828070746528
 20
5.157652452256944
 10
8.291828070746528
 20
5.157652452256944
 10
8.291828070746528
 20
4.628485785590278
 10
8.291828070746528
 20
4.628485785590278
 10
8.291828070746528
 20
4.628485785590278
 10
7.871870930989583
 20
4.628485785590278
 10
7.871870930989583
 20
4.628485785590278
 97
        0
 92
        1
 93
        1
 72
     4
 94
        3
 73
     0
 74
     0
 95
       17
 96
       13
 40
0.0
 40
0.0
 40
0.0
 40
0.0
 40
1.0
 40
1.0
 40
1.0
 40
2.0
 40
2.0
 40
2.0
 40
3.0
 40
3.0
 40
3.0
 40
4.0
 40
4.0
 40
4.0
 40
4.0
 10
7.871870930989583
 20
1.188902452256944
 10
7.871870930989583
 20
1.188902452256944
 10
7.871870930989583
 20
4.132392035590278
 10
7.871870930989583
 20
4.132392035590278
 10
7.871870930989583
 20
4.132392035590278
 10
8.291828070746528
 20
4.132392035590278
 10
8.291828070746528
 20
4.132392035590278
 10
8.291828070746528
 20
4.132392035590278
 10
8.291828070746528
 20
1.188902452256944
 10
8.291828070746528
 20
1.188902452256944
 10
8.291828070746528
 20
1.188902452256944
 10
7.871870930989583
 20
1.188902452256944
 10
7.871870930989583
 20
1.188902452256944
 97
        0
 75
     0
 76
     1
 98
        1
 10
0.0
 20
0.0
  0
HATCH
  5
52
330
43
100
AcDbEntity
  8
LAYER_1
 62
     7
100
AcDbHatch
 10
0.0
 20
0.0
 30
0.0
210
0.0
220
0.0
230
1.0
  2
SOLID
 70
     1
 71
     0
 91
        1
 92
        1
 93
        1
 72
     4
 94
        3
 73
     0
 74
     0
 95
       29
 96
       25
 40
0.0
 40
0.0
 40
0.0
 40
0.0
 40
1.0
 40
1.0
 40
1.0
 40
2.0
 40
2.0
 40
2.0
 40
3.0
 40
3.0
 40
3.0
 40
4.0
 40
4.0
 40
4.0
 40
5.0
 40
5.0
 40
5.0
 40
6.0
 40
6.0
 40
6.0
 40
7.0
 40
7.0
 40
7.0
 40
8.0
 40
8.0
 40
8.0
 40
8.0
 10
8.732111273871528
 20
4.132392035590278
 10
8.732111273871528
 20
4.132392035590278
 10
9.166537814670138
 20
4.132392035590278
 10
9.166537814670138
 20
4.132392035590278
 10
9.166537814670138
 20
4.132392035590278
 10
9.834197319878472
 20
1.543919542100694
 10
9.834197319878472
 20
1.543919542100694
 10
9.834197319878472
 20
1.543919542100694
 10
9.844532606336804
 20
1.543919542100694
 10
9.844532606336804
 20
1.543919542100694
 10
9.844532606336804
 20
1.543919542100694
 10
10.51219211154514
 20
4.132392035590278
 10
10.51219211154514
 20
4.132392035590278
 10
10.51219211154514
 20
4.132392035590278
 10
10.94661865234375
 20
4.132392035590278
 10
10.94661865234375
 20
4.132392035590278
 10
10.94661865234375
 20
4.132392035590278
 10
10.06191813151042
 20
1.188902452256944
 10
10.06191813151042
 20
1.188902452256944
 10
10.06191813151042
 20
1.188902452256944
 10
9.606304253472221
 20
1.188902452256944
 10
9.606304253472221
 20
1.188902452256944
 10
9.606304253472221
 20
1.188902452256944
 10
8.732111273871528
 20
4.132392035590278
 10
8.732111273871528
 20
4.132392035590278
 97
        0
 75
     0
 76
     1
 98
        1
 10
0.0
 20
0.0
  0
HATCH
  5
51
330
43
100
AcDbEntity
  8
LAYER_1
 62
     7
100
AcDbHatch
 10
0.0
 20
0.0
 30
0.0
210
0.0
220
0.0
230
1.0
  2
SOLID
 70
     1
 71
     0
 91
        2
 92
       16
 93
        1
 72
     4
 94
        3
 73
     0
 74
     0
 95
       29
 96
       25
 40
0.0
 40
0.0
 40
0.0
 40
0.0
 40
1.0
 40
1.0
 40
1.0
 40
2.0
 40
2.0
 40
2.0
 40
3.0
 40
3.0
 40
3.0
 40
4.0
 40
4.0
 40
4.0
 40
5.0
 40
5.0
 40
5.0
 40
6.0
 40
6.0
 40
6.0
 40
7.0
 40
7.0
 40
7.0
 40
8.0
 40
8.0
 40
8.0
 40
8.0
 10
12.69328206380208
 20
2.165070258246528
 10
12.71929253472222
 20
1.831757269965278
 10
12.60853271484375
 20
1.461237250434028
 10
12.20580105251736
 20
1.461237250434028
 10
11.61858452690972
 20
1.461237250434028
 10
11.68679741753472
 20
2.2231201171875
 10
11.67628987630208
 20
2.6199951171875
 10
11.67628987630208
 20
2.6199951171875
 10
13.10669352213542
 20
2.6199951171875
 10
13.10669352213542
 20
2.6199951171875
 10
13.08567843967014
 20
3.311770290798611
 10
13.13838840060764
 20
4.214557562934028
 10
12.18702528211805
 20
4.214557562934028
 10
11.40877821180555
 20
4.214557562934028
 10
11.24634195963542
 20
3.285243055555555
 10
11.24634195963542
 20
2.662714301215277
 10
11.24634195963542
 20
1.477256944444444
 10
11.63942735460069
 20
1.106736924913194
 10
12.19753282335069
 20
1.106736924913194
 10
12.81386040581597
 20
1.106736924913194
 10
13.10807156032986
 20
1.588361273871528
 10
13.08188883463542
 20
2.165070258246528
 10
13.08188883463542
 20
2.165070258246528
 10
12.69328206380208
 20
2.165070258246528
 10
12.69328206380208
 20
2.165070258246528
 97
        0
 92
        1
 93
        1
 72
     4
 94
        3
 73
     0
 74
     0
 95
       14
 96
       10
 40
0.0
 40
0.0
 40
0.0
 40
0.0
 40
1.0
 40
1.0
 40
1.0
 40
2.0
 40
2.0
 40
2.0
 40
3.0
 40
3.0
 40
3.0
 40
3.0
 10
11.67628987630208
 20
2.965882703993055
 10
11.69213731553819
 20
3.317282443576389
 10
11.70281711154514
 20
3.860057237413194
 10
12.19236518012153
 20
3.860057237413194
 10
12.68191324869792
 20
3.860057237413194
 10
12.66055365668403
 20
3.311770290798611
 10
12.67674560546875
 20
2.965882703993055
 10
12.67674560546875
 20
2.965882703993055
 10
11.67628987630208
 20
2.965882703993055
 10
11.67628987630208
 20
2.965882703993055
 97
        0
 75
     0
 76
     1
 98
        1
 10
0.0
 20
0.0
  0
HATCH
  5
50
330
43
100
AcDbEntity
  8
LAYER_1
 62
     7
100
AcDbHatch
 10
0.0
 20
0.0
 30
0.0
210
0.0
220
0.0
230
1.0
  2
SOLID
 70
     1
 71
     0
 91
        1
 92
        1
 93
        1
 72
     4
 94
        3
 73
     0
 74
     0
 95
       56
 96
       52
 40
0.0
 40
0.0
 40
0.0
 40
0.0
 40
1.0
 40
1.0
 40
1.0
 40
2.0
 40
2.0
 40
2.0
 40
3.0
 40
3.0
 40
3.0
 40
4.0
 40
4.0
 40
4.0
 40
5.0
 40
5.0
 40
5.0
 40
6.0
 40
6.0
 40
6.0
 40
7.0
 40
7.0
 40
7.0
 40
8.0
 40
8.0
 40
8.0
 40
9.0
 40
9.0
 40
9.0
 40
10.0
 40
10.0
 40
10.0
 40
11.0
 40
11.0
 40
11.0
 40
12.0
 40
12.0
 40
12.0
 40
13.0
 40
13.0
 40
13.0
 40
14.0
 40
14.0
 40
14.0
 40
15.0
 40
15.0
 40
15.0
 40
16.0
 40
16.0
 40
16.0
 40
17.0
 40
17.0
 40
17.0
 40
17.0
 10
-11.26287841796875
 20
-1.173055013020833
 10
-11.23118353949653
 20
-0.7603325737847222
 10
-11.45339219835069
 20
-0.4482069227430555
 10
-11.89298638237847
 20
-0.4482069227430555
 10
-12.53342963324653
 20
-0.4482069227430555
 10
-12.60233154296875
 20
-0.8502495659722221
 10
-12.60233154296875
 20
-1.157207573784722
 10
-12.60233154296875
 20
-1.432126193576389
 10
-12.48037516276042
 20
-1.601624891493055
 10
-12.22647162543403
 20
-1.696709526909722
 10
-12.01459825303819
 20
-1.775946723090278
 10
-11.80823703342014
 20
-1.855356174045139
 10
-11.59653591579861
 20
-1.934765625
 10
-10.84636637369792
 20
-2.215024142795139
 10
-10.70890706380208
 20
-2.479607476128472
 10
-10.70890706380208
 20
-3.003434244791666
 10
-10.70890706380208
 20
-3.754465060763889
 10
-11.17950710720486
 20
-4.193714735243055
 10
-11.93983968098958
 20
-4.193714735243055
 10
-12.33051350911458
 20
-4.193714735243055
 10
-12.79525689019097
 20
-4.082610405815972
 10
-13.02228868272569
 20
-3.563951280381944
 10
-13.10669352213542
 20
-3.368442111545138
 10
-13.10135362413194
 20
-3.0509765625
 10
-13.10669352213542
 20
-2.839275444878472
 10
-13.10669352213542
 20
-2.839275444878472
 10
-12.66847737630208
 20
-2.839275444878472
 10
-12.66847737630208
 20
-2.839275444878472
 10
-12.68949245876736
 20
-3.426491970486111
 10
-12.57856038411458
 20
-3.796839735243055
 10
-11.91882459852431
 20
-3.796839735243055
 10
-11.47509629991319
 20
-3.796839735243055
 10
-11.16365966796875
 20
-3.569463433159722
 10
-11.16365966796875
 20
-3.103858778211805
 10
-11.16365966796875
 20
-2.500794813368056
 10
-11.40653889973958
 20
-2.495282660590278
 10
-11.80823703342014
 20
-2.342148166232639
 10
-12.02527804904514
 20
-2.257398817274305
 10
-12.37478298611111
 20
-2.146294487847222
 10
-12.58648410373264
 20
-2.035190158420139
 10
-12.96182725694444
 20
-1.8448486328125
 10
-13.05708414713542
 20
-1.527555338541667
 10
-13.05708414713542
 20
-1.136020236545139
 10
-13.05708414713542
 20
-0.4799018012152778
 10
-12.59699164496528
 20
-0.0513319227430556
 10
-11.95103624131944
 20
-0.0513319227430556
 10
-11.22601589626736
 20
-0.0513319227430556
 10
-10.78228759765625
 20
-0.4270195855034722
 10
-10.82466227213542
 20
-1.173055013020833
 10
-10.82466227213542
 20
-1.173055013020833
 10
-11.26287841796875
 20
-1.173055013020833
 10
-11.26287841796875
 20
-1.173055013020833
 97
        0
 75
     0
 76
     1
 98
        1
 10
0.0
 20
0.0
  0
HATCH
  5
4F
330
43
100
AcDbEntity
  8
LAYER_1
 62
     7
100
AcDbHatch
 10
0.0
 20
0.0
 30
0.0
210
0.0
220
0.0
230
1.0
  2
SOLID
 70
     1
 71
     0
 91
        1
 92
        1
 93
        1
 72
     4
 94
        3
 73
     0
 74
     0
 95
       35
 96
       31
 40
0.0
 40
0.0
 40
0.0
 40
0.0
 40
1.0
 40
1.0
 40
1.0
 40
2.0
 40
2.0
 40
2.0
 40
3.0
 40
3.0
 40
3.0
 40
4.0
 40
4.0
 40
4.0
 40
5.0
 40
5.0
 40
5.0
 40
6.0
 40
6.0
 40
6.0
 40
7.0
 40
7.0
 40
7.0
 40
8.0
 40
8.0
 40
8.0
 40
9.0
 40
9.0
 40
9.0
 40
10.0
 40
10.0
 40
10.0
 40
10.0
 10
-9.775975206163194
 20
-2.758487955729167
 10
-9.775975206163194
 20
-3.145716688368055
 10
-9.749447970920137
 20
-3.830429416232639
 10
-9.213218858506943
 20
-3.830429416232639
 10
-8.75639919704861
 20
-3.830429416232639
 10
-8.714024522569444
 20
-3.437688530815972
 10
-8.692837185329861
 20
-3.076814778645833
 10
-8.692837185329861
 20
-3.076814778645833
 10
-8.295962185329861
 20
-3.076814778645833
 10
-8.295962185329861
 20
-3.076814778645833
 10
-8.311809624565971
 20
-3.644566514756944
 10
-8.523338487413193
 20
-4.184929741753471
 10
-9.181696234809026
 20
-4.184929741753471
 10
-10.08017713758681
 20
-4.184929741753471
 10
-10.20592312282986
 20
-3.4323486328125
 10
-10.20592312282986
 20
-2.668226453993055
 10
-10.20592312282986
 20
-1.946478949652778
 10
-10.09051242404514
 20
-1.077109103732639
 10
-9.192376030815971
 20
-1.077109103732639
 10
-8.599130588107638
 20
-1.077109103732639
 10
-8.315254720052083
 20
-1.537890625
 10
-8.320766872829861
 20
-2.084282769097222
 10
-8.320766872829861
 20
-2.084282769097222
 10
-8.709373643663193
 20
-2.084282769097222
 10
-8.709373643663193
 20
-2.084282769097222
 10
-8.714541286892361
 20
-1.760788302951389
 10
-8.799635145399305
 20
-1.431609429253472
 10
-9.197543674045138
 20
-1.431609429253472
 10
-9.807497829861111
 20
-1.431609429253472
 10
-9.775975206163194
 20
-2.339047580295139
 10
-9.775975206163194
 20
-2.758487955729167
 97
        0
 75
     0
 76
     1
 98
        1
 10
0.0
 20
0.0
  0
HATCH
  5
4E
330
43
100
AcDbEntity
  8
LAYER_1
 62
     7
100
AcDbHatch
 10
0.0
 20
0.0
 30
0.0
210
0.0
220
0.0
230
1.0
  2
SOLID
 70
     1
 71
     0
 91
        1
 92
        1
 93
        1
 72
     4
 94
        3
 73
     0
 74
     0
 95
       32
 96
       28
 40
0.0
 40
0.0
 40
0.0
 40
0.0
 40
1.0
 40
1.0
 40
1.0
 40
2.0
 40
2.0
 40
2.0
 40
3.0
 40
3.0
 40
3.0
 40
4.0
 40
4.0
 40
4.0
 40
5.0
 40
5.0
 40
5.0
 40
6.0
 40
6.0
 40
6.0
 40
7.0
 40
7.0
 40
7.0
 40
8.0
 40
8.0
 40
8.0
 40
9.0
 40
9.0
 40
9.0
 40
9.0
 10
-7.253131781684028
 20
-1.639520941840278
 10
-7.253131781684028
 20
-1.639520941840278
 10
-7.242279730902777
 20
-1.639520941840278
 10
-7.242279730902777
 20
-1.639520941840278
 10
-7.06778564453125
 20
-1.253325737847222
 10
-6.819049750434028
 20
-1.089339192708333
 10
-6.379800075954861
 20
-1.126201714409722
 10
-6.379800075954861
 20
-1.126201714409722
 10
-6.379800075954861
 20
-1.539096408420139
 10
-6.379800075954861
 20
-1.539096408420139
 10
-6.919646538628472
 20
-1.443839518229167
 10
-7.23711208767361
 20
-1.7828369140625
 10
-7.23711208767361
 20
-2.317515733506944
 10
-7.23711208767361
 20
-2.317515733506944
 10
-7.23711208767361
 20
-4.102764214409722
 10
-7.23711208767361
 20
-4.102764214409722
 10
-7.23711208767361
 20
-4.102764214409722
 10
-7.65724148220486
 20
-4.102764214409722
 10
-7.65724148220486
 20
-4.102764214409722
 10
-7.65724148220486
 20
-4.102764214409722
 10
-7.65724148220486
 20
-1.159274631076389
 10
-7.65724148220486
 20
-1.159274631076389
 10
-7.65724148220486
 20
-1.159274631076389
 10
-7.253131781684028
 20
-1.159274631076389
 10
-7.253131781684028
 20
-1.159274631076389
 10
-7.253131781684028
 20
-1.159274631076389
 10
-7.253131781684028
 20
-1.639520941840278
 10
-7.253131781684028
 20
-1.639520941840278
 97
        0
 75
     0
 76
     1
 98
        1
 10
0.0
 20
0.0
  0
HATCH
  5
4D
330
43
100
AcDbEntity
  8
LAYER_1
 62
     7
100
AcDbHatch
 10
0.0
 20
0.0
 30
0.0
210
0.0
220
0.0
230
1.0
  2
SOLID
 70
     1
 71
     0
 91
        2
 92
       16
 93
        1
 72
     4
 94
        3
 73
     0
 74
     0
 95
       29
 96
       25
 40
0.0
 40
0.0
 40
0.0
 40
0.0
 40
1.0
 40
1.0
 40
1.0
 40
2.0
 40
2.0
 40
2.0
 40
3.0
 40
3.0
 40
3.0
 40
4.0
 40
4.0
 40
4.0
 40
5.0
 40
5.0
 40
5.0
 40
6.0
 40
6.0
 40
6.0
 40
7.0
 40
7.0
 40
7.0
 40
8.0
 40
8.0
 40
8.0
 40
8.0
 10
-4.647261555989583
 20
-3.126596408420139
 10
-4.621251085069444
 20
-3.459909396701389
 10
-4.732010904947916
 20
-3.830429416232639
 10
-5.134742567274305
 20
-3.830429416232639
 10
-5.72213134765625
 20
-3.830429416232639
 10
-5.653746202256944
 20
-3.068546549479167
 10
-5.664253743489583
 20
-2.671671549479167
 10
-5.664253743489583
 20
-2.671671549479167
 10
-4.23385009765625
 20
-2.671671549479167
 10
-4.23385009765625
 20
-2.671671549479167
 10
-4.254865180121527
 20
-1.979896375868055
 10
-4.202499728732638
 20
-1.077109103732639
 10
-5.153518337673611
 20
-1.077109103732639
 10
-5.93176540798611
 20
-1.077109103732639
 10
-6.09420166015625
 20
-2.006423611111111
 10
-6.09420166015625
 20
-2.628952365451389
 10
-6.09420166015625
 20
-3.814409722222222
 10
-5.701116265190972
 20
-4.184929741753471
 10
-5.143010796440972
 20
-4.184929741753471
 10
-4.526683213975694
 20
-4.184929741753471
 10
-4.232472059461805
 20
-3.703305392795139
 10
-4.258654785156249
 20
-3.126596408420139
 10
-4.258654785156249
 20
-3.126596408420139
 10
-4.647261555989583
 20
-3.126596408420139
 10
-4.647261555989583
 20
-3.126596408420139
 97
        0
 92
        1
 93
        1
 72
     4
 94
        3
 73
     0
 74
     0
 95
       14
 96
       10
 40
0.0
 40
0.0
 40
0.0
 40
0.0
 40
1.0
 40
1.0
 40
1.0
 40
2.0
 40
2.0
 40
2.0
 40
3.0
 40
3.0
 40
3.0
 40
3.0
 10
-5.664253743489583
 20
-2.325783962673611
 10
-5.648578559027778
 20
-1.974384223090278
 10
-5.637726508246527
 20
-1.431609429253472
 10
-5.148350694444444
 20
-1.431609429253472
 10
-4.65863037109375
 20
-1.431609429253472
 10
-4.679989963107638
 20
-1.979896375868055
 10
-4.663798014322916
 20
-2.325783962673611
 10
-4.663798014322916
 20
-2.325783962673611
 10
-5.664253743489583
 20
-2.325783962673611
 10
-5.664253743489583
 20
-2.325783962673611
 97
        0
 75
     0
 76
     1
 98
        1
 10
0.0
 20
0.0
  0
HATCH
  5
4C
330
43
100
AcDbEntity
  8
LAYER_1
 62
     7
100
AcDbHatch
 10
0.0
 20
0.0
 30
0.0
210
0.0
220
0.0
230
1.0
  2
SOLID
 70
     1
 71
     0
 91
        1
 92
        1
 93
        1
 72
     4
 94
        3
 73
     0
 74
     0
 95
       53
 96
       49
 40
0.0
 40
0.0
 40
0.0
 40
0.0
 40
1.0
 40
1.0
 40
1.0
 40
2.0
 40
2.0
 40
2.0
 40
3.0
 40
3.0
 40
3.0
 40
4.0
 40
4.0
 40
4.0
 40
5.0
 40
5.0
 40
5.0
 40
6.0
 40
6.0
 40
6.0
 40
7.0
 40
7.0
 40
7.0
 40
8.0
 40
8.0
 40
8.0
 40
9.0
 40
9.0
 40
9.0
 40
10.0
 40
10.0
 40
10.0
 40
11.0
 40
11.0
 40
11.0
 40
12.0
 40
12.0
 40
12.0
 40
13.0
 40
13.0
 40
13.0
 40
14.0
 40
14.0
 40
14.0
 40
15.0
 40
15.0
 40
15.0
 40
16.0
 40
16.0
 40
16.0
 40
16.0
 10
-1.502578396267361
 20
-3.747747124565972
 10
-1.502578396267361
 20
-3.747747124565972
 10
-1.491898600260416
 20
-3.747747124565972
 10
-1.491898600260416
 20
-3.747747124565972
 10
-1.491898600260416
 20
-3.747747124565972
 10
-0.9789238823784722
 20
-1.159791395399306
 10
-0.9789238823784722
 20
-1.159791395399306
 10
-0.9789238823784722
 20
-1.159791395399306
 10
-0.5450141059027778
 20
-1.159791395399306
 10
-0.5450141059027778
 20
-1.159791395399306
 10
-0.5450141059027778
 20
-1.159791395399306
 10
-1.280369737413194
 20
-4.102247450086805
 10
-1.280369737413194
 20
-4.102247450086805
 10
-1.280369737413194
 20
-4.102247450086805
 10
-1.714107259114583
 20
-4.102247450086805
 10
-1.714107259114583
 20
-4.102247450086805
 10
-1.714107259114583
 20
-4.102247450086805
 10
-2.211234537760416
 20
-1.514291720920139
 10
-2.211234537760416
 20
-1.514291720920139
 10
-2.211234537760416
 20
-1.514291720920139
 10
-2.221914333767361
 20
-1.514291720920139
 10
-2.221914333767361
 20
-1.514291720920139
 10
-2.221914333767361
 20
-1.514291720920139
 10
-2.687346733940972
 20
-4.102247450086805
 10
-2.687346733940972
 20
-4.102247450086805
 10
-2.687346733940972
 20
-4.102247450086805
 10
-3.12073974609375
 20
-4.102247450086805
 10
-3.12073974609375
 20
-4.102247450086805
 10
-3.12073974609375
 20
-4.102247450086805
 10
-3.877110460069444
 20
-1.159274631076389
 10
-3.877110460069444
 20
-1.159274631076389
 10
-3.877110460069444
 20
-1.159274631076389
 10
-3.443545193142361
 20
-1.159274631076389
 10
-3.443545193142361
 20
-1.159274631076389
 10
-3.443545193142361
 20
-1.159274631076389
 10
-2.909555392795139
 20
-3.747747124565972
 10
-2.909555392795139
 20
-3.747747124565972
 10
-2.909555392795139
 20
-3.747747124565972
 10
-2.898875596788194
 20
-3.747747124565972
 10
-2.898875596788194
 20
-3.747747124565972
 10
-2.898875596788194
 20
-3.747747124565972
 10
-2.433270941840278
 20
-1.159274631076389
 10
-2.433270941840278
 20
-1.159274631076389
 10
-2.433270941840278
 20
-1.159274631076389
 10
-1.999705674913194
 20
-1.159274631076389
 10
-1.999705674913194
 20
-1.159274631076389
 10
-1.999705674913194
 20
-1.159274631076389
 10
-1.502578396267361
 20
-3.747747124565972
 10
-1.502578396267361
 20
-3.747747124565972
 97
        0
 75
     0
 76
     1
 98
        1
 10
0.0
 20
0.0
  0
HATCH
  5
4B
330
43
100
AcDbEntity
  8
LAYER_1
 62
     7
100
AcDbHatch
 10
0.0
 20
0.0
 30
0.0
210
0.0
220
0.0
230
1.0
  2
SOLID
 70
     1
 71
     0
 91
        1
 92
        1
 93
        1
 72
     4
 94
        3
 73
     0
 74
     0
 95
       23
 96
       19
 40
0.0
 40
0.0
 40
0.0
 40
0.0
 40
1.0
 40
1.0
 40
1.0
 40
2.0
 40
2.0
 40
2.0
 40
3.0
 40
3.0
 40
3.0
 40
4.0
 40
4.0
 40
4.0
 40
5.0
 40
5.0
 40
5.0
 40
6.0
 40
6.0
 40
6.0
 40
6.0
 10
2.382972547743055
 20
-0.1340142144097222
 10
2.144744194878472
 20
-0.6263183593749999
 10
1.726681857638889
 20
-1.313959418402778
 10
1.726681857638889
 20
-2.6634033203125
 10
1.726681857638889
 20
-3.637159559461805
 10
1.911855740017361
 20
-4.393702528211805
 10
2.409327528211805
 20
-5.240334743923611
 10
2.409327528211805
 20
-5.240334743923611
 10
2.102714029947916
 20
-5.240334743923611
 10
2.102714029947916
 20
-5.240334743923611
 10
1.62625732421875
 20
-4.462776692708333
 10
1.281747775607639
 20
-3.652834743923611
 10
1.281747775607639
 20
-2.726793077256944
 10
1.281747775607639
 20
-1.684651692708333
 10
1.562523057725694
 20
-1.012513563368056
 10
2.102714029947916
 20
-0.1340142144097222
 10
2.102714029947916
 20
-0.1340142144097222
 10
2.382972547743055
 20
-0.1340142144097222
 10
2.382972547743055
 20
-0.1340142144097222
 97
        0
 75
     0
 76
     1
 98
        1
 10
0.0
 20
0.0
  0
HATCH
  5
4A
330
43
100
AcDbEntity
  8
LAYER_1
 62
     7
100
AcDbHatch
 10
0.0
 20
0.0
 30
0.0
210
0.0
220
0.0
230
1.0
  2
SOLID
 70
     1
 71
     0
 91
        1
 92
        1
 93
        1
 72
     4
 94
        3
 73
     0
 74
     0
 95
       29
 96
       25
 40
0.0
 40
0.0
 40
0.0
 40
0.0
 40
1.0
 40
1.0
 40
1.0
 40
2.0
 40
2.0
 40
2.0
 40
3.0
 40
3.0
 40
3.0
 40
4.0
 40
4.0
 40
4.0
 40
5.0
 40
5.0
 40
5.0
 40
6.0
 40
6.0
 40
6.0
 40
7.0
 40
7.0
 40
7.0
 40
8.0
 40
8.0
 40
8.0
 40
8.0
 10
2.719386121961805
 20
-0.1340142144097222
 10
2.719386121961805
 20
-0.1340142144097222
 10
5.210706922743055
 20
-0.1340142144097222
 10
5.210706922743055
 20
-0.1340142144097222
 10
5.210706922743055
 20
-0.1340142144097222
 10
5.210706922743055
 20
-0.5308892144097221
 10
5.210706922743055
 20
-0.5308892144097221
 10
5.210706922743055
 20
-0.5308892144097221
 10
4.18424072265625
 20
-0.5308892144097221
 10
4.18424072265625
 20
-0.5308892144097221
 10
4.18424072265625
 20
-0.5308892144097221
 10
4.18424072265625
 20
-4.102764214409722
 10
4.18424072265625
 20
-4.102764214409722
 10
4.18424072265625
 20
-4.102764214409722
 10
3.746024576822916
 20
-4.102764214409722
 10
3.746024576822916
 20
-4.102764214409722
 10
3.746024576822916
 20
-4.102764214409722
 10
3.746024576822916
 20
-0.5308892144097221
 10
3.746024576822916
 20
-0.5308892144097221
 10
3.746024576822916
 20
-0.5308892144097221
 10
2.719386121961805
 20
-0.5308892144097221
 10
2.719386121961805
 20
-0.5308892144097221
 10
2.719386121961805
 20
-0.5308892144097221
 10
2.719386121961805
 20
-0.1340142144097222
 10
2.719386121961805
 20
-0.1340142144097222
 97
        0
 75
     0
 76
     1
 98
        1
 10
0.0
 20
0.0
  0
HATCH
  5
49
330
43
100
AcDbEntity
  8
LAYER_1
 62
     7
100
AcDbHatch
 10
0.0
 20
0.0
 30
0.0
210
0.0
220
0.0
230
1.0
  2
SOLID
 70
     1
 71
     0
 91
        1
 92
        1
 93
        1
 72
     4
 94
        3
 73
     0
 74
     0
 95
       44
 96
       40
 40
0.0
 40
0.0
 40
0.0
 40
0.0
 40
1.0
 40
1.0
 40
1.0
 40
2.0
 40
2.0
 40
2.0
 40
3.0
 40
3.0
 40
3.0
 40
4.0
 40
4.0
 40
4.0
 40
5.0
 40
5.0
 40
5.0
 40
6.0
 40
6.0
 40
6.0
 40
7.0
 40
7.0
 40
7.0
 40
8.0
 40
8.0
 40
8.0
 40
9.0
 40
9.0
 40
9.0
 40
10.0
 40
10.0
 40
10.0
 40
11.0
 40
11.0
 40
11.0
 40
12.0
 40
12.0
 40
12.0
 40
13.0
 40
13.0
 40
13.0
 40
13.0
 10
5.018470594618055
 20
-1.159274631076389
 10
5.018470594618055
 20
-1.159274631076389
 10
5.452380371093749
 20
-1.159274631076389
 10
5.452380371093749
 20
-1.159274631076389
 10
5.452380371093749
 20
-1.159274631076389
 10
6.113838704427083
 20
-3.712779405381944
 10
6.113838704427083
 20
-3.712779405381944
 10
6.113838704427083
 20
-3.712779405381944
 10
6.124346245659722
 20
-3.712779405381944
 10
6.124346245659722
 20
-3.712779405381944
 10
6.124346245659722
 20
-3.712779405381944
 10
6.806991916232638
 20
-1.159274631076389
 10
6.806991916232638
 20
-1.159274631076389
 10
6.806991916232638
 20
-1.159274631076389
 10
7.241073947482638
 20
-1.159274631076389
 10
7.241073947482638
 20
-1.159274631076389
 10
7.241073947482638
 20
-1.159274631076389
 10
6.367742241753471
 20
-3.972539605034722
 10
6.367742241753471
 20
-3.972539605034722
 10
6.315032280815972
 20
-4.147205946180555
 10
6.182740614149305
 20
-4.576464843749999
 10
6.097991265190972
 20
-4.724603949652777
 10
5.944512261284721
 20
-4.999867078993055
 10
5.732811143663194
 20
-5.110971408420139
 10
5.425853135850694
 20
-5.110971408420139
 10
5.325428602430555
 20
-5.110971408420139
 10
5.225004069010416
 20
-5.095296223958333
 10
5.124062771267361
 20
-5.063429090711805
 10
5.124062771267361
 20
-5.063429090711805
 10
5.124062771267361
 20
-4.692909071180555
 10
5.124062771267361
 20
-4.692909071180555
 10
5.219491916232639
 20
-4.735283745659721
 10
5.335936143663194
 20
-4.756471082899306
 10
5.436532931857639
 20
-4.756471082899306
 10
5.828240288628471
 20
-4.756471082899306
 10
5.838575575086805
 20
-4.465016004774305
 10
5.95501980251736
 20
-4.173733181423611
 10
5.95501980251736
 20
-4.173733181423611
 10
5.018470594618055
 20
-1.159274631076389
 10
5.018470594618055
 20
-1.159274631076389
 97
        0
 75
     0
 76
     1
 98
        1
 10
0.0
 20
0.0
  0
HATCH
  5
48
330
43
100
AcDbEntity
  8
LAYER_1
 62
     7
100
AcDbHatch
 10
0.0
 20
0.0
 30
0.0
210
0.0
220
0.0
230
1.0
  2
SOLID
 70
     1
 71
     0
 91
        2
 92
       16
 93
        1
 72
     4
 94
        3
 73
     0
 74
     0
 95
       38
 96
       34
 40
0.0
 40
0.0
 40
0.0
 40
0.0
 40
1.0
 40
1.0
 40
1.0
 40
2.0
 40
2.0
 40
2.0
 40
3.0
 40
3.0
 40
3.0
 40
4.0
 40
4.0
 40
4.0
 40
5.0
 40
5.0
 40
5.0
 40
6.0
 40
6.0
 40
6.0
 40
7.0
 40
7.0
 40
7.0
 40
8.0
 40
8.0
 40
8.0
 40
9.0
 40
9.0
 40
9.0
 40
10.0
 40
10.0
 40
10.0
 40
11.0
 40
11.0
 40
11.0
 40
11.0
 10
8.143688964843749
 20
-3.798562282986111
 10
8.143688964843749
 20
-3.798562282986111
 10
8.154196506076389
 20
-3.798562282986111
 10
8.154196506076389
 20
-3.798562282986111
 10
8.302507866753471
 20
-4.036962890625
 10
8.472006564670139
 20
-4.184929741753471
 10
8.768629286024305
 20
-4.184929741753471
 10
9.560312228732638
 20
-4.184929741753471
 10
9.707073296440971
 20
-3.273185221354166
 10
9.707073296440971
 20
-2.434648980034722
 10
9.707073296440971
 20
-1.829690212673611
 10
9.492099338107638
 20
-1.077109103732639
 10
8.747441948784722
 20
-1.077109103732639
 10
8.508869086371528
 20
-1.092784288194444
 10
8.27081298828125
 20
-1.209400770399306
 10
8.138176812065971
 20
-1.484836154513889
 10
8.138176812065971
 20
-1.484836154513889
 10
8.127497016059028
 20
-1.484836154513889
 10
8.127497016059028
 20
-1.484836154513889
 10
8.127497016059028
 20
-1.484836154513889
 10
8.127497016059028
 20
-1.159274631076389
 10
8.127497016059028
 20
-1.159274631076389
 10
8.127497016059028
 20
-1.159274631076389
 10
7.723387315538194
 20
-1.159274631076389
 10
7.723387315538194
 20
-1.159274631076389
 10
7.723387315538194
 20
-1.159274631076389
 10
7.723387315538194
 20
-5.100463867187499
 10
7.723387315538194
 20
-5.100463867187499
 10
7.723387315538194
 20
-5.100463867187499
 10
8.143688964843749
 20
-5.100463867187499
 10
8.143688964843749
 20
-5.100463867187499
 10
8.143688964843749
 20
-5.100463867187499
 10
8.143688964843749
 20
-3.798562282986111
 10
8.143688964843749
 20
-3.798562282986111
 97
        0
 92
        1
 93
        1
 72
     4
 94
        3
 73
     0
 74
     0
 95
       17
 96
       13
 40
0.0
 40
0.0
 40
0.0
 40
0.0
 40
1.0
 40
1.0
 40
1.0
 40
2.0
 40
2.0
 40
2.0
 40
3.0
 40
3.0
 40
3.0
 40
4.0
 40
4.0
 40
4.0
 40
4.0
 10
9.277125379774304
 20
-2.577964952256944
 10
9.277125379774304
 20
-3.374126519097222
 10
9.13932156032986
 20
-3.830429416232639
 10
8.705067274305554
 20
-3.830429416232639
 10
8.127497016059028
 20
-3.830429416232639
 10
8.143688964843749
 20
-3.034440104166666
 10
8.143688964843749
 20
-2.625851779513889
 10
8.143688964843749
 20
-2.206583658854167
 10
8.154196506076389
 20
-1.431609429253472
 10
8.699727376302082
 20
-1.431609429253472
 10
9.234750705295138
 20
-1.431609429253472
 10
9.277125379774304
 20
-2.190391710069444
 10
9.277125379774304
 20
-2.577964952256944
 97
        0
 75
     0
 76
     1
 98
        1
 10
0.0
 20
0.0
  0
HATCH
  5
47
330
43
100
AcDbEntity
  8
LAYER_1
 62
     7
100
AcDbHatch
 10
0.0
 20
0.0
 30
0.0
210
0.0
220
0.0
230
1.0
  2
SOLID
 70
     1
 71
     0
 91
        1
 92
        1
 93
        1
 72
     4
 94
        3
 73
     0
 74
     0
 95
       17
 96
       13
 40
0.0
 40
0.0
 40
0.0
 40
0.0
 40
1.0
 40
1.0
 40
1.0
 40
2.0
 40
2.0
 40
2.0
 40
3.0
 40
3.0
 40
3.0
 40
4.0
 40
4.0
 40
4.0
 40
4.0
 10
10.40987277560764
 20
-4.102764214409722
 10
10.40987277560764
 20
-4.102764214409722
 10
10.40987277560764
 20
-3.573597547743055
 10
10.40987277560764
 20
-3.573597547743055
 10
10.40987277560764
 20
-3.573597547743055
 10
10.8894300672743
 20
-3.573597547743055
 10
10.8894300672743
 20
-3.573597547743055
 10
10.8894300672743
 20
-3.573597547743055
 10
10.8894300672743
 20
-4.102764214409722
 10
10.8894300672743
 20
-4.102764214409722
 10
10.8894300672743
 20
-4.102764214409722
 10
10.40987277560764
 20
-4.102764214409722
 10
10.40987277560764
 20
-4.102764214409722
 97
        0
 75
     0
 76
     1
 98
        1
 10
0.0
 20
0.0
  0
HATCH
  5
46
330
43
100
AcDbEntity
  8
LAYER_1
 62
     7
100
AcDbHatch
 10
0.0
 20
0.0
 30
0.0
210
0.0
220
0.0
230
1.0
  2
SOLID
 70
     1
 71
     0
 91
        1
 92
        1
 93
        1
 72
     4
 94
        3
 73
     0
 74
     0
 95
       23
 96
       19
 40
0.0
 40
0.0
 40
0.0
 40
0.0
 40
1.0
 40
1.0
 40
1.0
 40
2.0
 40
2.0
 40
2.0
 40
3.0
 40
3.0
 40
3.0
 40
4.0
 40
4.0
 40
4.0
 40
5.0
 40
5.0
 40
5.0
 40
6.0
 40
6.0
 40
6.0
 40
6.0
 10
11.57328152126736
 20
-5.240334743923611
 10
11.81168212890625
 20
-4.748375108506944
 10
12.22957221137153
 20
-4.060389539930555
 10
12.22957221137153
 20
-2.711117892795139
 10
12.22957221137153
 20
-1.737361653645833
 10
12.04439832899305
 20
-0.9808186848958332
 10
11.54709879557292
 20
-0.1340142144097222
 10
11.54709879557292
 20
-0.1340142144097222
 10
11.85405680338542
 20
-0.1340142144097222
 10
11.85405680338542
 20
-0.1340142144097222
 10
12.33016899956597
 20
-0.911916775173611
 10
12.67467854817708
 20
-1.721514214409722
 10
12.67467854817708
 20
-2.647555881076389
 10
12.67467854817708
 20
-3.690041775173611
 10
12.39373101128472
 20
-4.362179904513889
 10
11.85405680338542
 20
-5.240334743923611
 10
11.85405680338542
 20
-5.240334743923611
 10
11.57328152126736
 20
-5.240334743923611
 10
11.57328152126736
 20
-5.240334743923611
 97
        0
 75
     0
 76
     1
 98
        1
 10
0.0
 20
0.0
  0
ENDBLK
  5
5D
330
43
100
AcDbEntity
  8
LAYER_1
100
AcDbBlockEnd
  0
BLOCK
  5
60
330
5E
100
AcDbEntity
  8
LAYER_1
 62
     7
100
AcDbBlockBegin
  2
AI9-BLK4
 70
     0
 10
0.0
 20
0.0
 30
0.0
  3
AI9-BLK4
  1

  4

  0
LWPOLYLINE
  5
62
330
5E
100
AcDbEntity
  8
LAYER_1
 62
     7
100
AcDbPolyline
 90
        3
 70
     0
 43
0.0
 10
-11.92717895507813
 20
1.261593967013889
 10
-11.92717895507813
 20
-2.310281032986111
 10
12.41448771158854
 20
-2.310281032986111
  0
HATCH
  5
61
330
5E
100
AcDbEntity
  8
LAYER_1
 62
     7
100
AcDbHatch
 10
0.0
 20
0.0
 30
0.0
210
0.0
220
0.0
230
1.0
  2
SOLID
 70
     1
 71
     0
 91
        1
 92
        1
 93
        1
 72
     4
 94
        3
 73
     0
 74
     0
 95
       29
 96
       25
 40
0.0
 40
0.0
 40
0.0
 40
0.0
 40
1.0
 40
1.0
 40
1.0
 40
2.0
 40
2.0
 40
2.0
 40
3.0
 40
3.0
 40
3.0
 40
4.0
 40
4.0
 40
4.0
 40
5.0
 40
5.0
 40
5.0
 40
6.0
 40
6.0
 40
6.0
 40
7.0
 40
7.0
 40
7.0
 40
8.0
 40
8.0
 40
8.0
 40
8.0
 10
-11.92717895507813
 20
1.126718478732639
 10
-11.92717895507813
 20
1.126718478732639
 10
-12.4039801703559
 20
0.8368136935763888
 10
-12.4039801703559
 20
0.8368136935763888
 10
-12.4039801703559
 20
0.8368136935763888
 10
-12.41448771158854
 20
0.853005642361111
 10
-12.41448771158854
 20
0.853005642361111
 10
-12.41448771158854
 20
0.853005642361111
 10
-12.10597941080729
 20
1.630219184027778
 10
-12.10597941080729
 20
1.630219184027778
 10
-12.04637925889757
 20
1.901003689236111
 10
-11.98677910698785
 20
2.171788194444444
 10
-11.92717895507813
 20
2.442572699652778
 10
-11.8675788031684
 20
2.171788194444444
 10
-11.80797865125868
 20
1.901003689236111
 10
-11.74837849934896
 20
1.630219184027778
 10
-11.74837849934896
 20
1.630219184027778
 10
-11.4396979437934
 20
0.853005642361111
 10
-11.4396979437934
 20
0.853005642361111
 10
-11.4396979437934
 20
0.853005642361111
 10
-11.44796617296007
 20
0.8368136935763888
 10
-11.44796617296007
 20
0.8368136935763888
 10
-11.44796617296007
 20
0.8368136935763888
 10
-11.92717895507813
 20
1.126718478732639
 10
-11.92717895507813
 20
1.126718478732639
 97
        0
 75
     0
 76
     1
 98
        1
 10
0.0
 20
0.0
  0
ENDBLK
  5
67
330
5E
100
AcDbEntity
  8
LAYER_1
100
AcDbBlockEnd
  0
BLOCK
  5
6A
330
68
100
AcDbEntity
  8
LAYER_1
 62
     7
100
AcDbBlockBegin
  2
AI9-BLK5
 70
     0
 10
0.0
 20
0.0
 30
0.0
  3
AI9-BLK5
  1

  4

  0
HATCH
  5
7A
330
68
100
AcDbEntity
  8
LAYER_1
 62
     7
100
AcDbHatch
 10
0.0
 20
0.0
 30
0.0
210
0.0
220
0.0
230
1.0
  2
SOLID
 70
     1
 71
     0
 91
        1
 92
        1
 93
        1
 72
     4
 94
        3
 73
     0
 74
     0
 95
       71
 96
       67
 40
0.0
 40
0.0
 40
0.0
 40
0.0
 40
1.0
 40
1.0
 40
1.0
 40
2.0
 40
2.0
 40
2.0
 40
3.0
 40
3.0
 40
3.0
 40
4.0
 40
4.0
 40
4.0
 40
5.0
 40
5.0
 40
5.0
 40
6.0
 40
6.0
 40
6.0
 40
7.0
 40
7.0
 40
7.0
 40
8.0
 40
8.0
 40
8.0
 40
9.0
 40
9.0
 40
9.0
 40
10.0
 40
10.0
 40
10.0
 40
11.0
 40
11.0
 40
11.0
 40
12.0
 40
12.0
 40
12.0
 40
13.0
 40
13.0
 40
13.0
 40
14.0
 40
14.0
 40
14.0
 40
15.0
 40
15.0
 40
15.0
 40
16.0
 40
16.0
 40
16.0
 40
17.0
 40
17.0
 40
17.0
 40
18.0
 40
18.0
 40
18.0
 40
19.0
 40
19.0
 40
19.0
 40
20.0
 40
20.0
 40
20.0
 40
21.0
 40
21.0
 40
21.0
 40
22.0
 40
22.0
 40
22.0
 40
22.0
 10
-8.471403672960069
 20
-0.303857421875
 10
-8.471403672960069
 20
-0.303857421875
 10
-7.931557210286457
 20
-0.303857421875
 10
-7.931557210286457
 20
-0.303857421875
 10
-7.931557210286457
 20
-0.303857421875
 10
-7.931557210286457
 20
-3.081982421875
 10
-7.931557210286457
 20
-3.081982421875
 10
-7.931557210286457
 20
-3.081982421875
 10
-8.237481689453125
 20
-3.081982421875
 10
-8.237481689453125
 20
-3.081982421875
 10
-8.237481689453125
 20
-3.081982421875
 10
-8.237481689453125
 20
-0.7923719618055555
 10
-8.237481689453125
 20
-0.7923719618055555
 10
-8.237481689453125
 20
-0.6738606770833333
 10
-8.22990247938368
 20
-0.5587944878472222
 10
-8.237481689453125
 20
-0.440283203125
 10
-8.237481689453125
 20
-0.440283203125
 10
-8.245060899522569
 20
-0.440283203125
 10
-8.245060899522569
 20
-0.440283203125
 10
-8.278306070963541
 20
-0.6035807291666666
 10
-8.304144287109374
 20
-0.7072781032986111
 10
-8.330154758029513
 20
-0.8147650824652777
 10
-8.330154758029513
 20
-0.8147650824652777
 10
-8.913064914279513
 20
-3.081982421875
 10
-8.913064914279513
 20
-3.081982421875
 10
-8.913064914279513
 20
-3.081982421875
 10
-9.280312093098958
 20
-3.081982421875
 10
-9.280312093098958
 20
-3.081982421875
 10
-9.280312093098958
 20
-3.081982421875
 10
-9.863222249348958
 20
-0.7813476562499999
 10
-9.863222249348958
 20
-0.7813476562499999
 10
-9.88906046549479
 20
-0.6848849826388889
 10
-9.911453586154513
 20
-0.5922119140625
 10
-9.944871012369791
 20
-0.440283203125
 10
-9.944871012369791
 20
-0.440283203125
 10
-9.952105712890624
 20
-0.440283203125
 10
-9.952105712890624
 20
-0.440283203125
 10
-9.952105712890624
 20
-0.5587944878472222
 10
-9.944871012369791
 20
-0.6814398871527777
 10
-9.944871012369791
 20
-0.799951171875
 10
-9.944871012369791
 20
-0.799951171875
 10
-9.944871012369791
 20
-3.081982421875
 10
-9.944871012369791
 20
-3.081982421875
 10
-9.944871012369791
 20
-3.081982421875
 10
-10.25079549153646
 20
-3.081982421875
 10
-10.25079549153646
 20
-3.081982421875
 10
-10.25079549153646
 20
-3.081982421875
 10
-10.25079549153646
 20
-0.303857421875
 10
-10.25079549153646
 20
-0.303857421875
 10
-10.25079549153646
 20
-0.303857421875
 10
-9.707503933376735
 20
-0.303857421875
 10
-9.707503933376735
 20
-0.303857421875
 10
-9.707503933376735
 20
-0.303857421875
 10
-9.161800808376736
 20
-2.471856011284722
 10
-9.161800808376736
 20
-2.471856011284722
 10
-9.132000732421874
 20
-2.59053955078125
 10
-9.117014567057291
 20
-2.705433485243055
 10
-9.102200656467014
 20
-2.883544921875
 10
-9.102200656467014
 20
-2.883544921875
 10
-9.094793701171874
 20
-2.883544921875
 10
-9.094793701171874
 20
-2.883544921875
 10
-9.07636244032118
 20
-2.74246826171875
 10
-9.057758924696179
 20
-2.605525716145833
 10
-9.024341498480903
 20
-2.468410915798611
 10
-9.024341498480903
 20
-2.468410915798611
 10
-8.471403672960069
 20
-0.303857421875
 10
-8.471403672960069
 20
-0.303857421875
 97
        0
 75
     0
 76
     1
 98
        1
 10
0.0
 20
0.0
  0
HATCH
  5
79
330
68
100
AcDbEntity
  8
LAYER_1
 62
     7
100
AcDbHatch
 10
0.0
 20
0.0
 30
0.0
210
0.0
220
0.0
230
1.0
  2
SOLID
 70
     1
 71
     0
 91
        2
 92
        1
 93
        1
 72
     4
 94
        3
 73
     0
 74
     0
 95
       56
 96
       52
 40
0.0
 40
0.0
 40
0.0
 40
0.0
 40
1.0
 40
1.0
 40
1.0
 40
2.0
 40
2.0
 40
2.0
 40
3.0
 40
3.0
 40
3.0
 40
4.0
 40
4.0
 40
4.0
 40
5.0
 40
5.0
 40
5.0
 40
6.0
 40
6.0
 40
6.0
 40
7.0
 40
7.0
 40
7.0
 40
8.0
 40
8.0
 40
8.0
 40
9.0
 40
9.0
 40
9.0
 40
10.0
 40
10.0
 40
10.0
 40
11.0
 40
11.0
 40
11.0
 40
12.0
 40
12.0
 40
12.0
 40
13.0
 40
13.0
 40
13.0
 40
14.0
 40
14.0
 40
14.0
 40
15.0
 40
15.0
 40
15.0
 40
16.0
 40
16.0
 40
16.0
 40
17.0
 40
17.0
 40
17.0
 40
17.0
 10
-6.107895914713541
 20
-3.08353271484375
 10
-6.130116780598958
 20
-3.087494574652777
 10
-6.152337646484375
 20
-3.090939670138889
 10
-6.174558512369791
 20
-3.098518880208333
 10
-6.422088623046874
 20
-3.109543185763889
 10
-6.514072672526041
 20
-3.087494574652777
 10
-6.543528238932291
 20
-2.802585177951389
 10
-6.543528238932291
 20
-2.802585177951389
 10
-6.550762939453125
 20
-2.802585177951389
 10
-6.550762939453125
 20
-2.802585177951389
 10
-6.621042887369791
 20
-2.983797200520833
 10
-6.80983412000868
 20
-3.135725911458333
 10
-7.006204562717013
 20
-3.135725911458333
 10
-7.416515435112847
 20
-3.135725911458333
 10
-7.534165445963541
 20
-2.906282552083333
 10
-7.534165445963541
 20
-2.532834201388889
 10
-7.534165445963541
 20
-2.455319552951389
 10
-7.523313395182291
 20
-2.159730360243056
 10
-7.239782036675346
 20
-2.033984375
 10
-7.073211669921874
 20
-1.960087076822916
 10
-6.65790540907118
 20
-1.805057779947917
 10
-6.621042887369791
 20
-1.7766357421875
 10
-6.558342149522569
 20
-1.72857666015625
 10
-6.565576850043402
 20
-1.646927897135416
 10
-6.565576850043402
 20
-1.539613172743055
 10
-6.565576850043402
 20
-1.306380208333333
 10
-6.654460313585068
 20
-1.217496744791667
 10
-6.891310628255208
 20
-1.217496744791667
 10
-7.158133273654514
 20
-1.217496744791667
 10
-7.195168050130207
 20
-1.339797634548611
 10
-7.191550699869791
 20
-1.580265299479167
 10
-7.191550699869791
 20
-1.580265299479167
 10
-7.455445014105902
 20
-1.580265299479167
 10
-7.455445014105902
 20
-1.580265299479167
 10
-7.470086669921875
 20
-1.154451497395833
 10
-7.258385552300346
 20
-0.9694498697916666
 10
-6.843251546223958
 20
-0.9694498697916666
 10
-6.233986409505207
 20
-0.9694498697916666
 10
-6.285662841796874
 20
-1.480357530381944
 10
-6.285662841796874
 20
-1.5285888671875
 10
-6.285662841796874
 20
-1.5285888671875
 10
-6.285662841796874
 20
-2.709567599826389
 10
-6.285662841796874
 20
-2.709567599826389
 10
-6.285662841796874
 20
-2.761244032118055
 10
-6.293069797092014
 20
-2.83548583984375
 10
-6.233986409505207
 20
-2.865285915798611
 10
-6.193162027994791
 20
-2.876310221354166
 10
-6.148720296223958
 20
-2.872520616319444
 10
-6.107895914713541
 20
-2.868731011284722
 10
-6.107895914713541
 20
-2.868731011284722
 10
-6.107895914713541
 20
-3.08353271484375
 10
-6.107895914713541
 20
-3.08353271484375
 97
        0
 92
       16
 93
        1
 72
     4
 94
        3
 73
     0
 74
     0
 95
       20
 96
       16
 40
0.0
 40
0.0
 40
0.0
 40
0.0
 40
1.0
 40
1.0
 40
1.0
 40
2.0
 40
2.0
 40
2.0
 40
3.0
 40
3.0
 40
3.0
 40
4.0
 40
4.0
 40
4.0
 40
5.0
 40
5.0
 40
5.0
 40
5.0
 10
-6.587453206380208
 20
-1.971283637152778
 10
-6.732147216796874
 20
-2.056205240885416
 10
-6.895272488064236
 20
-2.119078233506945
 10
-7.050990804036458
 20
-2.192803276909722
 10
-7.187933349609375
 20
-2.25567626953125
 10
-7.232375081380208
 20
-2.407432725694444
 10
-7.232375081380208
 20
-2.547648111979167
 10
-7.232375081380208
 20
-2.754698350694444
 10
-7.180698649088541
 20
-2.887679036458333
 10
-6.943503824869791
 20
-2.887679036458333
 10
-6.832227240668402
 20
-2.887679036458333
 10
-6.587453206380208
 20
-2.802585177951389
 10
-6.587453206380208
 20
-2.470133463541667
 10
-6.587453206380208
 20
-2.470133463541667
 10
-6.587453206380208
 20
-1.971283637152778
 10
-6.587453206380208
 20
-1.971283637152778
 97
        0
 75
     0
 76
     1
 98
        1
 10
0.0
 20
0.0
  0
HATCH
  5
78
330
68
100
AcDbEntity
  8
LAYER_1
 62
     7
100
AcDbHatch
 10
0.0
 20
0.0
 30
0.0
210
0.0
220
0.0
230
1.0
  2
SOLID
 70
     1
 71
     0
 91
        1
 92
        1
 93
        1
 72
     4
 94
        3
 73
     0
 74
     0
 95
       41
 96
       37
 40
0.0
 40
0.0
 40
0.0
 40
0.0
 40
1.0
 40
1.0
 40
1.0
 40
2.0
 40
2.0
 40
2.0
 40
3.0
 40
3.0
 40
3.0
 40
4.0
 40
4.0
 40
4.0
 40
5.0
 40
5.0
 40
5.0
 40
6.0
 40
6.0
 40
6.0
 40
7.0
 40
7.0
 40
7.0
 40
8.0
 40
8.0
 40
8.0
 40
9.0
 40
9.0
 40
9.0
 40
10.0
 40
10.0
 40
10.0
 40
11.0
 40
11.0
 40
11.0
 40
12.0
 40
12.0
 40
12.0
 40
12.0
 10
-5.935124376085069
 20
-1.023193359375
 10
-5.935124376085069
 20
-1.023193359375
 10
-5.630922444661458
 20
-1.023193359375
 10
-5.630922444661458
 20
-1.023193359375
 10
-5.630922444661458
 20
-1.023193359375
 10
-5.171518961588541
 20
-1.763716634114583
 10
-5.171518961588541
 20
-1.763716634114583
 10
-5.171518961588541
 20
-1.763716634114583
 10
-4.715560574001736
 20
-1.023193359375
 10
-4.715560574001736
 20
-1.023193359375
 10
-4.715560574001736
 20
-1.023193359375
 10
-4.411703152126735
 20
-1.023193359375
 10
-4.411703152126735
 20
-1.023193359375
 10
-4.411703152126735
 20
-1.023193359375
 10
-5.004604085286458
 20
-2.022960069444444
 10
-5.004604085286458
 20
-2.022960069444444
 10
-5.004604085286458
 20
-2.022960069444444
 10
-4.389310031467014
 20
-3.081982421875
 10
-4.389310031467014
 20
-3.081982421875
 10
-4.389310031467014
 20
-3.081982421875
 10
-4.693167453342014
 20
-3.081982421875
 10
-4.693167453342014
 20
-3.081982421875
 10
-4.693167453342014
 20
-3.081982421875
 10
-5.175136311848958
 20
-2.259810384114583
 10
-5.175136311848958
 20
-2.259810384114583
 10
-5.175136311848958
 20
-2.259810384114583
 10
-5.668129475911458
 20
-3.081982421875
 10
-5.668129475911458
 20
-3.081982421875
 10
-5.668129475911458
 20
-3.081982421875
 10
-5.971986897786458
 20
-3.081982421875
 10
-5.971986897786458
 20
-3.081982421875
 10
-5.971986897786458
 20
-3.081982421875
 10
-5.342051188151041
 20
-2.022960069444444
 10
-5.342051188151041
 20
-2.022960069444444
 10
-5.342051188151041
 20
-2.022960069444444
 10
-5.935124376085069
 20
-1.023193359375
 10
-5.935124376085069
 20
-1.023193359375
 97
        0
 75
     0
 76
     1
 98
        1
 10
0.0
 20
0.0
  0
HATCH
  5
77
330
68
100
AcDbEntity
  8
LAYER_1
 62
     7
100
AcDbHatch
 10
0.0
 20
0.0
 30
0.0
210
0.0
220
0.0
230
1.0
  2
SOLID
 70
     1
 71
     0
 91
        1
 92
        1
 93
        1
 72
     4
 94
        3
 73
     0
 74
     0
 95
       71
 96
       67
 40
0.0
 40
0.0
 40
0.0
 40
0.0
 40
1.0
 40
1.0
 40
1.0
 40
2.0
 40
2.0
 40
2.0
 40
3.0
 40
3.0
 40
3.0
 40
4.0
 40
4.0
 40
4.0
 40
5.0
 40
5.0
 40
5.0
 40
6.0
 40
6.0
 40
6.0
 40
7.0
 40
7.0
 40
7.0
 40
8.0
 40
8.0
 40
8.0
 40
9.0
 40
9.0
 40
9.0
 40
10.0
 40
10.0
 40
10.0
 40
11.0
 40
11.0
 40
11.0
 40
12.0
 40
12.0
 40
12.0
 40
13.0
 40
13.0
 40
13.0
 40
14.0
 40
14.0
 40
14.0
 40
15.0
 40
15.0
 40
15.0
 40
16.0
 40
16.0
 40
16.0
 40
17.0
 40
17.0
 40
17.0
 40
18.0
 40
18.0
 40
18.0
 40
19.0
 40
19.0
 40
19.0
 40
20.0
 40
20.0
 40
20.0
 40
21.0
 40
21.0
 40
21.0
 40
22.0
 40
22.0
 40
22.0
 40
22.0
 10
-22.75890367296007
 20
-0.303857421875
 10
-22.75890367296007
 20
-0.303857421875
 10
-22.21905721028646
 20
-0.303857421875
 10
-22.21905721028646
 20
-0.303857421875
 10
-22.21905721028646
 20
-0.303857421875
 10
-22.21905721028646
 20
-3.081982421875
 10
-22.21905721028646
 20
-3.081982421875
 10
-22.21905721028646
 20
-3.081982421875
 10
-22.52498168945312
 20
-3.081982421875
 10
-22.52498168945312
 20
-3.081982421875
 10
-22.52498168945312
 20
-3.081982421875
 10
-22.52498168945312
 20
-0.7923719618055555
 10
-22.52498168945312
 20
-0.7923719618055555
 10
-22.52498168945312
 20
-0.6738606770833333
 10
-22.51740247938368
 20
-0.5587944878472222
 10
-22.52498168945312
 20
-0.440283203125
 10
-22.52498168945312
 20
-0.440283203125
 10
-22.53256089952257
 20
-0.440283203125
 10
-22.53256089952257
 20
-0.440283203125
 10
-22.56580607096354
 20
-0.6035807291666666
 10
-22.59164428710937
 20
-0.7072781032986111
 10
-22.61765475802951
 20
-0.8147650824652777
 10
-22.61765475802951
 20
-0.8147650824652777
 10
-23.20056491427951
 20
-3.081982421875
 10
-23.20056491427951
 20
-3.081982421875
 10
-23.20056491427951
 20
-3.081982421875
 10
-23.56781209309896
 20
-3.081982421875
 10
-23.56781209309896
 20
-3.081982421875
 10
-23.56781209309896
 20
-3.081982421875
 10
-24.15072224934896
 20
-0.7813476562499999
 10
-24.15072224934896
 20
-0.7813476562499999
 10
-24.17656046549479
 20
-0.6848849826388889
 10
-24.19895358615451
 20
-0.5922119140625
 10
-24.23237101236979
 20
-0.440283203125
 10
-24.23237101236979
 20
-0.440283203125
 10
-24.23960571289062
 20
-0.440283203125
 10
-24.23960571289062
 20
-0.440283203125
 10
-24.23960571289062
 20
-0.5587944878472222
 10
-24.23237101236979
 20
-0.6814398871527777
 10
-24.23237101236979
 20
-0.799951171875
 10
-24.23237101236979
 20
-0.799951171875
 10
-24.23237101236979
 20
-3.081982421875
 10
-24.23237101236979
 20
-3.081982421875
 10
-24.23237101236979
 20
-3.081982421875
 10
-24.53829549153646
 20
-3.081982421875
 10
-24.53829549153646
 20
-3.081982421875
 10
-24.53829549153646
 20
-3.081982421875
 10
-24.53829549153646
 20
-0.303857421875
 10
-24.53829549153646
 20
-0.303857421875
 10
-24.53829549153646
 20
-0.303857421875
 10
-23.99500393337673
 20
-0.303857421875
 10
-23.99500393337673
 20
-0.303857421875
 10
-23.99500393337673
 20
-0.303857421875
 10
-23.44930080837673
 20
-2.471856011284722
 10
-23.44930080837673
 20
-2.471856011284722
 10
-23.41950073242187
 20
-2.59053955078125
 10
-23.40451456705729
 20
-2.705433485243055
 10
-23.38970065646701
 20
-2.883544921875
 10
-23.38970065646701
 20
-2.883544921875
 10
-23.38229370117187
 20
-2.883544921875
 10
-23.38229370117187
 20
-2.883544921875
 10
-23.36386244032118
 20
-2.74246826171875
 10
-23.34525892469618
 20
-2.605525716145833
 10
-23.3118414984809
 20
-2.468410915798611
 10
-23.3118414984809
 20
-2.468410915798611
 10
-22.75890367296007
 20
-0.303857421875
 10
-22.75890367296007
 20
-0.303857421875
 97
        0
 75
     0
 76
     1
 98
        1
 10
0.0
 20
0.0
  0
HATCH
  5
76
330
68
100
AcDbEntity
  8
LAYER_1
 62
     7
100
AcDbHatch
 10
0.0
 20
0.0
 30
0.0
210
0.0
220
0.0
230
1.0
  2
SOLID
 70
     1
 71
     0
 91
        2
 92
        1
 93
        1
 72
     4
 94
        3
 73
     0
 74
     0
 95
       56
 96
       52
 40
0.0
 40
0.0
 40
0.0
 40
0.0
 40
1.0
 40
1.0
 40
1.0
 40
2.0
 40
2.0
 40
2.0
 40
3.0
 40
3.0
 40
3.0
 40
4.0
 40
4.0
 40
4.0
 40
5.0
 40
5.0
 40
5.0
 40
6.0
 40
6.0
 40
6.0
 40
7.0
 40
7.0
 40
7.0
 40
8.0
 40
8.0
 40
8.0
 40
9.0
 40
9.0
 40
9.0
 40
10.0
 40
10.0
 40
10.0
 40
11.0
 40
11.0
 40
11.0
 40
12.0
 40
12.0
 40
12.0
 40
13.0
 40
13.0
 40
13.0
 40
14.0
 40
14.0
 40
14.0
 40
15.0
 40
15.0
 40
15.0
 40
16.0
 40
16.0
 40
16.0
 40
17.0
 40
17.0
 40
17.0
 40
17.0
 10
-20.39539591471354
 20
-3.08353271484375
 10
-20.41761678059896
 20
-3.087494574652777
 10
-20.43983764648437
 20
-3.090939670138889
 10
-20.46205851236979
 20
-3.098518880208333
 10
-20.70958862304687
 20
-3.109543185763889
 10
-20.80157267252604
 20
-3.087494574652777
 10
-20.83102823893229
 20
-2.802585177951389
 10
-20.83102823893229
 20
-2.802585177951389
 10
-20.83826293945312
 20
-2.802585177951389
 10
-20.83826293945312
 20
-2.802585177951389
 10
-20.90854288736979
 20
-2.983797200520833
 10
-21.09733412000868
 20
-3.135725911458333
 10
-21.29370456271701
 20
-3.135725911458333
 10
-21.70401543511284
 20
-3.135725911458333
 10
-21.82166544596354
 20
-2.906282552083333
 10
-21.82166544596354
 20
-2.532834201388889
 10
-21.82166544596354
 20
-2.455319552951389
 10
-21.81081339518229
 20
-2.159730360243056
 10
-21.52728203667535
 20
-2.033984375
 10
-21.36071166992187
 20
-1.960087076822916
 10
-20.94540540907118
 20
-1.805057779947917
 10
-20.90854288736979
 20
-1.7766357421875
 10
-20.84584214952257
 20
-1.72857666015625
 10
-20.8530768500434
 20
-1.646927897135416
 10
-20.8530768500434
 20
-1.539613172743055
 10
-20.8530768500434
 20
-1.306380208333333
 10
-20.94196031358507
 20
-1.217496744791667
 10
-21.17881062825521
 20
-1.217496744791667
 10
-21.44563327365451
 20
-1.217496744791667
 10
-21.48266805013021
 20
-1.339797634548611
 10
-21.47905069986979
 20
-1.580265299479167
 10
-21.47905069986979
 20
-1.580265299479167
 10
-21.7429450141059
 20
-1.580265299479167
 10
-21.7429450141059
 20
-1.580265299479167
 10
-21.75758666992187
 20
-1.154451497395833
 10
-21.54588555230034
 20
-0.9694498697916666
 10
-21.13075154622396
 20
-0.9694498697916666
 10
-20.52148640950521
 20
-0.9694498697916666
 10
-20.57316284179687
 20
-1.480357530381944
 10
-20.57316284179687
 20
-1.5285888671875
 10
-20.57316284179687
 20
-1.5285888671875
 10
-20.57316284179687
 20
-2.709567599826389
 10
-20.57316284179687
 20
-2.709567599826389
 10
-20.57316284179687
 20
-2.761244032118055
 10
-20.58056979709201
 20
-2.83548583984375
 10
-20.52148640950521
 20
-2.865285915798611
 10
-20.48066202799479
 20
-2.876310221354166
 10
-20.43622029622396
 20
-2.872520616319444
 10
-20.39539591471354
 20
-2.868731011284722
 10
-20.39539591471354
 20
-2.868731011284722
 10
-20.39539591471354
 20
-3.08353271484375
 10
-20.39539591471354
 20
-3.08353271484375
 97
        0
 92
       16
 93
        1
 72
     4
 94
        3
 73
     0
 74
     0
 95
       20
 96
       16
 40
0.0
 40
0.0
 40
0.0
 40
0.0
 40
1.0
 40
1.0
 40
1.0
 40
2.0
 40
2.0
 40
2.0
 40
3.0
 40
3.0
 40
3.0
 40
4.0
 40
4.0
 40
4.0
 40
5.0
 40
5.0
 40
5.0
 40
5.0
 10
-20.87495320638021
 20
-1.971283637152778
 10
-21.01964721679687
 20
-2.056205240885416
 10
-21.18277248806423
 20
-2.119078233506945
 10
-21.33849080403646
 20
-2.192803276909722
 10
-21.47543334960937
 20
-2.25567626953125
 10
-21.51987508138021
 20
-2.407432725694444
 10
-21.51987508138021
 20
-2.547648111979167
 10
-21.51987508138021
 20
-2.754698350694444
 10
-21.46819864908854
 20
-2.887679036458333
 10
-21.23100382486979
 20
-2.887679036458333
 10
-21.1197272406684
 20
-2.887679036458333
 10
-20.87495320638021
 20
-2.802585177951389
 10
-20.87495320638021
 20
-2.470133463541667
 10
-20.87495320638021
 20
-2.470133463541667
 10
-20.87495320638021
 20
-1.971283637152778
 10
-20.87495320638021
 20
-1.971283637152778
 97
        0
 75
     0
 76
     1
 98
        1
 10
0.0
 20
0.0
  0
HATCH
  5
75
330
68
100
AcDbEntity
  8
LAYER_1
 62
     7
100
AcDbHatch
 10
0.0
 20
0.0
 30
0.0
210
0.0
220
0.0
230
1.0
  2
SOLID
 70
     1
 71
     0
 91
        1
 92
        1
 93
        1
 72
     4
 94
        3
 73
     0
 74
     0
 95
       41
 96
       37
 40
0.0
 40
0.0
 40
0.0
 40
0.0
 40
1.0
 40
1.0
 40
1.0
 40
2.0
 40
2.0
 40
2.0
 40
3.0
 40
3.0
 40
3.0
 40
4.0
 40
4.0
 40
4.0
 40
5.0
 40
5.0
 40
5.0
 40
6.0
 40
6.0
 40
6.0
 40
7.0
 40
7.0
 40
7.0
 40
8.0
 40
8.0
 40
8.0
 40
9.0
 40
9.0
 40
9.0
 40
10.0
 40
10.0
 40
10.0
 40
11.0
 40
11.0
 40
11.0
 40
12.0
 40
12.0
 40
12.0
 40
12.0
 10
-20.22262437608507
 20
-1.023193359375
 10
-20.22262437608507
 20
-1.023193359375
 10
-19.91842244466146
 20
-1.023193359375
 10
-19.91842244466146
 20
-1.023193359375
 10
-19.91842244466146
 20
-1.023193359375
 10
-19.45901896158854
 20
-1.763716634114583
 10
-19.45901896158854
 20
-1.763716634114583
 10
-19.45901896158854
 20
-1.763716634114583
 10
-19.00306057400173
 20
-1.023193359375
 10
-19.00306057400173
 20
-1.023193359375
 10
-19.00306057400173
 20
-1.023193359375
 10
-18.69920315212674
 20
-1.023193359375
 10
-18.69920315212674
 20
-1.023193359375
 10
-18.69920315212674
 20
-1.023193359375
 10
-19.29210408528646
 20
-2.022960069444444
 10
-19.29210408528646
 20
-2.022960069444444
 10
-19.29210408528646
 20
-2.022960069444444
 10
-18.67681003146701
 20
-3.081982421875
 10
-18.67681003146701
 20
-3.081982421875
 10
-18.67681003146701
 20
-3.081982421875
 10
-18.98066745334201
 20
-3.081982421875
 10
-18.98066745334201
 20
-3.081982421875
 10
-18.98066745334201
 20
-3.081982421875
 10
-19.46263631184896
 20
-2.259810384114583
 10
-19.46263631184896
 20
-2.259810384114583
 10
-19.46263631184896
 20
-2.259810384114583
 10
-19.95562947591146
 20
-3.081982421875
 10
-19.95562947591146
 20
-3.081982421875
 10
-19.95562947591146
 20
-3.081982421875
 10
-20.25948689778646
 20
-3.081982421875
 10
-20.25948689778646
 20
-3.081982421875
 10
-20.25948689778646
 20
-3.081982421875
 10
-19.62955118815104
 20
-2.022960069444444
 10
-19.62955118815104
 20
-2.022960069444444
 10
-19.62955118815104
 20
-2.022960069444444
 10
-20.22262437608507
 20
-1.023193359375
 10
-20.22262437608507
 20
-1.023193359375
 97
        0
 75
     0
 76
     1
 98
        1
 10
0.0
 20
0.0
  0
HATCH
  5
74
330
68
100
AcDbEntity
  8
LAYER_1
 62
     7
100
AcDbHatch
 10
0.0
 20
0.0
 30
0.0
210
0.0
220
0.0
230
1.0
  2
SOLID
 70
     1
 71
     0
 91
        1
 92
        1
 93
        1
 72
     4
 94
        3
 73
     0
 74
     0
 95
       71
 96
       67
 40
0.0
 40
0.0
 40
0.0
 40
0.0
 40
1.0
 40
1.0
 40
1.0
 40
2.0
 40
2.0
 40
2.0
 40
3.0
 40
3.0
 40
3.0
 40
4.0
 40
4.0
 40
4.0
 40
5.0
 40
5.0
 40
5.0
 40
6.0
 40
6.0
 40
6.0
 40
7.0
 40
7.0
 40
7.0
 40
8.0
 40
8.0
 40
8.0
 40
9.0
 40
9.0
 40
9.0
 40
10.0
 40
10.0
 40
10.0
 40
11.0
 40
11.0
 40
11.0
 40
12.0
 40
12.0
 40
12.0
 40
13.0
 40
13.0
 40
13.0
 40
14.0
 40
14.0
 40
14.0
 40
15.0
 40
15.0
 40
15.0
 40
16.0
 40
16.0
 40
16.0
 40
17.0
 40
17.0
 40
17.0
 40
18.0
 40
18.0
 40
18.0
 40
19.0
 40
19.0
 40
19.0
 40
20.0
 40
20.0
 40
20.0
 40
21.0
 40
21.0
 40
21.0
 40
22.0
 40
22.0
 40
22.0
 40
22.0
 10
6.168874104817708
 20
-0.303857421875
 10
6.168874104817708
 20
-0.303857421875
 10
6.708720567491318
 20
-0.303857421875
 10
6.708720567491318
 20
-0.303857421875
 10
6.708720567491318
 20
-0.303857421875
 10
6.708720567491318
 20
-3.081982421875
 10
6.708720567491318
 20
-3.081982421875
 10
6.708720567491318
 20
-3.081982421875
 10
6.402796088324652
 20
-3.081982421875
 10
6.402796088324652
 20
-3.081982421875
 10
6.402796088324652
 20
-3.081982421875
 10
6.402796088324652
 20
-0.7923719618055555
 10
6.402796088324652
 20
-0.7923719618055555
 10
6.402796088324652
 20
-0.6738606770833333
 10
6.410203043619791
 20
-0.5587944878472222
 10
6.402796088324652
 20
-0.440283203125
 10
6.402796088324652
 20
-0.440283203125
 10
6.395216878255208
 20
-0.440283203125
 10
6.395216878255208
 20
-0.440283203125
 10
6.36179945203993
 20
-0.6035807291666666
 10
6.335961235894096
 20
-0.7072781032986111
 10
6.309950764973958
 20
-0.8147650824652777
 10
6.309950764973958
 20
-0.8147650824652777
 10
5.727212863498264
 20
-3.081982421875
 10
5.727212863498264
 20
-3.081982421875
 10
5.727212863498264
 20
-3.081982421875
 10
5.359621175130208
 20
-3.081982421875
 10
5.359621175130208
 20
-3.081982421875
 10
5.359621175130208
 20
-3.081982421875
 10
4.777055528428819
 20
-0.7813476562499999
 10
4.777055528428819
 20
-0.7813476562499999
 10
4.751217312282986
 20
-0.6848849826388889
 10
4.728651936848958
 20
-0.5922119140625
 10
4.695406765407986
 20
-0.440283203125
 10
4.695406765407986
 20
-0.440283203125
 10
4.688172064887152
 20
-0.440283203125
 10
4.688172064887152
 20
-0.440283203125
 10
4.688172064887152
 20
-0.5587944878472222
 10
4.695406765407986
 20
-0.6814398871527777
 10
4.695406765407986
 20
-0.799951171875
 10
4.695406765407986
 20
-0.799951171875
 10
4.695406765407986
 20
-3.081982421875
 10
4.695406765407986
 20
-3.081982421875
 10
4.695406765407986
 20
-3.081982421875
 10
4.389482286241319
 20
-3.081982421875
 10
4.389482286241319
 20
-3.081982421875
 10
4.389482286241319
 20
-3.081982421875
 10
4.389482286241319
 20
-0.303857421875
 10
4.389482286241319
 20
-0.303857421875
 10
4.389482286241319
 20
-0.303857421875
 10
4.933118353949652
 20
-0.303857421875
 10
4.933118353949652
 20
-0.303857421875
 10
4.933118353949652
 20
-0.303857421875
 10
5.478476969401041
 20
-2.471856011284722
 10
5.478476969401041
 20
-2.471856011284722
 10
5.508104790581597
 20
-2.59053955078125
 10
5.523263210720486
 20
-2.705433485243055
 10
5.537904866536458
 20
-2.883544921875
 10
5.537904866536458
 20
-2.883544921875
 10
5.545311821831596
 20
-2.883544921875
 10
5.545311821831596
 20
-2.883544921875
 10
5.563915337456597
 20
-2.74246826171875
 10
5.582346598307291
 20
-2.605525716145833
 10
5.615936279296874
 20
-2.468410915798611
 10
5.615936279296874
 20
-2.468410915798611
 10
6.168874104817708
 20
-0.303857421875
 10
6.168874104817708
 20
-0.303857421875
 97
        0
 75
     0
 76
     1
 98
        1
 10
0.0
 20
0.0
  0
HATCH
  5
73
330
68
100
AcDbEntity
  8
LAYER_1
 62
     7
100
AcDbHatch
 10
0.0
 20
0.0
 30
0.0
210
0.0
220
0.0
230
1.0
  2
SOLID
 70
     1
 71
     0
 91
        2
 92
        1
 93
        1
 72
     4
 94
        3
 73
     0
 74
     0
 95
       56
 96
       52
 40
0.0
 40
0.0
 40
0.0
 40
0.0
 40
1.0
 40
1.0
 40
1.0
 40
2.0
 40
2.0
 40
2.0
 40
3.0
 40
3.0
 40
3.0
 40
4.0
 40
4.0
 40
4.0
 40
5.0
 40
5.0
 40
5.0
 40
6.0
 40
6.0
 40
6.0
 40
7.0
 40
7.0
 40
7.0
 40
8.0
 40
8.0
 40
8.0
 40
9.0
 40
9.0
 40
9.0
 40
10.0
 40
10.0
 40
10.0
 40
11.0
 40
11.0
 40
11.0
 40
12.0
 40
12.0
 40
12.0
 40
13.0
 40
13.0
 40
13.0
 40
14.0
 40
14.0
 40
14.0
 40
15.0
 40
15.0
 40
15.0
 40
16.0
 40
16.0
 40
16.0
 40
17.0
 40
17.0
 40
17.0
 40
17.0
 10
8.53220960828993
 20
-3.08353271484375
 10
8.510160997178819
 20
-3.087494574652777
 10
8.487767876519097
 20
-3.090939670138889
 10
8.465719265407985
 20
-3.098518880208333
 10
8.218361409505208
 20
-3.109543185763889
 10
8.126032850477429
 20
-3.087494574652777
 10
8.09692179361979
 20
-2.802585177951389
 10
8.09692179361979
 20
-2.802585177951389
 10
8.089514838324652
 20
-2.802585177951389
 10
8.089514838324652
 20
-2.802585177951389
 10
8.01940714518229
 20
-2.983797200520833
 10
7.830271402994791
 20
-3.135725911458333
 10
7.633900960286458
 20
-3.135725911458333
 10
7.223590087890624
 20
-3.135725911458333
 10
7.10594007703993
 20
-2.906282552083333
 10
7.10594007703993
 20
-2.532834201388889
 10
7.10594007703993
 20
-2.455319552951389
 10
7.117136637369791
 20
-2.159730360243056
 10
7.400323486328125
 20
-2.033984375
 10
7.567238362630207
 20
-1.960087076822916
 10
7.982200113932291
 20
-1.805057779947917
 10
8.01940714518229
 20
-1.7766357421875
 10
8.082280137803819
 20
-1.72857666015625
 10
8.074700927734375
 20
-1.646927897135416
 10
8.074700927734375
 20
-1.539613172743055
 10
8.074700927734375
 20
-1.306380208333333
 10
7.986161973741319
 20
-1.217496744791667
 10
7.748794894748263
 20
-1.217496744791667
 10
7.481972249348957
 20
-1.217496744791667
 10
7.444937472873264
 20
-1.339797634548611
 10
7.448727077907986
 20
-1.580265299479167
 10
7.448727077907986
 20
-1.580265299479167
 10
7.184832763671874
 20
-1.580265299479167
 10
7.184832763671874
 20
-1.580265299479167
 10
7.170018853081596
 20
-1.154451497395833
 10
7.381719970703125
 20
-0.9694498697916666
 10
7.797026231553819
 20
-0.9694498697916666
 10
8.406463623046875
 20
-0.9694498697916666
 10
8.354442681206596
 20
-1.480357530381944
 10
8.354442681206596
 20
-1.5285888671875
 10
8.354442681206596
 20
-1.5285888671875
 10
8.354442681206596
 20
-2.709567599826389
 10
8.354442681206596
 20
-2.709567599826389
 10
8.354442681206596
 20
-2.761244032118055
 10
8.347035725911457
 20
-2.83548583984375
 10
8.406463623046875
 20
-2.865285915798611
 10
8.447115749782986
 20
-2.876310221354166
 10
8.491557481553819
 20
-2.872520616319444
 10
8.53220960828993
 20
-2.868731011284722
 10
8.53220960828993
 20
-2.868731011284722
 10
8.53220960828993
 20
-3.08353271484375
 10
8.53220960828993
 20
-3.08353271484375
 97
        0
 92
       16
 93
        1
 72
     4
 94
        3
 73
     0
 74
     0
 95
       20
 96
       16
 40
0.0
 40
0.0
 40
0.0
 40
0.0
 40
1.0
 40
1.0
 40
1.0
 40
2.0
 40
2.0
 40
2.0
 40
3.0
 40
3.0
 40
3.0
 40
4.0
 40
4.0
 40
4.0
 40
5.0
 40
5.0
 40
5.0
 40
5.0
 10
8.052652316623263
 20
-1.971283637152778
 10
7.907958306206597
 20
-2.056205240885416
 10
7.745005289713541
 20
-2.119078233506945
 10
7.589459228515624
 20
-2.192803276909722
 10
7.452172173394096
 20
-2.25567626953125
 10
7.407730441623263
 20
-2.407432725694444
 10
7.407730441623263
 20
-2.547648111979167
 10
7.407730441623263
 20
-2.754698350694444
 10
7.459751383463541
 20
-2.887679036458333
 10
7.696946207682291
 20
-2.887679036458333
 10
7.808050537109375
 20
-2.887679036458333
 10
8.052652316623263
 20
-2.802585177951389
 10
8.052652316623263
 20
-2.470133463541667
 10
8.052652316623263
 20
-2.470133463541667
 10
8.052652316623263
 20
-1.971283637152778
 10
8.052652316623263
 20
-1.971283637152778
 97
        0
 75
     0
 76
     1
 98
        1
 10
0.0
 20
0.0
  0
HATCH
  5
72
330
68
100
AcDbEntity
  8
LAYER_1
 62
     7
100
AcDbHatch
 10
0.0
 20
0.0
 30
0.0
210
0.0
220
0.0
230
1.0
  2
SOLID
 70
     1
 71
     0
 91
        1
 92
        1
 93
        1
 72
     4
 94
        3
 73
     0
 74
     0
 95
       41
 96
       37
 40
0.0
 40
0.0
 40
0.0
 40
0.0
 40
1.0
 40
1.0
 40
1.0
 40
2.0
 40
2.0
 40
2.0
 40
3.0
 40
3.0
 40
3.0
 40
4.0
 40
4.0
 40
4.0
 40
5.0
 40
5.0
 40
5.0
 40
6.0
 40
6.0
 40
6.0
 40
7.0
 40
7.0
 40
7.0
 40
8.0
 40
8.0
 40
8.0
 40
9.0
 40
9.0
 40
9.0
 40
10.0
 40
10.0
 40
10.0
 40
11.0
 40
11.0
 40
11.0
 40
12.0
 40
12.0
 40
12.0
 40
12.0
 10
8.705497911241318
 20
-1.023193359375
 10
8.705497911241318
 20
-1.023193359375
 10
9.009355333116318
 20
-1.023193359375
 10
9.009355333116318
 20
-1.023193359375
 10
9.009355333116318
 20
-1.023193359375
 10
9.468586561414929
 20
-1.763716634114583
 10
9.468586561414929
 20
-1.763716634114583
 10
9.468586561414929
 20
-1.763716634114583
 10
9.924717203776041
 20
-1.023193359375
 10
9.924717203776041
 20
-1.023193359375
 10
9.924717203776041
 20
-1.023193359375
 10
10.22857462565104
 20
-1.023193359375
 10
10.22857462565104
 20
-1.023193359375
 10
10.22857462565104
 20
-1.023193359375
 10
9.635673692491318
 20
-2.022960069444444
 10
9.635673692491318
 20
-2.022960069444444
 10
9.635673692491318
 20
-2.022960069444444
 10
10.25079549153646
 20
-3.081982421875
 10
10.25079549153646
 20
-3.081982421875
 10
10.25079549153646
 20
-3.081982421875
 10
9.946938069661458
 20
-3.081982421875
 10
9.946938069661458
 20
-3.081982421875
 10
9.946938069661458
 20
-3.081982421875
 10
9.465141465928818
 20
-2.259810384114583
 10
9.465141465928818
 20
-2.259810384114583
 10
9.465141465928818
 20
-2.259810384114583
 10
8.972148301866319
 20
-3.081982421875
 10
8.972148301866319
 20
-3.081982421875
 10
8.972148301866319
 20
-3.081982421875
 10
8.668290879991318
 20
-3.081982421875
 10
8.668290879991318
 20
-3.081982421875
 10
8.668290879991318
 20
-3.081982421875
 10
9.29839884440104
 20
-2.022960069444444
 10
9.29839884440104
 20
-2.022960069444444
 10
9.29839884440104
 20
-2.022960069444444
 10
8.705497911241318
 20
-1.023193359375
 10
8.705497911241318
 20
-1.023193359375
 97
        0
 75
     0
 76
     1
 98
        1
 10
0.0
 20
0.0
  0
HATCH
  5
71
330
68
100
AcDbEntity
  8
LAYER_1
 62
     7
100
AcDbHatch
 10
0.0
 20
0.0
 30
0.0
210
0.0
220
0.0
230
1.0
  2
SOLID
 70
     1
 71
     0
 91
        1
 92
        1
 93
        1
 72
     4
 94
        3
 73
     0
 74
     0
 95
       71
 96
       67
 40
0.0
 40
0.0
 40
0.0
 40
0.0
 40
1.0
 40
1.0
 40
1.0
 40
2.0
 40
2.0
 40
2.0
 40
3.0
 40
3.0
 40
3.0
 40
4.0
 40
4.0
 40
4.0
 40
5.0
 40
5.0
 40
5.0
 40
6.0
 40
6.0
 40
6.0
 40
7.0
 40
7.0
 40
7.0
 40
8.0
 40
8.0
 40
8.0
 40
9.0
 40
9.0
 40
9.0
 40
10.0
 40
10.0
 40
10.0
 40
11.0
 40
11.0
 40
11.0
 40
12.0
 40
12.0
 40
12.0
 40
13.0
 40
13.0
 40
13.0
 40
14.0
 40
14.0
 40
14.0
 40
15.0
 40
15.0
 40
15.0
 40
16.0
 40
16.0
 40
16.0
 40
17.0
 40
17.0
 40
17.0
 40
18.0
 40
18.0
 40
18.0
 40
19.0
 40
19.0
 40
19.0
 40
20.0
 40
20.0
 40
20.0
 40
21.0
 40
21.0
 40
21.0
 40
22.0
 40
22.0
 40
22.0
 40
22.0
 10
20.45637410481771
 20
-0.303857421875
 10
20.45637410481771
 20
-0.303857421875
 10
20.99622056749132
 20
-0.303857421875
 10
20.99622056749132
 20
-0.303857421875
 10
20.99622056749132
 20
-0.303857421875
 10
20.99622056749132
 20
-3.081982421875
 10
20.99622056749132
 20
-3.081982421875
 10
20.99622056749132
 20
-3.081982421875
 10
20.69029608832465
 20
-3.081982421875
 10
20.69029608832465
 20
-3.081982421875
 10
20.69029608832465
 20
-3.081982421875
 10
20.69029608832465
 20
-0.7923719618055555
 10
20.69029608832465
 20
-0.7923719618055555
 10
20.69029608832465
 20
-0.6738606770833333
 10
20.69770304361979
 20
-0.5587944878472222
 10
20.69029608832465
 20
-0.440283203125
 10
20.69029608832465
 20
-0.440283203125
 10
20.68271687825521
 20
-0.440283203125
 10
20.68271687825521
 20
-0.440283203125
 10
20.64929945203993
 20
-0.6035807291666666
 10
20.62346123589409
 20
-0.7072781032986111
 10
20.59745076497396
 20
-0.8147650824652777
 10
20.59745076497396
 20
-0.8147650824652777
 10
20.01471286349826
 20
-3.081982421875
 10
20.01471286349826
 20
-3.081982421875
 10
20.01471286349826
 20
-3.081982421875
 10
19.64712117513021
 20
-3.081982421875
 10
19.64712117513021
 20
-3.081982421875
 10
19.64712117513021
 20
-3.081982421875
 10
19.06455552842882
 20
-0.7813476562499999
 10
19.06455552842882
 20
-0.7813476562499999
 10
19.03871731228298
 20
-0.6848849826388889
 10
19.01615193684896
 20
-0.5922119140625
 10
18.98290676540799
 20
-0.440283203125
 10
18.98290676540799
 20
-0.440283203125
 10
18.97567206488715
 20
-0.440283203125
 10
18.97567206488715
 20
-0.440283203125
 10
18.97567206488715
 20
-0.5587944878472222
 10
18.98290676540799
 20
-0.6814398871527777
 10
18.98290676540799
 20
-0.799951171875
 10
18.98290676540799
 20
-0.799951171875
 10
18.98290676540799
 20
-3.081982421875
 10
18.98290676540799
 20
-3.081982421875
 10
18.98290676540799
 20
-3.081982421875
 10
18.67698228624132
 20
-3.081982421875
 10
18.67698228624132
 20
-3.081982421875
 10
18.67698228624132
 20
-3.081982421875
 10
18.67698228624132
 20
-0.303857421875
 10
18.67698228624132
 20
-0.303857421875
 10
18.67698228624132
 20
-0.303857421875
 10
19.22061835394965
 20
-0.303857421875
 10
19.22061835394965
 20
-0.303857421875
 10
19.22061835394965
 20
-0.303857421875
 10
19.76597696940104
 20
-2.471856011284722
 10
19.76597696940104
 20
-2.471856011284722
 10
19.7956047905816
 20
-2.59053955078125
 10
19.81076321072048
 20
-2.705433485243055
 10
19.82540486653646
 20
-2.883544921875
 10
19.82540486653646
 20
-2.883544921875
 10
19.83281182183159
 20
-2.883544921875
 10
19.83281182183159
 20
-2.883544921875
 10
19.8514153374566
 20
-2.74246826171875
 10
19.86984659830729
 20
-2.605525716145833
 10
19.90343627929687
 20
-2.468410915798611
 10
19.90343627929687
 20
-2.468410915798611
 10
20.45637410481771
 20
-0.303857421875
 10
20.45637410481771
 20
-0.303857421875
 97
        0
 75
     0
 76
     1
 98
        1
 10
0.0
 20
0.0
  0
HATCH
  5
70
330
68
100
AcDbEntity
  8
LAYER_1
 62
     7
100
AcDbHatch
 10
0.0
 20
0.0
 30
0.0
210
0.0
220
0.0
230
1.0
  2
SOLID
 70
     1
 71
     0
 91
        2
 92
        1
 93
        1
 72
     4
 94
        3
 73
     0
 74
     0
 95
       56
 96
       52
 40
0.0
 40
0.0
 40
0.0
 40
0.0
 40
1.0
 40
1.0
 40
1.0
 40
2.0
 40
2.0
 40
2.0
 40
3.0
 40
3.0
 40
3.0
 40
4.0
 40
4.0
 40
4.0
 40
5.0
 40
5.0
 40
5.0
 40
6.0
 40
6.0
 40
6.0
 40
7.0
 40
7.0
 40
7.0
 40
8.0
 40
8.0
 40
8.0
 40
9.0
 40
9.0
 40
9.0
 40
10.0
 40
10.0
 40
10.0
 40
11.0
 40
11.0
 40
11.0
 40
12.0
 40
12.0
 40
12.0
 40
13.0
 40
13.0
 40
13.0
 40
14.0
 40
14.0
 40
14.0
 40
15.0
 40
15.0
 40
15.0
 40
16.0
 40
16.0
 40
16.0
 40
17.0
 40
17.0
 40
17.0
 40
17.0
 10
22.81970960828993
 20
-3.08353271484375
 10
22.79766099717882
 20
-3.087494574652777
 10
22.7752678765191
 20
-3.090939670138889
 10
22.75321926540799
 20
-3.098518880208333
 10
22.50586140950521
 20
-3.109543185763889
 10
22.41353285047743
 20
-3.087494574652777
 10
22.38442179361979
 20
-2.802585177951389
 10
22.38442179361979
 20
-2.802585177951389
 10
22.37701483832465
 20
-2.802585177951389
 10
22.37701483832465
 20
-2.802585177951389
 10
22.30690714518229
 20
-2.983797200520833
 10
22.11777140299479
 20
-3.135725911458333
 10
21.92140096028646
 20
-3.135725911458333
 10
21.51109008789062
 20
-3.135725911458333
 10
21.39344007703993
 20
-2.906282552083333
 10
21.39344007703993
 20
-2.532834201388889
 10
21.39344007703993
 20
-2.455319552951389
 10
21.40463663736979
 20
-2.159730360243056
 10
21.68782348632812
 20
-2.033984375
 10
21.85473836263021
 20
-1.960087076822916
 10
22.26970011393229
 20
-1.805057779947917
 10
22.30690714518229
 20
-1.7766357421875
 10
22.36978013780382
 20
-1.72857666015625
 10
22.36220092773437
 20
-1.646927897135416
 10
22.36220092773437
 20
-1.539613172743055
 10
22.36220092773437
 20
-1.306380208333333
 10
22.27366197374132
 20
-1.217496744791667
 10
22.03629489474826
 20
-1.217496744791667
 10
21.76947224934896
 20
-1.217496744791667
 10
21.73243747287326
 20
-1.339797634548611
 10
21.73622707790798
 20
-1.580265299479167
 10
21.73622707790798
 20
-1.580265299479167
 10
21.47233276367187
 20
-1.580265299479167
 10
21.47233276367187
 20
-1.580265299479167
 10
21.4575188530816
 20
-1.154451497395833
 10
21.66921997070312
 20
-0.9694498697916666
 10
22.08452623155382
 20
-0.9694498697916666
 10
22.69396362304687
 20
-0.9694498697916666
 10
22.64194268120659
 20
-1.480357530381944
 10
22.64194268120659
 20
-1.5285888671875
 10
22.64194268120659
 20
-1.5285888671875
 10
22.64194268120659
 20
-2.709567599826389
 10
22.64194268120659
 20
-2.709567599826389
 10
22.64194268120659
 20
-2.761244032118055
 10
22.63453572591146
 20
-2.83548583984375
 10
22.69396362304687
 20
-2.865285915798611
 10
22.73461574978299
 20
-2.876310221354166
 10
22.77905748155382
 20
-2.872520616319444
 10
22.81970960828993
 20
-2.868731011284722
 10
22.81970960828993
 20
-2.868731011284722
 10
22.81970960828993
 20
-3.08353271484375
 10
22.81970960828993
 20
-3.08353271484375
 97
        0
 92
       16
 93
        1
 72
     4
 94
        3
 73
     0
 74
     0
 95
       20
 96
       16
 40
0.0
 40
0.0
 40
0.0
 40
0.0
 40
1.0
 40
1.0
 40
1.0
 40
2.0
 40
2.0
 40
2.0
 40
3.0
 40
3.0
 40
3.0
 40
4.0
 40
4.0
 40
4.0
 40
5.0
 40
5.0
 40
5.0
 40
5.0
 10
22.34015231662326
 20
-1.971283637152778
 10
22.1954583062066
 20
-2.056205240885416
 10
22.03250528971354
 20
-2.119078233506945
 10
21.87695922851562
 20
-2.192803276909722
 10
21.73967217339409
 20
-2.25567626953125
 10
21.69523044162326
 20
-2.407432725694444
 10
21.69523044162326
 20
-2.547648111979167
 10
21.69523044162326
 20
-2.754698350694444
 10
21.74725138346354
 20
-2.887679036458333
 10
21.98444620768229
 20
-2.887679036458333
 10
22.09555053710937
 20
-2.887679036458333
 10
22.34015231662326
 20
-2.802585177951389
 10
22.34015231662326
 20
-2.470133463541667
 10
22.34015231662326
 20
-2.470133463541667
 10
22.34015231662326
 20
-1.971283637152778
 10
22.34015231662326
 20
-1.971283637152778
 97
        0
 75
     0
 76
     1
 98
        1
 10
0.0
 20
0.0
  0
HATCH
  5
6F
330
68
100
AcDbEntity
  8
LAYER_1
 62
     7
100
AcDbHatch
 10
0.0
 20
0.0
 30
0.0
210
0.0
220
0.0
230
1.0
  2
SOLID
 70
     1
 71
     0
 91
        1
 92
        1
 93
        1
 72
     4
 94
        3
 73
     0
 74
     0
 95
       41
 96
       37
 40
0.0
 40
0.0
 40
0.0
 40
0.0
 40
1.0
 40
1.0
 40
1.0
 40
2.0
 40
2.0
 40
2.0
 40
3.0
 40
3.0
 40
3.0
 40
4.0
 40
4.0
 40
4.0
 40
5.0
 40
5.0
 40
5.0
 40
6.0
 40
6.0
 40
6.0
 40
7.0
 40
7.0
 40
7.0
 40
8.0
 40
8.0
 40
8.0
 40
9.0
 40
9.0
 40
9.0
 40
10.0
 40
10.0
 40
10.0
 40
11.0
 40
11.0
 40
11.0
 40
12.0
 40
12.0
 40
12.0
 40
12.0
 10
22.99299791124132
 20
-1.023193359375
 10
22.99299791124132
 20
-1.023193359375
 10
23.29685533311632
 20
-1.023193359375
 10
23.29685533311632
 20
-1.023193359375
 10
23.29685533311632
 20
-1.023193359375
 10
23.75608656141493
 20
-1.763716634114583
 10
23.75608656141493
 20
-1.763716634114583
 10
23.75608656141493
 20
-1.763716634114583
 10
24.21221720377604
 20
-1.023193359375
 10
24.21221720377604
 20
-1.023193359375
 10
24.21221720377604
 20
-1.023193359375
 10
24.51607462565104
 20
-1.023193359375
 10
24.51607462565104
 20
-1.023193359375
 10
24.51607462565104
 20
-1.023193359375
 10
23.92317369249132
 20
-2.022960069444444
 10
23.92317369249132
 20
-2.022960069444444
 10
23.92317369249132
 20
-2.022960069444444
 10
24.53829549153646
 20
-3.081982421875
 10
24.53829549153646
 20
-3.081982421875
 10
24.53829549153646
 20
-3.081982421875
 10
24.23443806966146
 20
-3.081982421875
 10
24.23443806966146
 20
-3.081982421875
 10
24.23443806966146
 20
-3.081982421875
 10
23.75264146592882
 20
-2.259810384114583
 10
23.75264146592882
 20
-2.259810384114583
 10
23.75264146592882
 20
-2.259810384114583
 10
23.25964830186632
 20
-3.081982421875
 10
23.25964830186632
 20
-3.081982421875
 10
23.25964830186632
 20
-3.081982421875
 10
22.95579087999132
 20
-3.081982421875
 10
22.95579087999132
 20
-3.081982421875
 10
22.95579087999132
 20
-3.081982421875
 10
23.58589884440104
 20
-2.022960069444444
 10
23.58589884440104
 20
-2.022960069444444
 10
23.58589884440104
 20
-2.022960069444444
 10
22.99299791124132
 20
-1.023193359375
 10
22.99299791124132
 20
-1.023193359375
 97
        0
 75
     0
 76
     1
 98
        1
 10
0.0
 20
0.0
  0
HATCH
  5
6E
330
68
100
AcDbEntity
  8
LAYER_1
 62
     7
100
AcDbHatch
 10
0.0
 20
0.0
 30
0.0
210
0.0
220
0.0
230
1.0
  2
SOLID
 70
     1
 71
     0
 91
        2
 92
       16
 93
        1
 72
     4
 94
        3
 73
     0
 74
     0
 95
       35
 96
       31
 40
0.0
 40
0.0
 40
0.0
 40
0.0
 40
1.0
 40
1.0
 40
1.0
 40
2.0
 40
2.0
 40
2.0
 40
3.0
 40
3.0
 40
3.0
 40
4.0
 40
4.0
 40
4.0
 40
5.0
 40
5.0
 40
5.0
 40
6.0
 40
6.0
 40
6.0
 40
7.0
 40
7.0
 40
7.0
 40
8.0
 40
8.0
 40
8.0
 40
9.0
 40
9.0
 40
9.0
 40
10.0
 40
10.0
 40
10.0
 40
10.0
 10
-7.368284098307291
 20
0.303857421875
 10
-6.946604410807291
 20
0.303857421875
 10
-6.632067192925347
 20
0.6807508680555555
 10
-6.632067192925347
 20
1.272273763020833
 10
-6.632067192925347
 20
1.719791666666667
 10
-6.850486246744791
 20
2.118733723958333
 10
-7.34623548719618
 20
2.118733723958333
 10
-7.546051025390624
 20
2.118733723958333
 10
-7.74931165907118
 20
2.015380859375
 10
-7.856626383463541
 20
1.779047309027778
 10
-7.856626383463541
 20
1.779047309027778
 10
-7.86403333875868
 20
1.779047309027778
 10
-7.86403333875868
 20
1.779047309027778
 10
-7.849219428168402
 20
2.074636501736111
 10
-7.853009033203124
 20
2.858740234375
 10
-7.383270263671874
 20
2.858740234375
 10
-7.119720458984374
 20
2.858740234375
 10
-7.012405734592013
 20
2.724898274739583
 10
-7.012405734592013
 20
2.471856011284722
 10
-7.012405734592013
 20
2.471856011284722
 10
-6.69821302625868
 20
2.471856011284722
 10
-6.69821302625868
 20
2.471856011284722
 10
-6.709409586588541
 20
2.873554144965278
 10
-6.934718831380208
 20
3.135725911458333
 10
-7.345890977647569
 20
3.135725911458333
 10
-8.143775092230902
 20
3.135725911458333
 10
-8.165823703342014
 20
2.166965060763889
 10
-8.165823703342014
 20
1.590256076388889
 10
-8.165823703342014
 20
1.020781792534722
 10
-8.110702175564235
 20
0.303857421875
 10
-7.368284098307291
 20
0.303857421875
 97
        0
 92
        1
 93
        1
 72
     4
 94
        3
 73
     0
 74
     0
 95
       17
 96
       13
 40
0.0
 40
0.0
 40
0.0
 40
0.0
 40
1.0
 40
1.0
 40
1.0
 40
2.0
 40
2.0
 40
2.0
 40
3.0
 40
3.0
 40
3.0
 40
4.0
 40
4.0
 40
4.0
 40
4.0
 10
-6.950394015842013
 20
1.254014756944444
 10
-6.950394015842013
 20
0.9728949652777776
 10
-7.013267008463541
 20
0.5808430989583333
 10
-7.375863308376736
 20
0.5808430989583333
 10
-7.65319349500868
 20
0.5808430989583333
 10
-7.84542982313368
 20
0.7582655164930555
 10
-7.827170817057291
 20
1.283298068576389
 10
-7.827170817057291
 20
1.538579644097222
 10
-7.760508219401041
 20
1.841748046875
 10
-7.397911919487846
 20
1.841748046875
 10
-7.043067084418402
 20
1.841748046875
 10
-6.950394015842013
 20
1.557010904947917
 10
-6.950394015842013
 20
1.254014756944444
 97
        0
 75
     0
 76
     1
 98
        1
 10
0.0
 20
0.0
  0
HATCH
  5
6D
330
68
100
AcDbEntity
  8
LAYER_1
 62
     7
100
AcDbHatch
 10
0.0
 20
0.0
 30
0.0
210
0.0
220
0.0
230
1.0
  2
SOLID
 70
     1
 71
     0
 91
        2
 92
       16
 93
        1
 72
     4
 94
        3
 73
     0
 74
     0
 95
       35
 96
       31
 40
0.0
 40
0.0
 40
0.0
 40
0.0
 40
1.0
 40
1.0
 40
1.0
 40
2.0
 40
2.0
 40
2.0
 40
3.0
 40
3.0
 40
3.0
 40
4.0
 40
4.0
 40
4.0
 40
5.0
 40
5.0
 40
5.0
 40
6.0
 40
6.0
 40
6.0
 40
7.0
 40
7.0
 40
7.0
 40
8.0
 40
8.0
 40
8.0
 40
9.0
 40
9.0
 40
9.0
 40
10.0
 40
10.0
 40
10.0
 40
10.0
 10
6.830849202473957
 20
0.303857421875
 10
7.252528889973958
 20
0.303857421875
 10
7.567238362630207
 20
0.6807508680555555
 10
7.567238362630207
 20
1.272273763020833
 10
7.567238362630207
 20
1.719791666666667
 10
7.348819308810763
 20
2.118733723958333
 10
6.853070068359374
 20
2.118733723958333
 10
6.65325453016493
 20
2.118733723958333
 10
6.449649386935763
 20
2.015380859375
 10
6.342506917317707
 20
1.779047309027778
 10
6.342506917317707
 20
1.779047309027778
 10
6.335272216796875
 20
1.779047309027778
 10
6.335272216796875
 20
1.779047309027778
 10
6.350086127387153
 20
2.074636501736111
 10
6.34629652235243
 20
2.858740234375
 10
6.816207546657986
 20
2.858740234375
 10
7.079412841796875
 20
2.858740234375
 10
7.186899820963541
 20
2.724898274739583
 10
7.186899820963541
 20
2.471856011284722
 10
7.186899820963541
 20
2.471856011284722
 10
7.501092529296875
 20
2.471856011284722
 10
7.501092529296875
 20
2.471856011284722
 10
7.490068223741319
 20
2.873554144965278
 10
7.264414469401041
 20
3.135725911458333
 10
6.853586832682291
 20
3.135725911458333
 10
6.055530463324653
 20
3.135725911458333
 10
6.033481852213541
 20
2.166965060763889
 10
6.033481852213541
 20
1.590256076388889
 10
6.033481852213541
 20
1.020781792534722
 10
6.088603379991319
 20
0.303857421875
 10
6.830849202473957
 20
0.303857421875
 97
        0
 92
        1
 93
        1
 72
     4
 94
        3
 73
     0
 74
     0
 95
       17
 96
       13
 40
0.0
 40
0.0
 40
0.0
 40
0.0
 40
1.0
 40
1.0
 40
1.0
 40
2.0
 40
2.0
 40
2.0
 40
3.0
 40
3.0
 40
3.0
 40
4.0
 40
4.0
 40
4.0
 40
4.0
 10
7.248911539713541
 20
1.254014756944444
 10
7.248911539713541
 20
0.9728949652777776
 10
7.185866292317708
 20
0.5808430989583333
 10
6.823442247178819
 20
0.5808430989583333
 10
6.546112060546874
 20
0.5808430989583333
 10
6.353531222873263
 20
0.7582655164930555
 10
6.372134738498263
 20
1.283298068576389
 10
6.372134738498263
 20
1.538579644097222
 10
6.438969590928819
 20
1.841748046875
 10
6.801393636067708
 20
1.841748046875
 10
7.156410725911457
 20
1.841748046875
 10
7.248911539713541
 20
1.557010904947917
 10
7.248911539713541
 20
1.254014756944444
 97
        0
 75
     0
 76
     1
 98
        1
 10
0.0
 20
0.0
  0
HATCH
  5
6C
330
68
100
AcDbEntity
  8
LAYER_1
 62
     7
100
AcDbHatch
 10
0.0
 20
0.0
 30
0.0
210
0.0
220
0.0
230
1.0
  2
SOLID
 70
     1
 71
     0
 91
        2
 92
       16
 93
        1
 72
     4
 94
        3
 73
     0
 74
     0
 95
       35
 96
       31
 40
0.0
 40
0.0
 40
0.0
 40
0.0
 40
1.0
 40
1.0
 40
1.0
 40
2.0
 40
2.0
 40
2.0
 40
3.0
 40
3.0
 40
3.0
 40
4.0
 40
4.0
 40
4.0
 40
5.0
 40
5.0
 40
5.0
 40
6.0
 40
6.0
 40
6.0
 40
7.0
 40
7.0
 40
7.0
 40
8.0
 40
8.0
 40
8.0
 40
9.0
 40
9.0
 40
9.0
 40
10.0
 40
10.0
 40
10.0
 40
10.0
 10
21.38293253580729
 20
0.303857421875
 10
21.80461222330729
 20
0.303857421875
 10
22.11932169596354
 20
0.6807508680555555
 10
22.11932169596354
 20
1.272273763020833
 10
22.11932169596354
 20
1.719791666666667
 10
21.9009026421441
 20
2.118733723958333
 10
21.40515340169271
 20
2.118733723958333
 10
21.20533786349826
 20
2.118733723958333
 10
21.0017327202691
 20
2.015380859375
 10
20.89459025065104
 20
1.779047309027778
 10
20.89459025065104
 20
1.779047309027778
 10
20.88735555013021
 20
1.779047309027778
 10
20.88735555013021
 20
1.779047309027778
 10
20.90216946072048
 20
2.074636501736111
 10
20.89837985568576
 20
2.858740234375
 10
21.36829087999132
 20
2.858740234375
 10
21.63149617513021
 20
2.858740234375
 10
21.73898315429687
 20
2.724898274739583
 10
21.73898315429687
 20
2.471856011284722
 10
21.73898315429687
 20
2.471856011284722
 10
22.05317586263021
 20
2.471856011284722
 10
22.05317586263021
 20
2.471856011284722
 10
22.04215155707465
 20
2.873554144965278
 10
21.81649780273437
 20
3.135725911458333
 10
21.40567016601562
 20
3.135725911458333
 10
20.60761379665798
 20
3.135725911458333
 10
20.58556518554687
 20
2.166965060763889
 10
20.58556518554687
 20
1.590256076388889
 10
20.58556518554687
 20
1.020781792534722
 10
20.64068671332465
 20
0.303857421875
 10
21.38293253580729
 20
0.303857421875
 97
        0
 92
        1
 93
        1
 72
     4
 94
        3
 73
     0
 74
     0
 95
       17
 96
       13
 40
0.0
 40
0.0
 40
0.0
 40
0.0
 40
1.0
 40
1.0
 40
1.0
 40
2.0
 40
2.0
 40
2.0
 40
3.0
 40
3.0
 40
3.0
 40
4.0
 40
4.0
 40
4.0
 40
4.0
 10
21.80099487304687
 20
1.254014756944444
 10
21.80099487304687
 20
0.9728949652777776
 10
21.73794962565104
 20
0.5808430989583333
 10
21.37552558051215
 20
0.5808430989583333
 10
21.09819539388021
 20
0.5808430989583333
 10
20.90561455620659
 20
0.7582655164930555
 10
20.9242180718316
 20
1.283298068576389
 10
20.9242180718316
 20
1.538579644097222
 10
20.99105292426215
 20
1.841748046875
 10
21.35347696940104
 20
1.841748046875
 10
21.70849405924479
 20
1.841748046875
 10
21.80099487304687
 20
1.557010904947917
 10
21.80099487304687
 20
1.254014756944444
 97
        0
 75
     0
 76
     1
 98
        1
 10
0.0
 20
0.0
  0
HATCH
  5
6B
330
68
100
AcDbEntity
  8
LAYER_1
 62
     7
100
AcDbHatch
 10
0.0
 20
0.0
 30
0.0
210
0.0
220
0.0
230
1.0
  2
SOLID
 70
     1
 71
     0
 91
        2
 92
       16
 93
        1
 72
     4
 94
        3
 73
     0
 74
     0
 95
       35
 96
       31
 40
0.0
 40
0.0
 40
0.0
 40
0.0
 40
1.0
 40
1.0
 40
1.0
 40
2.0
 40
2.0
 40
2.0
 40
3.0
 40
3.0
 40
3.0
 40
4.0
 40
4.0
 40
4.0
 40
5.0
 40
5.0
 40
5.0
 40
6.0
 40
6.0
 40
6.0
 40
7.0
 40
7.0
 40
7.0
 40
8.0
 40
8.0
 40
8.0
 40
9.0
 40
9.0
 40
9.0
 40
10.0
 40
10.0
 40
10.0
 40
10.0
 10
-21.65578409830729
 20
0.303857421875
 10
-21.23410441080729
 20
0.303857421875
 10
-20.91956719292535
 20
0.6807508680555555
 10
-20.91956719292535
 20
1.272273763020833
 10
-20.91956719292535
 20
1.719791666666667
 10
-21.13798624674479
 20
2.118733723958333
 10
-21.63373548719618
 20
2.118733723958333
 10
-21.83355102539062
 20
2.118733723958333
 10
-22.03681165907118
 20
2.015380859375
 10
-22.14412638346354
 20
1.779047309027778
 10
-22.14412638346354
 20
1.779047309027778
 10
-22.15153333875868
 20
1.779047309027778
 10
-22.15153333875868
 20
1.779047309027778
 10
-22.1367194281684
 20
2.074636501736111
 10
-22.14050903320312
 20
2.858740234375
 10
-21.67077026367187
 20
2.858740234375
 10
-21.40722045898437
 20
2.858740234375
 10
-21.29990573459201
 20
2.724898274739583
 10
-21.29990573459201
 20
2.471856011284722
 10
-21.29990573459201
 20
2.471856011284722
 10
-20.98571302625868
 20
2.471856011284722
 10
-20.98571302625868
 20
2.471856011284722
 10
-20.99690958658854
 20
2.873554144965278
 10
-21.22221883138021
 20
3.135725911458333
 10
-21.63339097764757
 20
3.135725911458333
 10
-22.4312750922309
 20
3.135725911458333
 10
-22.45332370334201
 20
2.166965060763889
 10
-22.45332370334201
 20
1.590256076388889
 10
-22.45332370334201
 20
1.020781792534722
 10
-22.39820217556423
 20
0.303857421875
 10
-21.65578409830729
 20
0.303857421875
 97
        0
 92
        1
 93
        1
 72
     4
 94
        3
 73
     0
 74
     0
 95
       17
 96
       13
 40
0.0
 40
0.0
 40
0.0
 40
0.0
 40
1.0
 40
1.0
 40
1.0
 40
2.0
 40
2.0
 40
2.0
 40
3.0
 40
3.0
 40
3.0
 40
4.0
 40
4.0
 40
4.0
 40
4.0
 10
-21.23789401584201
 20
1.254014756944444
 10
-21.23789401584201
 20
0.9728949652777776
 10
-21.30076700846354
 20
0.5808430989583333
 10
-21.66336330837673
 20
0.5808430989583333
 10
-21.94069349500868
 20
0.5808430989583333
 10
-22.13292982313368
 20
0.7582655164930555
 10
-22.11467081705729
 20
1.283298068576389
 10
-22.11467081705729
 20
1.538579644097222
 10
-22.04800821940104
 20
1.841748046875
 10
-21.68541191948784
 20
1.841748046875
 10
-21.3305670844184
 20
1.841748046875
 10
-21.23789401584201
 20
1.557010904947917
 10
-21.23789401584201
 20
1.254014756944444
 97
        0
 75
     0
 76
     1
 98
        1
 10
0.0
 20
0.0
  0
ENDBLK
  5
7B
330
68
100
AcDbEntity
  8
LAYER_1
100
AcDbBlockEnd
  0
ENDSEC
  0
SECTION
  2
ENTITIES
  0
LINE
  5
E5
330
A
100
AcDbEntity
  8
LAYER_1
 62
     7
100
AcDbLine
 10
95.94108615451388
 20
189.4545857747396
 30
0.0
 11
95.94108615451388
 21
199.8685926649305
 31
0.0
  0
LINE
  5
E4
330
A
100
AcDbEntity
  8
LAYER_1
 62
     7
100
AcDbLine
 10
96.95704481336804
 20
198.3024522569444
 30
0.0
 11
101.4866563585069
 21
198.3024522569444
 31
0.0
  0
LINE
  5
E3
330
A
100
AcDbEntity
  8
LAYER_1
 62
     7
100
AcDbLine
 10
109.4031412760417
 20
198.3024522569444
 30
0.0
 11
104.8733574761285
 21
198.3024522569444
 31
0.0
  0
LINE
  5
E2
330
A
100
AcDbEntity
  8
LAYER_1
 62
     7
100
AcDbLine
 10
95.94108615451388
 20
189.2005099826389
 30
0.0
 11
95.94108615451388
 21
189.2005099826389
 31
0.0
  0
LINE
  5
E1
330
A
100
AcDbEntity
  8
LAYER_1
 62
     7
100
AcDbLine
 10
110.4190999348958
 20
189.2005099826389
 30
0.0
 11
110.4190999348958
 21
189.2005099826389
 31
0.0
  0
LINE
  5
E0
330
A
100
AcDbEntity
  8
LAYER_1
 62
     7
100
AcDbLine
 10
110.4190999348958
 20
199.3607855902778
 30
0.0
 11
110.4190999348958
 21
199.3607855902778
 31
0.0
  0
LINE
  5
DF
330
A
100
AcDbEntity
  8
LAYER_1
 62
     7
100
AcDbLine
 10
70.44841308593749
 20
151.1005099826389
 30
0.0
 11
150.0218505859375
 21
151.1005099826389
 31
0.0
  0
LINE
  5
DE
330
A
100
AcDbEntity
  8
LAYER_1
 62
     7
100
AcDbLine
 10
66.7309828016493
 20
189.2005099826389
 30
0.0
 11
153.8531412760416
 21
189.2005099826389
 31
0.0
  0
LINE
  5
DD
330
A
100
AcDbEntity
  8
LAYER_1
 62
     7
100
AcDbLine
 10
64.19108615451388
 20
185.6448269314236
 30
0.0
 11
156.3928656684028
 21
185.6448269314236
 31
0.0
  0
LINE
  5
DC
330
A
100
AcDbEntity
  8
LAYER_1
 62
     7
100
AcDbLine
 10
67.00882975260416
 20
154.6567097981771
 30
0.0
 11
153.2629964192708
 21
154.6567097981771
 31
0.0
  0
LINE
  5
DB
330
A
100
AcDbEntity
  8
LAYER_1
 62
     7
100
AcDbLine
 10
63.37080891927083
 20
160.6997517903646
 30
0.0
 11
108.6410861545139
 21
183.6125651041667
 31
0.0
  0
LINE
  5
DA
330
A
100
AcDbEntity
  8
LAYER_1
 62
     7
100
AcDbLine
 10
122.3570448133681
 20
179.0405788845486
 30
0.0
 11
98.48098280164929
 21
179.0405788845486
 31
0.0
  0
LINE
  5
D9
330
A
100
AcDbEntity
  8
LAYER_1
 62
     7
100
AcDbLine
 10
98.48098280164929
 20
188.6927029079861
 30
0.0
 11
122.3570448133681
 21
188.6927029079861
 31
0.0
  0
LINE
  5
D8
330
A
100
AcDbEntity
  8
LAYER_1
 62
     7
100
AcDbLine
 10
61.9156005859375
 20
163.9408976236979
 30
0.0
 11
104.5769070095486
 21
185.6448269314236
 31
0.0
  0
LINE
  5
D7
330
A
100
AcDbEntity
  8
LAYER_1
 62
     7
100
AcDbLine
 10
81.71714816623263
 20
189.4545857747396
 30
0.0
 11
81.71714816623263
 21
199.8685926649305
 31
0.0
  0
LINE
  5
D6
330
A
100
AcDbEntity
  8
LAYER_1
 62
     7
100
AcDbLine
 10
82.4790310329861
 20
198.3024522569444
 30
0.0
 11
87.262890625
 21
198.3024522569444
 31
0.0
  0
LINE
  5
D5
330
A
100
AcDbEntity
  8
LAYER_1
 62
     7
100
AcDbLine
 10
95.1790310329861
 20
198.3024522569444
 30
0.0
 11
90.39551595052083
 21
198.3024522569444
 31
0.0
  0
LINE
  5
D4
330
A
100
AcDbEntity
  8
LAYER_1
 62
     7
100
AcDbLine
 10
81.71714816623263
 20
189.2005099826389
 30
0.0
 11
81.71714816623263
 21
189.2005099826389
 31
0.0
  0
LINE
  5
D3
330
A
100
AcDbEntity
  8
LAYER_1
 62
     7
100
AcDbLine
 10
95.94108615451388
 20
189.2005099826389
 30
0.0
 11
95.94108615451388
 21
189.2005099826389
 31
0.0
  0
LINE
  5
D2
330
A
100
AcDbEntity
  8
LAYER_1
 62
     7
100
AcDbLine
 10
95.94108615451388
 20
199.3607855902778
 30
0.0
 11
95.94108615451388
 21
199.3607855902778
 31
0.0
  0
SPLINE
  5
D1
330
A
100
AcDbEntity
  8
LAYER_1
 62
     7
100
AcDbSpline
210
0.0
220
0.0
230
1.0
 70
    11
 71
     3
 72
    17
 73
    13
 74
     0
 42
0.0000000001
 43
0.0000000001
 40
0.0
 40
0.0
 40
0.0
 40
0.0
 40
1.0
 40
1.0
 40
1.0
 40
2.0
 40
2.0
 40
2.0
 40
3.0
 40
3.0
 40
3.0
 40
4.0
 40
4.0
 40
4.0
 40
4.0
 10
82.58066134982639
 20
187.5496202256944
 30
0.0
 10
82.58066134982639
 20
188.0260769314236
 30
0.0
 10
82.1936048719618
 20
188.4127888997396
 30
0.0
 10
81.71714816623263
 20
188.4127888997396
 30
0.0
 10
81.24017469618055
 20
188.4127888997396
 30
0.0
 10
80.85363498263888
 20
188.0260769314236
 30
0.0
 10
80.85363498263888
 20
187.5496202256944
 30
0.0
 10
80.85363498263888
 20
187.0731635199653
 30
0.0
 10
81.24017469618055
 20
186.686279296875
 30
0.0
 10
81.71714816623263
 20
186.686279296875
 30
0.0
 10
82.1936048719618
 20
186.686279296875
 30
0.0
 10
82.58066134982639
 20
187.0731635199653
 30
0.0
 10
82.58066134982639
 20
187.5496202256944
 30
0.0
  0
SPLINE
  5
D0
330
A
100
AcDbEntity
  8
LAYER_1
 62
     7
100
AcDbSpline
210
0.0
220
0.0
230
1.0
 70
    11
 71
     3
 72
    17
 73
    13
 74
     0
 42
0.0000000001
 43
0.0000000001
 40
0.0
 40
0.0
 40
0.0
 40
0.0
 40
1.0
 40
1.0
 40
1.0
 40
2.0
 40
2.0
 40
2.0
 40
3.0
 40
3.0
 40
3.0
 40
4.0
 40
4.0
 40
4.0
 40
4.0
 10
97.05867513020833
 20
187.5496202256944
 30
0.0
 10
97.05867513020833
 20
188.0260769314236
 30
0.0
 10
96.67179090711805
 20
188.4127888997396
 30
0.0
 10
96.19498969184026
 20
188.4127888997396
 30
0.0
 10
95.7183607313368
 20
188.4127888997396
 30
0.0
 10
95.33164876302082
 20
188.0260769314236
 30
0.0
 10
95.33164876302082
 20
187.5496202256944
 30
0.0
 10
95.33164876302082
 20
187.0731635199653
 30
0.0
 10
95.7183607313368
 20
186.686279296875
 30
0.0
 10
96.19498969184026
 20
186.686279296875
 30
0.0
 10
96.67179090711805
 20
186.686279296875
 30
0.0
 10
97.05867513020833
 20
187.0731635199653
 30
0.0
 10
97.05867513020833
 20
187.5496202256944
 30
0.0
  0
LINE
  5
CF
330
A
100
AcDbEntity
  8
LAYER_1
 62
     7
100
AcDbLine
 10
98.48098280164929
 20
179.0405788845486
 30
0.0
 11
98.48098280164929
 21
188.6927029079861
 31
0.0
  0
LINE
  5
CE
330
A
100
AcDbEntity
  8
LAYER_1
 62
     7
100
AcDbLine
 10
112.1969414605035
 20
183.6125651041667
 30
0.0
 11
157.1656005859375
 21
160.7658976236979
 31
0.0
  0
LINE
  5
CD
330
A
100
AcDbEntity
  8
LAYER_1
 62
     7
100
AcDbLine
 10
116.007044813368
 20
185.6448269314236
 30
0.0
 11
158.4885172526041
 21
164.0070434570312
 31
0.0
  0
LINE
  5
CC
330
A
100
AcDbEntity
  8
LAYER_1
 62
     7
100
AcDbLine
 10
108.6410861545139
 20
185.6448269314236
 30
0.0
 11
108.6410861545139
 21
154.6567097981771
 31
0.0
  0
LINE
  5
CB
330
A
100
AcDbEntity
  8
LAYER_1
 62
     7
100
AcDbLine
 10
112.1969414605035
 20
185.6448269314236
 30
0.0
 11
112.1969414605035
 21
154.6567097981771
 31
0.0
  0
LINE
  5
CA
330
A
100
AcDbEntity
  8
LAYER_1
 62
     7
100
AcDbLine
 10
107.1171481662326
 20
152.116468641493
 30
0.0
 11
107.1171481662326
 21
161.7685926649305
 31
0.0
  0
LWPOLYLINE
  5
C5
330
A
100
AcDbEntity
  8
LAYER_1
 62
     7
100
AcDbPolyline
 90
        3
 70
     0
 43
0.0
 10
114.2290310329861
 20
161.7685926649305
 10
114.2290310329861
 20
152.116468641493
 10
107.1171481662326
 20
152.116468641493
  0
LINE
  5
C4
330
A
100
AcDbEntity
  8
LAYER_1
 62
     7
100
AcDbLine
 10
107.1171481662326
 20
161.7685926649305
 30
0.0
 11
114.2290310329861
 21
161.7685926649305
 31
0.0
  0
LINE
  5
C3
330
A
100
AcDbEntity
  8
LAYER_1
 62
     7
100
AcDbLine
 10
110.4190999348958
 20
193.7726684570312
 30
0.0
 11
110.4190999348958
 21
205.4989122178819
 31
0.0
  0
LWPOLYLINE
  5
BE
330
A
100
AcDbEntity
  8
LAYER_1
 62
     7
100
AcDbPolyline
 90
        3
 70
     1
 43
0.0
 10
110.4631971571181
 20
190.0276774088542
 10
109.1929904513889
 20
194.3457600911458
 10
111.4791558159722
 20
194.3457600911458
  0
HATCH
  5
BD
330
A
100
AcDbEntity
  8
LAYER_1
 62
     7
100
AcDbHatch
 10
0.0
 20
0.0
 30
0.0
210
0.0
220
0.0
230
1.0
  2
SOLID
 70
     1
 71
     0
 91
        1
 92
        3
 72
     0
 73
     1
 93
        3
 10
110.4631971571181
 20
190.0276774088542
 10
109.1929904513889
 20
194.3457600911458
 10
111.4791558159722
 20
194.3457600911458
 97
        0
 75
     0
 76
     1
 98
        1
 10
0.0
 20
0.0
  0
LINE
  5
BC
330
A
100
AcDbEntity
  8
LAYER_1
 62
     7
100
AcDbLine
 10
124.6428656684028
 20
189.4545857747396
 30
0.0
 11
124.6428656684028
 21
199.8685926649305
 31
0.0
  0
LINE
  5
BB
330
A
100
AcDbEntity
  8
LAYER_1
 62
     7
100
AcDbLine
 10
138.8671481662326
 20
189.4545857747396
 30
0.0
 11
138.8671481662326
 21
199.8685926649305
 31
0.0
  0
LINE
  5
BA
330
A
100
AcDbEntity
  8
LAYER_1
 62
     7
100
AcDbLine
 10
125.6591688368056
 20
198.3024522569444
 30
0.0
 11
130.1886081271701
 21
198.3024522569444
 31
0.0
  0
LINE
  5
B9
330
A
100
AcDbEntity
  8
LAYER_1
 62
     7
100
AcDbLine
 10
138.1049207899305
 20
198.3024522569444
 30
0.0
 11
133.575481499566
 21
198.3024522569444
 31
0.0
  0
LWPOLYLINE
  5
B4
330
A
100
AcDbEntity
  8
LAYER_1
 62
     7
100
AcDbPolyline
 90
        3
 70
     1
 43
0.0
 10
137.7741916232639
 20
198.5563557942708
 10
137.7741916232639
 20
198.0483764648437
 10
138.536418999566
 20
198.3024522569444
  0
HATCH
  5
B3
330
A
100
AcDbEntity
  8
LAYER_1
 62
     7
100
AcDbHatch
 10
0.0
 20
0.0
 30
0.0
210
0.0
220
0.0
230
1.0
  2
SOLID
 70
     1
 71
     0
 91
        1
 92
        3
 72
     0
 73
     1
 93
        3
 10
137.7741916232639
 20
198.5563557942708
 10
137.7741916232639
 20
198.0483764648437
 10
138.536418999566
 20
198.3024522569444
 97
        0
 75
     0
 76
     1
 98
        1
 10
0.0
 20
0.0
  0
LWPOLYLINE
  5
AE
330
A
100
AcDbEntity
  8
LAYER_1
 62
     7
100
AcDbPolyline
 90
        3
 70
     1
 43
0.0
 10
123.4536187065972
 20
198.5563557942708
 10
123.4536187065972
 20
198.0483764648437
 10
124.2158460828993
 20
198.3024522569444
  0
HATCH
  5
AD
330
A
100
AcDbEntity
  8
LAYER_1
 62
     7
100
AcDbHatch
 10
0.0
 20
0.0
 30
0.0
210
0.0
220
0.0
230
1.0
  2
SOLID
 70
     1
 71
     0
 91
        1
 92
        3
 72
     0
 73
     1
 93
        3
 10
123.4536187065972
 20
198.5563557942708
 10
123.4536187065972
 20
198.0483764648437
 10
124.2158460828993
 20
198.3024522569444
 97
        0
 75
     0
 76
     1
 98
        1
 10
0.0
 20
0.0
  0
LWPOLYLINE
  5
A8
330
A
100
AcDbEntity
  8
LAYER_1
 62
     7
100
AcDbPolyline
 90
        3
 70
     1
 43
0.0
 10
125.7516696506076
 20
198.5563557942708
 10
125.7516696506076
 20
198.0483764648437
 10
124.9897867838542
 20
198.3024522569444
  0
HATCH
  5
A7
330
A
100
AcDbEntity
  8
LAYER_1
 62
     7
100
AcDbHatch
 10
0.0
 20
0.0
 30
0.0
210
0.0
220
0.0
230
1.0
  2
SOLID
 70
     1
 71
     0
 91
        1
 92
        3
 72
     0
 73
     1
 93
        3
 10
125.7516696506076
 20
198.5563557942708
 10
125.7516696506076
 20
198.0483764648437
 10
124.9897867838542
 20
198.3024522569444
 97
        0
 75
     0
 76
     1
 98
        1
 10
0.0
 20
0.0
  0
LWPOLYLINE
  5
A2
330
A
100
AcDbEntity
  8
LAYER_1
 62
     7
100
AcDbPolyline
 90
        3
 70
     1
 43
0.0
 10
109.2636149088542
 20
198.5563557942708
 10
109.2636149088542
 20
198.0483764648437
 10
110.0254977756076
 20
198.3024522569444
  0
HATCH
  5
A1
330
A
100
AcDbEntity
  8
LAYER_1
 62
     7
100
AcDbHatch
 10
0.0
 20
0.0
 30
0.0
210
0.0
220
0.0
230
1.0
  2
SOLID
 70
     1
 71
     0
 91
        1
 92
        3
 72
     0
 73
     1
 93
        3
 10
109.2636149088542
 20
198.5563557942708
 10
109.2636149088542
 20
198.0483764648437
 10
110.0254977756076
 20
198.3024522569444
 97
        0
 75
     0
 76
     1
 98
        1
 10
0.0
 20
0.0
  0
LWPOLYLINE
  5
9C
330
A
100
AcDbEntity
  8
LAYER_1
 62
     7
100
AcDbPolyline
 90
        3
 70
     1
 43
0.0
 10
111.561321343316
 20
198.5563557942708
 10
111.561321343316
 20
198.0483764648437
 10
110.7994384765625
 20
198.3024522569444
  0
HATCH
  5
9B
330
A
100
AcDbEntity
  8
LAYER_1
 62
     7
100
AcDbHatch
 10
0.0
 20
0.0
 30
0.0
210
0.0
220
0.0
230
1.0
  2
SOLID
 70
     1
 71
     0
 91
        1
 92
        3
 72
     0
 73
     1
 93
        3
 10
111.561321343316
 20
198.5563557942708
 10
111.561321343316
 20
198.0483764648437
 10
110.7994384765625
 20
198.3024522569444
 97
        0
 75
     0
 76
     1
 98
        1
 10
0.0
 20
0.0
  0
LWPOLYLINE
  5
96
330
A
100
AcDbEntity
  8
LAYER_1
 62
     7
100
AcDbPolyline
 90
        3
 70
     1
 43
0.0
 10
94.81247287326389
 20
198.5563557942708
 10
94.81247287326389
 20
198.0483764648437
 10
95.57470024956596
 20
198.3024522569444
  0
HATCH
  5
95
330
A
100
AcDbEntity
  8
LAYER_1
 62
     7
100
AcDbHatch
 10
0.0
 20
0.0
 30
0.0
210
0.0
220
0.0
230
1.0
  2
SOLID
 70
     1
 71
     0
 91
        1
 92
        3
 72
     0
 73
     1
 93
        3
 10
94.81247287326389
 20
198.5563557942708
 10
94.81247287326389
 20
198.0483764648437
 10
95.57470024956596
 20
198.3024522569444
 97
        0
 75
     0
 76
     1
 98
        1
 10
0.0
 20
0.0
  0
LWPOLYLINE
  5
90
330
A
100
AcDbEntity
  8
LAYER_1
 62
     7
100
AcDbPolyline
 90
        3
 70
     1
 43
0.0
 10
97.1105238172743
 20
198.5563557942708
 10
97.1105238172743
 20
198.0483764648437
 10
96.34864095052083
 20
198.3024522569444
  0
HATCH
  5
8F
330
A
100
AcDbEntity
  8
LAYER_1
 62
     7
100
AcDbHatch
 10
0.0
 20
0.0
 30
0.0
210
0.0
220
0.0
230
1.0
  2
SOLID
 70
     1
 71
     0
 91
        1
 92
        3
 72
     0
 73
     1
 93
        3
 10
97.1105238172743
 20
198.5563557942708
 10
97.1105238172743
 20
198.0483764648437
 10
96.34864095052083
 20
198.3024522569444
 97
        0
 75
     0
 76
     1
 98
        1
 10
0.0
 20
0.0
  0
LWPOLYLINE
  5
8A
330
A
100
AcDbEntity
  8
LAYER_1
 62
     7
100
AcDbPolyline
 90
        3
 70
     1
 43
0.0
 10
82.85609673394096
 20
198.5563557942708
 10
82.85609673394096
 20
198.0483764648437
 10
82.09421386718749
 20
198.3024522569444
  0
HATCH
  5
89
330
A
100
AcDbEntity
  8
LAYER_1
 62
     7
100
AcDbHatch
 10
0.0
 20
0.0
 30
0.0
210
0.0
220
0.0
230
1.0
  2
SOLID
 70
     1
 71
     0
 91
        1
 92
        3
 72
     0
 73
     1
 93
        3
 10
82.85609673394096
 20
198.5563557942708
 10
82.85609673394096
 20
198.0483764648437
 10
82.09421386718749
 20
198.3024522569444
 97
        0
 75
     0
 76
     1
 98
        1
 10
0.0
 20
0.0
  0
LINE
  5
88
330
A
100
AcDbEntity
  8
LAYER_1
 62
     7
100
AcDbLine
 10
124.6428656684028
 20
189.2005099826389
 30
0.0
 11
124.6428656684028
 21
189.2005099826389
 31
0.0
  0
LINE
  5
87
330
A
100
AcDbEntity
  8
LAYER_1
 62
     7
100
AcDbLine
 10
138.8671481662326
 20
189.2005099826389
 30
0.0
 11
138.8671481662326
 21
189.2005099826389
 31
0.0
  0
LINE
  5
86
330
A
100
AcDbEntity
  8
LAYER_1
 62
     7
100
AcDbLine
 10
138.8671481662326
 20
199.3607855902778
 30
0.0
 11
138.8671481662326
 21
199.3607855902778
 31
0.0
  0
LINE
  5
85
330
A
100
AcDbEntity
  8
LAYER_1
 62
     7
100
AcDbLine
 10
110.4190999348958
 20
191.5712524414062
 30
0.0
 11
110.4190999348958
 21
201.9852593315972
 31
0.0
  0
LINE
  5
84
330
A
100
AcDbEntity
  8
LAYER_1
 62
     7
100
AcDbLine
 10
111.1809828016493
 20
198.3024522569444
 30
0.0
 11
115.7107666015625
 21
198.3024522569444
 31
0.0
  0
LINE
  5
83
330
A
100
AcDbEntity
  8
LAYER_1
 62
     7
100
AcDbLine
 10
123.6269070095486
 20
198.3024522569444
 30
0.0
 11
119.0972954644097
 21
198.3024522569444
 31
0.0
  0
LINE
  5
82
330
A
100
AcDbEntity
  8
LAYER_1
 62
     7
100
AcDbLine
 10
110.4190999348958
 20
189.2005099826389
 30
0.0
 11
110.4190999348958
 21
189.2005099826389
 31
0.0
  0
LINE
  5
81
330
A
100
AcDbEntity
  8
LAYER_1
 62
     7
100
AcDbLine
 10
124.6428656684028
 20
189.2005099826389
 30
0.0
 11
124.6428656684028
 21
189.2005099826389
 31
0.0
  0
LINE
  5
80
330
A
100
AcDbEntity
  8
LAYER_1
 62
     7
100
AcDbLine
 10
124.6428656684028
 20
199.3607855902778
 30
0.0
 11
124.6428656684028
 21
199.3607855902778
 31
0.0
  0
LINE
  5
7F
330
A
100
AcDbEntity
  8
LAYER_1
 62
     7
100
AcDbLine
 10
122.3570448133681
 20
188.6927029079861
 30
0.0
 11
122.3570448133681
 21
179.0405788845486
 31
0.0
  0
SPLINE
  5
7E
330
A
100
AcDbEntity
  8
LAYER_1
 62
     7
100
AcDbSpline
210
0.0
220
0.0
230
1.0
 70
    11
 71
     3
 72
    17
 73
    13
 74
     0
 42
0.0000000001
 43
0.0000000001
 40
0.0
 40
0.0
 40
0.0
 40
0.0
 40
1.0
 40
1.0
 40
1.0
 40
2.0
 40
2.0
 40
2.0
 40
3.0
 40
3.0
 40
3.0
 40
4.0
 40
4.0
 40
4.0
 40
4.0
 10
125.6336751302083
 20
187.5496202256944
 30
0.0
 10
125.6336751302083
 20
188.0260769314236
 30
0.0
 10
125.246790907118
 20
188.4127888997396
 30
0.0
 10
124.7699896918403
 20
188.4127888997396
 30
0.0
 10
124.2933607313368
 20
188.4127888997396
 30
0.0
 10
123.9066487630208
 20
188.0260769314236
 30
0.0
 10
123.9066487630208
 20
187.5496202256944
 30
0.0
 10
123.9066487630208
 20
187.0731635199653
 30
0.0
 10
124.2933607313368
 20
186.686279296875
 30
0.0
 10
124.7699896918403
 20
186.686279296875
 30
0.0
 10
125.246790907118
 20
186.686279296875
 30
0.0
 10
125.6336751302083
 20
187.0731635199653
 30
0.0
 10
125.6336751302083
 20
187.5496202256944
 30
0.0
  0
SPLINE
  5
7D
330
A
100
AcDbEntity
  8
LAYER_1
 62
     7
100
AcDbSpline
210
0.0
220
0.0
230
1.0
 70
    11
 71
     3
 72
    17
 73
    13
 74
     0
 42
0.0000000001
 43
0.0000000001
 40
0.0
 40
0.0
 40
0.0
 40
0.0
 40
1.0
 40
1.0
 40
1.0
 40
2.0
 40
2.0
 40
2.0
 40
3.0
 40
3.0
 40
3.0
 40
4.0
 40
4.0
 40
4.0
 40
4.0
 10
139.9843926323785
 20
187.5496202256944
 30
0.0
 10
139.9843926323785
 20
188.0260769314236
 30
0.0
 10
139.5976806640625
 20
188.4127888997396
 30
0.0
 10
139.1212239583333
 20
188.4127888997396
 30
0.0
 10
138.6444227430555
 20
188.4127888997396
 30
0.0
 10
138.2575385199653
 20
188.0260769314236
 30
0.0
 10
138.2575385199653
 20
187.5496202256944
 30
0.0
 10
138.2575385199653
 20
187.0731635199653
 30
0.0
 10
138.6444227430555
 20
186.686279296875
 30
0.0
 10
139.1212239583333
 20
186.686279296875
 30
0.0
 10
139.5976806640625
 20
186.686279296875
 30
0.0
 10
139.9843926323785
 20
187.0731635199653
 30
0.0
 10
139.9843926323785
 20
187.5496202256944
 30
0.0
  0
ELLIPSE
  5
7C
330
A
100
AcDbEntity
  8
LAYER_1
 62
     7
100
AcDbEllipse
 10
110.1800103081597
 20
172.3413323296441
 30
0.0
 11
49.66587456597222
 21
8.612738715277777E-5
 31
0.0
210
0.0
220
0.0
230
1.0
 40
0.7111050609017915
 41
0.0
 42
6.283185307179586
  0
INSERT
  5
69
330
A
100
AcDbEntity
  8
LAYER_1
 62
     7
100
AcDbBlockReference
  2
AI9-BLK5
 10
110.7239047580295
 20
196.7662841796875
 30
0.0
  0
INSERT
  5
5F
330
A
100
AcDbEntity
  8
LAYER_1
 62
     7
100
AcDbBlockReference
  2
AI9-BLK4
 10
150.9312696668837
 20
183.7059271918403
 30
0.0
  0
INSERT
  5
44
330
A
100
AcDbEntity
  8
LAYER_1
 62
     7
100
AcDbBlockReference
  2
AI9-BLK3
 10
178.1364135742187
 20
178.4208062065972
 30
0.0
  0
INSERT
  5
3E
330
A
100
AcDbEntity
  8
LAYER_1
 62
     7
100
AcDbBlockReference
  2
AI9-BLK2
 10
124.6058308919271
 20
209.1301289876302
 30
0.0
  0
INSERT
  5
23
330
A
100
AcDbEntity
  8
LAYER_1
 62
     7
100
AcDbBlockReference
  2
AI9-BLK1
 10
153.5518676757812
 20
211.1641994900174
 30
0.0
  0
ENDSEC
  0
SECTION
  2
OBJECTS
  0
DICTIONARY
  5
19
330
0
100
AcDbDictionary
281
     1
  3
ACAD_COLOR
350
11C
  3
ACAD_GROUP
350
1A
  3
ACAD_LAYOUT
350
E9
  3
ACAD_MATERIAL
350
11E
  3
ACAD_MLINESTYLE
350
1B
  3
ACAD_PLOTSETTINGS
350
EA
  3
ACAD_PLOTSTYLENAME
350
E7
  3
ACDBHEADERROUNDTRIPXREC
350
11B
  0
DICTIONARY
  5
11C
102
{ACAD_REACTORS
330
19
102
}
330
19
100
AcDbDictionary
281
     1
  0
DICTIONARY
  5
1A
102
{ACAD_REACTORS
330
19
102
}
330
19
100
AcDbDictionary
281
     1
  0
DICTIONARY
  5
E9
102
{ACAD_REACTORS
330
19
102
}
330
19
100
AcDbDictionary
281
     1
  3
Layout1
350
EC
  3
Model
350
EB
  0
DICTIONARY
  5
11E
102
{ACAD_REACTORS
330
19
102
}
330
19
100
AcDbDictionary
281
     1
  0
DICTIONARY
  5
1B
102
{ACAD_REACTORS
330
19
102
}
330
19
100
AcDbDictionary
281
     1
  3
STANDARD
350
1C
  0
DICTIONARY
  5
EA
102
{ACAD_REACTORS
330
19
102
}
330
19
100
AcDbDictionary
281
     1
  0
ACDBDICTIONARYWDFLT
  5
E7
102
{ACAD_REACTORS
330
19
102
}
330
19
100
AcDbDictionary
281
     1
  3
Normal
350
E8
100
AcDbDictionaryWithDefault
340
E8
  0
DICTIONARY
  5
11B
102
{ACAD_REACTORS
330
19
102
}
330
19
100
AcDbDictionary
281
     1
  3
COLORDICT
350
11D
  3
MATERIALDICT
350
11F
  0
LAYOUT
  5
EC
102
{ACAD_REACTORS
330
E9
102
}
102
{ACAD_XDICTIONARY
360
120
102
}
330
E9
100
AcDbPlotSettings
  1

  2
Support Center HP LaserJet 4
  4

  6

 40
0.0
 41
0.0
 42
0.0
 43
0.0
 44
0.0
 45
0.0
 46
0.0
 47
0.0
 48
0.0
 49
0.0
140
0.0
141
0.0
142
1.0
143
1.0
 70
   688
 72
     0
 73
     0
 74
     5
  7

 75
    16
147
1.0
148
0.0
149
0.0
100
AcDbLayout
  1
Layout1
 70
     0
 71
     1
 10
0.0
 20
0.0
 11
12.0
 21
9.0
 12
0.0
 22
0.0
 32
0.0
 14
1.000000000000000E+20
 24
1.000000000000000E+20
 34
1.000000000000000E+20
 15
-1.000000000000000E+20
 25
-1.000000000000000E+20
 35
-1.000000000000000E+20
146
0.0
 13
0.0
 23
0.0
 33
0.0
 16
1.0
 26
0.0
 36
0.0
 17
0.0
 27
1.0
 37
0.0
 76
     0
330
B
  0
LAYOUT
  5
EB
102
{ACAD_REACTORS
330
E9
102
}
102
{ACAD_XDICTIONARY
360
122
102
}
330
E9
100
AcDbPlotSettings
  1

  2
Support Center HP LaserJet 4
  4

  6

 40
0.0
 41
0.0
 42
0.0
 43
0.0
 44
0.0
 45
0.0
 46
0.0
 47
0.0
 48
0.0
 49
0.0
140
0.0
141
0.0
142
1.0
143
1.0
 70
  1712
 72
     0
 73
     0
 74
     0
  7

 75
     0
147
1.0
148
0.0
149
0.0
100
AcDbLayout
  1
Model
 70
     1
 71
     0
 10
0.0
 20
0.0
 11
12.0
 21
9.0
 12
0.0
 22
0.0
 32
0.0
 14
0.0
 24
0.0
 34
0.0
 15
0.0
 25
0.0
 35
0.0
146
0.0
 13
0.0
 23
0.0
 33
0.0
 16
1.0
 26
0.0
 36
0.0
 17
0.0
 27
1.0
 37
0.0
 76
     0
330
A
  0
MLINESTYLE
  5
1C
102
{ACAD_REACTORS
330
1B
102
}
330
1B
100
AcDbMlineStyle
  2
STANDARD
 70
     0
  3

 62
     0
 51
90.0000000000002
 52
90.0000000000002
 71
     2
 49
0.5
 62
   256
  6
BYLAYER
 49
-0.5
 62
   256
  6
BYLAYER
  0
ACDBPLACEHOLDER
  5
E8
102
{ACAD_REACTORS
330
E7
102
}
330
E7
  0
XRECORD
  5
11D
102
{ACAD_REACTORS
330
11B
102
}
330
11B
100
AcDbXrecord
340
11C
  0
XRECORD
  5
11F
102
{ACAD_REACTORS
330
11B
102
}
330
11B
100
AcDbXrecord
340
11E
  0
DICTIONARY
  5
120
330
EC
100
AcDbDictionary
280
     1
281
     1
  3
ACAD_XREC_ROUNDTRIP
360
121
  0
DICTIONARY
  5
122
330
EB
100
AcDbDictionary
280
     1
281
     1
  3
ACAD_XREC_ROUNDTRIP
360
123
  0
XRECORD
  5
121
102
{ACAD_REACTORS
330
120
102
}
330
120
100
AcDbXrecord
102
SHADEPLOT
 70
 -2008
102
SHADEPLOTRESLEVEL
 70
 -1952
102
SHADEPLOTCUSTOMDPI
 70
 -1896
  0
XRECORD
  5
123
102
{ACAD_REACTORS
330
122
102
}
330
122
100
AcDbXrecord
102
SHADEPLOT
 70
     0
102
SHADEPLOTRESLEVEL
 70
     0
102
SHADEPLOTCUSTOMDPI
 70
     0
  0
ENDSEC
  0
EOF
