  0
SECTION
  2
HEADER
  9
$ACADVER
  1
AC1015
  9
$ACADMAINTVER
 70
     6
  9
$DWGCODEPAGE
  3
ANSI_1252
  9
$INSBASE
 10
0.0
 20
0.0
 30
0.0
  9
$EXTMIN
 10
59.89930819876919
 20
104.6554336195937
 30
-0.0015258207003612
  9
$EXTMAX
 10
194.4149835101491
 20
186.850134473973
 30
0.0000000349246008
  9
$LIMMIN
 10
59.7081556532118
 20
104.4580512152778
  9
$LIMMAX
 10
194.4108723958333
 20
186.3291951497396
  9
$ORTHOMODE
 70
     0
  9
$REGENMODE
 70
     1
  9
$FILLMODE
 70
     1
  9
$QTEXTMODE
 70
     0
  9
$MIRRTEXT
 70
     1
  9
$LTSCALE
 40
1.0
  9
$ATTMODE
 70
     1
  9
$TEXTSIZE
 40
0.2
  9
$TRACEWID
 40
0.05
  9
$TEXTSTYLE
  7
STANDARD
  9
$CLAYER
  8
0
  9
$CELTYPE
  6
CONTINUOUS
  9
$CECOLOR
 62
   256
  9
$CELTSCALE
 40
1.0
  9
$DISPSILH
 70
     0
  9
$DIMSCALE
 40
1.0
  9
$DIMASZ
 40
0.18
  9
$DIMEXO
 40
0.0625
  9
$DIMDLI
 40
0.38
  9
$DIMRND
 40
0.0
  9
$DIMDLE
 40
0.0
  9
$DIMEXE
 40
0.18
  9
$DIMTP
 40
0.0
  9
$DIMTM
 40
0.0
  9
$DIMTXT
 40
0.18
  9
$DIMCEN
 40
0.09
  9
$DIMTSZ
 40
0.0
  9
$DIMTOL
 70
     0
  9
$DIMLIM
 70
     0
  9
$DIMTIH
 70
     1
  9
$DIMTOH
 70
     1
  9
$DIMSE1
 70
     0
  9
$DIMSE2
 70
     0
  9
$DIMTAD
 70
     0
  9
$DIMZIN
 70
     0
  9
$DIMBLK
  1

  9
$DIMASO
 70
     1
  9
$DIMSHO
 70
     1
  9
$DIMPOST
  1

  9
$DIMAPOST
  1

  9
$DIMALT
 70
     0
  9
$DIMALTD
 70
     2
  9
$DIMALTF
 40
25.4
  9
$DIMLFAC
 40
1.0
  9
$DIMTOFL
 70
     0
  9
$DIMTVP
 40
0.0
  9
$DIMTIX
 70
     0
  9
$DIMSOXD
 70
     0
  9
$DIMSAH
 70
     0
  9
$DIMBLK1
  1

  9
$DIMBLK2
  1

  9
$DIMSTYLE
  2
STANDARD
  9
$DIMCLRD
 70
     0
  9
$DIMCLRE
 70
     0
  9
$DIMCLRT
 70
     0
  9
$DIMTFAC
 40
1.0
  9
$DIMGAP
 40
0.09
  9
$DIMJUST
 70
     0
  9
$DIMSD1
 70
     0
  9
$DIMSD2
 70
     0
  9
$DIMTOLJ
 70
     1
  9
$DIMTZIN
 70
     0
  9
$DIMALTZ
 70
     0
  9
$DIMALTTZ
 70
     0
  9
$DIMUPT
 70
     0
  9
$DIMDEC
 70
     4
  9
$DIMTDEC
 70
     4
  9
$DIMALTU
 70
     2
  9
$DIMALTTD
 70
     2
  9
$DIMTXSTY
  7
STANDARD
  9
$DIMAUNIT
 70
     0
  9
$DIMADEC
 70
     0
  9
$DIMALTRND
 40
0.0
  9
$DIMAZIN
 70
     0
  9
$DIMDSEP
 70
    46
  9
$DIMATFIT
 70
     3
  9
$DIMFRAC
 70
     0
  9
$DIMLDRBLK
  1

  9
$DIMLUNIT
 70
     2
  9
$DIMLWD
 70
    -2
  9
$DIMLWE
 70
    -2
  9
$DIMTMOVE
 70
     0
  9
$LUNITS
 70
     2
  9
$LUPREC
 70
     4
  9
$SKETCHINC
 40
0.1
  9
$FILLETRAD
 40
0.0
  9
$AUNITS
 70
     0
  9
$AUPREC
 70
     0
  9
$MENU
  1
acad
  9
$ELEVATION
 40
0.0
  9
$PELEVATION
 40
0.0
  9
$THICKNESS
 40
0.0
  9
$LIMCHECK
 70
     0
  9
$CHAMFERA
 40
0.0
  9
$CHAMFERB
 40
0.0
  9
$CHAMFERC
 40
0.0
  9
$CHAMFERD
 40
0.0
  9
$SKPOLY
 70
     0
  9
$TDCREATE
 40
2444971.666666667
  9
$TDUCREATE
 40
2444972.0
  9
$TDUPDATE
 40
2452219.400729051
  9
$TDUUPDATE
 40
2452219.734062384
  9
$TDINDWG
 40
0.0002943287
  9
$TDUSRTIMER
 40
0.0002943287
  9
$USRTIMER
 70
     1
  9
$ANGBASE
 50
0.0
  9
$ANGDIR
 70
     0
  9
$PDMODE
 70
     0
  9
$PDSIZE
 40
0.0
  9
$PLINEWID
 40
0.0
  9
$SPLFRAME
 70
     0
  9
$SPLINETYPE
 70
     6
  9
$SPLINESEGS
 70
     8
  9
$HANDSEED
  5
C6
  9
$SURFTAB1
 70
     6
  9
$SURFTAB2
 70
     6
  9
$SURFTYPE
 70
     6
  9
$SURFU
 70
     6
  9
$SURFV
 70
     6
  9
$UCSBASE
  2

  9
$UCSNAME
  2

  9
$UCSORG
 10
0.0
 20
0.0
 30
0.0
  9
$UCSXDIR
 10
1.0
 20
0.0
 30
0.0
  9
$UCSYDIR
 10
0.0
 20
1.0
 30
0.0
  9
$UCSORTHOREF
  2

  9
$UCSORTHOVIEW
 70
     0
  9
$UCSORGTOP
 10
0.0
 20
0.0
 30
0.0
  9
$UCSORGBOTTOM
 10
0.0
 20
0.0
 30
0.0
  9
$UCSORGLEFT
 10
0.0
 20
0.0
 30
0.0
  9
$UCSORGRIGHT
 10
0.0
 20
0.0
 30
0.0
  9
$UCSORGFRONT
 10
0.0
 20
0.0
 30
0.0
  9
$UCSORGBACK
 10
0.0
 20
0.0
 30
0.0
  9
$PUCSBASE
  2

  9
$PUCSNAME
  2

  9
$PUCSORG
 10
0.0
 20
0.0
 30
0.0
  9
$PUCSXDIR
 10
1.0
 20
0.0
 30
0.0
  9
$PUCSYDIR
 10
0.0
 20
1.0
 30
0.0
  9
$PUCSORTHOREF
  2

  9
$PUCSORTHOVIEW
 70
     0
  9
$PUCSORGTOP
 10
0.0
 20
0.0
 30
0.0
  9
$PUCSORGBOTTOM
 10
0.0
 20
0.0
 30
0.0
  9
$PUCSORGLEFT
 10
0.0
 20
0.0
 30
0.0
  9
$PUCSORGRIGHT
 10
0.0
 20
0.0
 30
0.0
  9
$PUCSORGFRONT
 10
0.0
 20
0.0
 30
0.0
  9
$PUCSORGBACK
 10
0.0
 20
0.0
 30
0.0
  9
$USERI1
 70
     0
  9
$USERI2
 70
     0
  9
$USERI3
 70
     0
  9
$USERI4
 70
     0
  9
$USERI5
 70
     0
  9
$USERR1
 40
0.0
  9
$USERR2
 40
0.0
  9
$USERR3
 40
0.0
  9
$USERR4
 40
0.0
  9
$USERR5
 40
0.0
  9
$WORLDVIEW
 70
     1
  9
$SHADEDGE
 70
     3
  9
$SHADEDIF
 70
    70
  9
$TILEMODE
 70
     1
  9
$MAXACTVP
 70
    16
  9
$PINSBASE
 10
0.0
 20
0.0
 30
0.0
  9
$PLIMCHECK
 70
     0
  9
$PEXTMIN
 10
1.000000000000000E+20
 20
1.000000000000000E+20
 30
1.000000000000000E+20
  9
$PEXTMAX
 10
-1.000000000000000E+20
 20
-1.000000000000000E+20
 30
-1.000000000000000E+20
  9
$PLIMMIN
 10
0.0
 20
0.0
  9
$PLIMMAX
 10
12.0
 20
9.0
  9
$UNITMODE
 70
     0
  9
$VISRETAIN
 70
     0
  9
$PLINEGEN
 70
     1
  9
$PSLTSCALE
 70
     0
  9
$TREEDEPTH
 70
  3020
  9
$CMLSTYLE
  2
STANDARD
  9
$CMLJUST
 70
     0
  9
$CMLSCALE
 40
1.0
  9
$PROXYGRAPHICS
 70
     0
  9
$MEASUREMENT
 70
     0
  9
$CELWEIGHT
370
    -1
  9
$ENDCAPS
280
     0
  9
$JOINSTYLE
280
     0
  9
$LWDISPLAY
290
     0
  9
$INSUNITS
 70
     0
  9
$HYPERLINKBASE
  1

  9
$STYLESHEET
  1

  9
$XEDIT
290
     1
  9
$CEPSNTYPE
380
     0
  9
$PSTYLEMODE
290
     1
  9
$FINGERPRINTGUID
  2
{0AE0CFBD-D1C7-11D5-923F-00805F198AD5}
  9
$VERSIONGUID
  2
{0AE0CFBF-D1C7-11D5-923F-00805F198AD5}
  9
$EXTNAMES
290
     1
  9
$PSVPSCALE
 40
0.0
  9
$OLESTARTUP
290
     0
  0
ENDSEC
  0
SECTION
  2
CLASSES
  0
CLASS
  1
LWPOLYLINE
  2
AcDbPolyline
  3
AutoCAD 2000
 90
        0
280
     0
281
     1
  0
CLASS
  1
IMAGE
  2
AcDbRasterImage
  3
ISM
 90
      127
280
     0
281
     1
  0
CLASS
  1
OLE2FRAME
  2
AcDbOle2Frame
  3
AutoCAD 2000
 90
        0
280
     0
281
     1
  0
CLASS
  1
HATCH
  2
AcDbHatch
  3
AutoCAD 2000
 90
        0
280
     0
281
     1
  0
CLASS
  1
DICTIONARYVAR
  2
AcDbDictionaryVar
  3
AutoCAD 2000
 90
        0
280
     0
281
     0
  0
CLASS
  1
RASTERVARIABLES
  2
AcDbRasterVariables
  3
ISM
 90
        0
280
     0
281
     0
  0
CLASS
  1
IMAGEDEF
  2
AcDbRasterImageDef
  3
ISM
 90
        0
280
     0
281
     0
  0
CLASS
  1
IMAGEDEF_REACTOR
  2
AcDbRasterImageDefReactor
  3
ISM
 90
        1
280
     0
281
     0
  0
CLASS
  1
IDBUFFER
  2
AcDbIdBuffer
  3
AutoCAD 2000
 90
        0
280
     0
281
     0
  0
CLASS
  1
SPATIAL_FILTER
  2
AcDbSpatialFilter
  3
AutoCAD 2000
 90
        0
280
     0
281
     0
  0
CLASS
  1
XRECORD
  2
AcDbXrecord
  3
AutoCAD 2000
 90
        0
280
     0
281
     0
  0
CLASS
  1
SORTENTSTABLE
  2
AcDbSortentsTable
  3
AutoCAD 2000
 90
        0
280
     0
281
     0
  0
CLASS
  1
LAYER_INDEX
  2
AcDbLayerIndex
  3
AutoCAD 2000
 90
        0
280
     0
281
     0
  0
CLASS
  1
SPATIAL_INDEX
  2
AcDbSpatialIndex
  3
AutoCAD 2000
 90
        0
280
     0
281
     0
  0
CLASS
  1
OBJECT_PTR
  2
CAseDLPNTableRecord
  3
ASE-LPNTableRecord
 90
        1
280
     1
281
     0
  0
CLASS
  1
LAYOUT
  2
AcDbLayout
  3
ObjectDBX Classes
 90
        0
280
     0
281
     0
  0
CLASS
  1
PLOTSETTINGS
  2
AcDbPlotSettings
  3
AutoCAD 2000
 90
        0
280
     0
281
     0
  0
CLASS
  1
ACDBDICTIONARYWDFLT
  2
AcDbDictionaryWithDefault
  3
AutoCAD 2000
 90
        0
280
     0
281
     0
  0
CLASS
  1
ACDBPLACEHOLDER
  2
AcDbPlaceHolder
  3
ObjectDBX Classes
 90
        0
280
     0
281
     0
  0
CLASS
  1
VBAPROJECT
  2
AcDbVbaProject
  3
ObjectDBX Classes
 90
        0
280
     0
281
     0
  0
CLASS
  1
WIPEOUT
  2
AcDbWipeout
  3
WipeOut|AutoCAD Express Tool|expresstools@autodesk.com
 90
      127
280
     0
281
     1
  0
CLASS
  1
WIPEOUTVARIABLES
  2
AcDbWipeoutVariables
  3
WipeOut|AutoCAD Express Tool|expresstools@autodesk.com
 90
        0
280
     0
281
     0
  0
CLASS
  1
RTEXT
  2
RText
  3
RText|AutoCAD Express Tool|expresstools@autodesk.com
 90
        0
280
     0
281
     1
  0
CLASS
  1
ARCALIGNEDTEXT
  2
AcDbArcAlignedText
  3
ATEXT|AutoCAD Express Tool|expresstools@autodesk.com
 90
        0
280
     0
281
     1
  0
CLASS
  1
LONG_TRANSACTION
  2
AcDbLongTransaction
  3
AutoCAD 2000
 90
        0
280
     1
281
     0
  0
CLASS
  1
LWPOLYLINE
  2
AcDbPolyline
  3
AutoCAD 2000
 90
        0
280
     0
281
     1
  0
CLASS
  1
HATCH
  2
AcDbHatch
  3
AutoCAD 2000
 90
        0
280
     0
281
     1
  0
CLASS
  1
XRECORD
  2
AcDbXrecord
  3
AutoCAD 2000
 90
        0
280
     0
281
     0
  0
ENDSEC
  0
SECTION
  2
TABLES
  0
TABLE
  2
VPORT
  5
7
330
0
100
AcDbSymbolTable
 70
     2
  0
VPORT
  5
92
330
7
100
AcDbSymbolTableRecord
100
AcDbViewportTableRecord
  2
*Active
 70
     0
 10
0.0
 20
0.0
 11
1.0
 21
1.0
 12
127.1571458544592
 22
145.7527840467834
 13
0.0
 23
0.0
 14
1.0
 24
1.0
 15
0.0
 25
0.0
 16
0.0
 26
0.0
 36
1.0
 17
0.0
 27
0.0
 37
0.0
 40
83.48910559224352
 41
1.836842105263158
 42
50.0
 43
0.0
 44
0.0
 50
0.0
 51
0.0
 71
     0
 72
   100
 73
     1
 74
     1
 75
     0
 76
     0
 77
     0
 78
     0
281
     0
 65
     1
110
0.0
120
0.0
130
0.0
111
1.0
121
0.0
131
0.0
112
0.0
122
1.0
132
0.0
 79
     0
146
0.0
  0
ENDTAB
  0
TABLE
  2
LTYPE
  5
4
330
0
100
AcDbSymbolTable
 70
     1
  0
LTYPE
  5
11
330
4
100
AcDbSymbolTableRecord
100
AcDbLinetypeTableRecord
  2
BYBLOCK
 70
     0
  3

 72
    65
 73
     0
 40
0.0
  0
LTYPE
  5
12
330
4
100
AcDbSymbolTableRecord
100
AcDbLinetypeTableRecord
  2
BYLAYER
 70
     0
  3

 72
    65
 73
     0
 40
0.0
  0
LTYPE
  5
13
330
4
100
AcDbSymbolTableRecord
100
AcDbLinetypeTableRecord
  2
CONTINUOUS
 70
     0
  3
Solid line
 72
    65
 73
     0
 40
0.0
  0
ENDTAB
  0
TABLE
  2
LAYER
  5
2
330
0
100
AcDbSymbolTable
 70
     2
  0
LAYER
  5
14
330
2
100
AcDbSymbolTableRecord
100
AcDbLayerTableRecord
  2
0
 70
     0
 62
     7
  6
CONTINUOUS
370
    -3
390
0
  0
LAYER
  5
21
330
2
100
AcDbSymbolTableRecord
100
AcDbLayerTableRecord
  2
LAYER_1
 70
     0
 62
     5
  6
CONTINUOUS
370
    -3
390
0
  0
ENDTAB
  0
TABLE
  2
STYLE
  5
3
330
0
100
AcDbSymbolTable
 70
     5
  0
STYLE
  5
17
330
3
100
AcDbSymbolTableRecord
100
AcDbTextStyleTableRecord
  2
STANDARD
 70
     0
 40
0.0
 41
1.0
 50
0.0
 71
     0
 42
0.2
  3
txt
  4

  0
STYLE
  5
1D
330
3
100
AcDbSymbolTableRecord
100
AcDbTextStyleTableRecord
  2
STD
 70
     0
 40
0.0
 41
1.0
 50
0.0
 71
     0
 42
0.2
  3
txt
  4

  0
STYLE
  5
1E
330
3
100
AcDbSymbolTableRecord
100
AcDbTextStyleTableRecord
  2
TATESTD
 70
     4
 40
0.0
 41
1.0
 50
0.0
 71
     0
 42
0.2
  3
txt
  4

  0
STYLE
  5
1F
330
3
100
AcDbSymbolTableRecord
100
AcDbTextStyleTableRecord
  2
KANJISTD
 70
     0
 40
0.0
 41
1.0
 50
0.0
 71
     0
 42
0.2
  3
txt
  4
extfont
  0
STYLE
  5
20
330
3
100
AcDbSymbolTableRecord
100
AcDbTextStyleTableRecord
  2
KANJITATE
 70
     4
 40
0.0
 41
1.0
 50
0.0
 71
     0
 42
0.2
  3
txt
  4
extfont
  0
ENDTAB
  0
TABLE
  2
VIEW
  5
5
330
0
100
AcDbSymbolTable
 70
     0
  0
ENDTAB
  0
TABLE
  2
UCS
  5
6
330
0
100
AcDbSymbolTable
 70
     0
  0
ENDTAB
  0
TABLE
  2
APPID
  5
8
330
0
100
AcDbSymbolTable
 70
     1
  0
APPID
  5
16
330
8
100
AcDbSymbolTableRecord
100
AcDbRegAppTableRecord
  2
ACAD
 70
     0
  0
ENDTAB
  0
TABLE
  2
DIMSTYLE
  5
9
330
0
100
AcDbSymbolTable
 70
     1
100
AcDbDimStyleTable
  0
DIMSTYLE
105
18
330
9
100
AcDbSymbolTableRecord
100
AcDbDimStyleTableRecord
  2
STANDARD
 70
     0
  3

  4

289
     0
340
17
  0
ENDTAB
  0
TABLE
  2
BLOCK_RECORD
  5
1
330
0
100
AcDbSymbolTable
 70
     5
  0
BLOCK_RECORD
  5
A
330
1
100
AcDbSymbolTableRecord
100
AcDbBlockTableRecord
  2
*MODEL_SPACE
340
8D
  0
BLOCK_RECORD
  5
B
330
1
100
AcDbSymbolTableRecord
100
AcDbBlockTableRecord
  2
*PAPER_SPACE
340
8E
  0
BLOCK_RECORD
  5
22
330
1
100
AcDbSymbolTableRecord
100
AcDbBlockTableRecord
  2
AI9-BLK1
340
0
102
{BLKREFS
331
23
102
}
  0
BLOCK_RECORD
  5
3D
330
1
100
AcDbSymbolTableRecord
100
AcDbBlockTableRecord
  2
AI9-BLK2
340
0
102
{BLKREFS
331
3E
102
}
  0
BLOCK_RECORD
  5
43
330
1
100
AcDbSymbolTableRecord
100
AcDbBlockTableRecord
  2
AI9-BLK3
340
0
102
{BLKREFS
331
44
102
}
  0
BLOCK_RECORD
  5
5E
330
1
100
AcDbSymbolTableRecord
100
AcDbBlockTableRecord
  2
AI9-BLK4
340
0
102
{BLKREFS
331
5F
102
}
  0
BLOCK_RECORD
  5
61
330
1
100
AcDbSymbolTableRecord
100
AcDbBlockTableRecord
  2
AI9-BLK5
340
0
102
{BLKREFS
331
62
102
}
  0
ENDTAB
  0
ENDSEC
  0
SECTION
  2
BLOCKS
  0
BLOCK
  5
D
330
A
100
AcDbEntity
  8
0
100
AcDbBlockBegin
  2
*MODEL_SPACE
 70
     0
 10
0.0
 20
0.0
 30
0.0
  3
*MODEL_SPACE
  1

  4

  0
ENDBLK
  5
E
330
A
100
AcDbEntity
  8
0
100
AcDbBlockEnd
  0
BLOCK
  5
F
330
B
100
AcDbEntity
 67
     1
  8
0
100
AcDbBlockBegin
  2
*PAPER_SPACE
 70
     0
 10
0.0
 20
0.0
 30
0.0
  3
*PAPER_SPACE
  1

  4

  0
ENDBLK
  5
10
330
B
100
AcDbEntity
 67
     1
  8
0
100
AcDbBlockEnd
  0
BLOCK
  5
24
330
22
100
AcDbEntity
  8
LAYER_1
 62
     7
100
AcDbBlockBegin
  2
AI9-BLK1
 70
     0
 10
0.0
 20
0.0
 30
0.0
  3
AI9-BLK1
  1

  4

  0
HATCH
  5
3B
330
22
100
AcDbEntity
  8
LAYER_1
 62
     7
100
AcDbHatch
 10
0.0
 20
0.0
 30
0.0
210
0.0
220
0.0
230
1.0
  2
SOLID
 70
     1
 71
     0
 91
        2
 92
       16
 93
        1
 72
     4
 94
        3
 73
     0
 74
     0
 95
       29
 96
       25
 40
0.0
 40
0.0
 40
0.0
 40
0.0
 40
1.0
 40
1.0
 40
1.0
 40
2.0
 40
2.0
 40
2.0
 40
3.0
 40
3.0
 40
3.0
 40
4.0
 40
4.0
 40
4.0
 40
5.0
 40
5.0
 40
5.0
 40
6.0
 40
6.0
 40
6.0
 40
7.0
 40
7.0
 40
7.0
 40
8.0
 40
8.0
 40
8.0
 40
8.0
 10
-13.58590630425347
 20
3.348374430338541
 10
-13.58590630425347
 20
3.348374430338541
 10
-13.09980333116319
 20
3.348374430338541
 10
-13.09980333116319
 20
3.348374430338541
 10
-13.09980333116319
 20
3.348374430338541
 10
-12.80920952690972
 20
4.489390055338541
 10
-12.80920952690972
 20
4.489390055338541
 10
-12.80920952690972
 20
4.489390055338541
 10
-11.55657280815972
 20
4.489390055338541
 10
-11.55657280815972
 20
4.489390055338541
 10
-11.55657280815972
 20
4.489390055338541
 10
-11.24461941189236
 20
3.348374430338541
 10
-11.24461941189236
 20
3.348374430338541
 10
-11.24461941189236
 20
3.348374430338541
 10
-10.75851643880208
 20
3.348374430338541
 10
-10.75851643880208
 20
3.348374430338541
 10
-10.75851643880208
 20
3.348374430338541
 10
-11.87369384765625
 20
7.317124430338541
 10
-11.87369384765625
 20
7.317124430338541
 10
-11.87369384765625
 20
7.317124430338541
 10
-12.45488145616319
 20
7.317124430338541
 10
-12.45488145616319
 20
7.317124430338541
 10
-12.45488145616319
 20
7.317124430338541
 10
-13.58590630425347
 20
3.348374430338541
 10
-13.58590630425347
 20
3.348374430338541
 97
        0
 92
        1
 93
        1
 72
     4
 94
        3
 73
     0
 74
     0
 95
       17
 96
       13
 40
0.0
 40
0.0
 40
0.0
 40
0.0
 40
1.0
 40
1.0
 40
1.0
 40
2.0
 40
2.0
 40
2.0
 40
3.0
 40
3.0
 40
3.0
 40
4.0
 40
4.0
 40
4.0
 40
4.0
 10
-11.65682508680555
 20
4.886265055338542
 10
-11.65682508680555
 20
4.886265055338542
 10
-12.7032728407118
 20
4.886265055338542
 10
-12.7032728407118
 20
4.886265055338542
 10
-12.7032728407118
 20
4.886265055338542
 10
-12.17996283637153
 20
7.002931722005208
 10
-12.17996283637153
 20
7.002931722005208
 10
-12.17996283637153
 20
7.002931722005208
 10
-12.16945529513889
 20
7.002931722005208
 10
-12.16945529513889
 20
7.002931722005208
 10
-12.16945529513889
 20
7.002931722005208
 10
-11.65682508680555
 20
4.886265055338542
 10
-11.65682508680555
 20
4.886265055338542
 97
        0
 75
     0
 76
     1
 98
        1
 10
0.0
 20
0.0
  0
HATCH
  5
3A
330
22
100
AcDbEntity
  8
LAYER_1
 62
     7
100
AcDbHatch
 10
0.0
 20
0.0
 30
0.0
210
0.0
220
0.0
230
1.0
  2
SOLID
 70
     1
 71
     0
 91
        2
 92
       16
 93
        1
 72
     4
 94
        3
 73
     0
 74
     0
 95
       38
 96
       34
 40
0.0
 40
0.0
 40
0.0
 40
0.0
 40
1.0
 40
1.0
 40
1.0
 40
2.0
 40
2.0
 40
2.0
 40
3.0
 40
3.0
 40
3.0
 40
4.0
 40
4.0
 40
4.0
 40
5.0
 40
5.0
 40
5.0
 40
6.0
 40
6.0
 40
6.0
 40
7.0
 40
7.0
 40
7.0
 40
8.0
 40
8.0
 40
8.0
 40
9.0
 40
9.0
 40
9.0
 40
10.0
 40
10.0
 40
10.0
 40
11.0
 40
11.0
 40
11.0
 40
11.0
 10
-9.900687662760415
 20
3.652404106987847
 10
-9.900687662760415
 20
3.652404106987847
 10
-9.890007866753471
 20
3.652404106987847
 10
-9.890007866753471
 20
3.652404106987847
 10
-9.741696506076387
 20
3.414348008897569
 10
-9.572197808159721
 20
3.266208902994791
 10
-9.275575086805555
 20
3.266208902994791
 10
-8.483892144097222
 20
3.266208902994791
 10
-8.337131076388888
 20
4.178125678168402
 10
-8.337131076388888
 20
5.016489664713541
 10
-8.337131076388888
 20
5.621276177300347
 10
-8.552105034722221
 20
6.374029541015625
 10
-9.296762424045138
 20
6.374029541015625
 10
-9.534990776909721
 20
6.358182101779513
 10
-9.773563639322916
 20
6.241737874348957
 10
-9.905855305989583
 20
5.966302490234375
 10
-9.905855305989583
 20
5.966302490234375
 10
-9.916362847222221
 20
5.966302490234375
 10
-9.916362847222221
 20
5.966302490234375
 10
-9.916362847222221
 20
5.966302490234375
 10
-9.916362847222221
 20
6.291864013671875
 10
-9.916362847222221
 20
6.291864013671875
 10
-9.916362847222221
 20
6.291864013671875
 10
-10.32064480251736
 20
6.291864013671875
 10
-10.32064480251736
 20
6.291864013671875
 10
-10.32064480251736
 20
6.291864013671875
 10
-10.32064480251736
 20
2.350847032335069
 10
-10.32064480251736
 20
2.350847032335069
 10
-10.32064480251736
 20
2.350847032335069
 10
-9.900687662760415
 20
2.350847032335069
 10
-9.900687662760415
 20
2.350847032335069
 10
-9.900687662760415
 20
2.350847032335069
 10
-9.900687662760415
 20
3.652404106987847
 10
-9.900687662760415
 20
3.652404106987847
 97
        0
 92
        1
 93
        1
 72
     4
 94
        3
 73
     0
 74
     0
 95
       17
 96
       13
 40
0.0
 40
0.0
 40
0.0
 40
0.0
 40
1.0
 40
1.0
 40
1.0
 40
2.0
 40
2.0
 40
2.0
 40
3.0
 40
3.0
 40
3.0
 40
4.0
 40
4.0
 40
4.0
 40
4.0
 10
-8.767078993055554
 20
4.873001437717013
 10
-8.767078993055554
 20
4.077012125651041
 10
-8.904710557725693
 20
3.620709228515625
 10
-9.339137098524304
 20
3.620709228515625
 10
-9.916362847222221
 20
3.620709228515625
 10
-9.900687662760415
 20
4.416870795355902
 10
-9.900687662760415
 20
4.825286865234375
 10
-9.900687662760415
 20
5.244727240668403
 10
-9.890007866753471
 20
6.019529215494791
 10
-9.344304741753472
 20
6.019529215494791
 10
-8.809453667534722
 20
6.019529215494791
 10
-8.767078993055554
 20
5.260574679904513
 10
-8.767078993055554
 20
4.873001437717013
 97
        0
 75
     0
 76
     1
 98
        1
 10
0.0
 20
0.0
  0
HATCH
  5
39
330
22
100
AcDbEntity
  8
LAYER_1
 62
     7
100
AcDbHatch
 10
0.0
 20
0.0
 30
0.0
210
0.0
220
0.0
230
1.0
  2
SOLID
 70
     1
 71
     0
 91
        2
 92
       16
 93
        1
 72
     4
 94
        3
 73
     0
 74
     0
 95
       38
 96
       34
 40
0.0
 40
0.0
 40
0.0
 40
0.0
 40
1.0
 40
1.0
 40
1.0
 40
2.0
 40
2.0
 40
2.0
 40
3.0
 40
3.0
 40
3.0
 40
4.0
 40
4.0
 40
4.0
 40
5.0
 40
5.0
 40
5.0
 40
6.0
 40
6.0
 40
6.0
 40
7.0
 40
7.0
 40
7.0
 40
8.0
 40
8.0
 40
8.0
 40
9.0
 40
9.0
 40
9.0
 40
10.0
 40
10.0
 40
10.0
 40
11.0
 40
11.0
 40
11.0
 40
11.0
 10
-7.254854329427083
 20
3.652404106987847
 10
-7.254854329427083
 20
3.652404106987847
 10
-7.244174533420138
 20
3.652404106987847
 10
-7.244174533420138
 20
3.652404106987847
 10
-7.095863172743055
 20
3.414348008897569
 10
-6.926364474826388
 20
3.266208902994791
 10
-6.629741753472222
 20
3.266208902994791
 10
-5.838058810763888
 20
3.266208902994791
 10
-5.691297743055555
 20
4.178125678168402
 10
-5.691297743055555
 20
5.016489664713541
 10
-5.691297743055555
 20
5.621276177300347
 10
-5.906271701388889
 20
6.374029541015625
 10
-6.650929090711805
 20
6.374029541015625
 10
-6.889157443576388
 20
6.358182101779513
 10
-7.127730305989583
 20
6.241737874348957
 10
-7.260021972656249
 20
5.966302490234375
 10
-7.260021972656249
 20
5.966302490234375
 10
-7.270529513888889
 20
5.966302490234375
 10
-7.270529513888889
 20
5.966302490234375
 10
-7.270529513888889
 20
5.966302490234375
 10
-7.270529513888889
 20
6.291864013671875
 10
-7.270529513888889
 20
6.291864013671875
 10
-7.270529513888889
 20
6.291864013671875
 10
-7.674811469184027
 20
6.291864013671875
 10
-7.674811469184027
 20
6.291864013671875
 10
-7.674811469184027
 20
6.291864013671875
 10
-7.674811469184027
 20
2.350847032335069
 10
-7.674811469184027
 20
2.350847032335069
 10
-7.674811469184027
 20
2.350847032335069
 10
-7.254854329427083
 20
2.350847032335069
 10
-7.254854329427083
 20
2.350847032335069
 10
-7.254854329427083
 20
2.350847032335069
 10
-7.254854329427083
 20
3.652404106987847
 10
-7.254854329427083
 20
3.652404106987847
 97
        0
 92
        1
 93
        1
 72
     4
 94
        3
 73
     0
 74
     0
 95
       17
 96
       13
 40
0.0
 40
0.0
 40
0.0
 40
0.0
 40
1.0
 40
1.0
 40
1.0
 40
2.0
 40
2.0
 40
2.0
 40
3.0
 40
3.0
 40
3.0
 40
4.0
 40
4.0
 40
4.0
 40
4.0
 10
-6.121245659722222
 20
4.873001437717013
 10
-6.121245659722222
 20
4.077012125651041
 10
-6.258877224392361
 20
3.620709228515625
 10
-6.693303765190971
 20
3.620709228515625
 10
-7.270529513888889
 20
3.620709228515625
 10
-7.254854329427083
 20
4.416870795355902
 10
-7.254854329427083
 20
4.825286865234375
 10
-7.254854329427083
 20
5.244727240668403
 10
-7.244174533420138
 20
6.019529215494791
 10
-6.698471408420138
 20
6.019529215494791
 10
-6.163620334201388
 20
6.019529215494791
 10
-6.121245659722222
 20
5.260574679904513
 10
-6.121245659722222
 20
4.873001437717013
 97
        0
 75
     0
 76
     1
 98
        1
 10
0.0
 20
0.0
  0
HATCH
  5
38
330
22
100
AcDbEntity
  8
LAYER_1
 62
     7
100
AcDbHatch
 10
0.0
 20
0.0
 30
0.0
210
0.0
220
0.0
230
1.0
  2
SOLID
 70
     1
 71
     0
 91
        1
 92
        1
 93
        1
 72
     4
 94
        3
 73
     0
 74
     0
 95
       17
 96
       13
 40
0.0
 40
0.0
 40
0.0
 40
0.0
 40
1.0
 40
1.0
 40
1.0
 40
2.0
 40
2.0
 40
2.0
 40
3.0
 40
3.0
 40
3.0
 40
4.0
 40
4.0
 40
4.0
 40
4.0
 10
-5.028978135850694
 20
3.348374430338541
 10
-5.028978135850694
 20
3.348374430338541
 10
-5.028978135850694
 20
7.317124430338541
 10
-5.028978135850694
 20
7.317124430338541
 10
-5.028978135850694
 20
7.317124430338541
 10
-4.60902099609375
 20
7.317124430338541
 10
-4.60902099609375
 20
7.317124430338541
 10
-4.60902099609375
 20
7.317124430338541
 10
-4.60902099609375
 20
3.348374430338541
 10
-4.60902099609375
 20
3.348374430338541
 10
-4.60902099609375
 20
3.348374430338541
 10
-5.028978135850694
 20
3.348374430338541
 10
-5.028978135850694
 20
3.348374430338541
 97
        0
 75
     0
 76
     1
 98
        1
 10
0.0
 20
0.0
  0
HATCH
  5
37
330
22
100
AcDbEntity
  8
LAYER_1
 62
     7
100
AcDbHatch
 10
0.0
 20
0.0
 30
0.0
210
0.0
220
0.0
230
1.0
  2
SOLID
 70
     1
 71
     0
 91
        2
 92
        1
 93
        1
 72
     4
 94
        3
 73
     0
 74
     0
 95
       17
 96
       13
 40
0.0
 40
0.0
 40
0.0
 40
0.0
 40
1.0
 40
1.0
 40
1.0
 40
2.0
 40
2.0
 40
2.0
 40
3.0
 40
3.0
 40
3.0
 40
4.0
 40
4.0
 40
4.0
 40
4.0
 10
-3.854200575086805
 20
6.787957763671875
 10
-3.854200575086805
 20
6.787957763671875
 10
-3.854200575086805
 20
7.317124430338541
 10
-3.854200575086805
 20
7.317124430338541
 10
-3.854200575086805
 20
7.317124430338541
 10
-3.434071180555555
 20
7.317124430338541
 10
-3.434071180555555
 20
7.317124430338541
 10
-3.434071180555555
 20
7.317124430338541
 10
-3.434071180555555
 20
6.787957763671875
 10
-3.434071180555555
 20
6.787957763671875
 10
-3.434071180555555
 20
6.787957763671875
 10
-3.854200575086805
 20
6.787957763671875
 10
-3.854200575086805
 20
6.787957763671875
 97
        0
 92
        1
 93
        1
 72
     4
 94
        3
 73
     0
 74
     0
 95
       17
 96
       13
 40
0.0
 40
0.0
 40
0.0
 40
0.0
 40
1.0
 40
1.0
 40
1.0
 40
2.0
 40
2.0
 40
2.0
 40
3.0
 40
3.0
 40
3.0
 40
4.0
 40
4.0
 40
4.0
 40
4.0
 10
-3.854200575086805
 20
3.348374430338541
 10
-3.854200575086805
 20
3.348374430338541
 10
-3.854200575086805
 20
6.291864013671875
 10
-3.854200575086805
 20
6.291864013671875
 10
-3.854200575086805
 20
6.291864013671875
 10
-3.434071180555555
 20
6.291864013671875
 10
-3.434071180555555
 20
6.291864013671875
 10
-3.434071180555555
 20
6.291864013671875
 10
-3.434071180555555
 20
3.348374430338541
 10
-3.434071180555555
 20
3.348374430338541
 10
-3.434071180555555
 20
3.348374430338541
 10
-3.854200575086805
 20
3.348374430338541
 10
-3.854200575086805
 20
3.348374430338541
 97
        0
 75
     0
 76
     1
 98
        1
 10
0.0
 20
0.0
  0
HATCH
  5
36
330
22
100
AcDbEntity
  8
LAYER_1
 62
     7
100
AcDbHatch
 10
0.0
 20
0.0
 30
0.0
210
0.0
220
0.0
230
1.0
  2
SOLID
 70
     1
 71
     0
 91
        2
 92
       16
 93
        1
 72
     4
 94
        3
 73
     0
 74
     0
 95
       29
 96
       25
 40
0.0
 40
0.0
 40
0.0
 40
0.0
 40
1.0
 40
1.0
 40
1.0
 40
2.0
 40
2.0
 40
2.0
 40
3.0
 40
3.0
 40
3.0
 40
4.0
 40
4.0
 40
4.0
 40
5.0
 40
5.0
 40
5.0
 40
6.0
 40
6.0
 40
6.0
 40
7.0
 40
7.0
 40
7.0
 40
8.0
 40
8.0
 40
8.0
 40
8.0
 10
-1.382344563802083
 20
4.324542236328124
 10
-1.356161838107639
 20
3.991229248046875
 10
-1.467093912760417
 20
3.620709228515625
 10
-1.869481065538194
 20
3.620709228515625
 10
-2.456869845920139
 20
3.620709228515625
 10
-2.388656955295139
 20
4.382764350043402
 10
-2.399336751302083
 20
4.779639350043403
 10
-2.399336751302083
 20
4.779639350043403
 10
-0.9689331054687499
 20
4.779639350043403
 10
-0.9689331054687499
 20
4.779639350043403
 10
-0.9897759331597221
 20
5.471242268880208
 10
-0.9370659722222221
 20
6.374029541015625
 10
-1.888429090711805
 20
6.374029541015625
 10
-2.666676161024305
 20
6.374029541015625
 10
-2.82928466796875
 20
5.444542778862846
 10
-2.82928466796875
 20
4.822186279296875
 10
-2.82928466796875
 20
3.636728922526042
 10
-2.435854763454861
 20
3.266208902994791
 10
-1.877749294704861
 20
3.266208902994791
 10
-1.261593967013889
 20
3.266208902994791
 10
-0.9672105577256943
 20
3.747833251953125
 10
-0.9937377929687499
 20
4.324542236328124
 10
-0.9937377929687499
 20
4.324542236328124
 10
-1.382344563802083
 20
4.324542236328124
 10
-1.382344563802083
 20
4.324542236328124
 97
        0
 92
        1
 93
        1
 72
     4
 94
        3
 73
     0
 74
     0
 95
       14
 96
       10
 40
0.0
 40
0.0
 40
0.0
 40
0.0
 40
1.0
 40
1.0
 40
1.0
 40
2.0
 40
2.0
 40
2.0
 40
3.0
 40
3.0
 40
3.0
 40
3.0
 10
-2.399336751302083
 20
5.125182427300347
 10
-2.383144802517361
 20
5.47658216688368
 10
-2.372637261284722
 20
6.019529215494791
 10
-1.882916937934028
 20
6.019529215494791
 10
-1.39371337890625
 20
6.019529215494791
 10
-1.414728461371528
 20
5.471242268880208
 10
-1.398881022135416
 20
5.125182427300347
 10
-1.398881022135416
 20
5.125182427300347
 10
-2.399336751302083
 20
5.125182427300347
 10
-2.399336751302083
 20
5.125182427300347
 97
        0
 75
     0
 76
     1
 98
        1
 10
0.0
 20
0.0
  0
HATCH
  5
35
330
22
100
AcDbEntity
  8
LAYER_1
 62
     7
100
AcDbHatch
 10
0.0
 20
0.0
 30
0.0
210
0.0
220
0.0
230
1.0
  2
SOLID
 70
     1
 71
     0
 91
        2
 92
       16
 93
        1
 72
     4
 94
        3
 73
     0
 74
     0
 95
       38
 96
       34
 40
0.0
 40
0.0
 40
0.0
 40
0.0
 40
1.0
 40
1.0
 40
1.0
 40
2.0
 40
2.0
 40
2.0
 40
3.0
 40
3.0
 40
3.0
 40
4.0
 40
4.0
 40
4.0
 40
5.0
 40
5.0
 40
5.0
 40
6.0
 40
6.0
 40
6.0
 40
7.0
 40
7.0
 40
7.0
 40
8.0
 40
8.0
 40
8.0
 40
9.0
 40
9.0
 40
9.0
 40
10.0
 40
10.0
 40
10.0
 40
11.0
 40
11.0
 40
11.0
 40
11.0
 10
1.116727701822917
 20
5.993001980251735
 10
1.116727701822917
 20
5.993001980251735
 10
1.106220160590278
 20
5.993001980251735
 10
1.106220160590278
 20
5.993001980251735
 10
0.9098497178819444
 20
6.247250027126736
 10
0.7294989691840277
 20
6.374029541015625
 10
0.4271918402777777
 20
6.374029541015625
 10
-0.2022271050347222
 20
6.374029541015625
 10
-0.4859307183159722
 20
5.690350341796875
 10
-0.4542358398437499
 20
4.825286865234375
 10
-0.4439005533854166
 20
4.565354410807291
 10
-0.5176255967881944
 20
3.266208902994791
 10
0.4060045030381944
 20
3.266208902994791
 10
0.76119384765625
 20
3.266208902994791
 10
0.9417168511284721
 20
3.382480875651041
 10
1.121895345052083
 20
3.731985812717014
 10
1.121895345052083
 20
3.731985812717014
 10
1.132575141059028
 20
3.731985812717014
 10
1.132575141059028
 20
3.731985812717014
 10
1.132575141059028
 20
3.731985812717014
 10
1.132575141059028
 20
3.348374430338541
 10
1.132575141059028
 20
3.348374430338541
 10
1.132575141059028
 20
3.348374430338541
 10
1.537029351128472
 20
3.348374430338541
 10
1.537029351128472
 20
3.348374430338541
 10
1.537029351128472
 20
3.348374430338541
 10
1.537029351128472
 20
7.317124430338541
 10
1.537029351128472
 20
7.317124430338541
 10
1.537029351128472
 20
7.317124430338541
 10
1.116727701822917
 20
7.317124430338541
 10
1.116727701822917
 20
7.317124430338541
 10
1.116727701822917
 20
7.317124430338541
 10
1.116727701822917
 20
5.993001980251735
 10
1.116727701822917
 20
5.993001980251735
 97
        0
 92
        1
 93
        1
 72
     4
 94
        3
 73
     0
 74
     0
 95
       20
 96
       16
 40
0.0
 40
0.0
 40
0.0
 40
0.0
 40
1.0
 40
1.0
 40
1.0
 40
2.0
 40
2.0
 40
2.0
 40
3.0
 40
3.0
 40
3.0
 40
4.0
 40
4.0
 40
4.0
 40
5.0
 40
5.0
 40
5.0
 40
5.0
 10
1.116727701822917
 20
4.501792399088541
 10
1.116727701822917
 20
4.167445882161458
 10
0.9945990668402777
 20
3.620709228515625
 10
0.55965576171875
 20
3.620709228515625
 10
-0.0129191080729167
 20
3.620709228515625
 10
-0.0339341905381944
 20
4.19914076063368
 10
-0.0339341905381944
 20
4.836138916015624
 10
-0.0339341905381944
 20
5.743577067057291
 10
0.19378662109375
 20
6.019529215494791
 10
0.5439805772569444
 20
6.019529215494791
 10
1.106220160590278
 20
6.019529215494791
 10
1.116727701822917
 20
5.271254475911458
 10
1.116727701822917
 20
4.867833794487847
 10
1.116727701822917
 20
4.867833794487847
 10
1.116727701822917
 20
4.501792399088541
 10
1.116727701822917
 20
4.501792399088541
 97
        0
 75
     0
 76
     1
 98
        1
 10
0.0
 20
0.0
  0
HATCH
  5
34
330
22
100
AcDbEntity
  8
LAYER_1
 62
     7
100
AcDbHatch
 10
0.0
 20
0.0
 30
0.0
210
0.0
220
0.0
230
1.0
  2
SOLID
 70
     1
 71
     0
 91
        1
 92
        1
 93
        1
 72
     4
 94
        3
 73
     0
 74
     0
 95
       44
 96
       40
 40
0.0
 40
0.0
 40
0.0
 40
0.0
 40
1.0
 40
1.0
 40
1.0
 40
2.0
 40
2.0
 40
2.0
 40
3.0
 40
3.0
 40
3.0
 40
4.0
 40
4.0
 40
4.0
 40
5.0
 40
5.0
 40
5.0
 40
6.0
 40
6.0
 40
6.0
 40
7.0
 40
7.0
 40
7.0
 40
8.0
 40
8.0
 40
8.0
 40
9.0
 40
9.0
 40
9.0
 40
10.0
 40
10.0
 40
10.0
 40
11.0
 40
11.0
 40
11.0
 40
12.0
 40
12.0
 40
12.0
 40
13.0
 40
13.0
 40
13.0
 40
13.0
 10
-11.41997477213542
 20
0.8384501139322916
 10
-11.43048231336806
 20
1.309222412109375
 10
-11.58396131727431
 20
1.711265055338542
 10
-12.13483208550347
 20
1.711265055338542
 10
-12.89723171657986
 20
1.711265055338542
 10
-12.90825602213542
 20
0.6269212510850694
 10
-12.90825602213542
 20
0.103094482421875
 10
-12.92909884982639
 20
-0.436407470703125
 10
-12.93960639105903
 20
-1.637367757161458
 10
-12.13483208550347
 20
-1.637367757161458
 10
-11.61031629774305
 20
-1.637367757161458
 10
-11.49921196831597
 20
-1.208970133463542
 10
-11.44615749782986
 20
-0.7752326117621528
 10
-11.43564995659722
 20
-0.6853156195746527
 10
-11.43048231336806
 20
-0.5953986273871528
 10
-11.41997477213542
 20
-0.5054816351996527
 10
-11.41997477213542
 20
-0.5054816351996527
 10
-10.98141411675347
 20
-0.5054816351996527
 10
-10.98141411675347
 20
-0.5054816351996527
 10
-10.99209391276042
 20
-0.5847188313802083
 10
-10.99209391276042
 20
-0.6691236707899305
 10
-11.00260145399306
 20
-0.7485331217447916
 10
-11.02930094401042
 20
-1.071166314019097
 10
-11.04497612847222
 20
-1.314734564887153
 10
-11.23497314453125
 20
-1.589825439453125
 10
-11.44081759982639
 20
-1.875596110026041
 10
-11.71625298394097
 20
-2.034242757161458
 10
-12.09762505425347
 20
-2.034242757161458
 10
-13.32063395182292
 20
-2.034242757161458
 10
-13.36266411675347
 20
-0.8544698079427082
 10
-13.36266411675347
 20
0.0925869411892361
 10
-13.36266411675347
 20
0.9865892198350693
 10
-13.23071695963542
 20
2.108140055338541
 10
-12.10313720703125
 20
2.108140055338541
 10
-11.35107286241319
 20
2.108140055338541
 10
-10.96039903428819
 20
1.547106255425347
 10
-10.98141411675347
 20
0.8384501139322916
 10
-10.98141411675347
 20
0.8384501139322916
 10
-11.41997477213542
 20
0.8384501139322916
 10
-11.41997477213542
 20
0.8384501139322916
 97
        0
 75
     0
 76
     1
 98
        1
 10
0.0
 20
0.0
  0
HATCH
  5
33
330
22
100
AcDbEntity
  8
LAYER_1
 62
     7
100
AcDbHatch
 10
0.0
 20
0.0
 30
0.0
210
0.0
220
0.0
230
1.0
  2
SOLID
 70
     1
 71
     0
 91
        2
 92
       16
 93
        1
 72
     4
 94
        3
 73
     0
 74
     0
 95
       17
 96
       13
 40
0.0
 40
0.0
 40
0.0
 40
0.0
 40
1.0
 40
1.0
 40
1.0
 40
2.0
 40
2.0
 40
2.0
 40
3.0
 40
3.0
 40
3.0
 40
4.0
 40
4.0
 40
4.0
 40
4.0
 10
-8.328862847222222
 20
-0.3707784016927083
 10
-8.328862847222222
 20
0.5208123101128471
 10
-8.653907606336805
 20
1.082362874348958
 10
-9.378927951388889
 20
1.082362874348958
 10
-10.10360378689236
 20
1.082362874348958
 10
-10.42899305555556
 20
0.5208123101128471
 10
-10.42899305555556
 20
-0.3707784016927083
 10
-10.42899305555556
 20
-1.644430202907986
 10
-10.01472032335069
 20
-2.025457763671875
 10
-9.378927951388889
 20
-2.025457763671875
 10
-8.732455783420138
 20
-2.025457763671875
 10
-8.328862847222222
 20
-1.649770100911458
 10
-8.328862847222222
 20
-0.3707784016927083
 97
        0
 92
        1
 93
        1
 72
     4
 94
        3
 73
     0
 74
     0
 95
       17
 96
       13
 40
0.0
 40
0.0
 40
0.0
 40
0.0
 40
1.0
 40
1.0
 40
1.0
 40
2.0
 40
2.0
 40
2.0
 40
3.0
 40
3.0
 40
3.0
 40
4.0
 40
4.0
 40
4.0
 40
4.0
 10
-8.758810763888889
 20
-0.5034145779079861
 10
-8.758810763888889
 20
-1.198634847005208
 10
-8.880767144097222
 20
-1.670957438151042
 10
-9.378927951388889
 20
-1.670957438151042
 10
-9.866581217447916
 20
-1.670957438151042
 10
-9.999045138888889
 20
-1.198634847005208
 10
-9.999045138888889
 20
-0.5034145779079861
 10
-9.999045138888889
 20
0.3881761338975694
 10
-9.808014594184026
 20
0.727862548828125
 10
-9.378927951388889
 20
0.727862548828125
 10
-8.938817003038194
 20
0.727862548828125
 10
-8.758810763888889
 20
0.3881761338975694
 10
-8.758810763888889
 20
-0.5034145779079861
 97
        0
 75
     0
 76
     1
 98
        1
 10
0.0
 20
0.0
  0
HATCH
  5
32
330
22
100
AcDbEntity
  8
LAYER_1
 62
     7
100
AcDbHatch
 10
0.0
 20
0.0
 30
0.0
210
0.0
220
0.0
230
1.0
  2
SOLID
 70
     1
 71
     0
 91
        1
 92
        1
 93
        1
 72
     4
 94
        3
 73
     0
 74
     0
 95
       47
 96
       43
 40
0.0
 40
0.0
 40
0.0
 40
0.0
 40
1.0
 40
1.0
 40
1.0
 40
2.0
 40
2.0
 40
2.0
 40
3.0
 40
3.0
 40
3.0
 40
4.0
 40
4.0
 40
4.0
 40
5.0
 40
5.0
 40
5.0
 40
6.0
 40
6.0
 40
6.0
 40
7.0
 40
7.0
 40
7.0
 40
8.0
 40
8.0
 40
8.0
 40
9.0
 40
9.0
 40
9.0
 40
10.0
 40
10.0
 40
10.0
 40
11.0
 40
11.0
 40
11.0
 40
12.0
 40
12.0
 40
12.0
 40
13.0
 40
13.0
 40
13.0
 40
14.0
 40
14.0
 40
14.0
 40
14.0
 10
-7.265361870659722
 20
0.6799757215711805
 10
-7.265361870659722
 20
0.6799757215711805
 10
-7.254854329427083
 20
0.6799757215711805
 10
-7.254854329427083
 20
0.6799757215711805
 10
-7.053488498263889
 20
0.9342237684461805
 10
-6.836275227864583
 20
1.082362874348958
 10
-6.518637424045139
 20
1.082362874348958
 10
-6.078354220920138
 20
1.082362874348958
 10
-5.791377766927083
 20
0.8494744194878472
 10
-5.791377766927083
 20
0.3302985297309027
 10
-5.791377766927083
 20
0.3302985297309027
 10
-5.791377766927083
 20
-1.943292236328125
 10
-5.791377766927083
 20
-1.943292236328125
 10
-5.791377766927083
 20
-1.943292236328125
 10
-6.211334906684027
 20
-1.943292236328125
 10
-6.211334906684027
 20
-1.943292236328125
 10
-6.211334906684027
 20
-1.943292236328125
 10
-6.211334906684027
 20
0.2136820475260416
 10
-6.211334906684027
 20
0.2136820475260416
 10
-6.211334906684027
 20
0.5211568196614583
 10
-6.311931694878472
 20
0.727862548828125
 10
-6.650929090711805
 20
0.727862548828125
 10
-6.804408094618055
 20
0.727862548828125
 10
-6.952719455295139
 20
0.6694681803385416
 10
-7.063996039496527
 20
0.563531494140625
 10
-7.233494737413194
 20
0.4098802354600694
 10
-7.254854329427083
 20
0.2403815375434028
 10
-7.254854329427083
 20
0.0260965983072917
 10
-7.254854329427083
 20
0.0260965983072917
 10
-7.254854329427083
 20
-1.943292236328125
 10
-7.254854329427083
 20
-1.943292236328125
 10
-7.254854329427083
 20
-1.943292236328125
 10
-7.674811469184027
 20
-1.943292236328125
 10
-7.674811469184027
 20
-1.943292236328125
 10
-7.674811469184027
 20
-1.943292236328125
 10
-7.674811469184027
 20
1.000197347005208
 10
-7.674811469184027
 20
1.000197347005208
 10
-7.674811469184027
 20
1.000197347005208
 10
-7.265361870659722
 20
1.000197347005208
 10
-7.265361870659722
 20
1.000197347005208
 10
-7.265361870659722
 20
1.000197347005208
 10
-7.265361870659722
 20
0.6799757215711805
 10
-7.265361870659722
 20
0.6799757215711805
 97
        0
 75
     0
 76
     1
 98
        1
 10
0.0
 20
0.0
  0
HATCH
  5
31
330
22
100
AcDbEntity
  8
LAYER_1
 62
     7
100
AcDbHatch
 10
0.0
 20
0.0
 30
0.0
210
0.0
220
0.0
230
1.0
  2
SOLID
 70
     1
 71
     0
 91
        1
 92
        1
 93
        1
 72
     4
 94
        3
 73
     0
 74
     0
 95
       35
 96
       31
 40
0.0
 40
0.0
 40
0.0
 40
0.0
 40
1.0
 40
1.0
 40
1.0
 40
2.0
 40
2.0
 40
2.0
 40
3.0
 40
3.0
 40
3.0
 40
4.0
 40
4.0
 40
4.0
 40
5.0
 40
5.0
 40
5.0
 40
6.0
 40
6.0
 40
6.0
 40
7.0
 40
7.0
 40
7.0
 40
8.0
 40
8.0
 40
8.0
 40
9.0
 40
9.0
 40
9.0
 40
10.0
 40
10.0
 40
10.0
 40
10.0
 10
-4.748719618055556
 20
-0.5988437228732638
 10
-4.748719618055556
 20
-0.9862447102864582
 10
-4.722020128038194
 20
-1.670957438151042
 10
-4.185963270399305
 20
-1.670957438151042
 10
-3.729143608940972
 20
-1.670957438151042
 10
-3.686768934461805
 20
-1.278216552734375
 10
-3.665581597222222
 20
-0.9171705457899305
 10
-3.665581597222222
 20
-0.9171705457899305
 10
-3.268706597222222
 20
-0.9171705457899305
 10
-3.268706597222222
 20
-0.9171705457899305
 10
-3.284381781684028
 20
-1.485266791449653
 10
-3.496082899305555
 20
-2.025457763671875
 10
-4.154440646701389
 20
-2.025457763671875
 10
-5.052749294704861
 20
-2.025457763671875
 10
-5.178667534722222
 20
-1.272704399956597
 10
-5.178667534722222
 20
-0.5087544759114583
 10
-5.178667534722222
 20
0.2128207736545139
 10
-5.063084581163194
 20
1.082362874348958
 10
-4.164775933159722
 20
1.082362874348958
 10
-3.571702745225694
 20
1.082362874348958
 10
-3.28817138671875
 20
0.6217536078559027
 10
-3.293511284722222
 20
0.075189208984375
 10
-3.293511284722222
 20
0.075189208984375
 10
-3.682118055555555
 20
0.075189208984375
 10
-3.682118055555555
 20
0.075189208984375
 10
-3.687285698784722
 20
0.3986836751302083
 10
-3.772207302517361
 20
0.727862548828125
 10
-4.170115831163194
 20
0.727862548828125
 10
-4.77989773220486
 20
0.727862548828125
 10
-4.748719618055556
 20
-0.1795756022135417
 10
-4.748719618055556
 20
-0.5988437228732638
 97
        0
 75
     0
 76
     1
 98
        1
 10
0.0
 20
0.0
  0
HATCH
  5
30
330
22
100
AcDbEntity
  8
LAYER_1
 62
     7
100
AcDbHatch
 10
0.0
 20
0.0
 30
0.0
210
0.0
220
0.0
230
1.0
  2
SOLID
 70
     1
 71
     0
 91
        2
 92
       16
 93
        1
 72
     4
 94
        3
 73
     0
 74
     0
 95
       29
 96
       25
 40
0.0
 40
0.0
 40
0.0
 40
0.0
 40
1.0
 40
1.0
 40
1.0
 40
2.0
 40
2.0
 40
2.0
 40
3.0
 40
3.0
 40
3.0
 40
4.0
 40
4.0
 40
4.0
 40
5.0
 40
5.0
 40
5.0
 40
6.0
 40
6.0
 40
6.0
 40
7.0
 40
7.0
 40
7.0
 40
8.0
 40
8.0
 40
8.0
 40
8.0
 10
-1.382344563802083
 20
-0.9671244303385416
 10
-1.355817328559028
 20
-1.300437418619792
 10
-1.467093912760417
 20
-1.670957438151042
 10
-1.869481065538194
 20
-1.670957438151042
 10
-2.456869845920139
 20
-1.670957438151042
 10
-2.388656955295139
 20
-0.9089023166232638
 10
-2.399336751302083
 20
-0.5120273166232638
 10
-2.399336751302083
 20
-0.5120273166232638
 10
-0.9689331054687499
 20
-0.5120273166232638
 10
-0.9689331054687499
 20
-0.5120273166232638
 10
-0.9897759331597221
 20
0.1795756022135417
 10
-0.9370659722222221
 20
1.082362874348958
 10
-1.888429090711805
 20
1.082362874348958
 10
-2.666676161024305
 20
1.082362874348958
 10
-2.82928466796875
 20
0.1528761121961806
 10
-2.82928466796875
 20
-0.4694803873697916
 10
-2.82928466796875
 20
-1.654937744140625
 10
-2.435854763454861
 20
-2.025457763671875
 10
-1.877577039930555
 20
-2.025457763671875
 10
-1.261421712239583
 20
-2.025457763671875
 10
-0.9670383029513888
 20
-1.543833414713542
 10
-0.9937377929687499
 20
-0.9671244303385416
 10
-0.9937377929687499
 20
-0.9671244303385416
 10
-1.382344563802083
 20
-0.9671244303385416
 10
-1.382344563802083
 20
-0.9671244303385416
 97
        0
 92
        1
 93
        1
 72
     4
 94
        3
 73
     0
 74
     0
 95
       14
 96
       10
 40
0.0
 40
0.0
 40
0.0
 40
0.0
 40
1.0
 40
1.0
 40
1.0
 40
2.0
 40
2.0
 40
2.0
 40
3.0
 40
3.0
 40
3.0
 40
3.0
 10
-2.399336751302083
 20
-0.1664842393663194
 10
-2.383144802517361
 20
0.1849155002170139
 10
-2.372637261284722
 20
0.727862548828125
 10
-1.882916937934028
 20
0.727862548828125
 10
-1.39371337890625
 20
0.727862548828125
 10
-1.414728461371528
 20
0.1795756022135417
 10
-1.398881022135416
 20
-0.1664842393663194
 10
-1.398881022135416
 20
-0.1664842393663194
 10
-2.399336751302083
 20
-0.1664842393663194
 10
-2.399336751302083
 20
-0.1664842393663194
 97
        0
 75
     0
 76
     1
 98
        1
 10
0.0
 20
0.0
  0
HATCH
  5
2F
330
22
100
AcDbEntity
  8
LAYER_1
 62
     7
100
AcDbHatch
 10
0.0
 20
0.0
 30
0.0
210
0.0
220
0.0
230
1.0
  2
SOLID
 70
     1
 71
     0
 91
        1
 92
        1
 93
        1
 72
     4
 94
        3
 73
     0
 74
     0
 95
       47
 96
       43
 40
0.0
 40
0.0
 40
0.0
 40
0.0
 40
1.0
 40
1.0
 40
1.0
 40
2.0
 40
2.0
 40
2.0
 40
3.0
 40
3.0
 40
3.0
 40
4.0
 40
4.0
 40
4.0
 40
5.0
 40
5.0
 40
5.0
 40
6.0
 40
6.0
 40
6.0
 40
7.0
 40
7.0
 40
7.0
 40
8.0
 40
8.0
 40
8.0
 40
9.0
 40
9.0
 40
9.0
 40
10.0
 40
10.0
 40
10.0
 40
11.0
 40
11.0
 40
11.0
 40
12.0
 40
12.0
 40
12.0
 40
13.0
 40
13.0
 40
13.0
 40
14.0
 40
14.0
 40
14.0
 40
14.0
 10
0.0794094509548611
 20
0.6799757215711805
 10
0.0794094509548611
 20
0.6799757215711805
 10
0.0900892469618056
 20
0.6799757215711805
 10
0.0900892469618056
 20
0.6799757215711805
 10
0.2912828233506944
 20
0.9342237684461805
 10
0.5083238389756944
 20
1.082362874348958
 10
0.8261338975694443
 20
1.082362874348958
 10
1.266417100694444
 20
1.082362874348958
 10
1.553565809461805
 20
0.8494744194878472
 10
1.553565809461805
 20
0.3302985297309027
 10
1.553565809461805
 20
0.3302985297309027
 10
1.553565809461805
 20
-1.943292236328125
 10
1.553565809461805
 20
-1.943292236328125
 10
1.553565809461805
 20
-1.943292236328125
 10
1.13326416015625
 20
-1.943292236328125
 10
1.13326416015625
 20
-1.943292236328125
 10
1.13326416015625
 20
-1.943292236328125
 10
1.13326416015625
 20
0.2136820475260416
 10
1.13326416015625
 20
0.2136820475260416
 10
1.13326416015625
 20
0.5211568196614583
 10
1.032839626736111
 20
0.727862548828125
 10
0.6938422309027778
 20
0.727862548828125
 10
0.5400187174479166
 20
0.727862548828125
 10
0.3918796115451388
 20
0.6694681803385416
 10
0.28060302734375
 20
0.563531494140625
 10
0.1111043294270833
 20
0.4098802354600694
 10
0.0900892469618056
 20
0.2403815375434028
 10
0.0900892469618056
 20
0.0260965983072917
 10
0.0900892469618056
 20
0.0260965983072917
 10
0.0900892469618056
 20
-1.943292236328125
 10
0.0900892469618056
 20
-1.943292236328125
 10
0.0900892469618056
 20
-1.943292236328125
 10
-0.33021240234375
 20
-1.943292236328125
 10
-0.33021240234375
 20
-1.943292236328125
 10
-0.33021240234375
 20
-1.943292236328125
 10
-0.33021240234375
 20
1.000197347005208
 10
-0.33021240234375
 20
1.000197347005208
 10
-0.33021240234375
 20
1.000197347005208
 10
0.0794094509548611
 20
1.000197347005208
 10
0.0794094509548611
 20
1.000197347005208
 10
0.0794094509548611
 20
1.000197347005208
 10
0.0794094509548611
 20
0.6799757215711805
 10
0.0794094509548611
 20
0.6799757215711805
 97
        0
 75
     0
 76
     1
 98
        1
 10
0.0
 20
0.0
  0
HATCH
  5
2E
330
22
100
AcDbEntity
  8
LAYER_1
 62
     7
100
AcDbHatch
 10
0.0
 20
0.0
 30
0.0
210
0.0
220
0.0
230
1.0
  2
SOLID
 70
     1
 71
     0
 91
        1
 92
        1
 93
        1
 72
     4
 94
        3
 73
     0
 74
     0
 95
       53
 96
       49
 40
0.0
 40
0.0
 40
0.0
 40
0.0
 40
1.0
 40
1.0
 40
1.0
 40
2.0
 40
2.0
 40
2.0
 40
3.0
 40
3.0
 40
3.0
 40
4.0
 40
4.0
 40
4.0
 40
5.0
 40
5.0
 40
5.0
 40
6.0
 40
6.0
 40
6.0
 40
7.0
 40
7.0
 40
7.0
 40
8.0
 40
8.0
 40
8.0
 40
9.0
 40
9.0
 40
9.0
 40
10.0
 40
10.0
 40
10.0
 40
11.0
 40
11.0
 40
11.0
 40
12.0
 40
12.0
 40
12.0
 40
13.0
 40
13.0
 40
13.0
 40
14.0
 40
14.0
 40
14.0
 40
15.0
 40
15.0
 40
15.0
 40
16.0
 40
16.0
 40
16.0
 40
16.0
 10
2.804824490017361
 20
0.9996805826822915
 10
2.804824490017361
 20
0.9996805826822915
 10
3.297128634982639
 20
0.9996805826822915
 10
3.297128634982639
 20
0.9996805826822915
 10
3.297128634982639
 20
0.9996805826822915
 10
3.297128634982639
 20
0.6451802571614583
 10
3.297128634982639
 20
0.6451802571614583
 10
3.297128634982639
 20
0.6451802571614583
 10
2.810336642795139
 20
0.6451802571614583
 10
2.810336642795139
 20
0.6451802571614583
 10
2.810336642795139
 20
0.6451802571614583
 10
2.810336642795139
 20
-1.360554334852431
 10
2.810336642795139
 20
-1.360554334852431
 10
2.810336642795139
 20
-1.461151123046875
 10
2.773129611545139
 20
-1.588275146484375
 10
3.00601806640625
 20
-1.588275146484375
 10
3.00601806640625
 20
-1.588275146484375
 10
3.286448838975694
 20
-1.588275146484375
 10
3.286448838975694
 20
-1.588275146484375
 10
3.286448838975694
 20
-1.588275146484375
 10
3.286448838975694
 20
-1.942775472005208
 10
3.286448838975694
 20
-1.942775472005208
 10
3.286448838975694
 20
-1.942775472005208
 10
2.826011827256944
 20
-1.942775472005208
 10
2.826011827256944
 20
-1.942775472005208
 10
2.576070149739583
 20
-1.948287624782986
 10
2.390034993489583
 20
-1.905912950303819
 10
2.390034993489583
 20
-1.461151123046875
 10
2.390034993489583
 20
-1.461151123046875
 10
2.390034993489583
 20
0.6451802571614583
 10
2.390034993489583
 20
0.6451802571614583
 10
2.390034993489583
 20
0.6451802571614583
 10
1.982652452256944
 20
0.6451802571614583
 10
1.982652452256944
 20
0.6451802571614583
 10
1.982652452256944
 20
0.6451802571614583
 10
1.982652452256944
 20
0.9996805826822915
 10
1.982652452256944
 20
0.9996805826822915
 10
1.982652452256944
 20
0.9996805826822915
 10
2.390034993489583
 20
0.9996805826822915
 10
2.390034993489583
 20
0.9996805826822915
 10
2.390034993489583
 20
0.9996805826822915
 10
2.390034993489583
 20
1.798942735460069
 10
2.390034993489583
 20
1.798942735460069
 10
2.390034993489583
 20
1.798942735460069
 10
2.804824490017361
 20
1.798942735460069
 10
2.804824490017361
 20
1.798942735460069
 10
2.804824490017361
 20
1.798942735460069
 10
2.804824490017361
 20
0.9996805826822915
 10
2.804824490017361
 20
0.9996805826822915
 97
        0
 75
     0
 76
     1
 98
        1
 10
0.0
 20
0.0
  0
HATCH
  5
2D
330
22
100
AcDbEntity
  8
LAYER_1
 62
     7
100
AcDbHatch
 10
0.0
 20
0.0
 30
0.0
210
0.0
220
0.0
230
1.0
  2
SOLID
 70
     1
 71
     0
 91
        1
 92
        1
 93
        1
 72
     4
 94
        3
 73
     0
 74
     0
 95
       32
 96
       28
 40
0.0
 40
0.0
 40
0.0
 40
0.0
 40
1.0
 40
1.0
 40
1.0
 40
2.0
 40
2.0
 40
2.0
 40
3.0
 40
3.0
 40
3.0
 40
4.0
 40
4.0
 40
4.0
 40
5.0
 40
5.0
 40
5.0
 40
6.0
 40
6.0
 40
6.0
 40
7.0
 40
7.0
 40
7.0
 40
8.0
 40
8.0
 40
8.0
 40
9.0
 40
9.0
 40
9.0
 40
9.0
 10
4.240740288628472
 20
0.5197787814670138
 10
4.240740288628472
 20
0.5197787814670138
 10
4.251247829861111
 20
0.5197787814670138
 10
4.251247829861111
 20
0.5197787814670138
 10
4.425914171006944
 20
0.906146240234375
 10
4.674477810329861
 20
1.070305040147569
 10
5.113727484809028
 20
1.033270263671875
 10
5.113727484809028
 20
1.033270263671875
 10
5.113727484809028
 20
0.6203755696614582
 10
5.113727484809028
 20
0.6203755696614582
 10
4.573881022135416
 20
0.715804714626736
 10
4.256415473090278
 20
0.3768073187934027
 10
4.256415473090278
 20
-0.1582160101996528
 10
4.256415473090278
 20
-0.1582160101996528
 10
4.256415473090278
 20
-1.943292236328125
 10
4.256415473090278
 20
-1.943292236328125
 10
4.256415473090278
 20
-1.943292236328125
 10
3.836286078559028
 20
-1.943292236328125
 10
3.836286078559028
 20
-1.943292236328125
 10
3.836286078559028
 20
-1.943292236328125
 10
3.836286078559028
 20
1.000197347005208
 10
3.836286078559028
 20
1.000197347005208
 10
3.836286078559028
 20
1.000197347005208
 10
4.240740288628472
 20
1.000197347005208
 10
4.240740288628472
 20
1.000197347005208
 10
4.240740288628472
 20
1.000197347005208
 10
4.240740288628472
 20
0.5197787814670138
 10
4.240740288628472
 20
0.5197787814670138
 97
        0
 75
     0
 76
     1
 98
        1
 10
0.0
 20
0.0
  0
HATCH
  5
2C
330
22
100
AcDbEntity
  8
LAYER_1
 62
     7
100
AcDbHatch
 10
0.0
 20
0.0
 30
0.0
210
0.0
220
0.0
230
1.0
  2
SOLID
 70
     1
 71
     0
 91
        2
 92
       16
 93
        1
 72
     4
 94
        3
 73
     0
 74
     0
 95
       56
 96
       52
 40
0.0
 40
0.0
 40
0.0
 40
0.0
 40
1.0
 40
1.0
 40
1.0
 40
2.0
 40
2.0
 40
2.0
 40
3.0
 40
3.0
 40
3.0
 40
4.0
 40
4.0
 40
4.0
 40
5.0
 40
5.0
 40
5.0
 40
6.0
 40
6.0
 40
6.0
 40
7.0
 40
7.0
 40
7.0
 40
8.0
 40
8.0
 40
8.0
 40
9.0
 40
9.0
 40
9.0
 40
10.0
 40
10.0
 40
10.0
 40
11.0
 40
11.0
 40
11.0
 40
12.0
 40
12.0
 40
12.0
 40
13.0
 40
13.0
 40
13.0
 40
14.0
 40
14.0
 40
14.0
 40
15.0
 40
15.0
 40
15.0
 40
16.0
 40
16.0
 40
16.0
 40
17.0
 40
17.0
 40
17.0
 40
17.0
 10
7.373021104600694
 20
-1.639951578776042
 10
7.314798990885416
 20
-1.645463731553819
 10
7.251409233940971
 20
-1.650631374782986
 10
7.193187120225693
 20
-1.634783935546875
 10
7.108437771267361
 20
-1.592064751519097
 10
7.119117567274305
 20
-1.485955810546875
 10
7.119117567274305
 20
-1.411886257595486
 10
7.119117567274305
 20
-1.411886257595486
 10
7.119117567274305
 20
0.2818949381510417
 10
7.119117567274305
 20
0.2818949381510417
 10
7.119117567274305
 20
0.3509691026475694
 10
7.193187120225693
 20
1.082362874348958
 10
6.321577962239583
 20
1.082362874348958
 10
5.726609971788194
 20
1.082362874348958
 10
5.42757568359375
 20
0.8177795410156249
 10
5.448935275607639
 20
0.2074808756510417
 10
5.448935275607639
 20
0.2074808756510417
 10
5.821005588107639
 20
0.2074808756510417
 10
5.821005588107639
 20
0.2074808756510417
 10
5.815837944878472
 20
0.5526794433593749
 10
5.868892415364583
 20
0.727862548828125
 10
6.25233154296875
 20
0.727862548828125
 10
6.593223741319444
 20
0.727862548828125
 10
6.720520019531249
 20
0.6003940158420138
 10
6.720520019531249
 20
0.265875244140625
 10
6.720520019531249
 20
0.1118794759114583
 10
6.730855305989583
 20
-0.0049092610677083
 10
6.641282823350694
 20
-0.0738111707899305
 10
6.588056098090277
 20
-0.1160135904947917
 10
5.991882324218749
 20
-0.3390835232204861
 10
5.752448187934028
 20
-0.4448479546440972
 10
5.348855251736111
 20
-0.625543212890625
 10
5.333180067274305
 20
-1.050151231553819
 10
5.333180067274305
 20
-1.161427815755208
 10
5.333180067274305
 20
-1.697312418619791
 10
5.50078396267361
 20
-2.025457763671875
 10
6.087828233506944
 20
-2.025457763671875
 10
6.369809299045138
 20
-2.025457763671875
 10
6.641282823350694
 20
-1.808416748046875
 10
6.741535101996528
 20
-1.548656548394097
 10
6.741535101996528
 20
-1.548656548394097
 10
6.751870388454861
 20
-1.548656548394097
 10
6.751870388454861
 20
-1.548656548394097
 10
6.793900553385416
 20
-1.952421739366319
 10
6.924986436631944
 20
-1.984116617838541
 10
7.277591959635416
 20
-1.968096923828125
 10
7.309459092881943
 20
-1.957589382595486
 10
7.341326226128472
 20
-1.952421739366319
 10
7.373021104600694
 20
-1.946909586588542
 10
7.373021104600694
 20
-1.946909586588542
 10
7.373021104600694
 20
-1.639951578776042
 10
7.373021104600694
 20
-1.639951578776042
 97
        0
 92
        1
 93
        1
 72
     4
 94
        3
 73
     0
 74
     0
 95
       20
 96
       16
 40
0.0
 40
0.0
 40
0.0
 40
0.0
 40
1.0
 40
1.0
 40
1.0
 40
2.0
 40
2.0
 40
2.0
 40
3.0
 40
3.0
 40
3.0
 40
4.0
 40
4.0
 40
4.0
 40
5.0
 40
5.0
 40
5.0
 40
5.0
 10
6.689169650607639
 20
-1.071166314019097
 10
6.689169650607639
 20
-1.548656548394097
 10
6.33794216579861
 20
-1.670957438151042
 10
6.178261990017361
 20
-1.670957438151042
 10
5.837542046440972
 20
-1.670957438151042
 10
5.763127983940971
 20
-1.480099148220486
 10
5.763127983940971
 20
-1.182615152994792
 10
5.763127983940971
 20
-0.9810770670572916
 10
5.826862250434028
 20
-0.7635192871093749
 10
6.023749457465277
 20
-0.6732577853732639
 10
6.247163899739583
 20
-0.5671488444010416
 10
6.481602647569444
 20
-0.4768873426649305
 10
6.689169650607639
 20
-0.3547587076822916
 10
6.689169650607639
 20
-0.3547587076822916
 10
6.689169650607639
 20
-1.071166314019097
 10
6.689169650607639
 20
-1.071166314019097
 97
        0
 75
     0
 76
     1
 98
        1
 10
0.0
 20
0.0
  0
HATCH
  5
2B
330
22
100
AcDbEntity
  8
LAYER_1
 62
     7
100
AcDbHatch
 10
0.0
 20
0.0
 30
0.0
210
0.0
220
0.0
230
1.0
  2
SOLID
 70
     1
 71
     0
 91
        1
 92
        1
 93
        1
 72
     4
 94
        3
 73
     0
 74
     0
 95
       53
 96
       49
 40
0.0
 40
0.0
 40
0.0
 40
0.0
 40
1.0
 40
1.0
 40
1.0
 40
2.0
 40
2.0
 40
2.0
 40
3.0
 40
3.0
 40
3.0
 40
4.0
 40
4.0
 40
4.0
 40
5.0
 40
5.0
 40
5.0
 40
6.0
 40
6.0
 40
6.0
 40
7.0
 40
7.0
 40
7.0
 40
8.0
 40
8.0
 40
8.0
 40
9.0
 40
9.0
 40
9.0
 40
10.0
 40
10.0
 40
10.0
 40
11.0
 40
11.0
 40
11.0
 40
12.0
 40
12.0
 40
12.0
 40
13.0
 40
13.0
 40
13.0
 40
14.0
 40
14.0
 40
14.0
 40
15.0
 40
15.0
 40
15.0
 40
16.0
 40
16.0
 40
16.0
 40
16.0
 10
8.38742947048611
 20
0.9996805826822915
 10
8.38742947048611
 20
0.9996805826822915
 10
8.879561360677082
 20
0.9996805826822915
 10
8.879561360677082
 20
0.9996805826822915
 10
8.879561360677082
 20
0.9996805826822915
 10
8.879561360677082
 20
0.6451802571614583
 10
8.879561360677082
 20
0.6451802571614583
 10
8.879561360677082
 20
0.6451802571614583
 10
8.392769368489583
 20
0.6451802571614583
 10
8.392769368489583
 20
0.6451802571614583
 10
8.392769368489583
 20
0.6451802571614583
 10
8.392769368489583
 20
-1.360554334852431
 10
8.392769368489583
 20
-1.360554334852431
 10
8.392769368489583
 20
-1.461151123046875
 10
8.355562337239583
 20
-1.588275146484375
 10
8.588795301649304
 20
-1.588275146484375
 10
8.588795301649304
 20
-1.588275146484375
 10
8.869053819444444
 20
-1.588275146484375
 10
8.869053819444444
 20
-1.588275146484375
 10
8.869053819444444
 20
-1.588275146484375
 10
8.869053819444444
 20
-1.942775472005208
 10
8.869053819444444
 20
-1.942775472005208
 10
8.869053819444444
 20
-1.942775472005208
 10
8.408616807725693
 20
-1.942775472005208
 10
8.408616807725693
 20
-1.942775472005208
 10
8.158847384982638
 20
-1.948287624782986
 10
7.972812228732638
 20
-1.905912950303819
 10
7.972812228732638
 20
-1.461151123046875
 10
7.972812228732638
 20
-1.461151123046875
 10
7.972812228732638
 20
0.6451802571614583
 10
7.972812228732638
 20
0.6451802571614583
 10
7.972812228732638
 20
0.6451802571614583
 10
7.565257432725693
 20
0.6451802571614583
 10
7.565257432725693
 20
0.6451802571614583
 10
7.565257432725693
 20
0.6451802571614583
 10
7.565257432725693
 20
0.9996805826822915
 10
7.565257432725693
 20
0.9996805826822915
 10
7.565257432725693
 20
0.9996805826822915
 10
7.972812228732638
 20
0.9996805826822915
 10
7.972812228732638
 20
0.9996805826822915
 10
7.972812228732638
 20
0.9996805826822915
 10
7.972812228732638
 20
1.798942735460069
 10
7.972812228732638
 20
1.798942735460069
 10
7.972812228732638
 20
1.798942735460069
 10
8.38742947048611
 20
1.798942735460069
 10
8.38742947048611
 20
1.798942735460069
 10
8.38742947048611
 20
1.798942735460069
 10
8.38742947048611
 20
0.9996805826822915
 10
8.38742947048611
 20
0.9996805826822915
 97
        0
 75
     0
 76
     1
 98
        1
 10
0.0
 20
0.0
  0
HATCH
  5
2A
330
22
100
AcDbEntity
  8
LAYER_1
 62
     7
100
AcDbHatch
 10
0.0
 20
0.0
 30
0.0
210
0.0
220
0.0
230
1.0
  2
SOLID
 70
     1
 71
     0
 91
        2
 92
       16
 93
        1
 72
     4
 94
        3
 73
     0
 74
     0
 95
       29
 96
       25
 40
0.0
 40
0.0
 40
0.0
 40
0.0
 40
1.0
 40
1.0
 40
1.0
 40
2.0
 40
2.0
 40
2.0
 40
3.0
 40
3.0
 40
3.0
 40
4.0
 40
4.0
 40
4.0
 40
5.0
 40
5.0
 40
5.0
 40
6.0
 40
6.0
 40
6.0
 40
7.0
 40
7.0
 40
7.0
 40
8.0
 40
8.0
 40
8.0
 40
8.0
 10
10.66653238932292
 20
-0.9671244303385416
 10
10.69305962456597
 20
-1.300437418619792
 10
10.58178304036458
 20
-1.670957438151042
 10
10.17939588758681
 20
-1.670957438151042
 10
9.592007107204861
 20
-1.670957438151042
 10
9.660219997829861
 20
-0.9089023166232638
 10
9.649540201822916
 20
-0.5120273166232638
 10
9.649540201822916
 20
-0.5120273166232638
 10
11.07994384765625
 20
-0.5120273166232638
 10
11.07994384765625
 20
-0.5120273166232638
 10
11.05910101996528
 20
0.1795756022135417
 10
11.11181098090278
 20
1.082362874348958
 10
10.16044786241319
 20
1.082362874348958
 10
9.382200792100694
 20
1.082362874348958
 10
9.219592285156249
 20
0.1528761121961806
 10
9.219592285156249
 20
-0.4694803873697916
 10
9.219592285156249
 20
-1.654937744140625
 10
9.613022189670138
 20
-2.025457763671875
 10
10.17129991319444
 20
-2.025457763671875
 10
10.78745524088542
 20
-2.025457763671875
 10
11.08183865017361
 20
-1.543833414713542
 10
11.05513916015625
 20
-0.9671244303385416
 10
11.05513916015625
 20
-0.9671244303385416
 10
10.66653238932292
 20
-0.9671244303385416
 10
10.66653238932292
 20
-0.9671244303385416
 97
        0
 92
        1
 93
        1
 72
     4
 94
        3
 73
     0
 74
     0
 95
       14
 96
       10
 40
0.0
 40
0.0
 40
0.0
 40
0.0
 40
1.0
 40
1.0
 40
1.0
 40
2.0
 40
2.0
 40
2.0
 40
3.0
 40
3.0
 40
3.0
 40
3.0
 10
9.649540201822916
 20
-0.1664842393663194
 10
9.665732150607639
 20
0.1849155002170139
 10
9.676239691840276
 20
0.727862548828125
 10
10.16596001519097
 20
0.727862548828125
 10
10.65550808376736
 20
0.727862548828125
 10
10.63432074652778
 20
0.1795756022135417
 10
10.64999593098958
 20
-0.1664842393663194
 10
10.64999593098958
 20
-0.1664842393663194
 10
9.649540201822916
 20
-0.1664842393663194
 10
9.649540201822916
 20
-0.1664842393663194
 97
        0
 75
     0
 76
     1
 98
        1
 10
0.0
 20
0.0
  0
HATCH
  5
29
330
22
100
AcDbEntity
  8
LAYER_1
 62
     7
100
AcDbHatch
 10
0.0
 20
0.0
 30
0.0
210
0.0
220
0.0
230
1.0
  2
SOLID
 70
     1
 71
     0
 91
        2
 92
       16
 93
        1
 72
     4
 94
        3
 73
     0
 74
     0
 95
       38
 96
       34
 40
0.0
 40
0.0
 40
0.0
 40
0.0
 40
1.0
 40
1.0
 40
1.0
 40
2.0
 40
2.0
 40
2.0
 40
3.0
 40
3.0
 40
3.0
 40
4.0
 40
4.0
 40
4.0
 40
5.0
 40
5.0
 40
5.0
 40
6.0
 40
6.0
 40
6.0
 40
7.0
 40
7.0
 40
7.0
 40
8.0
 40
8.0
 40
8.0
 40
9.0
 40
9.0
 40
9.0
 40
10.0
 40
10.0
 40
10.0
 40
11.0
 40
11.0
 40
11.0
 40
11.0
 10
13.16560465494792
 20
0.7013353135850694
 10
13.16560465494792
 20
0.7013353135850694
 10
13.15509711371528
 20
0.7013353135850694
 10
13.15509711371528
 20
0.7013353135850694
 10
12.95889892578125
 20
0.9555833604600693
 10
12.77872043185764
 20
1.082362874348958
 10
12.47624104817708
 20
1.082362874348958
 10
11.84682210286458
 20
1.082362874348958
 10
11.56294623480903
 20
0.3986836751302083
 10
11.59464111328125
 20
-0.4663798014322916
 10
11.60532090928819
 20
-0.726312255859375
 10
11.53125135633681
 20
-2.025457763671875
 10
12.4552259657118
 20
-2.025457763671875
 10
12.81041531032986
 20
-2.025457763671875
 10
12.99076605902778
 20
-1.909185791015625
 10
13.17111680772569
 20
-1.559680853949653
 10
13.17111680772569
 20
-1.559680853949653
 10
13.18179660373264
 20
-1.559680853949653
 10
13.18179660373264
 20
-1.559680853949653
 10
13.18179660373264
 20
-1.559680853949653
 10
13.18179660373264
 20
-1.943292236328125
 10
13.18179660373264
 20
-1.943292236328125
 10
13.18179660373264
 20
-1.943292236328125
 10
13.58590630425347
 20
-1.943292236328125
 10
13.58590630425347
 20
-1.943292236328125
 10
13.58590630425347
 20
-1.943292236328125
 10
13.58590630425347
 20
2.025457763671875
 10
13.58590630425347
 20
2.025457763671875
 10
13.58590630425347
 20
2.025457763671875
 10
13.16560465494792
 20
2.025457763671875
 10
13.16560465494792
 20
2.025457763671875
 10
13.16560465494792
 20
2.025457763671875
 10
13.16560465494792
 20
0.7013353135850694
 10
13.16560465494792
 20
0.7013353135850694
 97
        0
 92
        1
 93
        1
 72
     4
 94
        3
 73
     0
 74
     0
 95
       20
 96
       16
 40
0.0
 40
0.0
 40
0.0
 40
0.0
 40
1.0
 40
1.0
 40
1.0
 40
2.0
 40
2.0
 40
2.0
 40
3.0
 40
3.0
 40
3.0
 40
4.0
 40
4.0
 40
4.0
 40
5.0
 40
5.0
 40
5.0
 40
5.0
 10
13.16560465494792
 20
-0.789874267578125
 10
13.16560465494792
 20
-1.124220784505208
 10
13.04364827473958
 20
-1.670957438151042
 10
12.60887722439236
 20
-1.670957438151042
 10
12.03595784505208
 20
-1.670957438151042
 10
12.0149427625868
 20
-1.092525906032986
 10
12.0149427625868
 20
-0.4555277506510416
 10
12.0149427625868
 20
0.451910400390625
 10
12.24300808376736
 20
0.727862548828125
 10
12.59285753038194
 20
0.727862548828125
 10
13.15509711371528
 20
0.727862548828125
 10
13.16560465494792
 20
-0.0204121907552083
 10
13.16560465494792
 20
-0.4238328721788194
 10
13.16560465494792
 20
-0.4238328721788194
 10
13.16560465494792
 20
-0.789874267578125
 10
13.16560465494792
 20
-0.789874267578125
 97
        0
 75
     0
 76
     1
 98
        1
 10
0.0
 20
0.0
  0
HATCH
  5
28
330
22
100
AcDbEntity
  8
LAYER_1
 62
     7
100
AcDbHatch
 10
0.0
 20
0.0
 30
0.0
210
0.0
220
0.0
230
1.0
  2
SOLID
 70
     1
 71
     0
 91
        1
 92
        1
 93
        1
 72
     4
 94
        3
 73
     0
 74
     0
 95
       23
 96
       19
 40
0.0
 40
0.0
 40
0.0
 40
0.0
 40
1.0
 40
1.0
 40
1.0
 40
2.0
 40
2.0
 40
2.0
 40
3.0
 40
3.0
 40
3.0
 40
4.0
 40
4.0
 40
4.0
 40
5.0
 40
5.0
 40
5.0
 40
6.0
 40
6.0
 40
6.0
 40
6.0
 10
-13.20591227213542
 20
-7.234958902994791
 10
-13.20591227213542
 20
-7.234958902994791
 10
-13.20591227213542
 20
-3.266208902994791
 10
-13.20591227213542
 20
-3.266208902994791
 10
-13.20591227213542
 20
-3.266208902994791
 10
-12.76735161675347
 20
-3.266208902994791
 10
-12.76735161675347
 20
-3.266208902994791
 10
-12.76735161675347
 20
-3.266208902994791
 10
-12.76735161675347
 20
-6.838083902994791
 10
-12.76735161675347
 20
-6.838083902994791
 10
-12.76735161675347
 20
-6.838083902994791
 10
-11.14832899305556
 20
-6.838083902994791
 10
-11.14832899305556
 20
-6.838083902994791
 10
-11.14832899305556
 20
-6.838083902994791
 10
-11.14832899305556
 20
-7.234958902994791
 10
-11.14832899305556
 20
-7.234958902994791
 10
-11.14832899305556
 20
-7.234958902994791
 10
-13.20591227213542
 20
-7.234958902994791
 10
-13.20591227213542
 20
-7.234958902994791
 97
        0
 75
     0
 76
     1
 98
        1
 10
0.0
 20
0.0
  0
HATCH
  5
27
330
22
100
AcDbEntity
  8
LAYER_1
 62
     7
100
AcDbHatch
 10
0.0
 20
0.0
 30
0.0
210
0.0
220
0.0
230
1.0
  2
SOLID
 70
     1
 71
     0
 91
        2
 92
       16
 93
        1
 72
     4
 94
        3
 73
     0
 74
     0
 95
       17
 96
       13
 40
0.0
 40
0.0
 40
0.0
 40
0.0
 40
1.0
 40
1.0
 40
1.0
 40
2.0
 40
2.0
 40
2.0
 40
3.0
 40
3.0
 40
3.0
 40
4.0
 40
4.0
 40
4.0
 40
4.0
 10
-8.624968804253472
 20
-5.662445068359374
 10
-8.624968804253472
 20
-4.770854356553819
 10
-8.95018581814236
 20
-4.209303792317708
 10
-9.67537841796875
 20
-4.209303792317708
 10
-10.40005425347222
 20
-4.209303792317708
 10
-10.72544352213542
 20
-4.770854356553819
 10
-10.72544352213542
 20
-5.662445068359374
 10
-10.72544352213542
 20
-6.936096869574652
 10
-10.31099853515625
 20
-7.317124430338541
 10
-9.67537841796875
 20
-7.317124430338541
 10
-9.028733995225693
 20
-7.317124430338541
 10
-8.624968804253472
 20
-6.941436767578124
 10
-8.624968804253472
 20
-5.662445068359374
 97
        0
 92
        1
 93
        1
 72
     4
 94
        3
 73
     0
 74
     0
 95
       17
 96
       13
 40
0.0
 40
0.0
 40
0.0
 40
0.0
 40
1.0
 40
1.0
 40
1.0
 40
2.0
 40
2.0
 40
2.0
 40
3.0
 40
3.0
 40
3.0
 40
4.0
 40
4.0
 40
4.0
 40
4.0
 10
-9.054916720920138
 20
-5.795081244574653
 10
-9.054916720920138
 20
-6.490301513671875
 10
-9.176873101128471
 20
-6.962624104817707
 10
-9.67537841796875
 20
-6.962624104817707
 10
-10.16285942925347
 20
-6.962624104817707
 10
-10.29549560546875
 20
-6.490301513671875
 10
-10.29549560546875
 20
-5.795081244574653
 10
-10.29549560546875
 20
-4.903490532769097
 10
-10.10446506076389
 20
-4.563804117838541
 10
-9.67537841796875
 20
-4.563804117838541
 10
-9.235267469618055
 20
-4.563804117838541
 10
-9.054916720920138
 20
-4.903490532769097
 10
-9.054916720920138
 20
-5.795081244574653
 97
        0
 75
     0
 76
     1
 98
        1
 10
0.0
 20
0.0
  0
HATCH
  5
26
330
22
100
AcDbEntity
  8
LAYER_1
 62
     7
100
AcDbHatch
 10
0.0
 20
0.0
 30
0.0
210
0.0
220
0.0
230
1.0
  2
SOLID
 70
     1
 71
     0
 91
        2
 92
       16
 93
        1
 72
     4
 94
        3
 73
     0
 74
     0
 95
       56
 96
       52
 40
0.0
 40
0.0
 40
0.0
 40
0.0
 40
1.0
 40
1.0
 40
1.0
 40
2.0
 40
2.0
 40
2.0
 40
3.0
 40
3.0
 40
3.0
 40
4.0
 40
4.0
 40
4.0
 40
5.0
 40
5.0
 40
5.0
 40
6.0
 40
6.0
 40
6.0
 40
7.0
 40
7.0
 40
7.0
 40
8.0
 40
8.0
 40
8.0
 40
9.0
 40
9.0
 40
9.0
 40
10.0
 40
10.0
 40
10.0
 40
11.0
 40
11.0
 40
11.0
 40
12.0
 40
12.0
 40
12.0
 40
13.0
 40
13.0
 40
13.0
 40
14.0
 40
14.0
 40
14.0
 40
15.0
 40
15.0
 40
15.0
 40
16.0
 40
16.0
 40
16.0
 40
17.0
 40
17.0
 40
17.0
 40
17.0
 10
-6.147083875868055
 20
-6.931618245442707
 10
-6.205133734809027
 20
-6.937130398220486
 10
-6.268868001302082
 20
-6.942298041449652
 10
-6.326917860243055
 20
-6.926450602213541
 10
-6.411494954427083
 20
-6.883731418185763
 10
-6.40115966796875
 20
-6.777622477213541
 10
-6.40115966796875
 20
-6.703552924262152
 10
-6.40115966796875
 20
-6.703552924262152
 10
-6.40115966796875
 20
-5.009771728515625
 10
-6.40115966796875
 20
-5.009771728515625
 10
-6.40115966796875
 20
-4.940697564019096
 10
-6.326917860243055
 20
-4.209303792317708
 10
-7.19835476345486
 20
-4.209303792317708
 10
-7.793495008680555
 20
-4.209303792317708
 10
-8.092184787326389
 20
-4.473887125651041
 10
-8.070997450086805
 20
-5.084185791015624
 10
-8.070997450086805
 20
-5.084185791015624
 10
-7.698927137586805
 20
-5.084185791015624
 10
-7.698927137586805
 20
-5.084185791015624
 10
-7.704439290364583
 20
-4.738987223307292
 10
-7.651040310329861
 20
-4.563804117838541
 10
-7.267601182725694
 20
-4.563804117838541
 10
-6.926881239149305
 20
-4.563804117838541
 10
-6.799412706163194
 20
-4.691272650824653
 10
-6.799412706163194
 20
-5.025791422526042
 10
-6.799412706163194
 20
-5.179787190755208
 10
-6.788905164930555
 20
-5.296575927734375
 10
-6.878822157118055
 20
-5.365477837456597
 10
-6.932048882378472
 20
-5.407680257161458
 10
-7.528050401475694
 20
-5.630750189887152
 10
-7.767484537760416
 20
-5.736514621310763
 10
-8.171249728732638
 20
-5.917209879557291
 10
-8.18709716796875
 20
-6.341817898220485
 10
-8.18709716796875
 20
-6.453094482421874
 10
-8.18709716796875
 20
-6.988979085286458
 10
-8.018976508246528
 20
-7.317124430338541
 10
-7.432276746961805
 20
-7.317124430338541
 10
-7.150123426649305
 20
-7.317124430338541
 10
-6.878822157118055
 20
-7.100083414713541
 10
-6.778569878472221
 20
-6.840323215060764
 10
-6.778569878472221
 20
-6.840323215060764
 10
-6.768062337239583
 20
-6.840323215060764
 10
-6.768062337239583
 20
-6.840323215060764
 10
-6.726032172309028
 20
-7.244088406032986
 10
-6.594774034288194
 20
-7.275783284505208
 10
-6.242168511284722
 20
-7.259763590494791
 10
-6.210301378038194
 20
-7.249256049262153
 10
-6.178606499565972
 20
-7.244088406032986
 10
-6.147083875868055
 20
-7.238576253255208
 10
-6.147083875868055
 20
-7.238576253255208
 10
-6.147083875868055
 20
-6.931618245442707
 10
-6.147083875868055
 20
-6.931618245442707
 97
        0
 92
        1
 93
        1
 72
     4
 94
        3
 73
     0
 74
     0
 95
       20
 96
       16
 40
0.0
 40
0.0
 40
0.0
 40
0.0
 40
1.0
 40
1.0
 40
1.0
 40
2.0
 40
2.0
 40
2.0
 40
3.0
 40
3.0
 40
3.0
 40
4.0
 40
4.0
 40
4.0
 40
5.0
 40
5.0
 40
5.0
 40
5.0
 10
-6.831107584635416
 20
-6.362832980685764
 10
-6.831107584635416
 20
-6.840323215060764
 10
-7.182162814670138
 20
-6.962624104817707
 10
-7.341842990451388
 20
-6.962624104817707
 10
-7.682390679253472
 20
-6.962624104817707
 10
-7.757149251302082
 20
-6.771765814887152
 10
-7.757149251302082
 20
-6.474281819661457
 10
-7.757149251302082
 20
-6.272743733723957
 10
-7.693070475260416
 20
-6.055185953776041
 10
-7.496011013454861
 20
-5.96492445203993
 10
-7.272596571180555
 20
-5.858815511067708
 10
-7.038502332899305
 20
-5.768554009331597
 10
-6.831107584635416
 20
-5.646425374348958
 10
-6.831107584635416
 20
-5.646425374348958
 10
-6.831107584635416
 20
-6.362832980685764
 10
-6.831107584635416
 20
-6.362832980685764
 97
        0
 75
     0
 76
     1
 98
        1
 10
0.0
 20
0.0
  0
HATCH
  5
25
330
22
100
AcDbEntity
  8
LAYER_1
 62
     7
100
AcDbHatch
 10
0.0
 20
0.0
 30
0.0
210
0.0
220
0.0
230
1.0
  2
SOLID
 70
     1
 71
     0
 91
        2
 92
       16
 93
        1
 72
     4
 94
        3
 73
     0
 74
     0
 95
       38
 96
       34
 40
0.0
 40
0.0
 40
0.0
 40
0.0
 40
1.0
 40
1.0
 40
1.0
 40
2.0
 40
2.0
 40
2.0
 40
3.0
 40
3.0
 40
3.0
 40
4.0
 40
4.0
 40
4.0
 40
5.0
 40
5.0
 40
5.0
 40
6.0
 40
6.0
 40
6.0
 40
7.0
 40
7.0
 40
7.0
 40
8.0
 40
8.0
 40
8.0
 40
9.0
 40
9.0
 40
9.0
 40
10.0
 40
10.0
 40
10.0
 40
11.0
 40
11.0
 40
11.0
 40
11.0
 10
-4.17493896484375
 20
-4.590331353081597
 10
-4.17493896484375
 20
-4.590331353081597
 10
-4.185446506076389
 20
-4.590331353081597
 10
-4.185446506076389
 20
-4.590331353081597
 10
-4.381644694010416
 20
-4.336083306206596
 10
-4.561823187934027
 20
-4.209303792317708
 10
-4.864302571614583
 20
-4.209303792317708
 10
-5.493721516927083
 20
-4.209303792317708
 10
-5.777597384982639
 20
-4.892982991536458
 10
-5.745902506510416
 20
-5.758046468098958
 10
-5.735222710503471
 20
-6.017978922526041
 10
-5.809120008680555
 20
-7.317124430338541
 10
-4.885317654079861
 20
-7.317124430338541
 10
-4.530128309461805
 20
-7.317124430338541
 10
-4.349777560763888
 20
-7.200852457682291
 10
-4.169426812065971
 20
-6.851347520616319
 10
-4.169426812065971
 20
-6.851347520616319
 10
-4.158747016059027
 20
-6.851347520616319
 10
-4.158747016059027
 20
-6.851347520616319
 10
-4.158747016059027
 20
-6.851347520616319
 10
-4.158747016059027
 20
-7.234958902994791
 10
-4.158747016059027
 20
-7.234958902994791
 10
-4.158747016059027
 20
-7.234958902994791
 10
-3.754637315538194
 20
-7.234958902994791
 10
-3.754637315538194
 20
-7.234958902994791
 10
-3.754637315538194
 20
-7.234958902994791
 10
-3.754637315538194
 20
-3.266208902994791
 10
-3.754637315538194
 20
-3.266208902994791
 10
-3.754637315538194
 20
-3.266208902994791
 10
-4.17493896484375
 20
-3.266208902994791
 10
-4.17493896484375
 20
-3.266208902994791
 10
-4.17493896484375
 20
-3.266208902994791
 10
-4.17493896484375
 20
-4.590331353081597
 10
-4.17493896484375
 20
-4.590331353081597
 97
        0
 92
        1
 93
        1
 72
     4
 94
        3
 73
     0
 74
     0
 95
       20
 96
       16
 40
0.0
 40
0.0
 40
0.0
 40
0.0
 40
1.0
 40
1.0
 40
1.0
 40
2.0
 40
2.0
 40
2.0
 40
3.0
 40
3.0
 40
3.0
 40
4.0
 40
4.0
 40
4.0
 40
5.0
 40
5.0
 40
5.0
 40
5.0
 10
-4.17493896484375
 20
-6.081540934244791
 10
-4.17493896484375
 20
-6.415887451171875
 10
-4.296895345052083
 20
-6.962624104817707
 10
-4.731666395399305
 20
-6.962624104817707
 10
-5.304585774739583
 20
-6.962624104817707
 10
-5.325600857204861
 20
-6.384192572699652
 10
-5.325600857204861
 20
-5.747194417317708
 10
-5.325600857204861
 20
-4.839756266276042
 10
-5.097535536024306
 20
-4.563804117838541
 10
-4.747686089409722
 20
-4.563804117838541
 10
-4.185446506076389
 20
-4.563804117838541
 10
-4.17493896484375
 20
-5.312078857421875
 10
-4.17493896484375
 20
-5.715499538845486
 10
-4.17493896484375
 20
-5.715499538845486
 10
-4.17493896484375
 20
-6.081540934244791
 10
-4.17493896484375
 20
-6.081540934244791
 97
        0
 75
     0
 76
     1
 98
        1
 10
0.0
 20
0.0
  0
ENDBLK
  5
3C
330
22
100
AcDbEntity
  8
LAYER_1
100
AcDbBlockEnd
  0
BLOCK
  5
3F
330
3D
100
AcDbEntity
  8
LAYER_1
 62
     7
100
AcDbBlockBegin
  2
AI9-BLK2
 70
     0
 10
0.0
 20
0.0
 30
0.0
  3
AI9-BLK2
  1

  4

  0
SPLINE
  5
41
330
3D
100
AcDbEntity
  8
LAYER_1
 62
     7
100
AcDbSpline
210
0.0
220
0.0
230
1.0
 70
     8
 71
     3
 72
    11
 73
     7
 74
     0
 42
0.0000000001
 43
0.0000000001
 40
0.0
 40
0.0
 40
0.0
 40
0.0
 40
1.0
 40
1.0
 40
1.0
 40
2.0
 40
2.0
 40
2.0
 40
2.0
 10
-12.91135660807292
 20
-6.303577338324653
 30
0.0
 10
-4.620734320746528
 20
-7.097327338324652
 30
0.0
 10
-0.9165676540798611
 20
-0.6587883843315971
 30
0.0
 10
-0.9165676540798611
 20
-0.6587883843315971
 30
0.0
 10
-0.9165676540798611
 20
-0.6587883843315971
 30
0.0
 10
2.59984130859375
 20
7.377930365668402
 30
0.0
 10
14.07614339192708
 20
6.572983805338541
 30
0.0
  0
HATCH
  5
40
330
3D
100
AcDbEntity
  8
LAYER_1
 62
     7
100
AcDbHatch
 10
0.0
 20
0.0
 30
0.0
210
0.0
220
0.0
230
1.0
  2
SOLID
 70
     1
 71
     0
 91
        1
 92
        1
 93
        1
 72
     4
 94
        3
 73
     0
 74
     0
 95
       29
 96
       25
 40
0.0
 40
0.0
 40
0.0
 40
0.0
 40
1.0
 40
1.0
 40
1.0
 40
2.0
 40
2.0
 40
2.0
 40
3.0
 40
3.0
 40
3.0
 40
4.0
 40
4.0
 40
4.0
 40
5.0
 40
5.0
 40
5.0
 40
6.0
 40
6.0
 40
6.0
 40
7.0
 40
7.0
 40
7.0
 40
8.0
 40
8.0
 40
8.0
 40
8.0
 10
-12.77940945095486
 20
-6.317185465494791
 10
-12.77940945095486
 20
-6.317185465494791
 10
-12.53635796440972
 20
-6.819308132595485
 10
-12.53635796440972
 20
-6.819308132595485
 10
-12.53635796440972
 20
-6.819308132595485
 10
-12.55375569661458
 20
-6.828265380859374
 10
-12.55375569661458
 20
-6.828265380859374
 10
-12.55375569661458
 20
-6.828265380859374
 10
-13.29789632161458
 20
-6.446893310546875
 10
-13.29789632161458
 20
-6.446893310546875
 10
-13.56179063585069
 20
-6.36179945203993
 10
-13.82568495008681
 20
-6.276705593532985
 10
-14.08957926432292
 20
-6.191611735026041
 10
-13.81431613498264
 20
-6.158022054036458
 10
-13.53905300564236
 20
-6.124776882595485
 10
-13.26396213107639
 20
-6.091014946831597
 10
-13.26396213107639
 20
-6.091014946831597
 10
-12.46073811848958
 20
-5.857781982421875
 10
-12.46073811848958
 20
-5.857781982421875
 10
-12.46073811848958
 20
-5.857781982421875
 10
-12.44540744357639
 20
-5.867600504557291
 10
-12.44540744357639
 20
-5.867600504557291
 10
-12.44540744357639
 20
-5.867600504557291
 10
-12.77940945095486
 20
-6.317185465494791
 10
-12.77940945095486
 20
-6.317185465494791
 97
        0
 75
     0
 76
     1
 98
        1
 10
0.0
 20
0.0
  0
ENDBLK
  5
42
330
3D
100
AcDbEntity
  8
LAYER_1
100
AcDbBlockEnd
  0
BLOCK
  5
45
330
43
100
AcDbEntity
  8
LAYER_1
 62
     7
100
AcDbBlockBegin
  2
AI9-BLK3
 70
     0
 10
0.0
 20
0.0
 30
0.0
  3
AI9-BLK3
  1

  4

  0
HATCH
  5
5C
330
43
100
AcDbEntity
  8
LAYER_1
 62
     7
100
AcDbHatch
 10
0.0
 20
0.0
 30
0.0
210
0.0
220
0.0
230
1.0
  2
SOLID
 70
     1
 71
     0
 91
        1
 92
        1
 93
        1
 72
     4
 94
        3
 73
     0
 74
     0
 95
       56
 96
       52
 40
0.0
 40
0.0
 40
0.0
 40
0.0
 40
1.0
 40
1.0
 40
1.0
 40
2.0
 40
2.0
 40
2.0
 40
3.0
 40
3.0
 40
3.0
 40
4.0
 40
4.0
 40
4.0
 40
5.0
 40
5.0
 40
5.0
 40
6.0
 40
6.0
 40
6.0
 40
7.0
 40
7.0
 40
7.0
 40
8.0
 40
8.0
 40
8.0
 40
9.0
 40
9.0
 40
9.0
 40
10.0
 40
10.0
 40
10.0
 40
11.0
 40
11.0
 40
11.0
 40
12.0
 40
12.0
 40
12.0
 40
13.0
 40
13.0
 40
13.0
 40
14.0
 40
14.0
 40
14.0
 40
15.0
 40
15.0
 40
15.0
 40
16.0
 40
16.0
 40
16.0
 40
17.0
 40
17.0
 40
17.0
 40
17.0
 10
-11.26287841796875
 20
4.118611653645833
 10
-11.23118353949653
 20
4.531334092881944
 10
-11.45373670789931
 20
4.843459743923611
 10
-11.89315863715278
 20
4.843459743923611
 10
-12.53377414279514
 20
4.843459743923611
 10
-12.60233154296875
 20
4.441417100694444
 10
-12.60233154296875
 20
4.134459092881945
 10
-12.60233154296875
 20
3.859540473090278
 10
-12.48071967230903
 20
3.690386284722222
 10
-12.22647162543403
 20
3.594957139756944
 10
-12.0149427625868
 20
3.515719943576388
 10
-11.80840928819444
 20
3.436310492621527
 10
-11.59670817057292
 20
3.356901041666666
 10
-10.84636637369792
 20
3.076642523871528
 10
-10.70890706380208
 20
2.812059190538194
 10
-10.70890706380208
 20
2.288232421875
 10
-10.70890706380208
 20
1.537201605902778
 10
-11.17985161675347
 20
1.097951931423611
 10
-11.93983968098958
 20
1.097951931423611
 10
-12.33051350911458
 20
1.097951931423611
 10
-12.79542914496528
 20
1.209056260850694
 10
-13.02228868272569
 20
1.727715386284722
 10
-13.10669352213542
 20
1.923224555121528
 10
-13.10152587890625
 20
2.240690104166666
 10
-13.10669352213542
 20
2.452391221788194
 10
-13.10669352213542
 20
2.452391221788194
 10
-12.66847737630208
 20
2.452391221788194
 10
-12.66847737630208
 20
2.452391221788194
 10
-12.68983696831597
 20
1.865174696180555
 10
-12.57890489366319
 20
1.494826931423611
 10
-11.91899685329861
 20
1.494826931423611
 10
-11.47544080946181
 20
1.494826931423611
 10
-11.16365966796875
 20
1.722203233506944
 10
-11.16365966796875
 20
2.187807888454861
 10
-11.16365966796875
 20
2.790871853298611
 10
-11.40653889973958
 20
2.796384006076389
 10
-11.80840928819444
 20
2.949518500434027
 10
-12.02545030381944
 20
3.034267849392361
 10
-12.37478298611111
 20
3.145372178819444
 10
-12.58665635850694
 20
3.256476508246528
 10
-12.96199951171875
 20
3.446818033854167
 10
-13.05708414713542
 20
3.764111328125
 10
-13.05708414713542
 20
4.155646430121528
 10
-13.05708414713542
 20
4.811764865451388
 10
-12.59716389973958
 20
5.240334743923611
 10
-11.95120849609375
 20
5.240334743923611
 10
-11.22601589626736
 20
5.240334743923611
 10
-10.78228759765625
 20
4.864647081163194
 10
-10.82466227213542
 20
4.118611653645833
 10
-10.82466227213542
 20
4.118611653645833
 10
-11.26287841796875
 20
4.118611653645833
 10
-11.26287841796875
 20
4.118611653645833
 97
        0
 75
     0
 76
     1
 98
        1
 10
0.0
 20
0.0
  0
HATCH
  5
5B
330
43
100
AcDbEntity
  8
LAYER_1
 62
     7
100
AcDbHatch
 10
0.0
 20
0.0
 30
0.0
210
0.0
220
0.0
230
1.0
  2
SOLID
 70
     1
 71
     0
 91
        1
 92
        1
 93
        1
 72
     4
 94
        3
 73
     0
 74
     0
 95
       53
 96
       49
 40
0.0
 40
0.0
 40
0.0
 40
0.0
 40
1.0
 40
1.0
 40
1.0
 40
2.0
 40
2.0
 40
2.0
 40
3.0
 40
3.0
 40
3.0
 40
4.0
 40
4.0
 40
4.0
 40
5.0
 40
5.0
 40
5.0
 40
6.0
 40
6.0
 40
6.0
 40
7.0
 40
7.0
 40
7.0
 40
8.0
 40
8.0
 40
8.0
 40
9.0
 40
9.0
 40
9.0
 40
10.0
 40
10.0
 40
10.0
 40
11.0
 40
11.0
 40
11.0
 40
12.0
 40
12.0
 40
12.0
 40
13.0
 40
13.0
 40
13.0
 40
14.0
 40
14.0
 40
14.0
 40
15.0
 40
15.0
 40
15.0
 40
16.0
 40
16.0
 40
16.0
 40
16.0
 10
-9.567202419704861
 20
4.131875271267361
 10
-9.567202419704861
 20
4.131875271267361
 10
-9.074898274739583
 20
4.131875271267361
 10
-9.074898274739583
 20
4.131875271267361
 10
-9.074898274739583
 20
4.131875271267361
 10
-9.074898274739583
 20
3.777374945746527
 10
-9.074898274739583
 20
3.777374945746527
 10
-9.074898274739583
 20
3.777374945746527
 10
-9.561690266927082
 20
3.777374945746527
 10
-9.561690266927082
 20
3.777374945746527
 10
-9.561690266927082
 20
3.777374945746527
 10
-9.561690266927082
 20
1.771468098958333
 10
-9.561690266927082
 20
1.771468098958333
 10
-9.561690266927082
 20
1.671043565538194
 10
-9.598897298177082
 20
1.543919542100694
 10
-9.366181098090276
 20
1.543919542100694
 10
-9.366181098090276
 20
1.543919542100694
 10
-9.085578070746527
 20
1.543919542100694
 10
-9.085578070746527
 20
1.543919542100694
 10
-9.085578070746527
 20
1.543919542100694
 10
-9.085578070746527
 20
1.189419216579861
 10
-9.085578070746527
 20
1.189419216579861
 10
-9.085578070746527
 20
1.189419216579861
 10
-9.546015082465276
 20
1.189419216579861
 10
-9.546015082465276
 20
1.189419216579861
 10
-9.795956759982637
 20
1.184251573350694
 10
-9.981991916232637
 20
1.226453993055555
 10
-9.981991916232637
 20
1.671043565538194
 10
-9.981991916232637
 20
1.671043565538194
 10
-9.981991916232637
 20
3.777374945746527
 10
-9.981991916232637
 20
3.777374945746527
 10
-9.981991916232637
 20
3.777374945746527
 10
-10.38937445746528
 20
3.777374945746527
 10
-10.38937445746528
 20
3.777374945746527
 10
-10.38937445746528
 20
3.777374945746527
 10
-10.38937445746528
 20
4.131875271267361
 10
-10.38937445746528
 20
4.131875271267361
 10
-10.38937445746528
 20
4.131875271267361
 10
-9.981991916232637
 20
4.131875271267361
 10
-9.981991916232637
 20
4.131875271267361
 10
-9.981991916232637
 20
4.131875271267361
 10
-9.981991916232637
 20
4.930965169270833
 10
-9.981991916232637
 20
4.930965169270833
 10
-9.981991916232637
 20
4.930965169270833
 10
-9.567202419704861
 20
4.930965169270833
 10
-9.567202419704861
 20
4.930965169270833
 10
-9.567202419704861
 20
4.930965169270833
 10
-9.567202419704861
 20
4.131875271267361
 10
-9.567202419704861
 20
4.131875271267361
 97
        0
 75
     0
 76
     1
 98
        1
 10
0.0
 20
0.0
  0
HATCH
  5
5A
330
43
100
AcDbEntity
  8
LAYER_1
 62
     7
100
AcDbHatch
 10
0.0
 20
0.0
 30
0.0
210
0.0
220
0.0
230
1.0
  2
SOLID
 70
     1
 71
     0
 91
        1
 92
        1
 93
        1
 72
     4
 94
        3
 73
     0
 74
     0
 95
       32
 96
       28
 40
0.0
 40
0.0
 40
0.0
 40
0.0
 40
1.0
 40
1.0
 40
1.0
 40
2.0
 40
2.0
 40
2.0
 40
3.0
 40
3.0
 40
3.0
 40
4.0
 40
4.0
 40
4.0
 40
5.0
 40
5.0
 40
5.0
 40
6.0
 40
6.0
 40
6.0
 40
7.0
 40
7.0
 40
7.0
 40
8.0
 40
8.0
 40
8.0
 40
9.0
 40
9.0
 40
9.0
 40
9.0
 10
-8.13163113064236
 20
3.652145724826389
 10
-8.13163113064236
 20
3.652145724826389
 10
-8.12077907986111
 20
3.652145724826389
 10
-8.12077907986111
 20
3.652145724826389
 10
-7.946112738715277
 20
4.038685438368055
 10
-7.697549099392361
 20
4.202671983506944
 10
-7.258299424913194
 20
4.165464952256945
 10
-7.258299424913194
 20
4.165464952256945
 10
-7.258299424913194
 20
3.752570258246527
 10
-7.258299424913194
 20
3.752570258246527
 10
-7.798145887586805
 20
3.8478271484375
 10
-8.115611436631944
 20
3.508829752604167
 10
-8.115611436631944
 20
2.974150933159722
 10
-8.115611436631944
 20
2.974150933159722
 10
-8.115611436631944
 20
1.188902452256944
 10
-8.115611436631944
 20
1.188902452256944
 10
-8.115611436631944
 20
1.188902452256944
 10
-8.535740831163194
 20
1.188902452256944
 10
-8.535740831163194
 20
1.188902452256944
 10
-8.535740831163194
 20
1.188902452256944
 10
-8.535740831163194
 20
4.132392035590278
 10
-8.535740831163194
 20
4.132392035590278
 10
-8.535740831163194
 20
4.132392035590278
 10
-8.13163113064236
 20
4.132392035590278
 10
-8.13163113064236
 20
4.132392035590278
 10
-8.13163113064236
 20
4.132392035590278
 10
-8.13163113064236
 20
3.652145724826389
 10
-8.13163113064236
 20
3.652145724826389
 97
        0
 75
     0
 76
     1
 98
        1
 10
0.0
 20
0.0
  0
HATCH
  5
59
330
43
100
AcDbEntity
  8
LAYER_1
 62
     7
100
AcDbHatch
 10
0.0
 20
0.0
 30
0.0
210
0.0
220
0.0
230
1.0
  2
SOLID
 70
     1
 71
     0
 91
        2
 92
       16
 93
        1
 72
     4
 94
        3
 73
     0
 74
     0
 95
       17
 96
       13
 40
0.0
 40
0.0
 40
0.0
 40
0.0
 40
1.0
 40
1.0
 40
1.0
 40
2.0
 40
2.0
 40
2.0
 40
3.0
 40
3.0
 40
3.0
 40
4.0
 40
4.0
 40
4.0
 40
4.0
 10
-4.831229654947916
 20
2.761416286892361
 10
-4.831229654947916
 20
3.653179253472222
 10
-5.156446668836805
 20
4.214557562934028
 10
-5.881294759114583
 20
4.214557562934028
 10
-6.606487358940972
 20
4.214557562934028
 10
-6.93135986328125
 20
3.653179253472222
 10
-6.93135986328125
 20
2.761416286892361
 10
-6.93135986328125
 20
1.487936740451389
 10
-6.517259385850694
 20
1.106736924913194
 10
-5.881294759114583
 20
1.106736924913194
 10
-5.235167100694444
 20
1.106736924913194
 10
-4.831229654947916
 20
1.482424587673611
 10
-4.831229654947916
 20
2.761416286892361
 97
        0
 92
        1
 93
        1
 72
     4
 94
        3
 73
     0
 74
     0
 95
       17
 96
       13
 40
0.0
 40
0.0
 40
0.0
 40
0.0
 40
1.0
 40
1.0
 40
1.0
 40
2.0
 40
2.0
 40
2.0
 40
3.0
 40
3.0
 40
3.0
 40
4.0
 40
4.0
 40
4.0
 40
4.0
 10
-5.261177571614583
 20
2.628952365451389
 10
-5.261177571614583
 20
1.933559841579861
 10
-5.383133951822916
 20
1.461237250434028
 10
-5.881294759114583
 20
1.461237250434028
 10
-6.36894802517361
 20
1.461237250434028
 10
-6.501411946614582
 20
1.933559841579861
 10
-6.501411946614582
 20
2.628952365451389
 10
-6.501411946614582
 20
3.520198567708333
 10
-6.310898166232638
 20
3.860057237413194
 10
-5.881294759114583
 20
3.860057237413194
 10
-5.441356065538194
 20
3.860057237413194
 10
-5.261177571614583
 20
3.520198567708333
 10
-5.261177571614583
 20
2.628952365451389
 97
        0
 75
     0
 76
     1
 98
        1
 10
0.0
 20
0.0
  0
HATCH
  5
58
330
43
100
AcDbEntity
  8
LAYER_1
 62
     7
100
AcDbHatch
 10
0.0
 20
0.0
 30
0.0
210
0.0
220
0.0
230
1.0
  2
SOLID
 70
     1
 71
     0
 91
        1
 92
        1
 93
        1
 72
     4
 94
        3
 73
     0
 74
     0
 95
       47
 96
       43
 40
0.0
 40
0.0
 40
0.0
 40
0.0
 40
1.0
 40
1.0
 40
1.0
 40
2.0
 40
2.0
 40
2.0
 40
3.0
 40
3.0
 40
3.0
 40
4.0
 40
4.0
 40
4.0
 40
5.0
 40
5.0
 40
5.0
 40
6.0
 40
6.0
 40
6.0
 40
7.0
 40
7.0
 40
7.0
 40
8.0
 40
8.0
 40
8.0
 40
9.0
 40
9.0
 40
9.0
 40
10.0
 40
10.0
 40
10.0
 40
11.0
 40
11.0
 40
11.0
 40
12.0
 40
12.0
 40
12.0
 40
13.0
 40
13.0
 40
13.0
 40
14.0
 40
14.0
 40
14.0
 40
14.0
 10
-3.767728678385416
 20
3.812342664930555
 10
-3.767728678385416
 20
3.812342664930555
 10
-3.757221137152778
 20
3.812342664930555
 10
-3.757221137152778
 20
3.812342664930555
 10
-3.555855305989583
 20
4.066590711805556
 10
-3.338814290364583
 20
4.214557562934028
 10
-3.021176486545139
 20
4.214557562934028
 10
-2.580893283420139
 20
4.214557562934028
 10
-2.293744574652778
 20
3.981841362847222
 10
-2.293744574652778
 20
3.462320963541667
 10
-2.293744574652778
 20
3.462320963541667
 10
-2.293744574652778
 20
1.188902452256944
 10
-2.293744574652778
 20
1.188902452256944
 10
-2.293744574652778
 20
1.188902452256944
 10
-2.713873969184028
 20
1.188902452256944
 10
-2.713873969184028
 20
1.188902452256944
 10
-2.713873969184028
 20
1.188902452256944
 10
-2.713873969184028
 20
3.345876736111111
 10
-2.713873969184028
 20
3.345876736111111
 10
-2.713873969184028
 20
3.653351508246527
 10
-2.814643012152778
 20
3.860057237413194
 10
-3.153468153211805
 20
3.860057237413194
 10
-3.307119411892361
 20
3.860057237413194
 10
-3.455430772569444
 20
3.801662868923611
 10
-3.566535101996527
 20
3.695726182725694
 10
-3.736033799913194
 20
3.541902669270833
 10
-3.757221137152778
 20
3.372403971354166
 10
-3.757221137152778
 20
3.158291286892361
 10
-3.757221137152778
 20
3.158291286892361
 10
-3.757221137152778
 20
1.188902452256944
 10
-3.757221137152778
 20
1.188902452256944
 10
-3.757221137152778
 20
1.188902452256944
 10
-4.177350531684027
 20
1.188902452256944
 10
-4.177350531684027
 20
1.188902452256944
 10
-4.177350531684027
 20
1.188902452256944
 10
-4.177350531684027
 20
4.132392035590278
 10
-4.177350531684027
 20
4.132392035590278
 10
-4.177350531684027
 20
4.132392035590278
 10
-3.767728678385416
 20
4.132392035590278
 10
-3.767728678385416
 20
4.132392035590278
 10
-3.767728678385416
 20
4.132392035590278
 10
-3.767728678385416
 20
3.812342664930555
 10
-3.767728678385416
 20
3.812342664930555
 97
        0
 75
     0
 76
     1
 98
        1
 10
0.0
 20
0.0
  0
HATCH
  5
57
330
43
100
AcDbEntity
  8
LAYER_1
 62
     7
100
AcDbHatch
 10
0.0
 20
0.0
 30
0.0
210
0.0
220
0.0
230
1.0
  2
SOLID
 70
     1
 71
     0
 91
        2
 92
       16
 93
        1
 72
     4
 94
        3
 73
     0
 74
     0
 95
       50
 96
       46
 40
0.0
 40
0.0
 40
0.0
 40
0.0
 40
1.0
 40
1.0
 40
1.0
 40
2.0
 40
2.0
 40
2.0
 40
3.0
 40
3.0
 40
3.0
 40
4.0
 40
4.0
 40
4.0
 40
5.0
 40
5.0
 40
5.0
 40
6.0
 40
6.0
 40
6.0
 40
7.0
 40
7.0
 40
7.0
 40
8.0
 40
8.0
 40
8.0
 40
9.0
 40
9.0
 40
9.0
 40
10.0
 40
10.0
 40
10.0
 40
11.0
 40
11.0
 40
11.0
 40
12.0
 40
12.0
 40
12.0
 40
13.0
 40
13.0
 40
13.0
 40
14.0
 40
14.0
 40
14.0
 40
15.0
 40
15.0
 40
15.0
 40
15.0
 10
-0.0763088650173611
 20
3.801662868923611
 10
-0.0763088650173611
 20
3.801662868923611
 10
-0.0869886610243056
 20
3.801662868923611
 10
-0.0869886610243056
 20
3.801662868923611
 10
-0.2299601236979167
 20
4.08226589626736
 10
-0.4738728841145833
 20
4.214557562934028
 10
-0.7444851345486111
 20
4.214557562934028
 10
-1.52083740234375
 20
4.214557562934028
 10
-1.67276611328125
 20
3.302813042534722
 10
-1.67276611328125
 20
2.681834581163194
 10
-1.67276611328125
 20
1.493104383680555
 10
-1.290188259548611
 20
1.106736924913194
 10
-0.7339775933159721
 20
1.106736924913194
 10
-0.4633653428819444
 20
1.106736924913194
 10
-0.2723347981770833
 20
1.228521050347222
 10
-0.0974962022569444
 20
1.530311414930555
 10
-0.0974962022569444
 20
1.530311414930555
 10
-0.0869886610243056
 20
1.530311414930555
 10
-0.0869886610243056
 20
1.530311414930555
 10
-0.0923285590277778
 20
1.207161458333333
 10
-0.0230821397569444
 20
0.5434638129340277
 10
-0.7021104600694443
 20
0.5434638129340277
 10
-0.95653076171875
 20
0.5434638129340277
 10
-1.126373969184028
 20
0.6435438368055555
 10
-1.163236490885417
 20
0.9067491319444444
 10
-1.163236490885417
 20
0.9067491319444444
 10
-1.568035210503472
 20
0.9067491319444444
 10
-1.568035210503472
 20
0.9067491319444444
 10
-1.510329861111111
 20
0.4060045030381944
 10
-1.163236490885417
 20
0.1889634874131944
 10
-0.6916029188368055
 20
0.1889634874131944
 10
-0.3681084526909722
 20
0.1889634874131944
 10
-0.0656290690104167
 20
0.3055799696180555
 10
0.1204060872395833
 20
0.5961737738715277
 10
0.3171210394965278
 20
0.9067491319444444
 10
0.3438205295138889
 20
1.180978732638889
 10
0.3438205295138889
 20
1.540818956163194
 10
0.3438205295138889
 20
1.540818956163194
 10
0.3438205295138889
 20
4.132392035590278
 10
0.3438205295138889
 20
4.132392035590278
 10
0.3438205295138889
 20
4.132392035590278
 10
-0.0763088650173611
 20
4.132392035590278
 10
-0.0763088650173611
 20
4.132392035590278
 10
-0.0763088650173611
 20
4.132392035590278
 10
-0.0763088650173611
 20
3.801662868923611
 10
-0.0763088650173611
 20
3.801662868923611
 97
        0
 92
        1
 93
        1
 72
     4
 94
        3
 73
     0
 74
     0
 95
       17
 96
       13
 40
0.0
 40
0.0
 40
0.0
 40
0.0
 40
1.0
 40
1.0
 40
1.0
 40
2.0
 40
2.0
 40
2.0
 40
3.0
 40
3.0
 40
3.0
 40
4.0
 40
4.0
 40
4.0
 40
4.0
 10
-0.6649034288194444
 20
3.860057237413194
 10
-0.1982652452256944
 20
3.860057237413194
 10
-0.0763088650173611
 20
3.308152940538194
 10
-0.0763088650173611
 20
2.724209255642361
 10
-0.0763088650173611
 20
2.251886664496527
 10
-0.0711412217881944
 20
1.461237250434028
 10
-0.7072781032986111
 20
1.461237250434028
 10
-1.12086181640625
 20
1.461237250434028
 10
-1.242818196614583
 20
1.938899739583333
 10
-1.242818196614583
 20
2.660647243923611
 10
-1.242818196614583
 20
3.058555772569444
 10
-1.221803114149306
 20
3.860057237413194
 10
-0.6649034288194444
 20
3.860057237413194
 97
        0
 75
     0
 76
     1
 98
        1
 10
0.0
 20
0.0
  0
HATCH
  5
56
330
43
100
AcDbEntity
  8
LAYER_1
 62
     7
100
AcDbHatch
 10
0.0
 20
0.0
 30
0.0
210
0.0
220
0.0
230
1.0
  2
SOLID
 70
     1
 71
     0
 91
        1
 92
        1
 93
        1
 72
     4
 94
        3
 73
     0
 74
     0
 95
       17
 96
       13
 40
0.0
 40
0.0
 40
0.0
 40
0.0
 40
1.0
 40
1.0
 40
1.0
 40
2.0
 40
2.0
 40
2.0
 40
3.0
 40
3.0
 40
3.0
 40
4.0
 40
4.0
 40
4.0
 40
4.0
 10
0.9737562391493054
 20
2.644110785590278
 10
0.9737562391493054
 20
2.644110785590278
 10
0.9737562391493054
 20
3.082326931423611
 10
0.9737562391493054
 20
3.082326931423611
 10
0.9737562391493054
 20
3.082326931423611
 10
2.262049696180555
 20
3.082326931423611
 10
2.262049696180555
 20
3.082326931423611
 10
2.262049696180555
 20
3.082326931423611
 10
2.262049696180555
 20
2.644110785590278
 10
2.262049696180555
 20
2.644110785590278
 10
2.262049696180555
 20
2.644110785590278
 10
0.9737562391493054
 20
2.644110785590278
 10
0.9737562391493054
 20
2.644110785590278
 97
        0
 75
     0
 76
     1
 98
        1
 10
0.0
 20
0.0
  0
HATCH
  5
55
330
43
100
AcDbEntity
  8
LAYER_1
 62
     7
100
AcDbHatch
 10
0.0
 20
0.0
 30
0.0
210
0.0
220
0.0
230
1.0
  2
SOLID
 70
     1
 71
     0
 91
        2
 92
       16
 93
        1
 72
     4
 94
        3
 73
     0
 74
     0
 95
       20
 96
       16
 40
0.0
 40
0.0
 40
0.0
 40
0.0
 40
1.0
 40
1.0
 40
1.0
 40
2.0
 40
2.0
 40
2.0
 40
3.0
 40
3.0
 40
3.0
 40
4.0
 40
4.0
 40
4.0
 40
5.0
 40
5.0
 40
5.0
 40
5.0
 10
4.101730685763888
 20
1.188902452256944
 10
5.175394694010416
 20
1.188902452256944
 10
5.365736219618055
 20
2.204861111111111
 10
5.397603352864583
 20
3.173277452256944
 10
5.429298231336805
 20
4.152373589409722
 10
5.26014404296875
 20
5.157652452256944
 10
4.022148980034721
 20
5.157652452256944
 10
4.022148980034721
 20
5.157652452256944
 10
2.933671061197916
 20
5.157652452256944
 10
2.933671061197916
 20
5.157652452256944
 10
2.933671061197916
 20
5.157652452256944
 10
2.933671061197916
 20
1.188902452256944
 10
2.933671061197916
 20
1.188902452256944
 10
2.933671061197916
 20
1.188902452256944
 10
4.101730685763888
 20
1.188902452256944
 10
4.101730685763888
 20
1.188902452256944
 97
        0
 92
        1
 93
        1
 72
     4
 94
        3
 73
     0
 74
     0
 95
       20
 96
       16
 40
0.0
 40
0.0
 40
0.0
 40
0.0
 40
1.0
 40
1.0
 40
1.0
 40
2.0
 40
2.0
 40
2.0
 40
3.0
 40
3.0
 40
3.0
 40
4.0
 40
4.0
 40
4.0
 40
5.0
 40
5.0
 40
5.0
 40
5.0
 10
3.371542697482639
 20
4.760777452256944
 10
3.371542697482639
 20
4.760777452256944
 10
4.075031195746528
 20
4.760777452256944
 10
4.075031195746528
 20
4.760777452256944
 10
4.783859592013888
 20
4.760777452256944
 10
4.910983615451388
 20
4.157713487413195
 10
4.942850748697916
 20
3.2525146484375
 10
4.984880913628472
 20
2.067401801215278
 10
4.72064208984375
 20
1.585777452256944
 10
4.075031195746528
 20
1.585777452256944
 10
4.075031195746528
 20
1.585777452256944
 10
3.371542697482639
 20
1.585777452256944
 10
3.371542697482639
 20
1.585777452256944
 10
3.371542697482639
 20
1.585777452256944
 10
3.371542697482639
 20
4.760777452256944
 10
3.371542697482639
 20
4.760777452256944
 97
        0
 75
     0
 76
     1
 98
        1
 10
0.0
 20
0.0
  0
HATCH
  5
54
330
43
100
AcDbEntity
  8
LAYER_1
 62
     7
100
AcDbHatch
 10
0.0
 20
0.0
 30
0.0
210
0.0
220
0.0
230
1.0
  2
SOLID
 70
     1
 71
     0
 91
        1
 92
        1
 93
        1
 72
     4
 94
        3
 73
     0
 74
     0
 95
       32
 96
       28
 40
0.0
 40
0.0
 40
0.0
 40
0.0
 40
1.0
 40
1.0
 40
1.0
 40
2.0
 40
2.0
 40
2.0
 40
3.0
 40
3.0
 40
3.0
 40
4.0
 40
4.0
 40
4.0
 40
5.0
 40
5.0
 40
5.0
 40
6.0
 40
6.0
 40
6.0
 40
7.0
 40
7.0
 40
7.0
 40
8.0
 40
8.0
 40
8.0
 40
9.0
 40
9.0
 40
9.0
 40
9.0
 10
6.563423665364582
 20
3.652145724826389
 10
6.563423665364582
 20
3.652145724826389
 10
6.573931206597222
 20
3.652145724826389
 10
6.573931206597222
 20
3.652145724826389
 10
6.748597547743055
 20
4.038685438368055
 10
6.997505696614582
 20
4.202671983506944
 10
7.436410861545138
 20
4.165464952256945
 10
7.436410861545138
 20
4.165464952256945
 10
7.436410861545138
 20
3.752570258246527
 10
7.436410861545138
 20
3.752570258246527
 10
6.896564398871528
 20
3.8478271484375
 10
6.579271104600694
 20
3.508829752604167
 10
6.579271104600694
 20
2.974150933159722
 10
6.579271104600694
 20
2.974150933159722
 10
6.579271104600694
 20
1.188902452256944
 10
6.579271104600694
 20
1.188902452256944
 10
6.579271104600694
 20
1.188902452256944
 10
6.15931396484375
 20
1.188902452256944
 10
6.15931396484375
 20
1.188902452256944
 10
6.15931396484375
 20
1.188902452256944
 10
6.15931396484375
 20
4.132392035590278
 10
6.15931396484375
 20
4.132392035590278
 10
6.15931396484375
 20
4.132392035590278
 10
6.563423665364582
 20
4.132392035590278
 10
6.563423665364582
 20
4.132392035590278
 10
6.563423665364582
 20
4.132392035590278
 10
6.563423665364582
 20
3.652145724826389
 10
6.563423665364582
 20
3.652145724826389
 97
        0
 75
     0
 76
     1
 98
        1
 10
0.0
 20
0.0
  0
HATCH
  5
53
330
43
100
AcDbEntity
  8
LAYER_1
 62
     7
100
AcDbHatch
 10
0.0
 20
0.0
 30
0.0
210
0.0
220
0.0
230
1.0
  2
SOLID
 70
     1
 71
     0
 91
        2
 92
        1
 93
        1
 72
     4
 94
        3
 73
     0
 74
     0
 95
       17
 96
       13
 40
0.0
 40
0.0
 40
0.0
 40
0.0
 40
1.0
 40
1.0
 40
1.0
 40
2.0
 40
2.0
 40
2.0
 40
3.0
 40
3.0
 40
3.0
 40
4.0
 40
4.0
 40
4.0
 40
4.0
 10
7.871526421440971
 20
4.628485785590278
 10
7.871526421440971
 20
4.628485785590278
 10
7.871526421440971
 20
5.157652452256944
 10
7.871526421440971
 20
5.157652452256944
 10
7.871526421440971
 20
5.157652452256944
 10
8.291655815972222
 20
5.157652452256944
 10
8.291655815972222
 20
5.157652452256944
 10
8.291655815972222
 20
5.157652452256944
 10
8.291655815972222
 20
4.628485785590278
 10
8.291655815972222
 20
4.628485785590278
 10
8.291655815972222
 20
4.628485785590278
 10
7.871526421440971
 20
4.628485785590278
 10
7.871526421440971
 20
4.628485785590278
 97
        0
 92
        1
 93
        1
 72
     4
 94
        3
 73
     0
 74
     0
 95
       17
 96
       13
 40
0.0
 40
0.0
 40
0.0
 40
0.0
 40
1.0
 40
1.0
 40
1.0
 40
2.0
 40
2.0
 40
2.0
 40
3.0
 40
3.0
 40
3.0
 40
4.0
 40
4.0
 40
4.0
 40
4.0
 10
7.871526421440971
 20
1.188902452256944
 10
7.871526421440971
 20
1.188902452256944
 10
7.871526421440971
 20
4.132392035590278
 10
7.871526421440971
 20
4.132392035590278
 10
7.871526421440971
 20
4.132392035590278
 10
8.291655815972222
 20
4.132392035590278
 10
8.291655815972222
 20
4.132392035590278
 10
8.291655815972222
 20
4.132392035590278
 10
8.291655815972222
 20
1.188902452256944
 10
8.291655815972222
 20
1.188902452256944
 10
8.291655815972222
 20
1.188902452256944
 10
7.871526421440971
 20
1.188902452256944
 10
7.871526421440971
 20
1.188902452256944
 97
        0
 75
     0
 76
     1
 98
        1
 10
0.0
 20
0.0
  0
HATCH
  5
52
330
43
100
AcDbEntity
  8
LAYER_1
 62
     7
100
AcDbHatch
 10
0.0
 20
0.0
 30
0.0
210
0.0
220
0.0
230
1.0
  2
SOLID
 70
     1
 71
     0
 91
        1
 92
        1
 93
        1
 72
     4
 94
        3
 73
     0
 74
     0
 95
       29
 96
       25
 40
0.0
 40
0.0
 40
0.0
 40
0.0
 40
1.0
 40
1.0
 40
1.0
 40
2.0
 40
2.0
 40
2.0
 40
3.0
 40
3.0
 40
3.0
 40
4.0
 40
4.0
 40
4.0
 40
5.0
 40
5.0
 40
5.0
 40
6.0
 40
6.0
 40
6.0
 40
7.0
 40
7.0
 40
7.0
 40
8.0
 40
8.0
 40
8.0
 40
8.0
 10
8.732111273871528
 20
4.132392035590278
 10
8.732111273871528
 20
4.132392035590278
 10
9.166537814670138
 20
4.132392035590278
 10
9.166537814670138
 20
4.132392035590278
 10
9.166537814670138
 20
4.132392035590278
 10
9.83385281032986
 20
1.543919542100694
 10
9.83385281032986
 20
1.543919542100694
 10
9.83385281032986
 20
1.543919542100694
 10
9.844532606336804
 20
1.543919542100694
 10
9.844532606336804
 20
1.543919542100694
 10
9.844532606336804
 20
1.543919542100694
 10
10.51184760199653
 20
4.132392035590278
 10
10.51184760199653
 20
4.132392035590278
 10
10.51184760199653
 20
4.132392035590278
 10
10.94661865234375
 20
4.132392035590278
 10
10.94661865234375
 20
4.132392035590278
 10
10.94661865234375
 20
4.132392035590278
 10
10.06191813151042
 20
1.188902452256944
 10
10.06191813151042
 20
1.188902452256944
 10
10.06191813151042
 20
1.188902452256944
 10
9.606131998697915
 20
1.188902452256944
 10
9.606131998697915
 20
1.188902452256944
 10
9.606131998697915
 20
1.188902452256944
 10
8.732111273871528
 20
4.132392035590278
 10
8.732111273871528
 20
4.132392035590278
 97
        0
 75
     0
 76
     1
 98
        1
 10
0.0
 20
0.0
  0
HATCH
  5
51
330
43
100
AcDbEntity
  8
LAYER_1
 62
     7
100
AcDbHatch
 10
0.0
 20
0.0
 30
0.0
210
0.0
220
0.0
230
1.0
  2
SOLID
 70
     1
 71
     0
 91
        2
 92
       16
 93
        1
 72
     4
 94
        3
 73
     0
 74
     0
 95
       29
 96
       25
 40
0.0
 40
0.0
 40
0.0
 40
0.0
 40
1.0
 40
1.0
 40
1.0
 40
2.0
 40
2.0
 40
2.0
 40
3.0
 40
3.0
 40
3.0
 40
4.0
 40
4.0
 40
4.0
 40
5.0
 40
5.0
 40
5.0
 40
6.0
 40
6.0
 40
6.0
 40
7.0
 40
7.0
 40
7.0
 40
8.0
 40
8.0
 40
8.0
 40
8.0
 10
12.69293755425347
 20
2.165070258246528
 10
12.71929253472222
 20
1.831757269965278
 10
12.60818820529514
 20
1.461237250434028
 10
12.20562879774306
 20
1.461237250434028
 10
11.61841227213542
 20
1.461237250434028
 10
11.68679741753472
 20
2.2231201171875
 10
11.67594536675347
 20
2.6199951171875
 10
11.67594536675347
 20
2.6199951171875
 10
13.10669352213542
 20
2.6199951171875
 10
13.10669352213542
 20
2.6199951171875
 10
13.08533393012153
 20
3.311770290798611
 10
13.13804389105903
 20
4.214557562934028
 10
12.18702528211805
 20
4.214557562934028
 10
11.40877821180555
 20
4.214557562934028
 10
11.2459974500868
 20
3.285243055555555
 10
11.2459974500868
 20
2.662714301215277
 10
11.2459974500868
 20
1.477256944444444
 10
11.63925509982639
 20
1.106736924913194
 10
12.19753282335069
 20
1.106736924913194
 10
12.81386040581597
 20
1.106736924913194
 10
13.10807156032986
 20
1.588361273871528
 10
13.08154432508681
 20
2.165070258246528
 10
13.08154432508681
 20
2.165070258246528
 10
12.69293755425347
 20
2.165070258246528
 10
12.69293755425347
 20
2.165070258246528
 97
        0
 92
        1
 93
        1
 72
     4
 94
        3
 73
     0
 74
     0
 95
       14
 96
       10
 40
0.0
 40
0.0
 40
0.0
 40
0.0
 40
1.0
 40
1.0
 40
1.0
 40
2.0
 40
2.0
 40
2.0
 40
3.0
 40
3.0
 40
3.0
 40
3.0
 10
11.67594536675347
 20
2.965882703993055
 10
11.69196506076389
 20
3.317282443576389
 10
11.70247260199653
 20
3.860057237413194
 10
12.19219292534722
 20
3.860057237413194
 10
12.68191324869792
 20
3.860057237413194
 10
12.66055365668403
 20
3.311770290798611
 10
12.67674560546875
 20
2.965882703993055
 10
12.67674560546875
 20
2.965882703993055
 10
11.67594536675347
 20
2.965882703993055
 10
11.67594536675347
 20
2.965882703993055
 97
        0
 75
     0
 76
     1
 98
        1
 10
0.0
 20
0.0
  0
HATCH
  5
50
330
43
100
AcDbEntity
  8
LAYER_1
 62
     7
100
AcDbHatch
 10
0.0
 20
0.0
 30
0.0
210
0.0
220
0.0
230
1.0
  2
SOLID
 70
     1
 71
     0
 91
        1
 92
        1
 93
        1
 72
     4
 94
        3
 73
     0
 74
     0
 95
       56
 96
       52
 40
0.0
 40
0.0
 40
0.0
 40
0.0
 40
1.0
 40
1.0
 40
1.0
 40
2.0
 40
2.0
 40
2.0
 40
3.0
 40
3.0
 40
3.0
 40
4.0
 40
4.0
 40
4.0
 40
5.0
 40
5.0
 40
5.0
 40
6.0
 40
6.0
 40
6.0
 40
7.0
 40
7.0
 40
7.0
 40
8.0
 40
8.0
 40
8.0
 40
9.0
 40
9.0
 40
9.0
 40
10.0
 40
10.0
 40
10.0
 40
11.0
 40
11.0
 40
11.0
 40
12.0
 40
12.0
 40
12.0
 40
13.0
 40
13.0
 40
13.0
 40
14.0
 40
14.0
 40
14.0
 40
15.0
 40
15.0
 40
15.0
 40
16.0
 40
16.0
 40
16.0
 40
17.0
 40
17.0
 40
17.0
 40
17.0
 10
-11.26287841796875
 20
-1.173055013020833
 10
-11.23118353949653
 20
-0.7603325737847222
 10
-11.45373670789931
 20
-0.4482069227430555
 10
-11.89315863715278
 20
-0.4482069227430555
 10
-12.53377414279514
 20
-0.4482069227430555
 10
-12.60233154296875
 20
-0.8502495659722221
 10
-12.60233154296875
 20
-1.157207573784722
 10
-12.60233154296875
 20
-1.432126193576389
 10
-12.48071967230903
 20
-1.601280381944444
 10
-12.22647162543403
 20
-1.696709526909722
 10
-12.0149427625868
 20
-1.775946723090278
 10
-11.80840928819444
 20
-1.855356174045139
 10
-11.59670817057292
 20
-1.934765625
 10
-10.84636637369792
 20
-2.215024142795139
 10
-10.70890706380208
 20
-2.479607476128472
 10
-10.70890706380208
 20
-3.003434244791666
 10
-10.70890706380208
 20
-3.754465060763889
 10
-11.17985161675347
 20
-4.193714735243055
 10
-11.93983968098958
 20
-4.193714735243055
 10
-12.33051350911458
 20
-4.193714735243055
 10
-12.79542914496528
 20
-4.082610405815972
 10
-13.02228868272569
 20
-3.563951280381944
 10
-13.10669352213542
 20
-3.368442111545138
 10
-13.10152587890625
 20
-3.0509765625
 10
-13.10669352213542
 20
-2.839275444878472
 10
-13.10669352213542
 20
-2.839275444878472
 10
-12.66847737630208
 20
-2.839275444878472
 10
-12.66847737630208
 20
-2.839275444878472
 10
-12.68983696831597
 20
-3.426491970486111
 10
-12.57890489366319
 20
-3.796839735243055
 10
-11.91899685329861
 20
-3.796839735243055
 10
-11.47544080946181
 20
-3.796839735243055
 10
-11.16365966796875
 20
-3.569463433159722
 10
-11.16365966796875
 20
-3.103858778211805
 10
-11.16365966796875
 20
-2.500794813368056
 10
-11.40653889973958
 20
-2.495282660590278
 10
-11.80840928819444
 20
-2.342148166232639
 10
-12.02545030381944
 20
-2.257398817274305
 10
-12.37478298611111
 20
-2.146294487847222
 10
-12.58665635850694
 20
-2.035190158420139
 10
-12.96199951171875
 20
-1.8448486328125
 10
-13.05708414713542
 20
-1.527555338541667
 10
-13.05708414713542
 20
-1.136020236545139
 10
-13.05708414713542
 20
-0.4799018012152778
 10
-12.59716389973958
 20
-0.0513319227430556
 10
-11.95120849609375
 20
-0.0513319227430556
 10
-11.22601589626736
 20
-0.0513319227430556
 10
-10.78228759765625
 20
-0.4270195855034722
 10
-10.82466227213542
 20
-1.173055013020833
 10
-10.82466227213542
 20
-1.173055013020833
 10
-11.26287841796875
 20
-1.173055013020833
 10
-11.26287841796875
 20
-1.173055013020833
 97
        0
 75
     0
 76
     1
 98
        1
 10
0.0
 20
0.0
  0
HATCH
  5
4F
330
43
100
AcDbEntity
  8
LAYER_1
 62
     7
100
AcDbHatch
 10
0.0
 20
0.0
 30
0.0
210
0.0
220
0.0
230
1.0
  2
SOLID
 70
     1
 71
     0
 91
        1
 92
        1
 93
        1
 72
     4
 94
        3
 73
     0
 74
     0
 95
       35
 96
       31
 40
0.0
 40
0.0
 40
0.0
 40
0.0
 40
1.0
 40
1.0
 40
1.0
 40
2.0
 40
2.0
 40
2.0
 40
3.0
 40
3.0
 40
3.0
 40
4.0
 40
4.0
 40
4.0
 40
5.0
 40
5.0
 40
5.0
 40
6.0
 40
6.0
 40
6.0
 40
7.0
 40
7.0
 40
7.0
 40
8.0
 40
8.0
 40
8.0
 40
9.0
 40
9.0
 40
9.0
 40
10.0
 40
10.0
 40
10.0
 40
10.0
 10
-9.775975206163194
 20
-2.758487955729167
 10
-9.775975206163194
 20
-3.145716688368055
 10
-9.749620225694443
 20
-3.830429416232639
 10
-9.213218858506943
 20
-3.830429416232639
 10
-8.756571451822916
 20
-3.830429416232639
 10
-8.71419677734375
 20
-3.437688530815972
 10
-8.692837185329861
 20
-3.076814778645833
 10
-8.692837185329861
 20
-3.076814778645833
 10
-8.295962185329861
 20
-3.076814778645833
 10
-8.295962185329861
 20
-3.076814778645833
 10
-8.311981879340276
 20
-3.644566514756944
 10
-8.523682996961805
 20
-4.184929741753471
 10
-9.181696234809026
 20
-4.184929741753471
 10
-10.08017713758681
 20
-4.184929741753471
 10
-10.20592312282986
 20
-3.4323486328125
 10
-10.20592312282986
 20
-2.668226453993055
 10
-10.20592312282986
 20
-1.946306694878472
 10
-10.09068467881944
 20
-1.077109103732639
 10
-9.192376030815971
 20
-1.077109103732639
 10
-8.599130588107638
 20
-1.077109103732639
 10
-8.315599229600693
 20
-1.537890625
 10
-8.320766872829861
 20
-2.084282769097222
 10
-8.320766872829861
 20
-2.084282769097222
 10
-8.709373643663193
 20
-2.084282769097222
 10
-8.709373643663193
 20
-2.084282769097222
 10
-8.714885796440971
 20
-1.760788302951389
 10
-8.799635145399305
 20
-1.431609429253472
 10
-9.197715928819443
 20
-1.431609429253472
 10
-9.807497829861111
 20
-1.431609429253472
 10
-9.775975206163194
 20
-2.339047580295139
 10
-9.775975206163194
 20
-2.758487955729167
 97
        0
 75
     0
 76
     1
 98
        1
 10
0.0
 20
0.0
  0
HATCH
  5
4E
330
43
100
AcDbEntity
  8
LAYER_1
 62
     7
100
AcDbHatch
 10
0.0
 20
0.0
 30
0.0
210
0.0
220
0.0
230
1.0
  2
SOLID
 70
     1
 71
     0
 91
        1
 92
        1
 93
        1
 72
     4
 94
        3
 73
     0
 74
     0
 95
       32
 96
       28
 40
0.0
 40
0.0
 40
0.0
 40
0.0
 40
1.0
 40
1.0
 40
1.0
 40
2.0
 40
2.0
 40
2.0
 40
3.0
 40
3.0
 40
3.0
 40
4.0
 40
4.0
 40
4.0
 40
5.0
 40
5.0
 40
5.0
 40
6.0
 40
6.0
 40
6.0
 40
7.0
 40
7.0
 40
7.0
 40
8.0
 40
8.0
 40
8.0
 40
9.0
 40
9.0
 40
9.0
 40
9.0
 10
-7.253131781684028
 20
-1.639520941840278
 10
-7.253131781684028
 20
-1.639520941840278
 10
-7.242451985677083
 20
-1.639520941840278
 10
-7.242451985677083
 20
-1.639520941840278
 10
-7.06778564453125
 20
-1.252981228298611
 10
-6.819049750434028
 20
-1.088994683159722
 10
-6.380144585503472
 20
-1.126201714409722
 10
-6.380144585503472
 20
-1.126201714409722
 10
-6.380144585503472
 20
-1.539096408420139
 10
-6.380144585503472
 20
-1.539096408420139
 10
-6.919818793402778
 20
-1.443839518229167
 10
-7.23711208767361
 20
-1.7828369140625
 10
-7.23711208767361
 20
-2.317515733506944
 10
-7.23711208767361
 20
-2.317515733506944
 10
-7.23711208767361
 20
-4.102764214409722
 10
-7.23711208767361
 20
-4.102764214409722
 10
-7.23711208767361
 20
-4.102764214409722
 10
-7.65724148220486
 20
-4.102764214409722
 10
-7.65724148220486
 20
-4.102764214409722
 10
-7.65724148220486
 20
-4.102764214409722
 10
-7.65724148220486
 20
-1.159274631076389
 10
-7.65724148220486
 20
-1.159274631076389
 10
-7.65724148220486
 20
-1.159274631076389
 10
-7.253131781684028
 20
-1.159274631076389
 10
-7.253131781684028
 20
-1.159274631076389
 10
-7.253131781684028
 20
-1.159274631076389
 10
-7.253131781684028
 20
-1.639520941840278
 10
-7.253131781684028
 20
-1.639520941840278
 97
        0
 75
     0
 76
     1
 98
        1
 10
0.0
 20
0.0
  0
HATCH
  5
4D
330
43
100
AcDbEntity
  8
LAYER_1
 62
     7
100
AcDbHatch
 10
0.0
 20
0.0
 30
0.0
210
0.0
220
0.0
230
1.0
  2
SOLID
 70
     1
 71
     0
 91
        2
 92
       16
 93
        1
 72
     4
 94
        3
 73
     0
 74
     0
 95
       29
 96
       25
 40
0.0
 40
0.0
 40
0.0
 40
0.0
 40
1.0
 40
1.0
 40
1.0
 40
2.0
 40
2.0
 40
2.0
 40
3.0
 40
3.0
 40
3.0
 40
4.0
 40
4.0
 40
4.0
 40
5.0
 40
5.0
 40
5.0
 40
6.0
 40
6.0
 40
6.0
 40
7.0
 40
7.0
 40
7.0
 40
8.0
 40
8.0
 40
8.0
 40
8.0
 10
-4.647606065538194
 20
-3.126596408420139
 10
-4.621251085069444
 20
-3.459909396701389
 10
-4.732355414496527
 20
-3.830429416232639
 10
-5.134914822048611
 20
-3.830429416232639
 10
-5.72213134765625
 20
-3.830429416232639
 10
-5.653918457031249
 20
-3.068546549479167
 10
-5.664598253038194
 20
-2.671671549479167
 10
-5.664598253038194
 20
-2.671671549479167
 10
-4.234194607204861
 20
-2.671671549479167
 10
-4.234194607204861
 20
-2.671671549479167
 10
-4.255209689670139
 20
-1.979896375868055
 10
-4.202499728732638
 20
-1.077109103732639
 10
-5.153690592447917
 20
-1.077109103732639
 10
-5.931937662760416
 20
-1.077109103732639
 10
-6.09454616970486
 20
-2.006423611111111
 10
-6.09454616970486
 20
-2.628952365451389
 10
-6.09454616970486
 20
-3.814409722222222
 10
-5.701288519965277
 20
-4.184929741753471
 10
-5.143010796440972
 20
-4.184929741753471
 10
-4.526683213975694
 20
-4.184929741753471
 10
-4.232472059461805
 20
-3.703305392795139
 10
-4.258999294704861
 20
-3.126596408420139
 10
-4.258999294704861
 20
-3.126596408420139
 10
-4.647606065538194
 20
-3.126596408420139
 10
-4.647606065538194
 20
-3.126596408420139
 97
        0
 92
        1
 93
        1
 72
     4
 94
        3
 73
     0
 74
     0
 95
       14
 96
       10
 40
0.0
 40
0.0
 40
0.0
 40
0.0
 40
1.0
 40
1.0
 40
1.0
 40
2.0
 40
2.0
 40
2.0
 40
3.0
 40
3.0
 40
3.0
 40
3.0
 10
-5.664598253038194
 20
-2.325783962673611
 10
-5.648578559027778
 20
-1.974384223090278
 10
-5.638071017795139
 20
-1.431609429253472
 10
-5.148350694444444
 20
-1.431609429253472
 10
-4.65863037109375
 20
-1.431609429253472
 10
-4.680162217881944
 20
-1.979896375868055
 10
-4.664142523871528
 20
-2.325783962673611
 10
-4.664142523871528
 20
-2.325783962673611
 10
-5.664598253038194
 20
-2.325783962673611
 10
-5.664598253038194
 20
-2.325783962673611
 97
        0
 75
     0
 76
     1
 98
        1
 10
0.0
 20
0.0
  0
HATCH
  5
4C
330
43
100
AcDbEntity
  8
LAYER_1
 62
     7
100
AcDbHatch
 10
0.0
 20
0.0
 30
0.0
210
0.0
220
0.0
230
1.0
  2
SOLID
 70
     1
 71
     0
 91
        1
 92
        1
 93
        1
 72
     4
 94
        3
 73
     0
 74
     0
 95
       53
 96
       49
 40
0.0
 40
0.0
 40
0.0
 40
0.0
 40
1.0
 40
1.0
 40
1.0
 40
2.0
 40
2.0
 40
2.0
 40
3.0
 40
3.0
 40
3.0
 40
4.0
 40
4.0
 40
4.0
 40
5.0
 40
5.0
 40
5.0
 40
6.0
 40
6.0
 40
6.0
 40
7.0
 40
7.0
 40
7.0
 40
8.0
 40
8.0
 40
8.0
 40
9.0
 40
9.0
 40
9.0
 40
10.0
 40
10.0
 40
10.0
 40
11.0
 40
11.0
 40
11.0
 40
12.0
 40
12.0
 40
12.0
 40
13.0
 40
13.0
 40
13.0
 40
14.0
 40
14.0
 40
14.0
 40
15.0
 40
15.0
 40
15.0
 40
16.0
 40
16.0
 40
16.0
 40
16.0
 10
-1.502578396267361
 20
-3.747747124565972
 10
-1.502578396267361
 20
-3.747747124565972
 10
-1.491898600260416
 20
-3.747747124565972
 10
-1.491898600260416
 20
-3.747747124565972
 10
-1.491898600260416
 20
-3.747747124565972
 10
-0.9790961371527777
 20
-1.159791395399306
 10
-0.9790961371527777
 20
-1.159791395399306
 10
-0.9790961371527777
 20
-1.159791395399306
 10
-0.5451863606770833
 20
-1.159791395399306
 10
-0.5451863606770833
 20
-1.159791395399306
 10
-0.5451863606770833
 20
-1.159791395399306
 10
-1.280369737413194
 20
-4.102247450086805
 10
-1.280369737413194
 20
-4.102247450086805
 10
-1.280369737413194
 20
-4.102247450086805
 10
-1.714107259114583
 20
-4.102247450086805
 10
-1.714107259114583
 20
-4.102247450086805
 10
-1.714107259114583
 20
-4.102247450086805
 10
-2.211234537760416
 20
-1.514291720920139
 10
-2.211234537760416
 20
-1.514291720920139
 10
-2.211234537760416
 20
-1.514291720920139
 10
-2.221914333767361
 20
-1.514291720920139
 10
-2.221914333767361
 20
-1.514291720920139
 10
-2.221914333767361
 20
-1.514291720920139
 10
-2.687346733940972
 20
-4.102247450086805
 10
-2.687346733940972
 20
-4.102247450086805
 10
-2.687346733940972
 20
-4.102247450086805
 10
-3.121084255642361
 20
-4.102247450086805
 10
-3.121084255642361
 20
-4.102247450086805
 10
-3.121084255642361
 20
-4.102247450086805
 10
-3.87728271484375
 20
-1.159274631076389
 10
-3.87728271484375
 20
-1.159274631076389
 10
-3.87728271484375
 20
-1.159274631076389
 10
-3.443545193142361
 20
-1.159274631076389
 10
-3.443545193142361
 20
-1.159274631076389
 10
-3.443545193142361
 20
-1.159274631076389
 10
-2.909555392795139
 20
-3.747747124565972
 10
-2.909555392795139
 20
-3.747747124565972
 10
-2.909555392795139
 20
-3.747747124565972
 10
-2.898875596788194
 20
-3.747747124565972
 10
-2.898875596788194
 20
-3.747747124565972
 10
-2.898875596788194
 20
-3.747747124565972
 10
-2.433443196614583
 20
-1.159274631076389
 10
-2.433443196614583
 20
-1.159274631076389
 10
-2.433443196614583
 20
-1.159274631076389
 10
-1.999705674913194
 20
-1.159274631076389
 10
-1.999705674913194
 20
-1.159274631076389
 10
-1.999705674913194
 20
-1.159274631076389
 10
-1.502578396267361
 20
-3.747747124565972
 10
-1.502578396267361
 20
-3.747747124565972
 97
        0
 75
     0
 76
     1
 98
        1
 10
0.0
 20
0.0
  0
HATCH
  5
4B
330
43
100
AcDbEntity
  8
LAYER_1
 62
     7
100
AcDbHatch
 10
0.0
 20
0.0
 30
0.0
210
0.0
220
0.0
230
1.0
  2
SOLID
 70
     1
 71
     0
 91
        1
 92
        1
 93
        1
 72
     4
 94
        3
 73
     0
 74
     0
 95
       23
 96
       19
 40
0.0
 40
0.0
 40
0.0
 40
0.0
 40
1.0
 40
1.0
 40
1.0
 40
2.0
 40
2.0
 40
2.0
 40
3.0
 40
3.0
 40
3.0
 40
4.0
 40
4.0
 40
4.0
 40
5.0
 40
5.0
 40
5.0
 40
6.0
 40
6.0
 40
6.0
 40
6.0
 10
2.382972547743055
 20
-0.1340142144097222
 10
2.144744194878472
 20
-0.6259738498263888
 10
1.726681857638889
 20
-1.313959418402778
 10
1.726681857638889
 20
-2.6634033203125
 10
1.726681857638889
 20
-3.637159559461805
 10
1.911855740017361
 20
-4.393702528211805
 10
2.409327528211805
 20
-5.240334743923611
 10
2.409327528211805
 20
-5.240334743923611
 10
2.102369520399305
 20
-5.240334743923611
 10
2.102369520399305
 20
-5.240334743923611
 10
1.62625732421875
 20
-4.462432183159722
 10
1.281747775607639
 20
-3.652834743923611
 10
1.281747775607639
 20
-2.726793077256944
 10
1.281747775607639
 20
-1.684307183159722
 10
1.562523057725694
 20
-1.012513563368056
 10
2.102369520399305
 20
-0.1340142144097222
 10
2.102369520399305
 20
-0.1340142144097222
 10
2.382972547743055
 20
-0.1340142144097222
 10
2.382972547743055
 20
-0.1340142144097222
 97
        0
 75
     0
 76
     1
 98
        1
 10
0.0
 20
0.0
  0
HATCH
  5
4A
330
43
100
AcDbEntity
  8
LAYER_1
 62
     7
100
AcDbHatch
 10
0.0
 20
0.0
 30
0.0
210
0.0
220
0.0
230
1.0
  2
SOLID
 70
     1
 71
     0
 91
        1
 92
        1
 93
        1
 72
     4
 94
        3
 73
     0
 74
     0
 95
       29
 96
       25
 40
0.0
 40
0.0
 40
0.0
 40
0.0
 40
1.0
 40
1.0
 40
1.0
 40
2.0
 40
2.0
 40
2.0
 40
3.0
 40
3.0
 40
3.0
 40
4.0
 40
4.0
 40
4.0
 40
5.0
 40
5.0
 40
5.0
 40
6.0
 40
6.0
 40
6.0
 40
7.0
 40
7.0
 40
7.0
 40
8.0
 40
8.0
 40
8.0
 40
8.0
 10
2.719386121961805
 20
-0.1340142144097222
 10
2.719386121961805
 20
-0.1340142144097222
 10
5.210706922743055
 20
-0.1340142144097222
 10
5.210706922743055
 20
-0.1340142144097222
 10
5.210706922743055
 20
-0.1340142144097222
 10
5.210706922743055
 20
-0.5308892144097221
 10
5.210706922743055
 20
-0.5308892144097221
 10
5.210706922743055
 20
-0.5308892144097221
 10
4.18424072265625
 20
-0.5308892144097221
 10
4.18424072265625
 20
-0.5308892144097221
 10
4.18424072265625
 20
-0.5308892144097221
 10
4.18424072265625
 20
-4.102764214409722
 10
4.18424072265625
 20
-4.102764214409722
 10
4.18424072265625
 20
-4.102764214409722
 10
3.746024576822916
 20
-4.102764214409722
 10
3.746024576822916
 20
-4.102764214409722
 10
3.746024576822916
 20
-4.102764214409722
 10
3.746024576822916
 20
-0.5308892144097221
 10
3.746024576822916
 20
-0.5308892144097221
 10
3.746024576822916
 20
-0.5308892144097221
 10
2.719386121961805
 20
-0.5308892144097221
 10
2.719386121961805
 20
-0.5308892144097221
 10
2.719386121961805
 20
-0.5308892144097221
 10
2.719386121961805
 20
-0.1340142144097222
 10
2.719386121961805
 20
-0.1340142144097222
 97
        0
 75
     0
 76
     1
 98
        1
 10
0.0
 20
0.0
  0
HATCH
  5
49
330
43
100
AcDbEntity
  8
LAYER_1
 62
     7
100
AcDbHatch
 10
0.0
 20
0.0
 30
0.0
210
0.0
220
0.0
230
1.0
  2
SOLID
 70
     1
 71
     0
 91
        1
 92
        1
 93
        1
 72
     4
 94
        3
 73
     0
 74
     0
 95
       44
 96
       40
 40
0.0
 40
0.0
 40
0.0
 40
0.0
 40
1.0
 40
1.0
 40
1.0
 40
2.0
 40
2.0
 40
2.0
 40
3.0
 40
3.0
 40
3.0
 40
4.0
 40
4.0
 40
4.0
 40
5.0
 40
5.0
 40
5.0
 40
6.0
 40
6.0
 40
6.0
 40
7.0
 40
7.0
 40
7.0
 40
8.0
 40
8.0
 40
8.0
 40
9.0
 40
9.0
 40
9.0
 40
10.0
 40
10.0
 40
10.0
 40
11.0
 40
11.0
 40
11.0
 40
12.0
 40
12.0
 40
12.0
 40
13.0
 40
13.0
 40
13.0
 40
13.0
 10
5.018470594618055
 20
-1.159274631076389
 10
5.018470594618055
 20
-1.159274631076389
 10
5.452380371093749
 20
-1.159274631076389
 10
5.452380371093749
 20
-1.159274631076389
 10
5.452380371093749
 20
-1.159274631076389
 10
6.113838704427083
 20
-3.712779405381944
 10
6.113838704427083
 20
-3.712779405381944
 10
6.113838704427083
 20
-3.712779405381944
 10
6.124346245659722
 20
-3.712779405381944
 10
6.124346245659722
 20
-3.712779405381944
 10
6.124346245659722
 20
-3.712779405381944
 10
6.806991916232638
 20
-1.159274631076389
 10
6.806991916232638
 20
-1.159274631076389
 10
6.806991916232638
 20
-1.159274631076389
 10
7.241073947482638
 20
-1.159274631076389
 10
7.241073947482638
 20
-1.159274631076389
 10
7.241073947482638
 20
-1.159274631076389
 10
6.367742241753471
 20
-3.972195095486111
 10
6.367742241753471
 20
-3.972195095486111
 10
6.31468777126736
 20
-4.147205946180555
 10
6.182396104600694
 20
-4.576464843749999
 10
6.097991265190972
 20
-4.724603949652777
 10
5.944512261284721
 20
-4.999867078993055
 10
5.732638888888888
 20
-5.110971408420139
 10
5.425680881076389
 20
-5.110971408420139
 10
5.325256347656249
 20
-5.110971408420139
 10
5.224659559461805
 20
-5.095296223958333
 10
5.124062771267361
 20
-5.063429090711805
 10
5.124062771267361
 20
-5.063429090711805
 10
5.124062771267361
 20
-4.692909071180555
 10
5.124062771267361
 20
-4.692909071180555
 10
5.219491916232639
 20
-4.735283745659721
 10
5.335763888888889
 20
-4.756471082899306
 10
5.436532931857639
 20
-4.756471082899306
 10
5.827895779079861
 20
-4.756471082899306
 10
5.838575575086805
 20
-4.465016004774305
 10
5.95501980251736
 20
-4.173560926649305
 10
5.95501980251736
 20
-4.173560926649305
 10
5.018470594618055
 20
-1.159274631076389
 10
5.018470594618055
 20
-1.159274631076389
 97
        0
 75
     0
 76
     1
 98
        1
 10
0.0
 20
0.0
  0
HATCH
  5
48
330
43
100
AcDbEntity
  8
LAYER_1
 62
     7
100
AcDbHatch
 10
0.0
 20
0.0
 30
0.0
210
0.0
220
0.0
230
1.0
  2
SOLID
 70
     1
 71
     0
 91
        2
 92
       16
 93
        1
 72
     4
 94
        3
 73
     0
 74
     0
 95
       38
 96
       34
 40
0.0
 40
0.0
 40
0.0
 40
0.0
 40
1.0
 40
1.0
 40
1.0
 40
2.0
 40
2.0
 40
2.0
 40
3.0
 40
3.0
 40
3.0
 40
4.0
 40
4.0
 40
4.0
 40
5.0
 40
5.0
 40
5.0
 40
6.0
 40
6.0
 40
6.0
 40
7.0
 40
7.0
 40
7.0
 40
8.0
 40
8.0
 40
8.0
 40
9.0
 40
9.0
 40
9.0
 40
10.0
 40
10.0
 40
10.0
 40
11.0
 40
11.0
 40
11.0
 40
11.0
 10
8.143344455295138
 20
-3.798562282986111
 10
8.143344455295138
 20
-3.798562282986111
 10
8.154024251302083
 20
-3.798562282986111
 10
8.154024251302083
 20
-3.798562282986111
 10
8.30216335720486
 20
-4.036962890625
 10
8.471662055121527
 20
-4.184929741753471
 10
8.768284776475694
 20
-4.184929741753471
 10
9.559967719184026
 20
-4.184929741753471
 10
9.706728786892361
 20
-3.273185221354166
 10
9.706728786892361
 20
-2.434648980034722
 10
9.706728786892361
 20
-1.829690212673611
 10
9.491754828559026
 20
-1.077109103732639
 10
8.747269694010416
 20
-1.077109103732639
 10
8.508869086371528
 20
-1.092784288194444
 10
8.270468478732639
 20
-1.209400770399306
 10
8.138176812065971
 20
-1.484836154513889
 10
8.138176812065971
 20
-1.484836154513889
 10
8.127324761284722
 20
-1.484836154513889
 10
8.127324761284722
 20
-1.484836154513889
 10
8.127324761284722
 20
-1.484836154513889
 10
8.127324761284722
 20
-1.159274631076389
 10
8.127324761284722
 20
-1.159274631076389
 10
8.127324761284722
 20
-1.159274631076389
 10
7.723215060763888
 20
-1.159274631076389
 10
7.723215060763888
 20
-1.159274631076389
 10
7.723215060763888
 20
-1.159274631076389
 10
7.723215060763888
 20
-5.100463867187499
 10
7.723215060763888
 20
-5.100463867187499
 10
7.723215060763888
 20
-5.100463867187499
 10
8.143344455295138
 20
-5.100463867187499
 10
8.143344455295138
 20
-5.100463867187499
 10
8.143344455295138
 20
-5.100463867187499
 10
8.143344455295138
 20
-3.798562282986111
 10
8.143344455295138
 20
-3.798562282986111
 97
        0
 92
        1
 93
        1
 72
     4
 94
        3
 73
     0
 74
     0
 95
       17
 96
       13
 40
0.0
 40
0.0
 40
0.0
 40
0.0
 40
1.0
 40
1.0
 40
1.0
 40
2.0
 40
2.0
 40
2.0
 40
3.0
 40
3.0
 40
3.0
 40
4.0
 40
4.0
 40
4.0
 40
4.0
 10
9.276780870225693
 20
-2.577792697482639
 10
9.276780870225693
 20
-3.374126519097222
 10
9.139149305555554
 20
-3.830429416232639
 10
8.70489501953125
 20
-3.830429416232639
 10
8.127324761284722
 20
-3.830429416232639
 10
8.143344455295138
 20
-3.034440104166666
 10
8.143344455295138
 20
-2.625507269965278
 10
8.143344455295138
 20
-2.206583658854167
 10
8.154024251302083
 20
-1.431609429253472
 10
8.699727376302082
 20
-1.431609429253472
 10
9.234406195746526
 20
-1.431609429253472
 10
9.276780870225693
 20
-2.190391710069444
 10
9.276780870225693
 20
-2.577792697482639
 97
        0
 75
     0
 76
     1
 98
        1
 10
0.0
 20
0.0
  0
HATCH
  5
47
330
43
100
AcDbEntity
  8
LAYER_1
 62
     7
100
AcDbHatch
 10
0.0
 20
0.0
 30
0.0
210
0.0
220
0.0
230
1.0
  2
SOLID
 70
     1
 71
     0
 91
        1
 92
        1
 93
        1
 72
     4
 94
        3
 73
     0
 74
     0
 95
       17
 96
       13
 40
0.0
 40
0.0
 40
0.0
 40
0.0
 40
1.0
 40
1.0
 40
1.0
 40
2.0
 40
2.0
 40
2.0
 40
3.0
 40
3.0
 40
3.0
 40
4.0
 40
4.0
 40
4.0
 40
4.0
 10
10.40952826605903
 20
-4.102764214409722
 10
10.40952826605903
 20
-4.102764214409722
 10
10.40952826605903
 20
-3.573597547743055
 10
10.40952826605903
 20
-3.573597547743055
 10
10.40952826605903
 20
-3.573597547743055
 10
10.88908555772569
 20
-3.573597547743055
 10
10.88908555772569
 20
-3.573597547743055
 10
10.88908555772569
 20
-3.573597547743055
 10
10.88908555772569
 20
-4.102764214409722
 10
10.88908555772569
 20
-4.102764214409722
 10
10.88908555772569
 20
-4.102764214409722
 10
10.40952826605903
 20
-4.102764214409722
 10
10.40952826605903
 20
-4.102764214409722
 97
        0
 75
     0
 76
     1
 98
        1
 10
0.0
 20
0.0
  0
HATCH
  5
46
330
43
100
AcDbEntity
  8
LAYER_1
 62
     7
100
AcDbHatch
 10
0.0
 20
0.0
 30
0.0
210
0.0
220
0.0
230
1.0
  2
SOLID
 70
     1
 71
     0
 91
        1
 92
        1
 93
        1
 72
     4
 94
        3
 73
     0
 74
     0
 95
       23
 96
       19
 40
0.0
 40
0.0
 40
0.0
 40
0.0
 40
1.0
 40
1.0
 40
1.0
 40
2.0
 40
2.0
 40
2.0
 40
3.0
 40
3.0
 40
3.0
 40
4.0
 40
4.0
 40
4.0
 40
5.0
 40
5.0
 40
5.0
 40
6.0
 40
6.0
 40
6.0
 40
6.0
 10
11.57328152126736
 20
-5.240334743923611
 10
11.81133761935764
 20
-4.748202853732638
 10
12.22939995659722
 20
-4.060389539930555
 10
12.22939995659722
 20
-2.711117892795139
 10
12.22939995659722
 20
-1.737361653645833
 10
12.04439832899305
 20
-0.9808186848958332
 10
11.54675428602431
 20
-0.1340142144097222
 10
11.54675428602431
 20
-0.1340142144097222
 10
11.85371229383681
 20
-0.1340142144097222
 10
11.85371229383681
 20
-0.1340142144097222
 10
12.33016899956597
 20
-0.9117445203993054
 10
12.67433403862847
 20
-1.721514214409722
 10
12.67433403862847
 20
-2.647555881076389
 10
12.67433403862847
 20
-3.689869520399305
 10
12.39373101128472
 20
-4.361835394965278
 10
11.85371229383681
 20
-5.240334743923611
 10
11.85371229383681
 20
-5.240334743923611
 10
11.57328152126736
 20
-5.240334743923611
 10
11.57328152126736
 20
-5.240334743923611
 97
        0
 75
     0
 76
     1
 98
        1
 10
0.0
 20
0.0
  0
ENDBLK
  5
5D
330
43
100
AcDbEntity
  8
LAYER_1
100
AcDbBlockEnd
  0
BLOCK
  5
60
330
5E
100
AcDbEntity
  8
LAYER_1
 62
     7
100
AcDbBlockBegin
  2
AI9-BLK4
 70
     0
 10
0.0
 20
0.0
 30
0.0
  3
AI9-BLK4
  1

  4

  0
INSERT
  5
62
330
5E
100
AcDbEntity
  8
LAYER_1
 62
     7
100
AcDbBlockReference
  2
AI9-BLK5
 10
0.0
 20
0.0
 30
0.0
  0
ENDBLK
  5
67
330
5E
100
AcDbEntity
  8
LAYER_1
100
AcDbBlockEnd
  0
BLOCK
  5
63
330
61
100
AcDbEntity
  8
LAYER_1
 62
     7
100
AcDbBlockBegin
  2
AI9-BLK5
 70
     0
 10
0.0
 20
0.0
 30
0.0
  3
AI9-BLK5
  1

  4

  0
LINE
  5
65
330
61
100
AcDbEntity
  8
LAYER_1
 62
     7
100
AcDbLine
 10
-26.34137234157986
 20
-0.0001722547743056
 30
0.0
 11
27.52252332899305
 21
-0.0001722547743056
 31
0.0
  0
HATCH
  5
64
330
61
100
AcDbEntity
  8
LAYER_1
 62
     7
100
AcDbHatch
 10
0.0
 20
0.0
 30
0.0
210
0.0
220
0.0
230
1.0
  2
SOLID
 70
     1
 71
     0
 91
        1
 92
        1
 93
        1
 72
     4
 94
        3
 73
     0
 74
     0
 95
       29
 96
       25
 40
0.0
 40
0.0
 40
0.0
 40
0.0
 40
1.0
 40
1.0
 40
1.0
 40
2.0
 40
2.0
 40
2.0
 40
3.0
 40
3.0
 40
3.0
 40
4.0
 40
4.0
 40
4.0
 40
5.0
 40
5.0
 40
5.0
 40
6.0
 40
6.0
 40
6.0
 40
7.0
 40
7.0
 40
7.0
 40
8.0
 40
8.0
 40
8.0
 40
8.0
 10
-26.20649685329861
 20
-0.0001722547743056
 10
-26.20649685329861
 20
-0.0001722547743056
 10
-25.91659206814236
 20
-0.4768012152777778
 10
-25.91659206814236
 20
-0.4768012152777778
 10
-25.91659206814236
 20
-0.4768012152777778
 10
-25.93295627170139
 20
-0.4874810112847222
 10
-25.93295627170139
 20
-0.4874810112847222
 10
-25.93295627170139
 20
-0.4874810112847222
 10
-26.71016981336805
 20
-0.1789727105034722
 10
-26.71016981336805
 20
-0.1789727105034722
 10
-26.98095431857639
 20
-0.1192003038194444
 10
-27.25173882378472
 20
-0.0599446614583333
 10
-27.52252332899305
 20
-0.0001722547743056
 10
-27.25173882378472
 20
0.0596001519097222
 10
-26.98095431857639
 20
0.1188557942708333
 10
-26.71016981336805
 20
0.1786282009548611
 10
-26.71016981336805
 20
0.1786282009548611
 10
-25.93295627170139
 20
0.4874810112847222
 10
-25.93295627170139
 20
0.4874810112847222
 10
-25.93295627170139
 20
0.4874810112847222
 10
-25.91659206814236
 20
0.4792127821180555
 10
-25.91659206814236
 20
0.4792127821180555
 10
-25.91659206814236
 20
0.4792127821180555
 10
-26.20649685329861
 20
-0.0001722547743056
 10
-26.20649685329861
 20
-0.0001722547743056
 97
        0
 75
     0
 76
     1
 98
        1
 10
0.0
 20
0.0
  0
ENDBLK
  5
66
330
61
100
AcDbEntity
  8
LAYER_1
100
AcDbBlockEnd
  0
ENDSEC
  0
SECTION
  2
ENTITIES
  0
LINE
  5
87
330
A
100
AcDbEntity
  8
LAYER_1
 62
     7
100
AcDbLine
 10
69.4441677517361
 20
119.1055636935764
 30
0.0
 11
149.4120686848958
 21
119.1055636935764
 31
0.0
  0
LINE
  5
86
330
A
100
AcDbEntity
  8
LAYER_1
 62
     7
100
AcDbLine
 10
66.00458441840277
 20
157.2055636935764
 30
0.0
 11
152.7138481987847
 21
157.2055636935764
 31
0.0
  0
LINE
  5
85
330
A
100
AcDbEntity
  8
LAYER_1
 62
     7
100
AcDbLine
 10
63.97611219618055
 20
153.6495361328125
 30
0.0
 11
155.2539171006944
 21
153.6495361328125
 31
0.0
  0
LINE
  5
84
330
A
100
AcDbEntity
  8
LAYER_1
 62
     7
100
AcDbLine
 10
66.18114556206596
 20
122.6615912543403
 30
0.0
 11
152.7138481987847
 21
122.6615912543403
 31
0.0
  0
LINE
  5
83
330
A
100
AcDbEntity
  8
LAYER_1
 62
     7
100
AcDbLine
 10
62.38861219618055
 20
128.8174601236979
 30
0.0
 11
107.1915622287326
 21
151.5716267903646
 31
0.0
  0
LINE
  5
82
330
A
100
AcDbEntity
  8
LAYER_1
 62
     7
100
AcDbLine
 10
121.2180962456597
 20
147.2995361328125
 30
0.0
 11
97.34203423394096
 21
147.2995361328125
 31
0.0
  0
LINE
  5
81
330
A
100
AcDbEntity
  8
LAYER_1
 62
     7
100
AcDbLine
 10
97.34203423394096
 20
156.697412109375
 30
0.0
 11
121.2180962456597
 21
156.697412109375
 31
0.0
  0
LINE
  5
80
330
A
100
AcDbEntity
  8
LAYER_1
 62
     7
100
AcDbLine
 10
61.24208441840278
 20
132.2570434570312
 30
0.0
 11
103.4379584418403
 21
153.6495361328125
 31
0.0
  0
LINE
  5
7F
330
A
100
AcDbEntity
  8
LAYER_1
 62
     7
100
AcDbLine
 10
97.34203423394096
 20
147.2995361328125
 30
0.0
 11
97.34203423394096
 21
156.697412109375
 31
0.0
  0
LINE
  5
7E
330
A
100
AcDbEntity
  8
LAYER_1
 62
     7
100
AcDbLine
 10
110.8039171006944
 20
151.6176188151042
 30
0.0
 11
156.2698757595486
 21
128.5034396701389
 31
0.0
  0
LINE
  5
7D
330
A
100
AcDbEntity
  8
LAYER_1
 62
     7
100
AcDbLine
 10
114.8680962456597
 20
153.6495361328125
 30
0.0
 11
157.7939860026042
 21
131.8055636935764
 31
0.0
  0
LINE
  5
7C
330
A
100
AcDbEntity
  8
LAYER_1
 62
     7
100
AcDbLine
 10
107.2478895399305
 20
153.6495361328125
 30
0.0
 11
107.2478895399305
 21
122.6615912543403
 31
0.0
  0
LINE
  5
7B
330
A
100
AcDbEntity
  8
LAYER_1
 62
     7
100
AcDbLine
 10
110.8039171006944
 20
153.6495361328125
 30
0.0
 11
110.8039171006944
 21
122.6615912543403
 31
0.0
  0
LINE
  5
7A
330
A
100
AcDbEntity
  8
LAYER_1
 62
     7
100
AcDbLine
 10
105.7239515516493
 20
120.3755981445312
 30
0.0
 11
105.7239515516493
 21
129.7734741210937
 31
0.0
  0
LWPOLYLINE
  5
75
330
A
100
AcDbEntity
  8
LAYER_1
 62
     7
100
AcDbPolyline
 90
        3
 70
     0
 43
0.0
 10
113.0899102105035
 20
129.7734741210937
 10
113.0899102105035
 20
120.3755981445312
 10
105.7239515516493
 20
120.3755981445312
  0
LINE
  5
74
330
A
100
AcDbEntity
  8
LAYER_1
 62
     7
100
AcDbLine
 10
105.7239515516493
 20
129.7734741210937
 30
0.0
 11
113.0899102105035
 21
129.7734741210937
 31
0.0
  0
LINE
  5
73
330
A
100
AcDbEntity
  8
LAYER_1
 62
     7
100
AcDbLine
 10
109.0260755750868
 20
161.7775499131944
 30
0.0
 11
109.0260755750868
 21
172.4456325954861
 31
0.0
  0
LWPOLYLINE
  5
6E
330
A
100
AcDbEntity
  8
LAYER_1
 62
     7
100
AcDbPolyline
 90
        3
 70
     1
 43
0.0
 10
107.9878960503472
 20
162.1523763020833
 10
110.0201578776042
 20
162.1523763020833
 10
109.0038547092014
 20
157.8342936197917
  0
HATCH
  5
6D
330
A
100
AcDbEntity
  8
LAYER_1
 62
     7
100
AcDbHatch
 10
0.0
 20
0.0
 30
0.0
210
0.0
220
0.0
230
1.0
  2
SOLID
 70
     1
 71
     0
 91
        1
 92
        3
 72
     0
 73
     1
 93
        3
 10
107.9878960503472
 20
162.1523763020833
 10
110.0201578776042
 20
162.1523763020833
 10
109.0038547092014
 20
157.8342936197917
 97
        0
 75
     0
 76
     1
 98
        1
 10
0.0
 20
0.0
  0
LINE
  5
6C
330
A
100
AcDbEntity
  8
LAYER_1
 62
     7
100
AcDbLine
 10
121.2180962456597
 20
156.697412109375
 30
0.0
 11
121.2180962456597
 21
147.2995361328125
 31
0.0
  0
SPLINE
  5
6B
330
A
100
AcDbEntity
  8
LAYER_1
 62
     7
100
AcDbSpline
210
0.0
220
0.0
230
1.0
 70
    11
 71
     3
 72
    17
 73
    13
 74
     0
 42
0.0000000001
 43
0.0000000001
 40
0.0
 40
0.0
 40
0.0
 40
0.0
 40
1.0
 40
1.0
 40
1.0
 40
2.0
 40
2.0
 40
2.0
 40
3.0
 40
3.0
 40
3.0
 40
4.0
 40
4.0
 40
4.0
 40
4.0
 10
110.1434922960069
 20
138.2825154622396
 30
0.0
 10
110.1434922960069
 20
138.7589721679688
 30
0.0
 10
109.756780327691
 20
139.1455118815104
 30
0.0
 10
109.2801513671875
 20
139.1455118815104
 30
0.0
 10
108.8033501519097
 20
139.1455118815104
 30
0.0
 10
108.4164659288194
 20
138.7589721679688
 30
0.0
 10
108.4164659288194
 20
138.2825154622396
 30
0.0
 10
108.4164659288194
 20
137.8060587565104
 30
0.0
 10
108.8033501519097
 20
137.4195190429687
 30
0.0
 10
109.2801513671875
 20
137.4195190429687
 30
0.0
 10
109.756780327691
 20
137.4195190429687
 30
0.0
 10
110.1434922960069
 20
137.8060587565104
 30
0.0
 10
110.1434922960069
 20
138.2825154622396
 30
0.0
  0
SPLINE
  5
6A
330
A
100
AcDbEntity
  8
LAYER_1
 62
     7
100
AcDbSpline
210
0.0
220
0.0
230
1.0
 70
    11
 71
     3
 72
    17
 73
    13
 74
     0
 42
0.0000000001
 43
0.0000000001
 40
0.0
 40
0.0
 40
0.0
 40
0.0
 40
1.0
 40
1.0
 40
1.0
 40
2.0
 40
2.0
 40
2.0
 40
3.0
 40
3.0
 40
3.0
 40
4.0
 40
4.0
 40
4.0
 40
4.0
 10
110.1434922960069
 20
145.6484741210937
 30
0.0
 10
110.1434922960069
 20
146.1251030815972
 30
0.0
 10
109.756780327691
 20
146.5116427951389
 30
0.0
 10
109.2801513671875
 20
146.5116427951389
 30
0.0
 10
108.8033501519097
 20
146.5116427951389
 30
0.0
 10
108.4164659288194
 20
146.1251030815972
 30
0.0
 10
108.4164659288194
 20
145.6484741210937
 30
0.0
 10
108.4164659288194
 20
145.1720174153646
 30
0.0
 10
108.8033501519097
 20
144.7853054470486
 30
0.0
 10
109.2801513671875
 20
144.7853054470486
 30
0.0
 10
109.756780327691
 20
144.7853054470486
 30
0.0
 10
110.1434922960069
 20
145.1720174153646
 30
0.0
 10
110.1434922960069
 20
145.6484741210937
 30
0.0
  0
SPLINE
  5
69
330
A
100
AcDbEntity
  8
LAYER_1
 62
     7
100
AcDbSpline
210
0.0
220
0.0
230
1.0
 70
    11
 71
     3
 72
    17
 73
    13
 74
     0
 42
0.0000000001
 43
0.0000000001
 40
0.0
 40
0.0
 40
0.0
 40
0.0
 40
1.0
 40
1.0
 40
1.0
 40
2.0
 40
2.0
 40
2.0
 40
3.0
 40
3.0
 40
3.0
 40
4.0
 40
4.0
 40
4.0
 40
4.0
 10
110.1434922960069
 20
131.6784396701389
 30
0.0
 10
110.1434922960069
 20
132.1548963758681
 30
0.0
 10
109.756780327691
 20
132.5417805989583
 30
0.0
 10
109.2801513671875
 20
132.5417805989583
 30
0.0
 10
108.8033501519097
 20
132.5417805989583
 30
0.0
 10
108.4164659288194
 20
132.1548963758681
 30
0.0
 10
108.4164659288194
 20
131.6784396701389
 30
0.0
 10
108.4164659288194
 20
131.2019829644097
 30
0.0
 10
108.8033501519097
 20
130.8152709960937
 30
0.0
 10
109.2801513671875
 20
130.8152709960937
 30
0.0
 10
109.756780327691
 20
130.8152709960937
 30
0.0
 10
110.1434922960069
 20
131.2019829644097
 30
0.0
 10
110.1434922960069
 20
131.6784396701389
 30
0.0
  0
ELLIPSE
  5
68
330
A
100
AcDbEntity
  8
LAYER_1
 62
     7
100
AcDbEllipse
 10
109.5728122287326
 20
139.9742296006944
 30
0.0
 11
49.66621907552083
 21
0.0
 31
0.0
210
0.0
220
0.0
230
1.0
 40
0.7111018624492769
 41
0.0
 42
6.283185307179586
  0
INSERT
  5
5F
330
A
100
AcDbEntity
  8
LAYER_1
 62
     7
100
AcDbBlockReference
  2
AI9-BLK4
 10
138.974462890625
 20
138.2413465711805
 30
0.0
  0
INSERT
  5
44
330
A
100
AcDbEntity
  8
LAYER_1
 62
     7
100
AcDbBlockReference
  2
AI9-BLK3
 10
181.3041788736979
 20
135.0921847873264
 30
0.0
  0
INSERT
  5
3E
330
A
100
AcDbEntity
  8
LAYER_1
 62
     7
100
AcDbBlockReference
  2
AI9-BLK2
 10
123.5757473415799
 20
177.0111592610677
 30
0.0
  0
INSERT
  5
23
330
A
100
AcDbEntity
  8
LAYER_1
 62
     7
100
AcDbBlockReference
  2
AI9-BLK1
 10
152.5197170681423
 20
179.012070719401
 30
0.0
  0
ENDSEC
  0
SECTION
  2
OBJECTS
  0
DICTIONARY
  5
19
330
0
100
AcDbDictionary
281
     1
  3
ACAD_COLOR
350
BE
  3
ACAD_GROUP
350
1A
  3
ACAD_LAYOUT
350
8B
  3
ACAD_MATERIAL
350
C0
  3
ACAD_MLINESTYLE
350
1B
  3
ACAD_PLOTSETTINGS
350
8C
  3
ACAD_PLOTSTYLENAME
350
89
  3
ACDBHEADERROUNDTRIPXREC
350
BD
  0
DICTIONARY
  5
BE
102
{ACAD_REACTORS
330
19
102
}
330
19
100
AcDbDictionary
281
     1
  0
DICTIONARY
  5
1A
102
{ACAD_REACTORS
330
19
102
}
330
19
100
AcDbDictionary
281
     1
  0
DICTIONARY
  5
8B
102
{ACAD_REACTORS
330
19
102
}
330
19
100
AcDbDictionary
281
     1
  3
Layout1
350
8E
  3
Model
350
8D
  0
DICTIONARY
  5
C0
102
{ACAD_REACTORS
330
19
102
}
330
19
100
AcDbDictionary
281
     1
  0
DICTIONARY
  5
1B
102
{ACAD_REACTORS
330
19
102
}
330
19
100
AcDbDictionary
281
     1
  3
STANDARD
350
1C
  0
DICTIONARY
  5
8C
102
{ACAD_REACTORS
330
19
102
}
330
19
100
AcDbDictionary
281
     1
  0
ACDBDICTIONARYWDFLT
  5
89
102
{ACAD_REACTORS
330
19
102
}
330
19
100
AcDbDictionary
281
     1
  3
Normal
350
8A
100
AcDbDictionaryWithDefault
340
8A
  0
DICTIONARY
  5
BD
102
{ACAD_REACTORS
330
19
102
}
330
19
100
AcDbDictionary
281
     1
  3
COLORDICT
350
BF
  3
MATERIALDICT
350
C1
  0
LAYOUT
  5
8E
102
{ACAD_REACTORS
330
8B
102
}
102
{ACAD_XDICTIONARY
360
C2
102
}
330
8B
100
AcDbPlotSettings
  1

  2
Support Center HP LaserJet 4
  4

  6

 40
0.0
 41
0.0
 42
0.0
 43
0.0
 44
0.0
 45
0.0
 46
0.0
 47
0.0
 48
0.0
 49
0.0
140
0.0
141
0.0
142
1.0
143
1.0
 70
   688
 72
     0
 73
     0
 74
     5
  7

 75
    16
147
1.0
148
0.0
149
0.0
100
AcDbLayout
  1
Layout1
 70
     0
 71
     1
 10
0.0
 20
0.0
 11
12.0
 21
9.0
 12
0.0
 22
0.0
 32
0.0
 14
1.000000000000000E+20
 24
1.000000000000000E+20
 34
1.000000000000000E+20
 15
-1.000000000000000E+20
 25
-1.000000000000000E+20
 35
-1.000000000000000E+20
146
0.0
 13
0.0
 23
0.0
 33
0.0
 16
1.0
 26
0.0
 36
0.0
 17
0.0
 27
1.0
 37
0.0
 76
     0
330
B
  0
LAYOUT
  5
8D
102
{ACAD_REACTORS
330
8B
102
}
102
{ACAD_XDICTIONARY
360
C4
102
}
330
8B
100
AcDbPlotSettings
  1

  2
Support Center HP LaserJet 4
  4

  6

 40
0.0
 41
0.0
 42
0.0
 43
0.0
 44
0.0
 45
0.0
 46
0.0
 47
0.0
 48
0.0
 49
0.0
140
0.0
141
0.0
142
1.0
143
1.0
 70
  1712
 72
     0
 73
     0
 74
     0
  7

 75
     0
147
1.0
148
0.0
149
0.0
100
AcDbLayout
  1
Model
 70
     1
 71
     0
 10
0.0
 20
0.0
 11
12.0
 21
9.0
 12
0.0
 22
0.0
 32
0.0
 14
0.0
 24
0.0
 34
0.0
 15
0.0
 25
0.0
 35
0.0
146
0.0
 13
0.0
 23
0.0
 33
0.0
 16
1.0
 26
0.0
 36
0.0
 17
0.0
 27
1.0
 37
0.0
 76
     0
330
A
  0
MLINESTYLE
  5
1C
102
{ACAD_REACTORS
330
1B
102
}
330
1B
100
AcDbMlineStyle
  2
STANDARD
 70
     0
  3

 62
     0
 51
90.0000000000002
 52
90.0000000000002
 71
     2
 49
0.5
 62
   256
  6
BYLAYER
 49
-0.5
 62
   256
  6
BYLAYER
  0
ACDBPLACEHOLDER
  5
8A
102
{ACAD_REACTORS
330
89
102
}
330
89
  0
XRECORD
  5
BF
102
{ACAD_REACTORS
330
BD
102
}
330
BD
100
AcDbXrecord
340
BE
  0
XRECORD
  5
C1
102
{ACAD_REACTORS
330
BD
102
}
330
BD
100
AcDbXrecord
340
C0
  0
DICTIONARY
  5
C2
330
8E
100
AcDbDictionary
280
     1
281
     1
  3
ACAD_XREC_ROUNDTRIP
360
C3
  0
DICTIONARY
  5
C4
330
8D
100
AcDbDictionary
280
     1
281
     1
  3
ACAD_XREC_ROUNDTRIP
360
C5
  0
XRECORD
  5
C3
102
{ACAD_REACTORS
330
C2
102
}
330
C2
100
AcDbXrecord
102
SHADEPLOT
 70
 -2008
102
SHADEPLOTRESLEVEL
 70
 -1952
102
SHADEPLOTCUSTOMDPI
 70
 -1896
  0
XRECORD
  5
C5
102
{ACAD_REACTORS
330
C4
102
}
330
C4
100
AcDbXrecord
102
SHADEPLOT
 70
     0
102
SHADEPLOTRESLEVEL
 70
     0
102
SHADEPLOTCUSTOMDPI
 70
     0
  0
ENDSEC
  0
EOF
