  0
SECTION
  2
HEADER
  9
$ACADVER
  1
AC1015
  9
$ACADMAINTVER
 70
     6
  9
$DWGCODEPAGE
  3
ANSI_1252
  9
$INSBASE
 10
0.0
 20
0.0
 30
0.0
  9
$EXTMIN
 10
22.4546542967455
 20
63.38682861328125
 30
-0.00000001
  9
$EXTMAX
 10
191.1306247287326
 20
210.3187730577257
 30
0.00000001
  9
$LIMMIN
 10
23.58986070421007
 20
63.38682861328125
  9
$LIMMAX
 10
191.2629163953993
 20
210.4510647243924
  9
$ORTHOMODE
 70
     0
  9
$REGENMODE
 70
     1
  9
$FILLMODE
 70
     1
  9
$QTEXTMODE
 70
     0
  9
$MIRRTEXT
 70
     1
  9
$LTSCALE
 40
1.0
  9
$ATTMODE
 70
     1
  9
$TEXTSIZE
 40
0.2
  9
$TRACEWID
 40
0.05
  9
$TEXTSTYLE
  7
STANDARD
  9
$CLAYER
  8
0
  9
$CELTYPE
  6
CONTINUOUS
  9
$CECOLOR
 62
   256
  9
$CELTSCALE
 40
1.0
  9
$DISPSILH
 70
     0
  9
$DIMSCALE
 40
1.0
  9
$DIMASZ
 40
0.18
  9
$DIMEXO
 40
0.0625
  9
$DIMDLI
 40
0.38
  9
$DIMRND
 40
0.0
  9
$DIMDLE
 40
0.0
  9
$DIMEXE
 40
0.18
  9
$DIMTP
 40
0.0
  9
$DIMTM
 40
0.0
  9
$DIMTXT
 40
0.18
  9
$DIMCEN
 40
0.09
  9
$DIMTSZ
 40
0.0
  9
$DIMTOL
 70
     0
  9
$DIMLIM
 70
     0
  9
$DIMTIH
 70
     1
  9
$DIMTOH
 70
     1
  9
$DIMSE1
 70
     0
  9
$DIMSE2
 70
     0
  9
$DIMTAD
 70
     0
  9
$DIMZIN
 70
     0
  9
$DIMBLK
  1

  9
$DIMASO
 70
     1
  9
$DIMSHO
 70
     1
  9
$DIMPOST
  1

  9
$DIMAPOST
  1

  9
$DIMALT
 70
     0
  9
$DIMALTD
 70
     2
  9
$DIMALTF
 40
25.4
  9
$DIMLFAC
 40
1.0
  9
$DIMTOFL
 70
     0
  9
$DIMTVP
 40
0.0
  9
$DIMTIX
 70
     0
  9
$DIMSOXD
 70
     0
  9
$DIMSAH
 70
     0
  9
$DIMBLK1
  1

  9
$DIMBLK2
  1

  9
$DIMSTYLE
  2
STANDARD
  9
$DIMCLRD
 70
     0
  9
$DIMCLRE
 70
     0
  9
$DIMCLRT
 70
     0
  9
$DIMTFAC
 40
1.0
  9
$DIMGAP
 40
0.09
  9
$DIMJUST
 70
     0
  9
$DIMSD1
 70
     0
  9
$DIMSD2
 70
     0
  9
$DIMTOLJ
 70
     1
  9
$DIMTZIN
 70
     0
  9
$DIMALTZ
 70
     0
  9
$DIMALTTZ
 70
     0
  9
$DIMUPT
 70
     0
  9
$DIMDEC
 70
     4
  9
$DIMTDEC
 70
     4
  9
$DIMALTU
 70
     2
  9
$DIMALTTD
 70
     2
  9
$DIMTXSTY
  7
STANDARD
  9
$DIMAUNIT
 70
     0
  9
$DIMADEC
 70
     0
  9
$DIMALTRND
 40
0.0
  9
$DIMAZIN
 70
     0
  9
$DIMDSEP
 70
    46
  9
$DIMATFIT
 70
     3
  9
$DIMFRAC
 70
     0
  9
$DIMLDRBLK
  1

  9
$DIMLUNIT
 70
     2
  9
$DIMLWD
 70
    -2
  9
$DIMLWE
 70
    -2
  9
$DIMTMOVE
 70
     0
  9
$LUNITS
 70
     2
  9
$LUPREC
 70
     4
  9
$SKETCHINC
 40
0.1
  9
$FILLETRAD
 40
0.0
  9
$AUNITS
 70
     0
  9
$AUPREC
 70
     0
  9
$MENU
  1
acad
  9
$ELEVATION
 40
0.0
  9
$PELEVATION
 40
0.0
  9
$THICKNESS
 40
0.0
  9
$LIMCHECK
 70
     0
  9
$CHAMFERA
 40
0.0
  9
$CHAMFERB
 40
0.0
  9
$CHAMFERC
 40
0.0
  9
$CHAMFERD
 40
0.0
  9
$SKPOLY
 70
     0
  9
$TDCREATE
 40
2444971.666666667
  9
$TDUCREATE
 40
2444972.0
  9
$TDUPDATE
 40
2452219.413340394
  9
$TDUUPDATE
 40
2452219.746673727
  9
$TDINDWG
 40
0.0024322917
  9
$TDUSRTIMER
 40
0.0024322917
  9
$USRTIMER
 70
     1
  9
$ANGBASE
 50
0.0
  9
$ANGDIR
 70
     0
  9
$PDMODE
 70
     0
  9
$PDSIZE
 40
0.0
  9
$PLINEWID
 40
0.0
  9
$SPLFRAME
 70
     0
  9
$SPLINETYPE
 70
     6
  9
$SPLINESEGS
 70
     8
  9
$HANDSEED
  5
2C4
  9
$SURFTAB1
 70
     6
  9
$SURFTAB2
 70
     6
  9
$SURFTYPE
 70
     6
  9
$SURFU
 70
     6
  9
$SURFV
 70
     6
  9
$UCSBASE
  2

  9
$UCSNAME
  2

  9
$UCSORG
 10
0.0
 20
0.0
 30
0.0
  9
$UCSXDIR
 10
1.0
 20
0.0
 30
0.0
  9
$UCSYDIR
 10
0.0
 20
1.0
 30
0.0
  9
$UCSORTHOREF
  2

  9
$UCSORTHOVIEW
 70
     0
  9
$UCSORGTOP
 10
0.0
 20
0.0
 30
0.0
  9
$UCSORGBOTTOM
 10
0.0
 20
0.0
 30
0.0
  9
$UCSORGLEFT
 10
0.0
 20
0.0
 30
0.0
  9
$UCSORGRIGHT
 10
0.0
 20
0.0
 30
0.0
  9
$UCSORGFRONT
 10
0.0
 20
0.0
 30
0.0
  9
$UCSORGBACK
 10
0.0
 20
0.0
 30
0.0
  9
$PUCSBASE
  2

  9
$PUCSNAME
  2

  9
$PUCSORG
 10
0.0
 20
0.0
 30
0.0
  9
$PUCSXDIR
 10
1.0
 20
0.0
 30
0.0
  9
$PUCSYDIR
 10
0.0
 20
1.0
 30
0.0
  9
$PUCSORTHOREF
  2

  9
$PUCSORTHOVIEW
 70
     0
  9
$PUCSORGTOP
 10
0.0
 20
0.0
 30
0.0
  9
$PUCSORGBOTTOM
 10
0.0
 20
0.0
 30
0.0
  9
$PUCSORGLEFT
 10
0.0
 20
0.0
 30
0.0
  9
$PUCSORGRIGHT
 10
0.0
 20
0.0
 30
0.0
  9
$PUCSORGFRONT
 10
0.0
 20
0.0
 30
0.0
  9
$PUCSORGBACK
 10
0.0
 20
0.0
 30
0.0
  9
$USERI1
 70
     0
  9
$USERI2
 70
     0
  9
$USERI3
 70
     0
  9
$USERI4
 70
     0
  9
$USERI5
 70
     0
  9
$USERR1
 40
0.0
  9
$USERR2
 40
0.0
  9
$USERR3
 40
0.0
  9
$USERR4
 40
0.0
  9
$USERR5
 40
0.0
  9
$WORLDVIEW
 70
     1
  9
$SHADEDGE
 70
     3
  9
$SHADEDIF
 70
    70
  9
$TILEMODE
 70
     1
  9
$MAXACTVP
 70
    16
  9
$PINSBASE
 10
0.0
 20
0.0
 30
0.0
  9
$PLIMCHECK
 70
     0
  9
$PEXTMIN
 10
1.000000000000000E+20
 20
1.000000000000000E+20
 30
1.000000000000000E+20
  9
$PEXTMAX
 10
-1.000000000000000E+20
 20
-1.000000000000000E+20
 30
-1.000000000000000E+20
  9
$PLIMMIN
 10
0.0
 20
0.0
  9
$PLIMMAX
 10
12.0
 20
9.0
  9
$UNITMODE
 70
     0
  9
$VISRETAIN
 70
     0
  9
$PLINEGEN
 70
     1
  9
$PSLTSCALE
 70
     0
  9
$TREEDEPTH
 70
  3020
  9
$CMLSTYLE
  2
STANDARD
  9
$CMLJUST
 70
     0
  9
$CMLSCALE
 40
1.0
  9
$PROXYGRAPHICS
 70
     0
  9
$MEASUREMENT
 70
     0
  9
$CELWEIGHT
370
    -1
  9
$ENDCAPS
280
     0
  9
$JOINSTYLE
280
     0
  9
$LWDISPLAY
290
     0
  9
$INSUNITS
 70
     0
  9
$HYPERLINKBASE
  1

  9
$STYLESHEET
  1

  9
$XEDIT
290
     1
  9
$CEPSNTYPE
380
     0
  9
$PSTYLEMODE
290
     1
  9
$FINGERPRINTGUID
  2
{0AE0CFC3-D1C7-11D5-923F-00805F198AD5}
  9
$VERSIONGUID
  2
{0AE0CFCD-D1C7-11D5-923F-00805F198AD5}
  9
$EXTNAMES
290
     1
  9
$PSVPSCALE
 40
0.0
  9
$OLESTARTUP
290
     0
  0
ENDSEC
  0
SECTION
  2
CLASSES
  0
CLASS
  1
LWPOLYLINE
  2
AcDbPolyline
  3
AutoCAD 2000
 90
        0
280
     0
281
     1
  0
CLASS
  1
IMAGE
  2
AcDbRasterImage
  3
ISM
 90
      127
280
     0
281
     1
  0
CLASS
  1
OLE2FRAME
  2
AcDbOle2Frame
  3
AutoCAD 2000
 90
        0
280
     0
281
     1
  0
CLASS
  1
HATCH
  2
AcDbHatch
  3
AutoCAD 2000
 90
        0
280
     0
281
     1
  0
CLASS
  1
DICTIONARYVAR
  2
AcDbDictionaryVar
  3
AutoCAD 2000
 90
        0
280
     0
281
     0
  0
CLASS
  1
RASTERVARIABLES
  2
AcDbRasterVariables
  3
ISM
 90
        0
280
     0
281
     0
  0
CLASS
  1
IMAGEDEF
  2
AcDbRasterImageDef
  3
ISM
 90
        0
280
     0
281
     0
  0
CLASS
  1
IMAGEDEF_REACTOR
  2
AcDbRasterImageDefReactor
  3
ISM
 90
        1
280
     0
281
     0
  0
CLASS
  1
IDBUFFER
  2
AcDbIdBuffer
  3
AutoCAD 2000
 90
        0
280
     0
281
     0
  0
CLASS
  1
SPATIAL_FILTER
  2
AcDbSpatialFilter
  3
AutoCAD 2000
 90
        0
280
     0
281
     0
  0
CLASS
  1
XRECORD
  2
AcDbXrecord
  3
AutoCAD 2000
 90
        0
280
     0
281
     0
  0
CLASS
  1
SORTENTSTABLE
  2
AcDbSortentsTable
  3
AutoCAD 2000
 90
        0
280
     0
281
     0
  0
CLASS
  1
LAYER_INDEX
  2
AcDbLayerIndex
  3
AutoCAD 2000
 90
        0
280
     0
281
     0
  0
CLASS
  1
SPATIAL_INDEX
  2
AcDbSpatialIndex
  3
AutoCAD 2000
 90
        0
280
     0
281
     0
  0
CLASS
  1
OBJECT_PTR
  2
CAseDLPNTableRecord
  3
ASE-LPNTableRecord
 90
        1
280
     1
281
     0
  0
CLASS
  1
LAYOUT
  2
AcDbLayout
  3
ObjectDBX Classes
 90
        0
280
     0
281
     0
  0
CLASS
  1
PLOTSETTINGS
  2
AcDbPlotSettings
  3
AutoCAD 2000
 90
        0
280
     0
281
     0
  0
CLASS
  1
ACDBDICTIONARYWDFLT
  2
AcDbDictionaryWithDefault
  3
AutoCAD 2000
 90
        0
280
     0
281
     0
  0
CLASS
  1
ACDBPLACEHOLDER
  2
AcDbPlaceHolder
  3
ObjectDBX Classes
 90
        0
280
     0
281
     0
  0
CLASS
  1
VBAPROJECT
  2
AcDbVbaProject
  3
ObjectDBX Classes
 90
        0
280
     0
281
     0
  0
CLASS
  1
WIPEOUT
  2
AcDbWipeout
  3
WipeOut|AutoCAD Express Tool|expresstools@autodesk.com
 90
      127
280
     0
281
     1
  0
CLASS
  1
WIPEOUTVARIABLES
  2
AcDbWipeoutVariables
  3
WipeOut|AutoCAD Express Tool|expresstools@autodesk.com
 90
        0
280
     0
281
     0
  0
CLASS
  1
RTEXT
  2
RText
  3
RText|AutoCAD Express Tool|expresstools@autodesk.com
 90
        0
280
     0
281
     1
  0
CLASS
  1
ARCALIGNEDTEXT
  2
AcDbArcAlignedText
  3
ATEXT|AutoCAD Express Tool|expresstools@autodesk.com
 90
        0
280
     0
281
     1
  0
CLASS
  1
LONG_TRANSACTION
  2
AcDbLongTransaction
  3
AutoCAD 2000
 90
        0
280
     1
281
     0
  0
CLASS
  1
LWPOLYLINE
  2
AcDbPolyline
  3
AutoCAD 2000
 90
        0
280
     0
281
     1
  0
CLASS
  1
HATCH
  2
AcDbHatch
  3
AutoCAD 2000
 90
        0
280
     0
281
     1
  0
CLASS
  1
XRECORD
  2
AcDbXrecord
  3
AutoCAD 2000
 90
        0
280
     0
281
     0
  0
CLASS
  1
LONG_TRANSACTION
  2
AcDbLongTransaction
  3
AutoCAD 2000
 90
        0
280
     1
281
     0
  0
CLASS
  1
LWPOLYLINE
  2
AcDbPolyline
  3
AutoCAD 2000
 90
        0
280
     0
281
     1
  0
CLASS
  1
HATCH
  2
AcDbHatch
  3
AutoCAD 2000
 90
        0
280
     0
281
     1
  0
CLASS
  1
XRECORD
  2
AcDbXrecord
  3
AutoCAD 2000
 90
        0
280
     0
281
     0
  0
ENDSEC
  0
SECTION
  2
TABLES
  0
TABLE
  2
VPORT
  5
7
330
0
100
AcDbSymbolTable
 70
     2
  0
VPORT
  5
292
330
7
100
AcDbSymbolTableRecord
100
AcDbViewportTableRecord
  2
*Active
 70
     0
 10
0.0
 20
0.0
 11
1.0
 21
1.0
 12
106.7931632118682
 22
136.8516263464454
 13
0.0
 23
0.0
 14
1.0
 24
1.0
 15
0.0
 25
0.0
 16
0.0
 26
0.0
 36
1.0
 17
0.0
 27
0.0
 37
0.0
 40
149.2872952487535
 41
1.836842105263158
 42
50.0
 43
0.0
 44
0.0
 50
0.0
 51
0.0
 71
     0
 72
   100
 73
     1
 74
     1
 75
     0
 76
     0
 77
     0
 78
     0
281
     0
 65
     1
110
0.0
120
0.0
130
0.0
111
1.0
121
0.0
131
0.0
112
0.0
122
1.0
132
0.0
 79
     0
146
0.0
  0
ENDTAB
  0
TABLE
  2
LTYPE
  5
4
330
0
100
AcDbSymbolTable
 70
     1
  0
LTYPE
  5
11
330
4
100
AcDbSymbolTableRecord
100
AcDbLinetypeTableRecord
  2
BYBLOCK
 70
     0
  3

 72
    65
 73
     0
 40
0.0
  0
LTYPE
  5
12
330
4
100
AcDbSymbolTableRecord
100
AcDbLinetypeTableRecord
  2
BYLAYER
 70
     0
  3

 72
    65
 73
     0
 40
0.0
  0
LTYPE
  5
13
330
4
100
AcDbSymbolTableRecord
100
AcDbLinetypeTableRecord
  2
CONTINUOUS
 70
     0
  3
Solid line
 72
    65
 73
     0
 40
0.0
  0
ENDTAB
  0
TABLE
  2
LAYER
  5
2
330
0
100
AcDbSymbolTable
 70
     2
  0
LAYER
  5
14
330
2
100
AcDbSymbolTableRecord
100
AcDbLayerTableRecord
  2
0
 70
     0
 62
     7
  6
CONTINUOUS
370
    -3
390
0
  0
LAYER
  5
21
330
2
100
AcDbSymbolTableRecord
100
AcDbLayerTableRecord
  2
LAYER_1
 70
     0
 62
     5
  6
CONTINUOUS
370
    -3
390
0
  0
ENDTAB
  0
TABLE
  2
STYLE
  5
3
330
0
100
AcDbSymbolTable
 70
     5
  0
STYLE
  5
17
330
3
100
AcDbSymbolTableRecord
100
AcDbTextStyleTableRecord
  2
STANDARD
 70
     0
 40
0.0
 41
1.0
 50
0.0
 71
     0
 42
0.2
  3
txt
  4

  0
STYLE
  5
1D
330
3
100
AcDbSymbolTableRecord
100
AcDbTextStyleTableRecord
  2
STD
 70
     0
 40
0.0
 41
1.0
 50
0.0
 71
     0
 42
0.2
  3
txt
  4

  0
STYLE
  5
1E
330
3
100
AcDbSymbolTableRecord
100
AcDbTextStyleTableRecord
  2
TATESTD
 70
     4
 40
0.0
 41
1.0
 50
0.0
 71
     0
 42
0.2
  3
txt
  4

  0
STYLE
  5
1F
330
3
100
AcDbSymbolTableRecord
100
AcDbTextStyleTableRecord
  2
KANJISTD
 70
     0
 40
0.0
 41
1.0
 50
0.0
 71
     0
 42
0.2
  3
txt
  4
extfont
  0
STYLE
  5
20
330
3
100
AcDbSymbolTableRecord
100
AcDbTextStyleTableRecord
  2
KANJITATE
 70
     4
 40
0.0
 41
1.0
 50
0.0
 71
     0
 42
0.2
  3
txt
  4
extfont
  0
ENDTAB
  0
TABLE
  2
VIEW
  5
5
330
0
100
AcDbSymbolTable
 70
     0
  0
ENDTAB
  0
TABLE
  2
UCS
  5
6
330
0
100
AcDbSymbolTable
 70
     0
  0
ENDTAB
  0
TABLE
  2
APPID
  5
8
330
0
100
AcDbSymbolTable
 70
     1
  0
APPID
  5
16
330
8
100
AcDbSymbolTableRecord
100
AcDbRegAppTableRecord
  2
ACAD
 70
     0
  0
ENDTAB
  0
TABLE
  2
DIMSTYLE
  5
9
330
0
100
AcDbSymbolTable
 70
     1
100
AcDbDimStyleTable
  0
DIMSTYLE
105
18
330
9
100
AcDbSymbolTableRecord
100
AcDbDimStyleTableRecord
  2
STANDARD
 70
     0
  3

  4

289
     0
340
17
  0
ENDTAB
  0
TABLE
  2
BLOCK_RECORD
  5
1
330
0
100
AcDbSymbolTable
 70
     2
  0
BLOCK_RECORD
  5
A
330
1
100
AcDbSymbolTableRecord
100
AcDbBlockTableRecord
  2
*MODEL_SPACE
340
25E
  0
BLOCK_RECORD
  5
B
330
1
100
AcDbSymbolTableRecord
100
AcDbBlockTableRecord
  2
*PAPER_SPACE
340
25F
  0
BLOCK_RECORD
  5
2D
330
1
100
AcDbSymbolTableRecord
100
AcDbBlockTableRecord
  2
AI9-BLK1
340
0
102
{BLKREFS
331
2E
102
}
  0
BLOCK_RECORD
  5
140
330
1
100
AcDbSymbolTableRecord
100
AcDbBlockTableRecord
  2
AI9-BLK2
340
0
102
{BLKREFS
331
141
102
}
  0
ENDTAB
  0
ENDSEC
  0
SECTION
  2
BLOCKS
  0
BLOCK
  5
D
330
A
100
AcDbEntity
  8
0
100
AcDbBlockBegin
  2
*MODEL_SPACE
 70
     0
 10
0.0
 20
0.0
 30
0.0
  3
*MODEL_SPACE
  1

  4

  0
ENDBLK
  5
E
330
A
100
AcDbEntity
  8
0
100
AcDbBlockEnd
  0
BLOCK
  5
F
330
B
100
AcDbEntity
 67
     1
  8
0
100
AcDbBlockBegin
  2
*PAPER_SPACE
 70
     0
 10
0.0
 20
0.0
 30
0.0
  3
*PAPER_SPACE
  1

  4

  0
ENDBLK
  5
10
330
B
100
AcDbEntity
 67
     1
  8
0
100
AcDbBlockEnd
  0
BLOCK
  5
2F
330
2D
100
AcDbEntity
  8
LAYER_1
 62
     7
100
AcDbBlockBegin
  2
AI9-BLK1
 70
     0
 10
0.0
 20
0.0
 30
0.0
  3
AI9-BLK1
  1

  4

  0
SPLINE
  5
13E
330
2D
100
AcDbEntity
  8
LAYER_1
 62
     7
100
AcDbSpline
210
0.0
220
0.0
230
1.0
 70
     8
 71
     3
 72
   371
 73
   367
 74
     0
 42
0.0000000001
 43
0.0000000001
 40
0.0
 40
0.0
 40
0.0
 40
0.0
 40
1.0
 40
1.0
 40
1.0
 40
2.0
 40
2.0
 40
2.0
 40
3.0
 40
3.0
 40
3.0
 40
4.0
 40
4.0
 40
4.0
 40
5.0
 40
5.0
 40
5.0
 40
6.0
 40
6.0
 40
6.0
 40
7.0
 40
7.0
 40
7.0
 40
8.0
 40
8.0
 40
8.0
 40
9.0
 40
9.0
 40
9.0
 40
10.0
 40
10.0
 40
10.0
 40
11.0
 40
11.0
 40
11.0
 40
12.0
 40
12.0
 40
12.0
 40
13.0
 40
13.0
 40
13.0
 40
14.0
 40
14.0
 40
14.0
 40
15.0
 40
15.0
 40
15.0
 40
16.0
 40
16.0
 40
16.0
 40
17.0
 40
17.0
 40
17.0
 40
18.0
 40
18.0
 40
18.0
 40
19.0
 40
19.0
 40
19.0
 40
20.0
 40
20.0
 40
20.0
 40
21.0
 40
21.0
 40
21.0
 40
22.0
 40
22.0
 40
22.0
 40
23.0
 40
23.0
 40
23.0
 40
24.0
 40
24.0
 40
24.0
 40
25.0
 40
25.0
 40
25.0
 40
26.0
 40
26.0
 40
26.0
 40
27.0
 40
27.0
 40
27.0
 40
28.0
 40
28.0
 40
28.0
 40
29.0
 40
29.0
 40
29.0
 40
30.0
 40
30.0
 40
30.0
 40
31.0
 40
31.0
 40
31.0
 40
32.0
 40
32.0
 40
32.0
 40
33.0
 40
33.0
 40
33.0
 40
34.0
 40
34.0
 40
34.0
 40
35.0
 40
35.0
 40
35.0
 40
36.0
 40
36.0
 40
36.0
 40
37.0
 40
37.0
 40
37.0
 40
38.0
 40
38.0
 40
38.0
 40
39.0
 40
39.0
 40
39.0
 40
40.0
 40
40.0
 40
40.0
 40
41.0
 40
41.0
 40
41.0
 40
42.0
 40
42.0
 40
42.0
 40
43.0
 40
43.0
 40
43.0
 40
44.0
 40
44.0
 40
44.0
 40
45.0
 40
45.0
 40
45.0
 40
46.0
 40
46.0
 40
46.0
 40
47.0
 40
47.0
 40
47.0
 40
48.0
 40
48.0
 40
48.0
 40
49.0
 40
49.0
 40
49.0
 40
50.0
 40
50.0
 40
50.0
 40
51.0
 40
51.0
 40
51.0
 40
52.0
 40
52.0
 40
52.0
 40
53.0
 40
53.0
 40
53.0
 40
54.0
 40
54.0
 40
54.0
 40
55.0
 40
55.0
 40
55.0
 40
56.0
 40
56.0
 40
56.0
 40
57.0
 40
57.0
 40
57.0
 40
58.0
 40
58.0
 40
58.0
 40
59.0
 40
59.0
 40
59.0
 40
60.0
 40
60.0
 40
60.0
 40
61.0
 40
61.0
 40
61.0
 40
62.0
 40
62.0
 40
62.0
 40
63.0
 40
63.0
 40
63.0
 40
64.0
 40
64.0
 40
64.0
 40
65.0
 40
65.0
 40
65.0
 40
66.0
 40
66.0
 40
66.0
 40
67.0
 40
67.0
 40
67.0
 40
68.0
 40
68.0
 40
68.0
 40
69.0
 40
69.0
 40
69.0
 40
70.0
 40
70.0
 40
70.0
 40
71.0
 40
71.0
 40
71.0
 40
72.0
 40
72.0
 40
72.0
 40
73.0
 40
73.0
 40
73.0
 40
74.0
 40
74.0
 40
74.0
 40
75.0
 40
75.0
 40
75.0
 40
76.0
 40
76.0
 40
76.0
 40
77.0
 40
77.0
 40
77.0
 40
78.0
 40
78.0
 40
78.0
 40
79.0
 40
79.0
 40
79.0
 40
80.0
 40
80.0
 40
80.0
 40
81.0
 40
81.0
 40
81.0
 40
82.0
 40
82.0
 40
82.0
 40
83.0
 40
83.0
 40
83.0
 40
84.0
 40
84.0
 40
84.0
 40
85.0
 40
85.0
 40
85.0
 40
86.0
 40
86.0
 40
86.0
 40
87.0
 40
87.0
 40
87.0
 40
88.0
 40
88.0
 40
88.0
 40
89.0
 40
89.0
 40
89.0
 40
90.0
 40
90.0
 40
90.0
 40
91.0
 40
91.0
 40
91.0
 40
92.0
 40
92.0
 40
92.0
 40
93.0
 40
93.0
 40
93.0
 40
94.0
 40
94.0
 40
94.0
 40
95.0
 40
95.0
 40
95.0
 40
96.0
 40
96.0
 40
96.0
 40
97.0
 40
97.0
 40
97.0
 40
98.0
 40
98.0
 40
98.0
 40
99.0
 40
99.0
 40
99.0
 40
100.0
 40
100.0
 40
100.0
 40
101.0
 40
101.0
 40
101.0
 40
102.0
 40
102.0
 40
102.0
 40
103.0
 40
103.0
 40
103.0
 40
104.0
 40
104.0
 40
104.0
 40
105.0
 40
105.0
 40
105.0
 40
106.0
 40
106.0
 40
106.0
 40
107.0
 40
107.0
 40
107.0
 40
108.0
 40
108.0
 40
108.0
 40
109.0
 40
109.0
 40
109.0
 40
110.0
 40
110.0
 40
110.0
 40
111.0
 40
111.0
 40
111.0
 40
112.0
 40
112.0
 40
112.0
 40
113.0
 40
113.0
 40
113.0
 40
114.0
 40
114.0
 40
114.0
 40
115.0
 40
115.0
 40
115.0
 40
116.0
 40
116.0
 40
116.0
 40
117.0
 40
117.0
 40
117.0
 40
118.0
 40
118.0
 40
118.0
 40
119.0
 40
119.0
 40
119.0
 40
120.0
 40
120.0
 40
120.0
 40
121.0
 40
121.0
 40
121.0
 40
122.0
 40
122.0
 40
122.0
 40
122.0
 10
-3.982487318250868
 20
2.093412272135417
 30
0.0
 10
-3.410601467556423
 20
2.093412272135417
 30
0.0
 10
32.79959140353732
 20
2.181434461805555
 30
0.0
 10
32.79959140353732
 20
2.181434461805555
 30
0.0
 10
32.79959140353732
 20
2.181434461805555
 30
0.0
 10
32.99768439398871
 20
2.841342502170139
 30
0.0
 10
33.17355651855468
 20
3.105409071180555
 30
0.0
 10
33.34684482150608
 20
3.363963487413194
 30
0.0
 10
33.45967169867621
 20
3.43544921875
 30
0.0
 10
33.72356601291232
 20
3.215479871961805
 30
0.0
 10
33.98763258192274
 20
2.995510525173611
 30
0.0
 10
34.73556281195747
 20
2.357478841145833
 30
0.0
 10
34.95553215874566
 20
2.0494873046875
 30
0.0
 10
35.35171813964843
 20
2.0494873046875
 30
0.0
 10
36.05555114746093
 20
2.0494873046875
 30
0.0
 10
36.05555114746093
 20
2.0494873046875
 30
0.0
 10
36.05555114746093
 20
2.0494873046875
 30
0.0
 10
36.23159552680122
 20
2.665470377604167
 30
0.0
 10
36.40763990614149
 20
2.9734619140625
 30
0.0
 10
36.58368428548177
 20
3.281453450520833
 30
0.0
 10
36.71563144259982
 20
3.545347764756944
 30
0.0
 10
37.1116451687283
 20
3.149506293402777
 30
0.0
 10
37.50765889485677
 20
2.753492567274305
 30
0.0
 10
37.90367262098524
 20
2.577448187934027
 30
0.0
 10
38.21166415744357
 20
2.0494873046875
 30
0.0
 10
38.5196556939019
 20
2.0494873046875
 30
0.0
 10
39.17956373426649
 20
2.115460883246528
 30
0.0
 10
39.17956373426649
 20
2.115460883246528
 30
0.0
 10
39.17956373426649
 20
2.115460883246528
 30
0.0
 10
39.46550665961371
 20
2.621373155381944
 30
0.0
 10
39.64155103895399
 20
2.9734619140625
 30
0.0
 10
39.81759541829427
 20
3.32537841796875
 30
0.0
 10
39.92766621907552
 20
3.413400607638889
 30
0.0
 10
40.27958272298177
 20
3.149506293402777
 30
0.0
 10
40.63167148166232
 20
2.885439724392361
 30
0.0
 10
41.37960171169704
 20
2.40140380859375
 30
0.0
 10
41.59957105848524
 20
2.0494873046875
 30
0.0
 10
41.99558478461371
 20
2.0494873046875
 30
0.0
 10
42.6556650797526
 20
2.0494873046875
 30
0.0
 10
42.6556650797526
 20
2.0494873046875
 30
0.0
 10
42.6556650797526
 20
2.0494873046875
 30
0.0
 10
42.78761223687066
 20
2.665470377604167
 30
0.0
 10
43.00758158365885
 20
3.017386881510416
 30
0.0
 10
43.22755093044705
 20
3.369475640190972
 30
0.0
 10
43.31557312011719
 20
3.369475640190972
 30
0.0
 10
43.5796396891276
 20
3.149506293402777
 30
0.0
 10
43.96462910970052
 20
2.827734375
 30
0.0
 10
44.45951707628038
 20
2.40140380859375
 30
0.0
 10
44.7235836452908
 20
2.0494873046875
 30
0.0
 10
44.89962802463107
 20
2.0494873046875
 30
0.0
 10
45.99964701334635
 20
2.0494873046875
 30
0.0
 10
45.99964701334635
 20
2.0494873046875
 30
0.0
 10
45.99964701334635
 20
2.0494873046875
 30
0.0
 10
46.21961636013455
 20
2.753492567274305
 30
0.0
 10
46.39548848470052
 20
3.017386881510416
 30
0.0
 10
46.5715328640408
 20
3.281453450520833
 30
0.0
 10
46.68160366482204
 20
3.391351996527777
 30
0.0
 10
46.87952440049913
 20
3.237356228298611
 30
0.0
 10
47.07761739095052
 20
3.083360460069444
 30
0.0
 10
48.00159200032552
 20
2.313381618923611
 30
0.0
 10
48.28753492567274
 20
2.0494873046875
 30
0.0
 10
48.50750427246094
 20
2.0494873046875
 30
0.0
 10
49.01358879937065
 20
2.0494873046875
 30
0.0
 10
49.01358879937065
 20
2.0494873046875
 30
0.0
 10
49.01358879937065
 20
2.0494873046875
 30
0.0
 10
49.10161098904079
 20
2.643421766493055
 30
0.0
 10
49.27748311360676
 20
2.907488335503472
 30
0.0
 10
49.45352749294705
 20
3.171382649739583
 30
0.0
 10
49.5854746500651
 20
3.501422797309028
 30
0.0
 10
49.84954121907552
 20
3.281453450520833
 30
0.0
 10
50.11360778808594
 20
3.061484103732639
 30
0.0
 10
51.05963100857205
 20
2.269456651475694
 30
0.0
 10
51.23550313313802
 20
2.027438693576389
 30
0.0
 10
51.36762254503038
 20
2.027438693576389
 30
0.0
 10
52.24749993218315
 20
2.027438693576389
 30
0.0
 10
52.24749993218315
 20
2.027438693576389
 30
0.0
 10
52.24749993218315
 20
2.027438693576389
 30
0.0
 10
52.44559292263455
 20
2.775368923611111
 30
0.0
 10
52.5775400797526
 20
2.995510525173611
 30
0.0
 10
52.70948723687066
 20
3.215479871961805
 30
0.0
 10
52.84160664876302
 20
3.479374186197916
 30
0.0
 10
53.12754957411024
 20
3.259404839409722
 30
0.0
 10
53.41349249945746
 20
3.039435492621528
 30
0.0
 10
54.1836435953776
 20
2.40140380859375
 30
0.0
 10
54.44753790961371
 20
2.027438693576389
 30
0.0
 10
54.55760871039496
 20
2.027438693576389
 30
0.0
 10
55.52550828721788
 20
2.027438693576389
 30
0.0
 10
55.52550828721788
 20
2.027438693576389
 30
0.0
 10
55.52550828721788
 20
2.027438693576389
 30
0.0
 10
55.70155266655816
 20
2.731443956163194
 30
0.0
 10
55.87759704589843
 20
2.951413302951389
 30
0.0
 10
56.05364142523871
 20
3.171382649739583
 30
0.0
 10
56.11944274902344
 20
3.347427029079861
 30
0.0
 10
56.36163296169704
 20
3.171382649739583
 30
0.0
 10
56.60347866482204
 20
2.995510525173611
 30
0.0
 10
57.43960333930121
 20
2.335430230034722
 30
0.0
 10
57.68144904242621
 20
2.0494873046875
 30
0.0
 10
57.8795420328776
 20
2.0494873046875
 30
0.0
 10
58.75941942003038
 20
2.0494873046875
 30
0.0
 10
58.75941942003038
 20
2.0494873046875
 30
0.0
 10
58.75941942003038
 20
2.0494873046875
 30
0.0
 10
58.91358744303385
 20
2.621373155381944
 30
0.0
 10
59.08945956759982
 20
2.885439724392361
 30
0.0
 10
59.2655039469401
 20
3.149506293402777
 30
0.0
 10
59.35352613661024
 20
3.43544921875
 30
0.0
 10
59.68356628417968
 20
3.193431260850694
 30
0.0
 10
60.01343417697482
 20
2.951413302951389
 30
0.0
 10
60.8714352077908
 20
2.203483072916666
 30
0.0
 10
61.02543097601996
 20
2.027438693576389
 30
0.0
 10
61.20147535536024
 20
2.027438693576389
 30
0.0
 10
62.01555141872829
 20
2.027438693576389
 30
0.0
 10
62.01555141872829
 20
2.027438693576389
 30
0.0
 10
62.01555141872829
 20
2.027438693576389
 30
0.0
 10
62.16954718695746
 20
2.731443956163194
 30
0.0
 10
62.32354295518663
 20
2.951413302951389
 30
0.0
 10
62.47753872341579
 20
3.171382649739583
 30
0.0
 10
62.58743726942274
 20
3.369475640190972
 30
0.0
 10
62.89542880588107
 20
3.149506293402777
 30
0.0
 10
63.20359259711371
 20
2.929364691840278
 30
0.0
 10
64.03954501681857
 20
2.291505262586806
 30
0.0
 10
64.21541714138455
 20
2.0494873046875
 30
0.0
 10
64.34753655327691
 20
2.0494873046875
 30
0.0
 10
65.0294932047526
 20
2.0494873046875
 30
0.0
 10
65.0294932047526
 20
2.0494873046875
 30
0.0
 10
65.0294932047526
 20
2.0494873046875
 30
0.0
 10
65.33748474121093
 20
2.731443956163194
 30
0.0
 10
65.57950269911024
 20
2.9734619140625
 30
0.0
 10
65.74727884928385
 20
3.141238064236111
 30
0.0
 10
65.86544562445747
 20
3.281453450520833
 30
0.0
 10
66.10746358235677
 20
3.105409071180555
 30
0.0
 10
66.34948154025607
 20
2.929364691840278
 30
0.0
 10
67.05348680284287
 20
2.423452419704861
 30
0.0
 10
67.31755337185329
 20
2.247408040364583
 30
0.0
 10
67.58144768608941
 20
2.071363661024305
 30
0.0
 10
68.17538214789497
 20
2.071363661024305
 30
0.0
 10
68.39552374945745
 20
2.357478841145833
 30
0.0
 10
68.61549309624566
 20
2.643421766493055
 30
0.0
 10
68.79704962836371
 20
2.830490451388889
 30
0.0
 10
68.90143602159287
 20
2.9734619140625
 30
0.0
 10
69.02373691134982
 20
3.143994140625
 30
0.0
 10
69.20115932888454
 20
3.176894802517361
 30
0.0
 10
69.38547193739149
 20
3.020142957899305
 30
0.0
 10
69.6590125189887
 20
2.789149305555555
 30
0.0
 10
70.11014777289496
 20
2.497694227430555
 30
0.0
 10
70.24347296820746
 20
2.379355197482639
 30
0.0
 10
70.46344231499566
 20
2.181434461805555
 30
0.0
 10
71.12352261013454
 20
1.873442925347222
 30
0.0
 10
71.40946553548176
 20
2.181434461805555
 30
0.0
 10
71.69540846082899
 20
2.489425998263889
 30
0.0
 10
71.87145284016927
 20
2.621373155381944
 30
0.0
 10
72.00339999728732
 20
2.753492567274305
 30
0.0
 10
72.13551940917968
 20
2.885439724392361
 30
0.0
 10
72.31139153374565
 20
2.9734619140625
 30
0.0
 10
72.57545810275607
 20
2.709395345052083
 30
0.0
 10
72.83952467176648
 20
2.445501030815972
 30
0.0
 10
73.52148132324219
 20
1.763372124565972
 30
0.0
 10
73.52148132324219
 20
1.763372124565972
 30
0.0
 10
73.52148132324219
 20
1.763372124565972
 30
0.0
 10
73.67547709147135
 20
1.653473578559028
 30
0.0
 10
73.85152147081162
 20
1.609376356336805
 30
0.0
 10
74.0273935953776
 20
1.565451388888889
 30
0.0
 10
74.97341681586372
 20
1.323433430989583
 30
0.0
 10
74.97341681586372
 20
1.323433430989583
 30
0.0
 10
74.97341681586372
 20
1.323433430989583
 30
0.0
 10
75.28140835232205
 20
1.191486273871528
 30
0.0
 10
75.34755418565537
 20
1.301384819878472
 30
0.0
 10
75.4133555094401
 20
1.411455620659722
 30
0.0
 10
75.85346645779079
 20
1.807469346788194
 30
0.0
 10
75.85346645779079
 20
1.807469346788194
 30
0.0
 10
75.85346645779079
 20
1.807469346788194
 30
0.0
 10
76.95348544650607
 20
0.8393975151909722
 30
0.0
 10
76.95348544650607
 20
0.8393975151909722
 30
0.0
 10
76.95348544650607
 20
0.8393975151909722
 30
0.0
 10
77.87746005588107
 20
0.55345458984375
 30
0.0
 10
77.87746005588107
 20
0.55345458984375
 30
0.0
 10
77.87746005588107
 20
0.55345458984375
 30
0.0
 10
78.38337232801649
 20
0.8393975151909722
 30
0.0
 10
78.38337232801649
 20
0.8393975151909722
 30
0.0
 10
78.38337232801649
 20
0.8393975151909722
 30
0.0
 10
78.99935540093316
 20
0.2893880208333333
 30
0.0
 10
78.99935540093316
 20
0.2893880208333333
 30
0.0
 10
78.99935540093316
 20
0.2893880208333333
 30
0.0
 10
80.02651062011718
 20
0.0308336046006944
 30
0.0
 10
80.27541876898872
 20
-0.0406521267361111
 30
0.0
 10
80.89140184190538
 20
-0.2165242513020833
 30
0.0
 10
80.82542826334635
 20
-0.6125379774305555
 30
0.0
 10
80.42941453721788
 20
-0.7665337456597221
 30
0.0
 10
80.03340081108941
 20
-0.9205295138888888
 30
0.0
 10
78.38337232801649
 20
-1.382516818576389
 30
0.0
 10
78.38337232801649
 20
-1.382516818576389
 30
0.0
 10
78.38337232801649
 20
-1.382516818576389
 30
0.0
 10
78.22799852159288
 20
-1.888601345486111
 30
0.0
 10
78.18545159233941
 20
-2.042597113715277
 30
0.0
 10
78.11947801378038
 20
-2.284615071614583
 30
0.0
 10
77.96548224555122
 20
-2.284615071614583
 30
0.0
 10
77.74551289876301
 20
-2.064645724826389
 30
0.0
 10
77.52554355197482
 20
-1.844676378038194
 30
0.0
 10
77.41547275119358
 20
-1.536684841579861
 30
0.0
 10
77.41547275119358
 20
-1.536684841579861
 30
0.0
 10
77.41547275119358
 20
-1.536684841579861
 30
0.0
 10
75.69947068956162
 20
-1.844676378038194
 30
0.0
 10
75.69947068956162
 20
-1.844676378038194
 30
0.0
 10
75.69947068956162
 20
-1.844676378038194
 30
0.0
 10
75.56752353244357
 20
-2.394685872395833
 30
0.0
 10
75.45745273166232
 20
-2.680628797743055
 30
0.0
 10
75.34755418565537
 20
-2.966571723090278
 30
0.0
 10
75.34755418565537
 20
-3.120567491319444
 30
0.0
 10
75.12741258409288
 20
-2.966571723090278
 30
0.0
 10
74.90744323730468
 20
-2.812575954861111
 30
0.0
 10
74.20343797471787
 20
-2.240517849392361
 30
0.0
 10
74.04944220648871
 20
-2.064645724826389
 30
0.0
 10
73.93954366048176
 20
-2.130619303385417
 30
0.0
 10
72.61938307020398
 20
-2.3285400390625
 30
0.0
 10
72.61938307020398
 20
-2.3285400390625
 30
0.0
 10
72.61938307020398
 20
-2.3285400390625
 30
0.0
 10
72.48743591308593
 20
-3.142616102430555
 30
0.0
 10
72.42146233452691
 20
-3.340709092881944
 30
0.0
 10
72.35548875596787
 20
-3.538629828559027
 30
0.0
 10
72.28951517740885
 20
-3.648528374565972
 30
0.0
 10
72.06954583062066
 20
-3.494704861111111
 30
0.0
 10
71.84940422905815
 20
-3.340709092881944
 30
0.0
 10
71.05737677680121
 20
-2.768650987413194
 30
0.0
 10
70.85945604112412
 20
-2.504584418402778
 30
0.0
 10
70.57351311577691
 20
-2.482708062065972
 30
0.0
 10
69.64953850640191
 20
-2.570557996961806
 30
0.0
 10
69.64953850640191
 20
-2.570557996961806
 30
0.0
 10
69.64953850640191
 20
-2.570557996961806
 30
0.0
 10
69.45144551595051
 20
-3.494704861111111
 30
0.0
 10
69.34137471516927
 20
-3.714674207899305
 30
0.0
 10
69.23147616916232
 20
-3.9346435546875
 30
0.0
 10
69.23147616916232
 20
-4.19853786892361
 30
0.0
 10
68.90143602159287
 20
-3.9346435546875
 30
0.0
 10
68.57156812879774
 20
-3.670576985677083
 30
0.0
 10
67.95541280110676
 20
-3.076642523871528
 30
0.0
 10
67.73544345431857
 20
-2.724553765190972
 30
0.0
 10
67.60349629720052
 20
-2.724553765190972
 30
0.0
 10
66.37153015136718
 20
-2.702677408854167
 30
0.0
 10
66.37153015136718
 20
-2.702677408854167
 30
0.0
 10
66.37153015136718
 20
-2.702677408854167
 30
0.0
 10
66.26145935058594
 20
-3.428559027777777
 30
0.0
 10
66.12951219346788
 20
-3.670576985677083
 30
0.0
 10
65.99756503634983
 20
-3.912594943576389
 30
0.0
 10
65.90954284667969
 20
-4.066590711805556
 30
0.0
 10
65.64547627766926
 20
-3.868669976128472
 30
0.0
 10
65.38158196343315
 20
-3.670576985677083
 30
0.0
 10
64.78747524685329
 20
-3.076642523871528
 30
0.0
 10
64.5895545111762
 20
-2.658580186631944
 30
0.0
 10
64.52358093261718
 20
-2.658580186631944
 30
0.0
 10
63.11557040744357
 20
-2.702677408854167
 30
0.0
 10
63.11557040744357
 20
-2.702677408854167
 30
0.0
 10
63.11557040744357
 20
-2.702677408854167
 30
0.0
 10
63.04942457411024
 20
-3.274563259548611
 30
0.0
 10
62.89542880588107
 20
-3.582554796006944
 30
0.0
 10
62.7414330376519
 20
-3.890546332465278
 30
0.0
 10
62.7195566813151
 20
-4.132564290364583
 30
0.0
 10
62.43344150119357
 20
-3.868669976128472
 30
0.0
 10
62.14749857584635
 20
-3.604603407118055
 30
0.0
 10
61.37751973470051
 20
-3.0106689453125
 30
0.0
 10
61.22352396647135
 20
-2.636531575520833
 30
0.0
 10
61.02543097601996
 20
-2.636531575520833
 30
0.0
 10
59.90353563096787
 20
-2.636531575520833
 30
0.0
 10
59.90353563096787
 20
-2.636531575520833
 30
0.0
 10
59.90353563096787
 20
-2.636531575520833
 30
0.0
 10
59.77158847384982
 20
-3.318660481770833
 30
0.0
 10
59.66151767306857
 20
-3.538629828559027
 30
0.0
 10
59.55144687228732
 20
-3.758599175347222
 30
0.0
 10
59.48547329372829
 20
-3.9346435546875
 30
0.0
 10
59.17748175726996
 20
-3.714674207899305
 30
0.0
 10
58.86949022081163
 20
-3.494704861111111
 30
0.0
 10
58.09951137966579
 20
-2.878549533420139
 30
0.0
 10
57.92346700032552
 20
-2.636531575520833
 30
0.0
 10
57.70349765353732
 20
-2.636531575520833
 30
0.0
 10
56.58160230848524
 20
-2.658580186631944
 30
0.0
 10
56.58160230848524
 20
-2.658580186631944
 30
0.0
 10
56.58160230848524
 20
-2.658580186631944
 30
0.0
 10
56.47153150770399
 20
-3.340709092881944
 30
0.0
 10
56.36163296169704
 20
-3.626652018229166
 30
0.0
 10
56.2515621609158
 20
-3.912594943576389
 30
0.0
 10
55.97371520996093
 20
-3.8850341796875
 30
0.0
 10
55.72360127766927
 20
-3.648528374565972
 30
0.0
 10
55.3275875515408
 20
-3.274563259548611
 30
0.0
 10
54.68955586751302
 20
-2.614655219184027
 30
0.0
 10
54.68955586751302
 20
-2.614655219184027
 30
0.0
 10
54.68955586751302
 20
-2.614655219184027
 30
0.0
 10
53.43554111056857
 20
-2.636531575520833
 30
0.0
 10
53.43554111056857
 20
-2.636531575520833
 30
0.0
 10
53.43554111056857
 20
-2.636531575520833
 30
0.0
 10
53.2594967312283
 20
-3.230638292100694
 30
0.0
 10
53.12754957411024
 20
-3.516581217447917
 30
0.0
 10
52.99560241699219
 20
-3.802524142795138
 30
0.0
 10
52.88553161621093
 20
-4.132564290364583
 30
0.0
 10
52.5775400797526
 20
-3.802524142795138
 30
0.0
 10
52.26954854329426
 20
-3.47265625
 30
0.0
 10
51.45547247992621
 20
-2.658580186631944
 30
0.0
 10
51.45547247992621
 20
-2.658580186631944
 30
0.0
 10
51.45547247992621
 20
-2.658580186631944
 30
0.0
 10
50.33357713487413
 20
-2.680628797743055
 30
0.0
 10
50.33357713487413
 20
-2.680628797743055
 30
0.0
 10
50.33357713487413
 20
-2.680628797743055
 30
0.0
 10
50.11360778808594
 20
-3.384634060329861
 30
0.0
 10
50.00353698730469
 20
-3.582554796006944
 30
0.0
 10
49.89363844129774
 20
-3.780647786458333
 30
0.0
 10
49.8056162516276
 20
-3.9346435546875
 30
0.0
 10
49.49762471516927
 20
-3.626652018229166
 30
0.0
 10
49.18963317871094
 20
-3.318660481770833
 30
0.0
 10
48.39760572645399
 20
-2.702677408854167
 30
0.0
 10
48.33145989312065
 20
-2.614655219184027
 30
0.0
 10
48.33145989312065
 20
-2.570557996961806
 30
0.0
 10
46.92362162272135
 20
-2.614655219184027
 30
0.0
 10
46.92362162272135
 20
-2.614655219184027
 30
0.0
 10
46.92362162272135
 20
-2.614655219184027
 30
0.0
 10
46.70365227593316
 20
-3.428559027777777
 30
0.0
 10
46.61563008626302
 20
-3.604603407118055
 30
0.0
 10
46.52760789659288
 20
-3.780647786458333
 30
0.0
 10
46.33364902072482
 20
-3.907082790798611
 30
0.0
 10
46.06562059190538
 20
-3.692625596788194
 30
0.0
 10
45.62550964355469
 20
-3.340709092881944
 30
0.0
 10
45.16352233886718
 20
-2.966571723090278
 30
0.0
 10
44.9656016031901
 20
-2.614655219184027
 30
0.0
 10
44.94355299207899
 20
-2.614655219184027
 30
0.0
 10
43.68953823513454
 20
-2.592606608072916
 30
0.0
 10
43.68953823513454
 20
-2.592606608072916
 30
0.0
 10
43.68953823513454
 20
-2.592606608072916
 30
0.0
 10
43.51349385579427
 20
-3.47265625
 30
0.0
 10
43.40359530978732
 20
-3.670576985677083
 30
0.0
 10
43.29352450900607
 20
-3.868669976128472
 30
0.0
 10
43.16157735188802
 20
-4.088639322916666
 30
0.0
 10
42.74351501464843
 20
-3.648528374565972
 30
0.0
 10
42.32562493218315
 20
-3.208589680989583
 30
0.0
 10
41.9516598171658
 20
-2.834624565972222
 30
0.0
 10
41.77561543782552
 20
-2.592606608072916
 30
0.0
 10
41.57769470214844
 20
-2.592606608072916
 30
0.0
 10
40.38965352376302
 20
-2.592606608072916
 30
0.0
 10
40.38965352376302
 20
-2.592606608072916
 30
0.0
 10
40.38965352376302
 20
-2.592606608072916
 30
0.0
 10
40.30163133409288
 20
-3.36258544921875
 30
0.0
 10
40.21360914442274
 20
-3.582554796006944
 30
0.0
 10
40.1255869547526
 20
-3.802524142795138
 30
0.0
 10
40.05961337619358
 20
-4.110687934027777
 30
0.0
 10
39.70752461751302
 20
-3.802524142795138
 30
0.0
 10
39.41331346299913
 20
-3.54552001953125
 30
0.0
 10
38.71068623860677
 20
-3.027033148871527
 30
0.0
 10
38.54153205023872
 20
-2.592606608072916
 30
0.0
 10
38.43163350423177
 20
-2.592606608072916
 30
0.0
 10
37.15557013617621
 20
-2.614655219184027
 30
0.0
 10
37.15557013617621
 20
-2.614655219184027
 30
0.0
 10
37.15557013617621
 20
-2.614655219184027
 30
0.0
 10
37.1335215250651
 20
-3.098691134982639
 30
0.0
 10
36.86962721082899
 20
-3.582554796006944
 30
0.0
 10
36.74181416829427
 20
-3.816304524739583
 30
0.0
 10
36.69358283148871
 20
-3.82457275390625
 30
0.0
 10
36.45156487358941
 20
-3.692625596788194
 30
0.0
 10
36.2095469156901
 20
-3.560678439670139
 30
0.0
 10
35.48366529676649
 20
-2.922646755642361
 30
0.0
 10
35.2636959499783
 20
-2.614655219184027
 30
0.0
 10
35.08765157063802
 20
-2.614655219184027
 30
0.0
 10
33.87756178114149
 20
-2.636531575520833
 30
0.0
 10
33.87756178114149
 20
-2.636531575520833
 30
0.0
 10
33.87756178114149
 20
-2.636531575520833
 30
0.0
 10
33.72356601291232
 20
-3.36258544921875
 30
0.0
 10
33.61366746690538
 20
-3.648528374565972
 30
0.0
 10
33.50359666612413
 20
-3.9346435546875
 30
0.0
 10
33.39352586534288
 20
-3.9346435546875
 30
0.0
 10
33.15168016221788
 20
-3.736550564236111
 30
0.0
 10
33.15168016221788
 20
-3.736550564236111
 30
0.0
 10
32.13003709581163
 20
-2.641526963975694
 30
0.0
 10
32.13003709581163
 20
-2.641526963975694
 30
0.0
  0
SPLINE
  5
13D
330
2D
100
AcDbEntity
  8
LAYER_1
 62
     7
100
AcDbSpline
210
0.0
220
0.0
230
1.0
 70
     8
 71
     3
 72
   362
 73
   358
 74
     0
 42
0.0000000001
 43
0.0000000001
 40
0.0
 40
0.0
 40
0.0
 40
0.0
 40
1.0
 40
1.0
 40
1.0
 40
2.0
 40
2.0
 40
2.0
 40
3.0
 40
3.0
 40
3.0
 40
4.0
 40
4.0
 40
4.0
 40
5.0
 40
5.0
 40
5.0
 40
6.0
 40
6.0
 40
6.0
 40
7.0
 40
7.0
 40
7.0
 40
8.0
 40
8.0
 40
8.0
 40
9.0
 40
9.0
 40
9.0
 40
10.0
 40
10.0
 40
10.0
 40
11.0
 40
11.0
 40
11.0
 40
12.0
 40
12.0
 40
12.0
 40
13.0
 40
13.0
 40
13.0
 40
14.0
 40
14.0
 40
14.0
 40
15.0
 40
15.0
 40
15.0
 40
16.0
 40
16.0
 40
16.0
 40
17.0
 40
17.0
 40
17.0
 40
18.0
 40
18.0
 40
18.0
 40
19.0
 40
19.0
 40
19.0
 40
20.0
 40
20.0
 40
20.0
 40
21.0
 40
21.0
 40
21.0
 40
22.0
 40
22.0
 40
22.0
 40
23.0
 40
23.0
 40
23.0
 40
24.0
 40
24.0
 40
24.0
 40
25.0
 40
25.0
 40
25.0
 40
26.0
 40
26.0
 40
26.0
 40
27.0
 40
27.0
 40
27.0
 40
28.0
 40
28.0
 40
28.0
 40
29.0
 40
29.0
 40
29.0
 40
30.0
 40
30.0
 40
30.0
 40
31.0
 40
31.0
 40
31.0
 40
32.0
 40
32.0
 40
32.0
 40
33.0
 40
33.0
 40
33.0
 40
34.0
 40
34.0
 40
34.0
 40
35.0
 40
35.0
 40
35.0
 40
36.0
 40
36.0
 40
36.0
 40
37.0
 40
37.0
 40
37.0
 40
38.0
 40
38.0
 40
38.0
 40
39.0
 40
39.0
 40
39.0
 40
40.0
 40
40.0
 40
40.0
 40
41.0
 40
41.0
 40
41.0
 40
42.0
 40
42.0
 40
42.0
 40
43.0
 40
43.0
 40
43.0
 40
44.0
 40
44.0
 40
44.0
 40
45.0
 40
45.0
 40
45.0
 40
46.0
 40
46.0
 40
46.0
 40
47.0
 40
47.0
 40
47.0
 40
48.0
 40
48.0
 40
48.0
 40
49.0
 40
49.0
 40
49.0
 40
50.0
 40
50.0
 40
50.0
 40
51.0
 40
51.0
 40
51.0
 40
52.0
 40
52.0
 40
52.0
 40
53.0
 40
53.0
 40
53.0
 40
54.0
 40
54.0
 40
54.0
 40
55.0
 40
55.0
 40
55.0
 40
56.0
 40
56.0
 40
56.0
 40
57.0
 40
57.0
 40
57.0
 40
58.0
 40
58.0
 40
58.0
 40
59.0
 40
59.0
 40
59.0
 40
60.0
 40
60.0
 40
60.0
 40
61.0
 40
61.0
 40
61.0
 40
62.0
 40
62.0
 40
62.0
 40
63.0
 40
63.0
 40
63.0
 40
64.0
 40
64.0
 40
64.0
 40
65.0
 40
65.0
 40
65.0
 40
66.0
 40
66.0
 40
66.0
 40
67.0
 40
67.0
 40
67.0
 40
68.0
 40
68.0
 40
68.0
 40
69.0
 40
69.0
 40
69.0
 40
70.0
 40
70.0
 40
70.0
 40
71.0
 40
71.0
 40
71.0
 40
72.0
 40
72.0
 40
72.0
 40
73.0
 40
73.0
 40
73.0
 40
74.0
 40
74.0
 40
74.0
 40
75.0
 40
75.0
 40
75.0
 40
76.0
 40
76.0
 40
76.0
 40
77.0
 40
77.0
 40
77.0
 40
78.0
 40
78.0
 40
78.0
 40
79.0
 40
79.0
 40
79.0
 40
80.0
 40
80.0
 40
80.0
 40
81.0
 40
81.0
 40
81.0
 40
82.0
 40
82.0
 40
82.0
 40
83.0
 40
83.0
 40
83.0
 40
84.0
 40
84.0
 40
84.0
 40
85.0
 40
85.0
 40
85.0
 40
86.0
 40
86.0
 40
86.0
 40
87.0
 40
87.0
 40
87.0
 40
88.0
 40
88.0
 40
88.0
 40
89.0
 40
89.0
 40
89.0
 40
90.0
 40
90.0
 40
90.0
 40
91.0
 40
91.0
 40
91.0
 40
92.0
 40
92.0
 40
92.0
 40
93.0
 40
93.0
 40
93.0
 40
94.0
 40
94.0
 40
94.0
 40
95.0
 40
95.0
 40
95.0
 40
96.0
 40
96.0
 40
96.0
 40
97.0
 40
97.0
 40
97.0
 40
98.0
 40
98.0
 40
98.0
 40
99.0
 40
99.0
 40
99.0
 40
100.0
 40
100.0
 40
100.0
 40
101.0
 40
101.0
 40
101.0
 40
102.0
 40
102.0
 40
102.0
 40
103.0
 40
103.0
 40
103.0
 40
104.0
 40
104.0
 40
104.0
 40
105.0
 40
105.0
 40
105.0
 40
106.0
 40
106.0
 40
106.0
 40
107.0
 40
107.0
 40
107.0
 40
108.0
 40
108.0
 40
108.0
 40
109.0
 40
109.0
 40
109.0
 40
110.0
 40
110.0
 40
110.0
 40
111.0
 40
111.0
 40
111.0
 40
112.0
 40
112.0
 40
112.0
 40
113.0
 40
113.0
 40
113.0
 40
114.0
 40
114.0
 40
114.0
 40
115.0
 40
115.0
 40
115.0
 40
116.0
 40
116.0
 40
116.0
 40
117.0
 40
117.0
 40
117.0
 40
118.0
 40
118.0
 40
118.0
 40
119.0
 40
119.0
 40
119.0
 40
119.0
 10
35.26524624294704
 20
-2.504584418402778
 30
0.0
 10
34.97930331759982
 20
-2.482708062065972
 30
0.0
 10
34.05532870822482
 20
-2.570557996961806
 30
0.0
 10
34.05532870822482
 20
-2.570557996961806
 30
0.0
 10
34.05532870822482
 20
-2.570557996961806
 30
0.0
 10
33.85723571777344
 20
-3.494704861111111
 30
0.0
 10
33.74733717176649
 20
-3.714674207899305
 30
0.0
 10
33.63726637098524
 20
-3.9346435546875
 30
0.0
 10
33.63726637098524
 20
-4.19853786892361
 30
0.0
 10
33.3072262234158
 20
-3.9346435546875
 30
0.0
 10
32.97735833062065
 20
-3.670576985677083
 30
0.0
 10
32.36137525770399
 20
-3.076642523871528
 30
0.0
 10
32.14123365614149
 20
-2.724553765190972
 30
0.0
 10
32.00928649902343
 20
-2.724553765190972
 30
0.0
 10
30.7773203531901
 20
-2.702677408854167
 30
0.0
 10
30.7773203531901
 20
-2.702677408854167
 30
0.0
 10
30.7773203531901
 20
-2.702677408854167
 30
0.0
 10
30.66724955240885
 20
-3.428559027777777
 30
0.0
 10
30.5353023952908
 20
-3.670576985677083
 30
0.0
 10
30.40335523817274
 20
-3.912594943576389
 30
0.0
 10
30.3153330485026
 20
-4.066590711805556
 30
0.0
 10
30.05126647949219
 20
-3.868669976128472
 30
0.0
 10
29.78737216525607
 20
-3.670576985677083
 30
0.0
 10
29.19326544867621
 20
-3.076642523871528
 30
0.0
 10
28.99534471299913
 20
-2.658580186631944
 30
0.0
 10
28.9293711344401
 20
-2.658580186631944
 30
0.0
 10
27.52136060926649
 20
-2.702677408854167
 30
0.0
 10
27.52136060926649
 20
-2.702677408854167
 30
0.0
 10
27.52136060926649
 20
-2.702677408854167
 30
0.0
 10
27.45538703070746
 20
-3.274563259548611
 30
0.0
 10
27.3013912624783
 20
-3.582554796006944
 30
0.0
 10
27.14722323947482
 20
-3.890546332465278
 30
0.0
 10
27.12534688313802
 20
-4.132564290364583
 30
0.0
 10
26.83923170301649
 20
-3.868669976128472
 30
0.0
 10
26.55328877766927
 20
-3.604603407118055
 30
0.0
 10
25.78330993652343
 20
-3.0106689453125
 30
0.0
 10
25.62931416829427
 20
-2.636531575520833
 30
0.0
 10
25.43139343261719
 20
-2.636531575520833
 30
0.0
 10
24.3093258327908
 20
-2.636531575520833
 30
0.0
 10
24.3093258327908
 20
-2.636531575520833
 30
0.0
 10
24.3093258327908
 20
-2.636531575520833
 30
0.0
 10
24.17737867567274
 20
-3.318660481770833
 30
0.0
 10
24.06730787489149
 20
-3.538629828559027
 30
0.0
 10
23.95740932888455
 20
-3.758599175347222
 30
0.0
 10
23.89126349555122
 20
-3.9346435546875
 30
0.0
 10
23.58327195909288
 20
-3.714674207899305
 30
0.0
 10
23.27528042263455
 20
-3.494704861111111
 30
0.0
 10
22.50530158148871
 20
-2.878549533420139
 30
0.0
 10
22.32925720214844
 20
-2.636531575520833
 30
0.0
 10
22.10928785536024
 20
-2.636531575520833
 30
0.0
 10
20.98739251030816
 20
-2.658580186631944
 30
0.0
 10
20.98739251030816
 20
-2.658580186631944
 30
0.0
 10
20.98739251030816
 20
-2.658580186631944
 30
0.0
 10
20.87732170952691
 20
-3.340709092881944
 30
0.0
 10
20.76742316351997
 20
-3.626652018229166
 30
0.0
 10
20.65735236273871
 20
-3.912594943576389
 30
0.0
 10
20.37950541178385
 20
-3.8850341796875
 30
0.0
 10
20.12939147949219
 20
-3.648528374565972
 30
0.0
 10
19.73337775336371
 20
-3.274563259548611
 30
0.0
 10
19.09534606933594
 20
-2.614655219184027
 30
0.0
 10
19.09534606933594
 20
-2.614655219184027
 30
0.0
 10
19.09534606933594
 20
-2.614655219184027
 30
0.0
 10
17.84133131239149
 20
-2.636531575520833
 30
0.0
 10
17.84133131239149
 20
-2.636531575520833
 30
0.0
 10
17.84133131239149
 20
-2.636531575520833
 30
0.0
 10
17.66528693305121
 20
-3.230638292100694
 30
0.0
 10
17.53333977593316
 20
-3.516581217447917
 30
0.0
 10
17.4013926188151
 20
-3.802524142795138
 30
0.0
 10
17.29132181803385
 20
-4.132564290364583
 30
0.0
 10
16.98333028157552
 20
-3.802524142795138
 30
0.0
 10
16.67533874511719
 20
-3.47265625
 30
0.0
 10
15.86143493652344
 20
-2.658580186631944
 30
0.0
 10
15.86143493652344
 20
-2.658580186631944
 30
0.0
 10
15.86143493652344
 20
-2.658580186631944
 30
0.0
 10
14.73936733669705
 20
-2.680628797743055
 30
0.0
 10
14.73936733669705
 20
-2.680628797743055
 30
0.0
 10
14.73936733669705
 20
-2.680628797743055
 30
0.0
 10
14.51939798990885
 20
-3.384634060329861
 30
0.0
 10
14.4093271891276
 20
-3.582554796006944
 30
0.0
 10
14.29942864312066
 20
-3.780647786458333
 30
0.0
 10
14.21140645345052
 20
-3.9346435546875
 30
0.0
 10
13.90341491699219
 20
-3.626652018229166
 30
0.0
 10
13.59525112575955
 20
-3.318660481770833
 30
0.0
 10
12.80339592827691
 20
-2.702677408854167
 30
0.0
 10
12.73742234971788
 20
-2.614655219184027
 30
0.0
 10
12.73742234971788
 20
-2.570557996961806
 30
0.0
 10
11.32941182454427
 20
-2.614655219184027
 30
0.0
 10
11.32941182454427
 20
-2.614655219184027
 30
0.0
 10
11.32941182454427
 20
-2.614655219184027
 30
0.0
 10
11.10944247775608
 20
-3.428559027777777
 30
0.0
 10
11.02142028808594
 20
-3.604603407118055
 30
0.0
 10
10.9333980984158
 20
-3.780647786458333
 30
0.0
 10
10.73961147732205
 20
-3.907082790798611
 30
0.0
 10
10.4714107937283
 20
-3.692625596788194
 30
0.0
 10
10.03147210015191
 20
-3.340709092881944
 30
0.0
 10
9.569312540690103
 20
-2.966571723090278
 30
0.0
 10
9.371391805013021
 20
-2.614655219184027
 30
0.0
 10
9.349343193901909
 20
-2.614655219184027
 30
0.0
 10
8.09550069173177
 20
-2.592606608072916
 30
0.0
 10
8.09550069173177
 20
-2.592606608072916
 30
0.0
 10
8.09550069173177
 20
-2.592606608072916
 30
0.0
 10
7.919456312391493
 20
-3.47265625
 30
0.0
 10
7.809385511610242
 20
-3.670576985677083
 30
0.0
 10
7.699314710828992
 20
-3.868669976128472
 30
0.0
 10
7.567367553710937
 20
-4.088639322916666
 30
0.0
 10
7.14947747124566
 20
-3.648528374565972
 30
0.0
 10
6.731415134006076
 20
-3.208589680989583
 30
0.0
 10
6.357450018988715
 20
-2.834624565972222
 30
0.0
 10
6.181405639648437
 20
-2.592606608072916
 30
0.0
 10
5.983484903971354
 20
-2.592606608072916
 30
0.0
 10
4.795443725585937
 20
-2.592606608072916
 30
0.0
 10
4.795443725585937
 20
-2.592606608072916
 30
0.0
 10
4.795443725585937
 20
-2.592606608072916
 30
0.0
 10
4.707421535915798
 20
-3.36258544921875
 30
0.0
 10
4.619399346245659
 20
-3.582554796006944
 30
0.0
 10
4.531377156575521
 20
-3.802524142795138
 30
0.0
 10
4.465403578016493
 20
-4.110687934027777
 30
0.0
 10
4.113487074110243
 20
-3.802524142795138
 30
0.0
 10
3.819103664822048
 20
-3.54552001953125
 30
0.0
 10
3.116648695203993
 20
-3.027033148871527
 30
0.0
 10
2.947494506835937
 20
-2.592606608072916
 30
0.0
 10
2.837423706054687
 20
-2.592606608072916
 30
0.0
 10
1.561360337999132
 20
-2.614655219184027
 30
0.0
 10
1.561360337999132
 20
-2.614655219184027
 30
0.0
 10
1.561360337999132
 20
-2.614655219184027
 30
0.0
 10
1.539483981662326
 20
-3.098691134982639
 30
0.0
 10
1.27541741265191
 20
-3.582554796006944
 30
0.0
 10
1.147604370117187
 20
-3.816304524739583
 30
0.0
 10
1.099373033311632
 20
-3.82457275390625
 30
0.0
 10
0.8575273301866319
 20
-3.692625596788194
 30
0.0
 10
0.6153371175130208
 20
-3.560678439670139
 30
0.0
 10
-0.1105445014105903
 20
-2.922646755642361
 30
0.0
 10
-0.3305138481987847
 20
-2.614655219184027
 30
0.0
 10
-0.5065582275390624
 20
-2.614655219184027
 30
0.0
 10
-1.71664801703559
 20
-2.636531575520833
 30
0.0
 10
-1.71664801703559
 20
-2.636531575520833
 30
0.0
 10
-1.71664801703559
 20
-2.636531575520833
 30
0.0
 10
-1.870643785264757
 20
-3.36258544921875
 30
0.0
 10
-1.980542331271701
 20
-3.648528374565972
 30
0.0
 10
-2.090613132052951
 20
-3.9346435546875
 30
0.0
 10
-2.200511678059895
 20
-3.9346435546875
 30
0.0
 10
-2.442529635959201
 20
-3.736550564236111
 30
0.0
 10
-2.684547593858507
 20
-3.538629828559027
 30
0.0
 10
-3.432477823893229
 20
-2.856673177083333
 30
0.0
 10
-3.56459723578559
 20
-2.614655219184027
 30
0.0
 10
-3.67466803656684
 20
-2.614655219184027
 30
0.0
 10
-4.95055914984809
 20
-2.614655219184027
 30
0.0
 10
-4.95055914984809
 20
-2.614655219184027
 30
0.0
 10
-4.95055914984809
 20
-2.614655219184027
 30
0.0
 10
-5.126603529188367
 20
-3.604603407118055
 30
0.0
 10
-5.30247565375434
 20
-3.758599175347222
 30
0.0
 10
-5.478520033094617
 20
-3.912594943576389
 30
0.0
 10
-5.610467190212673
 20
-3.956692165798611
 30
0.0
 10
-5.852485148111978
 20
-3.714674207899305
 30
0.0
 10
-6.094503106011284
 20
-3.47265625
 30
0.0
 10
-6.776632012261284
 20
-2.702677408854167
 30
0.0
 10
-6.842605590820312
 20
-2.614655219184027
 30
0.0
 10
-6.996601359049478
 20
-2.614655219184027
 30
0.0
 10
-7.656509399414062
 20
-2.680628797743055
 30
0.0
 10
-7.94262457953559
 20
-2.988620334201388
 30
0.0
 10
-8.228567504882811
 20
-3.296611870659722
 30
0.0
 10
-8.558607652452256
 20
-3.648528374565972
 30
0.0
 10
-8.558607652452256
 20
-3.648528374565972
 30
0.0
 10
-8.558607652452256
 20
-3.648528374565972
 30
0.0
 10
-74.218165757921
 20
-3.428559027777777
 30
0.0
 10
-74.218165757921
 20
-3.428559027777777
 30
0.0
 10
-74.218165757921
 20
-3.428559027777777
 30
0.0
 10
-75.12026401095919
 20
-3.406682671440972
 30
0.0
 10
-75.12026401095919
 20
-3.978568522135416
 30
0.0
 10
-75.12026401095919
 20
-4.550626627604166
 30
0.0
 10
-75.09821539984809
 20
-6.024610731336805
 30
0.0
 10
-75.09821539984809
 20
-6.816638183593749
 30
0.0
 10
-75.09821539984809
 20
-7.322550455729166
 30
0.0
 10
-76.46221483018663
 20
-7.454669867621528
 30
0.0
 10
-76.46221483018663
 20
-6.816638183593749
 30
0.0
 10
-76.46221483018663
 20
-6.420624457465277
 30
0.0
 10
-76.48426344129774
 20
-6.002562120225694
 30
0.0
 10
-76.48426344129774
 20
-6.002562120225694
 30
0.0
 10
-76.48426344129774
 20
-6.002562120225694
 30
0.0
 10
-79.80619676378038
 20
-6.002562120225694
 30
0.0
 10
-79.80619676378038
 20
-6.002562120225694
 30
0.0
 10
-79.80619676378038
 20
-6.002562120225694
 30
0.0
 10
-80.73017137315537
 20
-4.946640353732638
 30
0.0
 10
-80.73017137315537
 20
-4.946640353732638
 30
0.0
 10
-80.73017137315537
 20
-4.946640353732638
 30
0.0
 10
-80.73017137315537
 20
4.953358289930555
 30
0.0
 10
-80.73017137315537
 20
4.953358289930555
 30
0.0
 10
-80.73017137315537
 20
4.953358289930555
 30
0.0
 10
-79.76218566894531
 20
5.877332899305555
 30
0.0
 10
-79.76218566894531
 20
5.877332899305555
 30
0.0
 10
-79.76218566894531
 20
5.877332899305555
 30
0.0
 10
-76.46221483018663
 20
5.877332899305555
 30
0.0
 10
-76.46221483018663
 20
5.877332899305555
 30
0.0
 10
-76.46221483018663
 20
5.877332899305555
 30
0.0
 10
-76.46221483018663
 20
6.361541069878472
 30
0.0
 10
-76.46221483018663
 20
6.713457573784722
 30
0.0
 10
-76.46221483018663
 20
7.329440646701388
 30
0.0
 10
-75.09821539984809
 20
7.505485026041666
 30
0.0
 10
-75.09821539984809
 20
6.757382541232638
 30
0.0
 10
-75.09821539984809
 20
6.009452311197916
 30
0.0
 10
-75.09821539984809
 20
3.8974365234375
 30
0.0
 10
-75.09821539984809
 20
3.8974365234375
 30
0.0
 10
-75.09821539984809
 20
3.8974365234375
 30
0.0
 10
-74.74629889594183
 20
3.413400607638889
 30
0.0
 10
-74.17424079047308
 20
3.413400607638889
 30
0.0
 10
-73.60218268500434
 20
3.413400607638889
 30
0.0
 10
-9.658454386393228
 20
3.281453450520833
 30
0.0
 10
-8.998546346028645
 20
3.281453450520833
 30
0.0
 10
-8.338466050889757
 20
3.281453450520833
 30
0.0
 10
-7.590535820855034
 20
2.665470377604167
 30
0.0
 10
-7.150597127278645
 20
2.093412272135417
 30
0.0
 10
-7.018477715386284
 20
2.093412272135417
 30
0.0
 10
-6.094503106011284
 20
2.093412272135417
 30
0.0
 10
-6.094503106011284
 20
2.093412272135417
 30
0.0
 10
-6.094503106011284
 20
2.093412272135417
 30
0.0
 10
-5.962555948893229
 20
2.797417534722222
 30
0.0
 10
-5.786511569552951
 20
3.061484103732639
 30
0.0
 10
-5.610467190212673
 20
3.32537841796875
 30
0.0
 10
-5.52261725531684
 20
3.589444986979166
 30
0.0
 10
-5.170528496636284
 20
3.237356228298611
 30
0.0
 10
-4.818611992730034
 20
2.885439724392361
 30
0.0
 10
-4.114606730143229
 20
2.40140380859375
 30
0.0
 10
-3.982487318250868
 20
2.093412272135417
 30
0.0
 10
-3.410601467556423
 20
2.093412272135417
 30
0.0
 10
-2.794618394639757
 20
2.181434461805555
 30
0.0
 10
-2.794618394639757
 20
2.181434461805555
 30
0.0
 10
-2.794618394639757
 20
2.181434461805555
 30
0.0
 10
-2.596525404188368
 20
2.841342502170139
 30
0.0
 10
-2.42048102484809
 20
3.105409071180555
 30
0.0
 10
-2.247364976671007
 20
3.363963487413194
 30
0.0
 10
-2.134538099500868
 20
3.43544921875
 30
0.0
 10
-1.870643785264757
 20
3.215479871961805
 30
0.0
 10
-1.60657721625434
 20
2.995510525173611
 30
0.0
 10
-0.858646986219618
 20
2.357478841145833
 30
0.0
 10
-0.638505384657118
 20
2.0494873046875
 30
0.0
 10
-0.2424916585286458
 20
2.0494873046875
 30
0.0
 10
0.4615136040581597
 20
2.0494873046875
 30
0.0
 10
0.4615136040581597
 20
2.0494873046875
 30
0.0
 10
0.4615136040581597
 20
2.0494873046875
 30
0.0
 10
0.6373857286241319
 20
2.665470377604167
 30
0.0
 10
0.8134301079644096
 20
2.9734619140625
 30
0.0
 10
0.9894744873046875
 20
3.281453450520833
 30
0.0
 10
1.121421644422743
 20
3.545347764756944
 30
0.0
 10
1.517435370551215
 20
3.149506293402777
 30
0.0
 10
1.913449096679687
 20
2.753492567274305
 30
0.0
 10
2.30946282280816
 20
2.577448187934027
 30
0.0
 10
2.617454359266493
 20
2.0494873046875
 30
0.0
 10
2.925445895724826
 20
2.0494873046875
 30
0.0
 10
3.58535393608941
 20
2.115460883246528
 30
0.0
 10
3.58535393608941
 20
2.115460883246528
 30
0.0
 10
3.58535393608941
 20
2.115460883246528
 30
0.0
 10
3.871469116210937
 20
2.621373155381944
 30
0.0
 10
4.047513495551215
 20
2.9734619140625
 30
0.0
 10
4.223385620117187
 20
3.32537841796875
 30
0.0
 10
4.333456420898437
 20
3.413400607638889
 30
0.0
 10
4.685372924804687
 20
3.149506293402777
 30
0.0
 10
5.037461683485243
 20
2.885439724392361
 30
0.0
 10
5.785391913519965
 20
2.40140380859375
 30
0.0
 10
6.005361260308159
 20
2.0494873046875
 30
0.0
 10
6.401374986436632
 20
2.0494873046875
 30
0.0
 10
7.06145528157552
 20
2.0494873046875
 30
0.0
 10
7.06145528157552
 20
2.0494873046875
 30
0.0
 10
7.06145528157552
 20
2.0494873046875
 30
0.0
 10
7.193402438693576
 20
2.665470377604167
 30
0.0
 10
7.41337178548177
 20
3.017386881510416
 30
0.0
 10
7.633341132269965
 20
3.369475640190972
 30
0.0
 10
7.721363321940103
 20
3.369475640190972
 30
0.0
 10
7.98542989095052
 20
3.149506293402777
 30
0.0
 10
8.370419311523436
 20
2.827734375
 30
0.0
 10
8.865479532877604
 20
2.40140380859375
 30
0.0
 10
9.129373847113714
 20
2.0494873046875
 30
0.0
 10
9.305418226453993
 20
2.0494873046875
 30
0.0
 10
10.40543721516927
 20
2.0494873046875
 30
0.0
 10
10.40543721516927
 20
2.0494873046875
 30
0.0
 10
10.40543721516927
 20
2.0494873046875
 30
0.0
 10
10.62540656195746
 20
2.753492567274305
 30
0.0
 10
10.80145094129774
 20
3.017386881510416
 30
0.0
 10
10.97732306586372
 20
3.281453450520833
 30
0.0
 10
11.08739386664496
 20
3.391351996527777
 30
0.0
 10
11.28531460232205
 20
3.237356228298611
 30
0.0
 10
11.48340759277344
 20
3.083360460069444
 30
0.0
 10
12.40738220214844
 20
2.313381618923611
 30
0.0
 10
12.69332512749566
 20
2.0494873046875
 30
0.0
 10
12.91346672905816
 20
2.0494873046875
 30
0.0
 10
13.41937900119357
 20
2.0494873046875
 30
0.0
 10
13.41937900119357
 20
2.0494873046875
 30
0.0
 10
13.41937900119357
 20
2.0494873046875
 30
0.0
 10
13.50740119086371
 20
2.643421766493055
 30
0.0
 10
13.68344557020399
 20
2.907488335503472
 30
0.0
 10
13.85931769476996
 20
3.171382649739583
 30
0.0
 10
13.99143710666233
 20
3.501422797309028
 30
0.0
 10
14.25533142089844
 20
3.281453450520833
 30
0.0
 10
14.51939798990885
 20
3.061484103732639
 30
0.0
 10
15.46542121039497
 20
2.269456651475694
 30
0.0
 10
15.64129333496094
 20
2.027438693576389
 30
0.0
 10
15.7734127468533
 20
2.027438693576389
 30
0.0
 10
16.65329013400607
 20
2.027438693576389
 30
0.0
 10
16.65329013400607
 20
2.027438693576389
 30
0.0
 10
16.65329013400607
 20
2.027438693576389
 30
0.0
 10
16.85138312445746
 20
2.775368923611111
 30
0.0
 10
16.98333028157552
 20
2.995510525173611
 30
0.0
 10
17.11527743869358
 20
3.215479871961805
 30
0.0
 10
17.24739685058594
 20
3.479374186197916
 30
0.0
 10
17.53333977593316
 20
3.259404839409722
 30
0.0
 10
17.81928270128038
 20
3.039435492621528
 30
0.0
 10
18.58943379720052
 20
2.40140380859375
 30
0.0
 10
18.85332811143663
 20
2.027438693576389
 30
0.0
 10
18.96339891221788
 20
2.027438693576389
 30
0.0
 10
19.9312984890408
 20
2.027438693576389
 30
0.0
 10
19.9312984890408
 20
2.027438693576389
 30
0.0
 10
19.9312984890408
 20
2.027438693576389
 30
0.0
 10
20.10734286838108
 20
2.731443956163194
 30
0.0
 10
20.28338724772135
 20
2.951413302951389
 30
0.0
 10
20.45943162706163
 20
3.171382649739583
 30
0.0
 10
20.52540520562066
 20
3.347427029079861
 30
0.0
 10
20.76742316351997
 20
3.171382649739583
 30
0.0
 10
21.00944112141927
 20
2.995510525173611
 30
0.0
 10
21.84539354112413
 20
2.335430230034722
 30
0.0
 10
22.08741149902344
 20
2.0494873046875
 30
0.0
 10
22.28533223470052
 20
2.0494873046875
 30
0.0
 10
23.1653818766276
 20
2.0494873046875
 30
0.0
 10
23.1653818766276
 20
2.0494873046875
 30
0.0
 10
23.1653818766276
 20
2.0494873046875
 30
0.0
 10
23.31937764485677
 20
2.621373155381944
 30
0.0
 10
23.49542202419705
 20
2.885439724392361
 30
0.0
 10
23.67129414876302
 20
3.149506293402777
 30
0.0
 10
23.75931633843316
 20
3.43544921875
 30
0.0
 10
24.0893564860026
 20
3.193431260850694
 30
0.0
 10
24.41939663357205
 20
2.951413302951389
 30
0.0
 10
25.27739766438802
 20
2.203483072916666
 30
0.0
 10
25.43139343261719
 20
2.027438693576389
 30
0.0
 10
25.60726555718316
 20
2.027438693576389
 30
0.0
 10
26.42134162055121
 20
2.027438693576389
 30
0.0
 10
26.42134162055121
 20
2.027438693576389
 30
0.0
 10
26.42134162055121
 20
2.027438693576389
 30
0.0
 10
26.57533738878038
 20
2.731443956163194
 30
0.0
 10
26.72933315700955
 20
2.951413302951389
 30
0.0
 10
26.88332892523871
 20
3.171382649739583
 30
0.0
 10
26.99322747124566
 20
3.369475640190972
 30
0.0
 10
27.3013912624783
 20
3.149506293402777
 30
0.0
 10
27.60938279893663
 20
2.929364691840278
 30
0.0
 10
28.44533521864149
 20
2.291505262586806
 30
0.0
 10
28.62137959798177
 20
2.0494873046875
 30
0.0
 10
28.75332675509982
 20
2.0494873046875
 30
0.0
 10
29.43528340657552
 20
2.0494873046875
 30
0.0
 10
29.43528340657552
 20
2.0494873046875
 30
0.0
 10
29.43528340657552
 20
2.0494873046875
 30
0.0
 10
29.74327494303385
 20
2.731443956163194
 30
0.0
 10
29.98529290093316
 20
2.9734619140625
 30
0.0
 10
30.15306905110677
 20
3.141238064236111
 30
0.0
 10
30.27123582628038
 20
3.281453450520833
 30
0.0
 10
30.51325378417969
 20
3.105409071180555
 30
0.0
 10
30.75527174207899
 20
2.929364691840278
 30
0.0
 10
31.4592770046658
 20
2.423452419704861
 30
0.0
 10
31.72334357367621
 20
2.247408040364583
 30
0.0
 10
31.98723788791232
 20
2.071363661024305
 30
0.0
 10
32.58134460449219
 20
2.071363661024305
 30
0.0
 10
32.80131395128038
 20
2.357478841145833
 30
0.0
  0
LINE
  5
13C
330
2D
100
AcDbEntity
  8
LAYER_1
 62
     7
100
AcDbLine
 10
-5.390497843424479
 20
-1.844676378038194
 30
0.0
 11
-3.982487318250868
 21
-1.756654188368055
 31
0.0
  0
LINE
  5
13B
330
2D
100
AcDbEntity
  8
LAYER_1
 62
     7
100
AcDbLine
 10
-6.820556979709201
 20
1.301384819878472
 30
0.0
 11
-5.236502075195312
 21
1.323433430989583
 31
0.0
  0
LINE
  5
13A
330
2D
100
AcDbEntity
  8
LAYER_1
 62
     7
100
AcDbLine
 10
-6.710486178927951
 20
0.9053710937499999
 30
0.0
 11
-5.038581339518228
 21
0.927419704861111
 31
0.0
  0
LINE
  5
139
330
2D
100
AcDbEntity
  8
LAYER_1
 62
     7
100
AcDbLine
 10
-3.586473592122395
 20
1.257459852430555
 30
0.0
 11
-2.002590942382812
 21
1.279508463541667
 31
0.0
  0
LINE
  5
138
330
2D
100
AcDbEntity
  8
LAYER_1
 62
     7
100
AcDbLine
 10
-3.410601467556423
 20
0.8614461263020833
 30
0.0
 11
-1.782621595594618
 21
0.8833224826388888
 31
0.0
  0
LINE
  5
137
330
2D
100
AcDbEntity
  8
LAYER_1
 62
     7
100
AcDbLine
 10
-2.156586710611979
 20
-1.822627766927083
 30
0.0
 11
-0.6166290283203124
 21
-1.822627766927083
 31
0.0
  0
LINE
  5
136
330
2D
100
AcDbEntity
  8
LAYER_1
 62
     7
100
AcDbLine
 10
-0.286588880750868
 20
1.235411241319444
 30
0.0
 11
1.363439602322049
 21
1.257459852430555
 31
0.0
  0
LINE
  5
135
330
2D
100
AcDbEntity
  8
LAYER_1
 62
     7
100
AcDbLine
 10
-0.1105445014105903
 20
0.8393975151909722
 30
0.0
 11
1.495386759440104
 21
0.8614461263020833
 31
0.0
  0
SPLINE
  5
134
330
2D
100
AcDbEntity
  8
LAYER_1
 62
     7
100
AcDbSpline
210
0.0
220
0.0
230
1.0
 70
     8
 71
     3
 72
     8
 73
     4
 74
     0
 42
0.0000000001
 43
0.0000000001
 40
0.0
 40
0.0
 40
0.0
 40
0.0
 40
1.0
 40
1.0
 40
1.0
 40
1.0
 10
1.979422675238715
 20
-0.1946478949652778
 30
0.0
 10
1.781329684787326
 20
0.3334852430555556
 30
0.0
 10
1.253368801540798
 20
1.93941650390625
 30
0.0
 10
0.5054385715060763
 20
2.0494873046875
 30
0.0
  0
SPLINE
  5
133
330
2D
100
AcDbEntity
  8
LAYER_1
 62
     7
100
AcDbSpline
210
0.0
220
0.0
230
1.0
 70
     8
 71
     3
 72
     8
 73
     4
 74
     0
 42
0.0000000001
 43
0.0000000001
 40
0.0
 40
0.0
 40
0.0
 40
0.0
 40
1.0
 40
1.0
 40
1.0
 40
1.0
 10
2.991419474283854
 20
-2.614655219184027
 30
0.0
 10
2.913043551974826
 20
-2.446879069010417
 30
0.0
 10
2.702720472547743
 20
-1.983513726128472
 30
0.0
 10
2.43038567437066
 20
-1.322055392795139
 30
0.0
  0
LINE
  5
132
330
2D
100
AcDbEntity
  8
LAYER_1
 62
     7
100
AcDbLine
 10
1.099373033311632
 20
-1.888601345486111
 30
0.0
 11
2.66137932671441
 21
-1.844676378038194
 31
0.0
  0
LINE
  5
131
330
2D
100
AcDbEntity
  8
LAYER_1
 62
     7
100
AcDbLine
 10
4.355332777235243
 20
-1.910649956597222
 30
0.0
 11
5.983484903971354
 21
-1.910649956597222
 31
0.0
  0
LINE
  5
130
330
2D
100
AcDbEntity
  8
LAYER_1
 62
     7
100
AcDbLine
 10
2.969370863172743
 20
1.235411241319444
 30
0.0
 11
4.707421535915798
 21
1.235411241319444
 31
0.0
  0
LINE
  5
12F
330
2D
100
AcDbEntity
  8
LAYER_1
 62
     7
100
AcDbLine
 10
3.123366631401909
 20
0.8393975151909722
 30
0.0
 11
4.883465915256076
 21
0.8614461263020833
 31
0.0
  0
LINE
  5
12E
330
2D
100
AcDbEntity
  8
LAYER_1
 62
     7
100
AcDbLine
 10
6.401374986436632
 20
1.279508463541667
 30
0.0
 11
7.831434122721354
 21
1.301384819878472
 31
0.0
  0
LINE
  5
12D
330
2D
100
AcDbEntity
  8
LAYER_1
 62
     7
100
AcDbLine
 10
6.555370754665798
 20
0.927419704861111
 30
0.0
 11
7.98542989095052
 21
0.9494683159722221
 31
0.0
  0
LINE
  5
12C
330
2D
100
AcDbEntity
  8
LAYER_1
 62
     7
100
AcDbLine
 10
7.677438354492187
 20
-1.800579155815972
 30
0.0
 11
9.129373847113714
 21
-1.800579155815972
 31
0.0
  0
LINE
  5
12B
330
2D
100
AcDbEntity
  8
LAYER_1
 62
     7
100
AcDbLine
 10
9.547436184353298
 20
1.257459852430555
 30
0.0
 11
11.13131883409288
 21
1.279508463541667
 31
0.0
  0
LINE
  5
12A
330
2D
100
AcDbEntity
  8
LAYER_1
 62
     7
100
AcDbLine
 10
9.72330830891927
 20
0.8833224826388888
 30
0.0
 11
11.26343824598524
 21
0.9053710937499999
 31
0.0
  0
LINE
  5
129
330
2D
100
AcDbEntity
  8
LAYER_1
 62
     7
100
AcDbLine
 10
10.88947313096788
 20
-1.844676378038194
 30
0.0
 11
12.38533359103733
 21
-1.822627766927083
 31
0.0
  0
LINE
  5
128
330
2D
100
AcDbEntity
  8
LAYER_1
 62
     7
100
AcDbLine
 10
12.84732089572483
 20
1.257459852430555
 30
0.0
 11
14.25533142089844
 21
1.257459852430555
 31
0.0
  0
LINE
  5
127
330
2D
100
AcDbEntity
  8
LAYER_1
 62
     7
100
AcDbLine
 10
12.97926805284288
 20
0.927419704861111
 30
0.0
 11
14.47530076768663
 21
0.9494683159722221
 31
0.0
  0
LINE
  5
126
330
2D
100
AcDbEntity
  8
LAYER_1
 62
     7
100
AcDbLine
 10
14.27738003200955
 20
-1.866552734375
 30
0.0
 11
15.53139478895399
 21
-1.844676378038194
 31
0.0
  0
LINE
  5
125
330
2D
100
AcDbEntity
  8
LAYER_1
 62
     7
100
AcDbLine
 10
17.4013926188151
 20
-1.888601345486111
 30
0.0
 11
18.76530592176649
 21
-1.866552734375
 31
0.0
  0
LINE
  5
124
330
2D
100
AcDbEntity
  8
LAYER_1
 62
     7
100
AcDbLine
 10
16.16942647298177
 20
0.8833224826388888
 30
0.0
 11
17.64341057671441
 21
0.9053710937499999
 31
0.0
  0
LINE
  5
123
330
2D
100
AcDbEntity
  8
LAYER_1
 62
     7
100
AcDbLine
 10
16.0154307047526
 20
1.257459852430555
 30
0.0
 11
17.44531758626302
 21
1.257459852430555
 31
0.0
  0
LINE
  5
122
330
2D
100
AcDbEntity
  8
LAYER_1
 62
     7
100
AcDbLine
 10
19.2493418375651
 20
1.235411241319444
 30
0.0
 11
20.72332594129774
 21
1.257459852430555
 31
0.0
  0
LINE
  5
121
330
2D
100
AcDbEntity
  8
LAYER_1
 62
     7
100
AcDbLine
 10
19.40333760579427
 20
0.8393975151909722
 30
0.0
 11
20.92124667697483
 21
0.8614461263020833
 31
0.0
  0
LINE
  5
120
330
2D
100
AcDbEntity
  8
LAYER_1
 62
     7
100
AcDbLine
 10
20.48130798339843
 20
-1.844676378038194
 30
0.0
 11
21.9993893093533
 21
-1.866552734375
 31
0.0
  0
LINE
  5
11F
330
2D
100
AcDbEntity
  8
LAYER_1
 62
     7
100
AcDbLine
 10
22.50530158148871
 20
1.169437662760417
 30
0.0
 11
24.02338290744357
 21
1.191486273871528
 31
0.0
  0
LINE
  5
11E
330
2D
100
AcDbEntity
  8
LAYER_1
 62
     7
100
AcDbLine
 10
22.63724873860677
 20
0.8173489040798611
 30
0.0
 11
24.19925503200955
 21
0.8614461263020833
 31
0.0
  0
LINE
  5
11D
330
2D
100
AcDbEntity
  8
LAYER_1
 62
     7
100
AcDbLine
 10
23.78136494954427
 20
-1.888601345486111
 30
0.0
 11
25.25534905327691
 21
-1.866552734375
 31
0.0
  0
LINE
  5
11C
330
2D
100
AcDbEntity
  8
LAYER_1
 62
     7
100
AcDbLine
 10
29.03926968044705
 20
1.1255126953125
 30
0.0
 11
30.5353023952908
 21
1.147389051649306
 31
0.0
  0
LINE
  5
11B
330
2D
100
AcDbEntity
  8
LAYER_1
 62
     7
100
AcDbLine
 10
29.21531405978733
 20
0.7734239366319444
 30
0.0
 11
30.73322313096788
 21
0.7954725477430555
 31
0.0
  0
LINE
  5
11A
330
2D
100
AcDbEntity
  8
LAYER_1
 62
     7
100
AcDbLine
 10
25.73921271430121
 20
1.191486273871528
 30
0.0
 11
27.34531622992621
 21
1.213362630208333
 31
0.0
  0
LINE
  5
119
330
2D
100
AcDbEntity
  8
LAYER_1
 62
     7
100
AcDbLine
 10
25.91525709364149
 20
0.7954725477430555
 30
0.0
 11
27.5434092203776
 21
0.8173489040798611
 31
0.0
  0
LINE
  5
118
330
2D
100
AcDbEntity
  8
LAYER_1
 62
     7
100
AcDbLine
 10
27.03732469346788
 20
-1.97662353515625
 30
0.0
 11
28.64325595431857
 21
-1.954574924045139
 31
0.0
  0
LINE
  5
117
330
2D
100
AcDbEntity
  8
LAYER_1
 62
     7
100
AcDbLine
 10
32.33932664659288
 20
1.081415473090278
 30
0.0
 11
33.85723571777344
 21
0.927419704861111
 31
0.0
  0
LINE
  5
116
330
2D
100
AcDbEntity
  8
LAYER_1
 62
     7
100
AcDbLine
 10
32.51537102593316
 20
0.6633531358506943
 30
0.0
 11
33.9893551296658
 21
0.55345458984375
 31
0.0
  0
LINE
  5
115
330
2D
100
AcDbEntity
  8
LAYER_1
 62
     7
100
AcDbLine
 10
33.59334140353732
 20
-1.866552734375
 30
0.0
 11
34.9352060953776
 21
-1.756654188368055
 31
0.0
  0
SPLINE
  5
114
330
2D
100
AcDbEntity
  8
LAYER_1
 62
     7
100
AcDbSpline
210
0.0
220
0.0
230
1.0
 70
     8
 71
     3
 72
    11
 73
     7
 74
     0
 42
0.0000000001
 43
0.0000000001
 40
0.0
 40
0.0
 40
0.0
 40
0.0
 40
1.0
 40
1.0
 40
1.0
 40
2.0
 40
2.0
 40
2.0
 40
2.0
 10
-79.48313293457031
 20
2.116838921440972
 30
0.0
 10
-79.48313293457031
 20
2.116838921440972
 30
0.0
 10
-79.07333882649739
 20
2.714907497829861
 30
0.0
 10
-78.79419996473524
 20
2.951413302951389
 30
0.0
 10
-79.71826070149739
 20
3.699343532986111
 30
0.0
 10
-80.35620625813802
 20
4.007335069444444
 30
0.0
 10
-80.13623691134983
 20
5.459442816840277
 30
0.0
  0
SPLINE
  5
113
330
2D
100
AcDbEntity
  8
LAYER_1
 62
     7
100
AcDbSpline
210
0.0
220
0.0
230
1.0
 70
     8
 71
     3
 72
    11
 73
     7
 74
     0
 42
0.0000000001
 43
0.0000000001
 40
0.0
 40
0.0
 40
0.0
 40
0.0
 40
1.0
 40
1.0
 40
1.0
 40
2.0
 40
2.0
 40
2.0
 40
2.0
 10
-80.09222581651476
 20
-4.638648817274305
 30
0.0
 10
-80.13623691134983
 20
-4.220586480034722
 30
0.0
 10
-80.20221048990885
 20
-3.47265625
 30
0.0
 10
-79.12424011230468
 20
-2.922646755642361
 30
0.0
 10
-79.61094597710503
 20
-2.112704806857639
 30
0.0
 10
-79.88319464789495
 20
-1.504989963107639
 30
0.0
 10
-79.99180128309462
 20
-0.8285454644097221
 30
0.0
  0
SPLINE
  5
112
330
2D
100
AcDbEntity
  8
LAYER_1
 62
     7
100
AcDbSpline
210
0.0
220
0.0
230
1.0
 70
     8
 71
     3
 72
    11
 73
     7
 74
     0
 42
0.0000000001
 43
0.0000000001
 40
0.0
 40
0.0
 40
0.0
 40
0.0
 40
1.0
 40
1.0
 40
1.0
 40
2.0
 40
2.0
 40
2.0
 40
2.0
 10
-80.04683668348524
 20
-0.3293511284722222
 30
0.0
 10
-80.04683668348524
 20
-0.3293511284722222
 30
0.0
 10
-80.04821472167969
 20
-0.1698432074652778
 30
0.0
 10
-80.04821472167969
 20
-0.0625284830729167
 30
0.0
 10
-80.04821472167969
 20
0.1629530164930556
 30
0.0
 10
-80.10178595648871
 20
0.4888590494791666
 30
0.0
 10
-80.02341003417968
 20
0.7982286241319444
 30
0.0
  0
LINE
  5
111
330
2D
100
AcDbEntity
  8
LAYER_1
 62
     7
100
AcDbLine
 10
-79.10219150119357
 20
-2.90059814453125
 30
0.0
 11
-76.52827453613281
 21
-2.90059814453125
 31
0.0
  0
LINE
  5
110
330
2D
100
AcDbEntity
  8
LAYER_1
 62
     7
100
AcDbLine
 10
-78.81624857584635
 20
2.951413302951389
 30
0.0
 11
-76.41820373535155
 21
2.951413302951389
 31
0.0
  0
LINE
  5
10F
330
2D
100
AcDbEntity
  8
LAYER_1
 62
     7
100
AcDbLine
 10
-76.46221483018663
 20
5.877332899305555
 30
0.0
 11
-76.46221483018663
 21
-6.024610731336805
 31
0.0
  0
LINE
  5
10E
330
2D
100
AcDbEntity
  8
LAYER_1
 62
     7
100
AcDbLine
 10
-75.09821539984809
 20
3.875387912326389
 30
0.0
 11
-75.09821539984809
 21
-3.868669976128472
 31
0.0
  0
SPLINE
  5
10D
330
2D
100
AcDbEntity
  8
LAYER_1
 62
     7
100
AcDbSpline
210
0.0
220
0.0
230
1.0
 70
     8
 71
     3
 72
     8
 73
     4
 74
     0
 42
0.0000000001
 43
0.0000000001
 40
0.0
 40
0.0
 40
0.0
 40
0.0
 40
1.0
 40
1.0
 40
1.0
 40
1.0
 10
-76.46221483018663
 20
-3.626652018229166
 30
0.0
 10
-76.3962412516276
 20
-4.176661512586805
 30
0.0
 10
-75.51627773708766
 20
-4.242635091145833
 30
0.0
 10
-75.14231262207031
 20
-3.978568522135416
 30
0.0
  0
SPLINE
  5
10C
330
2D
100
AcDbEntity
  8
LAYER_1
 62
     7
100
AcDbSpline
210
0.0
220
0.0
230
1.0
 70
     8
 71
     3
 72
     8
 73
     4
 74
     0
 42
0.0000000001
 43
0.0000000001
 40
0.0
 40
0.0
 40
0.0
 40
0.0
 40
1.0
 40
1.0
 40
1.0
 40
1.0
 10
-76.46221483018663
 20
3.413400607638889
 30
0.0
 10
-76.28617045084634
 20
3.853339301215277
 30
0.0
 10
-75.45030415852864
 20
4.029383680555555
 30
0.0
 10
-75.09821539984809
 20
3.589444986979166
 30
0.0
  0
SPLINE
  5
10B
330
2D
100
AcDbEntity
  8
LAYER_1
 62
     7
100
AcDbSpline
210
0.0
220
0.0
230
1.0
 70
     8
 71
     3
 72
     8
 73
     4
 74
     0
 42
0.0000000001
 43
0.0000000001
 40
0.0
 40
0.0
 40
0.0
 40
0.0
 40
1.0
 40
1.0
 40
1.0
 40
1.0
 10
-76.44025234646267
 20
4.315498860677083
 30
0.0
 10
-76.22019687228732
 20
4.777486165364583
 30
0.0
 10
-75.38433057996961
 20
4.799362521701388
 30
0.0
 10
-75.14231262207031
 20
4.491370985243055
 30
0.0
  0
SPLINE
  5
10A
330
2D
100
AcDbEntity
  8
LAYER_1
 62
     7
100
AcDbSpline
210
0.0
220
0.0
230
1.0
 70
     8
 71
     3
 72
     8
 73
     4
 74
     0
 42
0.0000000001
 43
0.0000000001
 40
0.0
 40
0.0
 40
0.0
 40
0.0
 40
1.0
 40
1.0
 40
1.0
 40
1.0
 10
-76.46221483018663
 20
6.119523111979166
 30
0.0
 10
-76.35223015679253
 20
6.405466037326388
 30
0.0
 10
-75.31818474663628
 20
6.493315972222222
 30
0.0
 10
-75.12026401095919
 20
6.119523111979166
 30
0.0
  0
LWPOLYLINE
  5
105
330
2D
100
AcDbEntity
  8
LAYER_1
 62
     7
100
AcDbPolyline
 90
        3
 70
     0
 43
0.0
 10
-7.238447062174479
 20
-2.658580186631944
 10
-8.184470282660589
 20
-2.43861083984375
 10
-75.09821539984809
 20
-2.306663682725694
  0
LINE
  5
104
330
2D
100
AcDbEntity
  8
LAYER_1
 62
     7
100
AcDbLine
 10
-8.64645758734809
 20
2.511474609375
 30
0.0
 11
-15.57643941243489
 21
2.511474609375
 31
0.0
  0
LWPOLYLINE
  5
FF
330
2D
100
AcDbEntity
  8
LAYER_1
 62
     7
100
AcDbPolyline
 90
        3
 70
     0
 43
0.0
 10
-16.34659050835503
 20
3.281453450520833
 10
-15.62053663465712
 20
2.709395345052083
 10
-8.492461819118923
 20
2.709395345052083
  0
LWPOLYLINE
  5
FA
330
2D
100
AcDbEntity
  8
LAYER_1
 62
     7
100
AcDbPolyline
 90
        3
 70
     0
 43
0.0
 10
-16.56655985514323
 20
-2.504584418402778
 10
-15.8184573703342
 20
-2.966571723090278
 10
-16.61048482259114
 20
-3.560678439670139
  0
LINE
  5
F9
330
2D
100
AcDbEntity
  8
LAYER_1
 62
     7
100
AcDbLine
 10
-15.79640875922309
 20
-2.966571723090278
 30
0.0
 11
-8.118496704101561
 21
-3.054593912760416
 31
0.0
  0
LINE
  5
F8
330
2D
100
AcDbEntity
  8
LAYER_1
 62
     7
100
AcDbLine
 10
-15.79640875922309
 20
-0.9646267361111111
 30
0.0
 11
-8.6685061984592
 21
-1.096573893229167
 31
0.0
  0
LINE
  5
F7
330
2D
100
AcDbEntity
  8
LAYER_1
 62
     7
100
AcDbLine
 10
-16.36846686469184
 20
-1.536684841579861
 30
0.0
 11
-13.9705081515842
 21
-1.536684841579861
 31
0.0
  0
LINE
  5
F6
330
2D
100
AcDbEntity
  8
LAYER_1
 62
     7
100
AcDbLine
 10
-16.43444044325087
 20
-0.1066257052951389
 30
0.0
 11
-10.12181972927517
 21
-0.1066257052951389
 31
0.0
  0
LINE
  5
F5
330
2D
100
AcDbEntity
  8
LAYER_1
 62
     7
100
AcDbLine
 10
-9.439863077799478
 20
-0.1066257052951389
 30
0.0
 11
-9.042471313476561
 21
-0.1066257052951389
 31
0.0
  0
LINE
  5
F4
330
2D
100
AcDbEntity
  8
LAYER_1
 62
     7
100
AcDbLine
 10
-15.97245313856337
 20
0.5314059787326388
 30
0.0
 11
-8.492461819118923
 21
0.3774102105034722
 31
0.0
  0
LINE
  5
F3
330
2D
100
AcDbEntity
  8
LAYER_1
 62
     7
100
AcDbLine
 10
-75.07616678873697
 20
1.034906684027778
 30
0.0
 11
-16.41256408691406
 21
1.037490505642361
 31
0.0
  0
SPLINE
  5
F2
330
2D
100
AcDbEntity
  8
LAYER_1
 62
     7
100
AcDbSpline
210
0.0
220
0.0
230
1.0
 70
     8
 71
     3
 72
    11
 73
     7
 74
     0
 42
0.0000000001
 43
0.0000000001
 40
0.0
 40
0.0
 40
0.0
 40
0.0
 40
1.0
 40
1.0
 40
1.0
 40
2.0
 40
2.0
 40
2.0
 40
2.0
 10
-16.39051547580295
 20
1.194931369357639
 30
0.0
 10
-16.39051547580295
 20
1.194931369357639
 30
0.0
 10
-74.59230312771267
 20
1.194931369357639
 30
0.0
 10
-74.59230312771267
 20
1.194931369357639
 30
0.0
 10
-74.59230312771267
 20
1.194931369357639
 30
0.0
 10
-75.05429043240017
 20
1.239028591579861
 30
0.0
 10
-75.05429043240017
 20
1.503095160590278
 30
0.0
  0
SPLINE
  5
F1
330
2D
100
AcDbEntity
  8
LAYER_1
 62
     7
100
AcDbSpline
210
0.0
220
0.0
230
1.0
 70
     8
 71
     3
 72
    11
 73
     7
 74
     0
 42
0.0000000001
 43
0.0000000001
 40
0.0
 40
0.0
 40
0.0
 40
0.0
 40
1.0
 40
1.0
 40
1.0
 40
2.0
 40
2.0
 40
2.0
 40
2.0
 10
-75.07616678873697
 20
2.313381618923611
 30
0.0
 10
-75.01019321017795
 20
2.137509494357639
 30
0.0
 10
-74.85619744194878
 20
1.895491536458333
 30
0.0
 10
-74.41625874837239
 20
1.917367892795139
 30
0.0
 10
-73.97632005479601
 20
1.93941650390625
 30
0.0
 10
-15.90647956000434
 20
1.829345703125
 30
0.0
 10
-15.90647956000434
 20
1.829345703125
 30
0.0
  0
LINE
  5
F0
330
2D
100
AcDbEntity
  8
LAYER_1
 62
     7
100
AcDbLine
 10
-16.21447109646267
 20
1.301384819878472
 30
0.0
 11
-7.766580200195312
 21
1.191486273871528
 31
0.0
  0
LINE
  5
EF
330
2D
100
AcDbEntity
  8
LAYER_1
 62
     7
100
AcDbLine
 10
-15.79640875922309
 20
1.763372124565972
 30
0.0
 11
-8.536559041341144
 21
1.631424967447916
 31
0.0
  0
LINE
  5
EE
330
2D
100
AcDbEntity
  8
LAYER_1
 62
     7
100
AcDbLine
 10
-15.84050598144531
 20
1.917367892795139
 30
0.0
 11
-8.250616115993923
 21
1.829345703125
 31
0.0
  0
LWPOLYLINE
  5
D8
330
2D
100
AcDbEntity
  8
LAYER_1
 62
     7
100
AcDbPolyline
 90
       20
 70
     0
 43
0.0
 10
-8.206518893771701
 20
2.951413302951389
 10
-8.64645758734809
 20
2.489425998263889
 10
-7.788456556532117
 20
2.027438693576389
 10
-8.492461819118923
 20
1.653473578559028
 10
-7.656509399414062
 20
1.169437662760417
 10
-8.448536851671006
 20
0.3994588216145833
 10
-7.656509399414062
 20
-0.2606214735243055
 10
-8.602532619900172
 20
-1.096573893229167
 10
-7.634460788302951
 20
-1.668631998697917
 10
-8.316589694552951
 20
-2.394685872395833
 10
-16.43444044325087
 20
-2.350588650173611
 10
-15.86255459255642
 20
-2.130619303385417
 10
-16.5004140218099
 20
-1.426614040798611
 10
-15.8184573703342
 20
-0.9646267361111111
 10
-16.47853766547309
 20
-0.1285020616319444
 10
-15.95057678222656
 20
0.5314059787326388
 10
-16.47853766547309
 20
1.147389051649306
 10
-15.79640875922309
 20
1.873442925347222
 10
-16.41256408691406
 20
2.115460883246528
 10
-15.66446160210503
 20
2.687518988715278
  0
SPLINE
  5
D7
330
2D
100
AcDbEntity
  8
LAYER_1
 62
     7
100
AcDbSpline
210
0.0
220
0.0
230
1.0
 70
     8
 71
     3
 72
    11
 73
     7
 74
     0
 42
0.0000000001
 43
0.0000000001
 40
0.0
 40
0.0
 40
0.0
 40
0.0
 40
1.0
 40
1.0
 40
1.0
 40
2.0
 40
2.0
 40
2.0
 40
2.0
 10
-5.940507337782117
 20
-3.582554796006944
 30
0.0
 10
-6.380446031358506
 20
-3.076642523871528
 30
0.0
 10
-6.79850836859809
 20
-0.9865030924479166
 30
0.0
 10
-6.974552747938367
 20
-0.1066257052951389
 30
0.0
 10
-7.150597127278645
 20
0.7734239366319444
 30
0.0
 10
-7.546610853407118
 20
1.719447157118055
 30
0.0
 10
-7.766580200195312
 20
2.225359429253472
 30
0.0
  0
SPLINE
  5
D6
330
2D
100
AcDbEntity
  8
LAYER_1
 62
     7
100
AcDbSpline
210
0.0
220
0.0
230
1.0
 70
     8
 71
     3
 72
     8
 73
     4
 74
     0
 42
0.0000000001
 43
0.0000000001
 40
0.0
 40
0.0
 40
0.0
 40
0.0
 40
1.0
 40
1.0
 40
1.0
 40
1.0
 10
-4.95055914984809
 20
-2.592606608072916
 30
0.0
 10
-5.236502075195312
 20
-2.350588650173611
 30
0.0
 10
-5.500568644205729
 20
-1.734605577256944
 30
0.0
 10
-5.676613023546007
 20
-1.382516818576389
 30
0.0
  0
SPLINE
  5
D5
330
2D
100
AcDbEntity
  8
LAYER_1
 62
     7
100
AcDbSpline
210
0.0
220
0.0
230
1.0
 70
     8
 71
     3
 72
     8
 73
     4
 74
     0
 42
0.0000000001
 43
0.0000000001
 40
0.0
 40
0.0
 40
0.0
 40
0.0
 40
1.0
 40
1.0
 40
1.0
 40
1.0
 10
-6.053334214952256
 20
-0.5177978515624999
 30
0.0
 10
-6.053334214952256
 20
-0.5177978515624999
 30
0.0
 10
-6.977308824327256
 20
1.702910698784722
 30
0.0
 10
-7.172473483615451
 20
2.0494873046875
 30
0.0
  0
SPLINE
  5
D4
330
2D
100
AcDbEntity
  8
LAYER_1
 62
     7
100
AcDbSpline
210
0.0
220
0.0
230
1.0
 70
     8
 71
     3
 72
     8
 73
     4
 74
     0
 42
0.0000000001
 43
0.0000000001
 40
0.0
 40
0.0
 40
0.0
 40
0.0
 40
1.0
 40
1.0
 40
1.0
 40
1.0
 10
-6.094503106011284
 20
2.093412272135417
 30
0.0
 10
-5.30247565375434
 20
2.0494873046875
 30
0.0
 10
-4.642567613389756
 20
0.1353922526041667
 30
0.0
 10
-4.48857184516059
 20
-0.3045464409722222
 30
0.0
  0
SPLINE
  5
D3
330
2D
100
AcDbEntity
  8
LAYER_1
 62
     7
100
AcDbSpline
210
0.0
220
0.0
230
1.0
 70
     8
 71
     3
 72
     8
 73
     4
 74
     0
 42
0.0000000001
 43
0.0000000001
 40
0.0
 40
0.0
 40
0.0
 40
0.0
 40
1.0
 40
1.0
 40
1.0
 40
1.0
 10
-4.050011189778646
 20
-1.559939236111111
 30
0.0
 10
-4.050011189778646
 20
-1.559939236111111
 30
0.0
 10
-3.69792243109809
 20
-2.419318305121528
 30
0.0
 10
-3.542548624674479
 20
-2.614655219184027
 30
0.0
  0
SPLINE
  5
D2
330
2D
100
AcDbEntity
  8
LAYER_1
 62
     7
100
AcDbSpline
210
0.0
220
0.0
230
1.0
 70
     8
 71
     3
 72
    11
 73
     7
 74
     0
 42
0.0000000001
 43
0.0000000001
 40
0.0
 40
0.0
 40
0.0
 40
0.0
 40
1.0
 40
1.0
 40
1.0
 40
2.0
 40
2.0
 40
2.0
 40
2.0
 10
-2.574476793077257
 20
-3.582554796006944
 30
0.0
 10
-2.860591973198785
 20
-3.230638292100694
 30
0.0
 10
-3.652619425455729
 20
-1.030600314670139
 30
0.0
 10
-3.806615193684896
 20
-0.1505506727430555
 30
0.0
 10
-3.960610961914062
 20
0.7293267144097222
 30
0.0
 10
-4.444474622938368
 20
2.511474609375
 30
0.0
 10
-4.906634182400174
 20
2.951413302951389
 30
0.0
  0
SPLINE
  5
D1
330
2D
100
AcDbEntity
  8
LAYER_1
 62
     7
100
AcDbSpline
210
0.0
220
0.0
230
1.0
 70
     8
 71
     3
 72
     8
 73
     4
 74
     0
 42
0.0000000001
 43
0.0000000001
 40
0.0
 40
0.0
 40
0.0
 40
0.0
 40
1.0
 40
1.0
 40
1.0
 40
1.0
 10
-1.60657721625434
 20
-2.636531575520833
 30
0.0
 10
-1.745414564344618
 20
-2.560911729600694
 30
0.0
 10
-2.183975219726563
 20
-1.873442925347222
 30
0.0
 10
-2.541576131184895
 20
-1.211984592013889
 30
0.0
  0
SPLINE
  5
D0
330
2D
100
AcDbEntity
  8
LAYER_1
 62
     7
100
AcDbSpline
210
0.0
220
0.0
230
1.0
 70
     8
 71
     3
 72
     8
 73
     4
 74
     0
 42
0.0000000001
 43
0.0000000001
 40
0.0
 40
0.0
 40
0.0
 40
0.0
 40
1.0
 40
1.0
 40
1.0
 40
1.0
 10
-2.926565551757812
 20
-0.4146172417534722
 30
0.0
 10
-3.234557088216146
 20
0.3334852430555556
 30
0.0
 10
-3.762517971462673
 20
1.763372124565972
 30
0.0
 10
-4.004535929361979
 20
2.071363661024305
 30
0.0
  0
SPLINE
  5
CF
330
2D
100
AcDbEntity
  8
LAYER_1
 62
     7
100
AcDbSpline
210
0.0
220
0.0
230
1.0
 70
     8
 71
     3
 72
     8
 73
     4
 74
     0
 42
0.0000000001
 43
0.0000000001
 40
0.0
 40
0.0
 40
0.0
 40
0.0
 40
1.0
 40
1.0
 40
1.0
 40
1.0
 10
0.197447035047743
 20
-3.142616102430555
 30
0.0
 10
-0.0128760443793403
 20
-2.933671061197916
 30
0.0
 10
-0.492777845594618
 20
-2.042597113715277
 30
0.0
 10
-0.8490007188585069
 20
-1.268484157986111
 30
0.0
  0
SPLINE
  5
CE
330
2D
100
AcDbEntity
  8
LAYER_1
 62
     7
100
AcDbSpline
210
0.0
220
0.0
230
1.0
 70
     8
 71
     3
 72
     8
 73
     4
 74
     0
 42
0.0000000001
 43
0.0000000001
 40
0.0
 40
0.0
 40
0.0
 40
0.0
 40
1.0
 40
1.0
 40
1.0
 40
1.0
 10
-1.166466267903646
 20
-0.5026394314236111
 30
0.0
 10
-1.452581448025174
 20
0.2893880208333333
 30
0.0
 10
-1.936617363823785
 20
1.829345703125
 30
0.0
 10
-2.794618394639757
 20
2.159385850694444
 30
0.0
  0
SPLINE
  5
CD
330
2D
100
AcDbEntity
  8
LAYER_1
 62
     7
100
AcDbSpline
210
0.0
220
0.0
230
1.0
 70
     8
 71
     3
 72
    11
 73
     7
 74
     0
 42
0.0000000001
 43
0.0000000001
 40
0.0
 40
0.0
 40
0.0
 40
0.0
 40
1.0
 40
1.0
 40
1.0
 40
2.0
 40
2.0
 40
2.0
 40
2.0
 10
0.9014522976345485
 20
-3.692625596788194
 30
0.0
 10
0.0654998779296875
 20
-2.856673177083333
 30
0.0
 10
-0.2424916585286458
 20
-1.294666883680556
 30
0.0
 10
-0.5286068386501736
 20
-0.1946478949652778
 30
0.0
 10
-0.8145497639973958
 20
0.9053710937499999
 30
0.0
 10
-1.320634290907118
 20
2.621373155381944
 30
0.0
 10
-1.892520141601562
 20
3.171382649739583
 30
0.0
  0
SPLINE
  5
CC
330
2D
100
AcDbEntity
  8
LAYER_1
 62
     7
100
AcDbSpline
210
0.0
220
0.0
230
1.0
 70
     8
 71
     3
 72
     8
 73
     4
 74
     0
 42
0.0000000001
 43
0.0000000001
 40
0.0
 40
0.0
 40
0.0
 40
0.0
 40
1.0
 40
1.0
 40
1.0
 40
1.0
 10
1.561360337999132
 20
-2.592606608072916
 30
0.0
 10
1.279551527235243
 20
-2.218641493055555
 30
0.0
 10
0.9315968831380208
 20
-1.700154622395833
 30
0.0
 10
0.6511661105685763
 20
-1.157035319010417
 30
0.0
  0
SPLINE
  5
CB
330
2D
100
AcDbEntity
  8
LAYER_1
 62
     7
100
AcDbSpline
210
0.0
220
0.0
230
1.0
 70
     8
 71
     3
 72
     8
 73
     4
 74
     0
 42
0.0000000001
 43
0.0000000001
 40
0.0
 40
0.0
 40
0.0
 40
0.0
 40
1.0
 40
1.0
 40
1.0
 40
1.0
 10
0.3514428032769097
 20
-0.4805908203124999
 30
0.0
 10
0.0654998779296875
 20
0.2893880208333333
 30
0.0
 10
-0.3305138481987847
 20
1.543402777777778
 30
0.0
 10
-0.638505384657118
 20
2.027438693576389
 30
0.0
  0
SPLINE
  5
CA
330
2D
100
AcDbEntity
  8
LAYER_1
 62
     7
100
AcDbSpline
210
0.0
220
0.0
230
1.0
 70
     8
 71
     3
 72
    11
 73
     7
 74
     0
 42
0.0000000001
 43
0.0000000001
 40
0.0
 40
0.0
 40
0.0
 40
0.0
 40
1.0
 40
1.0
 40
1.0
 40
2.0
 40
2.0
 40
2.0
 40
2.0
 10
3.871469116210937
 20
-3.604603407118055
 30
0.0
 10
3.519380357530382
 20
-2.922646755642361
 30
0.0
 10
2.991419474283854
 20
-1.184596082899305
 30
0.0
 10
2.815375094943576
 20
-0.2606214735243055
 30
0.0
 10
2.639330715603299
 20
0.6633531358506943
 30
0.0
 10
2.287414211697048
 20
2.225359429253472
 30
0.0
 10
1.209443834092882
 20
3.281453450520833
 30
0.0
  0
SPLINE
  5
C9
330
2D
100
AcDbEntity
  8
LAYER_1
 62
     7
100
AcDbSpline
210
0.0
220
0.0
230
1.0
 70
     8
 71
     3
 72
     8
 73
     4
 74
     0
 42
0.0000000001
 43
0.0000000001
 40
0.0
 40
0.0
 40
0.0
 40
0.0
 40
1.0
 40
1.0
 40
1.0
 40
1.0
 10
4.773395114474826
 20
-2.592606608072916
 30
0.0
 10
4.50932854546441
 20
-2.197970920138889
 30
0.0
 10
4.237166002061632
 20
-1.7084228515625
 30
0.0
 10
3.985501776801215
 20
-1.184596082899305
 30
0.0
  0
SPLINE
  5
C8
330
2D
100
AcDbEntity
  8
LAYER_1
 62
     7
100
AcDbSpline
210
0.0
220
0.0
230
1.0
 70
     8
 71
     3
 72
     8
 73
     4
 74
     0
 42
0.0000000001
 43
0.0000000001
 40
0.0
 40
0.0
 40
0.0
 40
0.0
 40
1.0
 40
1.0
 40
1.0
 40
1.0
 10
3.519380357530382
 20
-0.1066257052951389
 30
0.0
 10
2.848448011610243
 20
0.5644788953993055
 30
0.0
 10
2.77145012749566
 20
1.609376356336805
 30
0.0
 10
2.595405748155382
 20
2.027438693576389
 30
0.0
  0
SPLINE
  5
C7
330
2D
100
AcDbEntity
  8
LAYER_1
 62
     7
100
AcDbSpline
210
0.0
220
0.0
230
1.0
 70
     8
 71
     3
 72
     8
 73
     4
 74
     0
 42
0.0000000001
 43
0.0000000001
 40
0.0
 40
0.0
 40
0.0
 40
0.0
 40
1.0
 40
1.0
 40
1.0
 40
1.0
 10
6.511445787217881
 20
-2.966571723090278
 30
0.0
 10
6.365718248155382
 20
-2.783809407552083
 30
0.0
 10
6.054970635308159
 20
-2.064645724826389
 30
0.0
 10
5.79641621907552
 20
-1.423857964409722
 30
0.0
  0
SPLINE
  5
C6
330
2D
100
AcDbEntity
  8
LAYER_1
 62
     7
100
AcDbSpline
210
0.0
220
0.0
230
1.0
 70
     8
 71
     3
 72
     8
 73
     4
 74
     0
 42
0.0000000001
 43
0.0000000001
 40
0.0
 40
0.0
 40
0.0
 40
0.0
 40
1.0
 40
1.0
 40
1.0
 40
1.0
 10
5.411426798502604
 20
-0.4146172417534722
 30
0.0
 10
5.257431030273437
 20
0.0254937065972222
 30
0.0
 10
4.663324313693576
 20
2.335430230034722
 30
0.0
 10
3.629451158311632
 20
2.093412272135417
 30
0.0
  0
SPLINE
  5
C5
330
2D
100
AcDbEntity
  8
LAYER_1
 62
     7
100
AcDbSpline
210
0.0
220
0.0
230
1.0
 70
     8
 71
     3
 72
    11
 73
     7
 74
     0
 42
0.0000000001
 43
0.0000000001
 40
0.0
 40
0.0
 40
0.0
 40
0.0
 40
1.0
 40
1.0
 40
1.0
 40
2.0
 40
2.0
 40
2.0
 40
2.0
 10
7.369446818033854
 20
-3.802524142795138
 30
0.0
 10
7.06145528157552
 20
-3.406682671440972
 30
0.0
 10
6.511445787217881
 20
-1.800579155815972
 30
0.0
 10
6.335401407877604
 20
-0.8766045464409722
 30
0.0
 10
6.159357028537326
 20
0.0473700629340278
 30
0.0
 10
5.411426798502604
 20
2.621373155381944
 30
0.0
 10
4.773395114474826
 20
3.017386881510416
 30
0.0
  0
SPLINE
  5
C4
330
2D
100
AcDbEntity
  8
LAYER_1
 62
     7
100
AcDbSpline
210
0.0
220
0.0
230
1.0
 70
     8
 71
     3
 72
     8
 73
     4
 74
     0
 42
0.0000000001
 43
0.0000000001
 40
0.0
 40
0.0
 40
0.0
 40
0.0
 40
1.0
 40
1.0
 40
1.0
 40
1.0
 10
8.073452080620658
 20
-2.570557996961806
 30
0.0
 10
7.841080390082465
 20
-2.123729112413194
 30
0.0
 10
7.57150166829427
 20
-1.684996202256944
 30
0.0
 10
7.350154283311631
 20
-1.238167317708333
 30
0.0
  0
SPLINE
  5
C3
330
2D
100
AcDbEntity
  8
LAYER_1
 62
     7
100
AcDbSpline
210
0.0
220
0.0
230
1.0
 70
     8
 71
     3
 72
     8
 73
     4
 74
     0
 42
0.0000000001
 43
0.0000000001
 40
0.0
 40
0.0
 40
0.0
 40
0.0
 40
1.0
 40
1.0
 40
1.0
 40
1.0
 10
7.06145528157552
 20
-0.5246880425347221
 30
0.0
 10
6.841485934787325
 20
0.1794894748263889
 30
0.0
 10
6.335401407877604
 20
1.521354166666667
 30
0.0
 10
6.005361260308159
 20
2.005390082465278
 30
0.0
  0
SPLINE
  5
C2
330
2D
100
AcDbEntity
  8
LAYER_1
 62
     7
100
AcDbSpline
210
0.0
220
0.0
230
1.0
 70
     8
 71
     3
 72
     8
 73
     4
 74
     0
 42
0.0000000001
 43
0.0000000001
 40
0.0
 40
0.0
 40
0.0
 40
0.0
 40
1.0
 40
1.0
 40
1.0
 40
1.0
 10
9.877304077148436
 20
-3.186541069878472
 30
0.0
 10
9.708322143554687
 20
-2.995510525173611
 30
0.0
 10
9.36174553765191
 20
-2.272212727864583
 30
0.0
 10
9.046863810221353
 20
-1.569585503472222
 30
0.0
  0
SPLINE
  5
C1
330
2D
100
AcDbEntity
  8
LAYER_1
 62
     7
100
AcDbSpline
210
0.0
220
0.0
230
1.0
 70
     8
 71
     3
 72
     8
 73
     4
 74
     0
 42
0.0000000001
 43
0.0000000001
 40
0.0
 40
0.0
 40
0.0
 40
0.0
 40
1.0
 40
1.0
 40
1.0
 40
1.0
 10
8.447417195638019
 20
-0.1725992838541667
 30
0.0
 10
8.227447848849826
 20
0.3553615993923611
 30
0.0
 10
7.963381279839409
 20
1.807469346788194
 30
0.0
 10
7.105380249023437
 20
2.0494873046875
 30
0.0
  0
SPLINE
  5
C0
330
2D
100
AcDbEntity
  8
LAYER_1
 62
     7
100
AcDbSpline
210
0.0
220
0.0
230
1.0
 70
     8
 71
     3
 72
    11
 73
     7
 74
     0
 42
0.0000000001
 43
0.0000000001
 40
0.0
 40
0.0
 40
0.0
 40
0.0
 40
1.0
 40
1.0
 40
1.0
 40
2.0
 40
2.0
 40
2.0
 40
2.0
 10
10.73530510796441
 20
-3.82457275390625
 30
0.0
 10
10.18546786838108
 20
-3.384634060329861
 30
0.0
 10
9.613409762912326
 20
-1.822627766927083
 30
0.0
 10
9.503338962131075
 20
-1.030600314670139
 30
0.0
 10
9.393440416124131
 20
-0.2385728624131944
 30
0.0
 10
8.865479532877604
 20
2.071363661024305
 30
0.0
 10
8.403492228190103
 20
2.687518988715278
 30
0.0
  0
SPLINE
  5
BF
330
2D
100
AcDbEntity
  8
LAYER_1
 62
     7
100
AcDbSpline
210
0.0
220
0.0
230
1.0
 70
     8
 71
     3
 72
     8
 73
     4
 74
     0
 42
0.0000000001
 43
0.0000000001
 40
0.0
 40
0.0
 40
0.0
 40
0.0
 40
1.0
 40
1.0
 40
1.0
 40
1.0
 10
11.30736321343316
 20
-2.614655219184027
 30
0.0
 10
11.0915279812283
 20
-2.3285400390625
 30
0.0
 10
10.86742451985677
 20
-1.865174696180555
 30
0.0
 10
10.64469909667969
 20
-1.363396538628472
 30
0.0
  0
SPLINE
  5
BE
330
2D
100
AcDbEntity
  8
LAYER_1
 62
     7
100
AcDbSpline
210
0.0
220
0.0
230
1.0
 70
     8
 71
     3
 72
     8
 73
     4
 74
     0
 42
0.0000000001
 43
0.0000000001
 40
0.0
 40
0.0
 40
0.0
 40
0.0
 40
1.0
 40
1.0
 40
1.0
 40
1.0
 10
10.29536641438802
 20
-0.5465643988715278
 30
0.0
 10
9.965326266818575
 20
0.2234144422743055
 30
0.0
 10
9.503338962131075
 20
1.521354166666667
 30
0.0
 10
9.129373847113714
 20
2.027438693576389
 30
0.0
  0
SPLINE
  5
BD
330
2D
100
AcDbEntity
  8
LAYER_1
 62
     7
100
AcDbSpline
210
0.0
220
0.0
230
1.0
 70
     8
 71
     3
 72
     8
 73
     4
 74
     0
 42
0.0000000001
 43
0.0000000001
 40
0.0
 40
0.0
 40
0.0
 40
0.0
 40
1.0
 40
1.0
 40
1.0
 40
1.0
 10
12.86936950683594
 20
-2.702677408854167
 30
0.0
 10
12.6947031656901
 20
-2.478401692708333
 30
0.0
 10
12.48438008626302
 20
-2.016414388020833
 30
0.0
 10
12.29059346516927
 20
-1.540646701388889
 30
0.0
  0
SPLINE
  5
BC
330
2D
100
AcDbEntity
  8
LAYER_1
 62
     7
100
AcDbSpline
210
0.0
220
0.0
230
1.0
 70
     8
 71
     3
 72
     8
 73
     4
 74
     0
 42
0.0000000001
 43
0.0000000001
 40
0.0
 40
0.0
 40
0.0
 40
0.0
 40
1.0
 40
1.0
 40
1.0
 40
1.0
 10
11.90129767523871
 20
-0.5246880425347221
 30
0.0
 10
11.65945197211372
 20
0.1133436414930556
 30
0.0
 10
11.10944247775608
 20
1.829345703125
 30
0.0
 10
10.40543721516927
 20
2.0494873046875
 30
0.0
  0
SPLINE
  5
BB
330
2D
100
AcDbEntity
  8
LAYER_1
 62
     7
100
AcDbSpline
210
0.0
220
0.0
230
1.0
 70
     8
 71
     3
 72
    11
 73
     7
 74
     0
 42
0.0000000001
 43
0.0000000001
 40
0.0
 40
0.0
 40
0.0
 40
0.0
 40
1.0
 40
1.0
 40
1.0
 40
2.0
 40
2.0
 40
2.0
 40
2.0
 10
13.96938849555122
 20
-3.670576985677083
 30
0.0
 10
13.59525112575955
 20
-3.186541069878472
 30
0.0
 10
13.11138746473524
 20
-1.822627766927083
 30
0.0
 10
12.93534308539496
 20
-0.8986531575520833
 30
0.0
 10
12.75929870605469
 20
0.0254937065972222
 30
0.0
 10
12.16536424424913
 20
2.445501030815972
 30
0.0
 10
11.6374033610026
 20
2.929364691840278
 30
0.0
  0
SPLINE
  5
BA
330
2D
100
AcDbEntity
  8
LAYER_1
 62
     7
100
AcDbSpline
210
0.0
220
0.0
230
1.0
 70
     8
 71
     3
 72
     8
 73
     4
 74
     0
 42
0.0000000001
 43
0.0000000001
 40
0.0
 40
0.0
 40
0.0
 40
0.0
 40
1.0
 40
1.0
 40
1.0
 40
1.0
 10
14.71731872558594
 20
-2.680628797743055
 30
0.0
 10
14.44102206759983
 20
-2.217263454861111
 30
0.0
 10
14.20313822428385
 20
-1.753898111979167
 30
0.0
 10
13.9721445719401
 20
-1.283642578125
 30
0.0
  0
SPLINE
  5
B9
330
2D
100
AcDbEntity
  8
LAYER_1
 62
     7
100
AcDbSpline
210
0.0
220
0.0
230
1.0
 70
     8
 71
     3
 72
     8
 73
     4
 74
     0
 42
0.0000000001
 43
0.0000000001
 40
0.0
 40
0.0
 40
0.0
 40
0.0
 40
1.0
 40
1.0
 40
1.0
 40
1.0
 10
13.61729973687066
 20
-0.5465643988715278
 30
0.0
 10
13.26538323296441
 20
0.1794894748263889
 30
0.0
 10
12.64940016004774
 20
1.565451388888889
 30
0.0
 10
12.62735154893663
 20
2.027438693576389
 30
0.0
  0
SPLINE
  5
B8
330
2D
100
AcDbEntity
  8
LAYER_1
 62
     7
100
AcDbSpline
210
0.0
220
0.0
230
1.0
 70
     8
 71
     3
 72
     8
 73
     4
 74
     0
 42
0.0000000001
 43
0.0000000001
 40
0.0
 40
0.0
 40
0.0
 40
0.0
 40
1.0
 40
1.0
 40
1.0
 40
1.0
 10
16.0154307047526
 20
-2.79052734375
 30
0.0
 10
15.69503682454427
 20
-2.481157769097222
 30
0.0
 10
15.49832187228733
 20
-1.938038465711805
 30
0.0
 10
15.38980136447483
 20
-1.410077582465278
 30
0.0
  0
SPLINE
  5
B7
330
2D
100
AcDbEntity
  8
LAYER_1
 62
     7
100
AcDbSpline
210
0.0
220
0.0
230
1.0
 70
     8
 71
     3
 72
     8
 73
     4
 74
     0
 42
0.0000000001
 43
0.0000000001
 40
0.0
 40
0.0
 40
0.0
 40
0.0
 40
1.0
 40
1.0
 40
1.0
 40
1.0
 10
14.95933668348524
 20
-0.3925686306423611
 30
0.0
 10
14.80534091525608
 20
0.1353922526041667
 30
0.0
 10
14.3874508327908
 20
1.829345703125
 30
0.0
 10
13.46330396864149
 20
2.0494873046875
 30
0.0
  0
SPLINE
  5
B6
330
2D
100
AcDbEntity
  8
LAYER_1
 62
     7
100
AcDbSpline
210
0.0
220
0.0
230
1.0
 70
     8
 71
     3
 72
    11
 73
     7
 74
     0
 42
0.0000000001
 43
0.0000000001
 40
0.0
 40
0.0
 40
0.0
 40
0.0
 40
1.0
 40
1.0
 40
1.0
 40
2.0
 40
2.0
 40
2.0
 40
2.0
 10
17.00537889268663
 20
-3.802524142795138
 30
0.0
 10
16.60936516655816
 20
-3.186541069878472
 30
0.0
 10
16.10345289442274
 20
-1.822627766927083
 30
0.0
 10
15.97133348253038
 20
-0.9865030924479166
 30
0.0
 10
15.83938632541233
 20
-0.1505506727430555
 30
0.0
 10
15.0914560953776
 20
2.511474609375
 30
0.0
 10
14.45342441134983
 20
3.039435492621528
 30
0.0
  0
SPLINE
  5
B5
330
2D
100
AcDbEntity
  8
LAYER_1
 62
     7
100
AcDbSpline
210
0.0
220
0.0
230
1.0
 70
     8
 71
     3
 72
     8
 73
     4
 74
     0
 42
0.0000000001
 43
0.0000000001
 40
0.0
 40
0.0
 40
0.0
 40
0.0
 40
1.0
 40
1.0
 40
1.0
 40
1.0
 10
17.81928270128038
 20
-2.680628797743055
 30
0.0
 10
17.73143276638455
 20
-2.446879069010417
 30
0.0
 10
17.38761223687066
 20
-1.901003689236111
 30
0.0
 10
17.06446228027344
 20
-1.322055392795139
 30
0.0
  0
SPLINE
  5
B4
330
2D
100
AcDbEntity
  8
LAYER_1
 62
     7
100
AcDbSpline
210
0.0
220
0.0
230
1.0
 70
     8
 71
     3
 72
     8
 73
     4
 74
     0
 42
0.0000000001
 43
0.0000000001
 40
0.0
 40
0.0
 40
0.0
 40
0.0
 40
1.0
 40
1.0
 40
1.0
 40
1.0
 10
16.63141377766927
 20
-0.4585422092013888
 30
0.0
 10
16.27932501898872
 20
0.3553615993923611
 30
0.0
 10
16.03730706108941
 20
1.521354166666667
 30
0.0
 10
15.64129333496094
 20
2.027438693576389
 30
0.0
  0
SPLINE
  5
B3
330
2D
100
AcDbEntity
  8
LAYER_1
 62
     7
100
AcDbSpline
210
0.0
220
0.0
230
1.0
 70
     8
 71
     3
 72
     8
 73
     4
 74
     0
 42
0.0000000001
 43
0.0000000001
 40
0.0
 40
0.0
 40
0.0
 40
0.0
 40
1.0
 40
1.0
 40
1.0
 40
1.0
 10
19.33736402723524
 20
-2.878549533420139
 30
0.0
 10
19.12566290961371
 20
-2.598118760850694
 30
0.0
 10
18.83282979329427
 20
-1.96422119140625
 30
0.0
 10
18.59770202636719
 20
-1.389407009548611
 30
0.0
  0
SPLINE
  5
B2
330
2D
100
AcDbEntity
  8
LAYER_1
 62
     7
100
AcDbSpline
210
0.0
220
0.0
230
1.0
 70
     8
 71
     3
 72
     8
 73
     4
 74
     0
 42
0.0000000001
 43
0.0000000001
 40
0.0
 40
0.0
 40
0.0
 40
0.0
 40
1.0
 40
1.0
 40
1.0
 40
1.0
 10
18.28127000596788
 20
-0.5465643988715278
 30
0.0
 10
18.0833492702908
 20
0.0473700629340278
 30
0.0
 10
17.37934400770399
 20
1.983341471354166
 30
0.0
 10
16.67533874511719
 20
2.027438693576389
 30
0.0
  0
SPLINE
  5
B1
330
2D
100
AcDbEntity
  8
LAYER_1
 62
     7
100
AcDbSpline
210
0.0
220
0.0
230
1.0
 70
     8
 71
     3
 72
    11
 73
     7
 74
     0
 42
0.0000000001
 43
0.0000000001
 40
0.0
 40
0.0
 40
0.0
 40
0.0
 40
1.0
 40
1.0
 40
1.0
 40
2.0
 40
2.0
 40
2.0
 40
2.0
 10
20.34936082628038
 20
-3.82457275390625
 30
0.0
 10
20.04136928982205
 20
-3.516581217447917
 30
0.0
 10
19.40333760579427
 20
-1.866552734375
 30
0.0
 10
19.16131964789496
 20
-0.9865030924479166
 30
0.0
 10
18.91930168999566
 20
-0.1066257052951389
 30
0.0
 10
18.45731438530816
 20
2.335430230034722
 30
0.0
 10
17.79740634494358
 20
2.995510525173611
 30
0.0
  0
SPLINE
  5
B0
330
2D
100
AcDbEntity
  8
LAYER_1
 62
     7
100
AcDbSpline
210
0.0
220
0.0
230
1.0
 70
     8
 71
     3
 72
     8
 73
     4
 74
     0
 42
0.0000000001
 43
0.0000000001
 40
0.0
 40
0.0
 40
0.0
 40
0.0
 40
1.0
 40
1.0
 40
1.0
 40
1.0
 10
20.96534389919705
 20
-2.658580186631944
 30
0.0
 10
20.72332594129774
 20
-2.298395453559027
 30
0.0
 10
20.42084655761719
 20
-1.79368896484375
 30
0.0
 10
20.16780429416232
 20
-1.265728081597222
 30
0.0
  0
SPLINE
  5
AF
330
2D
100
AcDbEntity
  8
LAYER_1
 62
     7
100
AcDbSpline
210
0.0
220
0.0
230
1.0
 70
     8
 71
     3
 72
     8
 73
     4
 74
     0
 42
0.0000000001
 43
0.0000000001
 40
0.0
 40
0.0
 40
0.0
 40
0.0
 40
1.0
 40
1.0
 40
1.0
 40
1.0
 10
19.86532491048177
 20
-0.5246880425347221
 30
0.0
 10
19.60143059624566
 20
0.2454630533854167
 30
0.0
 10
19.20541687011719
 20
1.543402777777778
 30
0.0
 10
18.85332811143663
 20
1.983341471354166
 30
0.0
  0
SPLINE
  5
AE
330
2D
100
AcDbEntity
  8
LAYER_1
 62
     7
100
AcDbSpline
210
0.0
220
0.0
230
1.0
 70
     8
 71
     3
 72
     8
 73
     4
 74
     0
 42
0.0000000001
 43
0.0000000001
 40
0.0
 40
0.0
 40
0.0
 40
0.0
 40
1.0
 40
1.0
 40
1.0
 40
1.0
 10
22.48342522515191
 20
-2.812575954861111
 30
0.0
 10
22.31289299858941
 20
-2.591228569878472
 30
0.0
 10
22.06536288791233
 20
-1.929770236545139
 30
0.0
 10
21.85503980848524
 20
-1.350994194878472
 30
0.0
  0
SPLINE
  5
AD
330
2D
100
AcDbEntity
  8
LAYER_1
 62
     7
100
AcDbSpline
210
0.0
220
0.0
230
1.0
 70
     8
 71
     3
 72
     8
 73
     4
 74
     0
 42
0.0000000001
 43
0.0000000001
 40
0.0
 40
0.0
 40
0.0
 40
0.0
 40
1.0
 40
1.0
 40
1.0
 40
1.0
 10
21.51535339355469
 20
-0.4366658528645833
 30
0.0
 10
21.33930901421441
 20
-0.0625284830729167
 30
0.0
 10
20.74537455240885
 20
1.983341471354166
 30
0.0
 10
19.95334710015191
 20
2.027438693576389
 30
0.0
  0
SPLINE
  5
AC
330
2D
100
AcDbEntity
  8
LAYER_1
 62
     7
100
AcDbSpline
210
0.0
220
0.0
230
1.0
 70
     8
 71
     3
 72
    11
 73
     7
 74
     0
 42
0.0000000001
 43
0.0000000001
 40
0.0
 40
0.0
 40
0.0
 40
0.0
 40
1.0
 40
1.0
 40
1.0
 40
2.0
 40
2.0
 40
2.0
 40
2.0
 10
23.31937764485677
 20
-3.516581217447917
 30
0.0
 10
22.96728888617621
 20
-2.878549533420139
 30
0.0
 10
22.37335442437066
 20
-1.448662651909722
 30
0.0
 10
22.19731004503038
 20
-0.4805908203124999
 30
0.0
 10
22.0212656656901
 20
0.4874810112847222
 30
0.0
 10
21.42733120388455
 20
2.599324544270833
 30
0.0
 10
20.98739251030816
 20
2.929364691840278
 30
0.0
  0
SPLINE
  5
AB
330
2D
100
AcDbEntity
  8
LAYER_1
 62
     7
100
AcDbSpline
210
0.0
220
0.0
230
1.0
 70
     8
 71
     3
 72
     8
 73
     4
 74
     0
 42
0.0000000001
 43
0.0000000001
 40
0.0
 40
0.0
 40
0.0
 40
0.0
 40
1.0
 40
1.0
 40
1.0
 40
1.0
 10
24.28727722167968
 20
-2.636531575520833
 30
0.0
 10
23.9312266031901
 20
-2.163519965277778
 30
0.0
 10
23.66578199598524
 20
-1.701532660590278
 30
0.0
 10
23.42238599989149
 20
-1.22318115234375
 30
0.0
  0
SPLINE
  5
AA
330
2D
100
AcDbEntity
  8
LAYER_1
 62
     7
100
AcDbSpline
210
0.0
220
0.0
230
1.0
 70
     8
 71
     3
 72
     8
 73
     4
 74
     0
 42
0.0000000001
 43
0.0000000001
 40
0.0
 40
0.0
 40
0.0
 40
0.0
 40
1.0
 40
1.0
 40
1.0
 40
1.0
 10
23.07735968695747
 20
-0.5026394314236111
 30
0.0
 10
22.72527092827691
 20
0.2454630533854167
 30
0.0
 10
22.50530158148871
 20
1.587327745225694
 30
0.0
 10
22.08741149902344
 20
2.005390082465278
 30
0.0
  0
SPLINE
  5
A9
330
2D
100
AcDbEntity
  8
LAYER_1
 62
     7
100
AcDbSpline
210
0.0
220
0.0
230
1.0
 70
     8
 71
     3
 72
     8
 73
     4
 74
     0
 42
0.0000000001
 43
0.0000000001
 40
0.0
 40
0.0
 40
0.0
 40
0.0
 40
1.0
 40
1.0
 40
1.0
 40
1.0
 10
25.80535854763455
 20
-2.944523111979167
 30
0.0
 10
25.6210459391276
 20
-2.691653103298611
 30
0.0
 10
25.31994459364149
 20
-2.005390082465278
 30
0.0
 10
25.04640401204427
 20
-1.335835774739583
 30
0.0
  0
SPLINE
  5
A8
330
2D
100
AcDbEntity
  8
LAYER_1
 62
     7
100
AcDbSpline
210
0.0
220
0.0
230
1.0
 70
     8
 71
     3
 72
     8
 73
     4
 74
     0
 42
0.0000000001
 43
0.0000000001
 40
0.0
 40
0.0
 40
0.0
 40
0.0
 40
1.0
 40
1.0
 40
1.0
 40
1.0
 10
24.63936598036024
 20
-0.3045464409722222
 30
0.0
 10
24.33137444390191
 20
0.4874810112847222
 30
0.0
 10
23.97928568522135
 20
2.071363661024305
 30
0.0
 10
23.18725823296441
 20
2.0494873046875
 30
0.0
  0
SPLINE
  5
A7
330
2D
100
AcDbEntity
  8
LAYER_1
 62
     7
100
AcDbSpline
210
0.0
220
0.0
230
1.0
 70
     8
 71
     3
 72
    11
 73
     7
 74
     0
 42
0.0000000001
 43
0.0000000001
 40
0.0
 40
0.0
 40
0.0
 40
0.0
 40
1.0
 40
1.0
 40
1.0
 40
2.0
 40
2.0
 40
2.0
 40
2.0
 10
26.6192623562283
 20
-3.670576985677083
 30
0.0
 10
26.22324863009983
 20
-3.054593912760416
 30
0.0
 10
25.82723490397135
 20
-1.734605577256944
 30
0.0
 10
25.62931416829427
 20
-0.7226087782118055
 30
0.0
 10
25.43139343261719
 20
0.2893880208333333
 30
0.0
 10
24.48537021213107
 20
3.105409071180555
 30
0.0
 10
23.89126349555122
 20
3.237356228298611
 30
0.0
  0
SPLINE
  5
A6
330
2D
100
AcDbEntity
  8
LAYER_1
 62
     7
100
AcDbSpline
210
0.0
220
0.0
230
1.0
 70
     8
 71
     3
 72
     8
 73
     4
 74
     0
 42
0.0000000001
 43
0.0000000001
 40
0.0
 40
0.0
 40
0.0
 40
0.0
 40
1.0
 40
1.0
 40
1.0
 40
1.0
 10
27.49931199815538
 20
-2.702677408854167
 30
0.0
 10
27.19545457628038
 20
-2.232421875
 30
0.0
 10
26.89159715440538
 20
-1.752520073784722
 30
0.0
 10
26.65233527289496
 20
-1.268484157986111
 30
0.0
  0
SPLINE
  5
A5
330
2D
100
AcDbEntity
  8
LAYER_1
 62
     7
100
AcDbSpline
210
0.0
220
0.0
230
1.0
 70
     8
 71
     3
 72
     8
 73
     4
 74
     0
 42
0.0000000001
 43
0.0000000001
 40
0.0
 40
0.0
 40
0.0
 40
0.0
 40
1.0
 40
1.0
 40
1.0
 40
1.0
 10
26.37724439832899
 20
-0.6125379774305555
 30
0.0
 10
26.13539869520399
 20
0.09146728515625
 30
0.0
 10
25.67323913574219
 20
1.543402777777778
 30
0.0
 10
25.40934482150608
 20
1.961465115017361
 30
0.0
  0
SPLINE
  5
A4
330
2D
100
AcDbEntity
  8
LAYER_1
 62
     7
100
AcDbSpline
210
0.0
220
0.0
230
1.0
 70
     8
 71
     3
 72
     8
 73
     4
 74
     0
 42
0.0000000001
 43
0.0000000001
 40
0.0
 40
0.0
 40
0.0
 40
0.0
 40
1.0
 40
1.0
 40
1.0
 40
1.0
 10
29.56740281846788
 20
-3.406682671440972
 30
0.0
 10
29.26888529459635
 20
-3.170176866319444
 30
0.0
 10
28.78088751898871
 20
-2.261188422309028
 30
0.0
 10
28.41364034016927
 20
-1.444528537326389
 30
0.0
  0
SPLINE
  5
A3
330
2D
100
AcDbEntity
  8
LAYER_1
 62
     7
100
AcDbSpline
210
0.0
220
0.0
230
1.0
 70
     8
 71
     3
 72
     8
 73
     4
 74
     0
 42
0.0000000001
 43
0.0000000001
 40
0.0
 40
0.0
 40
0.0
 40
0.0
 40
1.0
 40
1.0
 40
1.0
 40
1.0
 10
28.0052242702908
 20
-0.4146172417534722
 30
0.0
 10
27.74132995605469
 20
0.3994588216145833
 30
0.0
 10
27.3013912624783
 20
2.005390082465278
 30
0.0
 10
26.46526658799913
 20
2.027438693576389
 30
0.0
  0
SPLINE
  5
A2
330
2D
100
AcDbEntity
  8
LAYER_1
 62
     7
100
AcDbSpline
210
0.0
220
0.0
230
1.0
 70
     8
 71
     3
 72
    11
 73
     7
 74
     0
 42
0.0000000001
 43
0.0000000001
 40
0.0
 40
0.0
 40
0.0
 40
0.0
 40
1.0
 40
1.0
 40
1.0
 40
2.0
 40
2.0
 40
2.0
 40
2.0
 10
30.02921786838108
 20
-3.846621365017361
 30
0.0
 10
29.34726121690538
 20
-3.076642523871528
 30
0.0
 10
28.86322530110677
 20
-0.7226087782118055
 30
0.0
 10
28.7092295328776
 20
0.1794894748263889
 30
0.0
 10
28.55523376464844
 20
1.081415473090278
 30
0.0
 10
27.65330776638455
 20
3.061484103732639
 30
0.0
 10
27.19132046169705
 20
3.127457682291666
 30
0.0
  0
SPLINE
  5
A1
330
2D
100
AcDbEntity
  8
LAYER_1
 62
     7
100
AcDbSpline
210
0.0
220
0.0
230
1.0
 70
     8
 71
     3
 72
     8
 73
     4
 74
     0
 42
0.0000000001
 43
0.0000000001
 40
0.0
 40
0.0
 40
0.0
 40
0.0
 40
1.0
 40
1.0
 40
1.0
 40
1.0
 10
30.7773203531901
 20
-2.702677408854167
 30
0.0
 10
30.78421054416232
 20
-2.420696343315972
 30
0.0
 10
30.33738165961371
 20
-1.846054416232639
 30
0.0
 10
30.06504686143663
 20
-1.234033203125
 30
0.0
  0
SPLINE
  5
A0
330
2D
100
AcDbEntity
  8
LAYER_1
 62
     7
100
AcDbSpline
210
0.0
220
0.0
230
1.0
 70
     8
 71
     3
 72
     8
 73
     4
 74
     0
 42
0.0000000001
 43
0.0000000001
 40
0.0
 40
0.0
 40
0.0
 40
0.0
 40
1.0
 40
1.0
 40
1.0
 40
1.0
 10
29.83129713270399
 20
-0.6566351996527777
 30
0.0
 10
29.54535420735677
 20
0.09146728515625
 30
0.0
 10
28.77537536621093
 20
1.763372124565972
 30
0.0
 10
28.62137959798177
 20
2.005390082465278
 30
0.0
  0
SPLINE
  5
9F
330
2D
100
AcDbEntity
  8
LAYER_1
 62
     7
100
AcDbSpline
210
0.0
220
0.0
230
1.0
 70
     8
 71
     3
 72
     8
 73
     4
 74
     0
 42
0.0000000001
 43
0.0000000001
 40
0.0
 40
0.0
 40
0.0
 40
0.0
 40
1.0
 40
1.0
 40
1.0
 40
1.0
 10
32.31727803548177
 20
-2.944523111979167
 30
0.0
 10
31.99412807888455
 20
-2.569179958767361
 30
0.0
 10
31.81136576334635
 20
-1.909271918402778
 30
0.0
 10
31.60638258192274
 20
-1.334457736545139
 30
0.0
  0
SPLINE
  5
9E
330
2D
100
AcDbEntity
  8
LAYER_1
 62
     7
100
AcDbSpline
210
0.0
220
0.0
230
1.0
 70
     8
 71
     3
 72
     8
 73
     4
 74
     0
 42
0.0000000001
 43
0.0000000001
 40
0.0
 40
0.0
 40
0.0
 40
0.0
 40
1.0
 40
1.0
 40
1.0
 40
1.0
 10
31.32732984754774
 20
-0.5465643988715278
 30
0.0
 10
31.12923685709635
 20
-0.0406521267361111
 30
0.0
 10
30.44728020562066
 20
2.093412272135417
 30
0.0
 10
29.47938062879774
 20
2.027438693576389
 30
0.0
  0
SPLINE
  5
9D
330
2D
100
AcDbEntity
  8
LAYER_1
 62
     7
100
AcDbSpline
210
0.0
220
0.0
230
1.0
 70
     8
 71
     3
 72
    11
 73
     7
 74
     0
 42
0.0000000001
 43
0.0000000001
 40
0.0
 40
0.0
 40
0.0
 40
0.0
 40
1.0
 40
1.0
 40
1.0
 40
2.0
 40
2.0
 40
2.0
 40
2.0
 10
33.35132344563802
 20
-3.9346435546875
 30
0.0
 10
33.02128329806858
 20
-3.538629828559027
 30
0.0
 10
32.47127380371094
 20
-2.240517849392361
 30
0.0
 10
32.36137525770399
 20
-1.558561197916667
 30
0.0
 10
32.25130445692274
 20
-0.8766045464409722
 30
0.0
 10
31.26135626898871
 20
2.643421766493055
 30
0.0
 10
30.73322313096788
 20
2.907488335503472
 30
0.0
  0
SPLINE
  5
9C
330
2D
100
AcDbEntity
  8
LAYER_1
 62
     7
100
AcDbSpline
210
0.0
220
0.0
230
1.0
 70
     8
 71
     3
 72
     8
 73
     4
 74
     0
 42
0.0000000001
 43
0.0000000001
 40
0.0
 40
0.0
 40
0.0
 40
0.0
 40
1.0
 40
1.0
 40
1.0
 40
1.0
 10
32.95530971950954
 20
-0.6125379774305555
 30
0.0
 10
32.66936679416232
 20
0.2234144422743055
 30
0.0
 10
32.07526007758246
 20
1.807469346788194
 30
0.0
 10
31.76726854112413
 20
2.159385850694444
 30
0.0
  0
SPLINE
  5
9B
330
2D
100
AcDbEntity
  8
LAYER_1
 62
     7
100
AcDbSpline
210
0.0
220
0.0
230
1.0
 70
     8
 71
     3
 72
     8
 73
     4
 74
     0
 42
0.0000000001
 43
0.0000000001
 40
0.0
 40
0.0
 40
0.0
 40
0.0
 40
1.0
 40
1.0
 40
1.0
 40
1.0
 10
35.41924201117621
 20
-2.680628797743055
 30
0.0
 10
35.19927266438802
 20
-2.412428114149305
 30
0.0
 10
35.04803297254774
 20
-1.944928656684028
 30
0.0
 10
34.84460008409288
 20
-1.463821072048611
 30
0.0
  0
LINE
  5
9A
330
2D
100
AcDbEntity
  8
LAYER_1
 62
     7
100
AcDbLine
 10
33.4376230875651
 20
-1.822627766927083
 30
0.0
 11
34.97758076985677
 21
-1.822627766927083
 31
0.0
  0
LINE
  5
99
330
2D
100
AcDbEntity
  8
LAYER_1
 62
     7
100
AcDbLine
 10
35.30762091742621
 20
1.235411241319444
 30
0.0
 11
36.95764940049913
 21
1.257459852430555
 31
0.0
  0
LINE
  5
98
330
2D
100
AcDbEntity
  8
LAYER_1
 62
     7
100
AcDbLine
 10
35.48366529676649
 20
0.8393975151909722
 30
0.0
 11
37.08959655761719
 21
0.8614461263020833
 31
0.0
  0
SPLINE
  5
97
330
2D
100
AcDbEntity
  8
LAYER_1
 62
     7
100
AcDbSpline
210
0.0
220
0.0
230
1.0
 70
     8
 71
     3
 72
     8
 73
     4
 74
     0
 42
0.0000000001
 43
0.0000000001
 40
0.0
 40
0.0
 40
0.0
 40
0.0
 40
1.0
 40
1.0
 40
1.0
 40
1.0
 10
37.57363247341579
 20
-0.1946478949652778
 30
0.0
 10
37.37553948296441
 20
0.3334852430555556
 30
0.0
 10
36.84757859971788
 20
1.93941650390625
 30
0.0
 10
36.09964836968316
 20
2.0494873046875
 30
0.0
  0
SPLINE
  5
96
330
2D
100
AcDbEntity
  8
LAYER_1
 62
     7
100
AcDbSpline
210
0.0
220
0.0
230
1.0
 70
     8
 71
     3
 72
     8
 73
     4
 74
     0
 42
0.0000000001
 43
0.0000000001
 40
0.0
 40
0.0
 40
0.0
 40
0.0
 40
1.0
 40
1.0
 40
1.0
 40
1.0
 10
38.58562927246094
 20
-2.614655219184027
 30
0.0
 10
38.50725335015191
 20
-2.446879069010417
 30
0.0
 10
38.29693027072482
 20
-1.983513726128472
 30
0.0
 10
38.02459547254774
 20
-1.322055392795139
 30
0.0
  0
LINE
  5
95
330
2D
100
AcDbEntity
  8
LAYER_1
 62
     7
100
AcDbLine
 10
36.69358283148871
 20
-1.888601345486111
 30
0.0
 11
38.25558912489149
 21
-1.844676378038194
 31
0.0
  0
LINE
  5
94
330
2D
100
AcDbEntity
  8
LAYER_1
 62
     7
100
AcDbLine
 10
39.94954257541232
 20
-1.910649956597222
 30
0.0
 11
41.57769470214844
 21
-1.910649956597222
 31
0.0
  0
LINE
  5
93
330
2D
100
AcDbEntity
  8
LAYER_1
 62
     7
100
AcDbLine
 10
38.56358066134983
 20
1.235411241319444
 30
0.0
 11
40.30163133409288
 21
1.235411241319444
 31
0.0
  0
LINE
  5
92
330
2D
100
AcDbEntity
  8
LAYER_1
 62
     7
100
AcDbLine
 10
38.71757642957899
 20
0.8393975151909722
 30
0.0
 11
40.47767571343316
 21
0.8614461263020833
 31
0.0
  0
LINE
  5
91
330
2D
100
AcDbEntity
  8
LAYER_1
 62
     7
100
AcDbLine
 10
41.99558478461371
 20
1.279508463541667
 30
0.0
 11
43.42564392089843
 21
1.301384819878472
 31
0.0
  0
LINE
  5
90
330
2D
100
AcDbEntity
  8
LAYER_1
 62
     7
100
AcDbLine
 10
42.14958055284288
 20
0.927419704861111
 30
0.0
 11
43.5796396891276
 21
0.9494683159722221
 31
0.0
  0
LINE
  5
8F
330
2D
100
AcDbEntity
  8
LAYER_1
 62
     7
100
AcDbLine
 10
43.27164815266927
 20
-1.800579155815972
 30
0.0
 11
44.7235836452908
 21
-1.800579155815972
 31
0.0
  0
LINE
  5
8E
330
2D
100
AcDbEntity
  8
LAYER_1
 62
     7
100
AcDbLine
 10
45.14164598253038
 20
1.257459852430555
 30
0.0
 11
46.72552863226996
 21
1.279508463541667
 31
0.0
  0
LINE
  5
8D
330
2D
100
AcDbEntity
  8
LAYER_1
 62
     7
100
AcDbLine
 10
45.31751810709635
 20
0.8833224826388888
 30
0.0
 11
46.85764804416233
 21
0.9053710937499999
 31
0.0
  0
LINE
  5
8C
330
2D
100
AcDbEntity
  8
LAYER_1
 62
     7
100
AcDbLine
 10
46.48351067437066
 20
-1.844676378038194
 30
0.0
 11
47.97954338921441
 21
-1.822627766927083
 31
0.0
  0
LINE
  5
8B
330
2D
100
AcDbEntity
  8
LAYER_1
 62
     7
100
AcDbLine
 10
48.4415306939019
 20
1.257459852430555
 30
0.0
 11
49.84954121907552
 21
1.257459852430555
 31
0.0
  0
LINE
  5
8A
330
2D
100
AcDbEntity
  8
LAYER_1
 62
     7
100
AcDbLine
 10
48.57347785101996
 20
0.927419704861111
 30
0.0
 11
50.06951056586371
 21
0.9494683159722221
 31
0.0
  0
LINE
  5
89
330
2D
100
AcDbEntity
  8
LAYER_1
 62
     7
100
AcDbLine
 10
49.87158983018663
 20
-1.866552734375
 30
0.0
 11
51.12560458713107
 21
-1.844676378038194
 31
0.0
  0
LINE
  5
88
330
2D
100
AcDbEntity
  8
LAYER_1
 62
     7
100
AcDbLine
 10
52.99560241699219
 20
-1.888601345486111
 30
0.0
 11
54.35951571994357
 21
-1.866552734375
 31
0.0
  0
LINE
  5
87
330
2D
100
AcDbEntity
  8
LAYER_1
 62
     7
100
AcDbLine
 10
51.76346401638455
 20
0.8833224826388888
 30
0.0
 11
53.23762037489149
 21
0.9053710937499999
 31
0.0
  0
LINE
  5
86
330
2D
100
AcDbEntity
  8
LAYER_1
 62
     7
100
AcDbLine
 10
51.60946824815538
 20
1.257459852430555
 30
0.0
 11
53.0395273844401
 21
1.257459852430555
 31
0.0
  0
LINE
  5
85
330
2D
100
AcDbEntity
  8
LAYER_1
 62
     7
100
AcDbLine
 10
54.84355163574218
 20
1.235411241319444
 30
0.0
 11
56.31753573947482
 21
1.257459852430555
 31
0.0
  0
LINE
  5
84
330
2D
100
AcDbEntity
  8
LAYER_1
 62
     7
100
AcDbLine
 10
54.99754740397135
 20
0.8393975151909722
 30
0.0
 11
56.51545647515191
 21
0.8614461263020833
 31
0.0
  0
LINE
  5
83
330
2D
100
AcDbEntity
  8
LAYER_1
 62
     7
100
AcDbLine
 10
56.07551778157551
 20
-1.844676378038194
 30
0.0
 11
57.59342685275608
 21
-1.866552734375
 31
0.0
  0
LINE
  5
82
330
2D
100
AcDbEntity
  8
LAYER_1
 62
     7
100
AcDbLine
 10
58.09951137966579
 20
1.169437662760417
 30
0.0
 11
59.61742045084635
 21
1.191486273871528
 31
0.0
  0
LINE
  5
81
330
2D
100
AcDbEntity
  8
LAYER_1
 62
     7
100
AcDbLine
 10
58.23145853678385
 20
0.8173489040798611
 30
0.0
 11
59.79346483018663
 21
0.8614461263020833
 31
0.0
  0
LINE
  5
80
330
2D
100
AcDbEntity
  8
LAYER_1
 62
     7
100
AcDbLine
 10
59.37557474772135
 20
-1.888601345486111
 30
0.0
 11
60.84955885145399
 21
-1.866552734375
 31
0.0
  0
LINE
  5
7F
330
2D
100
AcDbEntity
  8
LAYER_1
 62
     7
100
AcDbLine
 10
64.63347947862413
 20
1.1255126953125
 30
0.0
 11
66.12951219346788
 21
1.147389051649306
 31
0.0
  0
LINE
  5
7E
330
2D
100
AcDbEntity
  8
LAYER_1
 62
     7
100
AcDbLine
 10
64.80952385796441
 20
0.7734239366319444
 30
0.0
 11
66.32743292914496
 21
0.7954725477430555
 31
0.0
  0
LINE
  5
7D
330
2D
100
AcDbEntity
  8
LAYER_1
 62
     7
100
AcDbLine
 10
61.3335947672526
 20
1.191486273871528
 30
0.0
 11
62.9395260281033
 21
1.213362630208333
 31
0.0
  0
LINE
  5
7C
330
2D
100
AcDbEntity
  8
LAYER_1
 62
     7
100
AcDbLine
 10
61.50946689181857
 20
0.7954725477430555
 30
0.0
 11
63.13744676378038
 21
0.8173489040798611
 31
0.0
  0
LINE
  5
7B
330
2D
100
AcDbEntity
  8
LAYER_1
 62
     7
100
AcDbLine
 10
62.63153449164496
 20
-1.97662353515625
 30
0.0
 11
64.23746575249565
 21
-1.954574924045139
 31
0.0
  0
SPLINE
  5
7A
330
2D
100
AcDbEntity
  8
LAYER_1
 62
     7
100
AcDbSpline
210
0.0
220
0.0
230
1.0
 70
     8
 71
     3
 72
     8
 73
     4
 74
     0
 42
0.0000000001
 43
0.0000000001
 40
0.0
 40
0.0
 40
0.0
 40
0.0
 40
1.0
 40
1.0
 40
1.0
 40
1.0
 10
66.85539381239148
 20
2.027438693576389
 30
0.0
 10
69.69346347384982
 20
0.5973795572916666
 30
0.0
 10
76.71146748860676
 20
-0.3045464409722222
 30
0.0
 10
80.62750752766927
 20
-0.2826700846354167
 30
0.0
  0
LINE
  5
79
330
2D
100
AcDbEntity
  8
LAYER_1
 62
     7
100
AcDbLine
 10
67.93336418999566
 20
1.081415473090278
 30
0.0
 11
69.45144551595051
 21
0.927419704861111
 31
0.0
  0
LINE
  5
78
330
2D
100
AcDbEntity
  8
LAYER_1
 62
     7
100
AcDbLine
 10
68.10940856933593
 20
0.6633531358506943
 30
0.0
 11
69.58356492784287
 21
0.55345458984375
 31
0.0
  0
LINE
  5
77
330
2D
100
AcDbEntity
  8
LAYER_1
 62
     7
100
AcDbLine
 10
71.32144334581163
 20
0.3553615993923611
 30
0.0
 11
73.05949401855469
 21
0.1794894748263889
 31
0.0
  0
LINE
  5
76
330
2D
100
AcDbEntity
  8
LAYER_1
 62
     7
100
AcDbLine
 10
69.1875512017144
 20
-1.866552734375
 30
0.0
 11
70.52941589355469
 21
-1.756654188368055
 31
0.0
  0
LINE
  5
75
330
2D
100
AcDbEntity
  8
LAYER_1
 62
     7
100
AcDbLine
 10
72.26746656629774
 20
-1.646583387586805
 30
0.0
 11
73.74145067003038
 21
-1.470711263020833
 31
0.0
  0
SPLINE
  5
74
330
2D
100
AcDbEntity
  8
LAYER_1
 62
     7
100
AcDbSpline
210
0.0
220
0.0
230
1.0
 70
     8
 71
     3
 72
     8
 73
     4
 74
     0
 42
0.0000000001
 43
0.0000000001
 40
0.0
 40
0.0
 40
0.0
 40
0.0
 40
1.0
 40
1.0
 40
1.0
 40
1.0
 10
33.98763258192274
 20
-2.636531575520833
 30
0.0
 10
33.84879523383246
 20
-2.560911729600694
 30
0.0
 10
33.41023457845052
 20
-1.873442925347222
 30
0.0
 10
33.05263366699219
 20
-1.211984592013889
 30
0.0
  0
SPLINE
  5
73
330
2D
100
AcDbEntity
  8
LAYER_1
 62
     7
100
AcDbSpline
210
0.0
220
0.0
230
1.0
 70
     8
 71
     3
 72
     8
 73
     4
 74
     0
 42
0.0000000001
 43
0.0000000001
 40
0.0
 40
0.0
 40
0.0
 40
0.0
 40
1.0
 40
1.0
 40
1.0
 40
1.0
 10
34.42757127549913
 20
-0.5026394314236111
 30
0.0
 10
34.14162835015191
 20
0.2893880208333333
 30
0.0
 10
33.6575924343533
 20
1.829345703125
 30
0.0
 10
32.79959140353732
 20
2.159385850694444
 30
0.0
  0
SPLINE
  5
72
330
2D
100
AcDbEntity
  8
LAYER_1
 62
     7
100
AcDbSpline
210
0.0
220
0.0
230
1.0
 70
     8
 71
     3
 72
    11
 73
     7
 74
     0
 42
0.0000000001
 43
0.0000000001
 40
0.0
 40
0.0
 40
0.0
 40
0.0
 40
1.0
 40
1.0
 40
1.0
 40
2.0
 40
2.0
 40
2.0
 40
2.0
 10
36.49566209581163
 20
-3.692625596788194
 30
0.0
 10
35.65953742133246
 20
-2.856673177083333
 30
0.0
 10
35.35171813964843
 20
-1.294666883680556
 30
0.0
 10
35.06560295952691
 20
-0.1946478949652778
 30
0.0
 10
34.77966003417969
 20
0.9053710937499999
 30
0.0
 10
34.27357550726996
 20
2.621373155381944
 30
0.0
 10
33.70168965657552
 20
3.171382649739583
 30
0.0
  0
SPLINE
  5
71
330
2D
100
AcDbEntity
  8
LAYER_1
 62
     7
100
AcDbSpline
210
0.0
220
0.0
230
1.0
 70
     8
 71
     3
 72
     8
 73
     4
 74
     0
 42
0.0000000001
 43
0.0000000001
 40
0.0
 40
0.0
 40
0.0
 40
0.0
 40
1.0
 40
1.0
 40
1.0
 40
1.0
 10
37.15557013617621
 20
-2.592606608072916
 30
0.0
 10
36.87376132541233
 20
-2.218641493055555
 30
0.0
 10
36.5258066813151
 20
-1.700154622395833
 30
0.0
 10
36.24537590874566
 20
-1.157035319010417
 30
0.0
  0
SPLINE
  5
70
330
2D
100
AcDbEntity
  8
LAYER_1
 62
     7
100
AcDbSpline
210
0.0
220
0.0
230
1.0
 70
     8
 71
     3
 72
     8
 73
     4
 74
     0
 42
0.0000000001
 43
0.0000000001
 40
0.0
 40
0.0
 40
0.0
 40
0.0
 40
1.0
 40
1.0
 40
1.0
 40
1.0
 10
35.94565260145399
 20
-0.4805908203124999
 30
0.0
 10
35.65953742133246
 20
0.2893880208333333
 30
0.0
 10
35.2636959499783
 20
1.543402777777778
 30
0.0
 10
34.95553215874566
 20
2.027438693576389
 30
0.0
  0
SPLINE
  5
6F
330
2D
100
AcDbEntity
  8
LAYER_1
 62
     7
100
AcDbSpline
210
0.0
220
0.0
230
1.0
 70
     8
 71
     3
 72
    11
 73
     7
 74
     0
 42
0.0000000001
 43
0.0000000001
 40
0.0
 40
0.0
 40
0.0
 40
0.0
 40
1.0
 40
1.0
 40
1.0
 40
2.0
 40
2.0
 40
2.0
 40
2.0
 10
39.46550665961371
 20
-3.604603407118055
 30
0.0
 10
39.11359015570746
 20
-2.922646755642361
 30
0.0
 10
38.58562927246094
 20
-1.184596082899305
 30
0.0
 10
38.40958489312066
 20
-0.2606214735243055
 30
0.0
 10
38.23354051378038
 20
0.6633531358506943
 30
0.0
 10
37.88162400987413
 20
2.225359429253472
 30
0.0
 10
36.80365363226996
 20
3.281453450520833
 30
0.0
  0
SPLINE
  5
6E
330
2D
100
AcDbEntity
  8
LAYER_1
 62
     7
100
AcDbSpline
210
0.0
220
0.0
230
1.0
 70
     8
 71
     3
 72
     8
 73
     4
 74
     0
 42
0.0000000001
 43
0.0000000001
 40
0.0
 40
0.0
 40
0.0
 40
0.0
 40
1.0
 40
1.0
 40
1.0
 40
1.0
 10
40.36760491265191
 20
-2.592606608072916
 30
0.0
 10
40.10353834364149
 20
-2.197970920138889
 30
0.0
 10
39.83137580023871
 20
-1.7084228515625
 30
0.0
 10
39.5797115749783
 20
-1.184596082899305
 30
0.0
  0
SPLINE
  5
6D
330
2D
100
AcDbEntity
  8
LAYER_1
 62
     7
100
AcDbSpline
210
0.0
220
0.0
230
1.0
 70
     8
 71
     3
 72
     8
 73
     4
 74
     0
 42
0.0000000001
 43
0.0000000001
 40
0.0
 40
0.0
 40
0.0
 40
0.0
 40
1.0
 40
1.0
 40
1.0
 40
1.0
 10
39.11359015570746
 20
-0.1066257052951389
 30
0.0
 10
38.44265780978732
 20
0.5644788953993055
 30
0.0
 10
38.36565992567274
 20
1.609376356336805
 30
0.0
 10
38.18961554633246
 20
2.027438693576389
 30
0.0
  0
SPLINE
  5
6C
330
2D
100
AcDbEntity
  8
LAYER_1
 62
     7
100
AcDbSpline
210
0.0
220
0.0
230
1.0
 70
     8
 71
     3
 72
     8
 73
     4
 74
     0
 42
0.0000000001
 43
0.0000000001
 40
0.0
 40
0.0
 40
0.0
 40
0.0
 40
1.0
 40
1.0
 40
1.0
 40
1.0
 10
42.10565558539496
 20
-2.966571723090278
 30
0.0
 10
41.95975579155816
 20
-2.783809407552083
 30
0.0
 10
41.64900817871094
 20
-2.064645724826389
 30
0.0
 10
41.3906260172526
 20
-1.423857964409722
 30
0.0
  0
SPLINE
  5
6B
330
2D
100
AcDbEntity
  8
LAYER_1
 62
     7
100
AcDbSpline
210
0.0
220
0.0
230
1.0
 70
     8
 71
     3
 72
     8
 73
     4
 74
     0
 42
0.0000000001
 43
0.0000000001
 40
0.0
 40
0.0
 40
0.0
 40
0.0
 40
1.0
 40
1.0
 40
1.0
 40
1.0
 10
41.00563659667969
 20
-0.4146172417534722
 30
0.0
 10
40.85164082845052
 20
0.0254937065972222
 30
0.0
 10
40.25753411187066
 20
2.335430230034722
 30
0.0
 10
39.22366095648872
 20
2.093412272135417
 30
0.0
  0
SPLINE
  5
6A
330
2D
100
AcDbEntity
  8
LAYER_1
 62
     7
100
AcDbSpline
210
0.0
220
0.0
230
1.0
 70
     8
 71
     3
 72
    11
 73
     7
 74
     0
 42
0.0000000001
 43
0.0000000001
 40
0.0
 40
0.0
 40
0.0
 40
0.0
 40
1.0
 40
1.0
 40
1.0
 40
2.0
 40
2.0
 40
2.0
 40
2.0
 10
42.96365661621093
 20
-3.802524142795138
 30
0.0
 10
42.6556650797526
 20
-3.406682671440972
 30
0.0
 10
42.10565558539496
 20
-1.800579155815972
 30
0.0
 10
41.92961120605468
 20
-0.8766045464409722
 30
0.0
 10
41.75356682671441
 20
0.0473700629340278
 30
0.0
 10
41.00563659667969
 20
2.621373155381944
 30
0.0
 10
40.36760491265191
 20
3.017386881510416
 30
0.0
  0
SPLINE
  5
69
330
2D
100
AcDbEntity
  8
LAYER_1
 62
     7
100
AcDbSpline
210
0.0
220
0.0
230
1.0
 70
     8
 71
     3
 72
     8
 73
     4
 74
     0
 42
0.0000000001
 43
0.0000000001
 40
0.0
 40
0.0
 40
0.0
 40
0.0
 40
1.0
 40
1.0
 40
1.0
 40
1.0
 10
43.66766187879774
 20
-2.570557996961806
 30
0.0
 10
43.43529018825954
 20
-2.123729112413194
 30
0.0
 10
43.16571146647135
 20
-1.684996202256944
 30
0.0
 10
42.94436408148872
 20
-1.238167317708333
 30
0.0
  0
SPLINE
  5
68
330
2D
100
AcDbEntity
  8
LAYER_1
 62
     7
100
AcDbSpline
210
0.0
220
0.0
230
1.0
 70
     8
 71
     3
 72
     8
 73
     4
 74
     0
 42
0.0000000001
 43
0.0000000001
 40
0.0
 40
0.0
 40
0.0
 40
0.0
 40
1.0
 40
1.0
 40
1.0
 40
1.0
 10
42.6556650797526
 20
-0.5246880425347221
 30
0.0
 10
42.4355234781901
 20
0.1794894748263889
 30
0.0
 10
41.92961120605468
 20
1.521354166666667
 30
0.0
 10
41.59957105848524
 20
2.005390082465278
 30
0.0
  0
SPLINE
  5
67
330
2D
100
AcDbEntity
  8
LAYER_1
 62
     7
100
AcDbSpline
210
0.0
220
0.0
230
1.0
 70
     8
 71
     3
 72
     8
 73
     4
 74
     0
 42
0.0000000001
 43
0.0000000001
 40
0.0
 40
0.0
 40
0.0
 40
0.0
 40
1.0
 40
1.0
 40
1.0
 40
1.0
 10
45.47151387532551
 20
-3.186541069878472
 30
0.0
 10
45.30253194173177
 20
-2.995510525173611
 30
0.0
 10
44.95595533582899
 20
-2.272212727864583
 30
0.0
 10
44.64107360839844
 20
-1.569585503472222
 30
0.0
  0
SPLINE
  5
66
330
2D
100
AcDbEntity
  8
LAYER_1
 62
     7
100
AcDbSpline
210
0.0
220
0.0
230
1.0
 70
     8
 71
     3
 72
     8
 73
     4
 74
     0
 42
0.0000000001
 43
0.0000000001
 40
0.0
 40
0.0
 40
0.0
 40
0.0
 40
1.0
 40
1.0
 40
1.0
 40
1.0
 10
44.0416269938151
 20
-0.1725992838541667
 30
0.0
 10
43.8216576470269
 20
0.3553615993923611
 30
0.0
 10
43.55759107801649
 20
1.807469346788194
 30
0.0
 10
42.69959004720052
 20
2.0494873046875
 30
0.0
  0
SPLINE
  5
65
330
2D
100
AcDbEntity
  8
LAYER_1
 62
     7
100
AcDbSpline
210
0.0
220
0.0
230
1.0
 70
     8
 71
     3
 72
    11
 73
     7
 74
     0
 42
0.0000000001
 43
0.0000000001
 40
0.0
 40
0.0
 40
0.0
 40
0.0
 40
1.0
 40
1.0
 40
1.0
 40
2.0
 40
2.0
 40
2.0
 40
2.0
 10
46.32951490614149
 20
-3.82457275390625
 30
0.0
 10
45.77950541178385
 20
-3.384634060329861
 30
0.0
 10
45.20761956108941
 20
-1.822627766927083
 30
0.0
 10
45.09754876030816
 20
-1.030600314670139
 30
0.0
 10
44.98765021430121
 20
-0.2385728624131944
 30
0.0
 10
44.45951707628038
 20
2.071363661024305
 30
0.0
 10
43.99752977159288
 20
2.687518988715278
 30
0.0
  0
SPLINE
  5
64
330
2D
100
AcDbEntity
  8
LAYER_1
 62
     7
100
AcDbSpline
210
0.0
220
0.0
230
1.0
 70
     8
 71
     3
 72
     8
 73
     4
 74
     0
 42
0.0000000001
 43
0.0000000001
 40
0.0
 40
0.0
 40
0.0
 40
0.0
 40
1.0
 40
1.0
 40
1.0
 40
1.0
 10
46.90157301161024
 20
-2.614655219184027
 30
0.0
 10
46.68573777940538
 20
-2.3285400390625
 30
0.0
 10
46.46163431803385
 20
-1.865174696180555
 30
0.0
 10
46.23890889485676
 20
-1.363396538628472
 30
0.0
  0
SPLINE
  5
63
330
2D
100
AcDbEntity
  8
LAYER_1
 62
     7
100
AcDbSpline
210
0.0
220
0.0
230
1.0
 70
     8
 71
     3
 72
     8
 73
     4
 74
     0
 42
0.0000000001
 43
0.0000000001
 40
0.0
 40
0.0
 40
0.0
 40
0.0
 40
1.0
 40
1.0
 40
1.0
 40
1.0
 10
45.8895762125651
 20
-0.5465643988715278
 30
0.0
 10
45.55953606499566
 20
0.2234144422743055
 30
0.0
 10
45.09754876030816
 20
1.521354166666667
 30
0.0
 10
44.7235836452908
 20
2.027438693576389
 30
0.0
  0
SPLINE
  5
62
330
2D
100
AcDbEntity
  8
LAYER_1
 62
     7
100
AcDbSpline
210
0.0
220
0.0
230
1.0
 70
     8
 71
     3
 72
     8
 73
     4
 74
     0
 42
0.0000000001
 43
0.0000000001
 40
0.0
 40
0.0
 40
0.0
 40
0.0
 40
1.0
 40
1.0
 40
1.0
 40
1.0
 10
48.46357930501301
 20
-2.702677408854167
 30
0.0
 10
48.28891296386718
 20
-2.478401692708333
 30
0.0
 10
48.0785898844401
 20
-2.016414388020833
 30
0.0
 10
47.88463100857204
 20
-1.540646701388889
 30
0.0
  0
SPLINE
  5
61
330
2D
100
AcDbEntity
  8
LAYER_1
 62
     7
100
AcDbSpline
210
0.0
220
0.0
230
1.0
 70
     8
 71
     3
 72
     8
 73
     4
 74
     0
 42
0.0000000001
 43
0.0000000001
 40
0.0
 40
0.0
 40
0.0
 40
0.0
 40
1.0
 40
1.0
 40
1.0
 40
1.0
 10
47.49550747341579
 20
-0.5246880425347221
 30
0.0
 10
47.25348951551649
 20
0.1133436414930556
 30
0.0
 10
46.70365227593316
 20
1.829345703125
 30
0.0
 10
45.99964701334635
 20
2.0494873046875
 30
0.0
  0
SPLINE
  5
60
330
2D
100
AcDbEntity
  8
LAYER_1
 62
     7
100
AcDbSpline
210
0.0
220
0.0
230
1.0
 70
     8
 71
     3
 72
    11
 73
     7
 74
     0
 42
0.0000000001
 43
0.0000000001
 40
0.0
 40
0.0
 40
0.0
 40
0.0
 40
1.0
 40
1.0
 40
1.0
 40
2.0
 40
2.0
 40
2.0
 40
2.0
 10
49.5635982937283
 20
-3.670576985677083
 30
0.0
 10
49.18963317871094
 20
-3.186541069878472
 30
0.0
 10
48.70559726291232
 20
-1.822627766927083
 30
0.0
 10
48.52955288357205
 20
-0.8986531575520833
 30
0.0
 10
48.35350850423177
 20
0.0254937065972222
 30
0.0
 10
47.75957404242621
 20
2.445501030815972
 30
0.0
 10
47.23161315917968
 20
2.929364691840278
 30
0.0
  0
SPLINE
  5
5F
330
2D
100
AcDbEntity
  8
LAYER_1
 62
     7
100
AcDbSpline
210
0.0
220
0.0
230
1.0
 70
     8
 71
     3
 72
     8
 73
     4
 74
     0
 42
0.0000000001
 43
0.0000000001
 40
0.0
 40
0.0
 40
0.0
 40
0.0
 40
1.0
 40
1.0
 40
1.0
 40
1.0
 10
50.31152852376302
 20
-2.680628797743055
 30
0.0
 10
50.03523186577691
 20
-2.217263454861111
 30
0.0
 10
49.79734802246093
 20
-1.753898111979167
 30
0.0
 10
49.56635437011718
 20
-1.283642578125
 30
0.0
  0
SPLINE
  5
5E
330
2D
100
AcDbEntity
  8
LAYER_1
 62
     7
100
AcDbSpline
210
0.0
220
0.0
230
1.0
 70
     8
 71
     3
 72
     8
 73
     4
 74
     0
 42
0.0000000001
 43
0.0000000001
 40
0.0
 40
0.0
 40
0.0
 40
0.0
 40
1.0
 40
1.0
 40
1.0
 40
1.0
 10
49.21150953504774
 20
-0.5465643988715278
 30
0.0
 10
48.85959303114149
 20
0.1794894748263889
 30
0.0
 10
48.24360995822482
 20
1.565451388888889
 30
0.0
 10
48.22156134711371
 20
2.027438693576389
 30
0.0
  0
SPLINE
  5
5D
330
2D
100
AcDbEntity
  8
LAYER_1
 62
     7
100
AcDbSpline
210
0.0
220
0.0
230
1.0
 70
     8
 71
     3
 72
     8
 73
     4
 74
     0
 42
0.0000000001
 43
0.0000000001
 40
0.0
 40
0.0
 40
0.0
 40
0.0
 40
1.0
 40
1.0
 40
1.0
 40
1.0
 10
51.60946824815538
 20
-2.79052734375
 30
0.0
 10
51.28924662272135
 20
-2.481157769097222
 30
0.0
 10
51.0925316704644
 20
-1.938038465711805
 30
0.0
 10
50.9838389078776
 20
-1.410077582465278
 30
0.0
  0
SPLINE
  5
5C
330
2D
100
AcDbEntity
  8
LAYER_1
 62
     7
100
AcDbSpline
210
0.0
220
0.0
230
1.0
 70
     8
 71
     3
 72
     8
 73
     4
 74
     0
 42
0.0000000001
 43
0.0000000001
 40
0.0
 40
0.0
 40
0.0
 40
0.0
 40
1.0
 40
1.0
 40
1.0
 40
1.0
 10
50.55354648166232
 20
-0.3925686306423611
 30
0.0
 10
50.39955071343316
 20
0.1353922526041667
 30
0.0
 10
49.98166063096788
 20
1.829345703125
 30
0.0
 10
49.05751376681857
 20
2.0494873046875
 30
0.0
  0
SPLINE
  5
5B
330
2D
100
AcDbEntity
  8
LAYER_1
 62
     7
100
AcDbSpline
210
0.0
220
0.0
230
1.0
 70
     8
 71
     3
 72
    11
 73
     7
 74
     0
 42
0.0000000001
 43
0.0000000001
 40
0.0
 40
0.0
 40
0.0
 40
0.0
 40
1.0
 40
1.0
 40
1.0
 40
2.0
 40
2.0
 40
2.0
 40
2.0
 10
52.59958869086371
 20
-3.802524142795138
 30
0.0
 10
52.20357496473524
 20
-3.186541069878472
 30
0.0
 10
51.69749043782552
 20
-1.822627766927083
 30
0.0
 10
51.56554328070746
 20
-0.9865030924479166
 30
0.0
 10
51.4335961235894
 20
-0.1505506727430555
 30
0.0
 10
50.68549363878038
 20
2.511474609375
 30
0.0
 10
50.0474619547526
 20
3.039435492621528
 30
0.0
  0
SPLINE
  5
5A
330
2D
100
AcDbEntity
  8
LAYER_1
 62
     7
100
AcDbSpline
210
0.0
220
0.0
230
1.0
 70
     8
 71
     3
 72
     8
 73
     4
 74
     0
 42
0.0000000001
 43
0.0000000001
 40
0.0
 40
0.0
 40
0.0
 40
0.0
 40
1.0
 40
1.0
 40
1.0
 40
1.0
 10
53.41349249945746
 20
-2.680628797743055
 30
0.0
 10
53.32547030978732
 20
-2.446879069010417
 30
0.0
 10
52.98182203504774
 20
-1.901003689236111
 30
0.0
 10
52.65867207845052
 20
-1.322055392795139
 30
0.0
  0
SPLINE
  5
59
330
2D
100
AcDbEntity
  8
LAYER_1
 62
     7
100
AcDbSpline
210
0.0
220
0.0
230
1.0
 70
     8
 71
     3
 72
     8
 73
     4
 74
     0
 42
0.0000000001
 43
0.0000000001
 40
0.0
 40
0.0
 40
0.0
 40
0.0
 40
1.0
 40
1.0
 40
1.0
 40
1.0
 10
52.22562357584635
 20
-0.4585422092013888
 30
0.0
 10
51.87353481716579
 20
0.3553615993923611
 30
0.0
 10
51.63151685926649
 20
1.521354166666667
 30
0.0
 10
51.23550313313802
 20
2.027438693576389
 30
0.0
  0
SPLINE
  5
58
330
2D
100
AcDbEntity
  8
LAYER_1
 62
     7
100
AcDbSpline
210
0.0
220
0.0
230
1.0
 70
     8
 71
     3
 72
     8
 73
     4
 74
     0
 42
0.0000000001
 43
0.0000000001
 40
0.0
 40
0.0
 40
0.0
 40
0.0
 40
1.0
 40
1.0
 40
1.0
 40
1.0
 10
54.93157382541232
 20
-2.878549533420139
 30
0.0
 10
54.71987270779079
 20
-2.598118760850694
 30
0.0
 10
54.42686733669704
 20
-1.96422119140625
 30
0.0
 10
54.19173956976996
 20
-1.389407009548611
 30
0.0
  0
SPLINE
  5
57
330
2D
100
AcDbEntity
  8
LAYER_1
 62
     7
100
AcDbSpline
210
0.0
220
0.0
230
1.0
 70
     8
 71
     3
 72
     8
 73
     4
 74
     0
 42
0.0000000001
 43
0.0000000001
 40
0.0
 40
0.0
 40
0.0
 40
0.0
 40
1.0
 40
1.0
 40
1.0
 40
1.0
 10
53.87547980414496
 20
-0.5465643988715278
 30
0.0
 10
53.67755906846788
 20
0.0473700629340278
 30
0.0
 10
52.97355380588108
 20
1.983341471354166
 30
0.0
 10
52.26954854329426
 20
2.027438693576389
 30
0.0
  0
SPLINE
  5
56
330
2D
100
AcDbEntity
  8
LAYER_1
 62
     7
100
AcDbSpline
210
0.0
220
0.0
230
1.0
 70
     8
 71
     3
 72
    11
 73
     7
 74
     0
 42
0.0000000001
 43
0.0000000001
 40
0.0
 40
0.0
 40
0.0
 40
0.0
 40
1.0
 40
1.0
 40
1.0
 40
2.0
 40
2.0
 40
2.0
 40
2.0
 10
55.94357062445746
 20
-3.82457275390625
 30
0.0
 10
55.63557908799913
 20
-3.516581217447917
 30
0.0
 10
54.99754740397135
 20
-1.866552734375
 30
0.0
 10
54.75552944607205
 20
-0.9865030924479166
 30
0.0
 10
54.51351148817274
 20
-0.1066257052951389
 30
0.0
 10
54.05152418348524
 20
2.335430230034722
 30
0.0
 10
53.39161614312066
 20
2.995510525173611
 30
0.0
  0
SPLINE
  5
55
330
2D
100
AcDbEntity
  8
LAYER_1
 62
     7
100
AcDbSpline
210
0.0
220
0.0
230
1.0
 70
     8
 71
     3
 72
     8
 73
     4
 74
     0
 42
0.0000000001
 43
0.0000000001
 40
0.0
 40
0.0
 40
0.0
 40
0.0
 40
1.0
 40
1.0
 40
1.0
 40
1.0
 10
56.55955369737413
 20
-2.658580186631944
 30
0.0
 10
56.31753573947482
 20
-2.298395453559027
 30
0.0
 10
56.01505635579427
 20
-1.79368896484375
 30
0.0
 10
55.76201409233941
 20
-1.265728081597222
 30
0.0
  0
SPLINE
  5
54
330
2D
100
AcDbEntity
  8
LAYER_1
 62
     7
100
AcDbSpline
210
0.0
220
0.0
230
1.0
 70
     8
 71
     3
 72
     8
 73
     4
 74
     0
 42
0.0000000001
 43
0.0000000001
 40
0.0
 40
0.0
 40
0.0
 40
0.0
 40
1.0
 40
1.0
 40
1.0
 40
1.0
 10
55.45953470865885
 20
-0.5246880425347221
 30
0.0
 10
55.19564039442274
 20
0.2454630533854167
 30
0.0
 10
54.79962666829427
 20
1.543402777777778
 30
0.0
 10
54.44753790961371
 20
1.983341471354166
 30
0.0
  0
SPLINE
  5
53
330
2D
100
AcDbEntity
  8
LAYER_1
 62
     7
100
AcDbSpline
210
0.0
220
0.0
230
1.0
 70
     8
 71
     3
 72
     8
 73
     4
 74
     0
 42
0.0000000001
 43
0.0000000001
 40
0.0
 40
0.0
 40
0.0
 40
0.0
 40
1.0
 40
1.0
 40
1.0
 40
1.0
 10
58.07763502332899
 20
-2.812575954861111
 30
0.0
 10
57.90710279676649
 20
-2.591228569878472
 30
0.0
 10
57.65957268608941
 20
-1.929770236545139
 30
0.0
 10
57.44907735188802
 20
-1.350994194878472
 30
0.0
  0
SPLINE
  5
52
330
2D
100
AcDbEntity
  8
LAYER_1
 62
     7
100
AcDbSpline
210
0.0
220
0.0
230
1.0
 70
     8
 71
     3
 72
     8
 73
     4
 74
     0
 42
0.0000000001
 43
0.0000000001
 40
0.0
 40
0.0
 40
0.0
 40
0.0
 40
1.0
 40
1.0
 40
1.0
 40
1.0
 10
57.10956319173177
 20
-0.4366658528645833
 30
0.0
 10
56.93351881239149
 20
-0.0625284830729167
 30
0.0
 10
56.33958435058593
 20
1.983341471354166
 30
0.0
 10
55.54755689832899
 20
2.027438693576389
 30
0.0
  0
SPLINE
  5
51
330
2D
100
AcDbEntity
  8
LAYER_1
 62
     7
100
AcDbSpline
210
0.0
220
0.0
230
1.0
 70
     8
 71
     3
 72
    11
 73
     7
 74
     0
 42
0.0000000001
 43
0.0000000001
 40
0.0
 40
0.0
 40
0.0
 40
0.0
 40
1.0
 40
1.0
 40
1.0
 40
2.0
 40
2.0
 40
2.0
 40
2.0
 10
58.91358744303385
 20
-3.516581217447917
 30
0.0
 10
58.5614986843533
 20
-2.878549533420139
 30
0.0
 10
57.96756422254774
 20
-1.448662651909722
 30
0.0
 10
57.79151984320746
 20
-0.4805908203124999
 30
0.0
 10
57.61547546386719
 20
0.4874810112847222
 30
0.0
 10
57.02154100206163
 20
2.599324544270833
 30
0.0
 10
56.58160230848524
 20
2.929364691840278
 30
0.0
  0
SPLINE
  5
50
330
2D
100
AcDbEntity
  8
LAYER_1
 62
     7
100
AcDbSpline
210
0.0
220
0.0
230
1.0
 70
     8
 71
     3
 72
     8
 73
     4
 74
     0
 42
0.0000000001
 43
0.0000000001
 40
0.0
 40
0.0
 40
0.0
 40
0.0
 40
1.0
 40
1.0
 40
1.0
 40
1.0
 10
59.88148701985676
 20
-2.636531575520833
 30
0.0
 10
59.52543640136718
 20
-2.163519965277778
 30
0.0
 10
59.25999179416232
 20
-1.701532660590278
 30
0.0
 10
59.01659579806857
 20
-1.22318115234375
 30
0.0
  0
SPLINE
  5
4F
330
2D
100
AcDbEntity
  8
LAYER_1
 62
     7
100
AcDbSpline
210
0.0
220
0.0
230
1.0
 70
     8
 71
     3
 72
     8
 73
     4
 74
     0
 42
0.0000000001
 43
0.0000000001
 40
0.0
 40
0.0
 40
0.0
 40
0.0
 40
1.0
 40
1.0
 40
1.0
 40
1.0
 10
58.67156948513454
 20
-0.5026394314236111
 30
0.0
 10
58.31948072645399
 20
0.2454630533854167
 30
0.0
 10
58.09951137966579
 20
1.587327745225694
 30
0.0
 10
57.68144904242621
 20
2.005390082465278
 30
0.0
  0
SPLINE
  5
4E
330
2D
100
AcDbEntity
  8
LAYER_1
 62
     7
100
AcDbSpline
210
0.0
220
0.0
230
1.0
 70
     8
 71
     3
 72
     8
 73
     4
 74
     0
 42
0.0000000001
 43
0.0000000001
 40
0.0
 40
0.0
 40
0.0
 40
0.0
 40
1.0
 40
1.0
 40
1.0
 40
1.0
 10
61.39956834581162
 20
-2.944523111979167
 30
0.0
 10
61.21525573730468
 20
-2.691653103298611
 30
0.0
 10
60.91415439181857
 20
-2.005390082465278
 30
0.0
 10
60.64044155544704
 20
-1.335835774739583
 30
0.0
  0
SPLINE
  5
4D
330
2D
100
AcDbEntity
  8
LAYER_1
 62
     7
100
AcDbSpline
210
0.0
220
0.0
230
1.0
 70
     8
 71
     3
 72
     8
 73
     4
 74
     0
 42
0.0000000001
 43
0.0000000001
 40
0.0
 40
0.0
 40
0.0
 40
0.0
 40
1.0
 40
1.0
 40
1.0
 40
1.0
 10
60.23357577853732
 20
-0.3045464409722222
 30
0.0
 10
59.92558424207899
 20
0.4874810112847222
 30
0.0
 10
59.57349548339843
 20
2.071363661024305
 30
0.0
 10
58.78146803114149
 20
2.0494873046875
 30
0.0
  0
SPLINE
  5
4C
330
2D
100
AcDbEntity
  8
LAYER_1
 62
     7
100
AcDbSpline
210
0.0
220
0.0
230
1.0
 70
     8
 71
     3
 72
    11
 73
     7
 74
     0
 42
0.0000000001
 43
0.0000000001
 40
0.0
 40
0.0
 40
0.0
 40
0.0
 40
1.0
 40
1.0
 40
1.0
 40
2.0
 40
2.0
 40
2.0
 40
2.0
 10
62.21347215440537
 20
-3.670576985677083
 30
0.0
 10
61.81745842827691
 20
-3.054593912760416
 30
0.0
 10
61.42144470214844
 20
-1.734605577256944
 30
0.0
 10
61.22352396647135
 20
-0.7226087782118055
 30
0.0
 10
61.02543097601996
 20
0.2893880208333333
 30
0.0
 10
60.07958001030816
 20
3.105409071180555
 30
0.0
 10
59.48547329372829
 20
3.237356228298611
 30
0.0
  0
SPLINE
  5
4B
330
2D
100
AcDbEntity
  8
LAYER_1
 62
     7
100
AcDbSpline
210
0.0
220
0.0
230
1.0
 70
     8
 71
     3
 72
     8
 73
     4
 74
     0
 42
0.0000000001
 43
0.0000000001
 40
0.0
 40
0.0
 40
0.0
 40
0.0
 40
1.0
 40
1.0
 40
1.0
 40
1.0
 10
63.09352179633246
 20
-2.702677408854167
 30
0.0
 10
62.78966437445746
 20
-2.232421875
 30
0.0
 10
62.48580695258246
 20
-1.752520073784722
 30
0.0
 10
62.24654507107204
 20
-1.268484157986111
 30
0.0
  0
SPLINE
  5
4A
330
2D
100
AcDbEntity
  8
LAYER_1
 62
     7
100
AcDbSpline
210
0.0
220
0.0
230
1.0
 70
     8
 71
     3
 72
     8
 73
     4
 74
     0
 42
0.0000000001
 43
0.0000000001
 40
0.0
 40
0.0
 40
0.0
 40
0.0
 40
1.0
 40
1.0
 40
1.0
 40
1.0
 10
61.97145419650607
 20
-0.6125379774305555
 30
0.0
 10
61.72943623860677
 20
0.09146728515625
 30
0.0
 10
61.26744893391926
 20
1.543402777777778
 30
0.0
 10
61.00355461968316
 20
1.961465115017361
 30
0.0
  0
SPLINE
  5
49
330
2D
100
AcDbEntity
  8
LAYER_1
 62
     7
100
AcDbSpline
210
0.0
220
0.0
230
1.0
 70
     8
 71
     3
 72
     8
 73
     4
 74
     0
 42
0.0000000001
 43
0.0000000001
 40
0.0
 40
0.0
 40
0.0
 40
0.0
 40
1.0
 40
1.0
 40
1.0
 40
1.0
 10
65.16144036187066
 20
-3.406682671440972
 30
0.0
 10
64.86309509277344
 20
-3.170176866319444
 30
0.0
 10
64.37492506239148
 20
-2.261188422309028
 30
0.0
 10
64.00785013834634
 20
-1.444528537326389
 30
0.0
  0
SPLINE
  5
48
330
2D
100
AcDbEntity
  8
LAYER_1
 62
     7
100
AcDbSpline
210
0.0
220
0.0
230
1.0
 70
     8
 71
     3
 72
     8
 73
     4
 74
     0
 42
0.0000000001
 43
0.0000000001
 40
0.0
 40
0.0
 40
0.0
 40
0.0
 40
1.0
 40
1.0
 40
1.0
 40
1.0
 10
63.59943406846788
 20
-0.4146172417534722
 30
0.0
 10
63.33553975423177
 20
0.3994588216145833
 30
0.0
 10
62.89542880588107
 20
2.005390082465278
 30
0.0
 10
62.05947638617621
 20
2.027438693576389
 30
0.0
  0
SPLINE
  5
47
330
2D
100
AcDbEntity
  8
LAYER_1
 62
     7
100
AcDbSpline
210
0.0
220
0.0
230
1.0
 70
     8
 71
     3
 72
    11
 73
     7
 74
     0
 42
0.0000000001
 43
0.0000000001
 40
0.0
 40
0.0
 40
0.0
 40
0.0
 40
1.0
 40
1.0
 40
1.0
 40
2.0
 40
2.0
 40
2.0
 40
2.0
 10
65.62342766655816
 20
-3.846621365017361
 30
0.0
 10
64.94147101508246
 20
-3.076642523871528
 30
0.0
 10
64.45743509928384
 20
-0.7226087782118055
 30
0.0
 10
64.30343933105468
 20
0.1794894748263889
 30
0.0
 10
64.14944356282551
 20
1.081415473090278
 30
0.0
 10
63.24751756456163
 20
3.061484103732639
 30
0.0
 10
62.78553025987413
 20
3.127457682291666
 30
0.0
  0
SPLINE
  5
46
330
2D
100
AcDbEntity
  8
LAYER_1
 62
     7
100
AcDbSpline
210
0.0
220
0.0
230
1.0
 70
     8
 71
     3
 72
     8
 73
     4
 74
     0
 42
0.0000000001
 43
0.0000000001
 40
0.0
 40
0.0
 40
0.0
 40
0.0
 40
1.0
 40
1.0
 40
1.0
 40
1.0
 10
66.37153015136718
 20
-2.702677408854167
 30
0.0
 10
66.37842034233941
 20
-2.420696343315972
 30
0.0
 10
65.93141920301649
 20
-1.846054416232639
 30
0.0
 10
65.6592566596137
 20
-1.234033203125
 30
0.0
  0
SPLINE
  5
45
330
2D
100
AcDbEntity
  8
LAYER_1
 62
     7
100
AcDbSpline
210
0.0
220
0.0
230
1.0
 70
     8
 71
     3
 72
     8
 73
     4
 74
     0
 42
0.0000000001
 43
0.0000000001
 40
0.0
 40
0.0
 40
0.0
 40
0.0
 40
1.0
 40
1.0
 40
1.0
 40
1.0
 10
65.42550693088107
 20
-0.6566351996527777
 30
0.0
 10
65.13956400553384
 20
0.09146728515625
 30
0.0
 10
64.36958516438801
 20
1.763372124565972
 30
0.0
 10
64.21541714138455
 20
2.005390082465278
 30
0.0
  0
SPLINE
  5
44
330
2D
100
AcDbEntity
  8
LAYER_1
 62
     7
100
AcDbSpline
210
0.0
220
0.0
230
1.0
 70
     8
 71
     3
 72
     8
 73
     4
 74
     0
 42
0.0000000001
 43
0.0000000001
 40
0.0
 40
0.0
 40
0.0
 40
0.0
 40
1.0
 40
1.0
 40
1.0
 40
1.0
 10
67.91148783365885
 20
-2.944523111979167
 30
0.0
 10
67.58833787706162
 20
-2.569179958767361
 30
0.0
 10
67.40557556152344
 20
-1.909271918402778
 30
0.0
 10
67.20059238009982
 20
-1.334457736545139
 30
0.0
  0
SPLINE
  5
43
330
2D
100
AcDbEntity
  8
LAYER_1
 62
     7
100
AcDbSpline
210
0.0
220
0.0
230
1.0
 70
     8
 71
     3
 72
     8
 73
     4
 74
     0
 42
0.0000000001
 43
0.0000000001
 40
0.0
 40
0.0
 40
0.0
 40
0.0
 40
1.0
 40
1.0
 40
1.0
 40
1.0
 10
66.92153964572482
 20
-0.5465643988715278
 30
0.0
 10
66.72344665527344
 20
-0.0406521267361111
 30
0.0
 10
66.04149000379773
 20
2.093412272135417
 30
0.0
 10
65.07341817220052
 20
2.027438693576389
 30
0.0
  0
SPLINE
  5
42
330
2D
100
AcDbEntity
  8
LAYER_1
 62
     7
100
AcDbSpline
210
0.0
220
0.0
230
1.0
 70
     8
 71
     3
 72
    11
 73
     7
 74
     0
 42
0.0000000001
 43
0.0000000001
 40
0.0
 40
0.0
 40
0.0
 40
0.0
 40
1.0
 40
1.0
 40
1.0
 40
2.0
 40
2.0
 40
2.0
 40
2.0
 10
68.94553324381509
 20
-3.9346435546875
 30
0.0
 10
68.61549309624566
 20
-3.538629828559027
 30
0.0
 10
68.06548360188802
 20
-2.240517849392361
 30
0.0
 10
67.95541280110676
 20
-1.558561197916667
 30
0.0
 10
67.84551425509982
 20
-0.8766045464409722
 30
0.0
 10
66.85539381239148
 20
2.643421766493055
 30
0.0
 10
66.32743292914496
 20
2.907488335503472
 30
0.0
  0
SPLINE
  5
41
330
2D
100
AcDbEntity
  8
LAYER_1
 62
     7
100
AcDbSpline
210
0.0
220
0.0
230
1.0
 70
     8
 71
     3
 72
     8
 73
     4
 74
     0
 42
0.0000000001
 43
0.0000000001
 40
0.0
 40
0.0
 40
0.0
 40
0.0
 40
1.0
 40
1.0
 40
1.0
 40
1.0
 10
69.64953850640191
 20
-2.614655219184027
 30
0.0
 10
69.54635789659288
 20
-2.357478841145833
 30
0.0
 10
69.15585632324218
 20
-1.851394314236111
 30
0.0
 10
68.84097459581163
 20
-1.271240234375
 30
0.0
  0
SPLINE
  5
40
330
2D
100
AcDbEntity
  8
LAYER_1
 62
     7
100
AcDbSpline
210
0.0
220
0.0
230
1.0
 70
     8
 71
     3
 72
     8
 73
     4
 74
     0
 42
0.0000000001
 43
0.0000000001
 40
0.0
 40
0.0
 40
0.0
 40
0.0
 40
1.0
 40
1.0
 40
1.0
 40
1.0
 10
68.54951951768662
 20
-0.6125379774305555
 30
0.0
 10
68.26340433756509
 20
0.2234144422743055
 30
0.0
 10
67.66946987575955
 20
1.807469346788194
 30
0.0
 10
67.36147833930122
 20
2.159385850694444
 30
0.0
  0
SPLINE
  5
3F
330
2D
100
AcDbEntity
  8
LAYER_1
 62
     7
100
AcDbSpline
210
0.0
220
0.0
230
1.0
 70
     8
 71
     3
 72
     8
 73
     4
 74
     0
 42
0.0000000001
 43
0.0000000001
 40
0.0
 40
0.0
 40
0.0
 40
0.0
 40
1.0
 40
1.0
 40
1.0
 40
1.0
 10
71.0134518093533
 20
-2.680628797743055
 30
0.0
 10
70.7934824625651
 20
-2.412428114149305
 30
0.0
 10
70.64224277072482
 20
-1.944928656684028
 30
0.0
 10
70.43880988226997
 20
-1.463821072048611
 30
0.0
  0
SPLINE
  5
3E
330
2D
100
AcDbEntity
  8
LAYER_1
 62
     7
100
AcDbSpline
210
0.0
220
0.0
230
1.0
 70
     8
 71
     3
 72
     8
 73
     4
 74
     0
 42
0.0000000001
 43
0.0000000001
 40
0.0
 40
0.0
 40
0.0
 40
0.0
 40
1.0
 40
1.0
 40
1.0
 40
1.0
 10
70.11152581108941
 20
-0.6800618489583333
 30
0.0
 10
69.78699781629774
 20
0.1160997178819444
 30
0.0
 10
69.48314039442273
 20
0.9026150173611111
 30
0.0
 10
69.47349412706163
 20
1.103464084201389
 30
0.0
  0
SPLINE
  5
3D
330
2D
100
AcDbEntity
  8
LAYER_1
 62
     7
100
AcDbSpline
210
0.0
220
0.0
230
1.0
 70
     8
 71
     3
 72
    11
 73
     7
 74
     0
 42
0.0000000001
 43
0.0000000001
 40
0.0
 40
0.0
 40
0.0
 40
0.0
 40
1.0
 40
1.0
 40
1.0
 40
2.0
 40
2.0
 40
2.0
 40
2.0
 10
72.02544860839844
 20
-3.428559027777777
 30
0.0
 10
71.67353210449218
 20
-2.878549533420139
 30
0.0
 10
71.23342115614149
 20
-1.888601345486111
 30
0.0
 10
71.10147399902343
 20
-1.140671115451389
 30
0.0
 10
70.96952684190538
 20
-0.3925686306423611
 30
0.0
 10
70.83740743001302
 20
0.6414767795138888
 30
0.0
 10
70.57351311577691
 20
0.8393975151909722
 30
0.0
  0
SPLINE
  5
3C
330
2D
100
AcDbEntity
  8
LAYER_1
 62
     7
100
AcDbSpline
210
0.0
220
0.0
230
1.0
 70
     8
 71
     3
 72
     8
 73
     4
 74
     0
 42
0.0000000001
 43
0.0000000001
 40
0.0
 40
0.0
 40
0.0
 40
0.0
 40
1.0
 40
1.0
 40
1.0
 40
1.0
 10
72.61938307020398
 20
-2.3285400390625
 30
0.0
 10
72.56305575900608
 20
-2.189702690972222
 30
0.0
 10
72.30174526638454
 20
-1.724959309895833
 30
0.0
 10
72.06403367784287
 20
-1.308275010850694
 30
0.0
  0
SPLINE
  5
3B
330
2D
100
AcDbEntity
  8
LAYER_1
 62
     7
100
AcDbSpline
210
0.0
220
0.0
230
1.0
 70
     8
 71
     3
 72
     8
 73
     4
 74
     0
 42
0.0000000001
 43
0.0000000001
 40
0.0
 40
0.0
 40
0.0
 40
0.0
 40
1.0
 40
1.0
 40
1.0
 40
1.0
 10
71.65837368435329
 20
-0.587905544704861
 30
0.0
 10
71.37243075900607
 20
-0.0571885850694444
 30
0.0
 10
71.25133565266927
 20
0.4502739800347222
 30
0.0
 10
71.23342115614149
 20
0.6414767795138888
 30
0.0
  0
SPLINE
  5
3A
330
2D
100
AcDbEntity
  8
LAYER_1
 62
     7
100
AcDbSpline
210
0.0
220
0.0
230
1.0
 70
     8
 71
     3
 72
     8
 73
     4
 74
     0
 42
0.0000000001
 43
0.0000000001
 40
0.0
 40
0.0
 40
0.0
 40
0.0
 40
1.0
 40
1.0
 40
1.0
 40
1.0
 10
74.07149081759982
 20
-2.064645724826389
 30
0.0
 10
73.92851935492621
 20
-1.851394314236111
 30
0.0
 10
73.7853756374783
 20
-1.540646701388889
 30
0.0
 10
73.6492943657769
 20
-1.232655164930556
 30
0.0
  0
SPLINE
  5
39
330
2D
100
AcDbEntity
  8
LAYER_1
 62
     7
100
AcDbSpline
210
0.0
220
0.0
230
1.0
 70
     8
 71
     3
 72
     8
 73
     4
 74
     0
 42
0.0000000001
 43
0.0000000001
 40
0.0
 40
0.0
 40
0.0
 40
0.0
 40
1.0
 40
1.0
 40
1.0
 40
1.0
 10
73.3235605875651
 20
-0.5026394314236111
 30
0.0
 10
73.1034189860026
 20
-0.0625284830729167
 30
0.0
 10
73.1034189860026
 20
0.2673394097222222
 30
0.0
 10
73.05949401855469
 20
0.3774102105034722
 30
0.0
  0
SPLINE
  5
38
330
2D
100
AcDbEntity
  8
LAYER_1
 62
     7
100
AcDbSpline
210
0.0
220
0.0
230
1.0
 70
     8
 71
     3
 72
     8
 73
     4
 74
     0
 42
0.0000000001
 43
0.0000000001
 40
0.0
 40
0.0
 40
0.0
 40
0.0
 40
1.0
 40
1.0
 40
1.0
 40
1.0
 10
74.77549608018663
 20
-2.658580186631944
 30
0.0
 10
74.57740308973524
 20
-2.152667914496528
 30
0.0
 10
74.11541578504773
 20
-0.4366658528645833
 30
0.0
 10
74.20343797471787
 20
0.2013658311631944
 30
0.0
  0
SPLINE
  5
37
330
2D
100
AcDbEntity
  8
LAYER_1
 62
     7
100
AcDbSpline
210
0.0
220
0.0
230
1.0
 70
     8
 71
     3
 72
    14
 73
    10
 74
     0
 42
0.0000000001
 43
0.0000000001
 40
0.0
 40
0.0
 40
0.0
 40
0.0
 40
1.0
 40
1.0
 40
1.0
 40
2.0
 40
2.0
 40
2.0
 40
3.0
 40
3.0
 40
3.0
 40
3.0
 10
75.6553734673394
 20
-1.866552734375
 30
0.0
 10
75.55787726508245
 20
-1.752520073784722
 30
0.0
 10
75.36805250379774
 20
-1.473295084635417
 30
0.0
 10
75.18529018825954
 20
-1.154279242621528
 30
0.0
 10
75.12879062228733
 20
-1.056783040364583
 30
0.0
 10
76.75539245605468
 20
-1.05264892578125
 30
0.0
 10
76.75539245605468
 20
-1.05264892578125
 30
0.0
 10
76.75539245605468
 20
-1.05264892578125
 30
0.0
 10
77.10748121473523
 20
-1.580609809027778
 30
0.0
 10
77.10748121473523
 20
-1.580609809027778
 30
0.0
  0
SPLINE
  5
36
330
2D
100
AcDbEntity
  8
LAYER_1
 62
     7
100
AcDbSpline
210
0.0
220
0.0
230
1.0
 70
     8
 71
     3
 72
     8
 73
     4
 74
     0
 42
0.0000000001
 43
0.0000000001
 40
0.0
 40
0.0
 40
0.0
 40
0.0
 40
1.0
 40
1.0
 40
1.0
 40
1.0
 10
74.87988247341579
 20
-0.5410522460937499
 30
0.0
 10
74.76309373643663
 20
-0.26199951171875
 30
0.0
 10
74.69298604329427
 20
-0.0103352864583333
 30
0.0
 10
74.73157111273871
 20
0.1353922526041667
 30
0.0
  0
SPLINE
  5
35
330
2D
100
AcDbEntity
  8
LAYER_1
 62
     7
100
AcDbSpline
210
0.0
220
0.0
230
1.0
 70
     8
 71
     3
 72
     8
 73
     4
 74
     0
 42
0.0000000001
 43
0.0000000001
 40
0.0
 40
0.0
 40
0.0
 40
0.0
 40
1.0
 40
1.0
 40
1.0
 40
1.0
 10
77.52554355197482
 20
-1.800579155815972
 30
0.0
 10
77.23942837185329
 20
-1.272618272569444
 30
0.0
 10
77.21737976074218
 20
-0.37052001953125
 30
0.0
 10
77.23942837185329
 20
-0.1505506727430555
 30
0.0
  0
LWPOLYLINE
  5
30
330
2D
100
AcDbEntity
  8
LAYER_1
 62
     7
100
AcDbPolyline
 90
        3
 70
     0
 43
0.0
 10
78.33944736056857
 20
-1.382516818576389
 10
78.29535013834635
 20
-0.8766045464409722
 10
78.91150546603733
 20
-0.7885823567708332
  0
ENDBLK
  5
13F
330
2D
100
AcDbEntity
  8
LAYER_1
100
AcDbBlockEnd
  0
BLOCK
  5
142
330
140
100
AcDbEntity
  8
LAYER_1
 62
     7
100
AcDbBlockBegin
  2
AI9-BLK2
 70
     0
 10
0.0
 20
0.0
 30
0.0
  3
AI9-BLK2
  1

  4

  0
SPLINE
  5
251
330
140
100
AcDbEntity
  8
LAYER_1
 62
     7
100
AcDbSpline
210
0.0
220
0.0
230
1.0
 70
     8
 71
     3
 72
   371
 73
   367
 74
     0
 42
0.0000000001
 43
0.0000000001
 40
0.0
 40
0.0
 40
0.0
 40
0.0
 40
1.0
 40
1.0
 40
1.0
 40
2.0
 40
2.0
 40
2.0
 40
3.0
 40
3.0
 40
3.0
 40
4.0
 40
4.0
 40
4.0
 40
5.0
 40
5.0
 40
5.0
 40
6.0
 40
6.0
 40
6.0
 40
7.0
 40
7.0
 40
7.0
 40
8.0
 40
8.0
 40
8.0
 40
9.0
 40
9.0
 40
9.0
 40
10.0
 40
10.0
 40
10.0
 40
11.0
 40
11.0
 40
11.0
 40
12.0
 40
12.0
 40
12.0
 40
13.0
 40
13.0
 40
13.0
 40
14.0
 40
14.0
 40
14.0
 40
15.0
 40
15.0
 40
15.0
 40
16.0
 40
16.0
 40
16.0
 40
17.0
 40
17.0
 40
17.0
 40
18.0
 40
18.0
 40
18.0
 40
19.0
 40
19.0
 40
19.0
 40
20.0
 40
20.0
 40
20.0
 40
21.0
 40
21.0
 40
21.0
 40
22.0
 40
22.0
 40
22.0
 40
23.0
 40
23.0
 40
23.0
 40
24.0
 40
24.0
 40
24.0
 40
25.0
 40
25.0
 40
25.0
 40
26.0
 40
26.0
 40
26.0
 40
27.0
 40
27.0
 40
27.0
 40
28.0
 40
28.0
 40
28.0
 40
29.0
 40
29.0
 40
29.0
 40
30.0
 40
30.0
 40
30.0
 40
31.0
 40
31.0
 40
31.0
 40
32.0
 40
32.0
 40
32.0
 40
33.0
 40
33.0
 40
33.0
 40
34.0
 40
34.0
 40
34.0
 40
35.0
 40
35.0
 40
35.0
 40
36.0
 40
36.0
 40
36.0
 40
37.0
 40
37.0
 40
37.0
 40
38.0
 40
38.0
 40
38.0
 40
39.0
 40
39.0
 40
39.0
 40
40.0
 40
40.0
 40
40.0
 40
41.0
 40
41.0
 40
41.0
 40
42.0
 40
42.0
 40
42.0
 40
43.0
 40
43.0
 40
43.0
 40
44.0
 40
44.0
 40
44.0
 40
45.0
 40
45.0
 40
45.0
 40
46.0
 40
46.0
 40
46.0
 40
47.0
 40
47.0
 40
47.0
 40
48.0
 40
48.0
 40
48.0
 40
49.0
 40
49.0
 40
49.0
 40
50.0
 40
50.0
 40
50.0
 40
51.0
 40
51.0
 40
51.0
 40
52.0
 40
52.0
 40
52.0
 40
53.0
 40
53.0
 40
53.0
 40
54.0
 40
54.0
 40
54.0
 40
55.0
 40
55.0
 40
55.0
 40
56.0
 40
56.0
 40
56.0
 40
57.0
 40
57.0
 40
57.0
 40
58.0
 40
58.0
 40
58.0
 40
59.0
 40
59.0
 40
59.0
 40
60.0
 40
60.0
 40
60.0
 40
61.0
 40
61.0
 40
61.0
 40
62.0
 40
62.0
 40
62.0
 40
63.0
 40
63.0
 40
63.0
 40
64.0
 40
64.0
 40
64.0
 40
65.0
 40
65.0
 40
65.0
 40
66.0
 40
66.0
 40
66.0
 40
67.0
 40
67.0
 40
67.0
 40
68.0
 40
68.0
 40
68.0
 40
69.0
 40
69.0
 40
69.0
 40
70.0
 40
70.0
 40
70.0
 40
71.0
 40
71.0
 40
71.0
 40
72.0
 40
72.0
 40
72.0
 40
73.0
 40
73.0
 40
73.0
 40
74.0
 40
74.0
 40
74.0
 40
75.0
 40
75.0
 40
75.0
 40
76.0
 40
76.0
 40
76.0
 40
77.0
 40
77.0
 40
77.0
 40
78.0
 40
78.0
 40
78.0
 40
79.0
 40
79.0
 40
79.0
 40
80.0
 40
80.0
 40
80.0
 40
81.0
 40
81.0
 40
81.0
 40
82.0
 40
82.0
 40
82.0
 40
83.0
 40
83.0
 40
83.0
 40
84.0
 40
84.0
 40
84.0
 40
85.0
 40
85.0
 40
85.0
 40
86.0
 40
86.0
 40
86.0
 40
87.0
 40
87.0
 40
87.0
 40
88.0
 40
88.0
 40
88.0
 40
89.0
 40
89.0
 40
89.0
 40
90.0
 40
90.0
 40
90.0
 40
91.0
 40
91.0
 40
91.0
 40
92.0
 40
92.0
 40
92.0
 40
93.0
 40
93.0
 40
93.0
 40
94.0
 40
94.0
 40
94.0
 40
95.0
 40
95.0
 40
95.0
 40
96.0
 40
96.0
 40
96.0
 40
97.0
 40
97.0
 40
97.0
 40
98.0
 40
98.0
 40
98.0
 40
99.0
 40
99.0
 40
99.0
 40
100.0
 40
100.0
 40
100.0
 40
101.0
 40
101.0
 40
101.0
 40
102.0
 40
102.0
 40
102.0
 40
103.0
 40
103.0
 40
103.0
 40
104.0
 40
104.0
 40
104.0
 40
105.0
 40
105.0
 40
105.0
 40
106.0
 40
106.0
 40
106.0
 40
107.0
 40
107.0
 40
107.0
 40
108.0
 40
108.0
 40
108.0
 40
109.0
 40
109.0
 40
109.0
 40
110.0
 40
110.0
 40
110.0
 40
111.0
 40
111.0
 40
111.0
 40
112.0
 40
112.0
 40
112.0
 40
113.0
 40
113.0
 40
113.0
 40
114.0
 40
114.0
 40
114.0
 40
115.0
 40
115.0
 40
115.0
 40
116.0
 40
116.0
 40
116.0
 40
117.0
 40
117.0
 40
117.0
 40
118.0
 40
118.0
 40
118.0
 40
119.0
 40
119.0
 40
119.0
 40
120.0
 40
120.0
 40
120.0
 40
121.0
 40
121.0
 40
121.0
 40
122.0
 40
122.0
 40
122.0
 40
122.0
 10
-3.982487318250868
 20
2.093412272135417
 30
0.0
 10
-3.410601467556423
 20
2.093412272135417
 30
0.0
 10
32.79959140353732
 20
2.181434461805555
 30
0.0
 10
32.79959140353732
 20
2.181434461805555
 30
0.0
 10
32.79959140353732
 20
2.181434461805555
 30
0.0
 10
32.99768439398871
 20
2.841342502170139
 30
0.0
 10
33.17355651855468
 20
3.105409071180555
 30
0.0
 10
33.34684482150608
 20
3.363963487413194
 30
0.0
 10
33.45967169867621
 20
3.43544921875
 30
0.0
 10
33.72356601291232
 20
3.215479871961805
 30
0.0
 10
33.98763258192274
 20
2.995510525173611
 30
0.0
 10
34.73556281195747
 20
2.357478841145833
 30
0.0
 10
34.95553215874566
 20
2.0494873046875
 30
0.0
 10
35.35171813964843
 20
2.0494873046875
 30
0.0
 10
36.05555114746093
 20
2.0494873046875
 30
0.0
 10
36.05555114746093
 20
2.0494873046875
 30
0.0
 10
36.05555114746093
 20
2.0494873046875
 30
0.0
 10
36.23159552680122
 20
2.665470377604167
 30
0.0
 10
36.40763990614149
 20
2.9734619140625
 30
0.0
 10
36.58368428548177
 20
3.281453450520833
 30
0.0
 10
36.71563144259982
 20
3.545347764756944
 30
0.0
 10
37.1116451687283
 20
3.149506293402777
 30
0.0
 10
37.50765889485677
 20
2.753492567274305
 30
0.0
 10
37.90367262098524
 20
2.577448187934027
 30
0.0
 10
38.21166415744357
 20
2.0494873046875
 30
0.0
 10
38.5196556939019
 20
2.0494873046875
 30
0.0
 10
39.17956373426649
 20
2.115460883246528
 30
0.0
 10
39.17956373426649
 20
2.115460883246528
 30
0.0
 10
39.17956373426649
 20
2.115460883246528
 30
0.0
 10
39.46550665961371
 20
2.621373155381944
 30
0.0
 10
39.64155103895399
 20
2.9734619140625
 30
0.0
 10
39.81759541829427
 20
3.32537841796875
 30
0.0
 10
39.92766621907552
 20
3.413400607638889
 30
0.0
 10
40.27958272298177
 20
3.149506293402777
 30
0.0
 10
40.63167148166232
 20
2.885439724392361
 30
0.0
 10
41.37960171169704
 20
2.40140380859375
 30
0.0
 10
41.59957105848524
 20
2.0494873046875
 30
0.0
 10
41.99558478461371
 20
2.0494873046875
 30
0.0
 10
42.6556650797526
 20
2.0494873046875
 30
0.0
 10
42.6556650797526
 20
2.0494873046875
 30
0.0
 10
42.6556650797526
 20
2.0494873046875
 30
0.0
 10
42.78761223687066
 20
2.665470377604167
 30
0.0
 10
43.00758158365885
 20
3.017386881510416
 30
0.0
 10
43.22755093044705
 20
3.369475640190972
 30
0.0
 10
43.31557312011719
 20
3.369475640190972
 30
0.0
 10
43.5796396891276
 20
3.149506293402777
 30
0.0
 10
43.96462910970052
 20
2.827734375
 30
0.0
 10
44.45951707628038
 20
2.40140380859375
 30
0.0
 10
44.7235836452908
 20
2.0494873046875
 30
0.0
 10
44.89962802463107
 20
2.0494873046875
 30
0.0
 10
45.99964701334635
 20
2.0494873046875
 30
0.0
 10
45.99964701334635
 20
2.0494873046875
 30
0.0
 10
45.99964701334635
 20
2.0494873046875
 30
0.0
 10
46.21961636013455
 20
2.753492567274305
 30
0.0
 10
46.39548848470052
 20
3.017386881510416
 30
0.0
 10
46.5715328640408
 20
3.281453450520833
 30
0.0
 10
46.68160366482204
 20
3.391351996527777
 30
0.0
 10
46.87952440049913
 20
3.237356228298611
 30
0.0
 10
47.07761739095052
 20
3.083360460069444
 30
0.0
 10
48.00159200032552
 20
2.313381618923611
 30
0.0
 10
48.28753492567274
 20
2.0494873046875
 30
0.0
 10
48.50750427246094
 20
2.0494873046875
 30
0.0
 10
49.01358879937065
 20
2.0494873046875
 30
0.0
 10
49.01358879937065
 20
2.0494873046875
 30
0.0
 10
49.01358879937065
 20
2.0494873046875
 30
0.0
 10
49.10161098904079
 20
2.643421766493055
 30
0.0
 10
49.27748311360676
 20
2.907488335503472
 30
0.0
 10
49.45352749294705
 20
3.171382649739583
 30
0.0
 10
49.5854746500651
 20
3.501422797309028
 30
0.0
 10
49.84954121907552
 20
3.281453450520833
 30
0.0
 10
50.11360778808594
 20
3.061484103732639
 30
0.0
 10
51.05963100857205
 20
2.269456651475694
 30
0.0
 10
51.23550313313802
 20
2.027438693576389
 30
0.0
 10
51.36762254503038
 20
2.027438693576389
 30
0.0
 10
52.24749993218315
 20
2.027438693576389
 30
0.0
 10
52.24749993218315
 20
2.027438693576389
 30
0.0
 10
52.24749993218315
 20
2.027438693576389
 30
0.0
 10
52.44559292263455
 20
2.775368923611111
 30
0.0
 10
52.5775400797526
 20
2.995510525173611
 30
0.0
 10
52.70948723687066
 20
3.215479871961805
 30
0.0
 10
52.84160664876302
 20
3.479374186197916
 30
0.0
 10
53.12754957411024
 20
3.259404839409722
 30
0.0
 10
53.41349249945746
 20
3.039435492621528
 30
0.0
 10
54.1836435953776
 20
2.40140380859375
 30
0.0
 10
54.44753790961371
 20
2.027438693576389
 30
0.0
 10
54.55760871039496
 20
2.027438693576389
 30
0.0
 10
55.52550828721788
 20
2.027438693576389
 30
0.0
 10
55.52550828721788
 20
2.027438693576389
 30
0.0
 10
55.52550828721788
 20
2.027438693576389
 30
0.0
 10
55.70155266655816
 20
2.731443956163194
 30
0.0
 10
55.87759704589843
 20
2.951413302951389
 30
0.0
 10
56.05364142523871
 20
3.171382649739583
 30
0.0
 10
56.11944274902344
 20
3.347427029079861
 30
0.0
 10
56.36163296169704
 20
3.171382649739583
 30
0.0
 10
56.60347866482204
 20
2.995510525173611
 30
0.0
 10
57.43960333930121
 20
2.335430230034722
 30
0.0
 10
57.68144904242621
 20
2.0494873046875
 30
0.0
 10
57.8795420328776
 20
2.0494873046875
 30
0.0
 10
58.75941942003038
 20
2.0494873046875
 30
0.0
 10
58.75941942003038
 20
2.0494873046875
 30
0.0
 10
58.75941942003038
 20
2.0494873046875
 30
0.0
 10
58.91358744303385
 20
2.621373155381944
 30
0.0
 10
59.08945956759982
 20
2.885439724392361
 30
0.0
 10
59.2655039469401
 20
3.149506293402777
 30
0.0
 10
59.35352613661024
 20
3.43544921875
 30
0.0
 10
59.68356628417968
 20
3.193431260850694
 30
0.0
 10
60.01343417697482
 20
2.951413302951389
 30
0.0
 10
60.8714352077908
 20
2.203483072916666
 30
0.0
 10
61.02543097601996
 20
2.027438693576389
 30
0.0
 10
61.20147535536024
 20
2.027438693576389
 30
0.0
 10
62.01555141872829
 20
2.027438693576389
 30
0.0
 10
62.01555141872829
 20
2.027438693576389
 30
0.0
 10
62.01555141872829
 20
2.027438693576389
 30
0.0
 10
62.16954718695746
 20
2.731443956163194
 30
0.0
 10
62.32354295518663
 20
2.951413302951389
 30
0.0
 10
62.47753872341579
 20
3.171382649739583
 30
0.0
 10
62.58743726942274
 20
3.369475640190972
 30
0.0
 10
62.89542880588107
 20
3.149506293402777
 30
0.0
 10
63.20359259711371
 20
2.929364691840278
 30
0.0
 10
64.03954501681857
 20
2.291505262586806
 30
0.0
 10
64.21541714138455
 20
2.0494873046875
 30
0.0
 10
64.34753655327691
 20
2.0494873046875
 30
0.0
 10
65.0294932047526
 20
2.0494873046875
 30
0.0
 10
65.0294932047526
 20
2.0494873046875
 30
0.0
 10
65.0294932047526
 20
2.0494873046875
 30
0.0
 10
65.33748474121093
 20
2.731443956163194
 30
0.0
 10
65.57950269911024
 20
2.9734619140625
 30
0.0
 10
65.74727884928385
 20
3.141238064236111
 30
0.0
 10
65.86544562445747
 20
3.281453450520833
 30
0.0
 10
66.10746358235677
 20
3.105409071180555
 30
0.0
 10
66.34948154025607
 20
2.929364691840278
 30
0.0
 10
67.05348680284287
 20
2.423452419704861
 30
0.0
 10
67.31755337185329
 20
2.247408040364583
 30
0.0
 10
67.58144768608941
 20
2.071363661024305
 30
0.0
 10
68.17538214789497
 20
2.071363661024305
 30
0.0
 10
68.39552374945745
 20
2.357478841145833
 30
0.0
 10
68.61549309624566
 20
2.643421766493055
 30
0.0
 10
68.79704962836371
 20
2.830490451388889
 30
0.0
 10
68.90143602159287
 20
2.9734619140625
 30
0.0
 10
69.02373691134982
 20
3.143994140625
 30
0.0
 10
69.20115932888454
 20
3.176894802517361
 30
0.0
 10
69.38547193739149
 20
3.020142957899305
 30
0.0
 10
69.6590125189887
 20
2.789149305555555
 30
0.0
 10
70.11014777289496
 20
2.497694227430555
 30
0.0
 10
70.24347296820746
 20
2.379355197482639
 30
0.0
 10
70.46344231499566
 20
2.181434461805555
 30
0.0
 10
71.12352261013454
 20
1.873442925347222
 30
0.0
 10
71.40946553548176
 20
2.181434461805555
 30
0.0
 10
71.69540846082899
 20
2.489425998263889
 30
0.0
 10
71.87145284016927
 20
2.621373155381944
 30
0.0
 10
72.00339999728732
 20
2.753492567274305
 30
0.0
 10
72.13551940917968
 20
2.885439724392361
 30
0.0
 10
72.31139153374565
 20
2.9734619140625
 30
0.0
 10
72.57545810275607
 20
2.709395345052083
 30
0.0
 10
72.83952467176648
 20
2.445501030815972
 30
0.0
 10
73.52148132324219
 20
1.763372124565972
 30
0.0
 10
73.52148132324219
 20
1.763372124565972
 30
0.0
 10
73.52148132324219
 20
1.763372124565972
 30
0.0
 10
73.67547709147135
 20
1.653473578559028
 30
0.0
 10
73.85152147081162
 20
1.609376356336805
 30
0.0
 10
74.0273935953776
 20
1.565451388888889
 30
0.0
 10
74.97341681586372
 20
1.323433430989583
 30
0.0
 10
74.97341681586372
 20
1.323433430989583
 30
0.0
 10
74.97341681586372
 20
1.323433430989583
 30
0.0
 10
75.28140835232205
 20
1.191486273871528
 30
0.0
 10
75.34755418565537
 20
1.301384819878472
 30
0.0
 10
75.4133555094401
 20
1.411455620659722
 30
0.0
 10
75.85346645779079
 20
1.807469346788194
 30
0.0
 10
75.85346645779079
 20
1.807469346788194
 30
0.0
 10
75.85346645779079
 20
1.807469346788194
 30
0.0
 10
76.95348544650607
 20
0.8393975151909722
 30
0.0
 10
76.95348544650607
 20
0.8393975151909722
 30
0.0
 10
76.95348544650607
 20
0.8393975151909722
 30
0.0
 10
77.87746005588107
 20
0.55345458984375
 30
0.0
 10
77.87746005588107
 20
0.55345458984375
 30
0.0
 10
77.87746005588107
 20
0.55345458984375
 30
0.0
 10
78.38337232801649
 20
0.8393975151909722
 30
0.0
 10
78.38337232801649
 20
0.8393975151909722
 30
0.0
 10
78.38337232801649
 20
0.8393975151909722
 30
0.0
 10
78.99935540093316
 20
0.2893880208333333
 30
0.0
 10
78.99935540093316
 20
0.2893880208333333
 30
0.0
 10
78.99935540093316
 20
0.2893880208333333
 30
0.0
 10
80.02651062011718
 20
0.0308336046006944
 30
0.0
 10
80.27541876898872
 20
-0.0406521267361111
 30
0.0
 10
80.89140184190538
 20
-0.2165242513020833
 30
0.0
 10
80.82542826334635
 20
-0.6125379774305555
 30
0.0
 10
80.42941453721788
 20
-0.7665337456597221
 30
0.0
 10
80.03340081108941
 20
-0.9205295138888888
 30
0.0
 10
78.38337232801649
 20
-1.382516818576389
 30
0.0
 10
78.38337232801649
 20
-1.382516818576389
 30
0.0
 10
78.38337232801649
 20
-1.382516818576389
 30
0.0
 10
78.22799852159288
 20
-1.888601345486111
 30
0.0
 10
78.18545159233941
 20
-2.042597113715277
 30
0.0
 10
78.11947801378038
 20
-2.284615071614583
 30
0.0
 10
77.96548224555122
 20
-2.284615071614583
 30
0.0
 10
77.74551289876301
 20
-2.064645724826389
 30
0.0
 10
77.52554355197482
 20
-1.844676378038194
 30
0.0
 10
77.41547275119358
 20
-1.536684841579861
 30
0.0
 10
77.41547275119358
 20
-1.536684841579861
 30
0.0
 10
77.41547275119358
 20
-1.536684841579861
 30
0.0
 10
75.69947068956162
 20
-1.844676378038194
 30
0.0
 10
75.69947068956162
 20
-1.844676378038194
 30
0.0
 10
75.69947068956162
 20
-1.844676378038194
 30
0.0
 10
75.56752353244357
 20
-2.394685872395833
 30
0.0
 10
75.45745273166232
 20
-2.680628797743055
 30
0.0
 10
75.34755418565537
 20
-2.966571723090278
 30
0.0
 10
75.34755418565537
 20
-3.120567491319444
 30
0.0
 10
75.12741258409288
 20
-2.966571723090278
 30
0.0
 10
74.90744323730468
 20
-2.812575954861111
 30
0.0
 10
74.20343797471787
 20
-2.240517849392361
 30
0.0
 10
74.04944220648871
 20
-2.064645724826389
 30
0.0
 10
73.93954366048176
 20
-2.130619303385417
 30
0.0
 10
72.61938307020398
 20
-2.3285400390625
 30
0.0
 10
72.61938307020398
 20
-2.3285400390625
 30
0.0
 10
72.61938307020398
 20
-2.3285400390625
 30
0.0
 10
72.48743591308593
 20
-3.142616102430555
 30
0.0
 10
72.42146233452691
 20
-3.340709092881944
 30
0.0
 10
72.35548875596787
 20
-3.538629828559027
 30
0.0
 10
72.28951517740885
 20
-3.648528374565972
 30
0.0
 10
72.06954583062066
 20
-3.494704861111111
 30
0.0
 10
71.84940422905815
 20
-3.340709092881944
 30
0.0
 10
71.05737677680121
 20
-2.768650987413194
 30
0.0
 10
70.85945604112412
 20
-2.504584418402778
 30
0.0
 10
70.57351311577691
 20
-2.482708062065972
 30
0.0
 10
69.64953850640191
 20
-2.570557996961806
 30
0.0
 10
69.64953850640191
 20
-2.570557996961806
 30
0.0
 10
69.64953850640191
 20
-2.570557996961806
 30
0.0
 10
69.45144551595051
 20
-3.494704861111111
 30
0.0
 10
69.34137471516927
 20
-3.714674207899305
 30
0.0
 10
69.23147616916232
 20
-3.9346435546875
 30
0.0
 10
69.23147616916232
 20
-4.19853786892361
 30
0.0
 10
68.90143602159287
 20
-3.9346435546875
 30
0.0
 10
68.57156812879774
 20
-3.670576985677083
 30
0.0
 10
67.95541280110676
 20
-3.076642523871528
 30
0.0
 10
67.73544345431857
 20
-2.724553765190972
 30
0.0
 10
67.60349629720052
 20
-2.724553765190972
 30
0.0
 10
66.37153015136718
 20
-2.702677408854167
 30
0.0
 10
66.37153015136718
 20
-2.702677408854167
 30
0.0
 10
66.37153015136718
 20
-2.702677408854167
 30
0.0
 10
66.26145935058594
 20
-3.428559027777777
 30
0.0
 10
66.12951219346788
 20
-3.670576985677083
 30
0.0
 10
65.99756503634983
 20
-3.912594943576389
 30
0.0
 10
65.90954284667969
 20
-4.066590711805556
 30
0.0
 10
65.64547627766926
 20
-3.868669976128472
 30
0.0
 10
65.38158196343315
 20
-3.670576985677083
 30
0.0
 10
64.78747524685329
 20
-3.076642523871528
 30
0.0
 10
64.5895545111762
 20
-2.658580186631944
 30
0.0
 10
64.52358093261718
 20
-2.658580186631944
 30
0.0
 10
63.11557040744357
 20
-2.702677408854167
 30
0.0
 10
63.11557040744357
 20
-2.702677408854167
 30
0.0
 10
63.11557040744357
 20
-2.702677408854167
 30
0.0
 10
63.04942457411024
 20
-3.274563259548611
 30
0.0
 10
62.89542880588107
 20
-3.582554796006944
 30
0.0
 10
62.7414330376519
 20
-3.890546332465278
 30
0.0
 10
62.7195566813151
 20
-4.132564290364583
 30
0.0
 10
62.43344150119357
 20
-3.868669976128472
 30
0.0
 10
62.14749857584635
 20
-3.604603407118055
 30
0.0
 10
61.37751973470051
 20
-3.0106689453125
 30
0.0
 10
61.22352396647135
 20
-2.636531575520833
 30
0.0
 10
61.02543097601996
 20
-2.636531575520833
 30
0.0
 10
59.90353563096787
 20
-2.636531575520833
 30
0.0
 10
59.90353563096787
 20
-2.636531575520833
 30
0.0
 10
59.90353563096787
 20
-2.636531575520833
 30
0.0
 10
59.77158847384982
 20
-3.318660481770833
 30
0.0
 10
59.66151767306857
 20
-3.538629828559027
 30
0.0
 10
59.55144687228732
 20
-3.758599175347222
 30
0.0
 10
59.48547329372829
 20
-3.9346435546875
 30
0.0
 10
59.17748175726996
 20
-3.714674207899305
 30
0.0
 10
58.86949022081163
 20
-3.494704861111111
 30
0.0
 10
58.09951137966579
 20
-2.878549533420139
 30
0.0
 10
57.92346700032552
 20
-2.636531575520833
 30
0.0
 10
57.70349765353732
 20
-2.636531575520833
 30
0.0
 10
56.58160230848524
 20
-2.658580186631944
 30
0.0
 10
56.58160230848524
 20
-2.658580186631944
 30
0.0
 10
56.58160230848524
 20
-2.658580186631944
 30
0.0
 10
56.47153150770399
 20
-3.340709092881944
 30
0.0
 10
56.36163296169704
 20
-3.626652018229166
 30
0.0
 10
56.2515621609158
 20
-3.912594943576389
 30
0.0
 10
55.97371520996093
 20
-3.8850341796875
 30
0.0
 10
55.72360127766927
 20
-3.648528374565972
 30
0.0
 10
55.3275875515408
 20
-3.274563259548611
 30
0.0
 10
54.68955586751302
 20
-2.614655219184027
 30
0.0
 10
54.68955586751302
 20
-2.614655219184027
 30
0.0
 10
54.68955586751302
 20
-2.614655219184027
 30
0.0
 10
53.43554111056857
 20
-2.636531575520833
 30
0.0
 10
53.43554111056857
 20
-2.636531575520833
 30
0.0
 10
53.43554111056857
 20
-2.636531575520833
 30
0.0
 10
53.2594967312283
 20
-3.230638292100694
 30
0.0
 10
53.12754957411024
 20
-3.516581217447917
 30
0.0
 10
52.99560241699219
 20
-3.802524142795138
 30
0.0
 10
52.88553161621093
 20
-4.132564290364583
 30
0.0
 10
52.5775400797526
 20
-3.802524142795138
 30
0.0
 10
52.26954854329426
 20
-3.47265625
 30
0.0
 10
51.45547247992621
 20
-2.658580186631944
 30
0.0
 10
51.45547247992621
 20
-2.658580186631944
 30
0.0
 10
51.45547247992621
 20
-2.658580186631944
 30
0.0
 10
50.33357713487413
 20
-2.680628797743055
 30
0.0
 10
50.33357713487413
 20
-2.680628797743055
 30
0.0
 10
50.33357713487413
 20
-2.680628797743055
 30
0.0
 10
50.11360778808594
 20
-3.384634060329861
 30
0.0
 10
50.00353698730469
 20
-3.582554796006944
 30
0.0
 10
49.89363844129774
 20
-3.780647786458333
 30
0.0
 10
49.8056162516276
 20
-3.9346435546875
 30
0.0
 10
49.49762471516927
 20
-3.626652018229166
 30
0.0
 10
49.18963317871094
 20
-3.318660481770833
 30
0.0
 10
48.39760572645399
 20
-2.702677408854167
 30
0.0
 10
48.33145989312065
 20
-2.614655219184027
 30
0.0
 10
48.33145989312065
 20
-2.570557996961806
 30
0.0
 10
46.92362162272135
 20
-2.614655219184027
 30
0.0
 10
46.92362162272135
 20
-2.614655219184027
 30
0.0
 10
46.92362162272135
 20
-2.614655219184027
 30
0.0
 10
46.70365227593316
 20
-3.428559027777777
 30
0.0
 10
46.61563008626302
 20
-3.604603407118055
 30
0.0
 10
46.52760789659288
 20
-3.780647786458333
 30
0.0
 10
46.33364902072482
 20
-3.907082790798611
 30
0.0
 10
46.06562059190538
 20
-3.692625596788194
 30
0.0
 10
45.62550964355469
 20
-3.340709092881944
 30
0.0
 10
45.16352233886718
 20
-2.966571723090278
 30
0.0
 10
44.9656016031901
 20
-2.614655219184027
 30
0.0
 10
44.94355299207899
 20
-2.614655219184027
 30
0.0
 10
43.68953823513454
 20
-2.592606608072916
 30
0.0
 10
43.68953823513454
 20
-2.592606608072916
 30
0.0
 10
43.68953823513454
 20
-2.592606608072916
 30
0.0
 10
43.51349385579427
 20
-3.47265625
 30
0.0
 10
43.40359530978732
 20
-3.670576985677083
 30
0.0
 10
43.29352450900607
 20
-3.868669976128472
 30
0.0
 10
43.16157735188802
 20
-4.088639322916666
 30
0.0
 10
42.74351501464843
 20
-3.648528374565972
 30
0.0
 10
42.32562493218315
 20
-3.208589680989583
 30
0.0
 10
41.9516598171658
 20
-2.834624565972222
 30
0.0
 10
41.77561543782552
 20
-2.592606608072916
 30
0.0
 10
41.57769470214844
 20
-2.592606608072916
 30
0.0
 10
40.38965352376302
 20
-2.592606608072916
 30
0.0
 10
40.38965352376302
 20
-2.592606608072916
 30
0.0
 10
40.38965352376302
 20
-2.592606608072916
 30
0.0
 10
40.30163133409288
 20
-3.36258544921875
 30
0.0
 10
40.21360914442274
 20
-3.582554796006944
 30
0.0
 10
40.1255869547526
 20
-3.802524142795138
 30
0.0
 10
40.05961337619358
 20
-4.110687934027777
 30
0.0
 10
39.70752461751302
 20
-3.802524142795138
 30
0.0
 10
39.41331346299913
 20
-3.54552001953125
 30
0.0
 10
38.71068623860677
 20
-3.027033148871527
 30
0.0
 10
38.54153205023872
 20
-2.592606608072916
 30
0.0
 10
38.43163350423177
 20
-2.592606608072916
 30
0.0
 10
37.15557013617621
 20
-2.614655219184027
 30
0.0
 10
37.15557013617621
 20
-2.614655219184027
 30
0.0
 10
37.15557013617621
 20
-2.614655219184027
 30
0.0
 10
37.1335215250651
 20
-3.098691134982639
 30
0.0
 10
36.86962721082899
 20
-3.582554796006944
 30
0.0
 10
36.74181416829427
 20
-3.816304524739583
 30
0.0
 10
36.69358283148871
 20
-3.82457275390625
 30
0.0
 10
36.45156487358941
 20
-3.692625596788194
 30
0.0
 10
36.2095469156901
 20
-3.560678439670139
 30
0.0
 10
35.48366529676649
 20
-2.922646755642361
 30
0.0
 10
35.2636959499783
 20
-2.614655219184027
 30
0.0
 10
35.08765157063802
 20
-2.614655219184027
 30
0.0
 10
33.87756178114149
 20
-2.636531575520833
 30
0.0
 10
33.87756178114149
 20
-2.636531575520833
 30
0.0
 10
33.87756178114149
 20
-2.636531575520833
 30
0.0
 10
33.72356601291232
 20
-3.36258544921875
 30
0.0
 10
33.61366746690538
 20
-3.648528374565972
 30
0.0
 10
33.50359666612413
 20
-3.9346435546875
 30
0.0
 10
33.39352586534288
 20
-3.9346435546875
 30
0.0
 10
33.15168016221788
 20
-3.736550564236111
 30
0.0
 10
33.15168016221788
 20
-3.736550564236111
 30
0.0
 10
32.13003709581163
 20
-2.641526963975694
 30
0.0
 10
32.13003709581163
 20
-2.641526963975694
 30
0.0
  0
SPLINE
  5
250
330
140
100
AcDbEntity
  8
LAYER_1
 62
     7
100
AcDbSpline
210
0.0
220
0.0
230
1.0
 70
     8
 71
     3
 72
   362
 73
   358
 74
     0
 42
0.0000000001
 43
0.0000000001
 40
0.0
 40
0.0
 40
0.0
 40
0.0
 40
1.0
 40
1.0
 40
1.0
 40
2.0
 40
2.0
 40
2.0
 40
3.0
 40
3.0
 40
3.0
 40
4.0
 40
4.0
 40
4.0
 40
5.0
 40
5.0
 40
5.0
 40
6.0
 40
6.0
 40
6.0
 40
7.0
 40
7.0
 40
7.0
 40
8.0
 40
8.0
 40
8.0
 40
9.0
 40
9.0
 40
9.0
 40
10.0
 40
10.0
 40
10.0
 40
11.0
 40
11.0
 40
11.0
 40
12.0
 40
12.0
 40
12.0
 40
13.0
 40
13.0
 40
13.0
 40
14.0
 40
14.0
 40
14.0
 40
15.0
 40
15.0
 40
15.0
 40
16.0
 40
16.0
 40
16.0
 40
17.0
 40
17.0
 40
17.0
 40
18.0
 40
18.0
 40
18.0
 40
19.0
 40
19.0
 40
19.0
 40
20.0
 40
20.0
 40
20.0
 40
21.0
 40
21.0
 40
21.0
 40
22.0
 40
22.0
 40
22.0
 40
23.0
 40
23.0
 40
23.0
 40
24.0
 40
24.0
 40
24.0
 40
25.0
 40
25.0
 40
25.0
 40
26.0
 40
26.0
 40
26.0
 40
27.0
 40
27.0
 40
27.0
 40
28.0
 40
28.0
 40
28.0
 40
29.0
 40
29.0
 40
29.0
 40
30.0
 40
30.0
 40
30.0
 40
31.0
 40
31.0
 40
31.0
 40
32.0
 40
32.0
 40
32.0
 40
33.0
 40
33.0
 40
33.0
 40
34.0
 40
34.0
 40
34.0
 40
35.0
 40
35.0
 40
35.0
 40
36.0
 40
36.0
 40
36.0
 40
37.0
 40
37.0
 40
37.0
 40
38.0
 40
38.0
 40
38.0
 40
39.0
 40
39.0
 40
39.0
 40
40.0
 40
40.0
 40
40.0
 40
41.0
 40
41.0
 40
41.0
 40
42.0
 40
42.0
 40
42.0
 40
43.0
 40
43.0
 40
43.0
 40
44.0
 40
44.0
 40
44.0
 40
45.0
 40
45.0
 40
45.0
 40
46.0
 40
46.0
 40
46.0
 40
47.0
 40
47.0
 40
47.0
 40
48.0
 40
48.0
 40
48.0
 40
49.0
 40
49.0
 40
49.0
 40
50.0
 40
50.0
 40
50.0
 40
51.0
 40
51.0
 40
51.0
 40
52.0
 40
52.0
 40
52.0
 40
53.0
 40
53.0
 40
53.0
 40
54.0
 40
54.0
 40
54.0
 40
55.0
 40
55.0
 40
55.0
 40
56.0
 40
56.0
 40
56.0
 40
57.0
 40
57.0
 40
57.0
 40
58.0
 40
58.0
 40
58.0
 40
59.0
 40
59.0
 40
59.0
 40
60.0
 40
60.0
 40
60.0
 40
61.0
 40
61.0
 40
61.0
 40
62.0
 40
62.0
 40
62.0
 40
63.0
 40
63.0
 40
63.0
 40
64.0
 40
64.0
 40
64.0
 40
65.0
 40
65.0
 40
65.0
 40
66.0
 40
66.0
 40
66.0
 40
67.0
 40
67.0
 40
67.0
 40
68.0
 40
68.0
 40
68.0
 40
69.0
 40
69.0
 40
69.0
 40
70.0
 40
70.0
 40
70.0
 40
71.0
 40
71.0
 40
71.0
 40
72.0
 40
72.0
 40
72.0
 40
73.0
 40
73.0
 40
73.0
 40
74.0
 40
74.0
 40
74.0
 40
75.0
 40
75.0
 40
75.0
 40
76.0
 40
76.0
 40
76.0
 40
77.0
 40
77.0
 40
77.0
 40
78.0
 40
78.0
 40
78.0
 40
79.0
 40
79.0
 40
79.0
 40
80.0
 40
80.0
 40
80.0
 40
81.0
 40
81.0
 40
81.0
 40
82.0
 40
82.0
 40
82.0
 40
83.0
 40
83.0
 40
83.0
 40
84.0
 40
84.0
 40
84.0
 40
85.0
 40
85.0
 40
85.0
 40
86.0
 40
86.0
 40
86.0
 40
87.0
 40
87.0
 40
87.0
 40
88.0
 40
88.0
 40
88.0
 40
89.0
 40
89.0
 40
89.0
 40
90.0
 40
90.0
 40
90.0
 40
91.0
 40
91.0
 40
91.0
 40
92.0
 40
92.0
 40
92.0
 40
93.0
 40
93.0
 40
93.0
 40
94.0
 40
94.0
 40
94.0
 40
95.0
 40
95.0
 40
95.0
 40
96.0
 40
96.0
 40
96.0
 40
97.0
 40
97.0
 40
97.0
 40
98.0
 40
98.0
 40
98.0
 40
99.0
 40
99.0
 40
99.0
 40
100.0
 40
100.0
 40
100.0
 40
101.0
 40
101.0
 40
101.0
 40
102.0
 40
102.0
 40
102.0
 40
103.0
 40
103.0
 40
103.0
 40
104.0
 40
104.0
 40
104.0
 40
105.0
 40
105.0
 40
105.0
 40
106.0
 40
106.0
 40
106.0
 40
107.0
 40
107.0
 40
107.0
 40
108.0
 40
108.0
 40
108.0
 40
109.0
 40
109.0
 40
109.0
 40
110.0
 40
110.0
 40
110.0
 40
111.0
 40
111.0
 40
111.0
 40
112.0
 40
112.0
 40
112.0
 40
113.0
 40
113.0
 40
113.0
 40
114.0
 40
114.0
 40
114.0
 40
115.0
 40
115.0
 40
115.0
 40
116.0
 40
116.0
 40
116.0
 40
117.0
 40
117.0
 40
117.0
 40
118.0
 40
118.0
 40
118.0
 40
119.0
 40
119.0
 40
119.0
 40
119.0
 10
35.26524624294704
 20
-2.504584418402778
 30
0.0
 10
34.97930331759982
 20
-2.482708062065972
 30
0.0
 10
34.05532870822482
 20
-2.570557996961806
 30
0.0
 10
34.05532870822482
 20
-2.570557996961806
 30
0.0
 10
34.05532870822482
 20
-2.570557996961806
 30
0.0
 10
33.85723571777344
 20
-3.494704861111111
 30
0.0
 10
33.74733717176649
 20
-3.714674207899305
 30
0.0
 10
33.63726637098524
 20
-3.9346435546875
 30
0.0
 10
33.63726637098524
 20
-4.19853786892361
 30
0.0
 10
33.3072262234158
 20
-3.9346435546875
 30
0.0
 10
32.97735833062065
 20
-3.670576985677083
 30
0.0
 10
32.36137525770399
 20
-3.076642523871528
 30
0.0
 10
32.14123365614149
 20
-2.724553765190972
 30
0.0
 10
32.00928649902343
 20
-2.724553765190972
 30
0.0
 10
30.7773203531901
 20
-2.702677408854167
 30
0.0
 10
30.7773203531901
 20
-2.702677408854167
 30
0.0
 10
30.7773203531901
 20
-2.702677408854167
 30
0.0
 10
30.66724955240885
 20
-3.428559027777777
 30
0.0
 10
30.5353023952908
 20
-3.670576985677083
 30
0.0
 10
30.40335523817274
 20
-3.912594943576389
 30
0.0
 10
30.3153330485026
 20
-4.066590711805556
 30
0.0
 10
30.05126647949219
 20
-3.868669976128472
 30
0.0
 10
29.78737216525607
 20
-3.670576985677083
 30
0.0
 10
29.19326544867621
 20
-3.076642523871528
 30
0.0
 10
28.99534471299913
 20
-2.658580186631944
 30
0.0
 10
28.9293711344401
 20
-2.658580186631944
 30
0.0
 10
27.52136060926649
 20
-2.702677408854167
 30
0.0
 10
27.52136060926649
 20
-2.702677408854167
 30
0.0
 10
27.52136060926649
 20
-2.702677408854167
 30
0.0
 10
27.45538703070746
 20
-3.274563259548611
 30
0.0
 10
27.3013912624783
 20
-3.582554796006944
 30
0.0
 10
27.14722323947482
 20
-3.890546332465278
 30
0.0
 10
27.12534688313802
 20
-4.132564290364583
 30
0.0
 10
26.83923170301649
 20
-3.868669976128472
 30
0.0
 10
26.55328877766927
 20
-3.604603407118055
 30
0.0
 10
25.78330993652343
 20
-3.0106689453125
 30
0.0
 10
25.62931416829427
 20
-2.636531575520833
 30
0.0
 10
25.43139343261719
 20
-2.636531575520833
 30
0.0
 10
24.3093258327908
 20
-2.636531575520833
 30
0.0
 10
24.3093258327908
 20
-2.636531575520833
 30
0.0
 10
24.3093258327908
 20
-2.636531575520833
 30
0.0
 10
24.17737867567274
 20
-3.318660481770833
 30
0.0
 10
24.06730787489149
 20
-3.538629828559027
 30
0.0
 10
23.95740932888455
 20
-3.758599175347222
 30
0.0
 10
23.89126349555122
 20
-3.9346435546875
 30
0.0
 10
23.58327195909288
 20
-3.714674207899305
 30
0.0
 10
23.27528042263455
 20
-3.494704861111111
 30
0.0
 10
22.50530158148871
 20
-2.878549533420139
 30
0.0
 10
22.32925720214844
 20
-2.636531575520833
 30
0.0
 10
22.10928785536024
 20
-2.636531575520833
 30
0.0
 10
20.98739251030816
 20
-2.658580186631944
 30
0.0
 10
20.98739251030816
 20
-2.658580186631944
 30
0.0
 10
20.98739251030816
 20
-2.658580186631944
 30
0.0
 10
20.87732170952691
 20
-3.340709092881944
 30
0.0
 10
20.76742316351997
 20
-3.626652018229166
 30
0.0
 10
20.65735236273871
 20
-3.912594943576389
 30
0.0
 10
20.37950541178385
 20
-3.8850341796875
 30
0.0
 10
20.12939147949219
 20
-3.648528374565972
 30
0.0
 10
19.73337775336371
 20
-3.274563259548611
 30
0.0
 10
19.09534606933594
 20
-2.614655219184027
 30
0.0
 10
19.09534606933594
 20
-2.614655219184027
 30
0.0
 10
19.09534606933594
 20
-2.614655219184027
 30
0.0
 10
17.84133131239149
 20
-2.636531575520833
 30
0.0
 10
17.84133131239149
 20
-2.636531575520833
 30
0.0
 10
17.84133131239149
 20
-2.636531575520833
 30
0.0
 10
17.66528693305121
 20
-3.230638292100694
 30
0.0
 10
17.53333977593316
 20
-3.516581217447917
 30
0.0
 10
17.4013926188151
 20
-3.802524142795138
 30
0.0
 10
17.29132181803385
 20
-4.132564290364583
 30
0.0
 10
16.98333028157552
 20
-3.802524142795138
 30
0.0
 10
16.67533874511719
 20
-3.47265625
 30
0.0
 10
15.86143493652344
 20
-2.658580186631944
 30
0.0
 10
15.86143493652344
 20
-2.658580186631944
 30
0.0
 10
15.86143493652344
 20
-2.658580186631944
 30
0.0
 10
14.73936733669705
 20
-2.680628797743055
 30
0.0
 10
14.73936733669705
 20
-2.680628797743055
 30
0.0
 10
14.73936733669705
 20
-2.680628797743055
 30
0.0
 10
14.51939798990885
 20
-3.384634060329861
 30
0.0
 10
14.4093271891276
 20
-3.582554796006944
 30
0.0
 10
14.29942864312066
 20
-3.780647786458333
 30
0.0
 10
14.21140645345052
 20
-3.9346435546875
 30
0.0
 10
13.90341491699219
 20
-3.626652018229166
 30
0.0
 10
13.59525112575955
 20
-3.318660481770833
 30
0.0
 10
12.80339592827691
 20
-2.702677408854167
 30
0.0
 10
12.73742234971788
 20
-2.614655219184027
 30
0.0
 10
12.73742234971788
 20
-2.570557996961806
 30
0.0
 10
11.32941182454427
 20
-2.614655219184027
 30
0.0
 10
11.32941182454427
 20
-2.614655219184027
 30
0.0
 10
11.32941182454427
 20
-2.614655219184027
 30
0.0
 10
11.10944247775608
 20
-3.428559027777777
 30
0.0
 10
11.02142028808594
 20
-3.604603407118055
 30
0.0
 10
10.9333980984158
 20
-3.780647786458333
 30
0.0
 10
10.73961147732205
 20
-3.907082790798611
 30
0.0
 10
10.4714107937283
 20
-3.692625596788194
 30
0.0
 10
10.03147210015191
 20
-3.340709092881944
 30
0.0
 10
9.569312540690103
 20
-2.966571723090278
 30
0.0
 10
9.371391805013021
 20
-2.614655219184027
 30
0.0
 10
9.349343193901909
 20
-2.614655219184027
 30
0.0
 10
8.09550069173177
 20
-2.592606608072916
 30
0.0
 10
8.09550069173177
 20
-2.592606608072916
 30
0.0
 10
8.09550069173177
 20
-2.592606608072916
 30
0.0
 10
7.919456312391493
 20
-3.47265625
 30
0.0
 10
7.809385511610242
 20
-3.670576985677083
 30
0.0
 10
7.699314710828992
 20
-3.868669976128472
 30
0.0
 10
7.567367553710937
 20
-4.088639322916666
 30
0.0
 10
7.14947747124566
 20
-3.648528374565972
 30
0.0
 10
6.731415134006076
 20
-3.208589680989583
 30
0.0
 10
6.357450018988715
 20
-2.834624565972222
 30
0.0
 10
6.181405639648437
 20
-2.592606608072916
 30
0.0
 10
5.983484903971354
 20
-2.592606608072916
 30
0.0
 10
4.795443725585937
 20
-2.592606608072916
 30
0.0
 10
4.795443725585937
 20
-2.592606608072916
 30
0.0
 10
4.795443725585937
 20
-2.592606608072916
 30
0.0
 10
4.707421535915798
 20
-3.36258544921875
 30
0.0
 10
4.619399346245659
 20
-3.582554796006944
 30
0.0
 10
4.531377156575521
 20
-3.802524142795138
 30
0.0
 10
4.465403578016493
 20
-4.110687934027777
 30
0.0
 10
4.113487074110243
 20
-3.802524142795138
 30
0.0
 10
3.819103664822048
 20
-3.54552001953125
 30
0.0
 10
3.116648695203993
 20
-3.027033148871527
 30
0.0
 10
2.947494506835937
 20
-2.592606608072916
 30
0.0
 10
2.837423706054687
 20
-2.592606608072916
 30
0.0
 10
1.561360337999132
 20
-2.614655219184027
 30
0.0
 10
1.561360337999132
 20
-2.614655219184027
 30
0.0
 10
1.561360337999132
 20
-2.614655219184027
 30
0.0
 10
1.539483981662326
 20
-3.098691134982639
 30
0.0
 10
1.27541741265191
 20
-3.582554796006944
 30
0.0
 10
1.147604370117187
 20
-3.816304524739583
 30
0.0
 10
1.099373033311632
 20
-3.82457275390625
 30
0.0
 10
0.8575273301866319
 20
-3.692625596788194
 30
0.0
 10
0.6153371175130208
 20
-3.560678439670139
 30
0.0
 10
-0.1105445014105903
 20
-2.922646755642361
 30
0.0
 10
-0.3305138481987847
 20
-2.614655219184027
 30
0.0
 10
-0.5065582275390624
 20
-2.614655219184027
 30
0.0
 10
-1.71664801703559
 20
-2.636531575520833
 30
0.0
 10
-1.71664801703559
 20
-2.636531575520833
 30
0.0
 10
-1.71664801703559
 20
-2.636531575520833
 30
0.0
 10
-1.870643785264757
 20
-3.36258544921875
 30
0.0
 10
-1.980542331271701
 20
-3.648528374565972
 30
0.0
 10
-2.090613132052951
 20
-3.9346435546875
 30
0.0
 10
-2.200511678059895
 20
-3.9346435546875
 30
0.0
 10
-2.442529635959201
 20
-3.736550564236111
 30
0.0
 10
-2.684547593858507
 20
-3.538629828559027
 30
0.0
 10
-3.432477823893229
 20
-2.856673177083333
 30
0.0
 10
-3.56459723578559
 20
-2.614655219184027
 30
0.0
 10
-3.67466803656684
 20
-2.614655219184027
 30
0.0
 10
-4.95055914984809
 20
-2.614655219184027
 30
0.0
 10
-4.95055914984809
 20
-2.614655219184027
 30
0.0
 10
-4.95055914984809
 20
-2.614655219184027
 30
0.0
 10
-5.126603529188367
 20
-3.604603407118055
 30
0.0
 10
-5.30247565375434
 20
-3.758599175347222
 30
0.0
 10
-5.478520033094617
 20
-3.912594943576389
 30
0.0
 10
-5.610467190212673
 20
-3.956692165798611
 30
0.0
 10
-5.852485148111978
 20
-3.714674207899305
 30
0.0
 10
-6.094503106011284
 20
-3.47265625
 30
0.0
 10
-6.776632012261284
 20
-2.702677408854167
 30
0.0
 10
-6.842605590820312
 20
-2.614655219184027
 30
0.0
 10
-6.996601359049478
 20
-2.614655219184027
 30
0.0
 10
-7.656509399414062
 20
-2.680628797743055
 30
0.0
 10
-7.94262457953559
 20
-2.988620334201388
 30
0.0
 10
-8.228567504882811
 20
-3.296611870659722
 30
0.0
 10
-8.558607652452256
 20
-3.648528374565972
 30
0.0
 10
-8.558607652452256
 20
-3.648528374565972
 30
0.0
 10
-8.558607652452256
 20
-3.648528374565972
 30
0.0
 10
-74.218165757921
 20
-3.428559027777777
 30
0.0
 10
-74.218165757921
 20
-3.428559027777777
 30
0.0
 10
-74.218165757921
 20
-3.428559027777777
 30
0.0
 10
-75.12026401095919
 20
-3.406682671440972
 30
0.0
 10
-75.12026401095919
 20
-3.978568522135416
 30
0.0
 10
-75.12026401095919
 20
-4.550626627604166
 30
0.0
 10
-75.09821539984809
 20
-6.024610731336805
 30
0.0
 10
-75.09821539984809
 20
-6.816638183593749
 30
0.0
 10
-75.09821539984809
 20
-7.322550455729166
 30
0.0
 10
-76.46221483018663
 20
-7.454669867621528
 30
0.0
 10
-76.46221483018663
 20
-6.816638183593749
 30
0.0
 10
-76.46221483018663
 20
-6.420624457465277
 30
0.0
 10
-76.48426344129774
 20
-6.002562120225694
 30
0.0
 10
-76.48426344129774
 20
-6.002562120225694
 30
0.0
 10
-76.48426344129774
 20
-6.002562120225694
 30
0.0
 10
-79.80619676378038
 20
-6.002562120225694
 30
0.0
 10
-79.80619676378038
 20
-6.002562120225694
 30
0.0
 10
-79.80619676378038
 20
-6.002562120225694
 30
0.0
 10
-80.73017137315537
 20
-4.946640353732638
 30
0.0
 10
-80.73017137315537
 20
-4.946640353732638
 30
0.0
 10
-80.73017137315537
 20
-4.946640353732638
 30
0.0
 10
-80.73017137315537
 20
4.953358289930555
 30
0.0
 10
-80.73017137315537
 20
4.953358289930555
 30
0.0
 10
-80.73017137315537
 20
4.953358289930555
 30
0.0
 10
-79.76218566894531
 20
5.877332899305555
 30
0.0
 10
-79.76218566894531
 20
5.877332899305555
 30
0.0
 10
-79.76218566894531
 20
5.877332899305555
 30
0.0
 10
-76.46221483018663
 20
5.877332899305555
 30
0.0
 10
-76.46221483018663
 20
5.877332899305555
 30
0.0
 10
-76.46221483018663
 20
5.877332899305555
 30
0.0
 10
-76.46221483018663
 20
6.361541069878472
 30
0.0
 10
-76.46221483018663
 20
6.713457573784722
 30
0.0
 10
-76.46221483018663
 20
7.329440646701388
 30
0.0
 10
-75.09821539984809
 20
7.505485026041666
 30
0.0
 10
-75.09821539984809
 20
6.757382541232638
 30
0.0
 10
-75.09821539984809
 20
6.009452311197916
 30
0.0
 10
-75.09821539984809
 20
3.8974365234375
 30
0.0
 10
-75.09821539984809
 20
3.8974365234375
 30
0.0
 10
-75.09821539984809
 20
3.8974365234375
 30
0.0
 10
-74.74629889594183
 20
3.413400607638889
 30
0.0
 10
-74.17424079047308
 20
3.413400607638889
 30
0.0
 10
-73.60218268500434
 20
3.413400607638889
 30
0.0
 10
-9.658454386393228
 20
3.281453450520833
 30
0.0
 10
-8.998546346028645
 20
3.281453450520833
 30
0.0
 10
-8.338466050889757
 20
3.281453450520833
 30
0.0
 10
-7.590535820855034
 20
2.665470377604167
 30
0.0
 10
-7.150597127278645
 20
2.093412272135417
 30
0.0
 10
-7.018477715386284
 20
2.093412272135417
 30
0.0
 10
-6.094503106011284
 20
2.093412272135417
 30
0.0
 10
-6.094503106011284
 20
2.093412272135417
 30
0.0
 10
-6.094503106011284
 20
2.093412272135417
 30
0.0
 10
-5.962555948893229
 20
2.797417534722222
 30
0.0
 10
-5.786511569552951
 20
3.061484103732639
 30
0.0
 10
-5.610467190212673
 20
3.32537841796875
 30
0.0
 10
-5.52261725531684
 20
3.589444986979166
 30
0.0
 10
-5.170528496636284
 20
3.237356228298611
 30
0.0
 10
-4.818611992730034
 20
2.885439724392361
 30
0.0
 10
-4.114606730143229
 20
2.40140380859375
 30
0.0
 10
-3.982487318250868
 20
2.093412272135417
 30
0.0
 10
-3.410601467556423
 20
2.093412272135417
 30
0.0
 10
-2.794618394639757
 20
2.181434461805555
 30
0.0
 10
-2.794618394639757
 20
2.181434461805555
 30
0.0
 10
-2.794618394639757
 20
2.181434461805555
 30
0.0
 10
-2.596525404188368
 20
2.841342502170139
 30
0.0
 10
-2.42048102484809
 20
3.105409071180555
 30
0.0
 10
-2.247364976671007
 20
3.363963487413194
 30
0.0
 10
-2.134538099500868
 20
3.43544921875
 30
0.0
 10
-1.870643785264757
 20
3.215479871961805
 30
0.0
 10
-1.60657721625434
 20
2.995510525173611
 30
0.0
 10
-0.858646986219618
 20
2.357478841145833
 30
0.0
 10
-0.638505384657118
 20
2.0494873046875
 30
0.0
 10
-0.2424916585286458
 20
2.0494873046875
 30
0.0
 10
0.4615136040581597
 20
2.0494873046875
 30
0.0
 10
0.4615136040581597
 20
2.0494873046875
 30
0.0
 10
0.4615136040581597
 20
2.0494873046875
 30
0.0
 10
0.6373857286241319
 20
2.665470377604167
 30
0.0
 10
0.8134301079644096
 20
2.9734619140625
 30
0.0
 10
0.9894744873046875
 20
3.281453450520833
 30
0.0
 10
1.121421644422743
 20
3.545347764756944
 30
0.0
 10
1.517435370551215
 20
3.149506293402777
 30
0.0
 10
1.913449096679687
 20
2.753492567274305
 30
0.0
 10
2.30946282280816
 20
2.577448187934027
 30
0.0
 10
2.617454359266493
 20
2.0494873046875
 30
0.0
 10
2.925445895724826
 20
2.0494873046875
 30
0.0
 10
3.58535393608941
 20
2.115460883246528
 30
0.0
 10
3.58535393608941
 20
2.115460883246528
 30
0.0
 10
3.58535393608941
 20
2.115460883246528
 30
0.0
 10
3.871469116210937
 20
2.621373155381944
 30
0.0
 10
4.047513495551215
 20
2.9734619140625
 30
0.0
 10
4.223385620117187
 20
3.32537841796875
 30
0.0
 10
4.333456420898437
 20
3.413400607638889
 30
0.0
 10
4.685372924804687
 20
3.149506293402777
 30
0.0
 10
5.037461683485243
 20
2.885439724392361
 30
0.0
 10
5.785391913519965
 20
2.40140380859375
 30
0.0
 10
6.005361260308159
 20
2.0494873046875
 30
0.0
 10
6.401374986436632
 20
2.0494873046875
 30
0.0
 10
7.06145528157552
 20
2.0494873046875
 30
0.0
 10
7.06145528157552
 20
2.0494873046875
 30
0.0
 10
7.06145528157552
 20
2.0494873046875
 30
0.0
 10
7.193402438693576
 20
2.665470377604167
 30
0.0
 10
7.41337178548177
 20
3.017386881510416
 30
0.0
 10
7.633341132269965
 20
3.369475640190972
 30
0.0
 10
7.721363321940103
 20
3.369475640190972
 30
0.0
 10
7.98542989095052
 20
3.149506293402777
 30
0.0
 10
8.370419311523436
 20
2.827734375
 30
0.0
 10
8.865479532877604
 20
2.40140380859375
 30
0.0
 10
9.129373847113714
 20
2.0494873046875
 30
0.0
 10
9.305418226453993
 20
2.0494873046875
 30
0.0
 10
10.40543721516927
 20
2.0494873046875
 30
0.0
 10
10.40543721516927
 20
2.0494873046875
 30
0.0
 10
10.40543721516927
 20
2.0494873046875
 30
0.0
 10
10.62540656195746
 20
2.753492567274305
 30
0.0
 10
10.80145094129774
 20
3.017386881510416
 30
0.0
 10
10.97732306586372
 20
3.281453450520833
 30
0.0
 10
11.08739386664496
 20
3.391351996527777
 30
0.0
 10
11.28531460232205
 20
3.237356228298611
 30
0.0
 10
11.48340759277344
 20
3.083360460069444
 30
0.0
 10
12.40738220214844
 20
2.313381618923611
 30
0.0
 10
12.69332512749566
 20
2.0494873046875
 30
0.0
 10
12.91346672905816
 20
2.0494873046875
 30
0.0
 10
13.41937900119357
 20
2.0494873046875
 30
0.0
 10
13.41937900119357
 20
2.0494873046875
 30
0.0
 10
13.41937900119357
 20
2.0494873046875
 30
0.0
 10
13.50740119086371
 20
2.643421766493055
 30
0.0
 10
13.68344557020399
 20
2.907488335503472
 30
0.0
 10
13.85931769476996
 20
3.171382649739583
 30
0.0
 10
13.99143710666233
 20
3.501422797309028
 30
0.0
 10
14.25533142089844
 20
3.281453450520833
 30
0.0
 10
14.51939798990885
 20
3.061484103732639
 30
0.0
 10
15.46542121039497
 20
2.269456651475694
 30
0.0
 10
15.64129333496094
 20
2.027438693576389
 30
0.0
 10
15.7734127468533
 20
2.027438693576389
 30
0.0
 10
16.65329013400607
 20
2.027438693576389
 30
0.0
 10
16.65329013400607
 20
2.027438693576389
 30
0.0
 10
16.65329013400607
 20
2.027438693576389
 30
0.0
 10
16.85138312445746
 20
2.775368923611111
 30
0.0
 10
16.98333028157552
 20
2.995510525173611
 30
0.0
 10
17.11527743869358
 20
3.215479871961805
 30
0.0
 10
17.24739685058594
 20
3.479374186197916
 30
0.0
 10
17.53333977593316
 20
3.259404839409722
 30
0.0
 10
17.81928270128038
 20
3.039435492621528
 30
0.0
 10
18.58943379720052
 20
2.40140380859375
 30
0.0
 10
18.85332811143663
 20
2.027438693576389
 30
0.0
 10
18.96339891221788
 20
2.027438693576389
 30
0.0
 10
19.9312984890408
 20
2.027438693576389
 30
0.0
 10
19.9312984890408
 20
2.027438693576389
 30
0.0
 10
19.9312984890408
 20
2.027438693576389
 30
0.0
 10
20.10734286838108
 20
2.731443956163194
 30
0.0
 10
20.28338724772135
 20
2.951413302951389
 30
0.0
 10
20.45943162706163
 20
3.171382649739583
 30
0.0
 10
20.52540520562066
 20
3.347427029079861
 30
0.0
 10
20.76742316351997
 20
3.171382649739583
 30
0.0
 10
21.00944112141927
 20
2.995510525173611
 30
0.0
 10
21.84539354112413
 20
2.335430230034722
 30
0.0
 10
22.08741149902344
 20
2.0494873046875
 30
0.0
 10
22.28533223470052
 20
2.0494873046875
 30
0.0
 10
23.1653818766276
 20
2.0494873046875
 30
0.0
 10
23.1653818766276
 20
2.0494873046875
 30
0.0
 10
23.1653818766276
 20
2.0494873046875
 30
0.0
 10
23.31937764485677
 20
2.621373155381944
 30
0.0
 10
23.49542202419705
 20
2.885439724392361
 30
0.0
 10
23.67129414876302
 20
3.149506293402777
 30
0.0
 10
23.75931633843316
 20
3.43544921875
 30
0.0
 10
24.0893564860026
 20
3.193431260850694
 30
0.0
 10
24.41939663357205
 20
2.951413302951389
 30
0.0
 10
25.27739766438802
 20
2.203483072916666
 30
0.0
 10
25.43139343261719
 20
2.027438693576389
 30
0.0
 10
25.60726555718316
 20
2.027438693576389
 30
0.0
 10
26.42134162055121
 20
2.027438693576389
 30
0.0
 10
26.42134162055121
 20
2.027438693576389
 30
0.0
 10
26.42134162055121
 20
2.027438693576389
 30
0.0
 10
26.57533738878038
 20
2.731443956163194
 30
0.0
 10
26.72933315700955
 20
2.951413302951389
 30
0.0
 10
26.88332892523871
 20
3.171382649739583
 30
0.0
 10
26.99322747124566
 20
3.369475640190972
 30
0.0
 10
27.3013912624783
 20
3.149506293402777
 30
0.0
 10
27.60938279893663
 20
2.929364691840278
 30
0.0
 10
28.44533521864149
 20
2.291505262586806
 30
0.0
 10
28.62137959798177
 20
2.0494873046875
 30
0.0
 10
28.75332675509982
 20
2.0494873046875
 30
0.0
 10
29.43528340657552
 20
2.0494873046875
 30
0.0
 10
29.43528340657552
 20
2.0494873046875
 30
0.0
 10
29.43528340657552
 20
2.0494873046875
 30
0.0
 10
29.74327494303385
 20
2.731443956163194
 30
0.0
 10
29.98529290093316
 20
2.9734619140625
 30
0.0
 10
30.15306905110677
 20
3.141238064236111
 30
0.0
 10
30.27123582628038
 20
3.281453450520833
 30
0.0
 10
30.51325378417969
 20
3.105409071180555
 30
0.0
 10
30.75527174207899
 20
2.929364691840278
 30
0.0
 10
31.4592770046658
 20
2.423452419704861
 30
0.0
 10
31.72334357367621
 20
2.247408040364583
 30
0.0
 10
31.98723788791232
 20
2.071363661024305
 30
0.0
 10
32.58134460449219
 20
2.071363661024305
 30
0.0
 10
32.80131395128038
 20
2.357478841145833
 30
0.0
  0
LINE
  5
24F
330
140
100
AcDbEntity
  8
LAYER_1
 62
     7
100
AcDbLine
 10
-5.390497843424479
 20
-1.844676378038194
 30
0.0
 11
-3.982487318250868
 21
-1.756654188368055
 31
0.0
  0
LINE
  5
24E
330
140
100
AcDbEntity
  8
LAYER_1
 62
     7
100
AcDbLine
 10
-6.820556979709201
 20
1.301384819878472
 30
0.0
 11
-5.236502075195312
 21
1.323433430989583
 31
0.0
  0
LINE
  5
24D
330
140
100
AcDbEntity
  8
LAYER_1
 62
     7
100
AcDbLine
 10
-6.710486178927951
 20
0.9053710937499999
 30
0.0
 11
-5.038581339518228
 21
0.927419704861111
 31
0.0
  0
LINE
  5
24C
330
140
100
AcDbEntity
  8
LAYER_1
 62
     7
100
AcDbLine
 10
-3.586473592122395
 20
1.257459852430555
 30
0.0
 11
-2.002590942382812
 21
1.279508463541667
 31
0.0
  0
LINE
  5
24B
330
140
100
AcDbEntity
  8
LAYER_1
 62
     7
100
AcDbLine
 10
-3.410601467556423
 20
0.8614461263020833
 30
0.0
 11
-1.782621595594618
 21
0.8833224826388888
 31
0.0
  0
LINE
  5
24A
330
140
100
AcDbEntity
  8
LAYER_1
 62
     7
100
AcDbLine
 10
-2.156586710611979
 20
-1.822627766927083
 30
0.0
 11
-0.6166290283203124
 21
-1.822627766927083
 31
0.0
  0
LINE
  5
249
330
140
100
AcDbEntity
  8
LAYER_1
 62
     7
100
AcDbLine
 10
-0.286588880750868
 20
1.235411241319444
 30
0.0
 11
1.363439602322049
 21
1.257459852430555
 31
0.0
  0
LINE
  5
248
330
140
100
AcDbEntity
  8
LAYER_1
 62
     7
100
AcDbLine
 10
-0.1105445014105903
 20
0.8393975151909722
 30
0.0
 11
1.495386759440104
 21
0.8614461263020833
 31
0.0
  0
SPLINE
  5
247
330
140
100
AcDbEntity
  8
LAYER_1
 62
     7
100
AcDbSpline
210
0.0
220
0.0
230
1.0
 70
     8
 71
     3
 72
     8
 73
     4
 74
     0
 42
0.0000000001
 43
0.0000000001
 40
0.0
 40
0.0
 40
0.0
 40
0.0
 40
1.0
 40
1.0
 40
1.0
 40
1.0
 10
1.979422675238715
 20
-0.1946478949652778
 30
0.0
 10
1.781329684787326
 20
0.3334852430555556
 30
0.0
 10
1.253368801540798
 20
1.93941650390625
 30
0.0
 10
0.5054385715060763
 20
2.0494873046875
 30
0.0
  0
SPLINE
  5
246
330
140
100
AcDbEntity
  8
LAYER_1
 62
     7
100
AcDbSpline
210
0.0
220
0.0
230
1.0
 70
     8
 71
     3
 72
     8
 73
     4
 74
     0
 42
0.0000000001
 43
0.0000000001
 40
0.0
 40
0.0
 40
0.0
 40
0.0
 40
1.0
 40
1.0
 40
1.0
 40
1.0
 10
2.991419474283854
 20
-2.614655219184027
 30
0.0
 10
2.913043551974826
 20
-2.446879069010417
 30
0.0
 10
2.702720472547743
 20
-1.983513726128472
 30
0.0
 10
2.43038567437066
 20
-1.322055392795139
 30
0.0
  0
LINE
  5
245
330
140
100
AcDbEntity
  8
LAYER_1
 62
     7
100
AcDbLine
 10
1.099373033311632
 20
-1.888601345486111
 30
0.0
 11
2.66137932671441
 21
-1.844676378038194
 31
0.0
  0
LINE
  5
244
330
140
100
AcDbEntity
  8
LAYER_1
 62
     7
100
AcDbLine
 10
4.355332777235243
 20
-1.910649956597222
 30
0.0
 11
5.983484903971354
 21
-1.910649956597222
 31
0.0
  0
LINE
  5
243
330
140
100
AcDbEntity
  8
LAYER_1
 62
     7
100
AcDbLine
 10
2.969370863172743
 20
1.235411241319444
 30
0.0
 11
4.707421535915798
 21
1.235411241319444
 31
0.0
  0
LINE
  5
242
330
140
100
AcDbEntity
  8
LAYER_1
 62
     7
100
AcDbLine
 10
3.123366631401909
 20
0.8393975151909722
 30
0.0
 11
4.883465915256076
 21
0.8614461263020833
 31
0.0
  0
LINE
  5
241
330
140
100
AcDbEntity
  8
LAYER_1
 62
     7
100
AcDbLine
 10
6.401374986436632
 20
1.279508463541667
 30
0.0
 11
7.831434122721354
 21
1.301384819878472
 31
0.0
  0
LINE
  5
240
330
140
100
AcDbEntity
  8
LAYER_1
 62
     7
100
AcDbLine
 10
6.555370754665798
 20
0.927419704861111
 30
0.0
 11
7.98542989095052
 21
0.9494683159722221
 31
0.0
  0
LINE
  5
23F
330
140
100
AcDbEntity
  8
LAYER_1
 62
     7
100
AcDbLine
 10
7.677438354492187
 20
-1.800579155815972
 30
0.0
 11
9.129373847113714
 21
-1.800579155815972
 31
0.0
  0
LINE
  5
23E
330
140
100
AcDbEntity
  8
LAYER_1
 62
     7
100
AcDbLine
 10
9.547436184353298
 20
1.257459852430555
 30
0.0
 11
11.13131883409288
 21
1.279508463541667
 31
0.0
  0
LINE
  5
23D
330
140
100
AcDbEntity
  8
LAYER_1
 62
     7
100
AcDbLine
 10
9.72330830891927
 20
0.8833224826388888
 30
0.0
 11
11.26343824598524
 21
0.9053710937499999
 31
0.0
  0
LINE
  5
23C
330
140
100
AcDbEntity
  8
LAYER_1
 62
     7
100
AcDbLine
 10
10.88947313096788
 20
-1.844676378038194
 30
0.0
 11
12.38533359103733
 21
-1.822627766927083
 31
0.0
  0
LINE
  5
23B
330
140
100
AcDbEntity
  8
LAYER_1
 62
     7
100
AcDbLine
 10
12.84732089572483
 20
1.257459852430555
 30
0.0
 11
14.25533142089844
 21
1.257459852430555
 31
0.0
  0
LINE
  5
23A
330
140
100
AcDbEntity
  8
LAYER_1
 62
     7
100
AcDbLine
 10
12.97926805284288
 20
0.927419704861111
 30
0.0
 11
14.47530076768663
 21
0.9494683159722221
 31
0.0
  0
LINE
  5
239
330
140
100
AcDbEntity
  8
LAYER_1
 62
     7
100
AcDbLine
 10
14.27738003200955
 20
-1.866552734375
 30
0.0
 11
15.53139478895399
 21
-1.844676378038194
 31
0.0
  0
LINE
  5
238
330
140
100
AcDbEntity
  8
LAYER_1
 62
     7
100
AcDbLine
 10
17.4013926188151
 20
-1.888601345486111
 30
0.0
 11
18.76530592176649
 21
-1.866552734375
 31
0.0
  0
LINE
  5
237
330
140
100
AcDbEntity
  8
LAYER_1
 62
     7
100
AcDbLine
 10
16.16942647298177
 20
0.8833224826388888
 30
0.0
 11
17.64341057671441
 21
0.9053710937499999
 31
0.0
  0
LINE
  5
236
330
140
100
AcDbEntity
  8
LAYER_1
 62
     7
100
AcDbLine
 10
16.0154307047526
 20
1.257459852430555
 30
0.0
 11
17.44531758626302
 21
1.257459852430555
 31
0.0
  0
LINE
  5
235
330
140
100
AcDbEntity
  8
LAYER_1
 62
     7
100
AcDbLine
 10
19.2493418375651
 20
1.235411241319444
 30
0.0
 11
20.72332594129774
 21
1.257459852430555
 31
0.0
  0
LINE
  5
234
330
140
100
AcDbEntity
  8
LAYER_1
 62
     7
100
AcDbLine
 10
19.40333760579427
 20
0.8393975151909722
 30
0.0
 11
20.92124667697483
 21
0.8614461263020833
 31
0.0
  0
LINE
  5
233
330
140
100
AcDbEntity
  8
LAYER_1
 62
     7
100
AcDbLine
 10
20.48130798339843
 20
-1.844676378038194
 30
0.0
 11
21.9993893093533
 21
-1.866552734375
 31
0.0
  0
LINE
  5
232
330
140
100
AcDbEntity
  8
LAYER_1
 62
     7
100
AcDbLine
 10
22.50530158148871
 20
1.169437662760417
 30
0.0
 11
24.02338290744357
 21
1.191486273871528
 31
0.0
  0
LINE
  5
231
330
140
100
AcDbEntity
  8
LAYER_1
 62
     7
100
AcDbLine
 10
22.63724873860677
 20
0.8173489040798611
 30
0.0
 11
24.19925503200955
 21
0.8614461263020833
 31
0.0
  0
LINE
  5
230
330
140
100
AcDbEntity
  8
LAYER_1
 62
     7
100
AcDbLine
 10
23.78136494954427
 20
-1.888601345486111
 30
0.0
 11
25.25534905327691
 21
-1.866552734375
 31
0.0
  0
LINE
  5
22F
330
140
100
AcDbEntity
  8
LAYER_1
 62
     7
100
AcDbLine
 10
29.03926968044705
 20
1.1255126953125
 30
0.0
 11
30.5353023952908
 21
1.147389051649306
 31
0.0
  0
LINE
  5
22E
330
140
100
AcDbEntity
  8
LAYER_1
 62
     7
100
AcDbLine
 10
29.21531405978733
 20
0.7734239366319444
 30
0.0
 11
30.73322313096788
 21
0.7954725477430555
 31
0.0
  0
LINE
  5
22D
330
140
100
AcDbEntity
  8
LAYER_1
 62
     7
100
AcDbLine
 10
25.73921271430121
 20
1.191486273871528
 30
0.0
 11
27.34531622992621
 21
1.213362630208333
 31
0.0
  0
LINE
  5
22C
330
140
100
AcDbEntity
  8
LAYER_1
 62
     7
100
AcDbLine
 10
25.91525709364149
 20
0.7954725477430555
 30
0.0
 11
27.5434092203776
 21
0.8173489040798611
 31
0.0
  0
LINE
  5
22B
330
140
100
AcDbEntity
  8
LAYER_1
 62
     7
100
AcDbLine
 10
27.03732469346788
 20
-1.97662353515625
 30
0.0
 11
28.64325595431857
 21
-1.954574924045139
 31
0.0
  0
LINE
  5
22A
330
140
100
AcDbEntity
  8
LAYER_1
 62
     7
100
AcDbLine
 10
32.33932664659288
 20
1.081415473090278
 30
0.0
 11
33.85723571777344
 21
0.927419704861111
 31
0.0
  0
LINE
  5
229
330
140
100
AcDbEntity
  8
LAYER_1
 62
     7
100
AcDbLine
 10
32.51537102593316
 20
0.6633531358506943
 30
0.0
 11
33.9893551296658
 21
0.55345458984375
 31
0.0
  0
LINE
  5
228
330
140
100
AcDbEntity
  8
LAYER_1
 62
     7
100
AcDbLine
 10
33.59334140353732
 20
-1.866552734375
 30
0.0
 11
34.9352060953776
 21
-1.756654188368055
 31
0.0
  0
SPLINE
  5
227
330
140
100
AcDbEntity
  8
LAYER_1
 62
     7
100
AcDbSpline
210
0.0
220
0.0
230
1.0
 70
     8
 71
     3
 72
    11
 73
     7
 74
     0
 42
0.0000000001
 43
0.0000000001
 40
0.0
 40
0.0
 40
0.0
 40
0.0
 40
1.0
 40
1.0
 40
1.0
 40
2.0
 40
2.0
 40
2.0
 40
2.0
 10
-79.48313293457031
 20
2.116838921440972
 30
0.0
 10
-79.48313293457031
 20
2.116838921440972
 30
0.0
 10
-79.07333882649739
 20
2.714907497829861
 30
0.0
 10
-78.79419996473524
 20
2.951413302951389
 30
0.0
 10
-79.71826070149739
 20
3.699343532986111
 30
0.0
 10
-80.35620625813802
 20
4.007335069444444
 30
0.0
 10
-80.13623691134983
 20
5.459442816840277
 30
0.0
  0
SPLINE
  5
226
330
140
100
AcDbEntity
  8
LAYER_1
 62
     7
100
AcDbSpline
210
0.0
220
0.0
230
1.0
 70
     8
 71
     3
 72
    11
 73
     7
 74
     0
 42
0.0000000001
 43
0.0000000001
 40
0.0
 40
0.0
 40
0.0
 40
0.0
 40
1.0
 40
1.0
 40
1.0
 40
2.0
 40
2.0
 40
2.0
 40
2.0
 10
-80.09222581651476
 20
-4.638648817274305
 30
0.0
 10
-80.13623691134983
 20
-4.220586480034722
 30
0.0
 10
-80.20221048990885
 20
-3.47265625
 30
0.0
 10
-79.12424011230468
 20
-2.922646755642361
 30
0.0
 10
-79.61094597710503
 20
-2.112704806857639
 30
0.0
 10
-79.88319464789495
 20
-1.504989963107639
 30
0.0
 10
-79.99180128309462
 20
-0.8285454644097221
 30
0.0
  0
SPLINE
  5
225
330
140
100
AcDbEntity
  8
LAYER_1
 62
     7
100
AcDbSpline
210
0.0
220
0.0
230
1.0
 70
     8
 71
     3
 72
    11
 73
     7
 74
     0
 42
0.0000000001
 43
0.0000000001
 40
0.0
 40
0.0
 40
0.0
 40
0.0
 40
1.0
 40
1.0
 40
1.0
 40
2.0
 40
2.0
 40
2.0
 40
2.0
 10
-80.04683668348524
 20
-0.3293511284722222
 30
0.0
 10
-80.04683668348524
 20
-0.3293511284722222
 30
0.0
 10
-80.04821472167969
 20
-0.1698432074652778
 30
0.0
 10
-80.04821472167969
 20
-0.0625284830729167
 30
0.0
 10
-80.04821472167969
 20
0.1629530164930556
 30
0.0
 10
-80.10178595648871
 20
0.4888590494791666
 30
0.0
 10
-80.02341003417968
 20
0.7982286241319444
 30
0.0
  0
LINE
  5
224
330
140
100
AcDbEntity
  8
LAYER_1
 62
     7
100
AcDbLine
 10
-79.10219150119357
 20
-2.90059814453125
 30
0.0
 11
-76.52827453613281
 21
-2.90059814453125
 31
0.0
  0
LINE
  5
223
330
140
100
AcDbEntity
  8
LAYER_1
 62
     7
100
AcDbLine
 10
-78.81624857584635
 20
2.951413302951389
 30
0.0
 11
-76.41820373535155
 21
2.951413302951389
 31
0.0
  0
LINE
  5
222
330
140
100
AcDbEntity
  8
LAYER_1
 62
     7
100
AcDbLine
 10
-76.46221483018663
 20
5.877332899305555
 30
0.0
 11
-76.46221483018663
 21
-6.024610731336805
 31
0.0
  0
LINE
  5
221
330
140
100
AcDbEntity
  8
LAYER_1
 62
     7
100
AcDbLine
 10
-75.09821539984809
 20
3.875387912326389
 30
0.0
 11
-75.09821539984809
 21
-3.868669976128472
 31
0.0
  0
SPLINE
  5
220
330
140
100
AcDbEntity
  8
LAYER_1
 62
     7
100
AcDbSpline
210
0.0
220
0.0
230
1.0
 70
     8
 71
     3
 72
     8
 73
     4
 74
     0
 42
0.0000000001
 43
0.0000000001
 40
0.0
 40
0.0
 40
0.0
 40
0.0
 40
1.0
 40
1.0
 40
1.0
 40
1.0
 10
-76.46221483018663
 20
-3.626652018229166
 30
0.0
 10
-76.3962412516276
 20
-4.176661512586805
 30
0.0
 10
-75.51627773708766
 20
-4.242635091145833
 30
0.0
 10
-75.14231262207031
 20
-3.978568522135416
 30
0.0
  0
SPLINE
  5
21F
330
140
100
AcDbEntity
  8
LAYER_1
 62
     7
100
AcDbSpline
210
0.0
220
0.0
230
1.0
 70
     8
 71
     3
 72
     8
 73
     4
 74
     0
 42
0.0000000001
 43
0.0000000001
 40
0.0
 40
0.0
 40
0.0
 40
0.0
 40
1.0
 40
1.0
 40
1.0
 40
1.0
 10
-76.46221483018663
 20
3.413400607638889
 30
0.0
 10
-76.28617045084634
 20
3.853339301215277
 30
0.0
 10
-75.45030415852864
 20
4.029383680555555
 30
0.0
 10
-75.09821539984809
 20
3.589444986979166
 30
0.0
  0
SPLINE
  5
21E
330
140
100
AcDbEntity
  8
LAYER_1
 62
     7
100
AcDbSpline
210
0.0
220
0.0
230
1.0
 70
     8
 71
     3
 72
     8
 73
     4
 74
     0
 42
0.0000000001
 43
0.0000000001
 40
0.0
 40
0.0
 40
0.0
 40
0.0
 40
1.0
 40
1.0
 40
1.0
 40
1.0
 10
-76.44025234646267
 20
4.315498860677083
 30
0.0
 10
-76.22019687228732
 20
4.777486165364583
 30
0.0
 10
-75.38433057996961
 20
4.799362521701388
 30
0.0
 10
-75.14231262207031
 20
4.491370985243055
 30
0.0
  0
SPLINE
  5
21D
330
140
100
AcDbEntity
  8
LAYER_1
 62
     7
100
AcDbSpline
210
0.0
220
0.0
230
1.0
 70
     8
 71
     3
 72
     8
 73
     4
 74
     0
 42
0.0000000001
 43
0.0000000001
 40
0.0
 40
0.0
 40
0.0
 40
0.0
 40
1.0
 40
1.0
 40
1.0
 40
1.0
 10
-76.46221483018663
 20
6.119523111979166
 30
0.0
 10
-76.35223015679253
 20
6.405466037326388
 30
0.0
 10
-75.31818474663628
 20
6.493315972222222
 30
0.0
 10
-75.12026401095919
 20
6.119523111979166
 30
0.0
  0
LWPOLYLINE
  5
218
330
140
100
AcDbEntity
  8
LAYER_1
 62
     7
100
AcDbPolyline
 90
        3
 70
     0
 43
0.0
 10
-7.238447062174479
 20
-2.658580186631944
 10
-8.184470282660589
 20
-2.43861083984375
 10
-75.09821539984809
 20
-2.306663682725694
  0
LINE
  5
217
330
140
100
AcDbEntity
  8
LAYER_1
 62
     7
100
AcDbLine
 10
-8.64645758734809
 20
2.511474609375
 30
0.0
 11
-15.57643941243489
 21
2.511474609375
 31
0.0
  0
LWPOLYLINE
  5
212
330
140
100
AcDbEntity
  8
LAYER_1
 62
     7
100
AcDbPolyline
 90
        3
 70
     0
 43
0.0
 10
-16.34659050835503
 20
3.281453450520833
 10
-15.62053663465712
 20
2.709395345052083
 10
-8.492461819118923
 20
2.709395345052083
  0
LWPOLYLINE
  5
20D
330
140
100
AcDbEntity
  8
LAYER_1
 62
     7
100
AcDbPolyline
 90
        3
 70
     0
 43
0.0
 10
-16.56655985514323
 20
-2.504584418402778
 10
-15.8184573703342
 20
-2.966571723090278
 10
-16.61048482259114
 20
-3.560678439670139
  0
LINE
  5
20C
330
140
100
AcDbEntity
  8
LAYER_1
 62
     7
100
AcDbLine
 10
-15.79640875922309
 20
-2.966571723090278
 30
0.0
 11
-8.118496704101561
 21
-3.054593912760416
 31
0.0
  0
LINE
  5
20B
330
140
100
AcDbEntity
  8
LAYER_1
 62
     7
100
AcDbLine
 10
-15.79640875922309
 20
-0.9646267361111111
 30
0.0
 11
-8.6685061984592
 21
-1.096573893229167
 31
0.0
  0
LINE
  5
20A
330
140
100
AcDbEntity
  8
LAYER_1
 62
     7
100
AcDbLine
 10
-16.36846686469184
 20
-1.536684841579861
 30
0.0
 11
-13.9705081515842
 21
-1.536684841579861
 31
0.0
  0
LINE
  5
209
330
140
100
AcDbEntity
  8
LAYER_1
 62
     7
100
AcDbLine
 10
-16.43444044325087
 20
-0.1066257052951389
 30
0.0
 11
-10.12181972927517
 21
-0.1066257052951389
 31
0.0
  0
LINE
  5
208
330
140
100
AcDbEntity
  8
LAYER_1
 62
     7
100
AcDbLine
 10
-9.439863077799478
 20
-0.1066257052951389
 30
0.0
 11
-9.042471313476561
 21
-0.1066257052951389
 31
0.0
  0
LINE
  5
207
330
140
100
AcDbEntity
  8
LAYER_1
 62
     7
100
AcDbLine
 10
-15.97245313856337
 20
0.5314059787326388
 30
0.0
 11
-8.492461819118923
 21
0.3774102105034722
 31
0.0
  0
LINE
  5
206
330
140
100
AcDbEntity
  8
LAYER_1
 62
     7
100
AcDbLine
 10
-75.07616678873697
 20
1.034906684027778
 30
0.0
 11
-16.41256408691406
 21
1.037490505642361
 31
0.0
  0
SPLINE
  5
205
330
140
100
AcDbEntity
  8
LAYER_1
 62
     7
100
AcDbSpline
210
0.0
220
0.0
230
1.0
 70
     8
 71
     3
 72
    11
 73
     7
 74
     0
 42
0.0000000001
 43
0.0000000001
 40
0.0
 40
0.0
 40
0.0
 40
0.0
 40
1.0
 40
1.0
 40
1.0
 40
2.0
 40
2.0
 40
2.0
 40
2.0
 10
-16.39051547580295
 20
1.194931369357639
 30
0.0
 10
-16.39051547580295
 20
1.194931369357639
 30
0.0
 10
-74.59230312771267
 20
1.194931369357639
 30
0.0
 10
-74.59230312771267
 20
1.194931369357639
 30
0.0
 10
-74.59230312771267
 20
1.194931369357639
 30
0.0
 10
-75.05429043240017
 20
1.239028591579861
 30
0.0
 10
-75.05429043240017
 20
1.503095160590278
 30
0.0
  0
SPLINE
  5
204
330
140
100
AcDbEntity
  8
LAYER_1
 62
     7
100
AcDbSpline
210
0.0
220
0.0
230
1.0
 70
     8
 71
     3
 72
    11
 73
     7
 74
     0
 42
0.0000000001
 43
0.0000000001
 40
0.0
 40
0.0
 40
0.0
 40
0.0
 40
1.0
 40
1.0
 40
1.0
 40
2.0
 40
2.0
 40
2.0
 40
2.0
 10
-75.07616678873697
 20
2.313381618923611
 30
0.0
 10
-75.01019321017795
 20
2.137509494357639
 30
0.0
 10
-74.85619744194878
 20
1.895491536458333
 30
0.0
 10
-74.41625874837239
 20
1.917367892795139
 30
0.0
 10
-73.97632005479601
 20
1.93941650390625
 30
0.0
 10
-15.90647956000434
 20
1.829345703125
 30
0.0
 10
-15.90647956000434
 20
1.829345703125
 30
0.0
  0
LINE
  5
203
330
140
100
AcDbEntity
  8
LAYER_1
 62
     7
100
AcDbLine
 10
-16.21447109646267
 20
1.301384819878472
 30
0.0
 11
-7.766580200195312
 21
1.191486273871528
 31
0.0
  0
LINE
  5
202
330
140
100
AcDbEntity
  8
LAYER_1
 62
     7
100
AcDbLine
 10
-15.79640875922309
 20
1.763372124565972
 30
0.0
 11
-8.536559041341144
 21
1.631424967447916
 31
0.0
  0
LINE
  5
201
330
140
100
AcDbEntity
  8
LAYER_1
 62
     7
100
AcDbLine
 10
-15.84050598144531
 20
1.917367892795139
 30
0.0
 11
-8.250616115993923
 21
1.829345703125
 31
0.0
  0
LWPOLYLINE
  5
1EB
330
140
100
AcDbEntity
  8
LAYER_1
 62
     7
100
AcDbPolyline
 90
       20
 70
     0
 43
0.0
 10
-8.206518893771701
 20
2.951413302951389
 10
-8.64645758734809
 20
2.489425998263889
 10
-7.788456556532117
 20
2.027438693576389
 10
-8.492461819118923
 20
1.653473578559028
 10
-7.656509399414062
 20
1.169437662760417
 10
-8.448536851671006
 20
0.3994588216145833
 10
-7.656509399414062
 20
-0.2606214735243055
 10
-8.602532619900172
 20
-1.096573893229167
 10
-7.634460788302951
 20
-1.668631998697917
 10
-8.316589694552951
 20
-2.394685872395833
 10
-16.43444044325087
 20
-2.350588650173611
 10
-15.86255459255642
 20
-2.130619303385417
 10
-16.5004140218099
 20
-1.426614040798611
 10
-15.8184573703342
 20
-0.9646267361111111
 10
-16.47853766547309
 20
-0.1285020616319444
 10
-15.95057678222656
 20
0.5314059787326388
 10
-16.47853766547309
 20
1.147389051649306
 10
-15.79640875922309
 20
1.873442925347222
 10
-16.41256408691406
 20
2.115460883246528
 10
-15.66446160210503
 20
2.687518988715278
  0
SPLINE
  5
1EA
330
140
100
AcDbEntity
  8
LAYER_1
 62
     7
100
AcDbSpline
210
0.0
220
0.0
230
1.0
 70
     8
 71
     3
 72
    11
 73
     7
 74
     0
 42
0.0000000001
 43
0.0000000001
 40
0.0
 40
0.0
 40
0.0
 40
0.0
 40
1.0
 40
1.0
 40
1.0
 40
2.0
 40
2.0
 40
2.0
 40
2.0
 10
-5.940507337782117
 20
-3.582554796006944
 30
0.0
 10
-6.380446031358506
 20
-3.076642523871528
 30
0.0
 10
-6.79850836859809
 20
-0.9865030924479166
 30
0.0
 10
-6.974552747938367
 20
-0.1066257052951389
 30
0.0
 10
-7.150597127278645
 20
0.7734239366319444
 30
0.0
 10
-7.546610853407118
 20
1.719447157118055
 30
0.0
 10
-7.766580200195312
 20
2.225359429253472
 30
0.0
  0
SPLINE
  5
1E9
330
140
100
AcDbEntity
  8
LAYER_1
 62
     7
100
AcDbSpline
210
0.0
220
0.0
230
1.0
 70
     8
 71
     3
 72
     8
 73
     4
 74
     0
 42
0.0000000001
 43
0.0000000001
 40
0.0
 40
0.0
 40
0.0
 40
0.0
 40
1.0
 40
1.0
 40
1.0
 40
1.0
 10
-4.95055914984809
 20
-2.592606608072916
 30
0.0
 10
-5.236502075195312
 20
-2.350588650173611
 30
0.0
 10
-5.500568644205729
 20
-1.734605577256944
 30
0.0
 10
-5.676613023546007
 20
-1.382516818576389
 30
0.0
  0
SPLINE
  5
1E8
330
140
100
AcDbEntity
  8
LAYER_1
 62
     7
100
AcDbSpline
210
0.0
220
0.0
230
1.0
 70
     8
 71
     3
 72
     8
 73
     4
 74
     0
 42
0.0000000001
 43
0.0000000001
 40
0.0
 40
0.0
 40
0.0
 40
0.0
 40
1.0
 40
1.0
 40
1.0
 40
1.0
 10
-6.053334214952256
 20
-0.5177978515624999
 30
0.0
 10
-6.053334214952256
 20
-0.5177978515624999
 30
0.0
 10
-6.977308824327256
 20
1.702910698784722
 30
0.0
 10
-7.172473483615451
 20
2.0494873046875
 30
0.0
  0
SPLINE
  5
1E7
330
140
100
AcDbEntity
  8
LAYER_1
 62
     7
100
AcDbSpline
210
0.0
220
0.0
230
1.0
 70
     8
 71
     3
 72
     8
 73
     4
 74
     0
 42
0.0000000001
 43
0.0000000001
 40
0.0
 40
0.0
 40
0.0
 40
0.0
 40
1.0
 40
1.0
 40
1.0
 40
1.0
 10
-6.094503106011284
 20
2.093412272135417
 30
0.0
 10
-5.30247565375434
 20
2.0494873046875
 30
0.0
 10
-4.642567613389756
 20
0.1353922526041667
 30
0.0
 10
-4.48857184516059
 20
-0.3045464409722222
 30
0.0
  0
SPLINE
  5
1E6
330
140
100
AcDbEntity
  8
LAYER_1
 62
     7
100
AcDbSpline
210
0.0
220
0.0
230
1.0
 70
     8
 71
     3
 72
     8
 73
     4
 74
     0
 42
0.0000000001
 43
0.0000000001
 40
0.0
 40
0.0
 40
0.0
 40
0.0
 40
1.0
 40
1.0
 40
1.0
 40
1.0
 10
-4.050011189778646
 20
-1.559939236111111
 30
0.0
 10
-4.050011189778646
 20
-1.559939236111111
 30
0.0
 10
-3.69792243109809
 20
-2.419318305121528
 30
0.0
 10
-3.542548624674479
 20
-2.614655219184027
 30
0.0
  0
SPLINE
  5
1E5
330
140
100
AcDbEntity
  8
LAYER_1
 62
     7
100
AcDbSpline
210
0.0
220
0.0
230
1.0
 70
     8
 71
     3
 72
    11
 73
     7
 74
     0
 42
0.0000000001
 43
0.0000000001
 40
0.0
 40
0.0
 40
0.0
 40
0.0
 40
1.0
 40
1.0
 40
1.0
 40
2.0
 40
2.0
 40
2.0
 40
2.0
 10
-2.574476793077257
 20
-3.582554796006944
 30
0.0
 10
-2.860591973198785
 20
-3.230638292100694
 30
0.0
 10
-3.652619425455729
 20
-1.030600314670139
 30
0.0
 10
-3.806615193684896
 20
-0.1505506727430555
 30
0.0
 10
-3.960610961914062
 20
0.7293267144097222
 30
0.0
 10
-4.444474622938368
 20
2.511474609375
 30
0.0
 10
-4.906634182400174
 20
2.951413302951389
 30
0.0
  0
SPLINE
  5
1E4
330
140
100
AcDbEntity
  8
LAYER_1
 62
     7
100
AcDbSpline
210
0.0
220
0.0
230
1.0
 70
     8
 71
     3
 72
     8
 73
     4
 74
     0
 42
0.0000000001
 43
0.0000000001
 40
0.0
 40
0.0
 40
0.0
 40
0.0
 40
1.0
 40
1.0
 40
1.0
 40
1.0
 10
-1.60657721625434
 20
-2.636531575520833
 30
0.0
 10
-1.745414564344618
 20
-2.560911729600694
 30
0.0
 10
-2.183975219726563
 20
-1.873442925347222
 30
0.0
 10
-2.541576131184895
 20
-1.211984592013889
 30
0.0
  0
SPLINE
  5
1E3
330
140
100
AcDbEntity
  8
LAYER_1
 62
     7
100
AcDbSpline
210
0.0
220
0.0
230
1.0
 70
     8
 71
     3
 72
     8
 73
     4
 74
     0
 42
0.0000000001
 43
0.0000000001
 40
0.0
 40
0.0
 40
0.0
 40
0.0
 40
1.0
 40
1.0
 40
1.0
 40
1.0
 10
-2.926565551757812
 20
-0.4146172417534722
 30
0.0
 10
-3.234557088216146
 20
0.3334852430555556
 30
0.0
 10
-3.762517971462673
 20
1.763372124565972
 30
0.0
 10
-4.004535929361979
 20
2.071363661024305
 30
0.0
  0
SPLINE
  5
1E2
330
140
100
AcDbEntity
  8
LAYER_1
 62
     7
100
AcDbSpline
210
0.0
220
0.0
230
1.0
 70
     8
 71
     3
 72
     8
 73
     4
 74
     0
 42
0.0000000001
 43
0.0000000001
 40
0.0
 40
0.0
 40
0.0
 40
0.0
 40
1.0
 40
1.0
 40
1.0
 40
1.0
 10
0.197447035047743
 20
-3.142616102430555
 30
0.0
 10
-0.0128760443793403
 20
-2.933671061197916
 30
0.0
 10
-0.492777845594618
 20
-2.042597113715277
 30
0.0
 10
-0.8490007188585069
 20
-1.268484157986111
 30
0.0
  0
SPLINE
  5
1E1
330
140
100
AcDbEntity
  8
LAYER_1
 62
     7
100
AcDbSpline
210
0.0
220
0.0
230
1.0
 70
     8
 71
     3
 72
     8
 73
     4
 74
     0
 42
0.0000000001
 43
0.0000000001
 40
0.0
 40
0.0
 40
0.0
 40
0.0
 40
1.0
 40
1.0
 40
1.0
 40
1.0
 10
-1.166466267903646
 20
-0.5026394314236111
 30
0.0
 10
-1.452581448025174
 20
0.2893880208333333
 30
0.0
 10
-1.936617363823785
 20
1.829345703125
 30
0.0
 10
-2.794618394639757
 20
2.159385850694444
 30
0.0
  0
SPLINE
  5
1E0
330
140
100
AcDbEntity
  8
LAYER_1
 62
     7
100
AcDbSpline
210
0.0
220
0.0
230
1.0
 70
     8
 71
     3
 72
    11
 73
     7
 74
     0
 42
0.0000000001
 43
0.0000000001
 40
0.0
 40
0.0
 40
0.0
 40
0.0
 40
1.0
 40
1.0
 40
1.0
 40
2.0
 40
2.0
 40
2.0
 40
2.0
 10
0.9014522976345485
 20
-3.692625596788194
 30
0.0
 10
0.0654998779296875
 20
-2.856673177083333
 30
0.0
 10
-0.2424916585286458
 20
-1.294666883680556
 30
0.0
 10
-0.5286068386501736
 20
-0.1946478949652778
 30
0.0
 10
-0.8145497639973958
 20
0.9053710937499999
 30
0.0
 10
-1.320634290907118
 20
2.621373155381944
 30
0.0
 10
-1.892520141601562
 20
3.171382649739583
 30
0.0
  0
SPLINE
  5
1DF
330
140
100
AcDbEntity
  8
LAYER_1
 62
     7
100
AcDbSpline
210
0.0
220
0.0
230
1.0
 70
     8
 71
     3
 72
     8
 73
     4
 74
     0
 42
0.0000000001
 43
0.0000000001
 40
0.0
 40
0.0
 40
0.0
 40
0.0
 40
1.0
 40
1.0
 40
1.0
 40
1.0
 10
1.561360337999132
 20
-2.592606608072916
 30
0.0
 10
1.279551527235243
 20
-2.218641493055555
 30
0.0
 10
0.9315968831380208
 20
-1.700154622395833
 30
0.0
 10
0.6511661105685763
 20
-1.157035319010417
 30
0.0
  0
SPLINE
  5
1DE
330
140
100
AcDbEntity
  8
LAYER_1
 62
     7
100
AcDbSpline
210
0.0
220
0.0
230
1.0
 70
     8
 71
     3
 72
     8
 73
     4
 74
     0
 42
0.0000000001
 43
0.0000000001
 40
0.0
 40
0.0
 40
0.0
 40
0.0
 40
1.0
 40
1.0
 40
1.0
 40
1.0
 10
0.3514428032769097
 20
-0.4805908203124999
 30
0.0
 10
0.0654998779296875
 20
0.2893880208333333
 30
0.0
 10
-0.3305138481987847
 20
1.543402777777778
 30
0.0
 10
-0.638505384657118
 20
2.027438693576389
 30
0.0
  0
SPLINE
  5
1DD
330
140
100
AcDbEntity
  8
LAYER_1
 62
     7
100
AcDbSpline
210
0.0
220
0.0
230
1.0
 70
     8
 71
     3
 72
    11
 73
     7
 74
     0
 42
0.0000000001
 43
0.0000000001
 40
0.0
 40
0.0
 40
0.0
 40
0.0
 40
1.0
 40
1.0
 40
1.0
 40
2.0
 40
2.0
 40
2.0
 40
2.0
 10
3.871469116210937
 20
-3.604603407118055
 30
0.0
 10
3.519380357530382
 20
-2.922646755642361
 30
0.0
 10
2.991419474283854
 20
-1.184596082899305
 30
0.0
 10
2.815375094943576
 20
-0.2606214735243055
 30
0.0
 10
2.639330715603299
 20
0.6633531358506943
 30
0.0
 10
2.287414211697048
 20
2.225359429253472
 30
0.0
 10
1.209443834092882
 20
3.281453450520833
 30
0.0
  0
SPLINE
  5
1DC
330
140
100
AcDbEntity
  8
LAYER_1
 62
     7
100
AcDbSpline
210
0.0
220
0.0
230
1.0
 70
     8
 71
     3
 72
     8
 73
     4
 74
     0
 42
0.0000000001
 43
0.0000000001
 40
0.0
 40
0.0
 40
0.0
 40
0.0
 40
1.0
 40
1.0
 40
1.0
 40
1.0
 10
4.773395114474826
 20
-2.592606608072916
 30
0.0
 10
4.50932854546441
 20
-2.197970920138889
 30
0.0
 10
4.237166002061632
 20
-1.7084228515625
 30
0.0
 10
3.985501776801215
 20
-1.184596082899305
 30
0.0
  0
SPLINE
  5
1DB
330
140
100
AcDbEntity
  8
LAYER_1
 62
     7
100
AcDbSpline
210
0.0
220
0.0
230
1.0
 70
     8
 71
     3
 72
     8
 73
     4
 74
     0
 42
0.0000000001
 43
0.0000000001
 40
0.0
 40
0.0
 40
0.0
 40
0.0
 40
1.0
 40
1.0
 40
1.0
 40
1.0
 10
3.519380357530382
 20
-0.1066257052951389
 30
0.0
 10
2.848448011610243
 20
0.5644788953993055
 30
0.0
 10
2.77145012749566
 20
1.609376356336805
 30
0.0
 10
2.595405748155382
 20
2.027438693576389
 30
0.0
  0
SPLINE
  5
1DA
330
140
100
AcDbEntity
  8
LAYER_1
 62
     7
100
AcDbSpline
210
0.0
220
0.0
230
1.0
 70
     8
 71
     3
 72
     8
 73
     4
 74
     0
 42
0.0000000001
 43
0.0000000001
 40
0.0
 40
0.0
 40
0.0
 40
0.0
 40
1.0
 40
1.0
 40
1.0
 40
1.0
 10
6.511445787217881
 20
-2.966571723090278
 30
0.0
 10
6.365718248155382
 20
-2.783809407552083
 30
0.0
 10
6.054970635308159
 20
-2.064645724826389
 30
0.0
 10
5.79641621907552
 20
-1.423857964409722
 30
0.0
  0
SPLINE
  5
1D9
330
140
100
AcDbEntity
  8
LAYER_1
 62
     7
100
AcDbSpline
210
0.0
220
0.0
230
1.0
 70
     8
 71
     3
 72
     8
 73
     4
 74
     0
 42
0.0000000001
 43
0.0000000001
 40
0.0
 40
0.0
 40
0.0
 40
0.0
 40
1.0
 40
1.0
 40
1.0
 40
1.0
 10
5.411426798502604
 20
-0.4146172417534722
 30
0.0
 10
5.257431030273437
 20
0.0254937065972222
 30
0.0
 10
4.663324313693576
 20
2.335430230034722
 30
0.0
 10
3.629451158311632
 20
2.093412272135417
 30
0.0
  0
SPLINE
  5
1D8
330
140
100
AcDbEntity
  8
LAYER_1
 62
     7
100
AcDbSpline
210
0.0
220
0.0
230
1.0
 70
     8
 71
     3
 72
    11
 73
     7
 74
     0
 42
0.0000000001
 43
0.0000000001
 40
0.0
 40
0.0
 40
0.0
 40
0.0
 40
1.0
 40
1.0
 40
1.0
 40
2.0
 40
2.0
 40
2.0
 40
2.0
 10
7.369446818033854
 20
-3.802524142795138
 30
0.0
 10
7.06145528157552
 20
-3.406682671440972
 30
0.0
 10
6.511445787217881
 20
-1.800579155815972
 30
0.0
 10
6.335401407877604
 20
-0.8766045464409722
 30
0.0
 10
6.159357028537326
 20
0.0473700629340278
 30
0.0
 10
5.411426798502604
 20
2.621373155381944
 30
0.0
 10
4.773395114474826
 20
3.017386881510416
 30
0.0
  0
SPLINE
  5
1D7
330
140
100
AcDbEntity
  8
LAYER_1
 62
     7
100
AcDbSpline
210
0.0
220
0.0
230
1.0
 70
     8
 71
     3
 72
     8
 73
     4
 74
     0
 42
0.0000000001
 43
0.0000000001
 40
0.0
 40
0.0
 40
0.0
 40
0.0
 40
1.0
 40
1.0
 40
1.0
 40
1.0
 10
8.073452080620658
 20
-2.570557996961806
 30
0.0
 10
7.841080390082465
 20
-2.123729112413194
 30
0.0
 10
7.57150166829427
 20
-1.684996202256944
 30
0.0
 10
7.350154283311631
 20
-1.238167317708333
 30
0.0
  0
SPLINE
  5
1D6
330
140
100
AcDbEntity
  8
LAYER_1
 62
     7
100
AcDbSpline
210
0.0
220
0.0
230
1.0
 70
     8
 71
     3
 72
     8
 73
     4
 74
     0
 42
0.0000000001
 43
0.0000000001
 40
0.0
 40
0.0
 40
0.0
 40
0.0
 40
1.0
 40
1.0
 40
1.0
 40
1.0
 10
7.06145528157552
 20
-0.5246880425347221
 30
0.0
 10
6.841485934787325
 20
0.1794894748263889
 30
0.0
 10
6.335401407877604
 20
1.521354166666667
 30
0.0
 10
6.005361260308159
 20
2.005390082465278
 30
0.0
  0
SPLINE
  5
1D5
330
140
100
AcDbEntity
  8
LAYER_1
 62
     7
100
AcDbSpline
210
0.0
220
0.0
230
1.0
 70
     8
 71
     3
 72
     8
 73
     4
 74
     0
 42
0.0000000001
 43
0.0000000001
 40
0.0
 40
0.0
 40
0.0
 40
0.0
 40
1.0
 40
1.0
 40
1.0
 40
1.0
 10
9.877304077148436
 20
-3.186541069878472
 30
0.0
 10
9.708322143554687
 20
-2.995510525173611
 30
0.0
 10
9.36174553765191
 20
-2.272212727864583
 30
0.0
 10
9.046863810221353
 20
-1.569585503472222
 30
0.0
  0
SPLINE
  5
1D4
330
140
100
AcDbEntity
  8
LAYER_1
 62
     7
100
AcDbSpline
210
0.0
220
0.0
230
1.0
 70
     8
 71
     3
 72
     8
 73
     4
 74
     0
 42
0.0000000001
 43
0.0000000001
 40
0.0
 40
0.0
 40
0.0
 40
0.0
 40
1.0
 40
1.0
 40
1.0
 40
1.0
 10
8.447417195638019
 20
-0.1725992838541667
 30
0.0
 10
8.227447848849826
 20
0.3553615993923611
 30
0.0
 10
7.963381279839409
 20
1.807469346788194
 30
0.0
 10
7.105380249023437
 20
2.0494873046875
 30
0.0
  0
SPLINE
  5
1D3
330
140
100
AcDbEntity
  8
LAYER_1
 62
     7
100
AcDbSpline
210
0.0
220
0.0
230
1.0
 70
     8
 71
     3
 72
    11
 73
     7
 74
     0
 42
0.0000000001
 43
0.0000000001
 40
0.0
 40
0.0
 40
0.0
 40
0.0
 40
1.0
 40
1.0
 40
1.0
 40
2.0
 40
2.0
 40
2.0
 40
2.0
 10
10.73530510796441
 20
-3.82457275390625
 30
0.0
 10
10.18546786838108
 20
-3.384634060329861
 30
0.0
 10
9.613409762912326
 20
-1.822627766927083
 30
0.0
 10
9.503338962131075
 20
-1.030600314670139
 30
0.0
 10
9.393440416124131
 20
-0.2385728624131944
 30
0.0
 10
8.865479532877604
 20
2.071363661024305
 30
0.0
 10
8.403492228190103
 20
2.687518988715278
 30
0.0
  0
SPLINE
  5
1D2
330
140
100
AcDbEntity
  8
LAYER_1
 62
     7
100
AcDbSpline
210
0.0
220
0.0
230
1.0
 70
     8
 71
     3
 72
     8
 73
     4
 74
     0
 42
0.0000000001
 43
0.0000000001
 40
0.0
 40
0.0
 40
0.0
 40
0.0
 40
1.0
 40
1.0
 40
1.0
 40
1.0
 10
11.30736321343316
 20
-2.614655219184027
 30
0.0
 10
11.0915279812283
 20
-2.3285400390625
 30
0.0
 10
10.86742451985677
 20
-1.865174696180555
 30
0.0
 10
10.64469909667969
 20
-1.363396538628472
 30
0.0
  0
SPLINE
  5
1D1
330
140
100
AcDbEntity
  8
LAYER_1
 62
     7
100
AcDbSpline
210
0.0
220
0.0
230
1.0
 70
     8
 71
     3
 72
     8
 73
     4
 74
     0
 42
0.0000000001
 43
0.0000000001
 40
0.0
 40
0.0
 40
0.0
 40
0.0
 40
1.0
 40
1.0
 40
1.0
 40
1.0
 10
10.29536641438802
 20
-0.5465643988715278
 30
0.0
 10
9.965326266818575
 20
0.2234144422743055
 30
0.0
 10
9.503338962131075
 20
1.521354166666667
 30
0.0
 10
9.129373847113714
 20
2.027438693576389
 30
0.0
  0
SPLINE
  5
1D0
330
140
100
AcDbEntity
  8
LAYER_1
 62
     7
100
AcDbSpline
210
0.0
220
0.0
230
1.0
 70
     8
 71
     3
 72
     8
 73
     4
 74
     0
 42
0.0000000001
 43
0.0000000001
 40
0.0
 40
0.0
 40
0.0
 40
0.0
 40
1.0
 40
1.0
 40
1.0
 40
1.0
 10
12.86936950683594
 20
-2.702677408854167
 30
0.0
 10
12.6947031656901
 20
-2.478401692708333
 30
0.0
 10
12.48438008626302
 20
-2.016414388020833
 30
0.0
 10
12.29059346516927
 20
-1.540646701388889
 30
0.0
  0
SPLINE
  5
1CF
330
140
100
AcDbEntity
  8
LAYER_1
 62
     7
100
AcDbSpline
210
0.0
220
0.0
230
1.0
 70
     8
 71
     3
 72
     8
 73
     4
 74
     0
 42
0.0000000001
 43
0.0000000001
 40
0.0
 40
0.0
 40
0.0
 40
0.0
 40
1.0
 40
1.0
 40
1.0
 40
1.0
 10
11.90129767523871
 20
-0.5246880425347221
 30
0.0
 10
11.65945197211372
 20
0.1133436414930556
 30
0.0
 10
11.10944247775608
 20
1.829345703125
 30
0.0
 10
10.40543721516927
 20
2.0494873046875
 30
0.0
  0
SPLINE
  5
1CE
330
140
100
AcDbEntity
  8
LAYER_1
 62
     7
100
AcDbSpline
210
0.0
220
0.0
230
1.0
 70
     8
 71
     3
 72
    11
 73
     7
 74
     0
 42
0.0000000001
 43
0.0000000001
 40
0.0
 40
0.0
 40
0.0
 40
0.0
 40
1.0
 40
1.0
 40
1.0
 40
2.0
 40
2.0
 40
2.0
 40
2.0
 10
13.96938849555122
 20
-3.670576985677083
 30
0.0
 10
13.59525112575955
 20
-3.186541069878472
 30
0.0
 10
13.11138746473524
 20
-1.822627766927083
 30
0.0
 10
12.93534308539496
 20
-0.8986531575520833
 30
0.0
 10
12.75929870605469
 20
0.0254937065972222
 30
0.0
 10
12.16536424424913
 20
2.445501030815972
 30
0.0
 10
11.6374033610026
 20
2.929364691840278
 30
0.0
  0
SPLINE
  5
1CD
330
140
100
AcDbEntity
  8
LAYER_1
 62
     7
100
AcDbSpline
210
0.0
220
0.0
230
1.0
 70
     8
 71
     3
 72
     8
 73
     4
 74
     0
 42
0.0000000001
 43
0.0000000001
 40
0.0
 40
0.0
 40
0.0
 40
0.0
 40
1.0
 40
1.0
 40
1.0
 40
1.0
 10
14.71731872558594
 20
-2.680628797743055
 30
0.0
 10
14.44102206759983
 20
-2.217263454861111
 30
0.0
 10
14.20313822428385
 20
-1.753898111979167
 30
0.0
 10
13.9721445719401
 20
-1.283642578125
 30
0.0
  0
SPLINE
  5
1CC
330
140
100
AcDbEntity
  8
LAYER_1
 62
     7
100
AcDbSpline
210
0.0
220
0.0
230
1.0
 70
     8
 71
     3
 72
     8
 73
     4
 74
     0
 42
0.0000000001
 43
0.0000000001
 40
0.0
 40
0.0
 40
0.0
 40
0.0
 40
1.0
 40
1.0
 40
1.0
 40
1.0
 10
13.61729973687066
 20
-0.5465643988715278
 30
0.0
 10
13.26538323296441
 20
0.1794894748263889
 30
0.0
 10
12.64940016004774
 20
1.565451388888889
 30
0.0
 10
12.62735154893663
 20
2.027438693576389
 30
0.0
  0
SPLINE
  5
1CB
330
140
100
AcDbEntity
  8
LAYER_1
 62
     7
100
AcDbSpline
210
0.0
220
0.0
230
1.0
 70
     8
 71
     3
 72
     8
 73
     4
 74
     0
 42
0.0000000001
 43
0.0000000001
 40
0.0
 40
0.0
 40
0.0
 40
0.0
 40
1.0
 40
1.0
 40
1.0
 40
1.0
 10
16.0154307047526
 20
-2.79052734375
 30
0.0
 10
15.69503682454427
 20
-2.481157769097222
 30
0.0
 10
15.49832187228733
 20
-1.938038465711805
 30
0.0
 10
15.38980136447483
 20
-1.410077582465278
 30
0.0
  0
SPLINE
  5
1CA
330
140
100
AcDbEntity
  8
LAYER_1
 62
     7
100
AcDbSpline
210
0.0
220
0.0
230
1.0
 70
     8
 71
     3
 72
     8
 73
     4
 74
     0
 42
0.0000000001
 43
0.0000000001
 40
0.0
 40
0.0
 40
0.0
 40
0.0
 40
1.0
 40
1.0
 40
1.0
 40
1.0
 10
14.95933668348524
 20
-0.3925686306423611
 30
0.0
 10
14.80534091525608
 20
0.1353922526041667
 30
0.0
 10
14.3874508327908
 20
1.829345703125
 30
0.0
 10
13.46330396864149
 20
2.0494873046875
 30
0.0
  0
SPLINE
  5
1C9
330
140
100
AcDbEntity
  8
LAYER_1
 62
     7
100
AcDbSpline
210
0.0
220
0.0
230
1.0
 70
     8
 71
     3
 72
    11
 73
     7
 74
     0
 42
0.0000000001
 43
0.0000000001
 40
0.0
 40
0.0
 40
0.0
 40
0.0
 40
1.0
 40
1.0
 40
1.0
 40
2.0
 40
2.0
 40
2.0
 40
2.0
 10
17.00537889268663
 20
-3.802524142795138
 30
0.0
 10
16.60936516655816
 20
-3.186541069878472
 30
0.0
 10
16.10345289442274
 20
-1.822627766927083
 30
0.0
 10
15.97133348253038
 20
-0.9865030924479166
 30
0.0
 10
15.83938632541233
 20
-0.1505506727430555
 30
0.0
 10
15.0914560953776
 20
2.511474609375
 30
0.0
 10
14.45342441134983
 20
3.039435492621528
 30
0.0
  0
SPLINE
  5
1C8
330
140
100
AcDbEntity
  8
LAYER_1
 62
     7
100
AcDbSpline
210
0.0
220
0.0
230
1.0
 70
     8
 71
     3
 72
     8
 73
     4
 74
     0
 42
0.0000000001
 43
0.0000000001
 40
0.0
 40
0.0
 40
0.0
 40
0.0
 40
1.0
 40
1.0
 40
1.0
 40
1.0
 10
17.81928270128038
 20
-2.680628797743055
 30
0.0
 10
17.73143276638455
 20
-2.446879069010417
 30
0.0
 10
17.38761223687066
 20
-1.901003689236111
 30
0.0
 10
17.06446228027344
 20
-1.322055392795139
 30
0.0
  0
SPLINE
  5
1C7
330
140
100
AcDbEntity
  8
LAYER_1
 62
     7
100
AcDbSpline
210
0.0
220
0.0
230
1.0
 70
     8
 71
     3
 72
     8
 73
     4
 74
     0
 42
0.0000000001
 43
0.0000000001
 40
0.0
 40
0.0
 40
0.0
 40
0.0
 40
1.0
 40
1.0
 40
1.0
 40
1.0
 10
16.63141377766927
 20
-0.4585422092013888
 30
0.0
 10
16.27932501898872
 20
0.3553615993923611
 30
0.0
 10
16.03730706108941
 20
1.521354166666667
 30
0.0
 10
15.64129333496094
 20
2.027438693576389
 30
0.0
  0
SPLINE
  5
1C6
330
140
100
AcDbEntity
  8
LAYER_1
 62
     7
100
AcDbSpline
210
0.0
220
0.0
230
1.0
 70
     8
 71
     3
 72
     8
 73
     4
 74
     0
 42
0.0000000001
 43
0.0000000001
 40
0.0
 40
0.0
 40
0.0
 40
0.0
 40
1.0
 40
1.0
 40
1.0
 40
1.0
 10
19.33736402723524
 20
-2.878549533420139
 30
0.0
 10
19.12566290961371
 20
-2.598118760850694
 30
0.0
 10
18.83282979329427
 20
-1.96422119140625
 30
0.0
 10
18.59770202636719
 20
-1.389407009548611
 30
0.0
  0
SPLINE
  5
1C5
330
140
100
AcDbEntity
  8
LAYER_1
 62
     7
100
AcDbSpline
210
0.0
220
0.0
230
1.0
 70
     8
 71
     3
 72
     8
 73
     4
 74
     0
 42
0.0000000001
 43
0.0000000001
 40
0.0
 40
0.0
 40
0.0
 40
0.0
 40
1.0
 40
1.0
 40
1.0
 40
1.0
 10
18.28127000596788
 20
-0.5465643988715278
 30
0.0
 10
18.0833492702908
 20
0.0473700629340278
 30
0.0
 10
17.37934400770399
 20
1.983341471354166
 30
0.0
 10
16.67533874511719
 20
2.027438693576389
 30
0.0
  0
SPLINE
  5
1C4
330
140
100
AcDbEntity
  8
LAYER_1
 62
     7
100
AcDbSpline
210
0.0
220
0.0
230
1.0
 70
     8
 71
     3
 72
    11
 73
     7
 74
     0
 42
0.0000000001
 43
0.0000000001
 40
0.0
 40
0.0
 40
0.0
 40
0.0
 40
1.0
 40
1.0
 40
1.0
 40
2.0
 40
2.0
 40
2.0
 40
2.0
 10
20.34936082628038
 20
-3.82457275390625
 30
0.0
 10
20.04136928982205
 20
-3.516581217447917
 30
0.0
 10
19.40333760579427
 20
-1.866552734375
 30
0.0
 10
19.16131964789496
 20
-0.9865030924479166
 30
0.0
 10
18.91930168999566
 20
-0.1066257052951389
 30
0.0
 10
18.45731438530816
 20
2.335430230034722
 30
0.0
 10
17.79740634494358
 20
2.995510525173611
 30
0.0
  0
SPLINE
  5
1C3
330
140
100
AcDbEntity
  8
LAYER_1
 62
     7
100
AcDbSpline
210
0.0
220
0.0
230
1.0
 70
     8
 71
     3
 72
     8
 73
     4
 74
     0
 42
0.0000000001
 43
0.0000000001
 40
0.0
 40
0.0
 40
0.0
 40
0.0
 40
1.0
 40
1.0
 40
1.0
 40
1.0
 10
20.96534389919705
 20
-2.658580186631944
 30
0.0
 10
20.72332594129774
 20
-2.298395453559027
 30
0.0
 10
20.42084655761719
 20
-1.79368896484375
 30
0.0
 10
20.16780429416232
 20
-1.265728081597222
 30
0.0
  0
SPLINE
  5
1C2
330
140
100
AcDbEntity
  8
LAYER_1
 62
     7
100
AcDbSpline
210
0.0
220
0.0
230
1.0
 70
     8
 71
     3
 72
     8
 73
     4
 74
     0
 42
0.0000000001
 43
0.0000000001
 40
0.0
 40
0.0
 40
0.0
 40
0.0
 40
1.0
 40
1.0
 40
1.0
 40
1.0
 10
19.86532491048177
 20
-0.5246880425347221
 30
0.0
 10
19.60143059624566
 20
0.2454630533854167
 30
0.0
 10
19.20541687011719
 20
1.543402777777778
 30
0.0
 10
18.85332811143663
 20
1.983341471354166
 30
0.0
  0
SPLINE
  5
1C1
330
140
100
AcDbEntity
  8
LAYER_1
 62
     7
100
AcDbSpline
210
0.0
220
0.0
230
1.0
 70
     8
 71
     3
 72
     8
 73
     4
 74
     0
 42
0.0000000001
 43
0.0000000001
 40
0.0
 40
0.0
 40
0.0
 40
0.0
 40
1.0
 40
1.0
 40
1.0
 40
1.0
 10
22.48342522515191
 20
-2.812575954861111
 30
0.0
 10
22.31289299858941
 20
-2.591228569878472
 30
0.0
 10
22.06536288791233
 20
-1.929770236545139
 30
0.0
 10
21.85503980848524
 20
-1.350994194878472
 30
0.0
  0
SPLINE
  5
1C0
330
140
100
AcDbEntity
  8
LAYER_1
 62
     7
100
AcDbSpline
210
0.0
220
0.0
230
1.0
 70
     8
 71
     3
 72
     8
 73
     4
 74
     0
 42
0.0000000001
 43
0.0000000001
 40
0.0
 40
0.0
 40
0.0
 40
0.0
 40
1.0
 40
1.0
 40
1.0
 40
1.0
 10
21.51535339355469
 20
-0.4366658528645833
 30
0.0
 10
21.33930901421441
 20
-0.0625284830729167
 30
0.0
 10
20.74537455240885
 20
1.983341471354166
 30
0.0
 10
19.95334710015191
 20
2.027438693576389
 30
0.0
  0
SPLINE
  5
1BF
330
140
100
AcDbEntity
  8
LAYER_1
 62
     7
100
AcDbSpline
210
0.0
220
0.0
230
1.0
 70
     8
 71
     3
 72
    11
 73
     7
 74
     0
 42
0.0000000001
 43
0.0000000001
 40
0.0
 40
0.0
 40
0.0
 40
0.0
 40
1.0
 40
1.0
 40
1.0
 40
2.0
 40
2.0
 40
2.0
 40
2.0
 10
23.31937764485677
 20
-3.516581217447917
 30
0.0
 10
22.96728888617621
 20
-2.878549533420139
 30
0.0
 10
22.37335442437066
 20
-1.448662651909722
 30
0.0
 10
22.19731004503038
 20
-0.4805908203124999
 30
0.0
 10
22.0212656656901
 20
0.4874810112847222
 30
0.0
 10
21.42733120388455
 20
2.599324544270833
 30
0.0
 10
20.98739251030816
 20
2.929364691840278
 30
0.0
  0
SPLINE
  5
1BE
330
140
100
AcDbEntity
  8
LAYER_1
 62
     7
100
AcDbSpline
210
0.0
220
0.0
230
1.0
 70
     8
 71
     3
 72
     8
 73
     4
 74
     0
 42
0.0000000001
 43
0.0000000001
 40
0.0
 40
0.0
 40
0.0
 40
0.0
 40
1.0
 40
1.0
 40
1.0
 40
1.0
 10
24.28727722167968
 20
-2.636531575520833
 30
0.0
 10
23.9312266031901
 20
-2.163519965277778
 30
0.0
 10
23.66578199598524
 20
-1.701532660590278
 30
0.0
 10
23.42238599989149
 20
-1.22318115234375
 30
0.0
  0
SPLINE
  5
1BD
330
140
100
AcDbEntity
  8
LAYER_1
 62
     7
100
AcDbSpline
210
0.0
220
0.0
230
1.0
 70
     8
 71
     3
 72
     8
 73
     4
 74
     0
 42
0.0000000001
 43
0.0000000001
 40
0.0
 40
0.0
 40
0.0
 40
0.0
 40
1.0
 40
1.0
 40
1.0
 40
1.0
 10
23.07735968695747
 20
-0.5026394314236111
 30
0.0
 10
22.72527092827691
 20
0.2454630533854167
 30
0.0
 10
22.50530158148871
 20
1.587327745225694
 30
0.0
 10
22.08741149902344
 20
2.005390082465278
 30
0.0
  0
SPLINE
  5
1BC
330
140
100
AcDbEntity
  8
LAYER_1
 62
     7
100
AcDbSpline
210
0.0
220
0.0
230
1.0
 70
     8
 71
     3
 72
     8
 73
     4
 74
     0
 42
0.0000000001
 43
0.0000000001
 40
0.0
 40
0.0
 40
0.0
 40
0.0
 40
1.0
 40
1.0
 40
1.0
 40
1.0
 10
25.80535854763455
 20
-2.944523111979167
 30
0.0
 10
25.6210459391276
 20
-2.691653103298611
 30
0.0
 10
25.31994459364149
 20
-2.005390082465278
 30
0.0
 10
25.04640401204427
 20
-1.335835774739583
 30
0.0
  0
SPLINE
  5
1BB
330
140
100
AcDbEntity
  8
LAYER_1
 62
     7
100
AcDbSpline
210
0.0
220
0.0
230
1.0
 70
     8
 71
     3
 72
     8
 73
     4
 74
     0
 42
0.0000000001
 43
0.0000000001
 40
0.0
 40
0.0
 40
0.0
 40
0.0
 40
1.0
 40
1.0
 40
1.0
 40
1.0
 10
24.63936598036024
 20
-0.3045464409722222
 30
0.0
 10
24.33137444390191
 20
0.4874810112847222
 30
0.0
 10
23.97928568522135
 20
2.071363661024305
 30
0.0
 10
23.18725823296441
 20
2.0494873046875
 30
0.0
  0
SPLINE
  5
1BA
330
140
100
AcDbEntity
  8
LAYER_1
 62
     7
100
AcDbSpline
210
0.0
220
0.0
230
1.0
 70
     8
 71
     3
 72
    11
 73
     7
 74
     0
 42
0.0000000001
 43
0.0000000001
 40
0.0
 40
0.0
 40
0.0
 40
0.0
 40
1.0
 40
1.0
 40
1.0
 40
2.0
 40
2.0
 40
2.0
 40
2.0
 10
26.6192623562283
 20
-3.670576985677083
 30
0.0
 10
26.22324863009983
 20
-3.054593912760416
 30
0.0
 10
25.82723490397135
 20
-1.734605577256944
 30
0.0
 10
25.62931416829427
 20
-0.7226087782118055
 30
0.0
 10
25.43139343261719
 20
0.2893880208333333
 30
0.0
 10
24.48537021213107
 20
3.105409071180555
 30
0.0
 10
23.89126349555122
 20
3.237356228298611
 30
0.0
  0
SPLINE
  5
1B9
330
140
100
AcDbEntity
  8
LAYER_1
 62
     7
100
AcDbSpline
210
0.0
220
0.0
230
1.0
 70
     8
 71
     3
 72
     8
 73
     4
 74
     0
 42
0.0000000001
 43
0.0000000001
 40
0.0
 40
0.0
 40
0.0
 40
0.0
 40
1.0
 40
1.0
 40
1.0
 40
1.0
 10
27.49931199815538
 20
-2.702677408854167
 30
0.0
 10
27.19545457628038
 20
-2.232421875
 30
0.0
 10
26.89159715440538
 20
-1.752520073784722
 30
0.0
 10
26.65233527289496
 20
-1.268484157986111
 30
0.0
  0
SPLINE
  5
1B8
330
140
100
AcDbEntity
  8
LAYER_1
 62
     7
100
AcDbSpline
210
0.0
220
0.0
230
1.0
 70
     8
 71
     3
 72
     8
 73
     4
 74
     0
 42
0.0000000001
 43
0.0000000001
 40
0.0
 40
0.0
 40
0.0
 40
0.0
 40
1.0
 40
1.0
 40
1.0
 40
1.0
 10
26.37724439832899
 20
-0.6125379774305555
 30
0.0
 10
26.13539869520399
 20
0.09146728515625
 30
0.0
 10
25.67323913574219
 20
1.543402777777778
 30
0.0
 10
25.40934482150608
 20
1.961465115017361
 30
0.0
  0
SPLINE
  5
1B7
330
140
100
AcDbEntity
  8
LAYER_1
 62
     7
100
AcDbSpline
210
0.0
220
0.0
230
1.0
 70
     8
 71
     3
 72
     8
 73
     4
 74
     0
 42
0.0000000001
 43
0.0000000001
 40
0.0
 40
0.0
 40
0.0
 40
0.0
 40
1.0
 40
1.0
 40
1.0
 40
1.0
 10
29.56740281846788
 20
-3.406682671440972
 30
0.0
 10
29.26888529459635
 20
-3.170176866319444
 30
0.0
 10
28.78088751898871
 20
-2.261188422309028
 30
0.0
 10
28.41364034016927
 20
-1.444528537326389
 30
0.0
  0
SPLINE
  5
1B6
330
140
100
AcDbEntity
  8
LAYER_1
 62
     7
100
AcDbSpline
210
0.0
220
0.0
230
1.0
 70
     8
 71
     3
 72
     8
 73
     4
 74
     0
 42
0.0000000001
 43
0.0000000001
 40
0.0
 40
0.0
 40
0.0
 40
0.0
 40
1.0
 40
1.0
 40
1.0
 40
1.0
 10
28.0052242702908
 20
-0.4146172417534722
 30
0.0
 10
27.74132995605469
 20
0.3994588216145833
 30
0.0
 10
27.3013912624783
 20
2.005390082465278
 30
0.0
 10
26.46526658799913
 20
2.027438693576389
 30
0.0
  0
SPLINE
  5
1B5
330
140
100
AcDbEntity
  8
LAYER_1
 62
     7
100
AcDbSpline
210
0.0
220
0.0
230
1.0
 70
     8
 71
     3
 72
    11
 73
     7
 74
     0
 42
0.0000000001
 43
0.0000000001
 40
0.0
 40
0.0
 40
0.0
 40
0.0
 40
1.0
 40
1.0
 40
1.0
 40
2.0
 40
2.0
 40
2.0
 40
2.0
 10
30.02921786838108
 20
-3.846621365017361
 30
0.0
 10
29.34726121690538
 20
-3.076642523871528
 30
0.0
 10
28.86322530110677
 20
-0.7226087782118055
 30
0.0
 10
28.7092295328776
 20
0.1794894748263889
 30
0.0
 10
28.55523376464844
 20
1.081415473090278
 30
0.0
 10
27.65330776638455
 20
3.061484103732639
 30
0.0
 10
27.19132046169705
 20
3.127457682291666
 30
0.0
  0
SPLINE
  5
1B4
330
140
100
AcDbEntity
  8
LAYER_1
 62
     7
100
AcDbSpline
210
0.0
220
0.0
230
1.0
 70
     8
 71
     3
 72
     8
 73
     4
 74
     0
 42
0.0000000001
 43
0.0000000001
 40
0.0
 40
0.0
 40
0.0
 40
0.0
 40
1.0
 40
1.0
 40
1.0
 40
1.0
 10
30.7773203531901
 20
-2.702677408854167
 30
0.0
 10
30.78421054416232
 20
-2.420696343315972
 30
0.0
 10
30.33738165961371
 20
-1.846054416232639
 30
0.0
 10
30.06504686143663
 20
-1.234033203125
 30
0.0
  0
SPLINE
  5
1B3
330
140
100
AcDbEntity
  8
LAYER_1
 62
     7
100
AcDbSpline
210
0.0
220
0.0
230
1.0
 70
     8
 71
     3
 72
     8
 73
     4
 74
     0
 42
0.0000000001
 43
0.0000000001
 40
0.0
 40
0.0
 40
0.0
 40
0.0
 40
1.0
 40
1.0
 40
1.0
 40
1.0
 10
29.83129713270399
 20
-0.6566351996527777
 30
0.0
 10
29.54535420735677
 20
0.09146728515625
 30
0.0
 10
28.77537536621093
 20
1.763372124565972
 30
0.0
 10
28.62137959798177
 20
2.005390082465278
 30
0.0
  0
SPLINE
  5
1B2
330
140
100
AcDbEntity
  8
LAYER_1
 62
     7
100
AcDbSpline
210
0.0
220
0.0
230
1.0
 70
     8
 71
     3
 72
     8
 73
     4
 74
     0
 42
0.0000000001
 43
0.0000000001
 40
0.0
 40
0.0
 40
0.0
 40
0.0
 40
1.0
 40
1.0
 40
1.0
 40
1.0
 10
32.31727803548177
 20
-2.944523111979167
 30
0.0
 10
31.99412807888455
 20
-2.569179958767361
 30
0.0
 10
31.81136576334635
 20
-1.909271918402778
 30
0.0
 10
31.60638258192274
 20
-1.334457736545139
 30
0.0
  0
SPLINE
  5
1B1
330
140
100
AcDbEntity
  8
LAYER_1
 62
     7
100
AcDbSpline
210
0.0
220
0.0
230
1.0
 70
     8
 71
     3
 72
     8
 73
     4
 74
     0
 42
0.0000000001
 43
0.0000000001
 40
0.0
 40
0.0
 40
0.0
 40
0.0
 40
1.0
 40
1.0
 40
1.0
 40
1.0
 10
31.32732984754774
 20
-0.5465643988715278
 30
0.0
 10
31.12923685709635
 20
-0.0406521267361111
 30
0.0
 10
30.44728020562066
 20
2.093412272135417
 30
0.0
 10
29.47938062879774
 20
2.027438693576389
 30
0.0
  0
SPLINE
  5
1B0
330
140
100
AcDbEntity
  8
LAYER_1
 62
     7
100
AcDbSpline
210
0.0
220
0.0
230
1.0
 70
     8
 71
     3
 72
    11
 73
     7
 74
     0
 42
0.0000000001
 43
0.0000000001
 40
0.0
 40
0.0
 40
0.0
 40
0.0
 40
1.0
 40
1.0
 40
1.0
 40
2.0
 40
2.0
 40
2.0
 40
2.0
 10
33.35132344563802
 20
-3.9346435546875
 30
0.0
 10
33.02128329806858
 20
-3.538629828559027
 30
0.0
 10
32.47127380371094
 20
-2.240517849392361
 30
0.0
 10
32.36137525770399
 20
-1.558561197916667
 30
0.0
 10
32.25130445692274
 20
-0.8766045464409722
 30
0.0
 10
31.26135626898871
 20
2.643421766493055
 30
0.0
 10
30.73322313096788
 20
2.907488335503472
 30
0.0
  0
SPLINE
  5
1AF
330
140
100
AcDbEntity
  8
LAYER_1
 62
     7
100
AcDbSpline
210
0.0
220
0.0
230
1.0
 70
     8
 71
     3
 72
     8
 73
     4
 74
     0
 42
0.0000000001
 43
0.0000000001
 40
0.0
 40
0.0
 40
0.0
 40
0.0
 40
1.0
 40
1.0
 40
1.0
 40
1.0
 10
32.95530971950954
 20
-0.6125379774305555
 30
0.0
 10
32.66936679416232
 20
0.2234144422743055
 30
0.0
 10
32.07526007758246
 20
1.807469346788194
 30
0.0
 10
31.76726854112413
 20
2.159385850694444
 30
0.0
  0
SPLINE
  5
1AE
330
140
100
AcDbEntity
  8
LAYER_1
 62
     7
100
AcDbSpline
210
0.0
220
0.0
230
1.0
 70
     8
 71
     3
 72
     8
 73
     4
 74
     0
 42
0.0000000001
 43
0.0000000001
 40
0.0
 40
0.0
 40
0.0
 40
0.0
 40
1.0
 40
1.0
 40
1.0
 40
1.0
 10
35.41924201117621
 20
-2.680628797743055
 30
0.0
 10
35.19927266438802
 20
-2.412428114149305
 30
0.0
 10
35.04803297254774
 20
-1.944928656684028
 30
0.0
 10
34.84460008409288
 20
-1.463821072048611
 30
0.0
  0
LINE
  5
1AD
330
140
100
AcDbEntity
  8
LAYER_1
 62
     7
100
AcDbLine
 10
33.4376230875651
 20
-1.822627766927083
 30
0.0
 11
34.97758076985677
 21
-1.822627766927083
 31
0.0
  0
LINE
  5
1AC
330
140
100
AcDbEntity
  8
LAYER_1
 62
     7
100
AcDbLine
 10
35.30762091742621
 20
1.235411241319444
 30
0.0
 11
36.95764940049913
 21
1.257459852430555
 31
0.0
  0
LINE
  5
1AB
330
140
100
AcDbEntity
  8
LAYER_1
 62
     7
100
AcDbLine
 10
35.48366529676649
 20
0.8393975151909722
 30
0.0
 11
37.08959655761719
 21
0.8614461263020833
 31
0.0
  0
SPLINE
  5
1AA
330
140
100
AcDbEntity
  8
LAYER_1
 62
     7
100
AcDbSpline
210
0.0
220
0.0
230
1.0
 70
     8
 71
     3
 72
     8
 73
     4
 74
     0
 42
0.0000000001
 43
0.0000000001
 40
0.0
 40
0.0
 40
0.0
 40
0.0
 40
1.0
 40
1.0
 40
1.0
 40
1.0
 10
37.57363247341579
 20
-0.1946478949652778
 30
0.0
 10
37.37553948296441
 20
0.3334852430555556
 30
0.0
 10
36.84757859971788
 20
1.93941650390625
 30
0.0
 10
36.09964836968316
 20
2.0494873046875
 30
0.0
  0
SPLINE
  5
1A9
330
140
100
AcDbEntity
  8
LAYER_1
 62
     7
100
AcDbSpline
210
0.0
220
0.0
230
1.0
 70
     8
 71
     3
 72
     8
 73
     4
 74
     0
 42
0.0000000001
 43
0.0000000001
 40
0.0
 40
0.0
 40
0.0
 40
0.0
 40
1.0
 40
1.0
 40
1.0
 40
1.0
 10
38.58562927246094
 20
-2.614655219184027
 30
0.0
 10
38.50725335015191
 20
-2.446879069010417
 30
0.0
 10
38.29693027072482
 20
-1.983513726128472
 30
0.0
 10
38.02459547254774
 20
-1.322055392795139
 30
0.0
  0
LINE
  5
1A8
330
140
100
AcDbEntity
  8
LAYER_1
 62
     7
100
AcDbLine
 10
36.69358283148871
 20
-1.888601345486111
 30
0.0
 11
38.25558912489149
 21
-1.844676378038194
 31
0.0
  0
LINE
  5
1A7
330
140
100
AcDbEntity
  8
LAYER_1
 62
     7
100
AcDbLine
 10
39.94954257541232
 20
-1.910649956597222
 30
0.0
 11
41.57769470214844
 21
-1.910649956597222
 31
0.0
  0
LINE
  5
1A6
330
140
100
AcDbEntity
  8
LAYER_1
 62
     7
100
AcDbLine
 10
38.56358066134983
 20
1.235411241319444
 30
0.0
 11
40.30163133409288
 21
1.235411241319444
 31
0.0
  0
LINE
  5
1A5
330
140
100
AcDbEntity
  8
LAYER_1
 62
     7
100
AcDbLine
 10
38.71757642957899
 20
0.8393975151909722
 30
0.0
 11
40.47767571343316
 21
0.8614461263020833
 31
0.0
  0
LINE
  5
1A4
330
140
100
AcDbEntity
  8
LAYER_1
 62
     7
100
AcDbLine
 10
41.99558478461371
 20
1.279508463541667
 30
0.0
 11
43.42564392089843
 21
1.301384819878472
 31
0.0
  0
LINE
  5
1A3
330
140
100
AcDbEntity
  8
LAYER_1
 62
     7
100
AcDbLine
 10
42.14958055284288
 20
0.927419704861111
 30
0.0
 11
43.5796396891276
 21
0.9494683159722221
 31
0.0
  0
LINE
  5
1A2
330
140
100
AcDbEntity
  8
LAYER_1
 62
     7
100
AcDbLine
 10
43.27164815266927
 20
-1.800579155815972
 30
0.0
 11
44.7235836452908
 21
-1.800579155815972
 31
0.0
  0
LINE
  5
1A1
330
140
100
AcDbEntity
  8
LAYER_1
 62
     7
100
AcDbLine
 10
45.14164598253038
 20
1.257459852430555
 30
0.0
 11
46.72552863226996
 21
1.279508463541667
 31
0.0
  0
LINE
  5
1A0
330
140
100
AcDbEntity
  8
LAYER_1
 62
     7
100
AcDbLine
 10
45.31751810709635
 20
0.8833224826388888
 30
0.0
 11
46.85764804416233
 21
0.9053710937499999
 31
0.0
  0
LINE
  5
19F
330
140
100
AcDbEntity
  8
LAYER_1
 62
     7
100
AcDbLine
 10
46.48351067437066
 20
-1.844676378038194
 30
0.0
 11
47.97954338921441
 21
-1.822627766927083
 31
0.0
  0
LINE
  5
19E
330
140
100
AcDbEntity
  8
LAYER_1
 62
     7
100
AcDbLine
 10
48.4415306939019
 20
1.257459852430555
 30
0.0
 11
49.84954121907552
 21
1.257459852430555
 31
0.0
  0
LINE
  5
19D
330
140
100
AcDbEntity
  8
LAYER_1
 62
     7
100
AcDbLine
 10
48.57347785101996
 20
0.927419704861111
 30
0.0
 11
50.06951056586371
 21
0.9494683159722221
 31
0.0
  0
LINE
  5
19C
330
140
100
AcDbEntity
  8
LAYER_1
 62
     7
100
AcDbLine
 10
49.87158983018663
 20
-1.866552734375
 30
0.0
 11
51.12560458713107
 21
-1.844676378038194
 31
0.0
  0
LINE
  5
19B
330
140
100
AcDbEntity
  8
LAYER_1
 62
     7
100
AcDbLine
 10
52.99560241699219
 20
-1.888601345486111
 30
0.0
 11
54.35951571994357
 21
-1.866552734375
 31
0.0
  0
LINE
  5
19A
330
140
100
AcDbEntity
  8
LAYER_1
 62
     7
100
AcDbLine
 10
51.76346401638455
 20
0.8833224826388888
 30
0.0
 11
53.23762037489149
 21
0.9053710937499999
 31
0.0
  0
LINE
  5
199
330
140
100
AcDbEntity
  8
LAYER_1
 62
     7
100
AcDbLine
 10
51.60946824815538
 20
1.257459852430555
 30
0.0
 11
53.0395273844401
 21
1.257459852430555
 31
0.0
  0
LINE
  5
198
330
140
100
AcDbEntity
  8
LAYER_1
 62
     7
100
AcDbLine
 10
54.84355163574218
 20
1.235411241319444
 30
0.0
 11
56.31753573947482
 21
1.257459852430555
 31
0.0
  0
LINE
  5
197
330
140
100
AcDbEntity
  8
LAYER_1
 62
     7
100
AcDbLine
 10
54.99754740397135
 20
0.8393975151909722
 30
0.0
 11
56.51545647515191
 21
0.8614461263020833
 31
0.0
  0
LINE
  5
196
330
140
100
AcDbEntity
  8
LAYER_1
 62
     7
100
AcDbLine
 10
56.07551778157551
 20
-1.844676378038194
 30
0.0
 11
57.59342685275608
 21
-1.866552734375
 31
0.0
  0
LINE
  5
195
330
140
100
AcDbEntity
  8
LAYER_1
 62
     7
100
AcDbLine
 10
58.09951137966579
 20
1.169437662760417
 30
0.0
 11
59.61742045084635
 21
1.191486273871528
 31
0.0
  0
LINE
  5
194
330
140
100
AcDbEntity
  8
LAYER_1
 62
     7
100
AcDbLine
 10
58.23145853678385
 20
0.8173489040798611
 30
0.0
 11
59.79346483018663
 21
0.8614461263020833
 31
0.0
  0
LINE
  5
193
330
140
100
AcDbEntity
  8
LAYER_1
 62
     7
100
AcDbLine
 10
59.37557474772135
 20
-1.888601345486111
 30
0.0
 11
60.84955885145399
 21
-1.866552734375
 31
0.0
  0
LINE
  5
192
330
140
100
AcDbEntity
  8
LAYER_1
 62
     7
100
AcDbLine
 10
64.63347947862413
 20
1.1255126953125
 30
0.0
 11
66.12951219346788
 21
1.147389051649306
 31
0.0
  0
LINE
  5
191
330
140
100
AcDbEntity
  8
LAYER_1
 62
     7
100
AcDbLine
 10
64.80952385796441
 20
0.7734239366319444
 30
0.0
 11
66.32743292914496
 21
0.7954725477430555
 31
0.0
  0
LINE
  5
190
330
140
100
AcDbEntity
  8
LAYER_1
 62
     7
100
AcDbLine
 10
61.3335947672526
 20
1.191486273871528
 30
0.0
 11
62.9395260281033
 21
1.213362630208333
 31
0.0
  0
LINE
  5
18F
330
140
100
AcDbEntity
  8
LAYER_1
 62
     7
100
AcDbLine
 10
61.50946689181857
 20
0.7954725477430555
 30
0.0
 11
63.13744676378038
 21
0.8173489040798611
 31
0.0
  0
LINE
  5
18E
330
140
100
AcDbEntity
  8
LAYER_1
 62
     7
100
AcDbLine
 10
62.63153449164496
 20
-1.97662353515625
 30
0.0
 11
64.23746575249565
 21
-1.954574924045139
 31
0.0
  0
SPLINE
  5
18D
330
140
100
AcDbEntity
  8
LAYER_1
 62
     7
100
AcDbSpline
210
0.0
220
0.0
230
1.0
 70
     8
 71
     3
 72
     8
 73
     4
 74
     0
 42
0.0000000001
 43
0.0000000001
 40
0.0
 40
0.0
 40
0.0
 40
0.0
 40
1.0
 40
1.0
 40
1.0
 40
1.0
 10
66.85539381239148
 20
2.027438693576389
 30
0.0
 10
69.69346347384982
 20
0.5973795572916666
 30
0.0
 10
76.71146748860676
 20
-0.3045464409722222
 30
0.0
 10
80.62750752766927
 20
-0.2826700846354167
 30
0.0
  0
LINE
  5
18C
330
140
100
AcDbEntity
  8
LAYER_1
 62
     7
100
AcDbLine
 10
67.93336418999566
 20
1.081415473090278
 30
0.0
 11
69.45144551595051
 21
0.927419704861111
 31
0.0
  0
LINE
  5
18B
330
140
100
AcDbEntity
  8
LAYER_1
 62
     7
100
AcDbLine
 10
68.10940856933593
 20
0.6633531358506943
 30
0.0
 11
69.58356492784287
 21
0.55345458984375
 31
0.0
  0
LINE
  5
18A
330
140
100
AcDbEntity
  8
LAYER_1
 62
     7
100
AcDbLine
 10
71.32144334581163
 20
0.3553615993923611
 30
0.0
 11
73.05949401855469
 21
0.1794894748263889
 31
0.0
  0
LINE
  5
189
330
140
100
AcDbEntity
  8
LAYER_1
 62
     7
100
AcDbLine
 10
69.1875512017144
 20
-1.866552734375
 30
0.0
 11
70.52941589355469
 21
-1.756654188368055
 31
0.0
  0
LINE
  5
188
330
140
100
AcDbEntity
  8
LAYER_1
 62
     7
100
AcDbLine
 10
72.26746656629774
 20
-1.646583387586805
 30
0.0
 11
73.74145067003038
 21
-1.470711263020833
 31
0.0
  0
SPLINE
  5
187
330
140
100
AcDbEntity
  8
LAYER_1
 62
     7
100
AcDbSpline
210
0.0
220
0.0
230
1.0
 70
     8
 71
     3
 72
     8
 73
     4
 74
     0
 42
0.0000000001
 43
0.0000000001
 40
0.0
 40
0.0
 40
0.0
 40
0.0
 40
1.0
 40
1.0
 40
1.0
 40
1.0
 10
33.98763258192274
 20
-2.636531575520833
 30
0.0
 10
33.84879523383246
 20
-2.560911729600694
 30
0.0
 10
33.41023457845052
 20
-1.873442925347222
 30
0.0
 10
33.05263366699219
 20
-1.211984592013889
 30
0.0
  0
SPLINE
  5
186
330
140
100
AcDbEntity
  8
LAYER_1
 62
     7
100
AcDbSpline
210
0.0
220
0.0
230
1.0
 70
     8
 71
     3
 72
     8
 73
     4
 74
     0
 42
0.0000000001
 43
0.0000000001
 40
0.0
 40
0.0
 40
0.0
 40
0.0
 40
1.0
 40
1.0
 40
1.0
 40
1.0
 10
34.42757127549913
 20
-0.5026394314236111
 30
0.0
 10
34.14162835015191
 20
0.2893880208333333
 30
0.0
 10
33.6575924343533
 20
1.829345703125
 30
0.0
 10
32.79959140353732
 20
2.159385850694444
 30
0.0
  0
SPLINE
  5
185
330
140
100
AcDbEntity
  8
LAYER_1
 62
     7
100
AcDbSpline
210
0.0
220
0.0
230
1.0
 70
     8
 71
     3
 72
    11
 73
     7
 74
     0
 42
0.0000000001
 43
0.0000000001
 40
0.0
 40
0.0
 40
0.0
 40
0.0
 40
1.0
 40
1.0
 40
1.0
 40
2.0
 40
2.0
 40
2.0
 40
2.0
 10
36.49566209581163
 20
-3.692625596788194
 30
0.0
 10
35.65953742133246
 20
-2.856673177083333
 30
0.0
 10
35.35171813964843
 20
-1.294666883680556
 30
0.0
 10
35.06560295952691
 20
-0.1946478949652778
 30
0.0
 10
34.77966003417969
 20
0.9053710937499999
 30
0.0
 10
34.27357550726996
 20
2.621373155381944
 30
0.0
 10
33.70168965657552
 20
3.171382649739583
 30
0.0
  0
SPLINE
  5
184
330
140
100
AcDbEntity
  8
LAYER_1
 62
     7
100
AcDbSpline
210
0.0
220
0.0
230
1.0
 70
     8
 71
     3
 72
     8
 73
     4
 74
     0
 42
0.0000000001
 43
0.0000000001
 40
0.0
 40
0.0
 40
0.0
 40
0.0
 40
1.0
 40
1.0
 40
1.0
 40
1.0
 10
37.15557013617621
 20
-2.592606608072916
 30
0.0
 10
36.87376132541233
 20
-2.218641493055555
 30
0.0
 10
36.5258066813151
 20
-1.700154622395833
 30
0.0
 10
36.24537590874566
 20
-1.157035319010417
 30
0.0
  0
SPLINE
  5
183
330
140
100
AcDbEntity
  8
LAYER_1
 62
     7
100
AcDbSpline
210
0.0
220
0.0
230
1.0
 70
     8
 71
     3
 72
     8
 73
     4
 74
     0
 42
0.0000000001
 43
0.0000000001
 40
0.0
 40
0.0
 40
0.0
 40
0.0
 40
1.0
 40
1.0
 40
1.0
 40
1.0
 10
35.94565260145399
 20
-0.4805908203124999
 30
0.0
 10
35.65953742133246
 20
0.2893880208333333
 30
0.0
 10
35.2636959499783
 20
1.543402777777778
 30
0.0
 10
34.95553215874566
 20
2.027438693576389
 30
0.0
  0
SPLINE
  5
182
330
140
100
AcDbEntity
  8
LAYER_1
 62
     7
100
AcDbSpline
210
0.0
220
0.0
230
1.0
 70
     8
 71
     3
 72
    11
 73
     7
 74
     0
 42
0.0000000001
 43
0.0000000001
 40
0.0
 40
0.0
 40
0.0
 40
0.0
 40
1.0
 40
1.0
 40
1.0
 40
2.0
 40
2.0
 40
2.0
 40
2.0
 10
39.46550665961371
 20
-3.604603407118055
 30
0.0
 10
39.11359015570746
 20
-2.922646755642361
 30
0.0
 10
38.58562927246094
 20
-1.184596082899305
 30
0.0
 10
38.40958489312066
 20
-0.2606214735243055
 30
0.0
 10
38.23354051378038
 20
0.6633531358506943
 30
0.0
 10
37.88162400987413
 20
2.225359429253472
 30
0.0
 10
36.80365363226996
 20
3.281453450520833
 30
0.0
  0
SPLINE
  5
181
330
140
100
AcDbEntity
  8
LAYER_1
 62
     7
100
AcDbSpline
210
0.0
220
0.0
230
1.0
 70
     8
 71
     3
 72
     8
 73
     4
 74
     0
 42
0.0000000001
 43
0.0000000001
 40
0.0
 40
0.0
 40
0.0
 40
0.0
 40
1.0
 40
1.0
 40
1.0
 40
1.0
 10
40.36760491265191
 20
-2.592606608072916
 30
0.0
 10
40.10353834364149
 20
-2.197970920138889
 30
0.0
 10
39.83137580023871
 20
-1.7084228515625
 30
0.0
 10
39.5797115749783
 20
-1.184596082899305
 30
0.0
  0
SPLINE
  5
180
330
140
100
AcDbEntity
  8
LAYER_1
 62
     7
100
AcDbSpline
210
0.0
220
0.0
230
1.0
 70
     8
 71
     3
 72
     8
 73
     4
 74
     0
 42
0.0000000001
 43
0.0000000001
 40
0.0
 40
0.0
 40
0.0
 40
0.0
 40
1.0
 40
1.0
 40
1.0
 40
1.0
 10
39.11359015570746
 20
-0.1066257052951389
 30
0.0
 10
38.44265780978732
 20
0.5644788953993055
 30
0.0
 10
38.36565992567274
 20
1.609376356336805
 30
0.0
 10
38.18961554633246
 20
2.027438693576389
 30
0.0
  0
SPLINE
  5
17F
330
140
100
AcDbEntity
  8
LAYER_1
 62
     7
100
AcDbSpline
210
0.0
220
0.0
230
1.0
 70
     8
 71
     3
 72
     8
 73
     4
 74
     0
 42
0.0000000001
 43
0.0000000001
 40
0.0
 40
0.0
 40
0.0
 40
0.0
 40
1.0
 40
1.0
 40
1.0
 40
1.0
 10
42.10565558539496
 20
-2.966571723090278
 30
0.0
 10
41.95975579155816
 20
-2.783809407552083
 30
0.0
 10
41.64900817871094
 20
-2.064645724826389
 30
0.0
 10
41.3906260172526
 20
-1.423857964409722
 30
0.0
  0
SPLINE
  5
17E
330
140
100
AcDbEntity
  8
LAYER_1
 62
     7
100
AcDbSpline
210
0.0
220
0.0
230
1.0
 70
     8
 71
     3
 72
     8
 73
     4
 74
     0
 42
0.0000000001
 43
0.0000000001
 40
0.0
 40
0.0
 40
0.0
 40
0.0
 40
1.0
 40
1.0
 40
1.0
 40
1.0
 10
41.00563659667969
 20
-0.4146172417534722
 30
0.0
 10
40.85164082845052
 20
0.0254937065972222
 30
0.0
 10
40.25753411187066
 20
2.335430230034722
 30
0.0
 10
39.22366095648872
 20
2.093412272135417
 30
0.0
  0
SPLINE
  5
17D
330
140
100
AcDbEntity
  8
LAYER_1
 62
     7
100
AcDbSpline
210
0.0
220
0.0
230
1.0
 70
     8
 71
     3
 72
    11
 73
     7
 74
     0
 42
0.0000000001
 43
0.0000000001
 40
0.0
 40
0.0
 40
0.0
 40
0.0
 40
1.0
 40
1.0
 40
1.0
 40
2.0
 40
2.0
 40
2.0
 40
2.0
 10
42.96365661621093
 20
-3.802524142795138
 30
0.0
 10
42.6556650797526
 20
-3.406682671440972
 30
0.0
 10
42.10565558539496
 20
-1.800579155815972
 30
0.0
 10
41.92961120605468
 20
-0.8766045464409722
 30
0.0
 10
41.75356682671441
 20
0.0473700629340278
 30
0.0
 10
41.00563659667969
 20
2.621373155381944
 30
0.0
 10
40.36760491265191
 20
3.017386881510416
 30
0.0
  0
SPLINE
  5
17C
330
140
100
AcDbEntity
  8
LAYER_1
 62
     7
100
AcDbSpline
210
0.0
220
0.0
230
1.0
 70
     8
 71
     3
 72
     8
 73
     4
 74
     0
 42
0.0000000001
 43
0.0000000001
 40
0.0
 40
0.0
 40
0.0
 40
0.0
 40
1.0
 40
1.0
 40
1.0
 40
1.0
 10
43.66766187879774
 20
-2.570557996961806
 30
0.0
 10
43.43529018825954
 20
-2.123729112413194
 30
0.0
 10
43.16571146647135
 20
-1.684996202256944
 30
0.0
 10
42.94436408148872
 20
-1.238167317708333
 30
0.0
  0
SPLINE
  5
17B
330
140
100
AcDbEntity
  8
LAYER_1
 62
     7
100
AcDbSpline
210
0.0
220
0.0
230
1.0
 70
     8
 71
     3
 72
     8
 73
     4
 74
     0
 42
0.0000000001
 43
0.0000000001
 40
0.0
 40
0.0
 40
0.0
 40
0.0
 40
1.0
 40
1.0
 40
1.0
 40
1.0
 10
42.6556650797526
 20
-0.5246880425347221
 30
0.0
 10
42.4355234781901
 20
0.1794894748263889
 30
0.0
 10
41.92961120605468
 20
1.521354166666667
 30
0.0
 10
41.59957105848524
 20
2.005390082465278
 30
0.0
  0
SPLINE
  5
17A
330
140
100
AcDbEntity
  8
LAYER_1
 62
     7
100
AcDbSpline
210
0.0
220
0.0
230
1.0
 70
     8
 71
     3
 72
     8
 73
     4
 74
     0
 42
0.0000000001
 43
0.0000000001
 40
0.0
 40
0.0
 40
0.0
 40
0.0
 40
1.0
 40
1.0
 40
1.0
 40
1.0
 10
45.47151387532551
 20
-3.186541069878472
 30
0.0
 10
45.30253194173177
 20
-2.995510525173611
 30
0.0
 10
44.95595533582899
 20
-2.272212727864583
 30
0.0
 10
44.64107360839844
 20
-1.569585503472222
 30
0.0
  0
SPLINE
  5
179
330
140
100
AcDbEntity
  8
LAYER_1
 62
     7
100
AcDbSpline
210
0.0
220
0.0
230
1.0
 70
     8
 71
     3
 72
     8
 73
     4
 74
     0
 42
0.0000000001
 43
0.0000000001
 40
0.0
 40
0.0
 40
0.0
 40
0.0
 40
1.0
 40
1.0
 40
1.0
 40
1.0
 10
44.0416269938151
 20
-0.1725992838541667
 30
0.0
 10
43.8216576470269
 20
0.3553615993923611
 30
0.0
 10
43.55759107801649
 20
1.807469346788194
 30
0.0
 10
42.69959004720052
 20
2.0494873046875
 30
0.0
  0
SPLINE
  5
178
330
140
100
AcDbEntity
  8
LAYER_1
 62
     7
100
AcDbSpline
210
0.0
220
0.0
230
1.0
 70
     8
 71
     3
 72
    11
 73
     7
 74
     0
 42
0.0000000001
 43
0.0000000001
 40
0.0
 40
0.0
 40
0.0
 40
0.0
 40
1.0
 40
1.0
 40
1.0
 40
2.0
 40
2.0
 40
2.0
 40
2.0
 10
46.32951490614149
 20
-3.82457275390625
 30
0.0
 10
45.77950541178385
 20
-3.384634060329861
 30
0.0
 10
45.20761956108941
 20
-1.822627766927083
 30
0.0
 10
45.09754876030816
 20
-1.030600314670139
 30
0.0
 10
44.98765021430121
 20
-0.2385728624131944
 30
0.0
 10
44.45951707628038
 20
2.071363661024305
 30
0.0
 10
43.99752977159288
 20
2.687518988715278
 30
0.0
  0
SPLINE
  5
177
330
140
100
AcDbEntity
  8
LAYER_1
 62
     7
100
AcDbSpline
210
0.0
220
0.0
230
1.0
 70
     8
 71
     3
 72
     8
 73
     4
 74
     0
 42
0.0000000001
 43
0.0000000001
 40
0.0
 40
0.0
 40
0.0
 40
0.0
 40
1.0
 40
1.0
 40
1.0
 40
1.0
 10
46.90157301161024
 20
-2.614655219184027
 30
0.0
 10
46.68573777940538
 20
-2.3285400390625
 30
0.0
 10
46.46163431803385
 20
-1.865174696180555
 30
0.0
 10
46.23890889485676
 20
-1.363396538628472
 30
0.0
  0
SPLINE
  5
176
330
140
100
AcDbEntity
  8
LAYER_1
 62
     7
100
AcDbSpline
210
0.0
220
0.0
230
1.0
 70
     8
 71
     3
 72
     8
 73
     4
 74
     0
 42
0.0000000001
 43
0.0000000001
 40
0.0
 40
0.0
 40
0.0
 40
0.0
 40
1.0
 40
1.0
 40
1.0
 40
1.0
 10
45.8895762125651
 20
-0.5465643988715278
 30
0.0
 10
45.55953606499566
 20
0.2234144422743055
 30
0.0
 10
45.09754876030816
 20
1.521354166666667
 30
0.0
 10
44.7235836452908
 20
2.027438693576389
 30
0.0
  0
SPLINE
  5
175
330
140
100
AcDbEntity
  8
LAYER_1
 62
     7
100
AcDbSpline
210
0.0
220
0.0
230
1.0
 70
     8
 71
     3
 72
     8
 73
     4
 74
     0
 42
0.0000000001
 43
0.0000000001
 40
0.0
 40
0.0
 40
0.0
 40
0.0
 40
1.0
 40
1.0
 40
1.0
 40
1.0
 10
48.46357930501301
 20
-2.702677408854167
 30
0.0
 10
48.28891296386718
 20
-2.478401692708333
 30
0.0
 10
48.0785898844401
 20
-2.016414388020833
 30
0.0
 10
47.88463100857204
 20
-1.540646701388889
 30
0.0
  0
SPLINE
  5
174
330
140
100
AcDbEntity
  8
LAYER_1
 62
     7
100
AcDbSpline
210
0.0
220
0.0
230
1.0
 70
     8
 71
     3
 72
     8
 73
     4
 74
     0
 42
0.0000000001
 43
0.0000000001
 40
0.0
 40
0.0
 40
0.0
 40
0.0
 40
1.0
 40
1.0
 40
1.0
 40
1.0
 10
47.49550747341579
 20
-0.5246880425347221
 30
0.0
 10
47.25348951551649
 20
0.1133436414930556
 30
0.0
 10
46.70365227593316
 20
1.829345703125
 30
0.0
 10
45.99964701334635
 20
2.0494873046875
 30
0.0
  0
SPLINE
  5
173
330
140
100
AcDbEntity
  8
LAYER_1
 62
     7
100
AcDbSpline
210
0.0
220
0.0
230
1.0
 70
     8
 71
     3
 72
    11
 73
     7
 74
     0
 42
0.0000000001
 43
0.0000000001
 40
0.0
 40
0.0
 40
0.0
 40
0.0
 40
1.0
 40
1.0
 40
1.0
 40
2.0
 40
2.0
 40
2.0
 40
2.0
 10
49.5635982937283
 20
-3.670576985677083
 30
0.0
 10
49.18963317871094
 20
-3.186541069878472
 30
0.0
 10
48.70559726291232
 20
-1.822627766927083
 30
0.0
 10
48.52955288357205
 20
-0.8986531575520833
 30
0.0
 10
48.35350850423177
 20
0.0254937065972222
 30
0.0
 10
47.75957404242621
 20
2.445501030815972
 30
0.0
 10
47.23161315917968
 20
2.929364691840278
 30
0.0
  0
SPLINE
  5
172
330
140
100
AcDbEntity
  8
LAYER_1
 62
     7
100
AcDbSpline
210
0.0
220
0.0
230
1.0
 70
     8
 71
     3
 72
     8
 73
     4
 74
     0
 42
0.0000000001
 43
0.0000000001
 40
0.0
 40
0.0
 40
0.0
 40
0.0
 40
1.0
 40
1.0
 40
1.0
 40
1.0
 10
50.31152852376302
 20
-2.680628797743055
 30
0.0
 10
50.03523186577691
 20
-2.217263454861111
 30
0.0
 10
49.79734802246093
 20
-1.753898111979167
 30
0.0
 10
49.56635437011718
 20
-1.283642578125
 30
0.0
  0
SPLINE
  5
171
330
140
100
AcDbEntity
  8
LAYER_1
 62
     7
100
AcDbSpline
210
0.0
220
0.0
230
1.0
 70
     8
 71
     3
 72
     8
 73
     4
 74
     0
 42
0.0000000001
 43
0.0000000001
 40
0.0
 40
0.0
 40
0.0
 40
0.0
 40
1.0
 40
1.0
 40
1.0
 40
1.0
 10
49.21150953504774
 20
-0.5465643988715278
 30
0.0
 10
48.85959303114149
 20
0.1794894748263889
 30
0.0
 10
48.24360995822482
 20
1.565451388888889
 30
0.0
 10
48.22156134711371
 20
2.027438693576389
 30
0.0
  0
SPLINE
  5
170
330
140
100
AcDbEntity
  8
LAYER_1
 62
     7
100
AcDbSpline
210
0.0
220
0.0
230
1.0
 70
     8
 71
     3
 72
     8
 73
     4
 74
     0
 42
0.0000000001
 43
0.0000000001
 40
0.0
 40
0.0
 40
0.0
 40
0.0
 40
1.0
 40
1.0
 40
1.0
 40
1.0
 10
51.60946824815538
 20
-2.79052734375
 30
0.0
 10
51.28924662272135
 20
-2.481157769097222
 30
0.0
 10
51.0925316704644
 20
-1.938038465711805
 30
0.0
 10
50.9838389078776
 20
-1.410077582465278
 30
0.0
  0
SPLINE
  5
16F
330
140
100
AcDbEntity
  8
LAYER_1
 62
     7
100
AcDbSpline
210
0.0
220
0.0
230
1.0
 70
     8
 71
     3
 72
     8
 73
     4
 74
     0
 42
0.0000000001
 43
0.0000000001
 40
0.0
 40
0.0
 40
0.0
 40
0.0
 40
1.0
 40
1.0
 40
1.0
 40
1.0
 10
50.55354648166232
 20
-0.3925686306423611
 30
0.0
 10
50.39955071343316
 20
0.1353922526041667
 30
0.0
 10
49.98166063096788
 20
1.829345703125
 30
0.0
 10
49.05751376681857
 20
2.0494873046875
 30
0.0
  0
SPLINE
  5
16E
330
140
100
AcDbEntity
  8
LAYER_1
 62
     7
100
AcDbSpline
210
0.0
220
0.0
230
1.0
 70
     8
 71
     3
 72
    11
 73
     7
 74
     0
 42
0.0000000001
 43
0.0000000001
 40
0.0
 40
0.0
 40
0.0
 40
0.0
 40
1.0
 40
1.0
 40
1.0
 40
2.0
 40
2.0
 40
2.0
 40
2.0
 10
52.59958869086371
 20
-3.802524142795138
 30
0.0
 10
52.20357496473524
 20
-3.186541069878472
 30
0.0
 10
51.69749043782552
 20
-1.822627766927083
 30
0.0
 10
51.56554328070746
 20
-0.9865030924479166
 30
0.0
 10
51.4335961235894
 20
-0.1505506727430555
 30
0.0
 10
50.68549363878038
 20
2.511474609375
 30
0.0
 10
50.0474619547526
 20
3.039435492621528
 30
0.0
  0
SPLINE
  5
16D
330
140
100
AcDbEntity
  8
LAYER_1
 62
     7
100
AcDbSpline
210
0.0
220
0.0
230
1.0
 70
     8
 71
     3
 72
     8
 73
     4
 74
     0
 42
0.0000000001
 43
0.0000000001
 40
0.0
 40
0.0
 40
0.0
 40
0.0
 40
1.0
 40
1.0
 40
1.0
 40
1.0
 10
53.41349249945746
 20
-2.680628797743055
 30
0.0
 10
53.32547030978732
 20
-2.446879069010417
 30
0.0
 10
52.98182203504774
 20
-1.901003689236111
 30
0.0
 10
52.65867207845052
 20
-1.322055392795139
 30
0.0
  0
SPLINE
  5
16C
330
140
100
AcDbEntity
  8
LAYER_1
 62
     7
100
AcDbSpline
210
0.0
220
0.0
230
1.0
 70
     8
 71
     3
 72
     8
 73
     4
 74
     0
 42
0.0000000001
 43
0.0000000001
 40
0.0
 40
0.0
 40
0.0
 40
0.0
 40
1.0
 40
1.0
 40
1.0
 40
1.0
 10
52.22562357584635
 20
-0.4585422092013888
 30
0.0
 10
51.87353481716579
 20
0.3553615993923611
 30
0.0
 10
51.63151685926649
 20
1.521354166666667
 30
0.0
 10
51.23550313313802
 20
2.027438693576389
 30
0.0
  0
SPLINE
  5
16B
330
140
100
AcDbEntity
  8
LAYER_1
 62
     7
100
AcDbSpline
210
0.0
220
0.0
230
1.0
 70
     8
 71
     3
 72
     8
 73
     4
 74
     0
 42
0.0000000001
 43
0.0000000001
 40
0.0
 40
0.0
 40
0.0
 40
0.0
 40
1.0
 40
1.0
 40
1.0
 40
1.0
 10
54.93157382541232
 20
-2.878549533420139
 30
0.0
 10
54.71987270779079
 20
-2.598118760850694
 30
0.0
 10
54.42686733669704
 20
-1.96422119140625
 30
0.0
 10
54.19173956976996
 20
-1.389407009548611
 30
0.0
  0
SPLINE
  5
16A
330
140
100
AcDbEntity
  8
LAYER_1
 62
     7
100
AcDbSpline
210
0.0
220
0.0
230
1.0
 70
     8
 71
     3
 72
     8
 73
     4
 74
     0
 42
0.0000000001
 43
0.0000000001
 40
0.0
 40
0.0
 40
0.0
 40
0.0
 40
1.0
 40
1.0
 40
1.0
 40
1.0
 10
53.87547980414496
 20
-0.5465643988715278
 30
0.0
 10
53.67755906846788
 20
0.0473700629340278
 30
0.0
 10
52.97355380588108
 20
1.983341471354166
 30
0.0
 10
52.26954854329426
 20
2.027438693576389
 30
0.0
  0
SPLINE
  5
169
330
140
100
AcDbEntity
  8
LAYER_1
 62
     7
100
AcDbSpline
210
0.0
220
0.0
230
1.0
 70
     8
 71
     3
 72
    11
 73
     7
 74
     0
 42
0.0000000001
 43
0.0000000001
 40
0.0
 40
0.0
 40
0.0
 40
0.0
 40
1.0
 40
1.0
 40
1.0
 40
2.0
 40
2.0
 40
2.0
 40
2.0
 10
55.94357062445746
 20
-3.82457275390625
 30
0.0
 10
55.63557908799913
 20
-3.516581217447917
 30
0.0
 10
54.99754740397135
 20
-1.866552734375
 30
0.0
 10
54.75552944607205
 20
-0.9865030924479166
 30
0.0
 10
54.51351148817274
 20
-0.1066257052951389
 30
0.0
 10
54.05152418348524
 20
2.335430230034722
 30
0.0
 10
53.39161614312066
 20
2.995510525173611
 30
0.0
  0
SPLINE
  5
168
330
140
100
AcDbEntity
  8
LAYER_1
 62
     7
100
AcDbSpline
210
0.0
220
0.0
230
1.0
 70
     8
 71
     3
 72
     8
 73
     4
 74
     0
 42
0.0000000001
 43
0.0000000001
 40
0.0
 40
0.0
 40
0.0
 40
0.0
 40
1.0
 40
1.0
 40
1.0
 40
1.0
 10
56.55955369737413
 20
-2.658580186631944
 30
0.0
 10
56.31753573947482
 20
-2.298395453559027
 30
0.0
 10
56.01505635579427
 20
-1.79368896484375
 30
0.0
 10
55.76201409233941
 20
-1.265728081597222
 30
0.0
  0
SPLINE
  5
167
330
140
100
AcDbEntity
  8
LAYER_1
 62
     7
100
AcDbSpline
210
0.0
220
0.0
230
1.0
 70
     8
 71
     3
 72
     8
 73
     4
 74
     0
 42
0.0000000001
 43
0.0000000001
 40
0.0
 40
0.0
 40
0.0
 40
0.0
 40
1.0
 40
1.0
 40
1.0
 40
1.0
 10
55.45953470865885
 20
-0.5246880425347221
 30
0.0
 10
55.19564039442274
 20
0.2454630533854167
 30
0.0
 10
54.79962666829427
 20
1.543402777777778
 30
0.0
 10
54.44753790961371
 20
1.983341471354166
 30
0.0
  0
SPLINE
  5
166
330
140
100
AcDbEntity
  8
LAYER_1
 62
     7
100
AcDbSpline
210
0.0
220
0.0
230
1.0
 70
     8
 71
     3
 72
     8
 73
     4
 74
     0
 42
0.0000000001
 43
0.0000000001
 40
0.0
 40
0.0
 40
0.0
 40
0.0
 40
1.0
 40
1.0
 40
1.0
 40
1.0
 10
58.07763502332899
 20
-2.812575954861111
 30
0.0
 10
57.90710279676649
 20
-2.591228569878472
 30
0.0
 10
57.65957268608941
 20
-1.929770236545139
 30
0.0
 10
57.44907735188802
 20
-1.350994194878472
 30
0.0
  0
SPLINE
  5
165
330
140
100
AcDbEntity
  8
LAYER_1
 62
     7
100
AcDbSpline
210
0.0
220
0.0
230
1.0
 70
     8
 71
     3
 72
     8
 73
     4
 74
     0
 42
0.0000000001
 43
0.0000000001
 40
0.0
 40
0.0
 40
0.0
 40
0.0
 40
1.0
 40
1.0
 40
1.0
 40
1.0
 10
57.10956319173177
 20
-0.4366658528645833
 30
0.0
 10
56.93351881239149
 20
-0.0625284830729167
 30
0.0
 10
56.33958435058593
 20
1.983341471354166
 30
0.0
 10
55.54755689832899
 20
2.027438693576389
 30
0.0
  0
SPLINE
  5
164
330
140
100
AcDbEntity
  8
LAYER_1
 62
     7
100
AcDbSpline
210
0.0
220
0.0
230
1.0
 70
     8
 71
     3
 72
    11
 73
     7
 74
     0
 42
0.0000000001
 43
0.0000000001
 40
0.0
 40
0.0
 40
0.0
 40
0.0
 40
1.0
 40
1.0
 40
1.0
 40
2.0
 40
2.0
 40
2.0
 40
2.0
 10
58.91358744303385
 20
-3.516581217447917
 30
0.0
 10
58.5614986843533
 20
-2.878549533420139
 30
0.0
 10
57.96756422254774
 20
-1.448662651909722
 30
0.0
 10
57.79151984320746
 20
-0.4805908203124999
 30
0.0
 10
57.61547546386719
 20
0.4874810112847222
 30
0.0
 10
57.02154100206163
 20
2.599324544270833
 30
0.0
 10
56.58160230848524
 20
2.929364691840278
 30
0.0
  0
SPLINE
  5
163
330
140
100
AcDbEntity
  8
LAYER_1
 62
     7
100
AcDbSpline
210
0.0
220
0.0
230
1.0
 70
     8
 71
     3
 72
     8
 73
     4
 74
     0
 42
0.0000000001
 43
0.0000000001
 40
0.0
 40
0.0
 40
0.0
 40
0.0
 40
1.0
 40
1.0
 40
1.0
 40
1.0
 10
59.88148701985676
 20
-2.636531575520833
 30
0.0
 10
59.52543640136718
 20
-2.163519965277778
 30
0.0
 10
59.25999179416232
 20
-1.701532660590278
 30
0.0
 10
59.01659579806857
 20
-1.22318115234375
 30
0.0
  0
SPLINE
  5
162
330
140
100
AcDbEntity
  8
LAYER_1
 62
     7
100
AcDbSpline
210
0.0
220
0.0
230
1.0
 70
     8
 71
     3
 72
     8
 73
     4
 74
     0
 42
0.0000000001
 43
0.0000000001
 40
0.0
 40
0.0
 40
0.0
 40
0.0
 40
1.0
 40
1.0
 40
1.0
 40
1.0
 10
58.67156948513454
 20
-0.5026394314236111
 30
0.0
 10
58.31948072645399
 20
0.2454630533854167
 30
0.0
 10
58.09951137966579
 20
1.587327745225694
 30
0.0
 10
57.68144904242621
 20
2.005390082465278
 30
0.0
  0
SPLINE
  5
161
330
140
100
AcDbEntity
  8
LAYER_1
 62
     7
100
AcDbSpline
210
0.0
220
0.0
230
1.0
 70
     8
 71
     3
 72
     8
 73
     4
 74
     0
 42
0.0000000001
 43
0.0000000001
 40
0.0
 40
0.0
 40
0.0
 40
0.0
 40
1.0
 40
1.0
 40
1.0
 40
1.0
 10
61.39956834581162
 20
-2.944523111979167
 30
0.0
 10
61.21525573730468
 20
-2.691653103298611
 30
0.0
 10
60.91415439181857
 20
-2.005390082465278
 30
0.0
 10
60.64044155544704
 20
-1.335835774739583
 30
0.0
  0
SPLINE
  5
160
330
140
100
AcDbEntity
  8
LAYER_1
 62
     7
100
AcDbSpline
210
0.0
220
0.0
230
1.0
 70
     8
 71
     3
 72
     8
 73
     4
 74
     0
 42
0.0000000001
 43
0.0000000001
 40
0.0
 40
0.0
 40
0.0
 40
0.0
 40
1.0
 40
1.0
 40
1.0
 40
1.0
 10
60.23357577853732
 20
-0.3045464409722222
 30
0.0
 10
59.92558424207899
 20
0.4874810112847222
 30
0.0
 10
59.57349548339843
 20
2.071363661024305
 30
0.0
 10
58.78146803114149
 20
2.0494873046875
 30
0.0
  0
SPLINE
  5
15F
330
140
100
AcDbEntity
  8
LAYER_1
 62
     7
100
AcDbSpline
210
0.0
220
0.0
230
1.0
 70
     8
 71
     3
 72
    11
 73
     7
 74
     0
 42
0.0000000001
 43
0.0000000001
 40
0.0
 40
0.0
 40
0.0
 40
0.0
 40
1.0
 40
1.0
 40
1.0
 40
2.0
 40
2.0
 40
2.0
 40
2.0
 10
62.21347215440537
 20
-3.670576985677083
 30
0.0
 10
61.81745842827691
 20
-3.054593912760416
 30
0.0
 10
61.42144470214844
 20
-1.734605577256944
 30
0.0
 10
61.22352396647135
 20
-0.7226087782118055
 30
0.0
 10
61.02543097601996
 20
0.2893880208333333
 30
0.0
 10
60.07958001030816
 20
3.105409071180555
 30
0.0
 10
59.48547329372829
 20
3.237356228298611
 30
0.0
  0
SPLINE
  5
15E
330
140
100
AcDbEntity
  8
LAYER_1
 62
     7
100
AcDbSpline
210
0.0
220
0.0
230
1.0
 70
     8
 71
     3
 72
     8
 73
     4
 74
     0
 42
0.0000000001
 43
0.0000000001
 40
0.0
 40
0.0
 40
0.0
 40
0.0
 40
1.0
 40
1.0
 40
1.0
 40
1.0
 10
63.09352179633246
 20
-2.702677408854167
 30
0.0
 10
62.78966437445746
 20
-2.232421875
 30
0.0
 10
62.48580695258246
 20
-1.752520073784722
 30
0.0
 10
62.24654507107204
 20
-1.268484157986111
 30
0.0
  0
SPLINE
  5
15D
330
140
100
AcDbEntity
  8
LAYER_1
 62
     7
100
AcDbSpline
210
0.0
220
0.0
230
1.0
 70
     8
 71
     3
 72
     8
 73
     4
 74
     0
 42
0.0000000001
 43
0.0000000001
 40
0.0
 40
0.0
 40
0.0
 40
0.0
 40
1.0
 40
1.0
 40
1.0
 40
1.0
 10
61.97145419650607
 20
-0.6125379774305555
 30
0.0
 10
61.72943623860677
 20
0.09146728515625
 30
0.0
 10
61.26744893391926
 20
1.543402777777778
 30
0.0
 10
61.00355461968316
 20
1.961465115017361
 30
0.0
  0
SPLINE
  5
15C
330
140
100
AcDbEntity
  8
LAYER_1
 62
     7
100
AcDbSpline
210
0.0
220
0.0
230
1.0
 70
     8
 71
     3
 72
     8
 73
     4
 74
     0
 42
0.0000000001
 43
0.0000000001
 40
0.0
 40
0.0
 40
0.0
 40
0.0
 40
1.0
 40
1.0
 40
1.0
 40
1.0
 10
65.16144036187066
 20
-3.406682671440972
 30
0.0
 10
64.86309509277344
 20
-3.170176866319444
 30
0.0
 10
64.37492506239148
 20
-2.261188422309028
 30
0.0
 10
64.00785013834634
 20
-1.444528537326389
 30
0.0
  0
SPLINE
  5
15B
330
140
100
AcDbEntity
  8
LAYER_1
 62
     7
100
AcDbSpline
210
0.0
220
0.0
230
1.0
 70
     8
 71
     3
 72
     8
 73
     4
 74
     0
 42
0.0000000001
 43
0.0000000001
 40
0.0
 40
0.0
 40
0.0
 40
0.0
 40
1.0
 40
1.0
 40
1.0
 40
1.0
 10
63.59943406846788
 20
-0.4146172417534722
 30
0.0
 10
63.33553975423177
 20
0.3994588216145833
 30
0.0
 10
62.89542880588107
 20
2.005390082465278
 30
0.0
 10
62.05947638617621
 20
2.027438693576389
 30
0.0
  0
SPLINE
  5
15A
330
140
100
AcDbEntity
  8
LAYER_1
 62
     7
100
AcDbSpline
210
0.0
220
0.0
230
1.0
 70
     8
 71
     3
 72
    11
 73
     7
 74
     0
 42
0.0000000001
 43
0.0000000001
 40
0.0
 40
0.0
 40
0.0
 40
0.0
 40
1.0
 40
1.0
 40
1.0
 40
2.0
 40
2.0
 40
2.0
 40
2.0
 10
65.62342766655816
 20
-3.846621365017361
 30
0.0
 10
64.94147101508246
 20
-3.076642523871528
 30
0.0
 10
64.45743509928384
 20
-0.7226087782118055
 30
0.0
 10
64.30343933105468
 20
0.1794894748263889
 30
0.0
 10
64.14944356282551
 20
1.081415473090278
 30
0.0
 10
63.24751756456163
 20
3.061484103732639
 30
0.0
 10
62.78553025987413
 20
3.127457682291666
 30
0.0
  0
SPLINE
  5
159
330
140
100
AcDbEntity
  8
LAYER_1
 62
     7
100
AcDbSpline
210
0.0
220
0.0
230
1.0
 70
     8
 71
     3
 72
     8
 73
     4
 74
     0
 42
0.0000000001
 43
0.0000000001
 40
0.0
 40
0.0
 40
0.0
 40
0.0
 40
1.0
 40
1.0
 40
1.0
 40
1.0
 10
66.37153015136718
 20
-2.702677408854167
 30
0.0
 10
66.37842034233941
 20
-2.420696343315972
 30
0.0
 10
65.93141920301649
 20
-1.846054416232639
 30
0.0
 10
65.6592566596137
 20
-1.234033203125
 30
0.0
  0
SPLINE
  5
158
330
140
100
AcDbEntity
  8
LAYER_1
 62
     7
100
AcDbSpline
210
0.0
220
0.0
230
1.0
 70
     8
 71
     3
 72
     8
 73
     4
 74
     0
 42
0.0000000001
 43
0.0000000001
 40
0.0
 40
0.0
 40
0.0
 40
0.0
 40
1.0
 40
1.0
 40
1.0
 40
1.0
 10
65.42550693088107
 20
-0.6566351996527777
 30
0.0
 10
65.13956400553384
 20
0.09146728515625
 30
0.0
 10
64.36958516438801
 20
1.763372124565972
 30
0.0
 10
64.21541714138455
 20
2.005390082465278
 30
0.0
  0
SPLINE
  5
157
330
140
100
AcDbEntity
  8
LAYER_1
 62
     7
100
AcDbSpline
210
0.0
220
0.0
230
1.0
 70
     8
 71
     3
 72
     8
 73
     4
 74
     0
 42
0.0000000001
 43
0.0000000001
 40
0.0
 40
0.0
 40
0.0
 40
0.0
 40
1.0
 40
1.0
 40
1.0
 40
1.0
 10
67.91148783365885
 20
-2.944523111979167
 30
0.0
 10
67.58833787706162
 20
-2.569179958767361
 30
0.0
 10
67.40557556152344
 20
-1.909271918402778
 30
0.0
 10
67.20059238009982
 20
-1.334457736545139
 30
0.0
  0
SPLINE
  5
156
330
140
100
AcDbEntity
  8
LAYER_1
 62
     7
100
AcDbSpline
210
0.0
220
0.0
230
1.0
 70
     8
 71
     3
 72
     8
 73
     4
 74
     0
 42
0.0000000001
 43
0.0000000001
 40
0.0
 40
0.0
 40
0.0
 40
0.0
 40
1.0
 40
1.0
 40
1.0
 40
1.0
 10
66.92153964572482
 20
-0.5465643988715278
 30
0.0
 10
66.72344665527344
 20
-0.0406521267361111
 30
0.0
 10
66.04149000379773
 20
2.093412272135417
 30
0.0
 10
65.07341817220052
 20
2.027438693576389
 30
0.0
  0
SPLINE
  5
155
330
140
100
AcDbEntity
  8
LAYER_1
 62
     7
100
AcDbSpline
210
0.0
220
0.0
230
1.0
 70
     8
 71
     3
 72
    11
 73
     7
 74
     0
 42
0.0000000001
 43
0.0000000001
 40
0.0
 40
0.0
 40
0.0
 40
0.0
 40
1.0
 40
1.0
 40
1.0
 40
2.0
 40
2.0
 40
2.0
 40
2.0
 10
68.94553324381509
 20
-3.9346435546875
 30
0.0
 10
68.61549309624566
 20
-3.538629828559027
 30
0.0
 10
68.06548360188802
 20
-2.240517849392361
 30
0.0
 10
67.95541280110676
 20
-1.558561197916667
 30
0.0
 10
67.84551425509982
 20
-0.8766045464409722
 30
0.0
 10
66.85539381239148
 20
2.643421766493055
 30
0.0
 10
66.32743292914496
 20
2.907488335503472
 30
0.0
  0
SPLINE
  5
154
330
140
100
AcDbEntity
  8
LAYER_1
 62
     7
100
AcDbSpline
210
0.0
220
0.0
230
1.0
 70
     8
 71
     3
 72
     8
 73
     4
 74
     0
 42
0.0000000001
 43
0.0000000001
 40
0.0
 40
0.0
 40
0.0
 40
0.0
 40
1.0
 40
1.0
 40
1.0
 40
1.0
 10
69.64953850640191
 20
-2.614655219184027
 30
0.0
 10
69.54635789659288
 20
-2.357478841145833
 30
0.0
 10
69.15585632324218
 20
-1.851394314236111
 30
0.0
 10
68.84097459581163
 20
-1.271240234375
 30
0.0
  0
SPLINE
  5
153
330
140
100
AcDbEntity
  8
LAYER_1
 62
     7
100
AcDbSpline
210
0.0
220
0.0
230
1.0
 70
     8
 71
     3
 72
     8
 73
     4
 74
     0
 42
0.0000000001
 43
0.0000000001
 40
0.0
 40
0.0
 40
0.0
 40
0.0
 40
1.0
 40
1.0
 40
1.0
 40
1.0
 10
68.54951951768662
 20
-0.6125379774305555
 30
0.0
 10
68.26340433756509
 20
0.2234144422743055
 30
0.0
 10
67.66946987575955
 20
1.807469346788194
 30
0.0
 10
67.36147833930122
 20
2.159385850694444
 30
0.0
  0
SPLINE
  5
152
330
140
100
AcDbEntity
  8
LAYER_1
 62
     7
100
AcDbSpline
210
0.0
220
0.0
230
1.0
 70
     8
 71
     3
 72
     8
 73
     4
 74
     0
 42
0.0000000001
 43
0.0000000001
 40
0.0
 40
0.0
 40
0.0
 40
0.0
 40
1.0
 40
1.0
 40
1.0
 40
1.0
 10
71.0134518093533
 20
-2.680628797743055
 30
0.0
 10
70.7934824625651
 20
-2.412428114149305
 30
0.0
 10
70.64224277072482
 20
-1.944928656684028
 30
0.0
 10
70.43880988226997
 20
-1.463821072048611
 30
0.0
  0
SPLINE
  5
151
330
140
100
AcDbEntity
  8
LAYER_1
 62
     7
100
AcDbSpline
210
0.0
220
0.0
230
1.0
 70
     8
 71
     3
 72
     8
 73
     4
 74
     0
 42
0.0000000001
 43
0.0000000001
 40
0.0
 40
0.0
 40
0.0
 40
0.0
 40
1.0
 40
1.0
 40
1.0
 40
1.0
 10
70.11152581108941
 20
-0.6800618489583333
 30
0.0
 10
69.78699781629774
 20
0.1160997178819444
 30
0.0
 10
69.48314039442273
 20
0.9026150173611111
 30
0.0
 10
69.47349412706163
 20
1.103464084201389
 30
0.0
  0
SPLINE
  5
150
330
140
100
AcDbEntity
  8
LAYER_1
 62
     7
100
AcDbSpline
210
0.0
220
0.0
230
1.0
 70
     8
 71
     3
 72
    11
 73
     7
 74
     0
 42
0.0000000001
 43
0.0000000001
 40
0.0
 40
0.0
 40
0.0
 40
0.0
 40
1.0
 40
1.0
 40
1.0
 40
2.0
 40
2.0
 40
2.0
 40
2.0
 10
72.02544860839844
 20
-3.428559027777777
 30
0.0
 10
71.67353210449218
 20
-2.878549533420139
 30
0.0
 10
71.23342115614149
 20
-1.888601345486111
 30
0.0
 10
71.10147399902343
 20
-1.140671115451389
 30
0.0
 10
70.96952684190538
 20
-0.3925686306423611
 30
0.0
 10
70.83740743001302
 20
0.6414767795138888
 30
0.0
 10
70.57351311577691
 20
0.8393975151909722
 30
0.0
  0
SPLINE
  5
14F
330
140
100
AcDbEntity
  8
LAYER_1
 62
     7
100
AcDbSpline
210
0.0
220
0.0
230
1.0
 70
     8
 71
     3
 72
     8
 73
     4
 74
     0
 42
0.0000000001
 43
0.0000000001
 40
0.0
 40
0.0
 40
0.0
 40
0.0
 40
1.0
 40
1.0
 40
1.0
 40
1.0
 10
72.61938307020398
 20
-2.3285400390625
 30
0.0
 10
72.56305575900608
 20
-2.189702690972222
 30
0.0
 10
72.30174526638454
 20
-1.724959309895833
 30
0.0
 10
72.06403367784287
 20
-1.308275010850694
 30
0.0
  0
SPLINE
  5
14E
330
140
100
AcDbEntity
  8
LAYER_1
 62
     7
100
AcDbSpline
210
0.0
220
0.0
230
1.0
 70
     8
 71
     3
 72
     8
 73
     4
 74
     0
 42
0.0000000001
 43
0.0000000001
 40
0.0
 40
0.0
 40
0.0
 40
0.0
 40
1.0
 40
1.0
 40
1.0
 40
1.0
 10
71.65837368435329
 20
-0.587905544704861
 30
0.0
 10
71.37243075900607
 20
-0.0571885850694444
 30
0.0
 10
71.25133565266927
 20
0.4502739800347222
 30
0.0
 10
71.23342115614149
 20
0.6414767795138888
 30
0.0
  0
SPLINE
  5
14D
330
140
100
AcDbEntity
  8
LAYER_1
 62
     7
100
AcDbSpline
210
0.0
220
0.0
230
1.0
 70
     8
 71
     3
 72
     8
 73
     4
 74
     0
 42
0.0000000001
 43
0.0000000001
 40
0.0
 40
0.0
 40
0.0
 40
0.0
 40
1.0
 40
1.0
 40
1.0
 40
1.0
 10
74.07149081759982
 20
-2.064645724826389
 30
0.0
 10
73.92851935492621
 20
-1.851394314236111
 30
0.0
 10
73.7853756374783
 20
-1.540646701388889
 30
0.0
 10
73.6492943657769
 20
-1.232655164930556
 30
0.0
  0
SPLINE
  5
14C
330
140
100
AcDbEntity
  8
LAYER_1
 62
     7
100
AcDbSpline
210
0.0
220
0.0
230
1.0
 70
     8
 71
     3
 72
     8
 73
     4
 74
     0
 42
0.0000000001
 43
0.0000000001
 40
0.0
 40
0.0
 40
0.0
 40
0.0
 40
1.0
 40
1.0
 40
1.0
 40
1.0
 10
73.3235605875651
 20
-0.5026394314236111
 30
0.0
 10
73.1034189860026
 20
-0.0625284830729167
 30
0.0
 10
73.1034189860026
 20
0.2673394097222222
 30
0.0
 10
73.05949401855469
 20
0.3774102105034722
 30
0.0
  0
SPLINE
  5
14B
330
140
100
AcDbEntity
  8
LAYER_1
 62
     7
100
AcDbSpline
210
0.0
220
0.0
230
1.0
 70
     8
 71
     3
 72
     8
 73
     4
 74
     0
 42
0.0000000001
 43
0.0000000001
 40
0.0
 40
0.0
 40
0.0
 40
0.0
 40
1.0
 40
1.0
 40
1.0
 40
1.0
 10
74.77549608018663
 20
-2.658580186631944
 30
0.0
 10
74.57740308973524
 20
-2.152667914496528
 30
0.0
 10
74.11541578504773
 20
-0.4366658528645833
 30
0.0
 10
74.20343797471787
 20
0.2013658311631944
 30
0.0
  0
SPLINE
  5
14A
330
140
100
AcDbEntity
  8
LAYER_1
 62
     7
100
AcDbSpline
210
0.0
220
0.0
230
1.0
 70
     8
 71
     3
 72
    14
 73
    10
 74
     0
 42
0.0000000001
 43
0.0000000001
 40
0.0
 40
0.0
 40
0.0
 40
0.0
 40
1.0
 40
1.0
 40
1.0
 40
2.0
 40
2.0
 40
2.0
 40
3.0
 40
3.0
 40
3.0
 40
3.0
 10
75.6553734673394
 20
-1.866552734375
 30
0.0
 10
75.55787726508245
 20
-1.752520073784722
 30
0.0
 10
75.36805250379774
 20
-1.473295084635417
 30
0.0
 10
75.18529018825954
 20
-1.154279242621528
 30
0.0
 10
75.12879062228733
 20
-1.056783040364583
 30
0.0
 10
76.75539245605468
 20
-1.05264892578125
 30
0.0
 10
76.75539245605468
 20
-1.05264892578125
 30
0.0
 10
76.75539245605468
 20
-1.05264892578125
 30
0.0
 10
77.10748121473523
 20
-1.580609809027778
 30
0.0
 10
77.10748121473523
 20
-1.580609809027778
 30
0.0
  0
SPLINE
  5
149
330
140
100
AcDbEntity
  8
LAYER_1
 62
     7
100
AcDbSpline
210
0.0
220
0.0
230
1.0
 70
     8
 71
     3
 72
     8
 73
     4
 74
     0
 42
0.0000000001
 43
0.0000000001
 40
0.0
 40
0.0
 40
0.0
 40
0.0
 40
1.0
 40
1.0
 40
1.0
 40
1.0
 10
74.87988247341579
 20
-0.5410522460937499
 30
0.0
 10
74.76309373643663
 20
-0.26199951171875
 30
0.0
 10
74.69298604329427
 20
-0.0103352864583333
 30
0.0
 10
74.73157111273871
 20
0.1353922526041667
 30
0.0
  0
SPLINE
  5
148
330
140
100
AcDbEntity
  8
LAYER_1
 62
     7
100
AcDbSpline
210
0.0
220
0.0
230
1.0
 70
     8
 71
     3
 72
     8
 73
     4
 74
     0
 42
0.0000000001
 43
0.0000000001
 40
0.0
 40
0.0
 40
0.0
 40
0.0
 40
1.0
 40
1.0
 40
1.0
 40
1.0
 10
77.52554355197482
 20
-1.800579155815972
 30
0.0
 10
77.23942837185329
 20
-1.272618272569444
 30
0.0
 10
77.21737976074218
 20
-0.37052001953125
 30
0.0
 10
77.23942837185329
 20
-0.1505506727430555
 30
0.0
  0
LWPOLYLINE
  5
143
330
140
100
AcDbEntity
  8
LAYER_1
 62
     7
100
AcDbPolyline
 90
        3
 70
     0
 43
0.0
 10
78.33944736056857
 20
-1.382516818576389
 10
78.29535013834635
 20
-0.8766045464409722
 10
78.91150546603733
 20
-0.7885823567708332
  0
ENDBLK
  5
252
330
140
100
AcDbEntity
  8
LAYER_1
100
AcDbBlockEnd
  0
ENDSEC
  0
SECTION
  2
ENTITIES
  0
LWPOLYLINE
  5
253
330
A
100
AcDbEntity
  8
LAYER_1
 62
     7
100
AcDbPolyline
 90
        4
 70
     1
 43
0.0
 10
191.1306247287326
 20
63.56321750217013
 10
191.1306247287326
 20
210.3187730577257
 10
31.67506917317708
 20
210.3187730577257
 10
31.67506917317708
 20
63.56321750217013
  0
INSERT
  5
141
330
A
100
AcDbEntity
  8
LAYER_1
 62
     7
100
AcDbBlockReference
  2
AI9-BLK2
 10
104.4523237440321
 20
104.150404188368
 30
0.0
  0
INSERT
  5
2E
330
A
100
AcDbEntity
  8
LAYER_1
 62
     7
100
AcDbBlockReference
  2
AI9-BLK1
 10
104.4523237440321
 20
171.1781819661458
 30
0.0
  0
LINE
  5
2C
330
A
100
AcDbEntity
  8
LAYER_1
 62
     7
100
AcDbLine
 10
31.67506917317708
 20
210.3187730577257
 30
0.0
 11
70.83340250651041
 21
63.91599527994791
 31
0.0
  0
LINE
  5
2B
330
A
100
AcDbEntity
  8
LAYER_1
 62
     7
100
AcDbLine
 10
71.84763861762153
 20
210.3187730577257
 30
0.0
 11
111.0059719509548
 21
63.91599527994791
 31
0.0
  0
LINE
  5
2A
330
A
100
AcDbEntity
  8
LAYER_1
 62
     7
100
AcDbLine
 10
111.9981594509548
 20
210.3187730577257
 30
0.0
 11
151.1564927842882
 21
63.91599527994791
 31
0.0
  0
LINE
  5
29
330
A
100
AcDbEntity
  8
LAYER_1
 62
     7
100
AcDbLine
 10
151.6415622287326
 20
210.3187730577257
 30
0.0
 11
190.799895562066
 21
63.91599527994791
 31
0.0
  0
LINE
  5
28
330
A
100
AcDbEntity
  8
LAYER_1
 62
     7
100
AcDbLine
 10
31.67506917317708
 20
63.56321750217013
 30
0.0
 11
70.83340250651041
 21
209.9659952799479
 31
0.0
  0
LINE
  5
27
330
A
100
AcDbEntity
  8
LAYER_1
 62
     7
100
AcDbLine
 10
110.6090969509549
 20
209.9659952799479
 30
0.0
 11
71.45076361762152
 21
63.56321750217013
 31
0.0
  0
LINE
  5
26
330
A
100
AcDbEntity
  8
LAYER_1
 62
     7
100
AcDbLine
 10
150.4950344509549
 20
209.9659952799479
 30
0.0
 11
111.3367011176215
 21
63.56321750217013
 31
0.0
  0
LINE
  5
25
330
A
100
AcDbEntity
  8
LAYER_1
 62
     7
100
AcDbLine
 10
190.6896525065104
 20
209.9659952799479
 30
0.0
 11
151.5313191731771
 21
63.56321750217013
 31
0.0
  0
LINE
  5
24
330
A
100
AcDbEntity
  8
LAYER_1
 62
     7
100
AcDbLine
 10
71.0097913953993
 20
63.73960639105902
 30
0.0
 11
71.0097913953993
 21
209.0840508355035
 31
0.0
  0
LINE
  5
23
330
A
100
AcDbEntity
  8
LAYER_1
 62
     7
100
AcDbLine
 10
110.3445136176215
 20
63.73960639105902
 30
0.0
 11
110.3445136176215
 21
209.0840508355035
 31
0.0
  0
LINE
  5
22
330
A
100
AcDbEntity
  8
LAYER_1
 62
     7
100
AcDbLine
 10
150.5611802842882
 20
63.38682861328125
 30
0.0
 11
150.5611802842882
 21
209.0840508355035
 31
0.0
  0
ENDSEC
  0
SECTION
  2
OBJECTS
  0
DICTIONARY
  5
19
330
0
100
AcDbDictionary
281
     1
  3
ACAD_COLOR
350
2BC
  3
ACAD_GROUP
350
1A
  3
ACAD_LAYOUT
350
25C
  3
ACAD_MATERIAL
350
2BE
  3
ACAD_MLINESTYLE
350
1B
  3
ACAD_PLOTSETTINGS
350
25D
  3
ACAD_PLOTSTYLENAME
350
25A
  3
ACDBHEADERROUNDTRIPXREC
350
2BB
  0
DICTIONARY
  5
2BC
102
{ACAD_REACTORS
330
19
102
}
330
19
100
AcDbDictionary
281
     1
  0
DICTIONARY
  5
1A
102
{ACAD_REACTORS
330
19
102
}
330
19
100
AcDbDictionary
281
     1
  0
DICTIONARY
  5
25C
102
{ACAD_REACTORS
330
19
102
}
330
19
100
AcDbDictionary
281
     1
  3
Layout1
350
25F
  3
Model
350
25E
  0
DICTIONARY
  5
2BE
102
{ACAD_REACTORS
330
19
102
}
330
19
100
AcDbDictionary
281
     1
  0
DICTIONARY
  5
1B
102
{ACAD_REACTORS
330
19
102
}
330
19
100
AcDbDictionary
281
     1
  3
STANDARD
350
1C
  0
DICTIONARY
  5
25D
102
{ACAD_REACTORS
330
19
102
}
330
19
100
AcDbDictionary
281
     1
  0
ACDBDICTIONARYWDFLT
  5
25A
102
{ACAD_REACTORS
330
19
102
}
330
19
100
AcDbDictionary
281
     1
  3
Normal
350
25B
100
AcDbDictionaryWithDefault
340
25B
  0
DICTIONARY
  5
2BB
102
{ACAD_REACTORS
330
19
102
}
330
19
100
AcDbDictionary
281
     1
  3
COLORDICT
350
2BD
  3
MATERIALDICT
350
2BF
  0
LAYOUT
  5
25F
102
{ACAD_REACTORS
330
25C
102
}
102
{ACAD_XDICTIONARY
360
2C0
102
}
330
25C
100
AcDbPlotSettings
  1

  2
Support Center HP LaserJet 4
  4

  6

 40
0.0
 41
0.0
 42
0.0
 43
0.0
 44
0.0
 45
0.0
 46
0.0
 47
0.0
 48
0.0
 49
0.0
140
0.0
141
0.0
142
1.0
143
1.0
 70
   688
 72
     0
 73
     0
 74
     5
  7

 75
    16
147
1.0
148
0.0
149
0.0
100
AcDbLayout
  1
Layout1
 70
     0
 71
     1
 10
0.0
 20
0.0
 11
12.0
 21
9.0
 12
0.0
 22
0.0
 32
0.0
 14
1.000000000000000E+20
 24
1.000000000000000E+20
 34
1.000000000000000E+20
 15
-1.000000000000000E+20
 25
-1.000000000000000E+20
 35
-1.000000000000000E+20
146
0.0
 13
0.0
 23
0.0
 33
0.0
 16
1.0
 26
0.0
 36
0.0
 17
0.0
 27
1.0
 37
0.0
 76
     0
330
B
  0
LAYOUT
  5
25E
102
{ACAD_REACTORS
330
25C
102
}
102
{ACAD_XDICTIONARY
360
2C2
102
}
330
25C
100
AcDbPlotSettings
  1

  2
Support Center HP LaserJet 4
  4

  6

 40
0.0
 41
0.0
 42
0.0
 43
0.0
 44
0.0
 45
0.0
 46
0.0
 47
0.0
 48
0.0
 49
0.0
140
0.0
141
0.0
142
1.0
143
1.0
 70
  1712
 72
     0
 73
     0
 74
     0
  7

 75
     0
147
1.0
148
0.0
149
0.0
100
AcDbLayout
  1
Model
 70
     1
 71
     0
 10
0.0
 20
0.0
 11
12.0
 21
9.0
 12
0.0
 22
0.0
 32
0.0
 14
0.0
 24
0.0
 34
0.0
 15
0.0
 25
0.0
 35
0.0
146
0.0
 13
0.0
 23
0.0
 33
0.0
 16
1.0
 26
0.0
 36
0.0
 17
0.0
 27
1.0
 37
0.0
 76
     0
330
A
  0
MLINESTYLE
  5
1C
102
{ACAD_REACTORS
330
1B
102
}
330
1B
100
AcDbMlineStyle
  2
STANDARD
 70
     0
  3

 62
     0
 51
90.0000000000002
 52
90.0000000000002
 71
     2
 49
0.5
 62
   256
  6
BYLAYER
 49
-0.5
 62
   256
  6
BYLAYER
  0
ACDBPLACEHOLDER
  5
25B
102
{ACAD_REACTORS
330
25A
102
}
330
25A
  0
XRECORD
  5
2BD
102
{ACAD_REACTORS
330
2BB
102
}
330
2BB
100
AcDbXrecord
340
2BC
  0
XRECORD
  5
2BF
102
{ACAD_REACTORS
330
2BB
102
}
330
2BB
100
AcDbXrecord
340
2BE
  0
DICTIONARY
  5
2C0
330
25F
100
AcDbDictionary
280
     1
281
     1
  3
ACAD_XREC_ROUNDTRIP
360
2C1
  0
DICTIONARY
  5
2C2
330
25E
100
AcDbDictionary
280
     1
281
     1
  3
ACAD_XREC_ROUNDTRIP
360
2C3
  0
XRECORD
  5
2C1
102
{ACAD_REACTORS
330
2C0
102
}
330
2C0
100
AcDbXrecord
102
SHADEPLOT
 70
 -2008
102
SHADEPLOTRESLEVEL
 70
 -1952
102
SHADEPLOTCUSTOMDPI
 70
 -1896
  0
XRECORD
  5
2C3
102
{ACAD_REACTORS
330
2C2
102
}
330
2C2
100
AcDbXrecord
102
SHADEPLOT
 70
     0
102
SHADEPLOTRESLEVEL
 70
     0
102
SHADEPLOTCUSTOMDPI
 70
     0
  0
ENDSEC
  0
EOF
