  0
SECTION
  2
HEADER
  9
$ACADVER
  1
AC1015
  9
$ACADMAINTVER
 70
     6
  9
$DWGCODEPAGE
  3
ASCII
  9
$INSBASE
 10
0.0
 20
0.0
 30
0.0
  9
$EXTMIN
 10
0.818396
 20
1.58206232731782
 30
0.0
  9
$EXTMAX
 10
10.58066666466822
 20
8.520605999999999
 30
0.0
  9
$LIMMIN
 10
0.0
 20
0.0
  9
$LIMMAX
 10
8.5
 20
11.0
  9
$ORTHOMODE
 70
     0
  9
$REGENMODE
 70
     0
  9
$FILLMODE
 70
     1
  9
$QTEXTMODE
 70
     0
  9
$MIRRTEXT
 70
     1
  9
$LTSCALE
 40
0.2
  9
$ATTMODE
 70
     1
  9
$TEXTSIZE
 40
0.21
  9
$TRACEWID
 40
0.05
  9
$TEXTSTYLE
  7
STANDARD
  9
$CLAYER
  8
0
  9
$CELTYPE
  6
ByLayer
  9
$CECOLOR
 62
   256
  9
$CELTSCALE
 40
1.0
  9
$DISPSILH
 70
     0
  9
$DIMSCALE
 40
1.0
  9
$DIMASZ
 40
0.1
  9
$DIMEXO
 40
0.0625
  9
$DIMDLI
 40
0.38
  9
$DIMRND
 40
0.0
  9
$DIMDLE
 40
0.0
  9
$DIMEXE
 40
0.075
  9
$DIMTP
 40
0.0
  9
$DIMTM
 40
0.0
  9
$DIMTXT
 40
0.1
  9
$DIMCEN
 40
0.09
  9
$DIMTSZ
 40
0.0
  9
$DIMTOL
 70
     0
  9
$DIMLIM
 70
     0
  9
$DIMTIH
 70
     0
  9
$DIMTOH
 70
     0
  9
$DIMSE1
 70
     0
  9
$DIMSE2
 70
     0
  9
$DIMTAD
 70
     1
  9
$DIMZIN
 70
     0
  9
$DIMBLK
  1

  9
$DIMASO
 70
     0
  9
$DIMSHO
 70
     1
  9
$DIMPOST
  1

  9
$DIMAPOST
  1

  9
$DIMALT
 70
     0
  9
$DIMALTD
 70
     2
  9
$DIMALTF
 40
25.4
  9
$DIMLFAC
 40
1.0
  9
$DIMTOFL
 70
     0
  9
$DIMTVP
 40
0.0
  9
$DIMTIX
 70
     0
  9
$DIMSOXD
 70
     0
  9
$DIMSAH
 70
     0
  9
$DIMBLK1
  1

  9
$DIMBLK2
  1

  9
$DIMSTYLE
  2
Standard
  9
$DIMCLRD
 70
     0
  9
$DIMCLRE
 70
     0
  9
$DIMCLRT
 70
     0
  9
$DIMTFAC
 40
1.0
  9
$DIMGAP
 40
0.09
  9
$DIMJUST
 70
     0
  9
$DIMSD1
 70
     0
  9
$DIMSD2
 70
     0
  9
$DIMTOLJ
 70
     1
  9
$DIMTZIN
 70
     0
  9
$DIMALTZ
 70
     0
  9
$DIMALTTZ
 70
     0
  9
$DIMUPT
 70
     0
  9
$DIMDEC
 70
     4
  9
$DIMTDEC
 70
     4
  9
$DIMALTU
 70
     2
  9
$DIMALTTD
 70
     2
  9
$DIMTXSTY
  7
STANDARD
  9
$DIMAUNIT
 70
     0
  9
$DIMADEC
 70
     0
  9
$DIMALTRND
 40
0.0
  9
$DIMAZIN
 70
     0
  9
$DIMDSEP
 70
    46
  9
$DIMATFIT
 70
     3
  9
$DIMFRAC
 70
     0
  9
$DIMLDRBLK
  1

  9
$DIMLUNIT
 70
     2
  9
$DIMLWD
 70
    -2
  9
$DIMLWE
 70
    -2
  9
$DIMTMOVE
 70
     0
  9
$LUNITS
 70
     2
  9
$LUPREC
 70
     4
  9
$SKETCHINC
 40
0.1
  9
$FILLETRAD
 40
0.01
  9
$AUNITS
 70
     0
  9
$AUPREC
 70
     0
  9
$MENU
  1
acad
  9
$ELEVATION
 40
0.0
  9
$PELEVATION
 40
0.0
  9
$THICKNESS
 40
0.0
  9
$LIMCHECK
 70
     0
  9
$CHAMFERA
 40
0.0
  9
$CHAMFERB
 40
0.0
  9
$CHAMFERC
 40
1.0
  9
$CHAMFERD
 40
0.0
  9
$SKPOLY
 70
     0
  9
$TDCREATE
 40
2453955.560996609
  9
$TDUCREATE
 40
2453955.894329942
  9
$TDUPDATE
 40
2453955.602663287
  9
$TDUUPDATE
 40
2453955.894329954
  9
$TDINDWG
 40
0.0000000116
  9
$TDUSRTIMER
 40
0.0000000116
  9
$USRTIMER
 70
     1
  9
$ANGBASE
 50
0.0
  9
$ANGDIR
 70
     0
  9
$PDMODE
 70
     0
  9
$PDSIZE
 40
0.0
  9
$PLINEWID
 40
0.0
  9
$SPLFRAME
 70
     0
  9
$SPLINETYPE
 70
     6
  9
$SPLINESEGS
 70
     8
  9
$HANDSEED
  5
84C
  9
$SURFTAB1
 70
     6
  9
$SURFTAB2
 70
     6
  9
$SURFTYPE
 70
     6
  9
$SURFU
 70
     6
  9
$SURFV
 70
     6
  9
$UCSBASE
  2

  9
$UCSNAME
  2

  9
$UCSORG
 10
0.0
 20
0.0
 30
0.0
  9
$UCSXDIR
 10
1.0
 20
0.0
 30
0.0
  9
$UCSYDIR
 10
0.0
 20
1.0
 30
0.0
  9
$UCSORTHOREF
  2

  9
$UCSORTHOVIEW
 70
     0
  9
$UCSORGTOP
 10
0.0
 20
0.0
 30
0.0
  9
$UCSORGBOTTOM
 10
0.0
 20
0.0
 30
0.0
  9
$UCSORGLEFT
 10
0.0
 20
0.0
 30
0.0
  9
$UCSORGRIGHT
 10
0.0
 20
0.0
 30
0.0
  9
$UCSORGFRONT
 10
0.0
 20
0.0
 30
0.0
  9
$UCSORGBACK
 10
0.0
 20
0.0
 30
0.0
  9
$PUCSBASE
  2

  9
$PUCSNAME
  2

  9
$PUCSORG
 10
0.0
 20
0.0
 30
0.0
  9
$PUCSXDIR
 10
1.0
 20
0.0
 30
0.0
  9
$PUCSYDIR
 10
0.0
 20
1.0
 30
0.0
  9
$PUCSORTHOREF
  2

  9
$PUCSORTHOVIEW
 70
     0
  9
$PUCSORGTOP
 10
0.0
 20
0.0
 30
0.0
  9
$PUCSORGBOTTOM
 10
0.0
 20
0.0
 30
0.0
  9
$PUCSORGLEFT
 10
0.0
 20
0.0
 30
0.0
  9
$PUCSORGRIGHT
 10
0.0
 20
0.0
 30
0.0
  9
$PUCSORGFRONT
 10
0.0
 20
0.0
 30
0.0
  9
$PUCSORGBACK
 10
0.0
 20
0.0
 30
0.0
  9
$USERI1
 70
     0
  9
$USERI2
 70
     0
  9
$USERI3
 70
     0
  9
$USERI4
 70
     0
  9
$USERI5
 70
     0
  9
$USERR1
 40
0.0
  9
$USERR2
 40
0.0
  9
$USERR3
 40
0.0
  9
$USERR4
 40
0.0
  9
$USERR5
 40
0.0
  9
$WORLDVIEW
 70
     1
  9
$SHADEDGE
 70
     3
  9
$SHADEDIF
 70
    70
  9
$TILEMODE
 70
     1
  9
$MAXACTVP
 70
    16
  9
$PINSBASE
 10
0.0
 20
0.0
 30
0.0
  9
$PLIMCHECK
 70
     0
  9
$PEXTMIN
 10
1.000000000000000E+20
 20
1.000000000000000E+20
 30
1.000000000000000E+20
  9
$PEXTMAX
 10
-1.000000000000000E+20
 20
-1.000000000000000E+20
 30
-1.000000000000000E+20
  9
$PLIMMIN
 10
0.0
 20
0.0
  9
$PLIMMAX
 10
12.0
 20
9.0
  9
$UNITMODE
 70
     0
  9
$VISRETAIN
 70
     0
  9
$PLINEGEN
 70
     0
  9
$PSLTSCALE
 70
     1
  9
$TREEDEPTH
 70
  3020
  9
$CMLSTYLE
  2
Standard
  9
$CMLJUST
 70
     0
  9
$CMLSCALE
 40
1.0
  9
$PROXYGRAPHICS
 70
     1
  9
$MEASUREMENT
 70
     0
  9
$CELWEIGHT
370
    -1
  9
$ENDCAPS
280
     0
  9
$JOINSTYLE
280
     0
  9
$LWDISPLAY
290
     0
  9
$INSUNITS
 70
     1
  9
$HYPERLINKBASE
  1

  9
$STYLESHEET
  1

  9
$XEDIT
290
     1
  9
$CEPSNTYPE
380
     0
  9
$PSTYLEMODE
290
     0
  9
$FINGERPRINTGUID
  2
{FAEB1C30-E019-11D5-929B-00C0DF256EC4}
  9
$VERSIONGUID
  2
{FAEB1C32-E019-11D5-929B-00C0DF256EC4}
  9
$EXTNAMES
290
     1
  9
$PSVPSCALE
 40
0.0
  9
$OLESTARTUP
290
     0
  0
ENDSEC
  0
SECTION
  2
CLASSES
  0
CLASS
  1
ACDBDICTIONARYWDFLT
  2
AcDbDictionaryWithDefault
  3
AutoCAD 2000
 90
        0
280
     0
281
     0
  0
CLASS
  1
ACDBPLACEHOLDER
  2
AcDbPlaceHolder
  3
ObjectDBX Classes
 90
        0
280
     0
281
     0
  0
CLASS
  1
LAYOUT
  2
AcDbLayout
  3
ObjectDBX Classes
 90
        0
280
     0
281
     0
  0
ENDSEC
  0
SECTION
  2
TABLES
  0
TABLE
  2
VPORT
  5
8
330
0
100
AcDbSymbolTable
 70
     2
  0
VPORT
  5
1F
330
8
100
AcDbSymbolTableRecord
100
AcDbViewportTableRecord
  2
*ACTIVE
 70
     0
 10
0.0
 20
0.0
 11
1.0
 21
1.0
 12
5.89618128117942
 22
4.876780185758502
 13
0.0
 23
0.0
 14
1.0
 24
1.0
 15
0.0
 25
0.0
 16
0.0
 26
0.0
 36
1.0
 17
0.0
 27
0.0
 37
0.0
 40
7.633380305174502
 41
0.6891025641025641
 42
50.0
 43
0.0
 44
0.0
 50
0.0
 51
0.0
 71
     0
 72
  2000
 73
     1
 74
     0
 75
     0
 76
     0
 77
     0
 78
     0
281
     0
 65
     1
110
0.0
120
0.0
130
0.0
111
1.0
121
0.0
131
0.0
112
0.0
122
1.0
132
0.0
 79
     0
146
0.0
  0
ENDTAB
  0
TABLE
  2
LTYPE
  5
5
330
0
100
AcDbSymbolTable
 70
     2
  0
LTYPE
  5
10
330
5
100
AcDbSymbolTableRecord
100
AcDbLinetypeTableRecord
  2
ByBlock
 70
     0
  3

 72
    65
 73
     0
 40
0.0
  0
LTYPE
  5
11
330
5
100
AcDbSymbolTableRecord
100
AcDbLinetypeTableRecord
  2
ByLayer
 70
     0
  3

 72
    65
 73
     0
 40
0.0
  0
LTYPE
  5
1B
330
5
100
AcDbSymbolTableRecord
100
AcDbLinetypeTableRecord
  2
CONTINUOUS
 70
     0
  3
Solid line
 72
    65
 73
     0
 40
0.0
  0
LTYPE
  5
1C
330
5
100
AcDbSymbolTableRecord
100
AcDbLinetypeTableRecord
  2
HIDDEN
 70
     0
  3
__ __ __ __ __ __ __ __ __ __ __ __ __ __ __ __
 72
    65
 73
     2
 40
0.375
 49
0.25
 74
     0
 49
-0.125
 74
     0
  0
ENDTAB
  0
TABLE
  2
LAYER
  5
2
330
0
100
AcDbSymbolTable
 70
     1
  0
LAYER
  5
1D
330
2
100
AcDbSymbolTableRecord
100
AcDbLayerTableRecord
  2
0
 70
     0
 62
     7
  6
CONTINUOUS
370
    -3
390
F
  0
ENDTAB
  0
TABLE
  2
STYLE
  5
3
330
0
100
AcDbSymbolTable
 70
     1
  0
STYLE
  5
22
330
3
100
AcDbSymbolTableRecord
100
AcDbTextStyleTableRecord
  2
STANDARD
 70
     0
 40
0.0
 41
1.0
 50
0.0
 71
     0
 42
0.21
  3
ROMANS.shx
  4

  0
ENDTAB
  0
TABLE
  2
VIEW
  5
6
330
0
100
AcDbSymbolTable
 70
     1
  0
VIEW
  5
21
330
6
100
AcDbSymbolTableRecord
100
AcDbViewTableRecord
  2
1
 70
     0
 40
11.0
 10
7.225941000000001
 20
5.5
 41
14.451883
 11
0.0
 21
0.0
 31
1.0
 12
0.0
 22
0.0
 32
0.0
 42
50.0
 43
0.0
 44
0.0
 50
0.0
 71
     0
281
     0
 72
     0
  0
ENDTAB
  0
TABLE
  2
UCS
  5
7
330
0
100
AcDbSymbolTable
 70
     0
  0
ENDTAB
  0
TABLE
  2
APPID
  5
9
330
0
100
AcDbSymbolTable
 70
     1
  0
APPID
  5
20
330
9
100
AcDbSymbolTableRecord
100
AcDbRegAppTableRecord
  2
ACAD
 70
     0
  0
ENDTAB
  0
TABLE
  2
DIMSTYLE
  5
A
330
0
100
AcDbSymbolTable
 70
     1
100
AcDbDimStyleTable
  0
DIMSTYLE
105
23
330
A
100
AcDbSymbolTableRecord
100
AcDbDimStyleTableRecord
  2
Standard
 70
     0
  3

  4

340
22
  0
ENDTAB
  0
TABLE
  2
BLOCK_RECORD
  5
1
330
0
100
AcDbSymbolTable
 70
     0
  0
BLOCK_RECORD
  5
18
330
1
100
AcDbSymbolTableRecord
100
AcDbBlockTableRecord
  2
*Model_Space
340
19
  0
BLOCK_RECORD
  5
16
330
1
100
AcDbSymbolTableRecord
100
AcDbBlockTableRecord
  2
*Paper_Space
340
17
  0
ENDTAB
  0
ENDSEC
  0
SECTION
  2
BLOCKS
  0
BLOCK
  5
841
330
18
100
AcDbEntity
  8
0
100
AcDbBlockBegin
  2
*Model_Space
 70
     0
 10
0.0
 20
0.0
 30
0.0
  3
*Model_Space
  1

  4

  0
ENDBLK
  5
842
330
18
100
AcDbEntity
  8
0
100
AcDbBlockEnd
  0
BLOCK
  5
83F
330
16
100
AcDbEntity
 67
     1
  8
0
100
AcDbBlockBegin
  2
*Paper_Space
 70
     0
 10
0.0
 20
0.0
 30
0.0
  3
*Paper_Space
  1

  4

  0
ENDBLK
  5
840
330
16
100
AcDbEntity
 67
     1
  8
0
100
AcDbBlockEnd
  0
ENDSEC
  0
SECTION
  2
ENTITIES
  0
LINE
  5
24
330
18
100
AcDbEntity
  8
0
100
AcDbLine
 10
6.701156932148599
 20
7.222655206850837
 30
0.0
 11
6.701156932148599
 21
5.191217206850837
 31
0.0
  0
LINE
  5
25
330
18
100
AcDbEntity
  8
0
100
AcDbLine
 10
1.182997
 20
7.205353
 30
0.0
 11
1.080182
 21
7.180517
 31
0.0
  0
LINE
  5
26
330
18
100
AcDbEntity
  8
0
100
AcDbLine
 10
0.818396
 20
7.117278999999999
 30
0.0
 11
1.381607
 21
6.899203
 31
0.0
  0
LINE
  5
27
330
18
100
AcDbEntity
  8
0
100
AcDbLine
 10
8.206246818959354
 20
4.037722079212682
 30
0.0
 11
7.90445
 21
4.157168
 31
0.0
  0
LINE
  5
28
330
18
100
AcDbEntity
  8
0
100
AcDbLine
 10
0.818396
 20
7.117278999999999
 30
0.0
 11
0.818396
 21
6.961709
 31
0.0
  0
LINE
  5
29
330
18
100
AcDbEntity
  8
0
100
AcDbLine
 10
6.3000449321486
 20
7.107278206850837
 30
0.0
 11
6.3000449321486
 21
4.997392206850837
 31
0.0
  0
LINE
  5
2A
330
18
100
AcDbEntity
  8
0
100
AcDbLine
 10
6.0893909321486
 20
7.176257206850838
 30
0.0
 11
6.0893909321486
 21
5.078958206850838
 31
0.0
  0
LINE
  5
2B
330
18
100
AcDbEntity
  8
0
100
AcDbLine
 10
5.556261
 20
7.473426
 30
0.0
 11
5.556261
 21
6.017841000000001
 31
0.0
  0
LINE
  5
2C
330
18
100
AcDbEntity
  8
0
100
AcDbLine
 10
5.155547
 20
7.379036999999999
 30
0.0
 11
5.155547
 21
5.437928
 31
0.0
  0
LINE
  5
2D
330
18
100
AcDbEntity
  8
0
100
AcDbLine
 10
4.950929
 20
7.449902000000001
 30
0.0
 11
4.950929
 21
5.517157
 31
0.0
  0
LINE
  5
2E
330
18
100
AcDbEntity
  8
0
100
AcDbLine
 10
4.257976
 20
7.814966
 30
0.0
 11
4.257976
 21
6.078027
 31
0.0
  0
LINE
  5
2F
330
18
100
AcDbEntity
  8
0
100
AcDbLine
 10
3.837292
 20
7.721956
 30
0.0
 11
3.837292
 21
6.2813
 31
0.0
  0
LINE
  5
30
330
18
100
AcDbEntity
  8
0
100
AcDbLine
 10
3.649758
 20
7.797495
 30
0.0
 11
3.649758
 21
6.113055999999999
 31
0.0
  0
LINE
  5
31
330
18
100
AcDbEntity
  8
0
100
AcDbLine
 10
2.985127
 20
8.127028999999999
 30
0.0
 11
2.985127
 21
6.544669
 31
0.0
  0
LINE
  5
32
330
18
100
AcDbEntity
  8
0
100
AcDbLine
 10
2.633069
 20
8.067712
 30
0.0
 11
2.633069
 21
6.979936
 31
0.0
  0
LINE
  5
33
330
18
100
AcDbEntity
  8
0
100
AcDbLine
 10
2.41423
 20
8.126847999999999
 30
0.0
 11
2.41423
 21
7.052316
 31
0.0
  0
LINE
  5
34
330
18
100
AcDbEntity
  8
0
100
AcDbLine
 10
1.897666
 20
8.408585
 30
0.0
 11
1.897666
 21
6.943346000000001
 31
0.0
  0
LINE
  5
35
330
18
100
AcDbEntity
  8
0
100
AcDbLine
 10
1.529844
 20
8.361564
 30
0.0
 11
1.529844
 21
6.841805
 31
0.0
  0
LINE
  5
36
330
18
100
AcDbEntity
  8
0
100
AcDbLine
 10
1.381607
 20
8.400366
 30
0.0
 11
1.381607
 21
6.727439
 31
0.0
  0
LINE
  5
37
330
18
100
AcDbEntity
  8
0
100
AcDbLine
 10
6.701156932148599
 20
5.191217206850837
 30
0.0
 11
6.3000449321486
 21
4.997392206850837
 31
0.0
  0
LINE
  5
38
330
18
100
AcDbEntity
  8
0
100
AcDbLine
 10
8.206246818959352
 20
2.124684581810435
 30
0.0
 11
1.186092
 21
5.574599
 31
0.0
  0
LINE
  5
39
330
18
100
AcDbEntity
  8
0
100
AcDbLine
 10
8.206246818959354
 20
2.124684581810435
 30
0.0
 11
9.136997818959353
 21
2.767580581810435
 31
0.0
  0
LINE
  5
3A
330
18
100
AcDbEntity
  8
0
100
AcDbLine
 10
9.136997818959353
 20
2.767580581810435
 30
0.0
 11
9.136997818959353
 21
3.621000581810435
 31
0.0
  0
LINE
  5
3B
330
18
100
AcDbEntity
  8
0
100
AcDbLine
 10
9.136997818959353
 20
3.621000581810435
 30
0.0
 11
9.378142818959354
 21
4.096762581810435
 31
0.0
  0
LINE
  5
3C
330
18
100
AcDbEntity
  8
0
100
AcDbLine
 10
9.378142818959354
 20
4.096762581810435
 30
0.0
 11
9.595581818959353
 21
4.227617581810435
 31
0.0
  0
LWPOLYLINE
  5
3D
330
18
100
AcDbEntity
  8
0
100
AcDbPolyline
 90
       15
 70
     0
 43
0.0
 10
9.595581818959353
 20
4.227617581810435
 10
9.579101818959355
 20
4.254924581810434
 10
9.577841818959353
 20
4.293941581810435
 10
9.559950818959354
 20
4.352269581810434
 10
9.552280818959353
 20
4.422401581810435
 10
9.522959818959354
 20
4.457950581810435
 10
9.522850818959354
 20
4.504943581810435
 10
9.554306818959354
 20
4.529343581810435
 10
9.573845818959354
 20
4.557967581810435
 10
9.578790818959355
 20
4.607864581810435
 10
9.571238818959355
 20
4.736983581810435
 10
9.587684818959353
 20
4.760667581810435
 10
9.601548818959355
 20
4.806396581810435
 10
9.579291116840045
 20
4.92017378735294
 10
9.579291116840045
 20
4.92017378735294
  0
LWPOLYLINE
  5
4F
330
18
100
AcDbEntity
  8
0
100
AcDbPolyline
 90
        8
 70
     0
 43
0.0
 10
9.469799
 20
5.301959
 10
9.434167
 20
5.290344
 10
9.382928999999999
 20
5.277317
 10
9.35089
 20
5.274925
 10
9.313569000000001
 20
5.257635
 10
9.277513000000001
 20
5.254319000000001
 10
9.234347
 20
5.245139
 10
9.206211
 20
5.237673
  0
LWPOLYLINE
  5
5A
330
18
100
AcDbEntity
  8
0
100
AcDbPolyline
 90
        8
 70
     0
 43
0.0
 10
9.206211
 20
5.237673
 10
9.230950999999999
 20
5.224207
 10
9.280924000000001
 20
5.22326
 10
9.322882
 20
5.221465
 10
9.352942000000001
 20
5.224895
 10
9.382394999999999
 20
5.196342
 10
9.408021000000002
 20
5.17686
 10
9.460201
 20
5.18687
  0
LINE
  5
65
330
18
100
AcDbEntity
  8
0
100
AcDbLine
 10
0.9223090000000001
 20
7.14238
 30
0.0
 11
0.9176489999999999
 21
7.184385000000001
 31
0.0
  0
LINE
  5
66
330
18
100
AcDbEntity
  8
0
100
AcDbLine
 10
0.9176489999999999
 20
7.184385000000001
 30
0.0
 11
1.089324
 21
7.116145
 31
0.0
  0
LINE
  5
67
330
18
100
AcDbEntity
  8
0
100
AcDbLine
 10
1.089324
 20
7.116145
 30
0.0
 11
1.080182
 21
7.180517
 31
0.0
  0
LINE
  5
68
330
18
100
AcDbEntity
  8
0
100
AcDbLine
 10
0.9223090000000001
 20
7.14238
 30
0.0
 11
0.818396
 21
7.117278999999999
 31
0.0
  0
LINE
  5
69
330
18
100
AcDbEntity
  8
0
100
AcDbLine
 10
1.381607
 20
8.400366
 30
0.0
 11
1.529844
 21
8.361564
 31
0.0
  0
LINE
  5
6A
330
18
100
AcDbEntity
  8
0
100
AcDbLine
 10
1.529844
 20
8.361564
 30
0.0
 11
1.651779
 21
8.377152000000001
 31
0.0
  0
LINE
  5
6B
330
18
100
AcDbEntity
  8
0
100
AcDbLine
 10
1.651779
 20
8.377152000000001
 30
0.0
 11
1.684134
 21
8.325647
 31
0.0
  0
LINE
  5
6C
330
18
100
AcDbEntity
  8
0
100
AcDbLine
 10
1.684134
 20
8.325647
 30
0.0
 11
1.727085
 21
8.481803999999999
 31
0.0
  0
LINE
  5
6D
330
18
100
AcDbEntity
  8
0
100
AcDbLine
 10
1.727085
 20
8.481803999999999
 30
0.0
 11
1.771983
 21
8.392517999999999
 31
0.0
  0
LINE
  5
6E
330
18
100
AcDbEntity
  8
0
100
AcDbLine
 10
1.771983
 20
8.392517999999999
 30
0.0
 11
1.897666
 21
8.408585
 31
0.0
  0
LINE
  5
6F
330
18
100
AcDbEntity
  8
0
100
AcDbLine
 10
1.749429
 20
8.447386999999999
 30
0.0
 11
1.897666
 21
8.408585
 31
0.0
  0
LINE
  5
70
330
18
100
AcDbEntity
  8
0
100
AcDbLine
 10
1.744696
 20
8.446782000000001
 30
0.0
 11
1.749429
 21
8.447386999999999
 31
0.0
  0
LINE
  5
71
330
18
100
AcDbEntity
  8
0
100
AcDbLine
 10
1.546939
 20
8.404595000000001
 30
0.0
 11
1.578848
 21
8.520605999999999
 31
0.0
  0
LINE
  5
72
330
18
100
AcDbEntity
  8
0
100
AcDbLine
 10
1.381607
 20
8.400366
 30
0.0
 11
1.503542
 21
8.415953999999999
 31
0.0
  0
LINE
  5
73
330
18
100
AcDbEntity
  8
0
100
AcDbLine
 10
1.727085
 20
8.481803999999999
 30
0.0
 11
1.578848
 21
8.520605999999999
 31
0.0
  0
LINE
  5
74
330
18
100
AcDbEntity
  8
0
100
AcDbLine
 10
1.503542
 20
8.415953999999999
 30
0.0
 11
1.651779
 21
8.377152000000001
 31
0.0
  0
LWPOLYLINE
  5
75
330
18
100
AcDbEntity
  8
0
100
AcDbPolyline
 90
        2
 70
     0
 43
0.0
 10
1.412663
 20
8.392237
 10
1.530746
 20
8.408833
  0
LINE
  5
7A
330
18
100
AcDbEntity
  8
0
100
AcDbLine
 10
1.470565
 20
8.377081
 30
0.0
 11
1.563044
 21
8.400378999999999
 31
0.0
  0
LINE
  5
7B
330
18
100
AcDbEntity
  8
0
100
AcDbLine
 10
1.509136
 20
8.366985000000001
 30
0.0
 11
1.601304
 21
8.390364
 31
0.0
  0
LWPOLYLINE
  5
7C
330
18
100
AcDbEntity
  8
0
100
AcDbPolyline
 90
        2
 70
     0
 43
0.0
 10
1.699288
 20
8.48908
 10
1.658599
 20
8.366294999999999
  0
LWPOLYLINE
  5
81
330
18
100
AcDbEntity
  8
0
100
AcDbPolyline
 90
        2
 70
     0
 43
0.0
 10
1.65802
 20
8.499882000000001
 10
1.609337
 20
8.388261999999999
  0
LWPOLYLINE
  5
86
330
18
100
AcDbEntity
  8
0
100
AcDbPolyline
 90
        2
 70
     0
 43
0.0
 10
1.618513
 20
8.510224000000001
 10
1.572582
 20
8.397882000000001
  0
LWPOLYLINE
  5
8B
330
18
100
AcDbEntity
  8
0
100
AcDbPolyline
 90
        2
 70
     0
 43
0.0
 10
1.77888
 20
8.439678000000001
 10
1.751281
 20
8.433688
  0
LINE
  5
90
330
18
100
AcDbEntity
  8
0
100
AcDbLine
 10
1.815067
 20
8.430206
 30
0.0
 11
1.76101
 21
8.414339999999999
 31
0.0
  0
LINE
  5
91
330
18
100
AcDbEntity
  8
0
100
AcDbLine
 10
1.851143
 20
8.420763000000001
 30
0.0
 11
1.807098
 21
8.397007
 31
0.0
  0
LINE
  5
92
330
18
100
AcDbEntity
  8
0
100
AcDbLine
 10
1.897666
 20
6.943346000000001
 30
0.0
 11
1.529844
 21
6.841805
 31
0.0
  0
LINE
  5
93
330
18
100
AcDbEntity
  8
0
100
AcDbLine
 10
1.381607
 20
7.13254
 30
0.0
 11
1.182997
 21
7.205353
 31
0.0
  0
LINE
  5
94
330
18
100
AcDbEntity
  8
0
100
AcDbLine
 10
2.41423
 20
8.126847999999999
 30
0.0
 11
2.633069
 21
8.067712
 31
0.0
  0
LINE
  5
95
330
18
100
AcDbEntity
  8
0
100
AcDbLine
 10
2.633069
 20
8.067712
 30
0.0
 11
2.772289
 21
8.091169000000001
 31
0.0
  0
LINE
  5
96
330
18
100
AcDbEntity
  8
0
100
AcDbLine
 10
2.772289
 20
8.091169000000001
 30
0.0
 11
2.813213
 21
8.024305999999999
 31
0.0
  0
LINE
  5
97
330
18
100
AcDbEntity
  8
0
100
AcDbLine
 10
2.813213
 20
8.024305999999999
 30
0.0
 11
2.848244
 21
8.184612
 31
0.0
  0
LINE
  5
98
330
18
100
AcDbEntity
  8
0
100
AcDbLine
 10
2.848244
 20
8.184612
 30
0.0
 11
2.897508
 21
8.112266999999999
 31
0.0
  0
LINE
  5
99
330
18
100
AcDbEntity
  8
0
100
AcDbLine
 10
2.897508
 20
8.112266999999999
 30
0.0
 11
2.985127
 21
8.127028999999999
 31
0.0
  0
LINE
  5
9A
330
18
100
AcDbEntity
  8
0
100
AcDbLine
 10
2.41423
 20
8.126847999999999
 30
0.0
 11
2.553451
 21
8.150305
 31
0.0
  0
LINE
  5
9B
330
18
100
AcDbEntity
  8
0
100
AcDbLine
 10
2.605889
 20
8.136135000000001
 30
0.0
 11
2.629406
 21
8.243749000000001
 31
0.0
  0
LINE
  5
9C
330
18
100
AcDbEntity
  8
0
100
AcDbLine
 10
2.86543
 20
8.159375000000001
 30
0.0
 11
2.985127
 21
8.127028999999999
 31
0.0
  0
LINE
  5
9D
330
18
100
AcDbEntity
  8
0
100
AcDbLine
 10
2.848244
 20
8.184612
 30
0.0
 11
2.629406
 21
8.243749000000001
 31
0.0
  0
LINE
  5
9E
330
18
100
AcDbEntity
  8
0
100
AcDbLine
 10
2.553451
 20
8.150305
 30
0.0
 11
2.772289
 21
8.091169000000001
 31
0.0
  0
LINE
  5
9F
330
18
100
AcDbEntity
  8
0
100
AcDbLine
 10
2.4587
 20
8.114831000000001
 30
0.0
 11
2.589456
 21
8.140575
 31
0.0
  0
LINE
  5
A0
330
18
100
AcDbEntity
  8
0
100
AcDbLine
 10
2.651727
 20
8.123747999999999
 30
0.0
 11
2.546704
 21
8.091049999999999
 31
0.0
  0
LINE
  5
A1
330
18
100
AcDbEntity
  8
0
100
AcDbLine
 10
2.601472
 20
8.07625
 30
0.0
 11
2.704857
 21
8.109391000000001
 31
0.0
  0
LINE
  5
A2
330
18
100
AcDbEntity
  8
0
100
AcDbLine
 10
2.63511
 20
8.128238
 30
0.0
 11
2.662875
 21
8.234703999999999
 31
0.0
  0
LINE
  5
A3
330
18
100
AcDbEntity
  8
0
100
AcDbLine
 10
2.683793
 20
8.115083
 30
0.0
 11
2.72958
 21
8.216678999999999
 31
0.0
  0
LINE
  5
A4
330
18
100
AcDbEntity
  8
0
100
AcDbLine
 10
2.731773
 20
8.102117
 30
0.0
 11
2.790199
 21
8.200298
 31
0.0
  0
LINE
  5
A5
330
18
100
AcDbEntity
  8
0
100
AcDbLine
 10
2.790199
 20
8.061907000000002
 30
0.0
 11
2.838284
 21
8.139033999999999
 31
0.0
  0
LINE
  5
A6
330
18
100
AcDbEntity
  8
0
100
AcDbLine
 10
2.88285
 20
8.133792
 30
0.0
 11
2.937147
 21
8.139994999999999
 31
0.0
  0
LINE
  5
A7
330
18
100
AcDbEntity
  8
0
100
AcDbLine
 10
3.837292
 20
7.721956
 30
0.0
 11
3.649758
 21
7.797495
 31
0.0
  0
LINE
  5
A8
330
18
100
AcDbEntity
  8
0
100
AcDbLine
 10
3.837292
 20
7.721956
 30
0.0
 11
3.983927
 21
7.754376
 31
0.0
  0
LINE
  5
A9
330
18
100
AcDbEntity
  8
0
100
AcDbLine
 10
3.983927
 20
7.754376
 30
0.0
 11
4.028036
 21
7.710342999999999
 31
0.0
  0
LINE
  5
AA
330
18
100
AcDbEntity
  8
0
100
AcDbLine
 10
4.028036
 20
7.710342999999999
 30
0.0
 11
4.084132
 21
7.874249000000001
 31
0.0
  0
LINE
  5
AB
330
18
100
AcDbEntity
  8
0
100
AcDbLine
 10
4.084132
 20
7.874249000000001
 30
0.0
 11
4.117186
 21
7.783838
 31
0.0
  0
LINE
  5
AC
330
18
100
AcDbEntity
  8
0
100
AcDbLine
 10
4.117186
 20
7.783838
 30
0.0
 11
4.257976
 21
7.814966
 31
0.0
  0
LINE
  5
AD
330
18
100
AcDbEntity
  8
0
100
AcDbLine
 10
3.848403
 20
7.808966000000001
 30
0.0
 11
3.896599
 21
7.949789
 31
0.0
  0
LINE
  5
AE
330
18
100
AcDbEntity
  8
0
100
AcDbLine
 10
3.649758
 20
7.797495
 30
0.0
 11
3.796394
 21
7.829915
 31
0.0
  0
LINE
  5
AF
330
18
100
AcDbEntity
  8
0
100
AcDbLine
 10
3.896599
 20
7.949789
 30
0.0
 11
4.084132
 21
7.874249000000001
 31
0.0
  0
LINE
  5
B0
330
18
100
AcDbEntity
  8
0
100
AcDbLine
 10
4.070443
 20
7.890505999999999
 30
0.0
 11
4.257976
 21
7.814966
 31
0.0
  0
LINE
  5
B1
330
18
100
AcDbEntity
  8
0
100
AcDbLine
 10
3.796394
 20
7.829915
 30
0.0
 11
3.983927
 21
7.754376
 31
0.0
  0
LINE
  5
B2
330
18
100
AcDbEntity
  8
0
100
AcDbLine
 10
4.053225
 20
7.886699
 30
0.0
 11
4.070443
 21
7.890505999999999
 31
0.0
  0
LINE
  5
B3
330
18
100
AcDbEntity
  8
0
100
AcDbLine
 10
3.694508
 20
7.77947
 30
0.0
 11
3.837589
 21
7.813322
 31
0.0
  0
LINE
  5
B4
330
18
100
AcDbEntity
  8
0
100
AcDbLine
 10
3.764637000000001
 20
7.751221000000001
 30
0.0
 11
3.885305
 21
7.794101
 31
0.0
  0
LINE
  5
B5
330
18
100
AcDbEntity
  8
0
100
AcDbLine
 10
3.822397
 20
7.727955000000001
 30
0.0
 11
3.933057
 21
7.774867
 31
0.0
  0
LINE
  5
B6
330
18
100
AcDbEntity
  8
0
100
AcDbLine
 10
3.873449
 20
7.798877
 30
0.0
 11
3.936827
 21
7.933585000000001
 31
0.0
  0
LINE
  5
B7
330
18
100
AcDbEntity
  8
0
100
AcDbLine
 10
3.920892
 20
7.779767
 30
0.0
 11
3.990122
 21
7.912116999999999
 31
0.0
  0
LINE
  5
B8
330
18
100
AcDbEntity
  8
0
100
AcDbLine
 10
3.959952
 20
7.764033
 30
0.0
 11
4.038899
 21
7.892469
 31
0.0
  0
LINE
  5
B9
330
18
100
AcDbEntity
  8
0
100
AcDbLine
 10
4.009136
 20
7.729211
 30
0.0
 11
4.05903
 21
7.800903999999999
 31
0.0
  0
LINE
  5
BA
330
18
100
AcDbEntity
  8
0
100
AcDbLine
 10
4.103911
 20
7.820147
 30
0.0
 11
4.192394
 21
7.841383
 31
0.0
  0
LINE
  5
BB
330
18
100
AcDbEntity
  8
0
100
AcDbLine
 10
4.092594999999999
 20
7.8511
 30
0.0
 11
4.134633999999999
 21
7.864649000000001
 31
0.0
  0
LINE
  5
BC
330
18
100
AcDbEntity
  8
0
100
AcDbLine
 10
4.070551
 20
7.87972
 30
0.0
 11
4.085326
 21
7.884511
 31
0.0
  0
LINE
  5
BD
330
18
100
AcDbEntity
  8
0
100
AcDbLine
 10
4.950929
 20
7.449902000000001
 30
0.0
 11
5.155547
 21
7.379036999999999
 31
0.0
  0
LINE
  5
BE
330
18
100
AcDbEntity
  8
0
100
AcDbLine
 10
5.155547
 20
7.379036999999999
 30
0.0
 11
5.283307
 21
7.409131
 31
0.0
  0
LINE
  5
BF
330
18
100
AcDbEntity
  8
0
100
AcDbLine
 10
5.283307
 20
7.409131
 30
0.0
 11
5.337898
 21
7.346588000000001
 31
0.0
  0
LINE
  5
C0
330
18
100
AcDbEntity
  8
0
100
AcDbLine
 10
5.337898
 20
7.346588000000001
 30
0.0
 11
5.376743
 21
7.549814
 31
0.0
  0
LINE
  5
C1
330
18
100
AcDbEntity
  8
0
100
AcDbLine
 10
5.376743
 20
7.549814
 30
0.0
 11
5.443514
 21
7.446867999999999
 31
0.0
  0
LINE
  5
C2
330
18
100
AcDbEntity
  8
0
100
AcDbLine
 10
5.443514
 20
7.446867999999999
 30
0.0
 11
5.556261
 21
7.473426
 31
0.0
  0
LINE
  5
C3
330
18
100
AcDbEntity
  8
0
100
AcDbLine
 10
5.141102
 20
7.45838
 30
0.0
 11
5.172124
 21
7.620678
 31
0.0
  0
LINE
  5
C4
330
18
100
AcDbEntity
  8
0
100
AcDbLine
 10
4.950929
 20
7.449902000000001
 30
0.0
 11
5.078688
 21
7.479996000000001
 31
0.0
  0
LINE
  5
C5
330
18
100
AcDbEntity
  8
0
100
AcDbLine
 10
5.172124
 20
7.620678
 30
0.0
 11
5.376743
 21
7.549814
 31
0.0
  0
LINE
  5
C6
330
18
100
AcDbEntity
  8
0
100
AcDbLine
 10
5.388635
 20
7.531478999999999
 30
0.0
 11
5.556261
 21
7.473426
 31
0.0
  0
LINE
  5
C7
330
18
100
AcDbEntity
  8
0
100
AcDbLine
 10
5.283307
 20
7.409131
 30
0.0
 11
5.078688
 21
7.479996000000001
 31
0.0
  0
LINE
  5
C8
330
18
100
AcDbEntity
  8
0
100
AcDbLine
 10
4.9976
 20
7.433738000000001
 30
0.0
 11
5.115938
 21
7.467095
 31
0.0
  0
LINE
  5
C9
330
18
100
AcDbEntity
  8
0
100
AcDbLine
 10
5.066214
 20
7.409976
 30
0.0
 11
5.164135
 21
7.450403
 31
0.0
  0
LINE
  5
CA
330
18
100
AcDbEntity
  8
0
100
AcDbLine
 10
5.125753
 20
7.389355999999999
 30
0.0
 11
5.21103
 21
7.434162
 31
0.0
  0
LINE
  5
CB
330
18
100
AcDbEntity
  8
0
100
AcDbLine
 10
5.228342
 20
7.396184
 30
0.0
 11
5.260603
 21
7.416994
 31
0.0
  0
LINE
  5
CC
330
18
100
AcDbEntity
  8
0
100
AcDbLine
 10
5.183175
 20
7.443809
 30
0.0
 11
5.209382
 21
7.607775
 31
0.0
  0
LINE
  5
CD
330
18
100
AcDbEntity
  8
0
100
AcDbLine
 10
5.235574
 20
7.425661999999999
 30
0.0
 11
5.270223000000001
 21
7.586703999999999
 31
0.0
  0
LINE
  5
CE
330
18
100
AcDbEntity
  8
0
100
AcDbLine
 10
5.29609
 20
7.394486
 30
0.0
 11
5.326564
 21
7.567192
 31
0.0
  0
LINE
  5
CF
330
18
100
AcDbEntity
  8
0
100
AcDbLine
 10
5.422945
 20
7.478581
 30
0.0
 11
5.499634
 21
7.493036999999999
 31
0.0
  0
LINE
  5
D0
330
18
100
AcDbEntity
  8
0
100
AcDbLine
 10
5.402894
 20
7.509494999999999
 30
0.0
 11
5.430686
 21
7.516916
 31
0.0
  0
LINE
  5
D1
330
18
100
AcDbEntity
  8
0
100
AcDbLine
 10
6.0893909321486
 20
7.176257206850838
 30
0.0
 11
6.3000449321486
 21
7.107278206850837
 31
0.0
  0
LINE
  5
D2
330
18
100
AcDbEntity
  8
0
100
AcDbLine
 10
6.3000449321486
 20
7.107278206850837
 30
0.0
 11
6.441665932148599
 21
7.148015206850839
 31
0.0
  0
LINE
  5
D3
330
18
100
AcDbEntity
  8
0
100
AcDbLine
 10
6.441665932148599
 20
7.148015206850839
 30
0.0
 11
6.4840389321486
 21
7.108791206850838
 31
0.0
  0
LINE
  5
D4
330
18
100
AcDbEntity
  8
0
100
AcDbLine
 10
6.4840389321486
 20
7.108791206850838
 30
0.0
 11
6.5197149321486
 21
7.303079206850838
 31
0.0
  0
LINE
  5
D5
330
18
100
AcDbEntity
  8
0
100
AcDbLine
 10
6.5197149321486
 20
7.303079206850838
 30
0.0
 11
6.5761499321486
 21
7.186698206850837
 31
0.0
  0
LINE
  5
D6
330
18
100
AcDbEntity
  8
0
100
AcDbLine
 10
6.5761499321486
 20
7.186698206850837
 30
0.0
 11
6.701156932148599
 21
7.222655206850837
 31
0.0
  0
LINE
  5
D7
330
18
100
AcDbEntity
  8
0
100
AcDbLine
 10
6.0893909321486
 20
7.176257206850838
 30
0.0
 11
6.231012932148599
 21
7.216994206850838
 31
0.0
  0
LINE
  5
D8
330
18
100
AcDbEntity
  8
0
100
AcDbLine
 10
6.277775932148599
 20
7.201681206850838
 30
0.0
 11
6.3090609321486
 21
7.372058206850838
 31
0.0
  0
LINE
  5
D9
330
18
100
AcDbEntity
  8
0
100
AcDbLine
 10
6.5318259321486
 20
7.278103206850838
 30
0.0
 11
6.701156932148599
 21
7.222655206850837
 31
0.0
  0
LINE
  5
DA
330
18
100
AcDbEntity
  8
0
100
AcDbLine
 10
6.5197149321486
 20
7.303079206850838
 30
0.0
 11
6.3090609321486
 21
7.372058206850838
 31
0.0
  0
LINE
  5
DB
330
18
100
AcDbEntity
  8
0
100
AcDbLine
 10
6.231012932148599
 20
7.216994206850838
 30
0.0
 11
6.441665932148599
 21
7.148015206850839
 31
0.0
  0
LINE
  5
DC
330
18
100
AcDbEntity
  8
0
100
AcDbLine
 10
6.559407932148599
 20
7.221224206850838
 30
0.0
 11
6.647154932148599
 21
7.240338206850838
 31
0.0
  0
LINE
  5
DD
330
18
100
AcDbEntity
  8
0
100
AcDbLine
 10
6.541529932148599
 20
7.258092206850837
 30
0.0
 11
6.571206932148599
 21
7.265208206850837
 31
0.0
  0
LINE
  5
DE
330
18
100
AcDbEntity
  8
0
100
AcDbLine
 10
6.446526932148599
 20
7.143515206850839
 30
0.0
 11
6.466784932148599
 21
7.320411206850838
 31
0.0
  0
LINE
  5
DF
330
18
100
AcDbEntity
  8
0
100
AcDbLine
 10
6.3781229321486
 20
7.168822206850837
 30
0.0
 11
6.399595932148599
 21
7.342412206850837
 31
0.0
  0
LINE
  5
E0
330
18
100
AcDbEntity
  8
0
100
AcDbLine
 10
6.3141669321486
 20
7.189765206850838
 30
0.0
 11
6.3340449321486
 21
7.363877206850837
 31
0.0
  0
LINE
  5
E1
330
18
100
AcDbEntity
  8
0
100
AcDbLine
 10
6.1548619321486
 20
7.154819206850838
 30
0.0
 11
6.283346932148599
 21
7.199857206850838
 31
0.0
  0
LINE
  5
E2
330
18
100
AcDbEntity
  8
0
100
AcDbLine
 10
6.2355939321486
 20
7.128383206850837
 30
0.0
 11
6.338521932148598
 21
7.181789206850837
 31
0.0
  0
LINE
  5
E3
330
18
100
AcDbEntity
  8
0
100
AcDbLine
 10
6.3419059321486
 20
7.119319206850838
 30
0.0
 11
6.3993109321486
 21
7.161884206850837
 31
0.0
  0
LWPOLYLINE
  5
E4
330
18
100
AcDbEntity
  8
0
100
AcDbPolyline
 90
       13
 70
     0
 43
0.0
 10
2.41423
 20
7.205594000000001
 10
2.391811
 20
7.207445
 10
2.328656
 20
7.198643
 10
2.302273
 20
7.178147
 10
2.235688
 20
7.199405000000001
 10
2.178208
 20
7.173499000000001
 10
2.13157
 20
7.139389
 10
2.077694
 20
7.145409
 10
2.058572
 20
7.138773
 10
2.017125
 20
7.167553
 10
1.97745
 20
7.184301
 10
1.907488
 20
7.185627
 10
1.897666
 20
7.184413
  0
LWPOLYLINE
  5
F4
330
18
100
AcDbEntity
  8
0
100
AcDbPolyline
 90
       21
 70
     0
 43
0.0
 10
3.649758
 20
7.252692999999999
 10
3.622523
 20
7.257111999999999
 10
3.575098
 20
7.287005000000001
 10
3.55166
 20
7.316444000000001
 10
3.522037
 20
7.336002000000001
 10
3.45279
 20
7.322317
 10
3.410605
 20
7.312117999999999
 10
3.351883
 20
7.326228
 10
3.322994
 20
7.331775
 10
3.29131
 20
7.295382000000001
 10
3.247803
 20
7.268211
 10
3.184856
 20
7.270403999999999
 10
3.136883
 20
7.271313
 10
3.094754
 20
7.264113
 10
3.076593
 20
7.255458
 10
3.046458
 20
7.239657000000001
 10
3.069669
 20
7.206599000000001
 10
3.069423
 20
7.193606
 10
3.039325
 20
7.188177000000001
 10
2.986468
 20
7.195178
 10
2.985127
 20
7.195149000000001
  0
LWPOLYLINE
  5
10C
330
18
100
AcDbEntity
  8
0
100
AcDbPolyline
 90
       12
 70
     0
 43
0.0
 10
4.950929
 20
7.142188000000001
 10
4.866291
 20
7.151561999999999
 10
4.765289
 20
7.150475999999999
 10
4.666456
 20
7.158347
 10
4.620557
 20
7.163216
 10
4.580015
 20
7.18698
 10
4.535982
 20
7.184815
 10
4.485726000000001
 20
7.17077
 10
4.434227
 20
7.196741
 10
4.366473
 20
7.209022999999999
 10
4.322629
 20
7.216852
 10
4.257976
 20
7.221886000000001
  0
LINE
  5
11B
330
18
100
AcDbEntity
  8
0
100
AcDbLine
 10
6.0893909321486
 20
5.406606995435806
 30
0.0
 11
5.556261
 21
5.602059
 31
0.0
  0
LWPOLYLINE
  5
11C
330
18
100
AcDbEntity
  8
0
100
AcDbPolyline
 90
       22
 70
     0
 43
0.0
 10
1.186092
 20
5.574599
 10
1.19117
 20
5.631492
 10
1.180521
 20
5.70268
 10
1.149333
 20
5.745263
 10
1.164159
 20
5.788974
 10
1.157413
 20
5.855090000000001
 10
1.122948
 20
5.935728
 10
1.10634
 20
6.009029
 10
1.081812
 20
6.086479
 10
1.081556
 20
6.178467
 10
1.061987
 20
6.253824
 10
1.021904
 20
6.354565
 10
0.9952639999999999
 20
6.426056
 10
0.980825
 20
6.508314
 10
0.9883370000000001
 20
6.588157000000001
 10
1.006218
 20
6.634810000000001
 10
0.982197
 20
6.686255
 10
0.967096
 20
6.733533
 10
0.9414889999999999
 20
6.754014
 10
0.931802
 20
6.823185000000001
 10
0.9372010000000001
 20
6.897069
 10
0.9375950000000001
 20
6.914532
  0
LINE
  5
135
330
18
100
AcDbEntity
  8
0
100
AcDbLine
 10
2.726873
 20
6.950143
 30
0.0
 11
2.599662
 21
6.990546000000001
 31
0.0
  0
LINE
  5
136
330
18
100
AcDbEntity
  8
0
100
AcDbLine
 10
2.599662
 20
6.990546000000001
 30
0.0
 11
2.395986
 21
7.058393
 31
0.0
  0
LINE
  5
137
330
18
100
AcDbEntity
  8
0
100
AcDbLine
 10
2.395986
 20
7.058393
 30
0.0
 11
2.395986
 21
6.755236999999999
 31
0.0
  0
ARC
  5
138
330
18
100
AcDbEntity
  8
0
100
AcDbCircle
 10
2.10913
 20
6.755236999999999
 30
0.0
 40
0.286856
100
AcDbArc
 50
329.174673
 51
0.0
  0
LINE
  5
139
330
18
100
AcDbEntity
  8
0
100
AcDbLine
 10
2.599662
 20
6.990546000000001
 30
0.0
 11
2.599662
 21
6.671644000000001
 31
0.0
  0
ARC
  5
13A
330
18
100
AcDbEntity
  8
0
100
AcDbCircle
 10
2.92267
 20
6.671644000000001
 30
0.0
 40
0.323008
100
AcDbArc
 50
180.0
 51
214.092772
  0
LINE
  5
13B
330
18
100
AcDbEntity
  8
0
100
AcDbLine
 10
2.628192
 20
6.491099
 30
0.0
 11
2.61203
 21
6.482406
 31
0.0
  0
LINE
  5
13C
330
18
100
AcDbEntity
  8
0
100
AcDbLine
 10
2.61203
 20
6.482406
 30
0.0
 11
2.61203
 21
6.302637
 31
0.0
  0
LINE
  5
13D
330
18
100
AcDbEntity
  8
0
100
AcDbLine
 10
2.61203
 20
6.302637
 30
0.0
 11
2.629534
 21
6.298108999999999
 31
0.0
  0
LINE
  5
13E
330
18
100
AcDbEntity
  8
0
100
AcDbLine
 10
2.415198
 20
6.542125
 30
0.0
 11
2.39502
 21
6.53251
 31
0.0
  0
LINE
  5
13F
330
18
100
AcDbEntity
  8
0
100
AcDbLine
 10
2.39502
 20
6.53251
 30
0.0
 11
2.39502
 21
6.392567
 31
0.0
  0
LINE
  5
140
330
18
100
AcDbEntity
  8
0
100
AcDbLine
 10
2.39502
 20
6.392567
 30
0.0
 11
2.412017
 21
6.374217
 31
0.0
  0
LINE
  5
141
330
18
100
AcDbEntity
  8
0
100
AcDbLine
 10
2.755972
 20
6.179971
 30
0.0
 11
2.755972
 21
6.535591999999999
 31
0.0
  0
ARC
  5
142
330
18
100
AcDbEntity
  8
0
100
AcDbCircle
 10
2.609389
 20
6.535591999999999
 30
0.0
 40
0.146583
100
AcDbArc
 50
0.0
 51
36.21174600000001
  0
ARC
  5
143
330
18
100
AcDbEntity
  8
0
100
AcDbCircle
 10
2.946357
 20
6.782322
 30
0.0
 40
0.271057
100
AcDbArc
 50
202.918648
 51
216.211746
  0
LINE
  5
144
330
18
100
AcDbEntity
  8
0
100
AcDbLine
 10
2.696698
 20
6.676766000000001
 30
0.0
 11
2.726873
 21
6.655342999999999
 31
0.0
  0
LINE
  5
145
330
18
100
AcDbEntity
  8
0
100
AcDbLine
 10
2.726873
 20
6.950143
 30
0.0
 11
2.726873
 21
6.655342999999999
 31
0.0
  0
LINE
  5
146
330
18
100
AcDbEntity
  8
0
100
AcDbLine
 10
2.397737
 20
6.760014
 30
0.0
 11
1.897666
 21
6.943346000000001
 31
0.0
  0
LINE
  5
147
330
18
100
AcDbEntity
  8
0
100
AcDbLine
 10
2.755972
 20
6.179971
 30
0.0
 11
2.541751
 21
6.264755999999999
 31
0.0
  0
LINE
  5
148
330
18
100
AcDbEntity
  8
0
100
AcDbLine
 10
2.293204
 20
6.363127
 30
0.0
 11
2.293204
 21
6.602233999999999
 31
0.0
  0
ARC
  5
149
330
18
100
AcDbEntity
  8
0
100
AcDbCircle
 10
2.429951
 20
6.602233999999999
 30
0.0
 40
0.136747
100
AcDbArc
 50
104.706601
 51
180.0
  0
LINE
  5
14A
330
18
100
AcDbEntity
  8
0
100
AcDbLine
 10
2.755972
 20
6.367047
 30
0.0
 11
3.639667
 21
6.024879
 31
0.0
  0
LINE
  5
14B
330
18
100
AcDbEntity
  8
0
100
AcDbLine
 10
2.293204
 20
6.378005
 30
0.0
 11
1.504885
 21
6.690009
 31
0.0
  0
CIRCLE
  5
14C
330
18
100
AcDbEntity
  8
0
100
AcDbCircle
 10
2.355597
 20
6.404281
 30
0.0
 40
0.01
  0
CIRCLE
  5
14D
330
18
100
AcDbEntity
  8
0
100
AcDbCircle
 10
2.439063
 20
6.429694000000001
 30
0.0
 40
0.01
  0
CIRCLE
  5
14E
330
18
100
AcDbEntity
  8
0
100
AcDbCircle
 10
2.564967
 20
6.320329
 30
0.0
 40
0.01
  0
CIRCLE
  5
14F
330
18
100
AcDbEntity
  8
0
100
AcDbCircle
 10
2.682225
 20
6.335104
 30
0.0
 40
0.01
  0
CIRCLE
  5
150
330
18
100
AcDbEntity
  8
0
100
AcDbCircle
 10
2.567046
 20
6.852189999999999
 30
0.0
 40
0.01
  0
CIRCLE
  5
151
330
18
100
AcDbEntity
  8
0
100
AcDbCircle
 10
2.555739
 20
6.941388000000001
 30
0.0
 40
0.01
  0
CIRCLE
  5
152
330
18
100
AcDbEntity
  8
0
100
AcDbCircle
 10
2.457186
 20
6.911261
 30
0.0
 40
0.01
  0
CIRCLE
  5
153
330
18
100
AcDbEntity
  8
0
100
AcDbCircle
 10
2.667242
 20
6.916278999999999
 30
0.0
 40
0.01
  0
LWPOLYLINE
  5
154
330
18
100
AcDbEntity
  8
0
100
AcDbPolyline
 90
       16
 70
     1
 43
0.0
 10
2.472451
 20
6.556038
 42
0.121778
 10
2.461764
 20
6.549002
 42
0.105285
 10
2.454228
 20
6.536329
 42
0.088108
 10
2.45194
 20
6.521276
 42
0.0789
 10
2.455018
 20
6.504580000000001
 42
0.0789
 10
2.463117
 20
6.489659
 42
0.088108
 10
2.474359
 20
6.479389
 42
0.105285
 10
2.488186
 20
6.474268
 42
0.121778
 10
2.50092
 20
6.475512999999999
 42
0.121778
 10
2.511607
 20
6.482549
 42
0.105285
 10
2.519143
 20
6.495223
 42
0.088108
 10
2.521432
 20
6.510276
 42
0.0789
 10
2.518353
 20
6.526971
 42
0.0789
 10
2.510254
 20
6.541892
 42
0.088108
 10
2.499013
 20
6.552162
 42
0.105285
 10
2.485186
 20
6.557283
 42
0.121778
  0
LWPOLYLINE
  5
167
330
18
100
AcDbEntity
  8
0
100
AcDbPolyline
 90
        9
 70
     0
 43
0.0
 10
2.482882
 20
6.557517999999999
 42
0.018952
 10
2.481455
 20
6.556087
 42
0.105285
 10
2.473919
 20
6.543414
 42
0.088108
 10
2.471631
 20
6.52836
 42
0.0789
 10
2.474709
 20
6.511665
 42
0.0789
 10
2.482808
 20
6.496744000000001
 42
0.088108
 10
2.49405
 20
6.486473999999999
 42
0.105285
 10
2.507877
 20
6.481353
 42
0.021731
 10
2.510181
 20
6.481119000000001
 42
0.121778
  0
LWPOLYLINE
  5
173
330
18
100
AcDbEntity
  8
0
100
AcDbPolyline
 90
       16
 70
     1
 43
0.0
 10
2.458093
 20
6.695284
 42
0.131535
 10
2.456239
 20
6.688691
 42
0.106606
 10
2.457908
 20
6.680457000000001
 42
0.083616
 10
2.46271
 20
6.673113000000001
 42
0.072414
 10
2.470572
 20
6.666752000000001
 42
0.072414
 10
2.479922
 20
6.662897
 42
0.083616
 10
2.488669
 20
6.662199
 42
0.106606
 10
2.496696
 20
6.664679
 42
0.131535
 10
2.501596
 20
6.669464
 42
0.131535
 10
2.503449
 20
6.676058
 42
0.106606
 10
2.501781
 20
6.684292
 42
0.083616
 10
2.496979
 20
6.691635000000001
 42
0.072414
 10
2.489116
 20
6.697996000000001
 42
0.072414
 10
2.479766
 20
6.701851
 42
0.083616
 10
2.47102
 20
6.702549
 42
0.106606
 10
2.462993
 20
6.700069
 42
0.131535
  0
LINE
  5
186
330
18
100
AcDbEntity
  8
0
100
AcDbLine
 10
2.481905
 20
6.632844
 30
0.0
 11
2.49586
 21
6.63058
 31
0.0
  0
LINE
  5
187
330
18
100
AcDbEntity
  8
0
100
AcDbLine
 10
2.49586
 20
6.63058
 30
0.0
 11
2.491286
 21
6.662605
 31
0.0
  0
LINE
  5
188
330
18
100
AcDbEntity
  8
0
100
AcDbLine
 10
2.481905
 20
6.632844
 30
0.0
 11
2.477514
 21
6.663596000000001
 31
0.0
  0
LINE
  5
189
330
18
100
AcDbEntity
  8
0
100
AcDbLine
 10
3.046458
 20
7.239657000000001
 30
0.0
 11
3.046458
 21
7.189464
 31
0.0
  0
LINE
  5
18A
330
18
100
AcDbEntity
  8
0
  6
HIDDEN
100
AcDbLine
 10
1.876463
 20
6.809628
 30
0.0
 11
1.521119
 21
6.689363
 31
0.0
  0
LINE
  5
18B
330
18
100
AcDbEntity
  8
0
100
AcDbLine
 10
1.497775
 20
7.513330000000001
 30
0.0
 11
1.497775
 21
6.681462
 31
0.0
  0
LINE
  5
18C
330
18
100
AcDbEntity
  8
0
100
AcDbLine
 10
1.381607
 20
7.553658
 30
0.0
 11
1.406284
 21
7.592049
 31
0.0
  0
LINE
  5
18D
330
18
100
AcDbEntity
  8
0
100
AcDbLine
 10
1.406284
 20
7.592049
 30
0.0
 11
1.470907
 21
7.572827999999999
 31
0.0
  0
LINE
  5
18E
330
18
100
AcDbEntity
  8
0
100
AcDbLine
 10
1.470907
 20
7.572827999999999
 30
0.0
 11
1.497775
 21
7.513330000000001
 31
0.0
  0
LINE
  5
18F
330
18
100
AcDbEntity
  8
0
100
AcDbLine
 10
1.497775
 20
6.681462
 30
0.0
 11
1.381607
 21
6.727439
 31
0.0
  0
LINE
  5
190
330
18
100
AcDbEntity
  8
0
  6
HIDDEN
100
AcDbLine
 10
1.876463
 20
6.809628
 30
0.0
 11
1.750473
 21
6.866662
 31
0.0
  0
LINE
  5
191
330
18
100
AcDbEntity
  8
0
  6
HIDDEN
100
AcDbLine
 10
1.750473
 20
6.866662
 30
0.0
 11
1.511239
 21
6.799208
 31
0.0
  0
LINE
  5
192
330
18
100
AcDbEntity
  8
0
100
AcDbLine
 10
1.511239
 20
6.799208
 30
0.0
 11
1.511239
 21
6.799208
 31
0.0
  0
LWPOLYLINE
  5
193
330
18
100
AcDbEntity
  8
0
  6
HIDDEN
100
AcDbPolyline
 90
        6
 70
   128
 43
0.0
 10
1.750473
 20
6.866662
 10
1.750473
 20
7.613236
 10
1.788136
 20
7.640803999999999
 10
1.84997
 20
7.632634
 10
1.876463
 20
7.596104
 10
1.876463
 20
6.809628
  0
LINE
  5
19C
330
18
100
AcDbEntity
  8
0
100
AcDbLine
 10
1.28632
 20
7.167472999999999
 30
0.0
 11
1.381607
 21
7.191817
 31
0.0
  0
CIRCLE
  5
19D
330
18
100
AcDbEntity
  8
0
100
AcDbCircle
 10
1.412903
 20
7.360967
 30
0.0
 40
0.008059
  0
CIRCLE
  5
19E
330
18
100
AcDbEntity
  8
0
100
AcDbCircle
 10
1.439423
 20
7.441449
 30
0.0
 40
0.008059
  0
CIRCLE
  5
19F
330
18
100
AcDbEntity
  8
0
100
AcDbCircle
 10
1.461851
 20
7.517010000000001
 30
0.0
 40
0.008059
  0
CIRCLE
  5
1A0
330
18
100
AcDbEntity
  8
0
  6
HIDDEN
100
AcDbCircle
 10
1.782217
 20
7.433955
 30
0.0
 40
0.008059
  0
CIRCLE
  5
1A1
330
18
100
AcDbEntity
  8
0
  6
HIDDEN
100
AcDbCircle
 10
1.816639
 20
7.509288000000001
 30
0.0
 40
0.008059
  0
CIRCLE
  5
1A2
330
18
100
AcDbEntity
  8
0
  6
HIDDEN
100
AcDbCircle
 10
1.836897
 20
7.575892
 30
0.0
 40
0.008059
  0
LINE
  5
1A3
330
18
100
AcDbEntity
  8
0
100
AcDbLine
 10
1.381607
 20
6.7388
 30
0.0
 11
0.818396
 21
6.961709
 31
0.0
  0
LINE
  5
1A4
330
18
100
AcDbEntity
  8
0
100
AcDbLine
 10
1.497775
 20
6.854222999999999
 30
0.0
 11
2.293204
 21
6.546231
 31
0.0
  0
TEXT
  5
1A5
330
18
100
AcDbEntity
  8
0
100
AcDbText
 10
1.434418
 20
4.715639
 30
0.0
 40
0.2
  1
SP4
 41
0.8
100
AcDbText
  0
TEXT
  5
1A6
330
18
100
AcDbEntity
  8
0
100
AcDbText
 10
2.303192
 20
4.252902
 30
0.0
 40
0.2
  1
SP1
 41
0.8
100
AcDbText
  0
TEXT
  5
1A7
330
18
100
AcDbEntity
  8
0
100
AcDbText
 10
3.548211
 20
3.600415
 30
0.0
 40
0.2
  1
H2.5
 41
0.8
100
AcDbText
  0
TEXT
  5
1A8
330
18
100
AcDbEntity
  8
0
100
AcDbText
 10
4.490741652758192
 20
3.059621647276334
 30
0.0
 40
0.2
  1
two H4
 41
0.8
100
AcDbText
  0
TEXT
  5
1A9
330
18
100
AcDbEntity
  8
0
100
AcDbText
 10
6.73468666295653
 20
1.986370188528164
 30
0.0
 40
0.2
  1
MAS
 41
0.8
100
AcDbText
  0
TEXT
  5
1AA
330
18
100
AcDbEntity
  8
0
100
AcDbText
 10
4.447004
 20
6.762532000000001
 30
0.0
 40
0.2
  1
BP
 41
0.8
100
AcDbText
  0
LINE
  5
1AB
330
18
100
AcDbEntity
  8
0
100
AcDbLine
 10
1.504885
 20
7.519194000000001
 30
0.0
 11
1.504885
 21
6.690009
 31
0.0
  0
LINE
  5
1AC
330
18
100
AcDbEntity
  8
0
100
AcDbLine
 10
1.478017
 20
7.578692
 30
0.0
 11
1.504885
 21
7.519194000000001
 31
0.0
  0
LINE
  5
1AD
330
18
100
AcDbEntity
  8
0
100
AcDbLine
 10
1.504885
 20
7.519194000000001
 30
0.0
 11
1.497775
 21
7.513330000000001
 31
0.0
  0
LINE
  5
1AE
330
18
100
AcDbEntity
  8
0
100
AcDbLine
 10
1.478017
 20
7.578692
 30
0.0
 11
1.470907
 21
7.572827999999999
 31
0.0
  0
LINE
  5
1AF
330
18
100
AcDbEntity
  8
0
100
AcDbLine
 10
1.470907
 20
7.572827999999999
 30
0.0
 11
1.470907
 21
7.572827999999999
 31
0.0
  0
LINE
  5
1B0
330
18
100
AcDbEntity
  8
0
100
AcDbLine
 10
1.497775
 20
6.681462
 30
0.0
 11
1.513247
 21
6.686699000000001
 31
0.0
  0
LINE
  5
1B1
330
18
100
AcDbEntity
  8
0
100
AcDbLine
 10
1.413393
 20
7.597914
 30
0.0
 11
1.478017
 21
7.578692
 31
0.0
  0
LINE
  5
1B2
330
18
100
AcDbEntity
  8
0
100
AcDbLine
 10
1.413393
 20
7.597914
 30
0.0
 11
1.406284
 21
7.592049
 31
0.0
  0
LINE
  5
1B3
330
18
100
AcDbEntity
  8
0
100
AcDbLine
 10
4.020066
 20
6.6037
 30
0.0
 11
4.020066
 21
6.338280999999999
 31
0.0
  0
LINE
  5
1B4
330
18
100
AcDbEntity
  8
0
100
AcDbLine
 10
4.024479
 20
6.334851000000001
 30
0.0
 11
3.805930000000001
 21
6.034871
 31
0.0
  0
LINE
  5
1B5
330
18
100
AcDbEntity
  8
0
100
AcDbLine
 10
3.800178
 20
6.017206
 30
0.0
 11
3.800178
 21
5.766692
 31
0.0
  0
LINE
  5
1B6
330
18
100
AcDbEntity
  8
0
100
AcDbLine
 10
3.800178
 20
5.766692
 30
0.0
 11
3.639667
 21
5.830219000000001
 31
0.0
  0
LINE
  5
1B7
330
18
100
AcDbEntity
  8
0
100
AcDbLine
 10
4.020066
 20
6.6037
 30
0.0
 11
3.844949
 21
6.54303
 31
0.0
  0
LINE
  5
1B8
330
18
100
AcDbEntity
  8
0
100
AcDbLine
 10
3.844949
 20
6.54303
 30
0.0
 11
3.844949
 21
6.288169
 31
0.0
  0
LINE
  5
1B9
330
18
100
AcDbEntity
  8
0
100
AcDbLine
 10
3.844949
 20
6.288169
 30
0.0
 11
3.649346
 21
6.112686
 31
0.0
  0
LINE
  5
1BA
330
18
100
AcDbEntity
  8
0
100
AcDbLine
 10
3.639667
 20
6.090999
 30
0.0
 11
3.639667
 21
5.830219000000001
 31
0.0
  0
LINE
  5
1BB
330
18
100
AcDbEntity
  8
0
100
AcDbLine
 10
3.808441
 20
5.959529
 30
0.0
 11
4.692441000000001
 21
5.617243
 31
0.0
  0
LINE
  5
1BC
330
18
100
AcDbEntity
  8
0
100
AcDbLine
 10
3.639667
 20
5.845097
 30
0.0
 11
2.755972
 21
6.194849
 31
0.0
  0
LINE
  5
1BD
330
18
100
AcDbEntity
  8
0
100
AcDbLine
 10
3.837292
 20
6.077918
 30
0.0
 11
3.837292
 21
5.948358
 31
0.0
  0
LINE
  5
1BE
330
18
100
AcDbEntity
  8
0
100
AcDbLine
 10
3.837292
 20
6.250793
 30
0.0
 11
3.837292
 21
6.108425
 31
0.0
  0
LINE
  5
1BF
330
18
100
AcDbEntity
  8
0
100
AcDbLine
 10
3.649758
 20
6.301007
 30
0.0
 11
2.985127
 21
6.544669
 31
0.0
  0
ARC
  5
1C0
330
18
100
AcDbEntity
  8
0
100
AcDbCircle
 10
3.668803
 20
6.090999
 30
0.0
 40
0.029136
100
AcDbArc
 50
131.896629
 51
180.0
  0
ARC
  5
1C1
330
18
100
AcDbEntity
  8
0
100
AcDbCircle
 10
3.99093
 20
6.338280999999999
 30
0.0
 40
0.029136
100
AcDbArc
 50
323.92497
 51
0.0
  0
LINE
  5
1C2
330
18
100
AcDbEntity
  8
0
100
AcDbLine
 10
4.030066000000001
 20
6.617748
 30
0.0
 11
4.030066000000001
 21
6.352007
 31
0.0
  0
LINE
  5
1C3
330
18
100
AcDbEntity
  8
0
100
AcDbLine
 10
4.030066000000001
 20
6.617748
 30
0.0
 11
3.854949
 21
6.557078
 31
0.0
  0
ARC
  5
1C4
330
18
100
AcDbEntity
  8
0
100
AcDbCircle
 10
4.00093
 20
6.352007
 30
0.0
 40
0.029136
100
AcDbArc
 50
323.92497
 51
0.0
  0
LINE
  5
1C5
330
18
100
AcDbEntity
  8
0
100
AcDbLine
 10
4.020066
 20
6.6037
 30
0.0
 11
4.030066000000001
 21
6.617748
 31
0.0
  0
LINE
  5
1C6
330
18
100
AcDbEntity
  8
0
100
AcDbLine
 10
3.844949
 20
6.54303
 30
0.0
 11
3.854949
 21
6.557078
 31
0.0
  0
CIRCLE
  5
1C7
330
18
100
AcDbEntity
  8
0
100
AcDbCircle
 10
3.953719
 20
6.531971
 30
0.0
 40
0.012
  0
CIRCLE
  5
1C8
330
18
100
AcDbEntity
  8
0
100
AcDbCircle
 10
3.894335
 20
6.5111
 30
0.0
 40
0.012
  0
CIRCLE
  5
1C9
330
18
100
AcDbEntity
  8
0
100
AcDbCircle
 10
3.930481
 20
6.466424
 30
0.0
 40
0.012
  0
CIRCLE
  5
1CA
330
18
100
AcDbEntity
  8
0
100
AcDbCircle
 10
3.963497
 20
6.414808
 30
0.0
 40
0.012
  0
CIRCLE
  5
1CB
330
18
100
AcDbEntity
  8
0
100
AcDbCircle
 10
3.888216
 20
6.399237
 30
0.0
 40
0.012
  0
LWPOLYLINE
  5
1CC
330
18
100
AcDbEntity
  8
0
100
AcDbPolyline
 90
       16
 70
     1
 43
0.0
 10
3.668397
 20
5.984480000000001
 42
0.121551
 10
3.663978
 20
5.982247
 42
0.105245
 10
3.660524
 20
5.977715
 42
0.088213
 10
3.65898
 20
5.972039
 42
0.079061
 10
3.659427
 20
5.965501000000001
 42
0.079061
 10
3.661881
 20
5.959423999999999
 42
0.088213
 10
3.665749
 20
5.954993
 42
0.105245
 10
3.670836
 20
5.952425
 42
0.121551
 10
3.675786
 20
5.952346
 42
0.121551
 10
3.680206
 20
5.95458
 42
0.105245
 10
3.68366
 20
5.959112
 42
0.088213
 10
3.685203
 20
5.964788
 42
0.079061
 10
3.684756
 20
5.971326
 42
0.079061
 10
3.682302
 20
5.977402
 42
0.088213
 10
3.678434
 20
5.981833999999999
 42
0.105245
 10
3.673348
 20
5.984401999999999
 42
0.121551
  0
LWPOLYLINE
  5
1DF
330
18
100
AcDbEntity
  8
0
100
AcDbPolyline
 90
       16
 70
     1
 43
0.0
 10
3.668397
 20
5.898622000000001
 42
0.121551
 10
3.663978
 20
5.896388
 42
0.105245
 10
3.660524
 20
5.891857
 42
0.088213
 10
3.65898
 20
5.88618
 42
0.079061
 10
3.659427
 20
5.879642
 42
0.079061
 10
3.661881
 20
5.873566
 42
0.088213
 10
3.665749
 20
5.869134
 42
0.105245
 10
3.670836
 20
5.866567
 42
0.121551
 10
3.675786
 20
5.866488
 42
0.121551
 10
3.680206
 20
5.868721
 42
0.105245
 10
3.68366
 20
5.873253
 42
0.088213
 10
3.685203
 20
5.878929
 42
0.079061
 10
3.684756
 20
5.885467
 42
0.079061
 10
3.682302
 20
5.891544000000001
 42
0.088213
 10
3.678434
 20
5.895975
 42
0.105245
 10
3.673348
 20
5.898543
 42
0.121551
  0
LWPOLYLINE
  5
1F2
330
18
100
AcDbEntity
  8
0
100
AcDbPolyline
 90
       16
 70
     1
 43
0.0
 10
3.749443
 20
5.849094999999999
 42
0.121551
 10
3.745024
 20
5.846862000000001
 42
0.105245
 10
3.74157
 20
5.842330000000001
 42
0.088213
 10
3.740026
 20
5.836654
 42
0.079061
 10
3.740473
 20
5.830116
 42
0.079061
 10
3.742927
 20
5.824039
 42
0.088213
 10
3.746795
 20
5.819608000000001
 42
0.105245
 10
3.751882
 20
5.81704
 42
0.121551
 10
3.756833
 20
5.816961
 42
0.121551
 10
3.761252
 20
5.819195
 42
0.105245
 10
3.764706
 20
5.823727
 42
0.088213
 10
3.76625
 20
5.829403
 42
0.079061
 10
3.765803
 20
5.835941
 42
0.079061
 10
3.763349
 20
5.842017
 42
0.088213
 10
3.759481
 20
5.846449
 42
0.105245
 10
3.754394000000001
 20
5.849017
 42
0.121551
  0
LWPOLYLINE
  5
205
330
18
100
AcDbEntity
  8
0
100
AcDbPolyline
 90
       16
 70
     1
 43
0.0
 10
3.749443
 20
5.934954
 42
0.121551
 10
3.745024
 20
5.93272
 42
0.105245
 10
3.74157
 20
5.928188
 42
0.088213
 10
3.740026
 20
5.922512
 42
0.079061
 10
3.740473
 20
5.915973999999999
 42
0.079061
 10
3.742927
 20
5.909898
 42
0.088213
 10
3.746795
 20
5.905466000000001
 42
0.105245
 10
3.751882
 20
5.902898
 42
0.121551
 10
3.756833
 20
5.902819999999999
 42
0.121551
 10
3.761252
 20
5.905053
 42
0.105245
 10
3.764706
 20
5.909585
 42
0.088213
 10
3.76625
 20
5.915261
 42
0.079061
 10
3.765803
 20
5.921799
 42
0.079061
 10
3.763349
 20
5.927875
 42
0.088213
 10
3.759481
 20
5.932307
 42
0.105245
 10
3.754394000000001
 20
5.934875
 42
0.121551
  0
LWPOLYLINE
  5
218
330
18
100
AcDbEntity
  8
0
100
AcDbPolyline
 90
       16
 70
     1
 43
0.0
 10
3.740517
 20
6.097093
 42
0.113259
 10
3.745472
 20
6.094271
 42
0.103432
 10
3.75168
 20
6.093736
 42
0.092016
 10
3.757753
 20
6.095639
 42
0.085303
 10
3.763181
 20
6.099829
 42
0.085303
 10
3.766898
 20
6.105591
 42
0.092016
 10
3.768283
 20
6.111803
 42
0.103432
 10
3.767227
 20
6.117943
 42
0.113259
 10
3.763997
 20
6.122643
 42
0.113259
 10
3.759042
 20
6.125464
 42
0.103432
 10
3.752835
 20
6.125999
 42
0.092016
 10
3.746762
 20
6.124096
 42
0.085303
 10
3.741334
 20
6.119905999999999
 42
0.085303
 10
3.737616000000001
 20
6.114144000000001
 42
0.092016
 10
3.736232
 20
6.107932
 42
0.103432
 10
3.737288
 20
6.101792
 42
0.113259
  0
LINE
  5
22B
330
18
100
AcDbEntity
  8
0
100
AcDbLine
 10
4.865657
 20
5.855243
 30
0.0
 11
4.483366999999999
 21
5.995396
 31
0.0
  0
LINE
  5
22C
330
18
100
AcDbEntity
  8
0
100
AcDbLine
 10
4.658605000000001
 20
5.857592
 30
0.0
 11
4.455312999999999
 21
5.787458
 31
0.0
  0
LINE
  5
22D
330
18
100
AcDbEntity
  8
0
100
AcDbLine
 10
4.455312999999999
 20
5.787458
 30
0.0
 11
4.242945
 21
5.871467
 31
0.0
  0
LINE
  5
22E
330
18
100
AcDbEntity
  8
0
100
AcDbLine
 10
4.455312999999999
 20
5.777458
 30
0.0
 11
4.242945
 21
5.861467
 31
0.0
  0
LINE
  5
22F
330
18
100
AcDbEntity
  8
0
100
AcDbLine
 10
4.658605000000001
 20
5.847592
 30
0.0
 11
4.455312999999999
 21
5.777458
 31
0.0
  0
LINE
  5
230
330
18
100
AcDbEntity
  8
0
100
AcDbLine
 10
4.455312999999999
 20
5.777458
 30
0.0
 11
4.455312999999999
 21
5.777458
 31
0.0
  0
LINE
  5
231
330
18
100
AcDbEntity
  8
0
100
AcDbLine
 10
4.242945
 20
5.871467
 30
0.0
 11
4.242945
 21
5.861467
 31
0.0
  0
LINE
  5
232
330
18
100
AcDbEntity
  8
0
  6
HIDDEN
100
AcDbLine
 10
4.424475
 20
5.789657
 30
0.0
 11
4.424475
 21
4.853887
 31
0.0
  0
LINE
  5
233
330
18
100
AcDbEntity
  8
0
  6
HIDDEN
100
AcDbLine
 10
4.483366999999999
 20
5.787136
 30
0.0
 11
4.483366999999999
 21
4.914584
 31
0.0
  0
LINE
  5
234
330
18
100
AcDbEntity
  8
0
100
AcDbLine
 10
4.207151000000001
 20
4.921469
 30
0.0
 11
4.356083
 21
4.85593
 31
0.0
  0
LINE
  5
235
330
18
100
AcDbEntity
  8
0
100
AcDbLine
 10
4.356083
 20
4.85593
 30
0.0
 11
4.389153
 21
4.765048999999999
 31
0.0
  0
LINE
  5
236
330
18
100
AcDbEntity
  8
0
100
AcDbLine
 10
4.389153
 20
4.765048999999999
 30
0.0
 11
4.47376
 21
4.90342
 31
0.0
  0
LINE
  5
237
330
18
100
AcDbEntity
  8
0
100
AcDbLine
 10
4.47376
 20
4.90342
 30
0.0
 11
4.506768
 21
4.789619
 31
0.0
  0
LINE
  5
238
330
18
100
AcDbEntity
  8
0
100
AcDbLine
 10
4.506768
 20
4.789619
 30
0.0
 11
4.634508
 21
4.733405
 31
0.0
  0
LINE
  5
239
330
18
100
AcDbEntity
  8
0
100
AcDbLine
 10
4.359798000000001
 20
5.863329
 30
0.0
 11
4.415198999999999
 21
5.832284
 31
0.0
  0
LINE
  5
23A
330
18
100
AcDbEntity
  8
0
100
AcDbLine
 10
4.415198999999999
 20
5.832284
 30
0.0
 11
4.503941999999999
 21
5.831904
 31
0.0
  0
LINE
  5
23B
330
18
100
AcDbEntity
  8
0
100
AcDbLine
 10
4.415198999999999
 20
5.885256
 30
0.0
 11
4.503941999999999
 21
5.884875
 31
0.0
  0
LINE
  5
23C
330
18
100
AcDbEntity
  8
0
100
AcDbLine
 10
4.359798000000001
 20
5.9163
 30
0.0
 11
4.415198999999999
 21
5.885256
 31
0.0
  0
LINE
  5
23D
330
18
100
AcDbEntity
  8
0
100
AcDbLine
 10
4.359798000000001
 20
5.9163
 30
0.0
 11
4.359798000000001
 21
5.863329
 31
0.0
  0
LINE
  5
23E
330
18
100
AcDbEntity
  8
0
100
AcDbLine
 10
4.415198999999999
 20
5.885256
 30
0.0
 11
4.415198999999999
 21
5.832284
 31
0.0
  0
LINE
  5
23F
330
18
100
AcDbEntity
  8
0
100
AcDbLine
 10
4.503941999999999
 20
5.884875
 30
0.0
 11
4.503941999999999
 21
5.831904
 31
0.0
  0
LINE
  5
240
330
18
100
AcDbEntity
  8
0
100
AcDbLine
 10
4.552072
 20
5.932653
 30
0.0
 11
4.552072
 21
5.879682
 31
0.0
  0
LWPOLYLINE
  5
241
330
18
100
AcDbEntity
  8
0
100
AcDbPolyline
 90
       16
 70
     1
 43
0.0
 10
4.424475
 20
6.006482
 42
0.150745
 10
4.426422000000001
 20
6.000169000000001
 42
0.107018
 10
4.433099
 20
5.993835
 42
0.074985
 10
4.442133
 20
5.990056
 42
0.061702
 10
4.453921
 20
5.988596
 42
0.061702
 10
4.465709
 20
5.990056
 42
0.074985
 10
4.474742
 20
5.993835
 42
0.107018
 10
4.481419
 20
6.000169000000001
 42
0.150745
 10
4.483366999999999
 20
6.006482
 42
0.150745
 10
4.481419
 20
6.012796
 42
0.107018
 10
4.474742
 20
6.019130000000001
 42
0.074985
 10
4.465709
 20
6.022908999999999
 42
0.061702
 10
4.453921
 20
6.024369
 42
0.061702
 10
4.442133
 20
6.022908999999999
 42
0.074985
 10
4.433099
 20
6.019130000000001
 42
0.107018
 10
4.426422000000001
 20
6.012796
 42
0.150745
  0
LINE
  5
254
330
18
100
AcDbEntity
  8
0
100
AcDbLine
 10
4.359798000000001
 20
5.91178
 30
0.0
 11
4.242945
 21
5.871467
 31
0.0
  0
LINE
  5
255
330
18
100
AcDbEntity
  8
0
100
AcDbLine
 10
4.552072
 20
5.899734
 30
0.0
 11
4.658605000000001
 21
5.857592
 31
0.0
  0
LINE
  5
256
330
18
100
AcDbEntity
  8
0
100
AcDbLine
 10
4.455312999999999
 20
5.787458
 30
0.0
 11
4.455312999999999
 21
5.777458
 31
0.0
  0
LINE
  5
257
330
18
100
AcDbEntity
  8
0
100
AcDbLine
 10
4.658605000000001
 20
5.857592
 30
0.0
 11
4.658605000000001
 21
5.847592
 31
0.0
  0
LINE
  5
258
330
18
100
AcDbEntity
  8
0
100
AcDbLine
 10
4.424475
 20
6.006482
 30
0.0
 11
4.424475
 21
5.938955
 31
0.0
  0
LINE
  5
259
330
18
100
AcDbEntity
  8
0
100
AcDbLine
 10
4.483366999999999
 20
6.006482
 30
0.0
 11
4.483366999999999
 21
5.938955
 31
0.0
  0
LWPOLYLINE
  5
25A
330
18
100
AcDbEntity
  8
0
100
AcDbPolyline
 90
        9
 70
     0
 43
0.0
 10
4.424475
 20
5.938955
 42
0.150745
 10
4.426422000000001
 20
5.932642
 42
0.107018
 10
4.433099
 20
5.926307
 42
0.074985
 10
4.442133
 20
5.922529
 42
0.061702
 10
4.453921
 20
5.921069
 42
0.061702
 10
4.465709
 20
5.922529
 42
0.074985
 10
4.474742
 20
5.926307
 42
0.107018
 10
4.481419
 20
5.932642
 42
0.150745
 10
4.483366999999999
 20
5.938955
 42
0.150745
  0
LINE
  5
266
330
18
100
AcDbEntity
  8
0
100
AcDbLine
 10
4.428584
 20
6.01548
 30
0.0
 11
4.257976
 21
6.078027
 31
0.0
  0
LINE
  5
267
330
18
100
AcDbEntity
  8
0
100
AcDbLine
 10
4.359798000000001
 20
5.9163
 30
0.0
 11
4.371636
 21
5.968048000000001
 31
0.0
  0
LINE
  5
268
330
18
100
AcDbEntity
  8
0
100
AcDbLine
 10
4.371636
 20
5.968048000000001
 30
0.0
 11
4.424475
 21
5.9797
 31
0.0
  0
LINE
  5
269
330
18
100
AcDbEntity
  8
0
100
AcDbLine
 10
4.552072
 20
5.932252
 30
0.0
 11
4.520441
 21
5.968844
 31
0.0
  0
LINE
  5
26A
330
18
100
AcDbEntity
  8
0
100
AcDbLine
 10
4.520441
 20
5.968844
 30
0.0
 11
4.483366999999999
 21
5.976043
 31
0.0
  0
LINE
  5
26B
330
18
100
AcDbEntity
  8
0
100
AcDbLine
 10
4.503941999999999
 20
5.884875
 30
0.0
 11
4.552072
 21
5.932252
 31
0.0
  0
LINE
  5
26C
330
18
100
AcDbEntity
  8
0
100
AcDbLine
 10
4.552072
 20
5.879682
 30
0.0
 11
4.503941999999999
 21
5.831904
 31
0.0
  0
LWPOLYLINE
  5
26D
330
18
100
AcDbEntity
  8
0
100
AcDbPolyline
 90
        9
 70
     0
 43
0.0
 10
4.424475
 20
5.960433
 42
0.150745
 10
4.426422000000001
 20
5.95412
 42
0.107018
 10
4.433099
 20
5.947785
 42
0.074985
 10
4.442133
 20
5.944007
 42
0.061702
 10
4.453921
 20
5.942547
 42
0.061702
 10
4.465709
 20
5.944007
 42
0.074985
 10
4.474742
 20
5.947785
 42
0.107018
 10
4.481419
 20
5.95412
 42
0.150745
 10
4.483366999999999
 20
5.960433
 42
0.150745
  0
LWPOLYLINE
  5
279
330
18
100
AcDbEntity
  8
0
100
AcDbPolyline
 90
        9
 70
     0
 43
0.0
 10
4.424475
 20
5.982707
 42
0.150745
 10
4.426422000000001
 20
5.976394
 42
0.107018
 10
4.433099
 20
5.970059
 42
0.074985
 10
4.442133
 20
5.96628
 42
0.061702
 10
4.453921
 20
5.96482
 42
0.061702
 10
4.465709
 20
5.96628
 42
0.074985
 10
4.474742
 20
5.970059
 42
0.107018
 10
4.481419
 20
5.976394
 42
0.150745
 10
4.483366999999999
 20
5.982707
 42
0.150745
  0
LWPOLYLINE
  5
285
330
18
100
AcDbEntity
  8
0
100
AcDbPolyline
 90
        3
 70
     0
 43
0.0
 10
4.60233
 20
5.879853
 10
4.675403
 20
6.066027
 42
0.160718
 10
4.710767
 20
6.704772
 42
0.317007
  0
LINE
  5
28B
330
18
100
AcDbEntity
  8
0
100
AcDbLine
 10
5.556261
 20
5.602059
 30
0.0
 11
5.155547
 21
5.437928
 31
0.0
  0
CIRCLE
  5
28C
330
18
100
AcDbEntity
  8
0
100
AcDbCircle
 10
5.046186
 20
5.881389
 30
0.0
 40
0.007277
  0
CIRCLE
  5
28D
330
18
100
AcDbEntity
  8
0
100
AcDbCircle
 10
4.963987
 20
5.658989
 30
0.0
 40
0.007277
  0
CIRCLE
  5
28E
330
18
100
AcDbEntity
  8
0
100
AcDbCircle
 10
5.025587000000001
 20
5.796795
 30
0.0
 40
0.007277
  0
CIRCLE
  5
28F
330
18
100
AcDbEntity
  8
0
100
AcDbCircle
 10
4.977882
 20
5.864687
 30
0.0
 40
0.007277
  0
LINE
  5
290
330
18
100
AcDbEntity
  8
0
100
AcDbLine
 10
4.950929
 20
5.91932
 30
0.0
 11
4.895496
 21
5.896242
 31
0.0
  0
LINE
  5
291
330
18
100
AcDbEntity
  8
0
100
AcDbLine
 10
4.895496
 20
5.896242
 30
0.0
 11
4.623463
 21
5.522467
 31
0.0
  0
LINE
  5
292
330
18
100
AcDbEntity
  8
0
100
AcDbLine
 10
4.623463
 20
5.522467
 30
0.0
 11
4.623463
 21
5.440849
 31
0.0
  0
LINE
  5
293
330
18
100
AcDbEntity
  8
0
100
AcDbLine
 10
4.843156
 20
5.353899
 30
0.0
 11
4.623463
 21
5.440849
 31
0.0
  0
LINE
  5
294
330
18
100
AcDbEntity
  8
0
100
AcDbLine
 10
4.623463
 20
5.455728
 30
0.0
 11
3.808441
 21
5.7783
 31
0.0
  0
LWPOLYLINE
  5
295
330
18
100
AcDbEntity
  8
0
100
AcDbPolyline
 90
        5
 70
     0
 43
0.0
 10
4.950929
 20
5.576507
 10
4.887273
 20
5.5275
 10
4.887273
 20
5.409489
 42
0.415301
 10
4.843156
 20
5.365535
 10
4.843156
 20
5.353899
  0
LINE
  5
29D
330
18
100
AcDbEntity
  8
0
100
AcDbLine
 10
4.887273
 20
5.409489
 30
0.0
 11
4.894344
 21
5.406226
 31
0.0
  0
LINE
  5
29E
330
18
100
AcDbEntity
  8
0
100
AcDbLine
 10
4.843156
 20
5.353899
 30
0.0
 11
4.850226999999999
 21
5.350636
 31
0.0
  0
LINE
  5
29F
330
18
100
AcDbEntity
  8
0
100
AcDbLine
 10
4.887273
 20
5.5275
 30
0.0
 11
4.894344
 21
5.524238
 31
0.0
  0
LWPOLYLINE
  5
2A0
330
18
100
AcDbEntity
  8
0
100
AcDbPolyline
 90
        5
 70
     0
 43
0.0
 10
4.950929
 20
5.567801
 10
4.894344
 20
5.524238
 10
4.894344
 20
5.406226
 42
0.415301
 10
4.850226999999999
 20
5.362273
 10
4.850226999999999
 20
5.350636
  0
LINE
  5
2A8
330
18
100
AcDbEntity
  8
0
100
AcDbLine
 10
4.90716
 20
5.534104
 30
0.0
 11
6.394187000000001
 21
4.958325
 31
0.0
  0
LINE
  5
2A9
330
18
100
AcDbEntity
  8
0
100
AcDbLine
 10
4.942053
 20
5.873364
 30
0.0
 11
4.942053
 21
5.62386
 31
0.0
  0
CIRCLE
  5
2AA
330
18
100
AcDbEntity
  8
0
100
AcDbCircle
 10
4.845868
 20
5.493258
 30
0.0
 40
0.01
  0
CIRCLE
  5
2AB
330
18
100
AcDbEntity
  8
0
100
AcDbCircle
 10
4.712059
 20
5.554782
 30
0.0
 40
0.01
  0
CIRCLE
  5
2AC
330
18
100
AcDbEntity
  8
0
100
AcDbCircle
 10
4.683407
 20
5.467341
 30
0.0
 40
0.01
  0
CIRCLE
  5
2AD
330
18
100
AcDbEntity
  8
0
100
AcDbCircle
 10
4.816558000000001
 20
5.423826
 30
0.0
 40
0.01
  0
LWPOLYLINE
  5
2AE
330
18
100
AcDbEntity
  8
0
  6
HIDDEN
100
AcDbPolyline
 90
        5
 70
   128
 43
0.0
 10
4.958433
 20
5.580377
 10
5.014031
 20
5.609049
 10
5.102856
 20
5.917309
 10
5.050586
 20
5.955292
 10
4.962555
 20
5.923517
  0
LINE
  5
2B6
330
18
100
AcDbEntity
  8
0
100
AcDbLine
 10
5.425636
 20
5.592251999999999
 30
0.0
 11
5.340097
 21
5.82683
 31
0.0
  0
LINE
  5
2B7
330
18
100
AcDbEntity
  8
0
100
AcDbLine
 10
5.340097
 20
5.82683
 30
0.0
 11
5.388439
 21
5.95089
 31
0.0
  0
LINE
  5
2B8
330
18
100
AcDbEntity
  8
0
100
AcDbLine
 10
5.388439
 20
5.95089
 30
0.0
 11
5.556261
 21
6.017841000000001
 31
0.0
  0
LINE
  5
2B9
330
18
100
AcDbEntity
  8
0
100
AcDbLine
 10
5.556261
 20
6.017841000000001
 30
0.0
 11
5.604776
 21
5.970787000000001
 31
0.0
  0
LINE
  5
2BA
330
18
100
AcDbEntity
  8
0
100
AcDbLine
 10
5.604776
 20
5.970787000000001
 30
0.0
 11
5.795881
 21
5.514212000000001
 31
0.0
  0
LINE
  5
2BB
330
18
100
AcDbEntity
  8
0
100
AcDbLine
 10
5.425636
 20
5.592251999999999
 30
0.0
 11
5.556261
 21
5.638915
 31
0.0
  0
LWPOLYLINE
  5
2BC
330
18
100
AcDbEntity
  8
0
  6
HIDDEN
100
AcDbPolyline
 90
        6
 70
   128
 43
0.0
 10
5.804675
 20
5.4932
 10
5.822861
 20
5.449751
 10
5.822861
 20
5.314995
 10
5.600423999999999
 20
5.401716
 42
0.374206
 10
5.556261
 20
5.464238
 10
5.556261
 20
5.584755
  0
CIRCLE
  5
2C5
330
18
100
AcDbEntity
  8
0
100
AcDbCircle
 10
5.592086
 20
5.512112999999999
 30
0.0
 40
0.007277
  0
CIRCLE
  5
2C6
330
18
100
AcDbEntity
  8
0
100
AcDbCircle
 10
5.656289
 20
5.417914
 30
0.0
 40
0.007277
  0
CIRCLE
  5
2C7
330
18
100
AcDbEntity
  8
0
100
AcDbCircle
 10
5.751185
 20
5.466106
 30
0.0
 40
0.007277
  0
CIRCLE
  5
2C8
330
18
100
AcDbEntity
  8
0
100
AcDbCircle
 10
5.763851
 20
5.395879
 30
0.0
 40
0.007277
  0
LWPOLYLINE
  5
2C9
330
18
100
AcDbEntity
  8
0
100
AcDbPolyline
 90
       16
 70
     1
 43
0.0
 10
5.443462
 20
5.899857
 42
0.131981
 10
5.439932
 20
5.89898
 42
0.106647
 10
5.436563
 20
5.896035
 42
0.083411
 10
5.434431
 20
5.891873
 42
0.072137
 10
5.433555
 20
5.886547
 42
0.072137
 10
5.434228
 20
5.881192
 42
0.083411
 10
5.436201000000001
 20
5.876953
 42
0.106647
 10
5.439456
 20
5.873882
 42
0.131981
 10
5.442951
 20
5.872872
 42
0.131981
 10
5.446481
 20
5.873749
 42
0.106647
 10
5.44985
 20
5.876694000000001
 42
0.083411
 10
5.451982
 20
5.880856
 42
0.072137
 10
5.452858
 20
5.886182
 42
0.072137
 10
5.452184
 20
5.891537000000001
 42
0.083411
 10
5.450212000000001
 20
5.895776000000001
 42
0.106647
 10
5.446957
 20
5.898847
 42
0.131981
  0
LWPOLYLINE
  5
2DC
330
18
100
AcDbEntity
  8
0
100
AcDbPolyline
 90
       16
 70
     1
 43
0.0
 10
5.455333
 20
5.787653
 42
0.131981
 10
5.451803
 20
5.786776000000001
 42
0.106647
 10
5.448434
 20
5.78383
 42
0.083411
 10
5.446301999999999
 20
5.779669
 42
0.072137
 10
5.445426
 20
5.774343
 42
0.072137
 10
5.4461
 20
5.768987999999999
 42
0.083411
 10
5.448073
 20
5.764749
 42
0.106647
 10
5.451328
 20
5.761678
 42
0.131981
 10
5.454822
 20
5.760668
 42
0.131981
 10
5.458353
 20
5.761545
 42
0.106647
 10
5.461722
 20
5.76449
 42
0.083411
 10
5.463853
 20
5.768651999999999
 42
0.072137
 10
5.464729
 20
5.773978
 42
0.072137
 10
5.464055999999999
 20
5.779333
 42
0.083411
 10
5.462083
 20
5.783572
 42
0.106647
 10
5.458828
 20
5.786643
 42
0.131981
  0
LWPOLYLINE
  5
2EF
330
18
100
AcDbEntity
  8
0
100
AcDbPolyline
 90
       16
 70
     1
 43
0.0
 10
5.499658999999999
 20
5.91079
 42
0.131981
 10
5.496128
 20
5.909913
 42
0.106647
 10
5.492759
 20
5.906968
 42
0.083411
 10
5.490627
 20
5.902806
 42
0.072137
 10
5.489751999999999
 20
5.897480000000001
 42
0.072137
 10
5.490425
 20
5.892125
 42
0.083411
 10
5.492398000000001
 20
5.887886
 42
0.106647
 10
5.495653
 20
5.884815000000001
 42
0.131981
 10
5.499147
 20
5.883805000000001
 42
0.131981
 10
5.502678
 20
5.884682
 42
0.106647
 10
5.506047
 20
5.887626999999999
 42
0.083411
 10
5.508179
 20
5.891789
 42
0.072137
 10
5.509054
 20
5.897115
 42
0.072137
 10
5.508381
 20
5.90247
 42
0.083411
 10
5.506408
 20
5.906708999999999
 42
0.106647
 10
5.503153
 20
5.909780000000001
 42
0.131981
  0
LWPOLYLINE
  5
302
330
18
100
AcDbEntity
  8
0
100
AcDbPolyline
 90
       16
 70
     1
 43
0.0
 10
5.498491000000001
 20
5.690853
 42
0.131981
 10
5.494961
 20
5.689976000000001
 42
0.106647
 10
5.491592
 20
5.687031
 42
0.083411
 10
5.48946
 20
5.682869
 42
0.072137
 10
5.488584
 20
5.677544
 42
0.072137
 10
5.489257
 20
5.672187999999999
 42
0.083411
 10
5.491230000000001
 20
5.667949
 42
0.106647
 10
5.494485
 20
5.664878
 42
0.131981
 10
5.49798
 20
5.663868
 42
0.131981
 10
5.50151
 20
5.664745
 42
0.106647
 10
5.504879
 20
5.667691000000001
 42
0.083411
 10
5.507011
 20
5.671851999999999
 42
0.072137
 10
5.507887
 20
5.677178
 42
0.072137
 10
5.507213
 20
5.682533
 42
0.083411
 10
5.505241000000001
 20
5.686772
 42
0.106647
 10
5.501986000000001
 20
5.689843
 42
0.131981
  0
LINE
  5
315
330
18
100
AcDbEntity
  8
0
100
AcDbLine
 10
5.556261
 20
5.64346
 30
0.0
 11
5.556261
 21
5.602059
 31
0.0
  0
LINE
  5
316
330
18
100
AcDbEntity
  8
0
100
AcDbLine
 10
5.556261
 20
5.963680999999999
 30
0.0
 11
5.556261
 21
5.706821
 31
0.0
  0
LINE
  5
317
330
18
100
AcDbEntity
  8
0
100
AcDbLine
 10
5.347168
 20
5.833901
 30
0.0
 11
5.388582
 21
5.940181
 31
0.0
  0
LINE
  5
318
330
18
100
AcDbEntity
  8
0
100
AcDbLine
 10
5.432707
 20
5.599323
 30
0.0
 11
5.556261
 21
5.64346
 31
0.0
  0
LINE
  5
319
330
18
100
AcDbEntity
  8
0
100
AcDbLine
 10
5.432707
 20
5.599323
 30
0.0
 11
5.347168
 21
5.833901
 31
0.0
  0
LINE
  5
31A
330
18
100
AcDbEntity
  8
0
100
AcDbLine
 10
5.347168
 20
5.833901
 30
0.0
 11
5.340097
 21
5.82683
 31
0.0
  0
LINE
  5
31B
330
18
100
AcDbEntity
  8
0
100
AcDbLine
 10
5.432707
 20
5.599323
 30
0.0
 11
5.425636
 21
5.592251999999999
 31
0.0
  0
LINE
  5
31C
330
18
100
AcDbEntity
  8
0
100
AcDbLine
 10
5.599533999999999
 20
5.965547
 30
0.0
 11
5.787098
 21
5.517432
 31
0.0
  0
LINE
  5
31D
330
18
100
AcDbEntity
  8
0
100
AcDbLine
 10
5.556585
 20
6.007204
 30
0.0
 11
5.599533999999999
 21
5.965547
 31
0.0
  0
LINE
  5
31E
330
18
100
AcDbEntity
  8
0
100
AcDbLine
 10
5.388582
 20
5.940181
 30
0.0
 11
5.556585
 21
6.007204
 31
0.0
  0
LINE
  5
31F
330
18
100
AcDbEntity
  8
0
100
AcDbLine
 10
5.388582
 20
5.940181
 30
0.0
 11
5.388439
 21
5.95089
 31
0.0
  0
LINE
  5
320
330
18
100
AcDbEntity
  8
0
100
AcDbLine
 10
5.556585
 20
6.007204
 30
0.0
 11
5.556585
 21
6.007204
 31
0.0
  0
LINE
  5
321
330
18
100
AcDbEntity
  8
0
100
AcDbLine
 10
5.556585
 20
6.007204
 30
0.0
 11
5.556261
 21
6.017841000000001
 31
0.0
  0
LWPOLYLINE
  5
322
330
18
100
AcDbEntity
  8
0
  6
HIDDEN
100
AcDbPolyline
 90
        4
 70
     0
 43
0.0
 10
6.747507932148599
 20
4.128354206850838
 10
6.856021932148599
 20
4.209283206850838
 10
6.834525932148599
 20
4.235685206850837
 42
-0.278006
 10
6.7140419321486
 20
4.208973206850838
  0
LWPOLYLINE
  5
329
330
18
100
AcDbEntity
  8
0
  6
HIDDEN
100
AcDbPolyline
 90
        5
 70
   128
 43
0.0
 10
6.246135932148599
 20
4.789732206850838
 10
6.245767932148599
 20
4.775487206850838
 42
0.312198
 10
6.2519989321486
 20
4.765966206850838
 10
6.398440932148599
 20
4.706434206850838
 10
6.414753932148599
 20
4.723121206850838
  0
LINE
  5
331
330
18
100
AcDbEntity
  8
0
100
AcDbLine
 10
6.581214932148599
 20
4.900802206850838
 30
0.0
 11
6.8735679321486
 21
5.029797206850837
 31
0.0
  0
LINE
  5
332
330
18
100
AcDbEntity
  8
0
100
AcDbLine
 10
6.8735679321486
 20
5.029797206850837
 30
0.0
 11
6.8735679321486
 21
5.064797206850837
 31
0.0
  0
LINE
  5
333
330
18
100
AcDbEntity
  8
0
100
AcDbLine
 10
6.8735679321486
 20
5.064797206850837
 30
0.0
 11
6.766103932148599
 21
5.109819206850838
 31
0.0
  0
LINE
  5
334
330
18
100
AcDbEntity
  8
0
100
AcDbLine
 10
6.766103932148599
 20
5.109819206850838
 30
0.0
 11
6.431562932148599
 21
4.951357206850838
 31
0.0
  0
LINE
  5
335
330
18
100
AcDbEntity
  8
0
100
AcDbLine
 10
6.421071932148599
 20
4.934779206850838
 30
0.0
 11
6.421071932148599
 21
4.744264206850837
 31
0.0
  0
LINE
  5
336
330
18
100
AcDbEntity
  8
0
100
AcDbLine
 10
6.5702759321486
 20
4.685212206850838
 30
0.0
 11
6.5702759321486
 21
4.884019206850837
 31
0.0
  0
LINE
  5
337
330
18
100
AcDbEntity
  8
0
100
AcDbLine
 10
6.455029932148599
 20
4.937382206850837
 30
0.0
 11
6.5417629321486
 21
4.903799206850838
 31
0.0
  0
LWPOLYLINE
  5
338
330
18
100
AcDbEntity
  8
0
100
AcDbPolyline
 90
       16
 70
     1
 43
0.0
 10
6.823068932148598
 20
5.055749206850838
 42
0.216978
 10
6.821424932148601
 20
5.059235206850837
 42
0.092806
 10
6.8138839321486
 20
5.063531206850838
 42
0.049479
 10
6.804607932148599
 20
5.065740206850838
 42
0.037071
 10
6.791917932148599
 20
5.066512206850837
 42
0.037071
 10
6.7792539321486
 20
5.065402206850838
 42
0.049479
 10
6.7700399321486
 20
5.062947206850837
 42
0.092806
 10
6.762614932148599
 20
5.058453206850837
 42
0.216978
 10
6.761064932148599
 20
5.054924206850838
 42
0.216978
 10
6.7627089321486
 20
5.051439206850837
 42
0.092806
 10
6.7702499321486
 20
5.047143206850837
 42
0.049479
 10
6.7795259321486
 20
5.044934206850837
 42
0.037071
 10
6.792215932148599
 20
5.044162206850838
 42
0.037071
 10
6.804879932148599
 20
5.045271206850837
 42
0.049479
 10
6.814093932148599
 20
5.047726206850838
 42
0.092806
 10
6.821518932148599
 20
5.052221206850837
 42
0.216978
  0
POINT
  5
34B
330
18
100
AcDbEntity
  8
0
100
AcDbPoint
 10
9.945290662999991
 20
5.097828061336772
 30
0.0
  0
POINT
  5
34C
330
18
100
AcDbEntity
  8
0
100
AcDbPoint
 10
9.005139999999999
 20
4.862554
 30
0.0
  0
POINT
  5
34D
330
18
100
AcDbEntity
  8
0
100
AcDbPoint
 10
9.004313
 20
4.660607
 30
0.0
  0
POINT
  5
34E
330
18
100
AcDbEntity
  8
0
100
AcDbPoint
 10
8.882066
 20
4.751907
 30
0.0
  0
POINT
  5
34F
330
18
100
AcDbEntity
  8
0
100
AcDbPoint
 10
8.824392
 20
4.663016000000001
 30
0.0
  0
POINT
  5
350
330
18
100
AcDbEntity
  8
0
100
AcDbPoint
 10
8.765357
 20
4.766116
 30
0.0
  0
POINT
  5
351
330
18
100
AcDbEntity
  8
0
100
AcDbPoint
 10
8.743847000000001
 20
4.844509
 30
0.0
  0
POINT
  5
352
330
18
100
AcDbEntity
  8
0
100
AcDbPoint
 10
8.676575999999999
 20
4.776796
 30
0.0
  0
POINT
  5
353
330
18
100
AcDbEntity
  8
0
100
AcDbPoint
 10
7.812869932148599
 20
5.054992206850837
 30
0.0
  0
POINT
  5
354
330
18
100
AcDbEntity
  8
0
100
AcDbPoint
 10
7.732174932148601
 20
5.017528206850837
 30
0.0
  0
POINT
  5
355
330
18
100
AcDbEntity
  8
0
100
AcDbPoint
 10
7.6031509321486
 20
5.014974206850838
 30
0.0
  0
POINT
  5
356
330
18
100
AcDbEntity
  8
0
100
AcDbPoint
 10
7.4609479321486
 20
5.055661206850838
 30
0.0
  0
POINT
  5
357
330
18
100
AcDbEntity
  8
0
100
AcDbPoint
 10
8.315066871473997
 20
4.90811396609667
 30
0.0
  0
POINT
  5
358
330
18
100
AcDbEntity
  8
0
100
AcDbPoint
 10
8.286902
 20
5.26509
 30
0.0
  0
POINT
  5
359
330
18
100
AcDbEntity
  8
0
100
AcDbPoint
 10
7.9081089321486
 20
5.385125206850837
 30
0.0
  0
POINT
  5
35A
330
18
100
AcDbEntity
  8
0
100
AcDbPoint
 10
7.693968932148599
 20
5.481166206850838
 30
0.0
  0
POINT
  5
35B
330
18
100
AcDbEntity
  8
0
100
AcDbPoint
 10
7.702954932148598
 20
5.375015206850837
 30
0.0
  0
POINT
  5
35C
330
18
100
AcDbEntity
  8
0
100
AcDbPoint
 10
7.510737932148599
 20
5.361660206850837
 30
0.0
  0
POINT
  5
35D
330
18
100
AcDbEntity
  8
0
100
AcDbPoint
 10
7.4090819321486
 20
5.431574206850838
 30
0.0
  0
POINT
  5
35E
330
18
100
AcDbEntity
  8
0
100
AcDbPoint
 10
7.370807932148598
 20
5.522282206850838
 30
0.0
  0
POINT
  5
35F
330
18
100
AcDbEntity
  8
0
100
AcDbPoint
 10
7.352726932148599
 20
5.570616206850838
 30
0.0
  0
POINT
  5
360
330
18
100
AcDbEntity
  8
0
100
AcDbPoint
 10
7.2031309321486
 20
5.590447206850837
 30
0.0
  0
POINT
  5
361
330
18
100
AcDbEntity
  8
0
100
AcDbPoint
 10
7.180162932148599
 20
5.591882206850837
 30
0.0
  0
POINT
  5
362
330
18
100
AcDbEntity
  8
0
100
AcDbPoint
 10
7.1360729321486
 20
5.586718206850837
 30
0.0
  0
POINT
  5
363
330
18
100
AcDbEntity
  8
0
100
AcDbPoint
 10
6.9890589321486
 20
5.584505206850838
 30
0.0
  0
POINT
  5
364
330
18
100
AcDbEntity
  8
0
100
AcDbPoint
 10
7.190200932148599
 20
5.435721206850837
 30
0.0
  0
POINT
  5
365
330
18
100
AcDbEntity
  8
0
100
AcDbPoint
 10
6.7395759321486
 20
5.398268206850838
 30
0.0
  0
POINT
  5
366
330
18
100
AcDbEntity
  8
0
100
AcDbPoint
 10
7.089053
 20
5.841683
 30
0.0
  0
POINT
  5
367
330
18
100
AcDbEntity
  8
0
100
AcDbPoint
 10
7.225338000000001
 20
5.858097
 30
0.0
  0
POINT
  5
368
330
18
100
AcDbEntity
  8
0
100
AcDbPoint
 10
7.513821000000001
 20
5.833634
 30
0.0
  0
POINT
  5
369
330
18
100
AcDbEntity
  8
0
100
AcDbPoint
 10
7.543108
 20
5.849076999999999
 30
0.0
  0
POINT
  5
36A
330
18
100
AcDbEntity
  8
0
100
AcDbPoint
 10
7.638725
 20
5.724288
 30
0.0
  0
POINT
  5
36B
330
18
100
AcDbEntity
  8
0
100
AcDbPoint
 10
7.793963000000001
 20
5.738343
 30
0.0
  0
POINT
  5
36C
330
18
100
AcDbEntity
  8
0
100
AcDbPoint
 10
8.048789999999999
 20
5.784505
 30
0.0
  0
POINT
  5
36D
330
18
100
AcDbEntity
  8
0
100
AcDbPoint
 10
6.333692
 20
5.867992
 30
0.0
  0
POINT
  5
36E
330
18
100
AcDbEntity
  8
0
100
AcDbPoint
 10
6.185213
 20
5.946791999999999
 30
0.0
  0
POINT
  5
36F
330
18
100
AcDbEntity
  8
0
100
AcDbPoint
 10
6.080308000000001
 20
5.950779
 30
0.0
  0
POINT
  5
370
330
18
100
AcDbEntity
  8
0
100
AcDbPoint
 10
5.97267
 20
5.968815
 30
0.0
  0
POINT
  5
371
330
18
100
AcDbEntity
  8
0
100
AcDbPoint
 10
5.896642
 20
5.808286
 30
0.0
  0
POINT
  5
372
330
18
100
AcDbEntity
  8
0
100
AcDbPoint
 10
6.1261
 20
5.781943
 30
0.0
  0
POINT
  5
373
330
18
100
AcDbEntity
  8
0
100
AcDbPoint
 10
6.239076
 20
5.781802
 30
0.0
  0
POINT
  5
374
330
18
100
AcDbEntity
  8
0
100
AcDbPoint
 10
6.291332
 20
5.795808999999999
 30
0.0
  0
POINT
  5
375
330
18
100
AcDbEntity
  8
0
100
AcDbPoint
 10
6.323319000000001
 20
5.848193
 30
0.0
  0
POINT
  5
376
330
18
100
AcDbEntity
  8
0
100
AcDbPoint
 10
3.893013
 20
4.594483
 30
0.0
  0
POINT
  5
377
330
18
100
AcDbEntity
  8
0
100
AcDbPoint
 10
4.193534
 20
4.413822
 30
0.0
  0
POINT
  5
378
330
18
100
AcDbEntity
  8
0
100
AcDbPoint
 10
4.554486
 20
4.15103
 30
0.0
  0
POINT
  5
379
330
18
100
AcDbEntity
  8
0
100
AcDbPoint
 10
4.698643
 20
4.266277
 30
0.0
  0
POINT
  5
37A
330
18
100
AcDbEntity
  8
0
100
AcDbPoint
 10
4.977779
 20
4.328975
 30
0.0
  0
POINT
  5
37B
330
18
100
AcDbEntity
  8
0
100
AcDbPoint
 10
5.107633
 20
4.322516
 30
0.0
  0
POINT
  5
37C
330
18
100
AcDbEntity
  8
0
100
AcDbPoint
 10
5.146041
 20
4.502754
 30
0.0
  0
POINT
  5
37D
330
18
100
AcDbEntity
  8
0
100
AcDbPoint
 10
5.17095
 20
4.709244
 30
0.0
  0
POINT
  5
37E
330
18
100
AcDbEntity
  8
0
100
AcDbPoint
 10
4.737056
 20
4.024594
 30
0.0
  0
POINT
  5
37F
330
18
100
AcDbEntity
  8
0
100
AcDbPoint
 10
4.932537
 20
4.051883999999999
 30
0.0
  0
POINT
  5
380
330
18
100
AcDbEntity
  8
0
100
AcDbPoint
 10
4.999769000000001
 20
4.117598
 30
0.0
  0
POINT
  5
381
330
18
100
AcDbEntity
  8
0
100
AcDbPoint
 10
5.131594000000001
 20
4.004121
 30
0.0
  0
POINT
  5
382
330
18
100
AcDbEntity
  8
0
100
AcDbPoint
 10
5.283122000000001
 20
4.086233999999999
 30
0.0
  0
POINT
  5
383
330
18
100
AcDbEntity
  8
0
100
AcDbPoint
 10
5.228514
 20
3.895305000000001
 30
0.0
  0
POINT
  5
384
330
18
100
AcDbEntity
  8
0
100
AcDbPoint
 10
5.440569
 20
3.900285
 30
0.0
  0
POINT
  5
385
330
18
100
AcDbEntity
  8
0
100
AcDbPoint
 10
5.58476
 20
3.96454
 30
0.0
  0
POINT
  5
386
330
18
100
AcDbEntity
  8
0
100
AcDbPoint
 10
5.619412000000001
 20
4.104858
 30
0.0
  0
POINT
  5
387
330
18
100
AcDbEntity
  8
0
100
AcDbPoint
 10
5.696212999999999
 20
4.253374
 30
0.0
  0
POINT
  5
388
330
18
100
AcDbEntity
  8
0
100
AcDbPoint
 10
5.758417
 20
4.634125
 30
0.0
  0
POINT
  5
389
330
18
100
AcDbEntity
  8
0
100
AcDbPoint
 10
6.026237
 20
4.680041
 30
0.0
  0
POINT
  5
38A
330
18
100
AcDbEntity
  8
0
100
AcDbPoint
 10
6.034428
 20
4.531912999999999
 30
0.0
  0
POINT
  5
38B
330
18
100
AcDbEntity
  8
0
100
AcDbPoint
 10
6.052528
 20
4.484579
 30
0.0
  0
POINT
  5
38C
330
18
100
AcDbEntity
  8
0
100
AcDbPoint
 10
6.133502
 20
4.484044
 30
0.0
  0
POINT
  5
38D
330
18
100
AcDbEntity
  8
0
100
AcDbPoint
 10
6.23215
 20
4.519168
 30
0.0
  0
POINT
  5
38E
330
18
100
AcDbEntity
  8
0
100
AcDbPoint
 10
5.914296
 20
4.418211
 30
0.0
  0
POINT
  5
38F
330
18
100
AcDbEntity
  8
0
100
AcDbPoint
 10
5.935427
 20
4.319829
 30
0.0
  0
POINT
  5
390
330
18
100
AcDbEntity
  8
0
100
AcDbPoint
 10
6.051905000000001
 20
4.240636
 30
0.0
  0
POINT
  5
391
330
18
100
AcDbEntity
  8
0
100
AcDbPoint
 10
5.976169000000001
 20
4.201079
 30
0.0
  0
POINT
  5
392
330
18
100
AcDbEntity
  8
0
100
AcDbPoint
 10
5.908865000000001
 20
4.184357
 30
0.0
  0
POINT
  5
393
330
18
100
AcDbEntity
  8
0
100
AcDbPoint
 10
5.879881
 20
4.184907
 30
0.0
  0
POINT
  5
394
330
18
100
AcDbEntity
  8
0
100
AcDbPoint
 10
5.803952
 20
4.082365
 30
0.0
  0
POINT
  5
395
330
18
100
AcDbEntity
  8
0
100
AcDbPoint
 10
5.892695
 20
4.069685
 30
0.0
  0
POINT
  5
396
330
18
100
AcDbEntity
  8
0
100
AcDbPoint
 10
5.848687
 20
3.910549
 30
0.0
  0
POINT
  5
397
330
18
100
AcDbEntity
  8
0
100
AcDbPoint
 10
5.656137999999999
 20
3.510273
 30
0.0
  0
POINT
  5
398
330
18
100
AcDbEntity
  8
0
100
AcDbPoint
 10
5.786669
 20
3.486803
 30
0.0
  0
POINT
  5
399
330
18
100
AcDbEntity
  8
0
100
AcDbPoint
 10
5.822716000000001
 20
3.384139
 30
0.0
  0
POINT
  5
39A
330
18
100
AcDbEntity
  8
0
100
AcDbPoint
 10
5.88321
 20
3.357998
 30
0.0
  0
POINT
  5
39B
330
18
100
AcDbEntity
  8
0
100
AcDbPoint
 10
5.995618
 20
3.327873
 30
0.0
  0
POINT
  5
39C
330
18
100
AcDbEntity
  8
0
100
AcDbPoint
 10
6.000941
 20
3.397759
 30
0.0
  0
POINT
  5
39D
330
18
100
AcDbEntity
  8
0
100
AcDbPoint
 10
6.058971
 20
3.452649
 30
0.0
  0
POINT
  5
39E
330
18
100
AcDbEntity
  8
0
100
AcDbPoint
 10
6.102553
 20
3.483818
 30
0.0
  0
POINT
  5
39F
330
18
100
AcDbEntity
  8
0
100
AcDbPoint
 10
5.995927
 20
3.660805
 30
0.0
  0
POINT
  5
3A0
330
18
100
AcDbEntity
  8
0
100
AcDbPoint
 10
6.017456
 20
3.583412
 30
0.0
  0
POINT
  5
3A1
330
18
100
AcDbEntity
  8
0
100
AcDbPoint
 10
6.102717
 20
3.650783
 30
0.0
  0
POINT
  5
3A2
330
18
100
AcDbEntity
  8
0
100
AcDbPoint
 10
6.148233
 20
3.572935
 30
0.0
  0
POINT
  5
3A3
330
18
100
AcDbEntity
  8
0
100
AcDbPoint
 10
5.9675399321486
 20
3.700215206850837
 30
0.0
  0
POINT
  5
3A4
330
18
100
AcDbEntity
  8
0
100
AcDbPoint
 10
6.028767932148599
 20
3.660062206850838
 30
0.0
  0
POINT
  5
3A5
330
18
100
AcDbEntity
  8
0
100
AcDbPoint
 10
6.39799
 20
3.404234
 30
0.0
  0
POINT
  5
3A6
330
18
100
AcDbEntity
  8
0
100
AcDbPoint
 10
6.319729
 20
3.389719
 30
0.0
  0
POINT
  5
3A7
330
18
100
AcDbEntity
  8
0
100
AcDbPoint
 10
6.25252
 20
3.377995
 30
0.0
  0
POINT
  5
3A8
330
18
100
AcDbEntity
  8
0
100
AcDbPoint
 10
6.156212
 20
3.360824
 30
0.0
  0
POINT
  5
3A9
330
18
100
AcDbEntity
  8
0
100
AcDbPoint
 10
6.09238
 20
3.369032
 30
0.0
  0
POINT
  5
3AA
330
18
100
AcDbEntity
  8
0
100
AcDbPoint
 10
6.11182
 20
3.339669
 30
0.0
  0
POINT
  5
3AB
330
18
100
AcDbEntity
  8
0
100
AcDbPoint
 10
6.153092
 20
3.248904
 30
0.0
  0
POINT
  5
3AC
330
18
100
AcDbEntity
  8
0
100
AcDbPoint
 10
6.276433
 20
3.162582
 30
0.0
  0
POINT
  5
3AD
330
18
100
AcDbEntity
  8
0
100
AcDbPoint
 10
6.504284999999999
 20
3.104275
 30
0.0
  0
POINT
  5
3AE
330
18
100
AcDbEntity
  8
0
100
AcDbPoint
 10
6.494924
 20
3.243427
 30
0.0
  0
POINT
  5
3AF
330
18
100
AcDbEntity
  8
0
100
AcDbPoint
 10
6.302714932148599
 20
3.923822206850838
 30
0.0
  0
POINT
  5
3B0
330
18
100
AcDbEntity
  8
0
100
AcDbPoint
 10
6.260495932148599
 20
3.964614206850837
 30
0.0
  0
POINT
  5
3B1
330
18
100
AcDbEntity
  8
0
100
AcDbPoint
 10
6.229180932148599
 20
4.053191206850838
 30
0.0
  0
POINT
  5
3B2
330
18
100
AcDbEntity
  8
0
100
AcDbPoint
 10
6.1891119321486
 20
4.101941206850838
 30
0.0
  0
POINT
  5
3B3
330
18
100
AcDbEntity
  8
0
100
AcDbPoint
 10
6.0755819321486
 20
4.020108206850837
 30
0.0
  0
POINT
  5
3B4
330
18
100
AcDbEntity
  8
0
100
AcDbPoint
 10
5.985792932148599
 20
3.924827206850838
 30
0.0
  0
POINT
  5
3B5
330
18
100
AcDbEntity
  8
0
100
AcDbPoint
 10
6.794573
 20
3.491702
 30
0.0
  0
POINT
  5
3B6
330
18
100
AcDbEntity
  8
0
100
AcDbPoint
 10
6.890024
 20
3.410908
 30
0.0
  0
POINT
  5
3B7
330
18
100
AcDbEntity
  8
0
100
AcDbPoint
 10
6.987373
 20
3.008138
 30
0.0
  0
POINT
  5
3B8
330
18
100
AcDbEntity
  8
0
100
AcDbPoint
 10
7.031596
 20
3.020298
 30
0.0
  0
POINT
  5
3B9
330
18
100
AcDbEntity
  8
0
100
AcDbPoint
 10
7.185573
 20
3.07337
 30
0.0
  0
POINT
  5
3BA
330
18
100
AcDbEntity
  8
0
100
AcDbPoint
 10
7.286158
 20
3.052468
 30
0.0
  0
POINT
  5
3BB
330
18
100
AcDbEntity
  8
0
100
AcDbPoint
 10
7.235777000000001
 20
2.662495
 30
0.0
  0
POINT
  5
3BC
330
18
100
AcDbEntity
  8
0
100
AcDbPoint
 10
7.261649
 20
2.656006
 30
0.0
  0
POINT
  5
3BD
330
18
100
AcDbEntity
  8
0
100
AcDbPoint
 10
7.492397
 20
2.961576
 30
0.0
  0
POINT
  5
3BE
330
18
100
AcDbEntity
  8
0
100
AcDbPoint
 10
7.520552
 20
2.970041
 30
0.0
  0
POINT
  5
3BF
330
18
100
AcDbEntity
  8
0
100
AcDbPoint
 10
7.466918
 20
3.410975
 30
0.0
  0
POINT
  5
3C0
330
18
100
AcDbEntity
  8
0
100
AcDbPoint
 10
7.145778932148599
 20
3.618902206850838
 30
0.0
  0
POINT
  5
3C1
330
18
100
AcDbEntity
  8
0
100
AcDbPoint
 10
7.2134249321486
 20
3.653613206850838
 30
0.0
  0
POINT
  5
3C2
330
18
100
AcDbEntity
  8
0
100
AcDbPoint
 10
7.1270819321486
 20
3.740233206850838
 30
0.0
  0
POINT
  5
3C3
330
18
100
AcDbEntity
  8
0
100
AcDbPoint
 10
7.1414949321486
 20
3.814946206850837
 30
0.0
  0
POINT
  5
3C4
330
18
100
AcDbEntity
  8
0
100
AcDbPoint
 10
7.1511199321486
 20
3.900748206850838
 30
0.0
  0
POINT
  5
3C5
330
18
100
AcDbEntity
  8
0
100
AcDbPoint
 10
7.0653029321486
 20
3.962363206850838
 30
0.0
  0
POINT
  5
3C6
330
18
100
AcDbEntity
  8
0
100
AcDbPoint
 10
7.041576932148599
 20
3.923819206850838
 30
0.0
  0
POINT
  5
3C7
330
18
100
AcDbEntity
  8
0
100
AcDbPoint
 10
7.015582932148599
 20
3.818332206850837
 30
0.0
  0
POINT
  5
3C8
330
18
100
AcDbEntity
  8
0
100
AcDbPoint
 10
6.976162932148599
 20
3.954054206850838
 30
0.0
  0
POINT
  5
3C9
330
18
100
AcDbEntity
  8
0
100
AcDbPoint
 10
6.9081849321486
 20
4.007332206850837
 30
0.0
  0
POINT
  5
3CA
330
18
100
AcDbEntity
  8
0
100
AcDbPoint
 10
7.041793932148599
 20
4.040794206850838
 30
0.0
  0
POINT
  5
3CB
330
18
100
AcDbEntity
  8
0
100
AcDbPoint
 10
7.095332932148599
 20
4.069774206850838
 30
0.0
  0
POINT
  5
3CC
330
18
100
AcDbEntity
  8
0
100
AcDbPoint
 10
7.185003932148599
 20
4.106067206850837
 30
0.0
  0
POINT
  5
3CD
330
18
100
AcDbEntity
  8
0
100
AcDbPoint
 10
6.932518932148599
 20
4.341808206850837
 30
0.0
  0
POINT
  5
3CE
330
18
100
AcDbEntity
  8
0
100
AcDbPoint
 10
6.903273932148599
 20
4.381355206850838
 30
0.0
  0
POINT
  5
3CF
330
18
100
AcDbEntity
  8
0
100
AcDbPoint
 10
6.8682779321486
 20
4.434008206850837
 30
0.0
  0
POINT
  5
3D0
330
18
100
AcDbEntity
  8
0
100
AcDbPoint
 10
6.8424569321486
 20
3.651644206850838
 30
0.0
  0
POINT
  5
3D1
330
18
100
AcDbEntity
  8
0
100
AcDbPoint
 10
7.225599000000001
 20
3.444542
 30
0.0
  0
POINT
  5
3D2
330
18
100
AcDbEntity
  8
0
100
AcDbPoint
 10
7.302947000000001
 20
3.358092
 30
0.0
  0
POINT
  5
3D3
330
18
100
AcDbEntity
  8
0
100
AcDbPoint
 10
7.693756
 20
3.404678
 30
0.0
  0
POINT
  5
3D4
330
18
100
AcDbEntity
  8
0
100
AcDbPoint
 10
7.859083
 20
3.423541
 30
0.0
  0
POINT
  5
3D5
330
18
100
AcDbEntity
  8
0
100
AcDbPoint
 10
7.890217999999999
 20
3.43095
 30
0.0
  0
POINT
  5
3D6
330
18
100
AcDbEntity
  8
0
100
AcDbPoint
 10
7.9374
 20
3.441054
 30
0.0
  0
POINT
  5
3D7
330
18
100
AcDbEntity
  8
0
100
AcDbPoint
 10
7.943355
 20
3.385951
 30
0.0
  0
POINT
  5
3D8
330
18
100
AcDbEntity
  8
0
100
AcDbPoint
 10
7.909506
 20
3.393591
 30
0.0
  0
POINT
  5
3D9
330
18
100
AcDbEntity
  8
0
100
AcDbPoint
 10
7.892738000000001
 20
3.352916000000001
 30
0.0
  0
POINT
  5
3DA
330
18
100
AcDbEntity
  8
0
100
AcDbPoint
 10
7.84442
 20
3.282845
 30
0.0
  0
POINT
  5
3DB
330
18
100
AcDbEntity
  8
0
100
AcDbPoint
 10
7.860672
 20
3.243544
 30
0.0
  0
POINT
  5
3DC
330
18
100
AcDbEntity
  8
0
100
AcDbPoint
 10
7.803153999999999
 20
3.21564
 30
0.0
  0
POINT
  5
3DD
330
18
100
AcDbEntity
  8
0
100
AcDbPoint
 10
7.773939932148599
 20
4.002926206850837
 30
0.0
  0
POINT
  5
3DE
330
18
100
AcDbEntity
  8
0
100
AcDbPoint
 10
7.7647449321486
 20
4.098082206850838
 30
0.0
  0
POINT
  5
3DF
330
18
100
AcDbEntity
  8
0
100
AcDbPoint
 10
7.891008932148599
 20
4.007706206850838
 30
0.0
  0
POINT
  5
3E0
330
18
100
AcDbEntity
  8
0
100
AcDbPoint
 10
7.8872249321486
 20
3.860805206850838
 30
0.0
  0
POINT
  5
3E1
330
18
100
AcDbEntity
  8
0
100
AcDbPoint
 10
8.203066
 20
3.426022
 30
0.0
  0
POINT
  5
3E2
330
18
100
AcDbEntity
  8
0
100
AcDbPoint
 10
8.119549000000001
 20
3.239639
 30
0.0
  0
POINT
  5
3E3
330
18
100
AcDbEntity
  8
0
100
AcDbPoint
 10
8.045589999999999
 20
3.241041
 30
0.0
  0
POINT
  5
3E4
330
18
100
AcDbEntity
  8
0
100
AcDbPoint
 10
8.046202000000001
 20
3.115053
 30
0.0
  0
POINT
  5
3E5
330
18
100
AcDbEntity
  8
0
100
AcDbPoint
 10
8.105033000000001
 20
3.053949
 30
0.0
  0
POINT
  5
3E6
330
18
100
AcDbEntity
  8
0
100
AcDbPoint
 10
8.038803999999999
 20
3.041206
 30
0.0
  0
POINT
  5
3E7
330
18
100
AcDbEntity
  8
0
100
AcDbPoint
 10
7.927883000000001
 20
3.044308
 30
0.0
  0
POINT
  5
3E8
330
18
100
AcDbEntity
  8
0
100
AcDbPoint
 10
7.907336999999999
 20
2.909722
 30
0.0
  0
POINT
  5
3E9
330
18
100
AcDbEntity
  8
0
100
AcDbPoint
 10
7.868453
 20
2.915458
 30
0.0
  0
POINT
  5
3EA
330
18
100
AcDbEntity
  8
0
100
AcDbPoint
 10
7.785816000000001
 20
2.881031
 30
0.0
  0
POINT
  5
3EB
330
18
100
AcDbEntity
  8
0
100
AcDbPoint
 10
7.704992
 20
2.889561
 30
0.0
  0
POINT
  5
3EC
330
18
100
AcDbEntity
  8
0
100
AcDbPoint
 10
7.445950999999999
 20
2.7265
 30
0.0
  0
POINT
  5
3ED
330
18
100
AcDbEntity
  8
0
100
AcDbPoint
 10
7.449058
 20
2.67945
 30
0.0
  0
POINT
  5
3EE
330
18
100
AcDbEntity
  8
0
100
AcDbPoint
 10
7.4997
 20
2.555514
 30
0.0
  0
POINT
  5
3EF
330
18
100
AcDbEntity
  8
0
100
AcDbPoint
 10
7.570564999999999
 20
2.760132
 30
0.0
  0
POINT
  5
3F0
330
18
100
AcDbEntity
  8
0
100
AcDbPoint
 10
7.678657
 20
2.766083
 30
0.0
  0
POINT
  5
3F1
330
18
100
AcDbEntity
  8
0
100
AcDbPoint
 10
7.720933000000001
 20
2.728289
 30
0.0
  0
POINT
  5
3F2
330
18
100
AcDbEntity
  8
0
100
AcDbPoint
 10
7.579949000000001
 20
2.67497
 30
0.0
  0
POINT
  5
3F3
330
18
100
AcDbEntity
  8
0
100
AcDbPoint
 10
7.626635
 20
2.606099
 30
0.0
  0
POINT
  5
3F4
330
18
100
AcDbEntity
  8
0
100
AcDbPoint
 10
7.669816
 20
2.563288
 30
0.0
  0
POINT
  5
3F5
330
18
100
AcDbEntity
  8
0
100
AcDbPoint
 10
7.652139
 20
2.47464
 30
0.0
  0
POINT
  5
3F6
330
18
100
AcDbEntity
  8
0
100
AcDbPoint
 10
7.831231
 20
2.481245
 30
0.0
  0
POINT
  5
3F7
330
18
100
AcDbEntity
  8
0
100
AcDbPoint
 10
7.93221
 20
2.428341
 30
0.0
  0
POINT
  5
3F8
330
18
100
AcDbEntity
  8
0
100
AcDbPoint
 10
7.957646
 20
2.398864
 30
0.0
  0
POINT
  5
3F9
330
18
100
AcDbEntity
  8
0
100
AcDbPoint
 10
7.998424000000001
 20
2.493074
 30
0.0
  0
POINT
  5
3FA
330
18
100
AcDbEntity
  8
0
100
AcDbPoint
 10
8.066019000000001
 20
2.366817
 30
0.0
  0
POINT
  5
3FB
330
18
100
AcDbEntity
  8
0
100
AcDbPoint
 10
8.134900999999999
 20
2.308522
 30
0.0
  0
POINT
  5
3FC
330
18
100
AcDbEntity
  8
0
100
AcDbPoint
 10
8.211211000000001
 20
2.220092
 30
0.0
  0
POINT
  5
3FD
330
18
100
AcDbEntity
  8
0
100
AcDbPoint
 10
8.197488
 20
2.28734
 30
0.0
  0
POINT
  5
3FE
330
18
100
AcDbEntity
  8
0
100
AcDbPoint
 10
8.164358999999999
 20
2.332959
 30
0.0
  0
POINT
  5
3FF
330
18
100
AcDbEntity
  8
0
100
AcDbPoint
 10
8.11782
 20
2.356837
 30
0.0
  0
POINT
  5
400
330
18
100
AcDbEntity
  8
0
100
AcDbPoint
 10
8.169474000000001
 20
2.391851
 30
0.0
  0
POINT
  5
401
330
18
100
AcDbEntity
  8
0
100
AcDbPoint
 10
8.21228
 20
2.382042
 30
0.0
  0
POINT
  5
402
330
18
100
AcDbEntity
  8
0
100
AcDbPoint
 10
8.201949000000001
 20
2.417231
 30
0.0
  0
POINT
  5
403
330
18
100
AcDbEntity
  8
0
100
AcDbPoint
 10
8.239118
 20
2.426525
 30
0.0
  0
POINT
  5
404
330
18
100
AcDbEntity
  8
0
100
AcDbPoint
 10
8.193899999999999
 20
2.467374
 30
0.0
  0
POINT
  5
405
330
18
100
AcDbEntity
  8
0
100
AcDbPoint
 10
8.222434
 20
2.495828
 30
0.0
  0
POINT
  5
406
330
18
100
AcDbEntity
  8
0
100
AcDbPoint
 10
8.113414000000001
 20
2.440905
 30
0.0
  0
POINT
  5
407
330
18
100
AcDbEntity
  8
0
100
AcDbPoint
 10
8.112005999999999
 20
2.524916
 30
0.0
  0
POINT
  5
408
330
18
100
AcDbEntity
  8
0
100
AcDbPoint
 10
8.145087
 20
2.582278
 30
0.0
  0
POINT
  5
409
330
18
100
AcDbEntity
  8
0
100
AcDbPoint
 10
8.170206
 20
2.588801
 30
0.0
  0
POINT
  5
40A
330
18
100
AcDbEntity
  8
0
100
AcDbPoint
 10
8.076541000000001
 20
2.605573
 30
0.0
  0
POINT
  5
40B
330
18
100
AcDbEntity
  8
0
100
AcDbPoint
 10
8.034962
 20
2.627356
 30
0.0
  0
POINT
  5
40C
330
18
100
AcDbEntity
  8
0
100
AcDbPoint
 10
8.245094
 20
2.636373
 30
0.0
  0
POINT
  5
40D
330
18
100
AcDbEntity
  8
0
100
AcDbPoint
 10
8.176267999999999
 20
2.697666
 30
0.0
  0
POINT
  5
40E
330
18
100
AcDbEntity
  8
0
100
AcDbPoint
 10
8.235202000000001
 20
2.747539
 30
0.0
  0
POINT
  5
40F
330
18
100
AcDbEntity
  8
0
100
AcDbPoint
 10
8.183996000000001
 20
2.894482
 30
0.0
  0
POINT
  5
410
330
18
100
AcDbEntity
  8
0
100
AcDbPoint
 10
7.998075
 20
2.844015
 30
0.0
  0
POINT
  5
411
330
18
100
AcDbEntity
  8
0
100
AcDbPoint
 10
7.956614999999999
 20
2.713825
 30
0.0
  0
POINT
  5
412
330
18
100
AcDbEntity
  8
0
100
AcDbPoint
 10
7.909411
 20
2.913682
 30
0.0
  0
POINT
  5
413
330
18
100
AcDbEntity
  8
0
100
AcDbPoint
 10
7.828595
 20
2.764242
 30
0.0
  0
POINT
  5
414
330
18
100
AcDbEntity
  8
0
100
AcDbPoint
 10
7.757039999999999
 20
2.892574
 30
0.0
  0
POINT
  5
415
330
18
100
AcDbEntity
  8
0
100
AcDbPoint
 10
7.729415
 20
2.912094
 30
0.0
  0
LWPOLYLINE
  5
416
330
18
100
AcDbEntity
  8
0
100
AcDbPolyline
 90
        4
 70
     1
 43
0.0
 10
7.785966999999999
 20
3.363938
 10
7.828982000000001
 20
3.365122
 10
7.812444999999999
 20
3.389431
 10
7.787592
 20
3.396901
  0
LWPOLYLINE
  5
41D
330
18
100
AcDbEntity
  8
0
100
AcDbPolyline
 90
        5
 70
     1
 43
0.0
 10
8.003378999999999
 20
2.912902
 10
8.010939000000001
 20
2.889763
 10
8.047203999999999
 20
2.904073
 10
8.042869
 20
2.939148
 10
8.012980000000001
 20
2.944714
  0
LWPOLYLINE
  5
425
330
18
100
AcDbEntity
  8
0
100
AcDbPolyline
 90
        6
 70
     1
 43
0.0
 10
7.854507000000001
 20
2.548791
 10
7.871175999999999
 20
2.531478
 10
7.894333000000001
 20
2.540038
 10
7.900652
 20
2.556915
 10
7.887171
 20
2.584165
 10
7.863014
 20
2.575625
  0
LWPOLYLINE
  5
42E
330
18
100
AcDbEntity
  8
0
100
AcDbPolyline
 90
        5
 70
     1
 43
0.0
 10
6.499423
 20
3.375317
 10
6.526143
 20
3.360813
 10
6.534271
 20
3.367658
 10
6.532954
 20
3.403676
 10
6.503046
 20
3.408242
  0
LWPOLYLINE
  5
436
330
18
100
AcDbEntity
  8
0
100
AcDbPolyline
 90
        6
 70
     1
 43
0.0
 10
6.150016
 20
3.455923
 10
6.16199
 20
3.454697
 10
6.181188
 20
3.465331
 10
6.179341
 20
3.473364
 10
6.150641
 20
3.488905
 10
6.142266
 20
3.469068
  0
LWPOLYLINE
  5
43F
330
18
100
AcDbEntity
  8
0
100
AcDbPolyline
 90
        4
 70
     1
 43
0.0
 10
6.441459
 20
3.429405000000001
 10
6.449942
 20
3.402249
 10
6.471196
 20
3.415844
 10
6.466578
 20
3.435928
  0
LWPOLYLINE
  5
446
330
18
100
AcDbEntity
  8
0
100
AcDbPolyline
 90
        6
 70
     1
 43
0.0
 10
6.422175932148599
 20
3.896563206850838
 10
6.419476932148599
 20
3.859621206850837
 10
6.434392932148599
 20
3.855339206850837
 10
6.4567029321486
 20
3.871913206850838
 10
6.4470869321486
 20
3.892091206850838
 10
6.4373389321486
 20
3.905274206850838
  0
LWPOLYLINE
  5
44F
330
18
100
AcDbEntity
  8
0
100
AcDbPolyline
 90
        5
 70
     1
 43
0.0
 10
6.440096932148599
 20
3.734253206850837
 10
6.4261809321486
 20
3.738516206850838
 10
6.4198999321486
 20
3.723638206850838
 10
6.4285919321486
 20
3.707476206850838
 10
6.454747932148599
 20
3.715979206850837
  0
LWPOLYLINE
  5
457
330
18
100
AcDbEntity
  8
0
100
AcDbPolyline
 90
        3
 70
     1
 43
0.0
 10
6.514132932148599
 20
3.736850206850837
 10
6.5437749321486
 20
3.718292206850837
 10
6.5351589321486
 20
3.738451206850838
  0
LWPOLYLINE
  5
45D
330
18
100
AcDbEntity
  8
0
100
AcDbPolyline
 90
        4
 70
     1
 43
0.0
 10
6.8722279321486
 20
4.062003206850838
 10
6.853612932148599
 20
4.029362206850838
 10
6.8624369321486
 20
4.020196206850837
 10
6.877504932148599
 20
4.023910206850838
  0
LWPOLYLINE
  5
464
330
18
100
AcDbEntity
  8
0
100
AcDbPolyline
 90
        5
 70
     1
 43
0.0
 10
6.9894899321486
 20
4.129768206850837
 10
6.990996932148598
 20
4.103744206850838
 10
6.9947479321486
 20
4.090676206850837
 10
7.0057419321486
 20
4.090467206850837
 10
7.011193932148599
 20
4.114360206850837
  0
CIRCLE
  5
46C
330
18
100
AcDbEntity
  8
0
100
AcDbCircle
 10
7.0255119321486
 20
4.184075206850838
 30
0.0
 40
0.008941
  0
CIRCLE
  5
46D
330
18
100
AcDbEntity
  8
0
100
AcDbCircle
 10
7.0021959321486
 20
4.272701206850837
 30
0.0
 40
0.006655
  0
POINT
  5
46E
330
18
100
AcDbEntity
  8
0
100
AcDbPoint
 10
8.17901765736069
 20
5.548188966776954
 30
0.0
  0
POINT
  5
46F
330
18
100
AcDbEntity
  8
0
100
AcDbPoint
 10
8.26348965736069
 20
5.415612966776954
 30
0.0
  0
POINT
  5
470
330
18
100
AcDbEntity
  8
0
100
AcDbPoint
 10
8.15430665736069
 20
5.457673966776954
 30
0.0
  0
POINT
  5
471
330
18
100
AcDbEntity
  8
0
100
AcDbPoint
 10
8.06738765736069
 20
5.408329966776954
 30
0.0
  0
POINT
  5
472
330
18
100
AcDbEntity
  8
0
100
AcDbPoint
 10
9.96520866299999
 20
4.671530061336772
 30
0.0
  0
POINT
  5
473
330
18
100
AcDbEntity
  8
0
100
AcDbPoint
 10
9.078322999999999
 20
4.345263
 30
0.0
  0
POINT
  5
474
330
18
100
AcDbEntity
  8
0
100
AcDbPoint
 10
9.124369999999999
 20
4.2954
 30
0.0
  0
POINT
  5
475
330
18
100
AcDbEntity
  8
0
100
AcDbPoint
 10
8.18941365736069
 20
5.147065966776954
 30
0.0
  0
POINT
  5
476
330
18
100
AcDbEntity
  8
0
100
AcDbPoint
 10
9.071835999999999
 20
4.108431
 30
0.0
  0
POINT
  5
477
330
18
100
AcDbEntity
  8
0
100
AcDbPoint
 10
9.067849000000001
 20
4.003526
 30
0.0
  0
POINT
  5
478
330
18
100
AcDbEntity
  8
0
100
AcDbPoint
 10
9.018610000000001
 20
3.990461
 30
0.0
  0
POINT
  5
479
330
18
100
AcDbEntity
  8
0
100
AcDbPoint
 10
8.957360000000001
 20
3.976625
 30
0.0
  0
POINT
  5
47A
330
18
100
AcDbEntity
  8
0
100
AcDbPoint
 10
8.922818
 20
4.053265000000001
 30
0.0
  0
POINT
  5
47B
330
18
100
AcDbEntity
  8
0
100
AcDbPoint
 10
8.720825999999999
 20
3.946113
 30
0.0
  0
POINT
  5
47C
330
18
100
AcDbEntity
  8
0
100
AcDbPoint
 10
8.406352999999999
 20
3.918078
 30
0.0
  0
POINT
  5
47D
330
18
100
AcDbEntity
  8
0
100
AcDbPoint
 10
8.35225
 20
3.912104
 30
0.0
  0
POINT
  5
47E
330
18
100
AcDbEntity
  8
0
100
AcDbPoint
 10
8.39166
 20
3.881363
 30
0.0
  0
POINT
  5
47F
330
18
100
AcDbEntity
  8
0
100
AcDbPoint
 10
8.442310000000001
 20
3.863406
 30
0.0
  0
POINT
  5
480
330
18
100
AcDbEntity
  8
0
100
AcDbPoint
 10
8.34506
 20
3.849252
 30
0.0
  0
POINT
  5
481
330
18
100
AcDbEntity
  8
0
100
AcDbPoint
 10
8.340812
 20
3.783345
 30
0.0
  0
POINT
  5
482
330
18
100
AcDbEntity
  8
0
100
AcDbPoint
 10
8.37898
 20
3.79262
 30
0.0
  0
POINT
  5
483
330
18
100
AcDbEntity
  8
0
100
AcDbPoint
 10
8.423142
 20
3.748791
 30
0.0
  0
POINT
  5
484
330
18
100
AcDbEntity
  8
0
100
AcDbPoint
 10
8.451917999999999
 20
3.737248
 30
0.0
  0
POINT
  5
485
330
18
100
AcDbEntity
  8
0
100
AcDbPoint
 10
8.336938
 20
3.684437
 30
0.0
  0
POINT
  5
486
330
18
100
AcDbEntity
  8
0
100
AcDbPoint
 10
8.355791
 20
3.624091
 30
0.0
  0
POINT
  5
487
330
18
100
AcDbEntity
  8
0
100
AcDbPoint
 10
8.348208
 20
3.59324
 30
0.0
  0
POINT
  5
488
330
18
100
AcDbEntity
  8
0
100
AcDbPoint
 10
8.360783999999999
 20
3.571006
 30
0.0
  0
POINT
  5
489
330
18
100
AcDbEntity
  8
0
100
AcDbPoint
 10
8.332941999999999
 20
3.473552
 30
0.0
  0
POINT
  5
48A
330
18
100
AcDbEntity
  8
0
100
AcDbPoint
 10
8.377112
 20
3.535703
 30
0.0
  0
POINT
  5
48B
330
18
100
AcDbEntity
  8
0
100
AcDbPoint
 10
8.421917000000001
 20
3.525856
 30
0.0
  0
POINT
  5
48C
330
18
100
AcDbEntity
  8
0
100
AcDbPoint
 10
8.460124
 20
3.53713
 30
0.0
  0
POINT
  5
48D
330
18
100
AcDbEntity
  8
0
100
AcDbPoint
 10
8.434085000000001
 20
3.587614
 30
0.0
  0
POINT
  5
48E
330
18
100
AcDbEntity
  8
0
100
AcDbPoint
 10
8.481755999999999
 20
3.570713
 30
0.0
  0
POINT
  5
48F
330
18
100
AcDbEntity
  8
0
100
AcDbPoint
 10
8.509650000000001
 20
3.618176
 30
0.0
  0
POINT
  5
490
330
18
100
AcDbEntity
  8
0
100
AcDbPoint
 10
8.518758999999999
 20
3.624002
 30
0.0
  0
POINT
  5
491
330
18
100
AcDbEntity
  8
0
100
AcDbPoint
 10
8.578617
 20
3.669859
 30
0.0
  0
POINT
  5
492
330
18
100
AcDbEntity
  8
0
100
AcDbPoint
 10
8.609169
 20
3.699275
 30
0.0
  0
POINT
  5
493
330
18
100
AcDbEntity
  8
0
100
AcDbPoint
 10
8.667255000000001
 20
3.757163
 30
0.0
  0
POINT
  5
494
330
18
100
AcDbEntity
  8
0
100
AcDbPoint
 10
8.666558
 20
3.773173
 30
0.0
  0
POINT
  5
495
330
18
100
AcDbEntity
  8
0
100
AcDbPoint
 10
8.599159
 20
3.751455
 30
0.0
  0
POINT
  5
496
330
18
100
AcDbEntity
  8
0
100
AcDbPoint
 10
8.510185
 20
3.699151
 30
0.0
  0
POINT
  5
497
330
18
100
AcDbEntity
  8
0
100
AcDbPoint
 10
8.922203999999999
 20
3.440391
 30
0.0
  0
POINT
  5
498
330
18
100
AcDbEntity
  8
0
100
AcDbPoint
 10
9.033045
 20
3.380302
 30
0.0
  0
POINT
  5
499
330
18
100
AcDbEntity
  8
0
100
AcDbPoint
 10
9.04617
 20
3.387052
 30
0.0
  0
POINT
  5
49A
330
18
100
AcDbEntity
  8
0
100
AcDbPoint
 10
9.076291000000001
 20
3.44647
 30
0.0
  0
POINT
  5
49B
330
18
100
AcDbEntity
  8
0
100
AcDbPoint
 10
9.065963999999999
 20
3.534649
 30
0.0
  0
POINT
  5
49C
330
18
100
AcDbEntity
  8
0
100
AcDbPoint
 10
8.989654
 20
3.623079
 30
0.0
  0
POINT
  5
49D
330
18
100
AcDbEntity
  8
0
100
AcDbPoint
 10
9.058472999999999
 20
3.719756
 30
0.0
  0
POINT
  5
49E
330
18
100
AcDbEntity
  8
0
100
AcDbPoint
 10
9.146239999999999
 20
3.761085
 30
0.0
  0
POINT
  5
49F
330
18
100
AcDbEntity
  8
0
100
AcDbPoint
 10
9.212593
 20
3.674844
 30
0.0
  0
POINT
  5
4A0
330
18
100
AcDbEntity
  8
0
100
AcDbPoint
 10
9.179864
 20
3.530491000000001
 30
0.0
  0
POINT
  5
4A1
330
18
100
AcDbEntity
  8
0
100
AcDbPoint
 10
9.262525999999999
 20
3.882859
 30
0.0
  0
POINT
  5
4A2
330
18
100
AcDbEntity
  8
0
100
AcDbPoint
 10
9.129116
 20
3.2795
 30
0.0
  0
POINT
  5
4A3
330
18
100
AcDbEntity
  8
0
100
AcDbPoint
 10
9.066013999999999
 20
3.220706
 30
0.0
  0
POINT
  5
4A4
330
18
100
AcDbEntity
  8
0
100
AcDbPoint
 10
9.023038
 20
3.221521
 30
0.0
  0
POINT
  5
4A5
330
18
100
AcDbEntity
  8
0
100
AcDbPoint
 10
8.996261000000001
 20
3.233026
 30
0.0
  0
POINT
  5
4A6
330
18
100
AcDbEntity
  8
0
100
AcDbPoint
 10
8.961015
 20
3.219697
 30
0.0
  0
POINT
  5
4A7
330
18
100
AcDbEntity
  8
0
100
AcDbPoint
 10
8.951338
 20
3.183887
 30
0.0
  0
POINT
  5
4A8
330
18
100
AcDbEntity
  8
0
100
AcDbPoint
 10
9.050661999999999
 20
3.202001
 30
0.0
  0
POINT
  5
4A9
330
18
100
AcDbEntity
  8
0
100
AcDbPoint
 10
9.052847
 20
3.158968
 30
0.0
  0
POINT
  5
4AA
330
18
100
AcDbEntity
  8
0
100
AcDbPoint
 10
9.08202
 20
3.168413
 30
0.0
  0
POINT
  5
4AB
330
18
100
AcDbEntity
  8
0
100
AcDbPoint
 10
8.945805999999999
 20
3.103006
 30
0.0
  0
POINT
  5
4AC
330
18
100
AcDbEntity
  8
0
100
AcDbPoint
 10
8.834242
 20
3.072126
 30
0.0
  0
POINT
  5
4AD
330
18
100
AcDbEntity
  8
0
100
AcDbPoint
 10
8.815175999999999
 20
3.068488
 30
0.0
  0
POINT
  5
4AE
330
18
100
AcDbEntity
  8
0
100
AcDbPoint
 10
8.795216999999999
 20
2.964886
 30
0.0
  0
POINT
  5
4AF
330
18
100
AcDbEntity
  8
0
100
AcDbPoint
 10
8.793516
 20
2.927925
 30
0.0
  0
POINT
  5
4B0
330
18
100
AcDbEntity
  8
0
100
AcDbPoint
 10
8.854948
 20
2.845776
 30
0.0
  0
POINT
  5
4B1
330
18
100
AcDbEntity
  8
0
100
AcDbPoint
 10
8.890117999999999
 20
2.855108
 30
0.0
  0
POINT
  5
4B2
330
18
100
AcDbEntity
  8
0
100
AcDbPoint
 10
8.901624
 20
2.881885
 30
0.0
  0
POINT
  5
4B3
330
18
100
AcDbEntity
  8
0
100
AcDbPoint
 10
8.741847999999999
 20
2.944901
 30
0.0
  0
POINT
  5
4B4
330
18
100
AcDbEntity
  8
0
100
AcDbPoint
 10
8.732432000000001
 20
2.870094
 30
0.0
  0
POINT
  5
4B5
330
18
100
AcDbEntity
  8
0
100
AcDbPoint
 10
8.719114999999999
 20
3.06431
 30
0.0
  0
POINT
  5
4B6
330
18
100
AcDbEntity
  8
0
100
AcDbPoint
 10
8.752423
 20
3.133666
 30
0.0
  0
POINT
  5
4B7
330
18
100
AcDbEntity
  8
0
100
AcDbPoint
 10
8.804138
 20
3.224669
 30
0.0
  0
POINT
  5
4B8
330
18
100
AcDbEntity
  8
0
100
AcDbPoint
 10
8.663300999999999
 20
3.126356
 30
0.0
  0
POINT
  5
4B9
330
18
100
AcDbEntity
  8
0
100
AcDbPoint
 10
8.568163999999999
 20
3.11816
 30
0.0
  0
POINT
  5
4BA
330
18
100
AcDbEntity
  8
0
100
AcDbPoint
 10
8.592919
 20
3.052703
 30
0.0
  0
POINT
  5
4BB
330
18
100
AcDbEntity
  8
0
100
AcDbPoint
 10
8.527650999999999
 20
3.037943
 30
0.0
  0
POINT
  5
4BC
330
18
100
AcDbEntity
  8
0
100
AcDbPoint
 10
8.539564
 20
2.980728
 30
0.0
  0
POINT
  5
4BD
330
18
100
AcDbEntity
  8
0
100
AcDbPoint
 10
8.566106
 20
2.851249
 30
0.0
  0
POINT
  5
4BE
330
18
100
AcDbEntity
  8
0
100
AcDbPoint
 10
8.534464
 20
2.869845
 30
0.0
  0
POINT
  5
4BF
330
18
100
AcDbEntity
  8
0
100
AcDbPoint
 10
8.486082000000002
 20
2.954746
 30
0.0
  0
POINT
  5
4C0
330
18
100
AcDbEntity
  8
0
100
AcDbPoint
 10
8.457965
 20
2.94828
 30
0.0
  0
POINT
  5
4C1
330
18
100
AcDbEntity
  8
0
100
AcDbPoint
 10
8.424869000000001
 20
2.942909
 30
0.0
  0
POINT
  5
4C2
330
18
100
AcDbEntity
  8
0
100
AcDbPoint
 10
8.357399000000001
 20
2.970182
 30
0.0
  0
POINT
  5
4C3
330
18
100
AcDbEntity
  8
0
100
AcDbPoint
 10
8.322341999999999
 20
2.966847
 30
0.0
  0
POINT
  5
4C4
330
18
100
AcDbEntity
  8
0
100
AcDbPoint
 10
8.317216
 20
3.012936
 30
0.0
  0
POINT
  5
4C5
330
18
100
AcDbEntity
  8
0
100
AcDbPoint
 10
8.330705999999999
 20
3.091665
 30
0.0
  0
POINT
  5
4C6
330
18
100
AcDbEntity
  8
0
100
AcDbPoint
 10
8.354578999999999
 20
3.085214
 30
0.0
  0
POINT
  5
4C7
330
18
100
AcDbEntity
  8
0
100
AcDbPoint
 10
8.356902
 20
2.891206
 30
0.0
  0
POINT
  5
4C8
330
18
100
AcDbEntity
  8
0
100
AcDbPoint
 10
8.372685000000001
 20
2.879909
 30
0.0
  0
POINT
  5
4C9
330
18
100
AcDbEntity
  8
0
100
AcDbPoint
 10
8.425410000000001
 20
2.865913
 30
0.0
  0
POINT
  5
4CA
330
18
100
AcDbEntity
  8
0
100
AcDbPoint
 10
8.411773
 20
2.832177
 30
0.0
  0
POINT
  5
4CB
330
18
100
AcDbEntity
  8
0
100
AcDbPoint
 10
8.385465
 20
2.815679
 30
0.0
  0
POINT
  5
4CC
330
18
100
AcDbEntity
  8
0
100
AcDbPoint
 10
8.376281000000001
 20
2.805855
 30
0.0
  0
POINT
  5
4CD
330
18
100
AcDbEntity
  8
0
100
AcDbPoint
 10
8.35075
 20
2.830334
 30
0.0
  0
POINT
  5
4CE
330
18
100
AcDbEntity
  8
0
100
AcDbPoint
 10
8.329775999999999
 20
2.778741
 30
0.0
  0
POINT
  5
4CF
330
18
100
AcDbEntity
  8
0
100
AcDbPoint
 10
8.35642
 20
2.76024
 30
0.0
  0
POINT
  5
4D0
330
18
100
AcDbEntity
  8
0
100
AcDbPoint
 10
8.335015
 20
2.738649
 30
0.0
  0
POINT
  5
4D1
330
18
100
AcDbEntity
  8
0
100
AcDbPoint
 10
8.355473
 20
2.710267
 30
0.0
  0
POINT
  5
4D2
330
18
100
AcDbEntity
  8
0
100
AcDbPoint
 10
8.354972999999999
 20
2.578301
 30
0.0
  0
POINT
  5
4D3
330
18
100
AcDbEntity
  8
0
100
AcDbPoint
 10
8.351386999999999
 20
2.547375
 30
0.0
  0
POINT
  5
4D4
330
18
100
AcDbEntity
  8
0
100
AcDbPoint
 10
8.353401
 20
2.495346
 30
0.0
  0
POINT
  5
4D5
330
18
100
AcDbEntity
  8
0
100
AcDbPoint
 10
8.362017
 20
2.475187
 30
0.0
  0
POINT
  5
4D6
330
18
100
AcDbEntity
  8
0
100
AcDbPoint
 10
8.379078999999999
 20
2.425873
 30
0.0
  0
POINT
  5
4D7
330
18
100
AcDbEntity
  8
0
100
AcDbPoint
 10
8.45213
 20
2.376498
 30
0.0
  0
POINT
  5
4D8
330
18
100
AcDbEntity
  8
0
100
AcDbPoint
 10
8.484249
 20
2.435878
 30
0.0
  0
POINT
  5
4D9
330
18
100
AcDbEntity
  8
0
100
AcDbPoint
 10
8.492210999999999
 20
2.486717
 30
0.0
  0
POINT
  5
4DA
330
18
100
AcDbEntity
  8
0
100
AcDbPoint
 10
8.593175000000001
 20
2.485804
 30
0.0
  0
POINT
  5
4DB
330
18
100
AcDbEntity
  8
0
100
AcDbPoint
 10
8.603629
 20
2.562592
 30
0.0
  0
POINT
  5
4DC
330
18
100
AcDbEntity
  8
0
100
AcDbPoint
 10
8.543674000000001
 20
2.722698
 30
0.0
  0
POINT
  5
4DD
330
18
100
AcDbEntity
  8
0
100
AcDbPoint
 10
8.493283999999999
 20
2.701657
 30
0.0
  0
POINT
  5
4DE
330
18
100
AcDbEntity
  8
0
100
AcDbPoint
 10
8.527161
 20
2.800997
 30
0.0
  0
POINT
  5
4DF
330
18
100
AcDbEntity
  8
0
100
AcDbPoint
 10
8.433483000000001
 20
3.13371
 30
0.0
  0
POINT
  5
4E0
330
18
100
AcDbEntity
  8
0
100
AcDbPoint
 10
8.467275000000001
 20
3.123071
 30
0.0
  0
POINT
  5
4E1
330
18
100
AcDbEntity
  8
0
100
AcDbPoint
 10
8.422005
 20
3.213912
 30
0.0
  0
POINT
  5
4E2
330
18
100
AcDbEntity
  8
0
100
AcDbPoint
 10
8.485500999999999
 20
3.240704
 30
0.0
  0
POINT
  5
4E3
330
18
100
AcDbEntity
  8
0
100
AcDbPoint
 10
8.406185000000001
 20
3.22321
 30
0.0
  0
POINT
  5
4E4
330
18
100
AcDbEntity
  8
0
100
AcDbPoint
 10
8.353330999999999
 20
3.283201
 30
0.0
  0
POINT
  5
4E5
330
18
100
AcDbEntity
  8
0
100
AcDbPoint
 10
8.372855
 20
3.363816
 30
0.0
  0
POINT
  5
4E6
330
18
100
AcDbEntity
  8
0
100
AcDbPoint
 10
8.409777999999999
 20
3.360117
 30
0.0
  0
POINT
  5
4E7
330
18
100
AcDbEntity
  8
0
100
AcDbPoint
 10
8.413705
 20
3.409033
 30
0.0
  0
POINT
  5
4E8
330
18
100
AcDbEntity
  8
0
100
AcDbPoint
 10
8.353813000000001
 20
3.414167
 30
0.0
  0
POINT
  5
4E9
330
18
100
AcDbEntity
  8
0
100
AcDbPoint
 10
8.375086
 20
3.428761
 30
0.0
  0
POINT
  5
4EA
330
18
100
AcDbEntity
  8
0
100
AcDbPoint
 10
8.408257000000001
 20
3.438131
 30
0.0
  0
POINT
  5
4EB
330
18
100
AcDbEntity
  8
0
100
AcDbPoint
 10
8.422325000000001
 20
3.441864
 30
0.0
  0
LWPOLYLINE
  5
4EC
330
18
100
AcDbEntity
  8
0
100
AcDbPolyline
 90
        5
 70
     1
 43
0.0
 10
8.411427999999999
 20
3.71102
 10
8.401358
 20
3.707212
 10
8.399695
 20
3.67225
 10
8.426302
 20
3.651749
 10
8.445069
 20
3.692386
  0
LWPOLYLINE
  5
4F4
330
18
100
AcDbEntity
  8
0
100
AcDbPolyline
 90
        5
 70
     1
 43
0.0
 10
8.790703000000001
 20
3.834809
 10
8.768185000000001
 20
3.807241
 10
8.776896000000001
 20
3.792079
 10
8.806842
 20
3.789512
 10
8.826134
 20
3.805143
  0
LWPOLYLINE
  5
4FC
330
18
100
AcDbEntity
  8
0
100
AcDbPolyline
 90
        6
 70
     1
 43
0.0
 10
9.138029
 20
3.908213
 10
9.132332
 20
3.871328
 10
9.162296000000001
 20
3.869761
 10
9.195561999999999
 20
3.884128
 10
9.192981
 20
3.906173
 10
9.176292999999999
 20
3.922486
  0
LWPOLYLINE
  5
505
330
18
100
AcDbEntity
  8
0
100
AcDbPolyline
 90
        6
 70
     1
 43
0.0
 10
8.81897
 20
3.58532
 10
8.83264
 20
3.568064
 10
8.850839000000001
 20
3.578717
 10
8.855385999999999
 20
3.607626
 10
8.835813
 20
3.629993
 10
8.817747000000001
 20
3.626336
  0
LWPOLYLINE
  5
50E
330
18
100
AcDbEntity
  8
0
100
AcDbPolyline
 90
        5
 70
     1
 43
0.0
 10
8.581832
 20
3.311865
 10
8.594901
 20
3.315617
 10
8.612076
 20
3.272299
 10
8.580809
 20
3.257895
 10
8.562236
 20
3.280242
  0
LWPOLYLINE
  5
516
330
18
100
AcDbEntity
  8
0
100
AcDbPolyline
 90
        6
 70
     1
 43
0.0
 10
8.723794999999999
 20
2.625303
 10
8.710385000000001
 20
2.603561
 10
8.723431
 20
2.553323
 10
8.743552000000001
 20
2.559941
 10
8.750325
 20
2.600805
 10
8.733941
 20
2.633109
  0
LWPOLYLINE
  5
51F
330
18
100
AcDbEntity
  8
0
100
AcDbPolyline
 90
        7
 70
     1
 43
0.0
 10
8.516695
 20
2.565239
 10
8.524728
 20
2.567086
 10
8.546128999999999
 20
2.535687
 10
8.548635000000001
 20
2.509644
 10
8.517443999999999
 20
2.499237
 10
8.493836
 20
2.519681
 10
8.501476
 20
2.553529
  0
LWPOLYLINE
  5
529
330
18
100
AcDbEntity
  8
0
100
AcDbPolyline
 90
        4
 70
     1
 43
0.0
 10
8.420467
 20
2.605055
 10
8.44238
 20
2.600641
 10
8.452995
 20
2.580443
 10
8.434853
 20
2.572788
  0
LWPOLYLINE
  5
530
330
18
100
AcDbEntity
  8
0
100
AcDbPolyline
 90
        5
 70
     1
 43
0.0
 10
8.436974000000001
 20
2.684727
 10
8.470708999999999
 20
2.671091
 10
8.471372000000001
 20
2.706071
 10
8.448423
 20
2.708506
 10
8.438972999999999
 20
2.684689
  0
LWPOLYLINE
  5
538
330
18
100
AcDbEntity
  8
0
100
AcDbPolyline
 90
        5
 70
     1
 43
0.0
 10
8.452481000000001
 20
2.764419
 10
8.473508000000001
 20
2.76602
 10
8.476752000000001
 20
2.778956
 10
8.460519
 20
2.819256
 10
8.439492999999999
 20
2.817655
  0
LWPOLYLINE
  5
540
330
18
100
AcDbEntity
  8
0
100
AcDbPolyline
 90
        4
 70
     1
 43
0.0
 10
8.479835000000001
 20
3.363788
 10
8.490507000000001
 20
3.346589
 10
8.509686
 20
3.356224
 10
8.495262
 20
3.386492
  0
LWPOLYLINE
  5
547
330
18
100
AcDbEntity
  8
0
100
AcDbPolyline
 90
        5
 70
     1
 43
0.0
 10
8.528078000000001
 20
3.429862
 10
8.543728999999999
 20
3.411569
 10
8.559832999999999
 20
3.417262000000001
 10
8.557364999999999
 20
3.445304
 10
8.542582000000001
 20
3.456582
  0
LWPOLYLINE
  5
54F
330
18
100
AcDbEntity
  8
0
100
AcDbPolyline
 90
        6
 70
     1
 43
0.0
 10
8.400135000000001
 20
3.273316
 10
8.417107000000001
 20
3.271994
 10
8.422691
 20
3.302883
 10
8.402854
 20
3.311257
 10
8.402854
 20
3.311257
 10
8.399685
 20
3.302319
  0
LWPOLYLINE
  5
558
330
18
100
AcDbEntity
  8
0
100
AcDbPolyline
 90
        5
 70
     1
 43
0.0
 10
8.498774000000001
 20
3.20246
 10
8.506314999999999
 20
3.178321
 10
8.52755
 20
3.190916
 10
8.533925
 20
3.210792
 10
8.514069000000001
 20
3.218167
  0
LWPOLYLINE
  5
560
330
18
100
AcDbEntity
  8
0
100
AcDbPolyline
 90
        5
 70
     1
 43
0.0
 10
8.815191
 20
3.491409
 10
8.790072
 20
3.484887
 10
8.789447000000001
 20
3.451905
 10
8.824485000000001
 20
3.45424
 10
8.824900999999999
 20
3.476228
  0
CIRCLE
  5
568
330
18
100
AcDbEntity
  8
0
100
AcDbCircle
 10
9.001521
 20
3.457884
 30
0.0
 40
0.010194
  0
CIRCLE
  5
569
330
18
100
AcDbEntity
  8
0
100
AcDbCircle
 10
9.054141
 20
3.06896
 30
0.0
 40
0.010046
  0
CIRCLE
  5
56A
330
18
100
AcDbEntity
  8
0
100
AcDbCircle
 10
9.085271000000001
 20
3.023378
 30
0.0
 40
0.009052
  0
CIRCLE
  5
56B
330
18
100
AcDbEntity
  8
0
100
AcDbCircle
 10
9.078119000000001
 20
2.962525
 30
0.0
 40
0.004122
  0
CIRCLE
  5
56C
330
18
100
AcDbEntity
  8
0
100
AcDbCircle
 10
8.664334
 20
3.550257
 30
0.0
 40
0.014313
  0
POINT
  5
56D
330
18
100
AcDbEntity
  8
0
100
AcDbPoint
 10
8.652764
 20
3.414502
 30
0.0
  0
POINT
  5
56E
330
18
100
AcDbEntity
  8
0
100
AcDbPoint
 10
8.609905
 20
3.474303
 30
0.0
  0
POINT
  5
56F
330
18
100
AcDbEntity
  8
0
100
AcDbPoint
 10
8.587622
 20
3.564708
 30
0.0
  0
POINT
  5
570
330
18
100
AcDbEntity
  8
0
100
AcDbPoint
 10
8.608614999999999
 20
3.617301
 30
0.0
  0
POINT
  5
571
330
18
100
AcDbEntity
  8
0
100
AcDbPoint
 10
8.6571
 20
3.643377
 30
0.0
  0
POINT
  5
572
330
18
100
AcDbEntity
  8
0
100
AcDbPoint
 10
8.748633999999999
 20
3.619647
 30
0.0
  0
POINT
  5
573
330
18
100
AcDbEntity
  8
0
100
AcDbPoint
 10
8.827088
 20
3.697145
 30
0.0
  0
POINT
  5
574
330
18
100
AcDbEntity
  8
0
100
AcDbPoint
 10
8.867918
 20
3.741363
 30
0.0
  0
POINT
  5
575
330
18
100
AcDbEntity
  8
0
100
AcDbPoint
 10
8.831412
 20
3.76705
 30
0.0
  0
POINT
  5
576
330
18
100
AcDbEntity
  8
0
100
AcDbPoint
 10
8.738474999999999
 20
3.927782
 30
0.0
  0
CIRCLE
  5
577
330
18
100
AcDbEntity
  8
0
100
AcDbCircle
 10
8.788105
 20
2.695071
 30
0.0
 40
0.009483
  0
CIRCLE
  5
578
330
18
100
AcDbEntity
  8
0
100
AcDbCircle
 10
8.828655
 20
2.777287
 30
0.0
 40
0.008482
  0
LINE
  5
579
330
18
100
AcDbEntity
  8
0
100
AcDbLine
 10
6.421071932148599
 20
4.744264206850837
 30
0.0
 11
6.2447699321486
 21
4.814042206850838
 31
0.0
  0
LINE
  5
57A
330
18
100
AcDbEntity
  8
0
100
AcDbLine
 10
6.551818932148599
 20
4.692517206850837
 30
0.0
 11
6.4445589321486
 21
4.734968206850837
 31
0.0
  0
LINE
  5
57B
330
18
100
AcDbEntity
  8
0
100
AcDbLine
 10
6.483690932148599
 20
4.886318206850837
 30
0.0
 11
6.483690932148599
 21
4.756389206850837
 31
0.0
  0
LINE
  5
57C
330
18
100
AcDbEntity
  8
0
100
AcDbLine
 10
6.5152669321486
 20
4.873876206850838
 30
0.0
 11
6.5152669321486
 21
4.743947206850837
 31
0.0
  0
LINE
  5
57D
330
18
100
AcDbEntity
  8
0
100
AcDbLine
 10
6.5152669321486
 20
4.743947206850837
 30
0.0
 11
6.483690932148599
 21
4.756389206850837
 31
0.0
  0
LINE
  5
57E
330
18
100
AcDbEntity
  8
0
100
AcDbLine
 10
6.483690932148599
 20
4.886318206850837
 30
0.0
 11
6.5152669321486
 21
4.873876206850838
 31
0.0
  0
ARC
  5
57F
330
18
100
AcDbEntity
  8
0
100
AcDbCircle
 10
6.5886199321486
 20
4.884019206850837
 30
0.0
 40
0.018344
100
AcDbArc
 50
113.808549
 51
180.0
  0
ARC
  5
580
330
18
100
AcDbEntity
  8
0
100
AcDbCircle
 10
6.439415932148599
 20
4.934779206850838
 30
0.0
 40
0.018344
100
AcDbArc
 50
115.345398
 51
180.0
  0
LINE
  5
581
330
18
100
AcDbEntity
  8
0
100
AcDbLine
 10
6.5721239321486
 20
4.892043206850837
 30
0.0
 11
7.073206932148599
 21
4.698023206850838
 31
0.0
  0
LINE
  5
582
330
18
100
AcDbEntity
  8
0
100
AcDbLine
 10
6.594323932148599
 20
4.941283206850837
 30
0.0
 11
6.736645932148599
 21
5.004079206850838
 31
0.0
  0
LINE
  5
583
330
18
100
AcDbEntity
  8
0
100
AcDbLine
 10
6.594323932148599
 20
4.941283206850837
 30
0.0
 11
6.551265932148599
 21
4.957918206850837
 31
0.0
  0
LINE
  5
584
330
18
100
AcDbEntity
  8
0
100
AcDbLine
 10
6.551265932148599
 20
4.957918206850837
 30
0.0
 11
6.6935869321486
 21
5.020715206850838
 31
0.0
  0
LINE
  5
585
330
18
100
AcDbEntity
  8
0
100
AcDbLine
 10
6.736645932148599
 20
5.004079206850838
 30
0.0
 11
6.6935869321486
 21
5.020715206850838
 31
0.0
  0
LWPOLYLINE
  5
586
330
18
100
AcDbEntity
  8
0
100
AcDbPolyline
 90
       16
 70
     1
 43
0.0
 10
6.6241399321486
 20
4.985984206850838
 42
0.128853
 10
6.623818932148599
 20
4.980807206850837
 42
0.106324
 10
6.6262889321486
 20
4.975063206850838
 42
0.084848
 10
6.6309009321486
 20
4.970467206850837
 42
0.074117
 10
6.6375479321486
 20
4.967122206850838
 42
0.074117
 10
6.6448809321486
 20
4.965860206850837
 42
0.084848
 10
6.651321932148599
 20
4.966813206850838
 42
0.106324
 10
6.656722932148599
 20
4.969964206850837
 42
0.128853
 10
6.6595419321486
 20
4.974318206850837
 42
0.128853
 10
6.6598639321486
 20
4.979494206850838
 42
0.106324
 10
6.657392932148599
 20
4.985239206850838
 42
0.084848
 10
6.6527809321486
 20
4.989834206850838
 42
0.074117
 10
6.6461339321486
 20
4.993179206850837
 42
0.074117
 10
6.6388009321486
 20
4.994441206850838
 42
0.084848
 10
6.632359932148599
 20
4.993488206850838
 42
0.106324
 10
6.626958932148599
 20
4.990337206850838
 42
0.128853
  0
LWPOLYLINE
  5
599
330
18
100
AcDbEntity
  8
0
100
AcDbPolyline
 90
       16
 70
     1
 43
0.0
 10
6.485862932148599
 20
4.822069206850838
 42
0.128853
 10
6.483764932148599
 20
4.817640206850838
 42
0.106324
 10
6.4839169321486
 20
4.811733206850837
 42
0.084848
 10
6.486351932148599
 20
4.806082206850838
 42
0.074117
 10
6.491009932148599
 20
4.800815206850838
 42
0.074117
 10
6.497001932148599
 20
4.797135206850837
 42
0.084848
 10
6.502987932148599
 20
4.795711206850838
 42
0.106324
 10
6.508832932148599
 20
4.796581206850838
 42
0.128853
 10
6.5128339321486
 20
4.799412206850838
 42
0.128853
 10
6.514931932148599
 20
4.803841206850838
 42
0.106324
 10
6.514779932148599
 20
4.809748206850838
 42
0.084848
 10
6.5123449321486
 20
4.815399206850838
 42
0.074117
 10
6.5076869321486
 20
4.820666206850838
 42
0.074117
 10
6.5016949321486
 20
4.824346206850837
 42
0.084848
 10
6.4957089321486
 20
4.825770206850838
 42
0.106324
 10
6.489864932148599
 20
4.824900206850837
 42
0.128853
  0
LWPOLYLINE
  5
5AC
330
18
100
AcDbEntity
  8
0
  6
HIDDEN
100
AcDbPolyline
 90
        5
 70
   128
 43
0.0
 10
7.2289559321486
 20
4.405200206850838
 10
7.2285889321486
 20
4.390955206850838
 42
0.312198
 10
7.234818932148599
 20
4.381434206850837
 10
7.411112932148599
 20
4.309766206850838
 10
7.4274259321486
 20
4.326453206850838
  0
POINT
  5
5B4
330
18
100
AcDbEntity
  8
0
100
AcDbPoint
 10
7.218489932148599
 20
3.691086206850838
 30
0.0
  0
POINT
  5
5B5
330
18
100
AcDbEntity
  8
0
100
AcDbPoint
 10
7.258557932148599
 20
3.642336206850838
 30
0.0
  0
LWPOLYLINE
  5
5B6
330
18
100
AcDbEntity
  8
0
  6
HIDDEN
100
AcDbPolyline
 90
        4
 70
     0
 43
0.0
 10
7.7768859321486
 20
3.720944206850838
 10
7.8853999321486
 20
3.801872206850838
 10
7.863903932148599
 20
3.828275206850837
 42
-0.278006
 10
7.7434199321486
 20
3.801563206850838
  0
LINE
  5
5BD
330
18
100
AcDbEntity
  8
0
100
AcDbLine
 10
7.5579919321486
 20
4.799819206850837
 30
0.0
 11
7.4407809321486
 21
4.848924206850838
 31
0.0
  0
LINE
  5
5BE
330
18
100
AcDbEntity
  8
0
100
AcDbLine
 10
7.3790009321486
 20
4.847280206850837
 30
0.0
 11
7.0752979321486
 21
4.703426206850837
 31
0.0
  0
ARC
  5
5BF
330
18
100
AcDbEntity
  8
0
100
AcDbCircle
 10
7.232354932148599
 20
4.636088206850838
 30
0.0
 40
0.018344
100
AcDbArc
 50
113.808549
 51
180.0
  0
LINE
  5
5C0
330
18
100
AcDbEntity
  8
0
100
AcDbLine
 10
7.238059932148599
 20
4.693351206850838
 30
0.0
 11
7.1950009321486
 21
4.709987206850838
 31
0.0
  0
LINE
  5
5C1
330
18
100
AcDbEntity
  8
0
100
AcDbLine
 10
7.1950009321486
 20
4.709987206850838
 30
0.0
 11
7.337321932148599
 21
4.772783206850837
 31
0.0
  0
LINE
  5
5C2
330
18
100
AcDbEntity
  8
0
100
AcDbLine
 10
7.159001932148599
 20
4.625945206850838
 30
0.0
 11
7.159001932148599
 21
4.496016206850838
 31
0.0
  0
LINE
  5
5C3
330
18
100
AcDbEntity
  8
0
100
AcDbLine
 10
7.127426932148599
 20
4.638386206850838
 30
0.0
 11
7.127426932148599
 21
4.508457206850838
 31
0.0
  0
LINE
  5
5C4
330
18
100
AcDbEntity
  8
0
100
AcDbLine
 10
7.2140109321486
 20
4.430432206850838
 30
0.0
 11
7.2140109321486
 21
4.636088206850838
 31
0.0
  0
LINE
  5
5C5
330
18
100
AcDbEntity
  8
0
100
AcDbLine
 10
7.064806932148599
 20
4.686848206850838
 30
0.0
 11
7.064806932148599
 21
4.489485206850837
 31
0.0
  0
LINE
  5
5C6
330
18
100
AcDbEntity
  8
0
100
AcDbLine
 10
7.159001932148599
 20
4.496016206850838
 30
0.0
 11
7.127426932148599
 21
4.508457206850838
 31
0.0
  0
LWPOLYLINE
  5
5C7
330
18
100
AcDbEntity
  8
0
100
AcDbPolyline
 90
       16
 70
     1
 43
0.0
 10
7.129598932148599
 20
4.574138206850838
 42
0.128853
 10
7.1274999321486
 20
4.569708206850837
 42
0.106324
 10
7.127651932148599
 20
4.563801206850838
 42
0.084848
 10
7.1300869321486
 20
4.558151206850837
 42
0.074117
 10
7.134745932148599
 20
4.552884206850838
 42
0.074117
 10
7.1407369321486
 20
4.549204206850837
 42
0.084848
 10
7.1467229321486
 20
4.547780206850837
 42
0.106324
 10
7.1525679321486
 20
4.548649206850838
 42
0.128853
 10
7.156568932148599
 20
4.551480206850838
 42
0.128853
 10
7.1586679321486
 20
4.555910206850837
 42
0.106324
 10
7.158515932148599
 20
4.561817206850837
 42
0.084848
 10
7.156080932148599
 20
4.567467206850838
 42
0.074117
 10
7.151421932148598
 20
4.572735206850838
 42
0.074117
 10
7.1454309321486
 20
4.576415206850838
 42
0.084848
 10
7.1394449321486
 20
4.577838206850838
 42
0.106324
 10
7.1335999321486
 20
4.576969206850838
 42
0.128853
  0
LINE
  5
5DA
330
18
100
AcDbEntity
  8
0
100
AcDbLine
 10
7.189696932148599
 20
4.440055206850838
 30
0.0
 11
7.0824369321486
 21
4.482507206850837
 31
0.0
  0
ARC
  5
5DB
330
18
100
AcDbEntity
  8
0
100
AcDbCircle
 10
7.0831509321486
 20
4.686848206850838
 30
0.0
 40
0.018344
100
AcDbArc
 50
115.345398
 51
180.0
  0
LINE
  5
5DC
330
18
100
AcDbEntity
  8
0
100
AcDbLine
 10
7.098765932148599
 20
4.689450206850838
 30
0.0
 11
7.185498932148599
 21
4.655867206850838
 31
0.0
  0
LINE
  5
5DD
330
18
100
AcDbEntity
  8
0
100
AcDbLine
 10
7.127426932148599
 20
4.638386206850838
 30
0.0
 11
7.159001932148599
 21
4.625945206850838
 31
0.0
  0
LWPOLYLINE
  5
5DE
330
18
100
AcDbEntity
  8
0
100
AcDbPolyline
 90
       16
 70
     1
 43
0.0
 10
7.466898932148599
 20
4.812815206850837
 42
0.216978
 10
7.4652559321486
 20
4.816301206850838
 42
0.092806
 10
7.4577139321486
 20
4.820596206850837
 42
0.049479
 10
7.448437932148599
 20
4.822805206850838
 42
0.037071
 10
7.435748932148599
 20
4.823578206850837
 42
0.037071
 10
7.423083932148599
 20
4.822468206850838
 42
0.049479
 10
7.4138699321486
 20
4.820013206850838
 42
0.092806
 10
7.406445932148599
 20
4.815519206850838
 42
0.216978
 10
7.4048949321486
 20
4.811990206850838
 42
0.216978
 10
7.4065389321486
 20
4.808505206850838
 42
0.092806
 10
7.414080932148599
 20
4.804209206850838
 42
0.049479
 10
7.4233559321486
 20
4.802000206850837
 42
0.037071
 10
7.436045932148599
 20
4.801227206850838
 42
0.037071
 10
7.448709932148599
 20
4.802337206850837
 42
0.049479
 10
7.457923932148599
 20
4.804792206850837
 42
0.092806
 10
7.465348932148599
 20
4.809287206850837
 42
0.216978
  0
LINE
  5
5F1
330
18
100
AcDbEntity
  8
0
100
AcDbLine
 10
7.2249499321486
 20
4.652870206850838
 30
0.0
 11
7.5579919321486
 21
4.799819206850837
 31
0.0
  0
LINE
  5
5F2
330
18
100
AcDbEntity
  8
0
100
AcDbLine
 10
7.3803809321486
 20
4.756148206850837
 30
0.0
 11
7.337321932148599
 21
4.772783206850837
 31
0.0
  0
LINE
  5
5F3
330
18
100
AcDbEntity
  8
0
100
AcDbLine
 10
7.238059932148599
 20
4.693351206850838
 30
0.0
 11
7.3803809321486
 21
4.756148206850837
 31
0.0
  0
LWPOLYLINE
  5
5F4
330
18
100
AcDbEntity
  8
0
100
AcDbPolyline
 90
       16
 70
     1
 43
0.0
 10
7.267875932148599
 20
4.738052206850838
 42
0.128853
 10
7.2675539321486
 20
4.732876206850838
 42
0.106324
 10
7.270023932148599
 20
4.727131206850838
 42
0.084848
 10
7.274636932148599
 20
4.722536206850838
 42
0.074117
 10
7.281282932148599
 20
4.719191206850838
 42
0.074117
 10
7.288615932148599
 20
4.717929206850838
 42
0.084848
 10
7.295056932148599
 20
4.718882206850838
 42
0.106324
 10
7.300457932148599
 20
4.722032206850837
 42
0.128853
 10
7.303276932148599
 20
4.726386206850838
 42
0.128853
 10
7.303598932148599
 20
4.731563206850838
 42
0.106324
 10
7.3011289321486
 20
4.737307206850837
 42
0.084848
 10
7.296515932148599
 20
4.741903206850838
 42
0.074117
 10
7.2898699321486
 20
4.745248206850838
 42
0.074117
 10
7.2825369321486
 20
4.746509206850837
 42
0.084848
 10
7.276095932148599
 20
4.745556206850838
 42
0.106324
 10
7.2706949321486
 20
4.742406206850838
 42
0.128853
  0
LINE
  5
607
330
18
100
AcDbEntity
  8
0
100
AcDbLine
 10
7.064806932148599
 20
4.489485206850837
 30
0.0
 11
6.5702759321486
 21
4.685212206850838
 31
0.0
  0
LINE
  5
608
330
18
100
AcDbEntity
  8
0
100
AcDbLine
 10
7.450448932148599
 20
4.336854206850838
 30
0.0
 11
7.2140109321486
 21
4.430432206850838
 31
0.0
  0
LINE
  5
609
330
18
100
AcDbEntity
  8
0
100
AcDbLine
 10
7.601252784922234
 20
4.490947359076944
 30
0.0
 11
8.008621818959353
 21
4.333213273660606
 31
0.0
  0
LINE
  5
60A
330
18
100
AcDbEntity
  8
0
100
AcDbLine
 10
7.2153559321486
 20
4.642983206850838
 30
0.0
 11
7.457982932148599
 21
4.549037206850838
 31
0.0
  0
LINE
  5
60B
330
18
100
AcDbEntity
  8
0
100
AcDbLine
 10
7.0945289321486
 20
4.689767206850838
 30
0.0
 11
7.194033932148599
 21
4.651239206850837
 31
0.0
  0
LINE
  5
60C
330
18
100
AcDbEntity
  8
0
100
AcDbLine
 10
7.5753389321486
 20
4.287425206850838
 30
0.0
 11
7.468078932148599
 21
4.329876206850837
 31
0.0
  0
LINE
  5
60D
330
18
100
AcDbEntity
  8
0
100
AcDbLine
 10
7.484407932148599
 20
4.536820206850837
 30
0.0
 11
7.571140932148599
 21
4.503237206850837
 31
0.0
  0
LINE
  5
60E
330
18
100
AcDbEntity
  8
0
100
AcDbLine
 10
7.795481932148599
 20
4.709257206850837
 30
0.0
 11
7.460940932148599
 21
4.550795206850838
 31
0.0
  0
LINE
  5
60F
330
18
100
AcDbEntity
  8
0
100
AcDbLine
 10
7.450448932148599
 20
4.534217206850837
 30
0.0
 11
7.450448932148599
 21
4.336854206850838
 31
0.0
  0
LINE
  5
610
330
18
100
AcDbEntity
  8
0
100
AcDbLine
 10
7.513068932148599
 20
4.485756206850838
 30
0.0
 11
7.5446449321486
 21
4.473314206850837
 31
0.0
  0
LWPOLYLINE
  5
611
330
18
100
AcDbEntity
  8
0
100
AcDbPolyline
 90
       16
 70
     1
 43
0.0
 10
7.515240932148599
 20
4.421507206850837
 42
0.128853
 10
7.513142932148599
 20
4.417078206850837
 42
0.106324
 10
7.5132949321486
 20
4.411171206850837
 42
0.084848
 10
7.515729932148599
 20
4.405520206850838
 42
0.074117
 10
7.520387932148599
 20
4.400253206850837
 42
0.074117
 10
7.526379932148599
 20
4.396573206850838
 42
0.084848
 10
7.532365932148599
 20
4.395149206850838
 42
0.106324
 10
7.538209932148599
 20
4.396019206850838
 42
0.128853
 10
7.5422109321486
 20
4.398850206850837
 42
0.128853
 10
7.544309932148599
 20
4.403279206850837
 42
0.106324
 10
7.544157932148599
 20
4.409186206850838
 42
0.084848
 10
7.541722932148599
 20
4.414837206850837
 42
0.074117
 10
7.537064932148599
 20
4.420104206850837
 42
0.074117
 10
7.5310729321486
 20
4.423784206850838
 42
0.084848
 10
7.5250869321486
 20
4.425208206850837
 42
0.106324
 10
7.5192419321486
 20
4.424338206850838
 42
0.128853
  0
LINE
  5
624
330
18
100
AcDbEntity
  8
0
100
AcDbLine
 10
7.5446449321486
 20
4.343385206850837
 30
0.0
 11
7.513068932148599
 21
4.355827206850838
 31
0.0
  0
LINE
  5
625
330
18
100
AcDbEntity
  8
0
100
AcDbLine
 10
7.513068932148599
 20
4.485756206850838
 30
0.0
 11
7.513068932148599
 21
4.355827206850838
 31
0.0
  0
LINE
  5
626
330
18
100
AcDbEntity
  8
0
100
AcDbLine
 10
7.5446449321486
 20
4.473314206850837
 30
0.0
 11
7.5446449321486
 21
4.343385206850837
 31
0.0
  0
ARC
  5
627
330
18
100
AcDbEntity
  8
0
100
AcDbCircle
 10
7.4687929321486
 20
4.534217206850837
 30
0.0
 40
0.018344
100
AcDbArc
 50
115.345398
 51
180.0
  0
LINE
  5
628
330
18
100
AcDbEntity
  8
0
100
AcDbLine
 10
7.6105929321486
 20
4.500240206850838
 30
0.0
 11
7.902945932148599
 21
4.629235206850837
 31
0.0
  0
LINE
  5
629
330
18
100
AcDbEntity
  8
0
100
AcDbLine
 10
7.599653932148599
 20
4.277801206850838
 30
0.0
 11
7.599653932148599
 21
4.483457206850837
 31
0.0
  0
ARC
  5
62A
330
18
100
AcDbEntity
  8
0
100
AcDbCircle
 10
7.6179979321486
 20
4.483457206850837
 30
0.0
 40
0.018344
100
AcDbArc
 50
113.808549
 51
180.0
  0
LWPOLYLINE
  5
62B
330
18
100
AcDbEntity
  8
0
100
AcDbPolyline
 90
       16
 70
     1
 43
0.0
 10
7.653517932148599
 20
4.585421206850837
 42
0.128853
 10
7.653195932148599
 20
4.580245206850838
 42
0.106324
 10
7.6556669321486
 20
4.574500206850837
 42
0.084848
 10
7.660278932148599
 20
4.569905206850838
 42
0.074117
 10
7.6669249321486
 20
4.566560206850837
 42
0.074117
 10
7.6742589321486
 20
4.565298206850838
 42
0.084848
 10
7.680698932148599
 20
4.566251206850837
 42
0.106324
 10
7.6861009321486
 20
4.569402206850838
 42
0.128853
 10
7.6889199321486
 20
4.573755206850838
 42
0.128853
 10
7.689240932148599
 20
4.578932206850838
 42
0.106324
 10
7.686770932148599
 20
4.584676206850838
 42
0.084848
 10
7.6821589321486
 20
4.589272206850837
 42
0.074117
 10
7.675511932148599
 20
4.592617206850838
 42
0.074117
 10
7.668178932148599
 20
4.593879206850837
 42
0.084848
 10
7.661737932148599
 20
4.592926206850837
 42
0.106324
 10
7.6563369321486
 20
4.589775206850837
 42
0.128853
  0
LINE
  5
63E
330
18
100
AcDbEntity
  8
0
100
AcDbLine
 10
7.623701932148599
 20
4.540721206850837
 30
0.0
 11
7.7660229321486
 21
4.603517206850837
 31
0.0
  0
LINE
  5
63F
330
18
100
AcDbEntity
  8
0
100
AcDbLine
 10
7.7660229321486
 20
4.603517206850837
 30
0.0
 11
7.722964932148599
 21
4.620153206850837
 31
0.0
  0
LINE
  5
640
330
18
100
AcDbEntity
  8
0
100
AcDbLine
 10
7.580643932148599
 20
4.557356206850838
 30
0.0
 11
7.722964932148599
 21
4.620153206850837
 31
0.0
  0
LINE
  5
641
330
18
100
AcDbEntity
  8
0
100
AcDbLine
 10
7.623701932148599
 20
4.540721206850837
 30
0.0
 11
7.580643932148599
 21
4.557356206850838
 31
0.0
  0
LINE
  5
642
330
18
100
AcDbEntity
  8
0
100
AcDbLine
 10
7.902945932148599
 20
4.629235206850837
 30
0.0
 11
7.902945932148599
 21
4.664235206850838
 31
0.0
  0
LWPOLYLINE
  5
643
330
18
100
AcDbEntity
  8
0
100
AcDbPolyline
 90
       16
 70
     1
 43
0.0
 10
7.8584249321486
 20
4.654074206850838
 42
0.216978
 10
7.856780932148601
 20
4.657560206850837
 42
0.092806
 10
7.8492389321486
 20
4.661855206850838
 42
0.049479
 10
7.839963932148599
 20
4.664064206850838
 42
0.037071
 10
7.8272739321486
 20
4.664837206850837
 42
0.037071
 10
7.814609932148599
 20
4.663727206850838
 42
0.049479
 10
7.805395932148599
 20
4.661272206850837
 42
0.092806
 10
7.7979709321486
 20
4.656777206850838
 42
0.216978
 10
7.7964209321486
 20
4.653249206850838
 42
0.216978
 10
7.798063932148599
 20
4.649763206850838
 42
0.092806
 10
7.8056059321486
 20
4.645468206850837
 42
0.049479
 10
7.8148819321486
 20
4.643259206850837
 42
0.037071
 10
7.8275709321486
 20
4.642486206850838
 42
0.037071
 10
7.8402359321486
 20
4.643596206850837
 42
0.049479
 10
7.8494499321486
 20
4.646051206850838
 42
0.092806
 10
7.856873932148599
 20
4.650546206850837
 42
0.216978
  0
LINE
  5
656
330
18
100
AcDbEntity
  8
0
100
AcDbLine
 10
7.902945932148599
 20
4.664235206850838
 30
0.0
 11
7.795481932148599
 21
4.709257206850837
 31
0.0
  0
LINE
  5
657
330
18
100
AcDbEntity
  8
0
100
AcDbLine
 10
7.4407809321486
 20
4.848924206850838
 30
0.0
 11
7.3790009321486
 21
4.847280206850837
 31
0.0
  0
LINE
  5
658
330
18
100
AcDbEntity
  8
0
100
AcDbLine
 10
6.0955649321486
 20
5.506297206850838
 30
0.0
 11
6.0955649321486
 21
4.873094206850838
 31
0.0
  0
LINE
  5
659
330
18
100
AcDbEntity
  8
0
100
AcDbLine
 10
6.2447699321486
 20
4.814042206850838
 30
0.0
 11
6.2447699321486
 21
5.521604206850838
 31
0.0
  0
LINE
  5
65A
330
18
100
AcDbEntity
  8
0
100
AcDbLine
 10
6.1581849321486
 20
5.015148206850838
 30
0.0
 11
6.1897609321486
 21
5.002706206850838
 31
0.0
  0
LINE
  5
65B
330
18
100
AcDbEntity
  8
0
100
AcDbLine
 10
6.1581849321486
 20
5.015148206850838
 30
0.0
 11
6.1581849321486
 21
4.885219206850838
 31
0.0
  0
LINE
  5
65C
330
18
100
AcDbEntity
  8
0
100
AcDbLine
 10
6.226312932148599
 20
4.821346206850837
 30
0.0
 11
6.119052932148599
 21
4.863798206850838
 31
0.0
  0
LWPOLYLINE
  5
65D
330
18
100
AcDbEntity
  8
0
100
AcDbPolyline
 90
       16
 70
     1
 43
0.0
 10
6.160356932148599
 20
4.950899206850838
 42
0.128853
 10
6.1582589321486
 20
4.946470206850838
 42
0.106324
 10
6.158410932148599
 20
4.940563206850838
 42
0.084848
 10
6.160845932148599
 20
4.934912206850838
 42
0.074117
 10
6.165503932148599
 20
4.929645206850838
 42
0.074117
 10
6.171495932148599
 20
4.925965206850838
 42
0.084848
 10
6.177481932148599
 20
4.924541206850837
 42
0.106324
 10
6.183325932148599
 20
4.925411206850837
 42
0.128853
 10
6.1873269321486
 20
4.928242206850837
 42
0.128853
 10
6.189425932148599
 20
4.932671206850837
 42
0.106324
 10
6.189273932148599
 20
4.938578206850838
 42
0.084848
 10
6.186838932148599
 20
4.944229206850838
 42
0.074117
 10
6.182180932148599
 20
4.949496206850838
 42
0.074117
 10
6.176188932148599
 20
4.953176206850838
 42
0.084848
 10
6.170202932148599
 20
4.954600206850837
 42
0.106324
 10
6.1643579321486
 20
4.953730206850838
 42
0.128853
  0
LINE
  5
670
330
18
100
AcDbEntity
  8
0
100
AcDbLine
 10
6.1897609321486
 20
4.872777206850838
 30
0.0
 11
6.1581849321486
 21
4.885219206850838
 31
0.0
  0
LINE
  5
671
330
18
100
AcDbEntity
  8
0
100
AcDbLine
 10
6.1897609321486
 20
5.002706206850838
 30
0.0
 11
6.1897609321486
 21
4.872777206850838
 31
0.0
  0
LINE
  5
672
330
18
100
AcDbEntity
  8
0
100
AcDbLine
 10
6.129523932148599
 20
5.066212206850838
 30
0.0
 11
6.2162569321486
 21
5.032629206850838
 31
0.0
  0
LINE
  5
673
330
18
100
AcDbEntity
  8
0
100
AcDbLine
 10
6.400361
 20
4.752461
 30
0.0
 11
4.850378
 21
5.365918
 31
0.0
  0
LWPOLYLINE
  5
674
330
18
100
AcDbEntity
  8
0
  6
HIDDEN
100
AcDbPolyline
 90
        3
 70
   128
 43
0.0
 10
6.573276932148599
 20
4.536580206850838
 10
6.543156932148599
 20
4.477162206850838
 10
6.599910932148601
 20
4.445930206850838
  0
LWPOLYLINE
  5
67A
330
18
100
AcDbEntity
  8
0
  6
HIDDEN
100
AcDbPolyline
 90
        3
 70
   128
 43
0.0
 10
7.602654932148599
 20
4.129169206850838
 10
7.5725339321486
 20
4.069751206850837
 10
7.6292889321486
 20
4.038520206850838
  0
LINE
  5
680
330
18
100
AcDbEntity
  8
0
100
AcDbLine
 10
6.1284119321486
 20
5.560474206850838
 30
0.0
 11
6.2447699321486
 21
5.521604206850838
 31
0.0
  0
LINE
  5
681
330
18
100
AcDbEntity
  8
0
100
AcDbLine
 10
6.3000449321486
 20
4.997392206850837
 30
0.0
 11
6.4269639321486
 21
4.948249206850838
 31
0.0
  0
LINE
  5
682
330
18
100
AcDbEntity
  8
0
100
AcDbLine
 10
6.1897609321486
 20
5.253037206850838
 30
0.0
 11
6.1897609321486
 21
5.123107206850837
 31
0.0
  0
LINE
  5
683
330
18
100
AcDbEntity
  8
0
100
AcDbLine
 10
6.1897609321486
 20
5.123107206850837
 30
0.0
 11
6.1581849321486
 21
5.135549206850838
 31
0.0
  0
LWPOLYLINE
  5
684
330
18
100
AcDbEntity
  8
0
100
AcDbPolyline
 90
       16
 70
     1
 43
0.0
 10
6.160356932148599
 20
5.201230206850838
 42
0.128853
 10
6.1582589321486
 20
5.196800206850837
 42
0.106324
 10
6.158410932148599
 20
5.190893206850838
 42
0.084848
 10
6.160845932148599
 20
5.185243206850838
 42
0.074117
 10
6.165503932148599
 20
5.179975206850838
 42
0.074117
 10
6.171495932148599
 20
5.176296206850838
 42
0.084848
 10
6.177481932148599
 20
5.174872206850838
 42
0.106324
 10
6.183325932148599
 20
5.175741206850838
 42
0.128853
 10
6.1873269321486
 20
5.178572206850838
 42
0.128853
 10
6.189425932148599
 20
5.183002206850838
 42
0.106324
 10
6.189273932148599
 20
5.188909206850838
 42
0.084848
 10
6.186838932148599
 20
5.194559206850838
 42
0.074117
 10
6.182180932148599
 20
5.199827206850838
 42
0.074117
 10
6.176188932148599
 20
5.203506206850838
 42
0.084848
 10
6.170202932148599
 20
5.204930206850838
 42
0.106324
 10
6.1643579321486
 20
5.204061206850837
 42
0.128853
  0
LINE
  5
697
330
18
100
AcDbEntity
  8
0
100
AcDbLine
 10
6.1581849321486
 20
5.265478206850838
 30
0.0
 11
6.1581849321486
 21
5.135549206850838
 31
0.0
  0
LINE
  5
698
330
18
100
AcDbEntity
  8
0
100
AcDbLine
 10
6.1581849321486
 20
5.265478206850838
 30
0.0
 11
6.1897609321486
 21
5.253037206850838
 31
0.0
  0
LINE
  5
699
330
18
100
AcDbEntity
  8
0
100
AcDbLine
 10
6.1284119321486
 20
5.560474206850838
 30
0.0
 11
6.0955649321486
 21
5.506297206850838
 31
0.0
  0
CIRCLE
  5
69A
330
18
100
AcDbEntity
  8
0
100
AcDbCircle
 10
6.176545932148599
 20
5.444194206850837
 30
0.0
 40
0.016839
  0
LINE
  5
69B
330
18
100
AcDbEntity
  8
0
100
AcDbLine
 10
4.257976
 20
6.078027
 30
0.0
 11
3.837292
 21
5.948358
 31
0.0
  0
LINE
  5
69C
330
18
100
AcDbEntity
  8
0
100
AcDbLine
 10
3.808441
 20
6.028548000000001
 30
0.0
 11
3.808441
 21
5.7783
 31
0.0
  0
LINE
  5
69D
330
18
100
AcDbEntity
  8
0
100
AcDbLine
 10
3.808441
 20
5.7783
 30
0.0
 11
3.800178
 21
5.766692
 31
0.0
  0
ARC
  5
69E
330
18
100
AcDbEntity
  8
0
100
AcDbCircle
 10
3.838441
 20
6.028548000000001
 30
0.0
 40
0.03
100
AcDbArc
 50
143.92497
 51
180.0
  0
ARC
  5
69F
330
18
100
AcDbEntity
  8
0
100
AcDbCircle
 10
3.830178
 20
6.017206
 30
0.0
 40
0.03
100
AcDbArc
 50
143.92497
 51
180.0
  0
LINE
  5
6A0
330
18
100
AcDbEntity
  8
0
100
AcDbLine
 10
2.985127
 20
6.544669
 30
0.0
 11
2.755972
 21
6.460030000000001
 31
0.0
  0
LINE
  5
6A1
330
18
100
AcDbEntity
  8
0
100
AcDbLine
 10
2.541751
 20
6.264755999999999
 30
0.0
 11
2.539458
 21
6.276391
 31
0.0
  0
LINE
  5
6A2
330
18
100
AcDbEntity
  8
0
100
AcDbLine
 10
2.539458
 20
6.276391
 30
0.0
 11
2.451515
 21
6.311198
 31
0.0
  0
LINE
  5
6A3
330
18
100
AcDbEntity
  8
0
100
AcDbLine
 10
2.451515
 20
6.311198
 30
0.0
 11
2.44355
 21
6.303622
 31
0.0
  0
LINE
  5
6A4
330
18
100
AcDbEntity
  8
0
100
AcDbLine
 10
2.44355
 20
6.303622
 30
0.0
 11
2.293204
 21
6.363127
 31
0.0
  0
LWPOLYLINE
  5
6A5
330
18
100
AcDbEntity
  8
0
  6
HIDDEN
100
AcDbPolyline
 90
       13
 70
   128
 43
0.0
 10
7.585062932148599
 20
4.062857206850838
 10
7.7768859321486
 20
3.720944206850838
 10
7.6262529321486
 20
3.738795206850838
 10
7.5926289321486
 20
3.786685206850837
 42
0.271669
 10
7.583421932148599
 20
3.790887206850838
 10
7.555057932148599
 20
3.787972206850838
 42
-0.311827
 10
7.5450929321486
 20
3.793443206850837
 10
7.342028932148599
 20
4.199096206850838
 10
7.2541749321486
 20
4.258749206850838
 10
7.221226932148599
 20
4.208383206850837
 10
7.1548699321486
 20
4.241634206850838
 10
7.2006259321486
 20
4.334750206850838
 10
7.079728932148599
 20
4.477114206850837
  0
LWPOLYLINE
  5
6B5
330
18
100
AcDbEntity
  8
0
  6
HIDDEN
100
AcDbPolyline
 90
        3
 70
   128
 43
0.0
 10
7.611037932148599
 20
4.254987206850838
 10
7.6957559321486
 20
4.135404206850837
 10
7.6292889321486
 20
4.038520206850838
  0
LWPOLYLINE
  5
6BB
330
18
100
AcDbEntity
  8
0
  6
HIDDEN
100
AcDbPolyline
 90
       13
 70
   128
 43
0.0
 10
6.5556849321486
 20
4.470267206850838
 10
6.747507932148599
 20
4.128354206850838
 10
6.5968749321486
 20
4.146205206850838
 10
6.563250932148599
 20
4.194096206850837
 42
0.271669
 10
6.554044932148599
 20
4.198297206850837
 10
6.525679932148599
 20
4.195382206850837
 42
-0.311827
 10
6.515714932148599
 20
4.200853206850837
 10
6.3126509321486
 20
4.606506206850838
 10
6.2247979321486
 20
4.666160206850837
 10
6.191848932148599
 20
4.615793206850838
 10
6.125491932148599
 20
4.649045206850838
 10
6.171247932148599
 20
4.742160206850837
 10
6.097898932148599
 20
4.828534206850838
  0
LWPOLYLINE
  5
6CB
330
18
100
AcDbEntity
  8
0
  6
HIDDEN
100
AcDbPolyline
 90
        3
 70
   128
 43
0.0
 10
6.581659932148599
 20
4.662398206850837
 10
6.6663779321486
 20
4.542814206850838
 10
6.599910932148601
 20
4.445930206850838
  0
TEXT
  5
6D1
330
18
100
AcDbEntity
  8
0
100
AcDbText
 10
5.73180366295653
 20
2.513593188528164
 30
0.0
 40
0.2
  1
MAS
 41
0.8
100
AcDbText
  0
TEXT
  5
6D2
330
18
100
AcDbEntity
  8
0
100
AcDbText
 10
1.337155
 20
2.00282
 30
0.0
 40
0.21
  1
Simpson Strong-Tie
100
AcDbText
  0
TEXT
  5
6D3
330
18
100
AcDbEntity
  8
0
100
AcDbText
 10
1.337155
 20
1.66282
 30
0.0
 40
0.21
  1
Sill Plate to Foundation
100
AcDbText
  0
LINE
  5
6D4
330
18
100
AcDbEntity
  8
0
100
AcDbLine
 10
8.646155830004764
 20
6.500702946503383
 30
0.0
 11
8.646155830004764
 21
4.469264946503382
 31
0.0
  0
LINE
  5
6D5
330
18
100
AcDbEntity
  8
0
100
AcDbLine
 10
7.995592818959354
 20
6.43555748777396
 30
0.0
 11
7.995592818959354
 21
4.33825848777396
 31
0.0
  0
LINE
  5
6D6
330
18
100
AcDbEntity
  8
0
100
AcDbLine
 10
8.206246818959354
 20
6.366578487773959
 30
0.0
 11
8.347867818959353
 21
6.40731548777396
 31
0.0
  0
LINE
  5
6D7
330
18
100
AcDbEntity
  8
0
100
AcDbLine
 10
8.248107818959355
 20
6.37861948777396
 30
0.0
 11
8.305512818959354
 21
6.421184487773958
 31
0.0
  0
LINE
  5
6D8
330
18
100
AcDbEntity
  8
0
100
AcDbLine
 10
8.137214818959354
 20
6.476294487773959
 30
0.0
 11
8.347867818959353
 21
6.40731548777396
 31
0.0
  0
LINE
  5
6D9
330
18
100
AcDbEntity
  8
0
100
AcDbLine
 10
8.425916818959355
 20
6.56237948777396
 30
0.0
 11
8.215262818959353
 21
6.63135848777396
 31
0.0
  0
LINE
  5
6DA
330
18
100
AcDbEntity
  8
0
100
AcDbLine
 10
8.183977818959352
 20
6.460981487773959
 30
0.0
 11
8.215262818959353
 21
6.63135848777396
 31
0.0
  0
LINE
  5
6DB
330
18
100
AcDbEntity
  8
0
100
AcDbLine
 10
8.220368818959354
 20
6.44906548777396
 30
0.0
 11
8.240246818959353
 21
6.623177487773959
 31
0.0
  0
LINE
  5
6DC
330
18
100
AcDbEntity
  8
0
100
AcDbLine
 10
7.995592818959354
 20
6.43555748777396
 30
0.0
 11
8.137214818959354
 21
6.476294487773959
 31
0.0
  0
LINE
  5
6DD
330
18
100
AcDbEntity
  8
0
100
AcDbLine
 10
7.995592818959354
 20
6.43555748777396
 30
0.0
 11
8.206246818959354
 21
6.366578487773959
 31
0.0
  0
LINE
  5
6DE
330
18
100
AcDbEntity
  8
0
100
AcDbLine
 10
8.061063818959354
 20
6.414119487773959
 30
0.0
 11
8.189548818959352
 21
6.45915748777396
 31
0.0
  0
LINE
  5
6DF
330
18
100
AcDbEntity
  8
0
100
AcDbLine
 10
8.141795818959354
 20
6.387683487773959
 30
0.0
 11
8.244723818959352
 21
6.441089487773959
 31
0.0
  0
LINE
  5
6E0
330
18
100
AcDbEntity
  8
0
100
AcDbLine
 10
8.425916818959355
 20
6.56237948777396
 30
0.0
 11
8.482351818959355
 21
6.445998487773959
 31
0.0
  0
LINE
  5
6E1
330
18
100
AcDbEntity
  8
0
100
AcDbLine
 10
8.390240818959354
 20
6.36809148777396
 30
0.0
 11
8.425916818959355
 21
6.56237948777396
 31
0.0
  0
LINE
  5
6E2
330
18
100
AcDbEntity
  8
0
100
AcDbLine
 10
8.482351818959355
 20
6.445998487773959
 30
0.0
 11
8.646155830004764
 21
6.493115055847427
 31
0.0
  0
LINE
  5
6E3
330
18
100
AcDbEntity
  8
0
100
AcDbLine
 10
8.352728818959353
 20
6.40281548777396
 30
0.0
 11
8.372986818959353
 21
6.57971148777396
 31
0.0
  0
LINE
  5
6E4
330
18
100
AcDbEntity
  8
0
100
AcDbLine
 10
8.284324818959354
 20
6.428122487773959
 30
0.0
 11
8.305797818959352
 21
6.601712487773959
 31
0.0
  0
LINE
  5
6E5
330
18
100
AcDbEntity
  8
0
100
AcDbLine
 10
8.347867818959353
 20
6.40731548777396
 30
0.0
 11
8.390240818959354
 21
6.36809148777396
 31
0.0
  0
LINE
  5
6E6
330
18
100
AcDbEntity
  8
0
100
AcDbLine
 10
8.447731818959353
 20
6.517392487773959
 30
0.0
 11
8.532855381146469
 21
6.537803555891474
 31
0.0
  0
LINE
  5
6E7
330
18
100
AcDbEntity
  8
0
100
AcDbLine
 10
8.476824830004764
 20
6.556150946503383
 30
0.0
 11
8.646155830004764
 21
6.500702946503383
 31
0.0
  0
LINE
  5
6E8
330
18
100
AcDbEntity
  8
0
100
AcDbLine
 10
8.465609818959353
 20
6.48052448777396
 30
0.0
 11
8.611036479346577
 21
6.512202894860713
 31
0.0
  0
LINE
  5
6E9
330
18
100
AcDbEntity
  8
0
100
AcDbLine
 10
8.206246818959354
 20
6.366578487773959
 30
0.0
 11
8.206246818959354
 21
4.800702760687953
 31
0.0
  0
LINE
  5
6EA
330
18
100
AcDbEntity
  8
0
100
AcDbLine
 10
8.646155830004764
 20
4.469264946503382
 30
0.0
 11
8.206246818959354
 21
4.256692487773959
 31
0.0
  0
LINE
  5
6EB
330
18
100
AcDbEntity
  8
0
100
AcDbLine
 10
8.141262955859205
 20
4.086056814624849
 30
0.0
 11
8.026418155480149
 21
4.131510058537605
 31
0.0
  0
LINE
  5
6EC
330
18
100
AcDbEntity
  8
0
100
AcDbLine
 10
8.008621818959353
 20
4.493028423814552
 30
0.0
 11
8.008621818959353
 21
4.424895324156201
 31
0.0
  0
LWPOLYLINE
  5
6ED
330
18
100
AcDbEntity
  8
0
100
AcDbPolyline
 90
       16
 70
     1
 43
0.0
 10
8.07428914310738
 20
4.21337729512901
 42
0.121551
 10
8.06987014310738
 20
4.211143295129009
 42
0.105245
 10
8.06641614310738
 20
4.206612295129009
 42
0.088213
 10
8.06487214310738
 20
4.20093529512901
 42
0.079061
 10
8.065319143107379
 20
4.194397295129009
 42
0.079061
 10
8.067773143107379
 20
4.188321295129009
 42
0.088213
 10
8.07164114310738
 20
4.183889295129009
 42
0.105245
 10
8.076728143107379
 20
4.181322295129009
 42
0.121551
 10
8.08167814310738
 20
4.181243295129009
 42
0.121551
 10
8.08609814310738
 20
4.183476295129009
 42
0.105245
 10
8.08955214310738
 20
4.188008295129009
 42
0.088213
 10
8.091095143107379
 20
4.193684295129009
 42
0.079061
 10
8.09064814310738
 20
4.200222295129009
 42
0.079061
 10
8.08819414310738
 20
4.20629929512901
 42
0.088213
 10
8.084326143107379
 20
4.210730295129009
 42
0.105245
 10
8.079240143107381
 20
4.213298295129009
 42
0.121551
  0
LWPOLYLINE
  5
700
330
18
100
AcDbEntity
  8
0
100
AcDbPolyline
 90
       16
 70
     1
 43
0.0
 10
8.037351818959355
 20
4.29281448777396
 42
0.121551
 10
8.032932818959354
 20
4.290581487773959
 42
0.105245
 10
8.029478818959355
 20
4.286049487773959
 42
0.088213
 10
8.027934818959354
 20
4.280373487773959
 42
0.079061
 10
8.028381818959353
 20
4.27383548777396
 42
0.079061
 10
8.030835818959353
 20
4.267758487773959
 42
0.088213
 10
8.034703818959354
 20
4.263327487773959
 42
0.105245
 10
8.039790818959354
 20
4.260759487773959
 42
0.121551
 10
8.044740818959355
 20
4.260680487773959
 42
0.121551
 10
8.049160818959354
 20
4.262914487773959
 42
0.105245
 10
8.052614818959354
 20
4.26744648777396
 42
0.088213
 10
8.054157818959354
 20
4.273122487773959
 42
0.079061
 10
8.053710818959354
 20
4.27966048777396
 42
0.079061
 10
8.051256818959354
 20
4.285736487773959
 42
0.088213
 10
8.047388818959353
 20
4.290168487773959
 42
0.105245
 10
8.042302818959355
 20
4.292736487773959
 42
0.121551
  0
ARC
  5
713
330
18
100
AcDbEntity
  8
0
100
AcDbCircle
 10
8.037757818959355
 20
4.493028423814552
 30
0.0
 40
0.029136
100
AcDbArc
 50
131.896629
 51
180.0
  0
LINE
  5
714
330
18
100
AcDbEntity
  8
0
100
AcDbLine
 10
8.177395818959356
 20
4.43715642648236
 30
0.0
 11
8.177395818959354
 21
4.365821015078466
 31
0.0
  0
LWPOLYLINE
  5
715
330
18
100
AcDbEntity
  8
0
100
AcDbPolyline
 90
       16
 70
     1
 43
0.0
 10
8.118397818959354
 20
4.24328848777396
 42
0.121551
 10
8.113978818959353
 20
4.241054487773959
 42
0.105245
 10
8.110524818959354
 20
4.236522487773959
 42
0.088213
 10
8.108980818959354
 20
4.23084648777396
 42
0.079061
 10
8.109427818959354
 20
4.224308487773959
 42
0.079061
 10
8.111881818959354
 20
4.218232487773959
 42
0.088213
 10
8.115749818959355
 20
4.21380048777396
 42
0.105245
 10
8.120836818959354
 20
4.21123248777396
 42
0.121551
 10
8.125787818959354
 20
4.211154487773959
 42
0.121551
 10
8.130206818959355
 20
4.213387487773959
 42
0.105245
 10
8.133660818959354
 20
4.217919487773959
 42
0.088213
 10
8.135204818959354
 20
4.223595487773959
 42
0.079061
 10
8.134757818959354
 20
4.230133487773959
 42
0.079061
 10
8.132303818959354
 20
4.23620948777396
 42
0.088213
 10
8.128435818959353
 20
4.240641487773959
 42
0.105245
 10
8.123348818959354
 20
4.243209487773959
 42
0.121551
  0
LINE
  5
728
330
18
100
AcDbEntity
  8
0
100
AcDbLine
 10
8.169132818959355
 20
4.419235423814552
 30
0.0
 11
8.169132818959351
 21
4.360839373486158
 31
0.0
  0
LINE
  5
729
330
18
100
AcDbEntity
  8
0
100
AcDbLine
 10
8.177395818959354
 20
4.11038935800132
 30
0.0
 11
8.169132818959355
 21
4.09878135800132
 31
0.0
  0
LWPOLYLINE
  5
72A
330
18
100
AcDbEntity
  8
0
100
AcDbPolyline
 90
       16
 70
     1
 43
0.0
 10
8.118397818959354
 20
4.157429487773959
 42
0.121551
 10
8.113978818959353
 20
4.15519648777396
 42
0.105245
 10
8.110524818959354
 20
4.15066448777396
 42
0.088213
 10
8.108980818959354
 20
4.14498848777396
 42
0.079061
 10
8.109427818959354
 20
4.13845048777396
 42
0.079061
 10
8.111881818959354
 20
4.132373487773959
 42
0.088213
 10
8.115749818959355
 20
4.12794248777396
 42
0.105245
 10
8.120836818959354
 20
4.12537448777396
 42
0.121551
 10
8.125787818959354
 20
4.125295487773959
 42
0.121551
 10
8.130206818959355
 20
4.127529487773959
 42
0.105245
 10
8.133660818959354
 20
4.132061487773959
 42
0.088213
 10
8.135204818959354
 20
4.137737487773959
 42
0.079061
 10
8.134757818959354
 20
4.144275487773959
 42
0.079061
 10
8.132303818959354
 20
4.15035148777396
 42
0.088213
 10
8.128435818959353
 20
4.154783487773959
 42
0.105245
 10
8.123348818959354
 20
4.157351487773959
 42
0.121551
  0
ARC
  5
73D
330
18
100
AcDbEntity
  8
0
100
AcDbCircle
 10
8.199132818959354
 20
4.419235423814552
 30
0.0
 40
0.03
100
AcDbArc
 50
143.92497
 51
180.0
  0
LWPOLYLINE
  5
73E
330
18
100
AcDbEntity
  8
0
100
AcDbPolyline
 90
       16
 70
     1
 43
0.0
 10
8.084828613223701
 20
4.418386362060724
 42
0.113259
 10
8.089783613223702
 20
4.415564362060723
 42
0.103432
 10
8.095991613223703
 20
4.415029362060723
 42
0.092016
 10
8.102064613223702
 20
4.416932362060724
 42
0.085303
 10
8.107492613223702
 20
4.421122362060723
 42
0.085303
 10
8.111209613223702
 20
4.426884362060724
 42
0.092016
 10
8.112594613223703
 20
4.433096362060724
 42
0.103432
 10
8.111538613223702
 20
4.439236362060724
 42
0.113259
 10
8.108308613223702
 20
4.443936362060724
 42
0.113259
 10
8.103353613223701
 20
4.446757362060724
 42
0.103432
 10
8.097146613223702
 20
4.447292362060724
 42
0.092016
 10
8.091073613223703
 20
4.445389362060723
 42
0.085303
 10
8.085645613223703
 20
4.441199362060723
 42
0.085303
 10
8.081927613223703
 20
4.435437362060724
 42
0.092016
 10
8.080543613223702
 20
4.429225362060723
 42
0.103432
 10
8.081599613223702
 20
4.423085362060723
 42
0.113259
  0
LINE
  5
751
330
18
100
AcDbEntity
  8
0
100
AcDbLine
 10
8.206246818959354
 20
4.38625248777396
 30
0.0
 11
8.206246818959354
 21
4.256692487773959
 31
0.0
  0
LINE
  5
752
330
18
100
AcDbEntity
  8
0
100
AcDbLine
 10
8.141262955859205
 20
4.08605681462485
 30
0.0
 11
8.169132818959355
 21
4.098781358001319
 31
0.0
  0
LINE
  5
753
330
18
100
AcDbEntity
  8
0
100
AcDbLine
 10
8.008621818959353
 20
4.1572035096622
 30
0.0
 11
8.026418155480149
 21
4.131510058537605
 31
0.0
  0
LINE
  5
754
330
18
100
AcDbEntity
  8
0
100
AcDbLine
 10
8.008621818959353
 20
4.373142336124896
 30
0.0
 11
8.026295415899666
 21
4.366089242855457
 31
0.0
  0
LINE
  5
755
330
18
100
AcDbEntity
  8
0
100
AcDbLine
 10
8.169132818959353
 20
4.309086385454853
 30
0.0
 11
8.169132818959355
 21
4.09878135800132
 31
0.0
  0
LINE
  5
756
330
18
100
AcDbEntity
  8
0
100
AcDbLine
 10
8.177395818959356
 20
4.314295097699514
 30
0.0
 11
8.177395818959354
 21
4.110389358001321
 31
0.0
  0
LINE
  5
757
330
18
100
AcDbEntity
  8
0
100
AcDbLine
 10
8.008621818959353
 20
4.373142336124896
 30
0.0
 11
8.008621818959353
 21
4.1572035096622
 31
0.0
  0
LINE
  5
758
330
18
100
AcDbEntity
  8
0
100
AcDbLine
 10
8.16227209360982
 20
4.363577318452861
 30
0.0
 11
8.16227209360982
 21
4.321205972575808
 31
0.0
  0
LINE
  5
759
330
18
100
AcDbEntity
  8
0
100
AcDbLine
 10
8.026295415899666
 20
4.417842230886762
 30
0.0
 11
8.026295415899666
 21
4.366089242855457
 31
0.0
  0
LINE
  5
75A
330
18
100
AcDbEntity
  8
0
100
AcDbLine
 10
8.153158756323544
 20
4.367214224855843
 30
0.0
 11
8.153158756323542
 21
4.315461236824538
 31
0.0
  0
LINE
  5
75B
330
18
100
AcDbEntity
  8
0
100
AcDbLine
 10
8.008621818959353
 20
4.424895324156201
 30
0.0
 11
8.026295415899666
 21
4.417842230886762
 31
0.0
  0
LINE
  5
75C
330
18
100
AcDbEntity
  8
0
100
AcDbLine
 10
8.169132818959353
 20
4.309086385454853
 30
0.0
 11
8.177395818959356
 21
4.314295097699515
 31
0.0
  0
LINE
  5
75D
330
18
100
AcDbEntity
  8
0
100
AcDbLine
 10
8.177395818959356
 20
4.314295097699514
 30
0.0
 11
8.16227209360982
 21
4.321205972575808
 31
0.0
  0
LINE
  5
75E
330
18
100
AcDbEntity
  8
0
100
AcDbLine
 10
8.153158756323544
 20
4.315461236824539
 30
0.0
 11
8.16227209360982
 21
4.321205972575808
 31
0.0
  0
LINE
  5
75F
330
18
100
AcDbEntity
  8
0
100
AcDbLine
 10
8.008621818959353
 20
4.373142336124896
 30
0.0
 11
8.017735156245628
 21
4.378887071876165
 31
0.0
  0
LINE
  5
760
330
18
100
AcDbEntity
  8
0
100
AcDbLine
 10
8.026295415899666
 20
4.374975411090851
 30
0.0
 11
8.017735156245628
 21
4.378887071876165
 31
0.0
  0
LINE
  5
761
330
18
100
AcDbEntity
  8
0
100
AcDbLine
 10
8.169132818959351
 20
4.360839373486158
 30
0.0
 11
8.177395818959354
 21
4.365821015078466
 31
0.0
  0
LINE
  5
762
330
18
100
AcDbEntity
  8
0
100
AcDbLine
 10
8.153158756323542
 20
4.315461236824539
 30
0.0
 11
8.169132818959353
 21
4.309086385454853
 31
0.0
  0
LINE
  5
763
330
18
100
AcDbEntity
  8
0
100
AcDbLine
 10
8.153158756323544
 20
4.367214224855843
 30
0.0
 11
8.169132818959351
 21
4.360839373486158
 31
0.0
  0
LINE
  5
764
330
18
100
AcDbEntity
  8
0
100
AcDbLine
 10
7.90445
 20
4.157168
 30
0.0
 11
7.603511050485398
 21
4.279218761079244
 31
0.0
  0
LINE
  5
765
330
18
100
AcDbEntity
  8
0
100
AcDbLine
 10
8.177395818959356
 20
4.267863651309016
 30
0.0
 11
8.206246818959354
 21
4.256692487773961
 31
0.0
  0
LINE
  5
766
330
18
100
AcDbEntity
  8
0
100
AcDbLine
 10
8.201382349091176
 20
4.648085500611123
 30
0.0
 11
8.201382349091176
 21
4.530263746970311
 31
0.0
  0
POINT
  5
767
330
18
100
AcDbEntity
  8
0
100
AcDbPoint
 10
8.609734659028915
 20
5.033654173627792
 30
0.0
  0
LINE
  5
768
330
18
100
AcDbEntity
  8
0
100
AcDbLine
 10
8.240821643692158
 20
4.979312318328476
 30
0.0
 11
8.240821643692158
 21
4.874763971943777
 31
0.0
  0
LINE
  5
769
330
18
100
AcDbEntity
  8
0
100
AcDbLine
 10
8.232558643692155
 20
4.984521030573137
 30
0.0
 11
8.232558643692155
 21
4.852664774477343
 31
0.0
  0
LINE
  5
76A
330
18
100
AcDbEntity
  8
0
100
AcDbLine
 10
8.401332643692157
 20
5.04336826899852
 30
0.0
 11
8.401332643692157
 21
4.957144625349743
 31
0.0
  0
LWPOLYLINE
  5
76B
330
18
100
AcDbEntity
  8
0
100
AcDbPolyline
 90
       16
 70
     1
 43
0.0
 10
8.342928463206068
 20
5.192137629614532
 42
-0.121551
 10
8.347347463206068
 20
5.189903629614531
 42
-0.105245
 10
8.350801463206068
 20
5.185372629614531
 42
-0.088213
 10
8.352345463206069
 20
5.179695629614532
 42
-0.079061
 10
8.351898463206069
 20
5.173157629614531
 42
-0.079061
 10
8.349444463206069
 20
5.167081629614532
 42
-0.088213
 10
8.345576463206069
 20
5.162649629614531
 42
-0.105245
 10
8.340489463206069
 20
5.160082629614531
 42
-0.121551
 10
8.335539463206068
 20
5.160003629614531
 42
-0.121551
 10
8.331119463206068
 20
5.162236629614531
 42
-0.105245
 10
8.327665463206069
 20
5.166768629614531
 42
-0.088213
 10
8.326122463206069
 20
5.172444629614532
 42
-0.079061
 10
8.326569463206068
 20
5.178982629614532
 42
-0.079061
 10
8.329023463206069
 20
5.185059629614532
 42
-0.088213
 10
8.332891463206069
 20
5.189490629614531
 42
-0.105245
 10
8.337977463206068
 20
5.192058629614532
 42
-0.121551
  0
LWPOLYLINE
  5
77E
330
18
100
AcDbEntity
  8
0
100
AcDbPolyline
 90
       16
 70
     1
 43
0.0
 10
8.287925090444324
 20
5.098635069047976
 42
-0.121551
 10
8.292344090444324
 20
5.096401069047976
 42
-0.105245
 10
8.295798090444324
 20
5.091869069047975
 42
-0.088213
 10
8.297342090444323
 20
5.086193069047976
 42
-0.079061
 10
8.296895090444323
 20
5.079655069047975
 42
-0.079061
 10
8.294441090444323
 20
5.073579069047976
 42
-0.088213
 10
8.290573090444322
 20
5.069147069047976
 42
-0.105245
 10
8.285486090444323
 20
5.066579069047976
 42
-0.121551
 10
8.280535090444323
 20
5.066501069047975
 42
-0.121551
 10
8.276116090444322
 20
5.068734069047975
 42
-0.105245
 10
8.272662090444323
 20
5.073266069047976
 42
-0.088213
 10
8.271118090444324
 20
5.078942069047976
 42
-0.079061
 10
8.271565090444323
 20
5.085480069047976
 42
-0.079061
 10
8.274019090444323
 20
5.091556069047976
 42
-0.088213
 10
8.277887090444324
 20
5.095988069047976
 42
-0.105245
 10
8.282974090444323
 20
5.098556069047976
 42
-0.121551
  0
LWPOLYLINE
  5
791
330
18
100
AcDbEntity
  8
0
100
AcDbPolyline
 90
       16
 70
     1
 43
0.0
 10
8.331503840917138
 20
4.954698980291885
 42
-0.121551
 10
8.335922840917139
 20
4.952465980291886
 42
-0.105245
 10
8.339376840917138
 20
4.947933980291886
 42
-0.088213
 10
8.340920840917137
 20
4.942257980291886
 42
-0.079061
 10
8.340473840917138
 20
4.935719980291886
 42
-0.079061
 10
8.338019840917138
 20
4.929642980291885
 42
-0.088213
 10
8.334151840917137
 20
4.925211980291886
 42
-0.105245
 10
8.329064840917138
 20
4.922643980291886
 42
-0.121551
 10
8.324113840917137
 20
4.922564980291885
 42
-0.121551
 10
8.319694840917137
 20
4.924798980291885
 42
-0.105245
 10
8.316240840917137
 20
4.929330980291885
 42
-0.088213
 10
8.314696840917138
 20
4.935006980291885
 42
-0.079061
 10
8.315143840917138
 20
4.941544980291885
 42
-0.079061
 10
8.317597840917138
 20
4.947620980291886
 42
-0.088213
 10
8.321465840917139
 20
4.952052980291885
 42
-0.105245
 10
8.326552840917138
 20
4.954620980291885
 42
-0.121551
  0
LWPOLYLINE
  5
7A4
330
18
100
AcDbEntity
  8
0
100
AcDbPolyline
 90
       16
 70
     1
 43
0.0
 10
8.288810205450663
 20
5.164838453020689
 42
-0.113259
 10
8.283855205450662
 20
5.162016453020689
 42
-0.103432
 10
8.277647205450661
 20
5.161481453020689
 42
-0.092016
 10
8.271574205450662
 20
5.163384453020689
 42
-0.085303
 10
8.266146205450662
 20
5.167574453020689
 42
-0.085303
 10
8.262429205450662
 20
5.173336453020689
 42
-0.092016
 10
8.261044205450661
 20
5.179548453020689
 42
-0.103432
 10
8.262100205450661
 20
5.185688453020689
 42
-0.113259
 10
8.265330205450661
 20
5.190388453020689
 42
-0.113259
 10
8.270285205450662
 20
5.193209453020689
 42
-0.103432
 10
8.276492205450662
 20
5.193744453020689
 42
-0.092016
 10
8.282565205450661
 20
5.191841453020689
 42
-0.085303
 10
8.287993205450661
 20
5.187651453020688
 42
-0.085303
 10
8.29171120545066
 20
5.181889453020689
 42
-0.092016
 10
8.293095205450662
 20
5.175677453020689
 42
-0.103432
 10
8.292039205450662
 20
5.169537453020689
 42
-0.113259
  0
LINE
  5
7B7
330
18
100
AcDbEntity
  8
0
100
AcDbLine
 10
8.401332643692157
 20
5.266496449541661
 30
0.0
 11
8.401332643692157
 21
5.095121257029824
 31
0.0
  0
LINE
  5
7B8
330
18
100
AcDbEntity
  8
0
100
AcDbLine
 10
8.383659046751845
 20
5.088068163760385
 30
0.0
 11
8.383659046751845
 21
5.03631517572908
 31
0.0
  0
LINE
  5
7B9
330
18
100
AcDbEntity
  8
0
100
AcDbLine
 10
8.401332643692157
 20
5.095121257029824
 30
0.0
 11
8.383659046751845
 21
5.088068163760385
 31
0.0
  0
LINE
  5
7BA
330
18
100
AcDbEntity
  8
0
100
AcDbLine
 10
8.401332643692157
 20
5.04336826899852
 30
0.0
 11
8.383659046751845
 21
5.03631517572908
 31
0.0
  0
LINE
  5
7BB
330
18
100
AcDbEntity
  8
0
100
AcDbLine
 10
8.401332643692157
 20
5.04336826899852
 30
0.0
 11
8.392219306405883
 21
5.049113004749788
 31
0.0
  0
LINE
  5
7BC
330
18
100
AcDbEntity
  8
0
100
AcDbLine
 10
8.383659046751845
 20
5.045201343964474
 30
0.0
 11
8.392219306405883
 21
5.049113004749788
 31
0.0
  0
LWPOLYLINE
  5
7BD
330
18
100
AcDbEntity
  8
0
100
AcDbPolyline
 90
       16
 70
     1
 43
0.0
 10
8.37623419693999
 20
5.144531225448911
 42
-0.121551
 10
8.38065319693999
 20
5.142298225448911
 42
-0.105245
 10
8.38410719693999
 20
5.13776622544891
 42
-0.088213
 10
8.385651196939991
 20
5.13209022544891
 42
-0.079061
 10
8.385204196939991
 20
5.125552225448911
 42
-0.079061
 10
8.382750196939991
 20
5.11947522544891
 42
-0.088213
 10
8.378882196939991
 20
5.11504422544891
 42
-0.105245
 10
8.373795196939991
 20
5.11247622544891
 42
-0.121551
 10
8.36884519693999
 20
5.11239722544891
 42
-0.121551
 10
8.36442519693999
 20
5.11463122544891
 42
-0.105245
 10
8.360971196939991
 20
5.119163225448911
 42
-0.088213
 10
8.359428196939991
 20
5.12483922544891
 42
-0.079061
 10
8.35987519693999
 20
5.131377225448911
 42
-0.079061
 10
8.36232919693999
 20
5.13745322544891
 42
-0.088213
 10
8.366197196939991
 20
5.14188522544891
 42
-0.105245
 10
8.37128319693999
 20
5.14445322544891
 42
-0.121551
  0
LINE
  5
7D0
330
18
100
AcDbEntity
  8
0
100
AcDbLine
 10
8.232558643692155
 20
5.205364335930881
 30
0.0
 11
8.232558643692157
 21
5.036046947952089
 31
0.0
  0
LINE
  5
7D1
330
18
100
AcDbEntity
  8
0
100
AcDbLine
 10
8.240821643692149
 20
5.20038269433858
 30
0.0
 11
8.232558643692146
 21
5.205364335930888
 31
0.0
  0
LINE
  5
7D2
330
18
100
AcDbEntity
  8
0
100
AcDbLine
 10
8.232558643692155
 20
4.984521030573137
 30
0.0
 11
8.247682369041691
 21
4.991431905449431
 31
0.0
  0
LINE
  5
7D3
330
18
100
AcDbEntity
  8
0
100
AcDbLine
 10
8.240821643692158
 20
4.979312318328476
 30
0.0
 11
8.232558643692155
 21
4.984521030573138
 31
0.0
  0
LINE
  5
7D4
330
18
100
AcDbEntity
  8
0
100
AcDbLine
 10
8.256795706327967
 20
5.037440157729466
 30
0.0
 11
8.24082164369216
 21
5.031065306359781
 31
0.0
  0
LINE
  5
7D5
330
18
100
AcDbEntity
  8
0
100
AcDbLine
 10
8.247682369041691
 20
5.033803251326484
 30
0.0
 11
8.247682369041691
 21
4.991431905449431
 31
0.0
  0
LINE
  5
7D6
330
18
100
AcDbEntity
  8
0
100
AcDbLine
 10
8.256795706327967
 20
5.037440157729466
 30
0.0
 11
8.256795706327969
 21
4.985687169698161
 31
0.0
  0
LINE
  5
7D7
330
18
100
AcDbEntity
  8
0
100
AcDbLine
 10
8.256795706327969
 20
4.985687169698162
 30
0.0
 11
8.240821643692158
 21
4.979312318328476
 31
0.0
  0
LINE
  5
7D8
330
18
100
AcDbEntity
  8
0
100
AcDbLine
 10
8.256795706327967
 20
4.985687169698162
 30
0.0
 11
8.247682369041691
 21
4.991431905449431
 31
0.0
  0
LINE
  5
7D9
330
18
100
AcDbEntity
  8
0
100
AcDbLine
 10
8.240821643692149
 20
5.20038269433858
 30
0.0
 11
8.24082164369216
 21
5.031065306359781
 31
0.0
  0
LINE
  5
7DA
330
18
100
AcDbEntity
  8
0
100
AcDbLine
 10
8.261242825986301
 20
5.222876843227883
 30
0.0
 11
8.387294799010379
 21
5.272765658887253
 31
0.0
  0
LINE
  5
7DB
330
18
100
AcDbEntity
  8
0
100
AcDbLine
 10
8.255513265433246
 20
5.230649095241314
 30
0.0
 11
8.375376214338049
 21
5.278088420615125
 31
0.0
  0
LINE
  5
7DC
330
18
100
AcDbEntity
  8
0
100
AcDbLine
 10
8.240821643692151
 20
5.200382694338581
 30
0.0
 11
8.261242825986301
 21
5.222876843227883
 31
0.0
  0
LINE
  5
7DD
330
18
100
AcDbEntity
  8
0
100
AcDbLine
 10
8.375376214338049
 20
5.278088420615125
 30
0.0
 11
8.401332643692157
 21
5.266496449541661
 31
0.0
  0
LINE
  5
7DE
330
18
100
AcDbEntity
  8
0
100
AcDbLine
 10
8.232558643692146
 20
5.205364335930888
 30
0.0
 11
8.255513265433246
 21
5.230649095241315
 31
0.0
  0
LINE
  5
7DF
330
18
100
AcDbEntity
  8
0
100
AcDbLine
 10
8.261242825986301
 20
5.222876843227883
 30
0.0
 11
8.255513265433246
 21
5.230649095241314
 31
0.0
  0
LINE
  5
7E0
330
18
100
AcDbEntity
  8
0
100
AcDbLine
 10
8.232558643692157
 20
5.036046947952089
 30
0.0
 11
8.24082164369216
 21
5.031065306359781
 31
0.0
  0
LINE
  5
7E1
330
18
100
AcDbEntity
  8
0
100
AcDbLine
 10
8.174885421437363
 20
4.43690074898593
 30
0.0
 11
8.213896489232601
 21
4.440873925369171
 31
0.0
  0
LINE
  5
7E2
330
18
100
AcDbEntity
  8
0
100
AcDbLine
 10
8.222314635466448
 20
4.447498443341501
 30
0.0
 11
8.400764022547971
 21
4.953820607768847
 31
0.0
  0
ARC
  5
7E3
330
18
100
AcDbEntity
  8
0
100
AcDbCircle
 10
8.212883256610635
 20
4.450822460922397
 30
0.0
 40
0.01
100
AcDbArc
 50
275.8153748857334
 51
340.5853825759782
  0
ARC
  5
7E4
330
18
100
AcDbEntity
  8
0
100
AcDbCircle
 10
8.391332643692158
 20
4.957144625349743
 30
0.0
 40
0.01
100
AcDbArc
 50
340.5853825759781
 51
0.0
  0
LINE
  5
7E5
330
18
100
AcDbEntity
  8
0
100
AcDbLine
 10
8.018301125569069
 20
4.514715829798589
 30
0.0
 11
8.219512884549255
 21
4.820889024680469
 31
0.0
  0
LINE
  5
7E6
330
18
100
AcDbEntity
  8
0
100
AcDbLine
 10
8.219512884549255
 20
4.820889024680469
 30
0.0
 11
8.240072352858597
 21
4.87096602777384
 31
0.0
  0
ARC
  5
7E7
330
18
100
AcDbEntity
  8
0
100
AcDbCircle
 10
8.230821643692158
 20
4.874763971943777
 30
0.0
 40
0.01
100
AcDbArc
 50
337.6790510428222
 51
359.9999999999995
  0
LINE
  5
7E8
330
18
100
AcDbEntity
  8
0
100
AcDbLine
 10
8.476824830004764
 20
6.556150946503383
 30
0.0
 11
8.433813387784321
 21
6.546095079580137
 31
0.0
  0
LINE
  5
7E9
330
18
100
AcDbEntity
  8
0
100
AcDbLine
 10
7.995592818959354
 20
4.711602317782176
 30
0.0
 11
6.701156932148599
 21
5.191217206850837
 31
0.0
  0
LINE
  5
7EA
330
18
100
AcDbEntity
  8
0
100
AcDbLine
 10
8.201382349091176
 20
4.764484938328191
 30
0.0
 11
8.201382349091176
 21
4.666829862061647
 31
0.0
  0
LINE
  5
7EB
330
18
100
AcDbEntity
  8
0
100
AcDbLine
 10
8.206246818959354
 20
4.442370539752749
 30
0.0
 11
8.206246818959354
 21
2.124684581810435
 31
0.0
  0
LINE
  5
7EC
330
18
100
AcDbEntity
  8
0
100
AcDbLine
 10
8.646155830004764
 20
4.469264946503382
 30
0.0
 11
8.646155830004762
 21
4.250294537942105
 31
0.0
  0
TEXT
  5
7ED
330
18
100
AcDbEntity
  8
0
100
AcDbText
 10
7.558138230644846
 20
1.58206232731782
 30
0.0
 40
0.2
  1
H8
 41
0.8
100
AcDbText
  0
LWPOLYLINE
  5
7EE
330
18
100
AcDbEntity
  8
0
100
AcDbPolyline
 90
       21
 70
     0
 43
0.0
 10
7.995592818959354
 20
5.96421494143055
 10
7.966435000000001
 20
5.976030000000001
 10
7.915817999999999
 20
5.942996
 10
7.830939999999999
 20
5.948603
 10
7.799867
 20
5.997183000000001
 10
7.791894
 20
6.051324
 10
7.762782000000001
 20
6.097867
 10
7.702364
 20
6.128006
 10
7.62011
 20
6.166558
 10
7.559597999999999
 20
6.1917
 10
7.508986
 20
6.211656
 10
7.443794000000001
 20
6.200893
 10
7.371136999999999
 20
6.218267
 10
7.330972999999999
 20
6.26202
 10
7.303159
 20
6.271545
 10
7.299278999999999
 20
6.330607
 10
7.238956
 20
6.365744
 10
7.1841
 20
6.372782
 10
7.108368
 20
6.386215
 10
7.041935000000001
 20
6.415469
 10
7.005953
 20
6.434711
  0
LWPOLYLINE
  5
806
330
18
100
AcDbEntity
  8
0
100
AcDbPolyline
 90
       14
 70
     0
 43
0.0
 10
6.0893909321486
 20
6.740645509172277
 10
6.066663
 20
6.760886
 10
6.012768
 20
6.765907
 10
5.980748
 20
6.764514
 10
5.951801000000001
 20
6.767061999999999
 10
5.891516
 20
6.804197
 10
5.8453
 20
6.845066
 10
5.813885
 20
6.875655
 10
5.772041000000001
 20
6.883447
 10
5.740001
 20
6.881054
 10
5.707966000000001
 20
6.931652000000001
 10
5.680171
 20
6.942177
 10
5.603554
 20
6.961625
 10
5.556261
 20
6.982123
  0
LWPOLYLINE
  5
817
330
18
100
AcDbEntity
  8
0
100
AcDbPolyline
 90
        6
 70
     0
 43
0.0
 10
7.005953
 20
6.434711
 10
6.979476136344235
 20
6.531164289707096
 10
6.922275948517064
 20
6.599771511445372
 10
6.830755610827323
 20
6.57118515047129
 10
6.762115385434719
 20
6.531164289707096
 10
6.701156932148599
 20
6.576902437532613
  0
LWPOLYLINE
  5
820
330
18
100
AcDbEntity
  8
0
100
AcDbPolyline
 90
       27
 70
     0
 43
0.0
 10
9.579291116840045
 20
4.92017378735294
 10
9.566065
 20
4.916914
 10
9.541552000000001
 20
4.942373
 10
9.573013000000001
 20
5.019762999999999
 10
9.606681
 20
5.108108000000001
 10
9.561330999999999
 20
5.141961
 10
9.504664999999999
 20
5.159032
 10
9.484093
 20
5.181418
 10
9.475230999999999
 20
5.188584
 10
9.475973
 20
5.280553
 10
9.460024000000001
 20
5.335845
 10
9.445449
 20
5.358117
 10
9.372980999999999
 20
5.385485
 10
9.284616999999999
 20
5.418154
 10
9.275849000000001
 20
5.430318
 10
9.269534
 20
5.466431
 10
9.205966999999999
 20
5.488631
 10
9.149964000000001
 20
5.540683000000001
 10
9.102164999999999
 20
5.603577
 10
9.030810000000001
 20
5.636923
 10
8.976673
 20
5.68194
 10
8.922516999999999
 20
5.725959
 10
8.888408
 20
5.772596
 10
8.768794999999999
 20
5.791859
 10
8.679257000000002
 20
5.762562
 10
8.646559
 20
5.778178
 10
8.646155830004764
 20
5.778298266870448
  0
LINE
  5
83E
330
18
100
AcDbEntity
  8
0
100
AcDbLine
 10
9.573495360437484
 20
4.698402758304801
 30
0.0
 11
8.206246818959354
 21
4.037722079212682
 31
0.0
  0
ENDSEC
  0
SECTION
  2
OBJECTS
  0
DICTIONARY
  5
C
330
0
100
AcDbDictionary
281
     1
  3
ACAD_COLOR
350
844
  3
ACAD_GROUP
350
D
  3
ACAD_LAYOUT
350
15
  3
ACAD_MATERIAL
350
846
  3
ACAD_MLINESTYLE
350
12
  3
ACAD_PLOTSETTINGS
350
14
  3
ACAD_PLOTSTYLENAME
350
E
  3
ACDBHEADERROUNDTRIPXREC
350
843
  0
DICTIONARY
  5
844
102
{ACAD_REACTORS
330
C
102
}
330
C
100
AcDbDictionary
281
     1
  0
DICTIONARY
  5
D
102
{ACAD_REACTORS
330
C
102
}
330
C
100
AcDbDictionary
281
     1
  0
DICTIONARY
  5
15
102
{ACAD_REACTORS
330
C
102
}
330
C
100
AcDbDictionary
281
     1
  3
Layout1
350
17
  3
Model
350
19
  0
DICTIONARY
  5
846
102
{ACAD_REACTORS
330
C
102
}
330
C
100
AcDbDictionary
281
     1
  0
DICTIONARY
  5
12
102
{ACAD_REACTORS
330
C
102
}
330
C
100
AcDbDictionary
281
     1
  3
Standard
350
13
  0
DICTIONARY
  5
14
102
{ACAD_REACTORS
330
C
102
}
330
C
100
AcDbDictionary
281
     1
  0
ACDBDICTIONARYWDFLT
  5
E
102
{ACAD_REACTORS
330
C
102
}
330
C
100
AcDbDictionary
281
     1
  3
Normal
350
F
100
AcDbDictionaryWithDefault
340
F
  0
DICTIONARY
  5
843
102
{ACAD_REACTORS
330
C
102
}
330
C
100
AcDbDictionary
281
     1
  3
COLORDICT
350
845
  3
MATERIALDICT
350
847
  0
LAYOUT
  5
17
102
{ACAD_REACTORS
330
15
102
}
102
{ACAD_XDICTIONARY
360
848
102
}
330
15
100
AcDbPlotSettings
  1

  2

  4

  6

 40
0.0
 41
0.0
 42
0.0
 43
0.0
 44
0.0
 45
0.0
 46
0.0
 47
0.0
 48
0.0
 49
0.0
140
0.0
141
0.0
142
1.0
143
1.0
 70
   688
 72
     0
 73
     0
 74
     5
  7

 75
    16
147
1.0
148
0.0
149
0.0
100
AcDbLayout
  1
Layout1
 70
     1
 71
     1
 10
0.0
 20
0.0
 11
12.0
 21
9.0
 12
0.0
 22
0.0
 32
0.0
 14
1.000000000000000E+20
 24
1.000000000000000E+20
 34
1.000000000000000E+20
 15
-1.000000000000000E+20
 25
-1.000000000000000E+20
 35
-1.000000000000000E+20
146
0.0
 13
0.0
 23
0.0
 33
0.0
 16
1.0
 26
0.0
 36
0.0
 17
0.0
 27
1.0
 37
0.0
 76
     0
330
16
  0
LAYOUT
  5
19
102
{ACAD_REACTORS
330
15
102
}
102
{ACAD_XDICTIONARY
360
84A
102
}
330
15
100
AcDbPlotSettings
  1

  2

  4

  6

 40
0.0
 41
0.0
 42
0.0
 43
0.0
 44
0.0
 45
0.0
 46
0.0
 47
0.0
 48
0.0
 49
0.0
140
0.0
141
0.0
142
1.0
143
1.0
 70
  1712
 72
     0
 73
     0
 74
     0
  7

 75
     0
147
1.0
148
0.0
149
0.0
100
AcDbLayout
  1
Model
 70
     1
 71
     0
 10
0.0
 20
0.0
 11
0.0
 21
0.0
 12
0.0
 22
0.0
 32
0.0
 14
0.0
 24
0.0
 34
0.0
 15
0.0
 25
0.0
 35
0.0
146
0.0
 13
0.0
 23
0.0
 33
0.0
 16
1.0
 26
0.0
 36
0.0
 17
0.0
 27
1.0
 37
0.0
 76
     0
330
18
  0
MLINESTYLE
  5
13
102
{ACAD_REACTORS
330
12
102
}
330
12
100
AcDbMlineStyle
  2
Standard
 70
     0
  3

 62
   256
 51
90.0
 52
90.0
 71
     2
 49
0.5
 62
   256
  6
BYLAYER
 49
-0.5
 62
   256
  6
BYLAYER
  0
ACDBPLACEHOLDER
  5
F
102
{ACAD_REACTORS
330
E
102
}
330
E
  0
XRECORD
  5
845
102
{ACAD_REACTORS
330
843
102
}
330
843
100
AcDbXrecord
340
844
  0
XRECORD
  5
847
102
{ACAD_REACTORS
330
843
102
}
330
843
100
AcDbXrecord
340
846
  0
DICTIONARY
  5
848
330
17
100
AcDbDictionary
280
     1
281
     1
  3
ACAD_XREC_ROUNDTRIP
360
849
  0
DICTIONARY
  5
84A
330
19
100
AcDbDictionary
280
     1
281
     1
  3
ACAD_XREC_ROUNDTRIP
360
84B
  0
XRECORD
  5
849
102
{ACAD_REACTORS
330
848
102
}
330
848
100
AcDbXrecord
102
SHADEPLOT
 70
     0
102
SHADEPLOTRESLEVEL
 70
     0
102
SHADEPLOTCUSTOMDPI
 70
     0
  0
XRECORD
  5
84B
102
{ACAD_REACTORS
330
84A
102
}
330
84A
100
AcDbXrecord
102
SHADEPLOT
 70
-29024
102
SHADEPLOTRESLEVEL
 70
-28968
102
SHADEPLOTCUSTOMDPI
 70
-28464
  0
ENDSEC
  0
EOF
