  0
SECTION
  2
HEADER
  9
$ACADVER
  1
AC1015
  9
$ACADMAINTVER
 70
     6
  9
$DWGCODEPAGE
  3
ISO8859-1
  9
$INSBASE
 10
0.0
 20
0.0
 30
0.0
  9
$EXTMIN
 10
0.254051
 20
1.98983066666666
 30
0.0
  9
$EXTMAX
 10
9.33033
 20
8.551283
 30
0.0
  9
$LIMMIN
 10
0.0
 20
0.0
  9
$LIMMAX
 10
8.5
 20
11.0
  9
$ORTHOMODE
 70
     0
  9
$REGENMODE
 70
     0
  9
$FILLMODE
 70
     1
  9
$QTEXTMODE
 70
     0
  9
$MIRRTEXT
 70
     1
  9
$LTSCALE
 40
0.5
  9
$ATTMODE
 70
     1
  9
$TEXTSIZE
 40
0.22
  9
$TRACEWID
 40
0.05
  9
$TEXTSTYLE
  7
STANDARD
  9
$CLAYER
  8
0
  9
$CELTYPE
  6
ByLayer
  9
$CECOLOR
 62
   256
  9
$CELTSCALE
 40
1.0
  9
$DISPSILH
 70
     0
  9
$DIMSCALE
 40
1.0
  9
$DIMASZ
 40
0.2
  9
$DIMEXO
 40
0.0625
  9
$DIMDLI
 40
0.38
  9
$DIMRND
 40
0.0
  9
$DIMDLE
 40
0.0
  9
$DIMEXE
 40
0.075
  9
$DIMTP
 40
0.0
  9
$DIMTM
 40
0.0
  9
$DIMTXT
 40
0.1
  9
$DIMCEN
 40
0.09
  9
$DIMTSZ
 40
0.0
  9
$DIMTOL
 70
     0
  9
$DIMLIM
 70
     0
  9
$DIMTIH
 70
     0
  9
$DIMTOH
 70
     0
  9
$DIMSE1
 70
     0
  9
$DIMSE2
 70
     0
  9
$DIMTAD
 70
     1
  9
$DIMZIN
 70
     0
  9
$DIMBLK
  1

  9
$DIMASO
 70
     0
  9
$DIMSHO
 70
     1
  9
$DIMPOST
  1

  9
$DIMAPOST
  1

  9
$DIMALT
 70
     0
  9
$DIMALTD
 70
     2
  9
$DIMALTF
 40
25.4
  9
$DIMLFAC
 40
1.0
  9
$DIMTOFL
 70
     0
  9
$DIMTVP
 40
0.0
  9
$DIMTIX
 70
     0
  9
$DIMSOXD
 70
     0
  9
$DIMSAH
 70
     0
  9
$DIMBLK1
  1

  9
$DIMBLK2
  1

  9
$DIMSTYLE
  2
Standard
  9
$DIMCLRD
 70
     0
  9
$DIMCLRE
 70
     0
  9
$DIMCLRT
 70
     0
  9
$DIMTFAC
 40
1.0
  9
$DIMGAP
 40
0.09
  9
$DIMJUST
 70
     0
  9
$DIMSD1
 70
     0
  9
$DIMSD2
 70
     0
  9
$DIMTOLJ
 70
     1
  9
$DIMTZIN
 70
     0
  9
$DIMALTZ
 70
     0
  9
$DIMALTTZ
 70
     0
  9
$DIMUPT
 70
     0
  9
$DIMDEC
 70
     4
  9
$DIMTDEC
 70
     4
  9
$DIMALTU
 70
     2
  9
$DIMALTTD
 70
     2
  9
$DIMTXSTY
  7
STANDARD
  9
$DIMAUNIT
 70
     0
  9
$DIMADEC
 70
     0
  9
$DIMALTRND
 40
0.0
  9
$DIMAZIN
 70
     0
  9
$DIMDSEP
 70
    46
  9
$DIMATFIT
 70
     3
  9
$DIMFRAC
 70
     0
  9
$DIMLDRBLK
  1

  9
$DIMLUNIT
 70
     2
  9
$DIMLWD
 70
    -2
  9
$DIMLWE
 70
    -2
  9
$DIMTMOVE
 70
     0
  9
$LUNITS
 70
     2
  9
$LUPREC
 70
     4
  9
$SKETCHINC
 40
0.1
  9
$FILLETRAD
 40
0.04
  9
$AUNITS
 70
     0
  9
$AUPREC
 70
     0
  9
$MENU
  1
acad
  9
$ELEVATION
 40
0.0
  9
$PELEVATION
 40
0.0
  9
$THICKNESS
 40
0.0
  9
$LIMCHECK
 70
     0
  9
$CHAMFERA
 40
0.0
  9
$CHAMFERB
 40
0.0
  9
$CHAMFERC
 40
1.0
  9
$CHAMFERD
 40
0.0
  9
$SKPOLY
 70
     0
  9
$TDCREATE
 40
2453955.560978345
  9
$TDUCREATE
 40
2453955.894311678
  9
$TDUPDATE
 40
2453955.602645023
  9
$TDUUPDATE
 40
2453955.89431169
  9
$TDINDWG
 40
0.0000000116
  9
$TDUSRTIMER
 40
0.0000000116
  9
$USRTIMER
 70
     1
  9
$ANGBASE
 50
0.0
  9
$ANGDIR
 70
     0
  9
$PDMODE
 70
     0
  9
$PDSIZE
 40
0.0
  9
$PLINEWID
 40
0.0
  9
$SPLFRAME
 70
     0
  9
$SPLINETYPE
 70
     6
  9
$SPLINESEGS
 70
     8
  9
$HANDSEED
  5
B16
  9
$SURFTAB1
 70
     6
  9
$SURFTAB2
 70
     6
  9
$SURFTYPE
 70
     6
  9
$SURFU
 70
     6
  9
$SURFV
 70
     6
  9
$UCSBASE
  2

  9
$UCSNAME
  2

  9
$UCSORG
 10
0.0
 20
0.0
 30
0.0
  9
$UCSXDIR
 10
1.0
 20
0.0
 30
0.0
  9
$UCSYDIR
 10
0.0
 20
1.0
 30
0.0
  9
$UCSORTHOREF
  2

  9
$UCSORTHOVIEW
 70
     0
  9
$UCSORGTOP
 10
0.0
 20
0.0
 30
0.0
  9
$UCSORGBOTTOM
 10
0.0
 20
0.0
 30
0.0
  9
$UCSORGLEFT
 10
0.0
 20
0.0
 30
0.0
  9
$UCSORGRIGHT
 10
0.0
 20
0.0
 30
0.0
  9
$UCSORGFRONT
 10
0.0
 20
0.0
 30
0.0
  9
$UCSORGBACK
 10
0.0
 20
0.0
 30
0.0
  9
$PUCSBASE
  2

  9
$PUCSNAME
  2

  9
$PUCSORG
 10
0.0
 20
0.0
 30
0.0
  9
$PUCSXDIR
 10
1.0
 20
0.0
 30
0.0
  9
$PUCSYDIR
 10
0.0
 20
1.0
 30
0.0
  9
$PUCSORTHOREF
  2

  9
$PUCSORTHOVIEW
 70
     0
  9
$PUCSORGTOP
 10
0.0
 20
0.0
 30
0.0
  9
$PUCSORGBOTTOM
 10
0.0
 20
0.0
 30
0.0
  9
$PUCSORGLEFT
 10
0.0
 20
0.0
 30
0.0
  9
$PUCSORGRIGHT
 10
0.0
 20
0.0
 30
0.0
  9
$PUCSORGFRONT
 10
0.0
 20
0.0
 30
0.0
  9
$PUCSORGBACK
 10
0.0
 20
0.0
 30
0.0
  9
$USERI1
 70
     0
  9
$USERI2
 70
     0
  9
$USERI3
 70
     0
  9
$USERI4
 70
     0
  9
$USERI5
 70
     0
  9
$USERR1
 40
0.0
  9
$USERR2
 40
0.0
  9
$USERR3
 40
0.0
  9
$USERR4
 40
0.0
  9
$USERR5
 40
0.0
  9
$WORLDVIEW
 70
     1
  9
$SHADEDGE
 70
     3
  9
$SHADEDIF
 70
    70
  9
$TILEMODE
 70
     1
  9
$MAXACTVP
 70
    16
  9
$PINSBASE
 10
0.0
 20
0.0
 30
0.0
  9
$PLIMCHECK
 70
     0
  9
$PEXTMIN
 10
1.000000000000000E+20
 20
1.000000000000000E+20
 30
1.000000000000000E+20
  9
$PEXTMAX
 10
-1.000000000000000E+20
 20
-1.000000000000000E+20
 30
-1.000000000000000E+20
  9
$PLIMMIN
 10
0.0
 20
0.0
  9
$PLIMMAX
 10
12.0
 20
9.0
  9
$UNITMODE
 70
     0
  9
$VISRETAIN
 70
     0
  9
$PLINEGEN
 70
     0
  9
$PSLTSCALE
 70
     1
  9
$TREEDEPTH
 70
  3020
  9
$CMLSTYLE
  2
Standard
  9
$CMLJUST
 70
     0
  9
$CMLSCALE
 40
1.0
  9
$PROXYGRAPHICS
 70
     1
  9
$MEASUREMENT
 70
     0
  9
$CELWEIGHT
370
    -1
  9
$ENDCAPS
280
     0
  9
$JOINSTYLE
280
     0
  9
$LWDISPLAY
290
     0
  9
$INSUNITS
 70
     1
  9
$HYPERLINKBASE
  1

  9
$STYLESHEET
  1

  9
$XEDIT
290
     1
  9
$CEPSNTYPE
380
     0
  9
$PSTYLEMODE
290
     0
  9
$FINGERPRINTGUID
  2
{FAEB1C30-E019-11D5-929B-00C0DF256EC4}
  9
$VERSIONGUID
  2
{FAEB1C32-E019-11D5-929B-00C0DF256EC4}
  9
$EXTNAMES
290
     1
  9
$PSVPSCALE
 40
0.0
  9
$OLESTARTUP
290
     0
  0
ENDSEC
  0
SECTION
  2
CLASSES
  0
CLASS
  1
ACDBDICTIONARYWDFLT
  2
AcDbDictionaryWithDefault
  3
AutoCAD 2000
 90
        0
280
     0
281
     0
  0
CLASS
  1
ACDBPLACEHOLDER
  2
AcDbPlaceHolder
  3
ObjectDBX Classes
 90
        0
280
     0
281
     0
  0
CLASS
  1
LAYOUT
  2
AcDbLayout
  3
ObjectDBX Classes
 90
        0
280
     0
281
     0
  0
ENDSEC
  0
SECTION
  2
TABLES
  0
TABLE
  2
VPORT
  5
8
330
0
100
AcDbSymbolTable
 70
     2
  0
VPORT
  5
1F
330
8
100
AcDbSymbolTableRecord
100
AcDbViewportTableRecord
  2
*ACTIVE
 70
     0
 10
0.0
 20
0.0
 11
1.0
 21
1.0
 12
7.630750605326877
 22
5.5
 13
0.0
 23
0.0
 14
1.0
 24
1.0
 15
0.0
 25
0.0
 16
0.0
 26
0.0
 36
1.0
 17
0.0
 27
0.0
 37
0.0
 40
11.0
 41
0.7207678883071553
 42
50.0
 43
0.0
 44
0.0
 50
0.0
 51
0.0
 71
     0
 72
  2000
 73
     1
 74
     0
 75
     0
 76
     0
 77
     0
 78
     0
281
     0
 65
     1
110
0.0
120
0.0
130
0.0
111
1.0
121
0.0
131
0.0
112
0.0
122
1.0
132
0.0
 79
     0
146
0.0
  0
ENDTAB
  0
TABLE
  2
LTYPE
  5
5
330
0
100
AcDbSymbolTable
 70
     2
  0
LTYPE
  5
10
330
5
100
AcDbSymbolTableRecord
100
AcDbLinetypeTableRecord
  2
ByBlock
 70
     0
  3

 72
    65
 73
     0
 40
0.0
  0
LTYPE
  5
11
330
5
100
AcDbSymbolTableRecord
100
AcDbLinetypeTableRecord
  2
ByLayer
 70
     0
  3

 72
    65
 73
     0
 40
0.0
  0
LTYPE
  5
1B
330
5
100
AcDbSymbolTableRecord
100
AcDbLinetypeTableRecord
  2
CONTINUOUS
 70
     0
  3
Solid line
 72
    65
 73
     0
 40
0.0
  0
LTYPE
  5
1C
330
5
100
AcDbSymbolTableRecord
100
AcDbLinetypeTableRecord
  2
DASHED2
 70
     0
  3
_ _ _ _ _ _ _ _ _ _ _ _ _ _ _ _ _ _ _ _ _ _ _ _
 72
    65
 73
     2
 40
0.375
 49
0.25
 74
     0
 49
-0.125
 74
     0
  0
ENDTAB
  0
TABLE
  2
LAYER
  5
2
330
0
100
AcDbSymbolTable
 70
     1
  0
LAYER
  5
1D
330
2
100
AcDbSymbolTableRecord
100
AcDbLayerTableRecord
  2
0
 70
     0
 62
     7
  6
CONTINUOUS
370
    -3
390
F
  0
ENDTAB
  0
TABLE
  2
STYLE
  5
3
330
0
100
AcDbSymbolTable
 70
     1
  0
STYLE
  5
22
330
3
100
AcDbSymbolTableRecord
100
AcDbTextStyleTableRecord
  2
STANDARD
 70
     0
 40
0.0
 41
1.0
 50
0.0
 71
     0
 42
0.22
  3
ROMANS.SHX
  4

  0
ENDTAB
  0
TABLE
  2
VIEW
  5
6
330
0
100
AcDbSymbolTable
 70
     1
  0
VIEW
  5
21
330
6
100
AcDbSymbolTableRecord
100
AcDbViewTableRecord
  2
1
 70
     0
 40
11.0
 10
7.225941000000001
 20
5.5
 41
14.451883
 11
0.0
 21
0.0
 31
1.0
 12
0.0
 22
0.0
 32
0.0
 42
50.0
 43
0.0
 44
0.0
 50
0.0
 71
     0
281
     0
 72
     0
  0
ENDTAB
  0
TABLE
  2
UCS
  5
7
330
0
100
AcDbSymbolTable
 70
     0
  0
ENDTAB
  0
TABLE
  2
APPID
  5
9
330
0
100
AcDbSymbolTable
 70
     1
  0
APPID
  5
20
330
9
100
AcDbSymbolTableRecord
100
AcDbRegAppTableRecord
  2
ACAD
 70
     0
  0
ENDTAB
  0
TABLE
  2
DIMSTYLE
  5
A
330
0
100
AcDbSymbolTable
 70
     1
100
AcDbDimStyleTable
  0
DIMSTYLE
105
23
330
A
100
AcDbSymbolTableRecord
100
AcDbDimStyleTableRecord
  2
Standard
 70
     0
  3

  4

340
22
  0
ENDTAB
  0
TABLE
  2
BLOCK_RECORD
  5
1
330
0
100
AcDbSymbolTable
 70
     0
  0
BLOCK_RECORD
  5
18
330
1
100
AcDbSymbolTableRecord
100
AcDbBlockTableRecord
  2
*Model_Space
340
19
  0
BLOCK_RECORD
  5
16
330
1
100
AcDbSymbolTableRecord
100
AcDbBlockTableRecord
  2
*Paper_Space
340
17
  0
ENDTAB
  0
ENDSEC
  0
SECTION
  2
BLOCKS
  0
BLOCK
  5
B0B
330
18
100
AcDbEntity
  8
0
100
AcDbBlockBegin
  2
*Model_Space
 70
     0
 10
0.0
 20
0.0
 30
0.0
  3
*Model_Space
  1

  4

  0
ENDBLK
  5
B0C
330
18
100
AcDbEntity
  8
0
100
AcDbBlockEnd
  0
BLOCK
  5
B09
330
16
100
AcDbEntity
 67
     1
  8
0
100
AcDbBlockBegin
  2
*Paper_Space
 70
     0
 10
0.0
 20
0.0
 30
0.0
  3
*Paper_Space
  1

  4

  0
ENDBLK
  5
B0A
330
16
100
AcDbEntity
 67
     1
  8
0
100
AcDbBlockEnd
  0
ENDSEC
  0
SECTION
  2
ENTITIES
  0
LINE
  5
24
330
18
100
AcDbEntity
  8
0
100
AcDbLine
 10
1.677213
 20
8.551283
 30
0.0
 11
2.142513
 21
8.387371
 31
0.0
  0
LINE
  5
25
330
18
100
AcDbEntity
  8
0
100
AcDbLine
 10
0.6370979999999999
 20
8.177878999999999
 30
0.0
 11
1.139139
 21
7.976341000000001
 31
0.0
  0
LINE
  5
26
330
18
100
AcDbEntity
  8
0
100
AcDbLine
 10
0.635413
 20
7.379042999999999
 30
0.0
 11
1.139139
 21
7.150026
 31
0.0
  0
LINE
  5
27
330
18
100
AcDbEntity
  8
0
100
AcDbLine
 10
0.638975
 20
7.311508
 30
0.0
 11
2.01001
 21
6.688533000000001
 31
0.0
  0
LINE
  5
28
330
18
100
AcDbEntity
  8
0
100
AcDbLine
 10
0.719303
 20
6.486219999999999
 30
0.0
 11
2.01001
 21
5.829594
 31
0.0
  0
LINE
  5
29
330
18
100
AcDbEntity
  8
0
100
AcDbLine
 10
0.724607
 20
6.438905
 30
0.0
 11
1.148148
 21
6.220574
 31
0.0
  0
LINE
  5
2A
330
18
100
AcDbEntity
  8
0
100
AcDbLine
 10
1.30624
 20
5.338865
 30
0.0
 11
1.962453
 21
4.968686
 31
0.0
  0
LINE
  5
2B
330
18
100
AcDbEntity
  8
0
100
AcDbLine
 10
1.340232
 20
5.269232
 30
0.0
 11
1.913049
 21
4.941573
 31
0.0
  0
LINE
  5
2C
330
18
100
AcDbEntity
  8
0
100
AcDbLine
 10
1.139139
 20
7.976341000000001
 30
0.0
 11
1.139139
 21
7.150026
 31
0.0
  0
LINE
  5
2D
330
18
100
AcDbEntity
  8
0
100
AcDbLine
 10
1.202202
 20
7.951025
 30
0.0
 11
1.202202
 21
7.121355
 31
0.0
  0
LINE
  5
2E
330
18
100
AcDbEntity
  8
0
100
AcDbLine
 10
2.940941
 20
7.253031
 30
0.0
 11
2.940941
 21
6.330843
 31
0.0
  0
LINE
  5
2F
330
18
100
AcDbEntity
  8
0
100
AcDbLine
 10
2.990991
 20
6.308088
 30
0.0
 11
2.990991
 21
7.232939
 31
0.0
  0
LINE
  5
30
330
18
100
AcDbEntity
  8
0
100
AcDbLine
 10
4.875876
 20
6.476277
 30
0.0
 11
4.875876
 21
5.451132
 31
0.0
  0
LINE
  5
31
330
18
100
AcDbEntity
  8
0
100
AcDbLine
 10
4.950951
 20
6.446139
 30
0.0
 11
4.950951
 21
5.416999
 31
0.0
  0
LINE
  5
32
330
18
100
AcDbEntity
  8
0
100
AcDbLine
 10
6.958958999999999
 20
5.64005
 30
0.0
 11
6.958958999999999
 21
4.504065
 31
0.0
  0
LINE
  5
33
330
18
100
AcDbEntity
  8
0
100
AcDbLine
 10
7.049049
 20
5.603885
 30
0.0
 11
7.049049
 21
4.463106
 31
0.0
  0
LINE
  5
34
330
18
100
AcDbEntity
  8
0
100
AcDbLine
 10
2.01001
 20
6.688533000000001
 30
0.0
 11
2.01001
 21
5.829594
 31
0.0
  0
LINE
  5
35
330
18
100
AcDbEntity
  8
0
100
AcDbLine
 10
2.088088
 20
6.653055
 30
0.0
 11
2.088088
 21
5.789873
 31
0.0
  0
LINE
  5
36
330
18
100
AcDbEntity
  8
0
100
AcDbLine
 10
3.890891
 20
5.833892
 30
0.0
 11
3.890891
 21
4.872726
 31
0.0
  0
LINE
  5
37
330
18
100
AcDbEntity
  8
0
100
AcDbLine
 10
3.95996
 20
5.802508
 30
0.0
 11
3.95996
 21
4.837589
 31
0.0
  0
LINE
  5
38
330
18
100
AcDbEntity
  8
0
100
AcDbLine
 10
5.894895
 20
4.923307
 30
0.0
 11
5.894895
 21
3.853222
 31
0.0
  0
LINE
  5
39
330
18
100
AcDbEntity
  8
0
100
AcDbLine
 10
5.980981
 20
4.884191
 30
0.0
 11
5.980981
 21
3.809427
 31
0.0
  0
LINE
  5
3A
330
18
100
AcDbEntity
  8
0
100
AcDbLine
 10
1.148148
 20
6.220574
 30
0.0
 11
1.148148
 21
5.506598
 31
0.0
  0
LINE
  5
3B
330
18
100
AcDbEntity
  8
0
100
AcDbLine
 10
1.203203
 20
6.192193
 30
0.0
 11
1.203203
 21
5.46194
 31
0.0
  0
LINE
  5
3C
330
18
100
AcDbEntity
  8
0
100
AcDbLine
 10
2.923924
 20
5.30518
 30
0.0
 11
2.923924
 21
4.638416
 31
0.0
  0
LINE
  5
3D
330
18
100
AcDbEntity
  8
0
100
AcDbLine
 10
3.001001
 20
5.265447
 30
0.0
 11
3.001001
 21
4.589295
 31
0.0
  0
LINE
  5
3E
330
18
100
AcDbEntity
  8
0
100
AcDbLine
 10
4.86987
 20
4.302065
 30
0.0
 11
4.86987
 21
3.328571
 31
0.0
  0
LINE
  5
3F
330
18
100
AcDbEntity
  8
0
100
AcDbLine
 10
4.93994
 20
4.265944
 30
0.0
 11
4.93994
 21
3.289043
 31
0.0
  0
LINE
  5
40
330
18
100
AcDbEntity
  8
0
100
AcDbLine
 10
6.956957000000001
 20
3.226193
 30
0.0
 11
6.956957000000001
 21
2.525259
 31
0.0
  0
LINE
  5
41
330
18
100
AcDbEntity
  8
0
100
AcDbLine
 10
7.029029
 20
3.18904
 30
0.0
 11
7.029029
 21
2.515339
 31
0.0
  0
LINE
  5
42
330
18
100
AcDbEntity
  8
0
100
AcDbLine
 10
3.892893
 20
3.809075
 30
0.0
 11
3.892893
 21
3.332059
 31
0.0
  0
LINE
  5
43
330
18
100
AcDbEntity
  8
0
100
AcDbLine
 10
3.961962
 20
3.769567
 30
0.0
 11
3.961962
 21
3.295757
 31
0.0
  0
LINE
  5
44
330
18
100
AcDbEntity
  8
0
100
AcDbLine
 10
1.139139
 20
7.976341000000001
 30
0.0
 11
2.142513
 21
8.387371
 31
0.0
  0
LINE
  5
45
330
18
100
AcDbEntity
  8
0
100
AcDbLine
 10
2.216085
 20
8.361452999999999
 30
0.0
 11
1.202202
 21
7.951025
 31
0.0
  0
LINE
  5
46
330
18
100
AcDbEntity
  8
0
100
AcDbLine
 10
3.961712
 20
7.746516000000001
 30
0.0
 11
2.940941
 21
7.253031
 31
0.0
  0
LINE
  5
47
330
18
100
AcDbEntity
  8
0
100
AcDbLine
 10
4.014805
 20
7.727813
 30
0.0
 11
2.990991
 21
7.232939
 31
0.0
  0
LINE
  5
48
330
18
100
AcDbEntity
  8
0
100
AcDbLine
 10
5.830045
 20
7.088353999999999
 30
0.0
 11
4.875876
 21
6.476277
 31
0.0
  0
LINE
  5
49
330
18
100
AcDbEntity
  8
0
100
AcDbLine
 10
5.898608
 20
7.064201
 30
0.0
 11
4.950951
 21
6.446139
 31
0.0
  0
LINE
  5
4A
330
18
100
AcDbEntity
  8
0
100
AcDbLine
 10
7.806653
 20
6.392048
 30
0.0
 11
6.958958999999999
 21
5.64005
 31
0.0
  0
LINE
  5
4B
330
18
100
AcDbEntity
  8
0
100
AcDbLine
 10
7.884873
 20
6.364494000000001
 30
0.0
 11
7.049049
 21
5.603885
 31
0.0
  0
LINE
  5
4C
330
18
100
AcDbEntity
  8
0
100
AcDbLine
 10
3.390567
 20
4.096413
 30
0.0
 11
3.892893
 21
3.809075
 31
0.0
  0
LINE
  5
4D
330
18
100
AcDbEntity
  8
0
100
AcDbLine
 10
3.361172
 20
4.179649
 30
0.0
 11
4.86987
 21
3.328571
 31
0.0
  0
LINE
  5
4E
330
18
100
AcDbEntity
  8
0
100
AcDbLine
 10
0.638975
 20
7.377424
 30
0.0
 11
0.638975
 21
7.311508
 31
0.0
  0
LINE
  5
4F
330
18
100
AcDbEntity
  8
0
100
AcDbLine
 10
0.724607
 20
6.438905
 30
0.0
 11
0.724607
 21
6.483521
 31
0.0
  0
LWPOLYLINE
  5
50
330
18
100
AcDbEntity
  8
0
100
AcDbPolyline
 90
       19
 70
     0
 43
0.0
 10
0.638975
 20
7.311508
 10
0.635636
 20
7.305305000000001
 10
0.6346350000000001
 20
7.273273
 10
0.6456460000000001
 20
7.234234
 10
0.661662
 20
7.186186
 10
0.6756760000000001
 20
7.14014
 10
0.6906909999999999
 20
7.073073
 10
0.6906909999999999
 20
7.035035000000001
 10
0.687688
 20
6.998999
 10
0.6836840000000001
 20
6.96997
 10
0.691692
 20
6.918919
 10
0.712713
 20
6.864864999999999
 10
0.730731
 20
6.806807000000001
 10
0.725726
 20
6.766767
 10
0.7097100000000001
 20
6.701702
 10
0.7057060000000001
 20
6.619619999999999
 10
0.707708
 20
6.552553
 10
0.7137140000000001
 20
6.50951
 10
0.719303
 20
6.486219999999999
  0
LWPOLYLINE
  5
66
330
18
100
AcDbEntity
  8
0
100
AcDbPolyline
 90
      129
 70
     0
 43
0.0
 10
0.724607
 20
6.438905
 10
0.725726
 20
6.415415
 10
0.724725
 20
6.34034
 10
0.72973
 20
6.247247
 10
0.742743
 20
6.166166000000001
 10
0.7507510000000001
 20
6.112112000000001
 10
0.766767
 20
6.052052
 10
0.804805
 20
5.976977
 10
0.8628629999999999
 20
5.904905
 10
0.8948950000000001
 20
5.851852
 10
0.9229229999999999
 20
5.774775
 10
0.9479479999999999
 20
5.693694
 10
0.957958
 20
5.647648
 10
0.9759760000000001
 20
5.623624
 10
1.023023
 20
5.58959
 10
1.142142
 20
5.511512000000001
 10
1.175175
 20
5.484483999999999
 10
1.221221
 20
5.447447
 10
1.254254
 20
5.414414
 10
1.291291
 20
5.368368
 10
1.329329
 20
5.293293
 10
1.358358
 20
5.229229
 10
1.395395
 20
5.146146
 10
1.417417
 20
5.086086
 10
1.451451
 20
5.003003
 10
1.483483
 20
4.957958000000001
 10
1.525526
 20
4.925926000000001
 10
1.563564
 20
4.908909
 10
1.637638
 20
4.888889
 10
1.712713
 20
4.877878
 10
1.780781
 20
4.87988
 10
1.821822
 20
4.893894
 10
1.885886
 20
4.924925
 10
1.916917
 20
4.943944
 10
1.944945
 20
4.958958999999999
 10
1.962963
 20
4.968969
 10
2.03003
 20
4.948949
 10
2.083083
 20
4.941942
 10
2.123123
 20
4.93994
 10
2.148148
 20
4.941942
 10
2.183183
 20
4.937938
 10
2.234234
 20
4.926927
 10
2.304304
 20
4.897898000000001
 10
2.367367
 20
4.871872
 10
2.422422
 20
4.848849
 10
2.468468
 20
4.833834
 10
2.512513
 20
4.827828
 10
2.543544
 20
4.824825
 10
2.565566
 20
4.81982
 10
2.596597
 20
4.795796
 10
2.626627
 20
4.761762
 10
2.644645
 20
4.744745
 10
2.658659
 20
4.725726
 10
2.678679
 20
4.70971
 10
2.704705
 20
4.697698
 10
2.727728
 20
4.689690000000001
 10
2.755756
 20
4.681682
 10
2.78979
 20
4.671672
 10
2.855856
 20
4.643644
 10
2.892893
 20
4.638639
 10
2.920921
 20
4.638639
 10
2.947948
 20
4.636637
 10
2.973974
 20
4.623624
 10
2.992993
 20
4.596597
 10
3.027027
 20
4.565566000000001
 10
3.073073
 20
4.540541
 10
3.113113
 20
4.51952
 10
3.169169
 20
4.489489
 10
3.194194
 20
4.472472
 10
3.23023
 20
4.416416000000001
 10
3.24024
 20
4.387387
 10
3.251251
 20
4.345345
 10
3.264264
 20
4.310309999999999
 10
3.299299
 20
4.26026
 10
3.328328
 20
4.220219999999999
 10
3.362362
 20
4.178178
 10
3.384384
 20
4.132132
 10
3.393393
 20
4.080080000000001
 10
3.397397
 20
4.023023
 10
3.408408
 20
3.972973000000001
 10
3.423423
 20
3.922923
 10
3.451451
 20
3.850851
 10
3.492492
 20
3.780781
 10
3.51952
 20
3.71972
 10
3.540541
 20
3.603604
 10
3.574575
 20
3.548549
 10
3.626627
 20
3.497497
 10
3.695696
 20
3.451451
 10
3.768769
 20
3.399399
 10
3.823824
 20
3.363363
 10
3.871872
 20
3.34034
 10
3.904905
 20
3.327327
 10
3.957958
 20
3.3003
 10
4.01001
 20
3.241241
 10
4.057057
 20
3.186186
 10
4.107107
 20
3.143143
 10
4.161161
 20
3.099099
 10
4.206206
 20
3.052052
 10
4.267267
 20
2.995996
 10
4.310309999999999
 20
2.953954
 10
4.371371
 20
2.908909
 10
4.441441
 20
2.872873
 10
4.520521
 20
2.83984
 10
4.602603
 20
2.805806
 10
4.681682
 20
2.772773
 10
4.751752
 20
2.745746
 10
4.830831
 20
2.712713
 10
4.8999
 20
2.684685
 10
4.973974
 20
2.652653
 10
5.054054
 20
2.637638
 10
5.136136000000001
 20
2.628629
 10
5.21021
 20
2.636637
 10
5.241241000000001
 20
2.653654
 10
5.282282
 20
2.668669
 10
5.343343
 20
2.681682
 10
5.392392
 20
2.690691
 10
5.436436000000001
 20
2.705706
 10
5.496496
 20
2.727728
 10
5.578579
 20
2.712713
 10
5.613614
 20
2.701702
 10
5.646647
 20
2.687688
 10
5.696697
 20
2.672673
 10
5.750751
 20
2.668669
 10
5.818819
 20
2.66967
 10
5.86987
 20
2.67968
 10
5.901103
 20
2.704232
 10
5.930931
 20
2.716717
 10
5.932933
 20
2.718719
 10
5.941732
 20
2.723918
  0
LINE
  5
EA
330
18
100
AcDbEntity
  8
0
100
AcDbLine
 10
1.202202
 20
7.951025
 30
0.0
 11
2.940941
 21
7.253031
 31
0.0
  0
LINE
  5
EB
330
18
100
AcDbEntity
  8
0
100
AcDbLine
 10
1.202202
 20
7.121355
 30
0.0
 11
2.940941
 21
6.330843
 31
0.0
  0
LINE
  5
EC
330
18
100
AcDbEntity
  8
0
100
AcDbLine
 10
2.088088
 20
6.653055
 30
0.0
 11
3.890891
 21
5.833892
 31
0.0
  0
LINE
  5
ED
330
18
100
AcDbEntity
  8
0
100
AcDbLine
 10
2.990991
 20
6.308088
 30
0.0
 11
4.875876
 21
5.451132
 31
0.0
  0
LINE
  5
EE
330
18
100
AcDbEntity
  8
0
100
AcDbLine
 10
2.990991
 20
7.232939
 30
0.0
 11
4.875876
 21
6.476277
 31
0.0
  0
LINE
  5
EF
330
18
100
AcDbEntity
  8
0
100
AcDbLine
 10
1.203203
 20
6.192193
 30
0.0
 11
2.923924
 21
5.30518
 31
0.0
  0
LINE
  5
F0
330
18
100
AcDbEntity
  8
0
100
AcDbLine
 10
2.088088
 20
5.789873
 30
0.0
 11
3.890891
 21
4.872726
 31
0.0
  0
LINE
  5
F1
330
18
100
AcDbEntity
  8
0
100
AcDbLine
 10
3.001001
 20
5.265447
 30
0.0
 11
4.86987
 21
4.302065
 31
0.0
  0
LINE
  5
F2
330
18
100
AcDbEntity
  8
0
100
AcDbLine
 10
3.95996
 20
5.802508
 30
0.0
 11
5.894895
 21
4.923307
 31
0.0
  0
LINE
  5
F3
330
18
100
AcDbEntity
  8
0
100
AcDbLine
 10
3.95996
 20
4.837589
 30
0.0
 11
5.894895
 21
3.853222
 31
0.0
  0
LINE
  5
F4
330
18
100
AcDbEntity
  8
0
100
AcDbLine
 10
4.950951
 20
5.416999
 30
0.0
 11
6.958958999999999
 21
4.504065
 31
0.0
  0
LINE
  5
F5
330
18
100
AcDbEntity
  8
0
100
AcDbLine
 10
5.980981
 20
4.884191
 30
0.0
 11
8.245521999999999
 21
3.855222
 31
0.0
  0
LINE
  5
F6
330
18
100
AcDbEntity
  8
0
100
AcDbLine
 10
4.93994
 20
4.265944
 30
0.0
 11
6.956957000000001
 21
3.226193
 31
0.0
  0
LINE
  5
F7
330
18
100
AcDbEntity
  8
0
100
AcDbLine
 10
5.980981
 20
3.809427
 30
0.0
 11
7.799316
 21
2.884379
 31
0.0
  0
LINE
  5
F8
330
18
100
AcDbEntity
  8
0
100
AcDbLine
 10
3.961962
 20
3.769567
 30
0.0
 11
5.867966
 21
2.679306
 31
0.0
  0
LINE
  5
F9
330
18
100
AcDbEntity
  8
0
100
AcDbLine
 10
7.029029
 20
3.18904
 30
0.0
 11
7.744051
 21
2.820454
 31
0.0
  0
LINE
  5
FA
330
18
100
AcDbEntity
  8
0
100
AcDbLine
 10
7.049049
 20
4.463106
 30
0.0
 11
8.185093
 21
3.946608
 31
0.0
  0
LINE
  5
FB
330
18
100
AcDbEntity
  8
0
100
AcDbLine
 10
7.049049
 20
5.603885
 30
0.0
 11
8.549077000000001
 21
5.001718
 31
0.0
  0
LINE
  5
FC
330
18
100
AcDbEntity
  8
0
100
AcDbLine
 10
4.950951
 20
6.446139
 30
0.0
 11
6.958958999999999
 21
5.64005
 31
0.0
  0
LINE
  5
FD
330
18
100
AcDbEntity
  8
0
100
AcDbLine
 10
0.874634
 20
8.263155000000001
 30
0.0
 11
1.045394
 21
8.194606
 31
0.0
  0
LINE
  5
FE
330
18
100
AcDbEntity
  8
0
100
AcDbLine
 10
1.434289
 20
8.464072
 30
0.0
 11
1.604695
 21
8.404043
 31
0.0
  0
LINE
  5
FF
330
18
100
AcDbEntity
  8
0
100
AcDbLine
 10
2.216085
 20
8.361452999999999
 30
0.0
 11
3.082777
 21
8.056141
 31
0.0
  0
ARC
  5
100
330
18
100
AcDbEntity
  8
0
100
AcDbCircle
 10
2.118245
 20
8.332908999999999
 30
0.0
 40
0.059623
100
AcDbArc
 50
12.135319
 51
65.98255500000001
  0
LINE
  5
101
330
18
100
AcDbEntity
  8
0
100
AcDbLine
 10
4.014805
 20
7.727813
 30
0.0
 11
5.830045
 21
7.088353999999999
 31
0.0
  0
LINE
  5
102
330
18
100
AcDbEntity
  8
0
100
AcDbLine
 10
5.898608
 20
7.064201
 30
0.0
 11
6.069571
 21
7.003975
 31
0.0
  0
ARC
  5
103
330
18
100
AcDbEntity
  8
0
100
AcDbCircle
 10
3.937444
 20
7.692055
 30
0.0
 40
0.059623
100
AcDbArc
 50
24.382601
 51
65.98255500000001
  0
ARC
  5
104
330
18
100
AcDbEntity
  8
0
100
AcDbCircle
 10
5.804101999999999
 20
7.022456
 30
0.0
 40
0.070821
100
AcDbArc
 50
19.505344
 51
68.51159200000001
  0
LINE
  5
105
330
18
100
AcDbEntity
  8
0
100
AcDbLine
 10
7.884873
 20
6.364494000000001
 30
0.0
 11
9.324947
 21
5.857439
 31
0.0
  0
ARC
  5
106
330
18
100
AcDbEntity
  8
0
100
AcDbCircle
 10
7.779286999999999
 20
6.317577
 30
0.0
 40
0.07934
100
AcDbArc
 50
15.022118
 51
69.822884
  0
LINE
  5
107
330
18
100
AcDbEntity
  8
0
100
AcDbLine
 10
2.147297
 20
8.146527000000001
 30
0.0
 11
1.727263
 21
7.976494000000001
 31
0.0
  0
LINE
  5
108
330
18
100
AcDbEntity
  8
0
100
AcDbLine
 10
2.655545
 20
7.978207
 30
0.0
 11
2.215655
 21
7.800136
 31
0.0
  0
LINE
  5
109
330
18
100
AcDbEntity
  8
0
100
AcDbLine
 10
3.466311
 20
7.694030000000001
 30
0.0
 11
3.033175
 21
7.484633000000001
 31
0.0
  0
LINE
  5
10A
330
18
100
AcDbEntity
  8
0
100
AcDbLine
 10
2.88152
 20
7.875939999999999
 30
0.0
 11
2.469794
 21
7.676893
 31
0.0
  0
LINE
  5
10B
330
18
100
AcDbEntity
  8
0
100
AcDbLine
 10
3.9434
 20
7.50188
 30
0.0
 11
3.472621
 21
7.274323
 31
0.0
  0
LINE
  5
10C
330
18
100
AcDbEntity
  8
0
100
AcDbLine
 10
4.610435
 20
7.290984
 30
0.0
 11
4.113673
 21
7.050868
 31
0.0
  0
LINE
  5
10D
330
18
100
AcDbEntity
  8
0
100
AcDbLine
 10
5.349042
 20
7.033658999999999
 30
0.0
 11
4.91416
 21
6.754693
 31
0.0
  0
LINE
  5
10E
330
18
100
AcDbEntity
  8
0
100
AcDbLine
 10
4.723256
 20
7.203276
 30
0.0
 11
4.307091000000001
 21
6.936316000000001
 31
0.0
  0
LINE
  5
10F
330
18
100
AcDbEntity
  8
0
100
AcDbLine
 10
7.358109
 20
6.314291000000001
 30
0.0
 11
6.966297999999999
 21
5.966711
 31
0.0
  0
LINE
  5
110
330
18
100
AcDbEntity
  8
0
100
AcDbLine
 10
6.701739999999999
 20
6.472008
 30
0.0
 11
6.324804
 21
6.137625
 31
0.0
  0
LINE
  5
111
330
18
100
AcDbEntity
  8
0
100
AcDbLine
 10
7.885866
 20
6.051926
 30
0.0
 11
7.472995
 21
5.676208
 31
0.0
  0
LINE
  5
112
330
18
100
AcDbEntity
  8
0
100
AcDbLine
 10
8.612864999999999
 20
5.872746
 30
0.0
 11
8.182833000000001
 21
5.481412000000001
 31
0.0
  0
LINE
  5
113
330
18
100
AcDbEntity
  8
0
100
AcDbLine
 10
3.073397
 20
7.886659
 30
0.0
 11
3.07722
 21
7.885312
 31
0.0
  0
LINE
  5
114
330
18
100
AcDbEntity
  8
0
100
AcDbLine
 10
4.135262
 20
7.512592999999999
 30
0.0
 11
4.607348
 21
7.34629
 31
0.0
  0
LINE
  5
115
330
18
100
AcDbEntity
  8
0
100
AcDbLine
 10
2.471675
 20
7.622044
 30
0.0
 11
2.831228
 21
7.477706
 31
0.0
  0
LINE
  5
116
330
18
100
AcDbEntity
  8
0
100
AcDbLine
 10
3.474501
 20
7.219472000000001
 30
0.0
 11
3.911741
 21
7.043947999999999
 31
0.0
  0
ARC
  5
117
330
18
100
AcDbEntity
  8
0
100
AcDbCircle
 10
2.241105
 20
7.914794000000001
 30
0.0
 40
0.25
100
AcDbArc
 50
70.59402900000001
 51
112.038498
  0
ARC
  5
118
330
18
100
AcDbEntity
  8
0
100
AcDbCircle
 10
2.990332
 20
7.650861999999999
 30
0.0
 40
0.25
100
AcDbArc
 50
70.59402900000001
 51
115.801153
  0
ARC
  5
119
330
18
100
AcDbEntity
  8
0
100
AcDbCircle
 10
2.121847
 20
8.031869
 30
0.0
 40
0.25
100
AcDbArc
 50
248.12765
 51
292.038498
  0
ARC
  5
11A
330
18
100
AcDbEntity
  8
0
100
AcDbCircle
 10
2.924363
 20
7.70971
 30
0.0
 40
0.25
100
AcDbArc
 50
248.12765
 51
295.801153
  0
ARC
  5
11B
330
18
100
AcDbEntity
  8
0
100
AcDbCircle
 10
4.052198000000001
 20
7.276796000000001
 30
0.0
 40
0.25
100
AcDbArc
 50
70.59402900000001
 51
115.797418
  0
ARC
  5
11C
330
18
100
AcDbEntity
  8
0
100
AcDbCircle
 10
4.004876
 20
7.275952
 30
0.0
 40
0.25
100
AcDbArc
 50
248.12765
 51
295.797418
  0
LINE
  5
11D
330
18
100
AcDbEntity
  8
0
100
AcDbLine
 10
4.941304
 20
7.228646
 30
0.0
 11
5.342812
 21
7.087206
 31
0.0
  0
ARC
  5
11E
330
18
100
AcDbEntity
  8
0
100
AcDbCircle
 10
4.858239
 20
6.992849000000001
 30
0.0
 40
0.25
100
AcDbArc
 50
70.59402900000001
 51
122.67921
  0
ARC
  5
11F
330
18
100
AcDbEntity
  8
0
100
AcDbCircle
 10
4.779176000000001
 20
6.965119000000001
 30
0.0
 40
0.25
100
AcDbArc
 50
248.12765
 51
302.67921
  0
LINE
  5
120
330
18
100
AcDbEntity
  8
0
100
AcDbLine
 10
4.312112
 20
6.883224
 30
0.0
 11
4.686041
 21
6.733115
 31
0.0
  0
LINE
  5
121
330
18
100
AcDbEntity
  8
0
100
AcDbLine
 10
6.950710000000001
 20
6.520787
 30
0.0
 11
7.344855
 21
6.381941
 31
0.0
  0
ARC
  5
122
330
18
100
AcDbEntity
  8
0
100
AcDbCircle
 10
6.867645
 20
6.284990000000001
 30
0.0
 40
0.25
100
AcDbArc
 50
70.59402900000001
 51
131.576568
  0
LINE
  5
123
330
18
100
AcDbEntity
  8
0
100
AcDbLine
 10
7.485015
 20
5.609504
 30
0.0
 11
7.921436999999999
 21
5.434308000000001
 31
0.0
  0
LINE
  5
124
330
18
100
AcDbEntity
  8
0
100
AcDbLine
 10
6.336448000000001
 20
6.070581
 30
0.0
 11
6.707258
 21
5.921724
 31
0.0
  0
ARC
  5
125
330
18
100
AcDbEntity
  8
0
100
AcDbCircle
 10
6.800393
 20
6.153728
 30
0.0
 40
0.25
100
AcDbArc
 50
248.12765
 51
311.576568
  0
LINE
  5
126
330
18
100
AcDbEntity
  8
0
100
AcDbLine
 10
8.137192000000001
 20
6.102822
 30
0.0
 11
8.599233999999999
 21
5.940057
 31
0.0
  0
ARC
  5
127
330
18
100
AcDbEntity
  8
0
100
AcDbCircle
 10
8.054127000000001
 20
5.867025
 30
0.0
 40
0.25
100
AcDbArc
 50
70.59402900000001
 51
132.302527
  0
ARC
  5
128
330
18
100
AcDbEntity
  8
0
100
AcDbCircle
 10
8.014571999999999
 20
5.666312000000001
 30
0.0
 40
0.25
100
AcDbArc
 50
248.12765
 51
273.918409
  0
ARC
  5
129
330
18
100
AcDbEntity
  8
0
100
AcDbCircle
 10
6.351349
 20
6.107702
 30
0.0
 40
0.04
100
AcDbArc
 50
131.576568
 51
248.12765
  0
ARC
  5
12A
330
18
100
AcDbEntity
  8
0
100
AcDbCircle
 10
7.331564
 20
6.344213
 30
0.0
 40
0.04
100
AcDbArc
 50
311.576568
 51
70.59402900000001
  0
ARC
  5
12B
330
18
100
AcDbEntity
  8
0
100
AcDbCircle
 10
7.499917
 20
5.646624
 30
0.0
 40
0.04
100
AcDbArc
 50
132.302527
 51
248.12765
  0
ARC
  5
12C
330
18
100
AcDbEntity
  8
0
100
AcDbCircle
 10
8.585944
 20
5.90233
 30
0.0
 40
0.04
100
AcDbArc
 50
312.302527
 51
70.59402900000001
  0
LINE
  5
12D
330
18
100
AcDbEntity
  8
0
100
AcDbLine
 10
0.6370979999999999
 20
8.177878999999999
 30
0.0
 11
0.874634
 21
8.263155000000001
 31
0.0
  0
LINE
  5
12E
330
18
100
AcDbEntity
  8
0
100
AcDbLine
 10
0.9023290000000001
 20
8.252037
 30
0.0
 11
1.463897
 21
8.453642
 31
0.0
  0
LINE
  5
12F
330
18
100
AcDbEntity
  8
0
100
AcDbLine
 10
1.233297
 20
8.195267999999999
 30
0.0
 11
1.6061
 21
8.347986000000001
 31
0.0
  0
LINE
  5
130
330
18
100
AcDbEntity
  8
0
100
AcDbLine
 10
2.324169
 20
8.150591
 30
0.0
 11
2.654256
 21
8.034311000000001
 31
0.0
  0
LINE
  5
131
330
18
100
AcDbEntity
  8
0
100
AcDbLine
 10
1.727344
 20
7.920846000000001
 30
0.0
 11
2.028712
 21
7.799865
 31
0.0
  0
ARC
  5
132
330
18
100
AcDbEntity
  8
0
100
AcDbCircle
 10
1.138529
 20
8.42661
 30
0.0
 40
0.25
100
AcDbArc
 50
248.12765
 51
292.276344
  0
ARC
  5
133
330
18
100
AcDbEntity
  8
0
100
AcDbCircle
 10
1.594728
 20
8.375747000000001
 30
0.0
 40
0.03
100
AcDbArc
 50
292.276344
 51
70.59402900000001
  0
ARC
  5
134
330
18
100
AcDbEntity
  8
0
100
AcDbCircle
 10
2.644288
 20
8.006015
 30
0.0
 40
0.03
100
AcDbArc
 50
292.038498
 51
70.59402900000001
  0
ARC
  5
135
330
18
100
AcDbEntity
  8
0
100
AcDbCircle
 10
3.453254
 20
7.721039
 30
0.0
 40
0.03
100
AcDbArc
 50
295.801153
 51
70.59402900000001
  0
ARC
  5
136
330
18
100
AcDbEntity
  8
0
100
AcDbCircle
 10
2.482852
 20
7.649883999999999
 30
0.0
 40
0.03
100
AcDbArc
 50
115.801153
 51
248.12765
  0
ARC
  5
137
330
18
100
AcDbEntity
  8
0
100
AcDbCircle
 10
1.73852
 20
7.948686
 30
0.0
 40
0.03
100
AcDbArc
 50
112.038498
 51
248.12765
  0
ARC
  5
138
330
18
100
AcDbEntity
  8
0
100
AcDbCircle
 10
3.485677
 20
7.247313
 30
0.0
 40
0.03
100
AcDbArc
 50
115.797418
 51
248.12765
  0
ARC
  5
139
330
18
100
AcDbEntity
  8
0
100
AcDbCircle
 10
4.59738
 20
7.317994000000001
 30
0.0
 40
0.03
100
AcDbArc
 50
295.797418
 51
70.59402900000001
  0
ARC
  5
13A
330
18
100
AcDbEntity
  8
0
100
AcDbCircle
 10
5.332844000000001
 20
7.058910000000001
 30
0.0
 40
0.03
100
AcDbArc
 50
302.67921
 51
70.59402900000001
  0
ARC
  5
13B
330
18
100
AcDbEntity
  8
0
100
AcDbCircle
 10
4.323289
 20
6.911065
 30
0.0
 40
0.03
100
AcDbArc
 50
122.67921
 51
248.12765
  0
LINE
  5
13C
330
18
100
AcDbEntity
  8
0
100
AcDbLine
 10
1.434289
 20
8.464072
 30
0.0
 11
1.677213
 21
8.551283
 31
0.0
  0
LWPOLYLINE
  5
13D
330
18
100
AcDbEntity
  8
0
100
AcDbPolyline
 90
       16
 70
     0
 43
0.0
 10
0.6370979999999999
 20
8.177878999999999
 10
0.635636
 20
8.12012
 10
0.640641
 20
8.036035999999999
 10
0.643644
 20
7.97998
 10
0.646647
 20
7.929930000000001
 10
0.635636
 20
7.884885000000001
 10
0.6156159999999999
 20
7.835836000000001
 10
0.6006010000000001
 20
7.792793
 10
0.5775779999999999
 20
7.740741000000001
 10
0.564565
 20
7.696697
 10
0.565566
 20
7.638639
 10
0.5715720000000001
 20
7.581582000000001
 10
0.5996
 20
7.509510000000001
 10
0.628629
 20
7.45045
 10
0.637638
 20
7.392392
 10
0.635413
 20
7.379042999999999
  0
LINE
  5
150
330
18
100
AcDbEntity
  8
0
100
AcDbLine
 10
9.324947
 20
5.857439
 30
0.0
 11
8.549077000000001
 21
5.001718
 31
0.0
  0
LINE
  5
151
330
18
100
AcDbEntity
  8
0
100
AcDbLine
 10
8.773994
 20
5.716117
 30
0.0
 11
8.397765
 21
5.301167
 31
0.0
  0
LINE
  5
152
330
18
100
AcDbEntity
  8
0
100
AcDbLine
 10
8.412496000000001
 20
5.237178
 30
0.0
 11
8.66915
 21
5.134148000000001
 31
0.0
  0
LINE
  5
153
330
18
100
AcDbEntity
  8
0
100
AcDbLine
 10
9.042264999999999
 20
5.78399
 30
0.0
 11
9.206041000000001
 21
5.726296
 31
0.0
  0
ARC
  5
154
330
18
100
AcDbEntity
  8
0
100
AcDbCircle
 10
8.959199999999999
 20
5.548193
 30
0.0
 40
0.25
100
AcDbArc
 50
70.59402900000001
 51
137.801868
  0
ARC
  5
155
330
18
100
AcDbEntity
  8
0
100
AcDbCircle
 10
8.427398
 20
5.274299
 30
0.0
 40
0.04
100
AcDbArc
 50
137.801868
 51
248.12765
  0
LWPOLYLINE
  5
156
330
18
100
AcDbEntity
  8
0
100
AcDbPolyline
 90
        8
 70
     0
 43
0.0
 10
8.763073
 20
4.791096
 10
8.758759
 20
4.761762
 10
8.756757
 20
4.721722
 10
8.755756
 20
4.692693
 10
8.754755000000001
 20
4.65966
 10
8.752753
 20
4.623624
 10
8.753753999999999
 20
4.588589
 10
8.753876
 20
4.587634
  0
LWPOLYLINE
  5
161
330
18
100
AcDbEntity
  8
0
100
AcDbPolyline
 90
       12
 70
     0
 43
0.0
 10
9.206041000000001
 20
5.726296
 10
9.204141
 20
5.716558
 10
9.199135999999999
 20
5.669511
 10
9.190127
 20
5.626468
 10
9.181118
 20
5.597439
 10
9.171108
 20
5.553395
 10
9.164100999999999
 20
5.522364
 10
9.162099000000001
 20
5.48833
 10
9.159096
 20
5.439280999999999
 10
9.161097999999999
 20
5.387229000000001
 10
9.1631
 20
5.341183
 10
9.172129
 20
5.304005999999999
  0
LWPOLYLINE
  5
170
330
18
100
AcDbEntity
  8
0
100
AcDbPolyline
 90
       17
 70
     0
 43
0.0
 10
8.66915
 20
5.134148000000001
 10
8.671152000000001
 20
5.115129000000001
 10
8.671152000000001
 20
5.104118
 10
8.66915
 20
5.077091
 10
8.66915
 20
5.064078
 10
8.668149
 20
5.037051
 10
8.66915
 20
5.004018
 10
8.668149
 20
4.972987
 10
8.664145
 20
4.938953
 10
8.656136999999999
 20
4.91593
 10
8.648128999999999
 20
4.886901
 10
8.641121999999999
 20
4.848863
 10
8.635116
 20
4.807822
 10
8.630110999999999
 20
4.768783
 10
8.627108
 20
4.730745
 10
8.626107000000001
 20
4.686701
 10
8.626107000000001
 20
4.666756
  0
LWPOLYLINE
  5
184
330
18
100
AcDbEntity
  8
0
100
AcDbPolyline
 90
       25
 70
     0
 43
0.0
 10
8.549077000000001
 20
5.001718
 10
8.548405000000001
 20
4.989836
 10
8.539396
 20
4.946793
 10
8.530386999999999
 20
4.921768
 10
8.516373
 20
4.890737000000001
 10
8.502359
 20
4.845692
 10
8.494351
 20
4.799646
 10
8.492349000000001
 20
4.736583
 10
8.489346000000001
 20
4.679526
 10
8.488344999999999
 20
4.615462
 10
8.485341999999999
 20
4.575422000000001
 10
8.482339
 20
4.531378
 10
8.478335000000001
 20
4.490337
 10
8.477333999999999
 20
4.470317
 10
8.468325
 20
4.430276
 10
8.461317999999999
 20
4.409255
 10
8.452309
 20
4.378223999999999
 10
8.444300999999999
 20
4.345191000000001
 10
8.435292000000001
 20
4.317163
 10
8.429285999999999
 20
4.301147
 10
8.416273
 20
4.271116999999999
 10
8.407264
 20
4.239085
 10
8.401258
 20
4.20405
 10
8.397254
 20
4.179025
 10
8.185093
 20
3.946608
  0
LWPOLYLINE
  5
1A0
330
18
100
AcDbEntity
  8
0
100
AcDbPolyline
 90
       26
 70
     0
 43
0.0
 10
8.947929
 20
5.036959
 10
8.936937
 20
4.992993
 10
8.927928
 20
4.947948
 10
8.916917
 20
4.887887999999999
 10
8.90991
 20
4.825826
 10
8.905906
 20
4.781782
 10
8.902903
 20
4.755756
 10
8.901902
 20
4.741742
 10
8.870871000000001
 20
4.716717
 10
8.854855000000001
 20
4.701702
 10
8.838839
 20
4.686687
 10
8.812813
 20
4.657658000000001
 10
8.797798
 20
4.638639
 10
8.762763
 20
4.597598000000001
 10
8.72973
 20
4.560561
 10
8.700700999999999
 20
4.531532
 10
8.667667999999999
 20
4.496496
 10
8.652652999999999
 20
4.479479
 10
8.624625
 20
4.439439
 10
8.591592
 20
4.401401
 10
8.554555000000001
 20
4.36036
 10
8.526527
 20
4.327327
 10
8.490489999999999
 20
4.285285
 10
8.456455999999999
 20
4.254254
 10
8.425425000000001
 20
4.236236
 10
8.405263
 20
4.227415000000001
  0
LINE
  5
1BD
330
18
100
AcDbEntity
  8
0
100
AcDbLine
 10
8.245521999999999
 20
3.855222
 30
0.0
 11
8.277505
 21
3.874226
 31
0.0
  0
LINE
  5
1BE
330
18
100
AcDbEntity
  8
0
100
AcDbLine
 10
8.277505
 20
3.874226
 30
0.0
 11
8.296296
 21
3.893894
 31
0.0
  0
LINE
  5
1BF
330
18
100
AcDbEntity
  8
0
100
AcDbLine
 10
8.296296
 20
3.893894
 30
0.0
 11
8.328327999999999
 21
3.931932
 31
0.0
  0
LINE
  5
1C0
330
18
100
AcDbEntity
  8
0
100
AcDbLine
 10
8.328327999999999
 20
3.931932
 30
0.0
 11
8.354353999999999
 21
3.952953
 31
0.0
  0
LINE
  5
1C1
330
18
100
AcDbEntity
  8
0
100
AcDbLine
 10
8.354353999999999
 20
3.952953
 30
0.0
 11
8.378378
 21
3.986987
 31
0.0
  0
LINE
  5
1C2
330
18
100
AcDbEntity
  8
0
100
AcDbLine
 10
8.378378
 20
3.986987
 30
0.0
 11
8.408408
 21
4.031031
 31
0.0
  0
LINE
  5
1C3
330
18
100
AcDbEntity
  8
0
100
AcDbLine
 10
8.408408
 20
4.031031
 30
0.0
 11
8.431431
 21
4.06006
 31
0.0
  0
LINE
  5
1C4
330
18
100
AcDbEntity
  8
0
100
AcDbLine
 10
8.431431
 20
4.06006
 30
0.0
 11
8.451450999999999
 21
4.077077
 31
0.0
  0
LINE
  5
1C5
330
18
100
AcDbEntity
  8
0
100
AcDbLine
 10
8.451450999999999
 20
4.077077
 30
0.0
 11
8.481481000000001
 21
4.106106
 31
0.0
  0
LINE
  5
1C6
330
18
100
AcDbEntity
  8
0
100
AcDbLine
 10
8.481481000000001
 20
4.106106
 30
0.0
 11
8.492492
 21
4.118118
 31
0.0
  0
LINE
  5
1C7
330
18
100
AcDbEntity
  8
0
100
AcDbLine
 10
8.492492
 20
4.118118
 30
0.0
 11
8.528528999999999
 21
4.156156
 31
0.0
  0
LINE
  5
1C8
330
18
100
AcDbEntity
  8
0
100
AcDbLine
 10
8.528528999999999
 20
4.156156
 30
0.0
 11
8.561562
 21
4.184183999999999
 31
0.0
  0
LINE
  5
1C9
330
18
100
AcDbEntity
  8
0
100
AcDbLine
 10
8.561562
 20
4.184183999999999
 30
0.0
 11
8.591592
 21
4.211211000000001
 31
0.0
  0
LINE
  5
1CA
330
18
100
AcDbEntity
  8
0
100
AcDbLine
 10
8.591592
 20
4.211211000000001
 30
0.0
 11
8.638639
 21
4.26026
 31
0.0
  0
LINE
  5
1CB
330
18
100
AcDbEntity
  8
0
100
AcDbLine
 10
8.638639
 20
4.26026
 30
0.0
 11
8.682683000000001
 21
4.3003
 31
0.0
  0
LINE
  5
1CC
330
18
100
AcDbEntity
  8
0
100
AcDbLine
 10
8.682683000000001
 20
4.3003
 30
0.0
 11
8.710711
 21
4.323323
 31
0.0
  0
LINE
  5
1CD
330
18
100
AcDbEntity
  8
0
100
AcDbLine
 10
8.710711
 20
4.323323
 30
0.0
 11
8.736737
 21
4.346346
 31
0.0
  0
LINE
  5
1CE
330
18
100
AcDbEntity
  8
0
100
AcDbLine
 10
8.736737
 20
4.346346
 30
0.0
 11
8.773774000000001
 21
4.383383
 31
0.0
  0
LINE
  5
1CF
330
18
100
AcDbEntity
  8
0
100
AcDbLine
 10
8.773774000000001
 20
4.383383
 30
0.0
 11
8.802802999999999
 21
4.414414
 31
0.0
  0
LINE
  5
1D0
330
18
100
AcDbEntity
  8
0
100
AcDbLine
 10
8.802802999999999
 20
4.414414
 30
0.0
 11
8.830831
 21
4.439439
 31
0.0
  0
LINE
  5
1D1
330
18
100
AcDbEntity
  8
0
100
AcDbLine
 10
8.830831
 20
4.439439
 30
0.0
 11
8.845846
 21
4.453453
 31
0.0
  0
LINE
  5
1D2
330
18
100
AcDbEntity
  8
0
100
AcDbLine
 10
8.845846
 20
4.453453
 30
0.0
 11
8.861862
 21
4.469469
 31
0.0
  0
LINE
  5
1D3
330
18
100
AcDbEntity
  8
0
100
AcDbLine
 10
8.861862
 20
4.469469
 30
0.0
 11
8.868869
 21
4.476476
 31
0.0
  0
LINE
  5
1D4
330
18
100
AcDbEntity
  8
0
100
AcDbLine
 10
8.868869
 20
4.476476
 30
0.0
 11
8.871872
 21
4.499499
 31
0.0
  0
LINE
  5
1D5
330
18
100
AcDbEntity
  8
0
100
AcDbLine
 10
8.871872
 20
4.499499
 30
0.0
 11
8.877877999999999
 21
4.527528
 31
0.0
  0
LINE
  5
1D6
330
18
100
AcDbEntity
  8
0
100
AcDbLine
 10
8.877877999999999
 20
4.527528
 30
0.0
 11
8.880881000000001
 21
4.536537
 31
0.0
  0
LINE
  5
1D7
330
18
100
AcDbEntity
  8
0
100
AcDbLine
 10
8.880881000000001
 20
4.536537
 30
0.0
 11
8.889889999999999
 21
4.557558
 31
0.0
  0
LINE
  5
1D8
330
18
100
AcDbEntity
  8
0
100
AcDbLine
 10
8.889889999999999
 20
4.557558
 30
0.0
 11
8.894895
 21
4.577578
 31
0.0
  0
LINE
  5
1D9
330
18
100
AcDbEntity
  8
0
100
AcDbLine
 10
8.894895
 20
4.577578
 30
0.0
 11
8.899900000000001
 21
4.612613
 31
0.0
  0
LINE
  5
1DA
330
18
100
AcDbEntity
  8
0
100
AcDbLine
 10
8.899900000000001
 20
4.612613
 30
0.0
 11
8.903803
 21
4.631014
 31
0.0
  0
LWPOLYLINE
  5
1DB
330
18
100
AcDbEntity
  8
0
100
AcDbPolyline
 90
       29
 70
     0
 43
0.0
 10
8.245521999999999
 20
3.855222
 10
8.224164999999999
 20
3.774066
 10
8.193133999999999
 20
3.75805
 10
8.16911
 20
3.747039
 10
8.144085000000001
 20
3.730022
 10
8.111052000000001
 20
3.703996
 10
8.078018999999999
 20
3.680973
 10
8.049991
 20
3.655948
 10
8.010952
 20
3.630923
 10
7.972913
 20
3.6079
 10
7.942883
 20
3.584877
 10
7.907848
 20
3.550843
 10
7.881822000000001
 20
3.509802
 10
7.864805000000001
 20
3.476769
 10
7.84979
 20
3.439732
 10
7.840781
 20
3.403695
 10
7.836777000000001
 20
3.365657
 10
7.835775999999999
 20
3.319611
 10
7.844785000000001
 20
3.276568
 10
7.850791
 20
3.247539
 10
7.856797
 20
3.220512
 10
7.855796000000001
 20
3.179471
 10
7.846787
 20
3.135427
 10
7.836777000000001
 20
3.094386
 10
7.828769
 20
3.051343
 10
7.816757000000001
 20
2.987279
 10
7.810751
 20
2.955247
 10
7.801742
 20
2.904196
 10
7.799316
 20
2.884379
  0
LINE
  5
1FB
330
18
100
AcDbEntity
  8
0
100
AcDbLine
 10
8.285618
 20
4.056731
 30
0.0
 11
8.392728
 21
4.008033999999999
 31
0.0
  0
LINE
  5
1FC
330
18
100
AcDbEntity
  8
0
100
AcDbLine
 10
8.698783000000001
 20
4.529498
 30
0.0
 11
8.786194999999999
 21
4.489757
 31
0.0
  0
LINE
  5
1FD
330
18
100
AcDbEntity
  8
0
100
AcDbLine
 10
8.825352000000001
 20
4.666681
 30
0.0
 11
8.903803
 21
4.631014
 31
0.0
  0
LWPOLYLINE
  5
1FE
330
18
100
AcDbEntity
  8
0
100
AcDbPolyline
 90
       11
 70
     0
 43
0.0
 10
8.903803
 20
4.631014
 10
8.786787
 20
4.494494
 10
8.783783999999999
 20
4.47047
 10
8.781782000000002
 20
4.460459999999999
 10
8.769769999999999
 20
4.437437
 10
8.754755000000001
 20
4.417417
 10
8.735735999999999
 20
4.393393
 10
8.711712
 20
4.361361000000001
 10
8.694694999999999
 20
4.333333000000001
 10
8.673283
 20
4.291755
 10
8.673283
 20
4.291755
  0
LINE
  5
20C
330
18
100
AcDbEntity
  8
0
100
AcDbLine
 10
7.961513
 20
3.588891
 30
0.0
 11
7.971935
 21
3.462213
 31
0.0
  0
LINE
  5
20D
330
18
100
AcDbEntity
  8
0
100
AcDbLine
 10
8.169636000000001
 20
3.60213
 30
0.0
 11
8.303357
 21
3.772849
 31
0.0
  0
LINE
  5
20E
330
18
100
AcDbEntity
  8
0
100
AcDbLine
 10
8.303357
 20
3.772849
 30
0.0
 11
8.485538999999999
 21
4.017093
 31
0.0
  0
LINE
  5
20F
330
18
100
AcDbEntity
  8
0
100
AcDbLine
 10
8.485538999999999
 20
4.017093
 30
0.0
 11
8.522575999999999
 21
4.056132
 31
0.0
  0
LINE
  5
210
330
18
100
AcDbEntity
  8
0
100
AcDbLine
 10
8.522575999999999
 20
4.056132
 30
0.0
 11
8.540594000000001
 21
4.083158999999999
 31
0.0
  0
LINE
  5
211
330
18
100
AcDbEntity
  8
0
100
AcDbLine
 10
8.540594000000001
 20
4.083158999999999
 30
0.0
 11
8.549602999999999
 21
4.115191
 31
0.0
  0
LINE
  5
212
330
18
100
AcDbEntity
  8
0
100
AcDbLine
 10
8.549602999999999
 20
4.115191
 30
0.0
 11
8.552605999999999
 21
4.161237
 31
0.0
  0
LINE
  5
213
330
18
100
AcDbEntity
  8
0
100
AcDbLine
 10
8.552605999999999
 20
4.161237
 30
0.0
 11
8.550821000000001
 21
4.175071
 31
0.0
  0
ARC
  5
214
330
18
100
AcDbEntity
  8
0
100
AcDbCircle
 10
8.011801
 20
3.465493
 30
0.0
 40
0.04
100
AcDbArc
 50
184.703615
 51
301.256257
  0
LWPOLYLINE
  5
215
330
18
100
AcDbEntity
  8
0
100
AcDbPolyline
 90
       59
 70
     0
 43
0.0
 10
9.324947
 20
5.857439
 10
9.328327999999999
 20
5.838839
 10
9.33033
 20
5.805806
 10
9.328327999999999
 20
5.774775
 10
9.318318
 20
5.726727
 10
9.312312
 20
5.707708
 10
9.3003
 20
5.684685
 10
9.293292999999999
 20
5.655656
 10
9.291291000000001
 20
5.624625
 10
9.291291000000001
 20
5.605606
 10
9.287286999999999
 20
5.573574
 10
9.284284
 20
5.553554
 10
9.271271000000001
 20
5.518519
 10
9.267267
 20
5.487487000000001
 10
9.265264999999999
 20
5.456456
 10
9.254254
 20
5.416416000000001
 10
9.232232000000002
 20
5.379379
 10
9.212211999999999
 20
5.355355
 10
9.192192
 20
5.331331
 10
9.168168
 20
5.301301000000001
 10
9.137136999999999
 20
5.266266000000001
 10
9.119119
 20
5.241241000000001
 10
9.109109
 20
5.228228
 10
9.066066000000001
 20
5.186186
 10
9.056056
 20
5.172172
 10
9.036035999999999
 20
5.15015
 10
9.009008999999999
 20
5.114114
 10
8.973974
 20
5.074074
 10
8.933933999999999
 20
5.017017
 10
8.910911000000001
 20
4.980981
 10
8.897898
 20
4.951952
 10
8.891892
 20
4.938939
 10
8.864865
 20
4.892893
 10
8.832833000000001
 20
4.854855000000001
 10
8.803804
 20
4.827828
 10
8.767767999999999
 20
4.794795
 10
8.734735000000001
 20
4.768769
 10
8.717718
 20
4.757758
 10
8.697697999999999
 20
4.740741000000001
 10
8.649649999999999
 20
4.697698
 10
8.614614999999999
 20
4.651652
 10
8.598599
 20
4.625626000000001
 10
8.583584
 20
4.595596
 10
8.544544999999999
 20
4.527528
 10
8.504505
 20
4.472472
 10
8.469469
 20
4.434434
 10
8.437436999999999
 20
4.403403
 10
8.404404
 20
4.372372
 10
8.375375
 20
4.332332
 10
8.363363
 20
4.313313
 10
8.338338
 20
4.28028
 10
8.307307000000002
 20
4.256256
 10
8.283283000000001
 20
4.231231
 10
8.256256000000001
 20
4.169169
 10
8.243243
 20
4.133133
 10
8.215214999999999
 20
4.065065
 10
8.193192999999999
 20
4.006006
 10
8.187187
 20
3.975976
 10
8.185093
 20
3.946608
  0
LINE
  5
253
330
18
100
AcDbEntity
  8
0
100
AcDbLine
 10
8.131131
 20
2.155729
 30
0.0
 11
8.131131
 21
3.719816
 31
0.0
  0
LINE
  5
254
330
18
100
AcDbEntity
  8
0
100
AcDbLine
 10
2.270559
 20
4.325078
 30
0.0
 11
2.270559
 21
4.911878
 31
0.0
  0
LINE
  5
255
330
18
100
AcDbEntity
  8
0
100
AcDbLine
 10
2.185166
 20
4.33901
 30
0.0
 11
2.185166
 21
4.937938
 31
0.0
  0
LINE
  5
256
330
18
100
AcDbEntity
  8
0
100
AcDbLine
 10
8.033134
 20
2.155458
 30
0.0
 11
8.032458999999999
 21
3.644709
 31
0.0
  0
LINE
  5
257
330
18
100
AcDbEntity
  8
0
100
AcDbLine
 10
0.327856
 20
7.28083
 30
0.0
 11
0.681299
 21
7.115025
 31
0.0
  0
LINE
  5
258
330
18
100
AcDbEntity
  8
0
100
AcDbLine
 10
0.282182
 20
7.190902
 30
0.0
 11
0.688341
 21
7.000392
 31
0.0
  0
LINE
  5
259
330
18
100
AcDbEntity
  8
0
100
AcDbLine
 10
6.071149
 20
6.64777
 30
0.0
 11
6.067785
 21
7.40692
 31
0.0
  0
LINE
  5
25A
330
18
100
AcDbEntity
  8
0
100
AcDbLine
 10
3.071626
 20
8.328889
 30
0.0
 11
3.079168
 21
7.730919
 31
0.0
  0
LWPOLYLINE
  5
25B
330
18
100
AcDbEntity
  8
0
100
AcDbPolyline
 90
       16
 70
     1
 43
0.0
 10
6.067804
 20
7.402794999999999
 42
0.145982
 10
6.072514
 20
7.391323
 42
0.107163
 10
6.085546
 20
7.380832000000001
 42
0.077084
 10
6.102425
 20
7.375417
 42
0.064141
 10
6.12368
 20
7.374813000000001
 42
0.064141
 10
6.144394
 20
7.379614
 42
0.077084
 10
6.159867
 20
7.388264
 42
0.107163
 10
6.170564
 20
7.401128
 42
0.145982
 10
6.172909
 20
7.413305
 42
0.145982
 10
6.168199
 20
7.424777000000001
 42
0.107163
 10
6.155166
 20
7.435267999999999
 42
0.077084
 10
6.138287999999999
 20
7.440682000000001
 42
0.064141
 10
6.117032
 20
7.441286999999999
 42
0.064141
 10
6.096318
 20
7.436485
 42
0.077084
 10
6.080846
 20
7.427836
 42
0.107163
 10
6.070149
 20
7.414972
 42
0.145982
  0
LWPOLYLINE
  5
26E
330
18
100
AcDbEntity
  8
0
100
AcDbPolyline
 90
        9
 70
     0
 43
0.0
 10
6.067853
 20
7.391736999999999
 42
0.145982
 10
6.072563
 20
7.380266000000001
 42
0.107163
 10
6.085595
 20
7.369774000000001
 42
0.077084
 10
6.102474
 20
7.364360000000001
 42
0.064141
 10
6.123729
 20
7.363755
 42
0.064141
 10
6.144443
 20
7.368557000000001
 42
0.077084
 10
6.159916
 20
7.377206
 42
0.107163
 10
6.170613
 20
7.390071000000001
 42
0.136356
 10
6.173024
 20
7.401432000000001
 42
0.145982
  0
LWPOLYLINE
  5
27A
330
18
100
AcDbEntity
  8
0
100
AcDbPolyline
 90
        9
 70
     0
 43
0.0
 10
6.067901999999999
 20
7.38068
 42
0.145982
 10
6.072612
 20
7.369208
 42
0.107163
 10
6.085644
 20
7.358717
 42
0.077084
 10
6.102523000000001
 20
7.353303
 42
0.064141
 10
6.123778
 20
7.352697999999999
 42
0.064141
 10
6.144492
 20
7.3575
 42
0.077084
 10
6.159965000000001
 20
7.366149000000001
 42
0.107163
 10
6.170662
 20
7.379013000000001
 42
0.108069
 10
6.173088
 20
7.387958
 42
0.145982
  0
LWPOLYLINE
  5
286
330
18
100
AcDbEntity
  8
0
100
AcDbPolyline
 90
        9
 70
     0
 43
0.0
 10
6.067951
 20
7.369622
 42
0.145982
 10
6.072661
 20
7.358150999999999
 42
0.107163
 10
6.085693
 20
7.347658999999999
 42
0.077084
 10
6.102572
 20
7.342245
 42
0.064141
 10
6.123827
 20
7.341639999999999
 42
0.064141
 10
6.144541
 20
7.346442
 42
0.077084
 10
6.160014
 20
7.355091000000001
 42
0.107163
 10
6.170711
 20
7.367956
 42
0.108069
 10
6.173137000000001
 20
7.3769
 42
0.145982
  0
LWPOLYLINE
  5
292
330
18
100
AcDbEntity
  8
0
100
AcDbPolyline
 90
        9
 70
     0
 43
0.0
 10
6.068
 20
7.358565
 42
0.145982
 10
6.07271
 20
7.347092999999999
 42
0.107163
 10
6.085742
 20
7.336602
 42
0.077084
 10
6.102621
 20
7.331188
 42
0.064141
 10
6.123876
 20
7.330583
 42
0.064141
 10
6.14459
 20
7.335385000000001
 42
0.077084
 10
6.160063
 20
7.344034
 42
0.107163
 10
6.17076
 20
7.356897999999999
 42
0.108069
 10
6.173186
 20
7.365842999999999
 42
0.145982
  0
LWPOLYLINE
  5
29E
330
18
100
AcDbEntity
  8
0
100
AcDbPolyline
 90
        9
 70
     0
 43
0.0
 10
6.068048999999999
 20
7.347508
 42
0.145982
 10
6.072759
 20
7.336036
 42
0.107163
 10
6.085791
 20
7.325545
 42
0.077084
 10
6.10267
 20
7.320130000000001
 42
0.064141
 10
6.123925
 20
7.319526
 42
0.064141
 10
6.144639
 20
7.324327
 42
0.077084
 10
6.160112000000001
 20
7.332977000000001
 42
0.107163
 10
6.170808999999999
 20
7.345841
 42
0.108069
 10
6.173235
 20
7.354785000000001
 42
0.145982
  0
LWPOLYLINE
  5
2AA
330
18
100
AcDbEntity
  8
0
100
AcDbPolyline
 90
        9
 70
     0
 43
0.0
 10
6.068098
 20
7.33645
 42
0.145982
 10
6.072808
 20
7.324978
 42
0.107163
 10
6.08584
 20
7.314487
 42
0.077084
 10
6.102719
 20
7.309073
 42
0.064141
 10
6.123974
 20
7.308468
 42
0.064141
 10
6.144688
 20
7.313269999999999
 42
0.077084
 10
6.160161
 20
7.321919
 42
0.107163
 10
6.170858
 20
7.334783
 42
0.108069
 10
6.173284
 20
7.343728
 42
0.145982
  0
LWPOLYLINE
  5
2B6
330
18
100
AcDbEntity
  8
0
100
AcDbPolyline
 90
        9
 70
     0
 43
0.0
 10
6.068147
 20
7.325392999999999
 42
0.145982
 10
6.072857
 20
7.313921000000001
 42
0.107163
 10
6.085889
 20
7.303430000000001
 42
0.077084
 10
6.102768
 20
7.298015
 42
0.064141
 10
6.124023
 20
7.297411
 42
0.064141
 10
6.144737
 20
7.302212
 42
0.077084
 10
6.16021
 20
7.310861999999999
 42
0.107163
 10
6.170907
 20
7.323726
 42
0.108069
 10
6.173333
 20
7.332669999999999
 42
0.145982
  0
LWPOLYLINE
  5
2C2
330
18
100
AcDbEntity
  8
0
100
AcDbPolyline
 90
        9
 70
     0
 43
0.0
 10
6.068196
 20
7.314335000000001
 42
0.145982
 10
6.072906
 20
7.302863
 42
0.107163
 10
6.085938
 20
7.292372
 42
0.077084
 10
6.102817
 20
7.286958
 42
0.064141
 10
6.124072
 20
7.286353
 42
0.064141
 10
6.144786
 20
7.291155000000001
 42
0.077084
 10
6.160259
 20
7.299803999999999
 42
0.107163
 10
6.170955999999999
 20
7.312669000000001
 42
0.108069
 10
6.173382
 20
7.321613
 42
0.145982
  0
LWPOLYLINE
  5
2CE
330
18
100
AcDbEntity
  8
0
100
AcDbPolyline
 90
        9
 70
     0
 43
0.0
 10
6.068245
 20
7.303278
 42
0.145982
 10
6.072955
 20
7.291805999999999
 42
0.107163
 10
6.085987
 20
7.281314999999999
 42
0.077084
 10
6.102866000000001
 20
7.275900999999999
 42
0.064141
 10
6.124121
 20
7.275296000000001
 42
0.064141
 10
6.144835
 20
7.280097000000001
 42
0.077084
 10
6.160308000000001
 20
7.288747
 42
0.107163
 10
6.171005
 20
7.301611
 42
0.108069
 10
6.173431
 20
7.310556
 42
0.145982
  0
LWPOLYLINE
  5
2DA
330
18
100
AcDbEntity
  8
0
100
AcDbPolyline
 90
        9
 70
     0
 43
0.0
 10
6.068294
 20
7.29222
 42
0.145982
 10
6.073004
 20
7.280749
 42
0.107163
 10
6.086036
 20
7.270257000000001
 42
0.077084
 10
6.102915
 20
7.264842999999999
 42
0.064141
 10
6.124169999999999
 20
7.264238000000001
 42
0.064141
 10
6.144883999999999
 20
7.26904
 42
0.077084
 10
6.160357
 20
7.277689
 42
0.107163
 10
6.171054
 20
7.290553999999999
 42
0.108069
 10
6.173480000000001
 20
7.299498
 42
0.145982
  0
LWPOLYLINE
  5
2E6
330
18
100
AcDbEntity
  8
0
100
AcDbPolyline
 90
        9
 70
     0
 43
0.0
 10
6.068343
 20
7.281163
 42
0.145982
 10
6.073053
 20
7.269691000000001
 42
0.107163
 10
6.086085
 20
7.2592
 42
0.077084
 10
6.102964
 20
7.253786
 42
0.064141
 10
6.124219
 20
7.253181
 42
0.064141
 10
6.144933
 20
7.257983
 42
0.077084
 10
6.160406
 20
7.266632
 42
0.107163
 10
6.171103
 20
7.279496000000001
 42
0.108069
 10
6.173529
 20
7.288441000000001
 42
0.145982
  0
LWPOLYLINE
  5
2F2
330
18
100
AcDbEntity
  8
0
100
AcDbPolyline
 90
        9
 70
     0
 43
0.0
 10
6.068392
 20
7.270105
 42
0.145982
 10
6.073102
 20
7.258634
 42
0.107163
 10
6.086134
 20
7.248142
 42
0.077084
 10
6.103013
 20
7.242728
 42
0.064141
 10
6.124268
 20
7.242124
 42
0.064141
 10
6.144982
 20
7.246925
 42
0.077084
 10
6.160455000000001
 20
7.255575
 42
0.107163
 10
6.171151999999999
 20
7.268439
 42
0.108069
 10
6.173578
 20
7.277383
 42
0.145982
  0
LWPOLYLINE
  5
2FE
330
18
100
AcDbEntity
  8
0
100
AcDbPolyline
 90
        9
 70
     0
 43
0.0
 10
6.068441
 20
7.259048
 42
0.145982
 10
6.073151
 20
7.247576
 42
0.107163
 10
6.086183
 20
7.237085
 42
0.077084
 10
6.103062
 20
7.231671
 42
0.064141
 10
6.124317
 20
7.231066
 42
0.064141
 10
6.145031
 20
7.235867999999999
 42
0.077084
 10
6.160504
 20
7.244517
 42
0.107163
 10
6.171201
 20
7.257381
 42
0.108069
 10
6.173627
 20
7.266325999999999
 42
0.145982
  0
LWPOLYLINE
  5
30A
330
18
100
AcDbEntity
  8
0
100
AcDbPolyline
 90
        9
 70
     0
 43
0.0
 10
6.06849
 20
7.247991000000001
 42
0.145982
 10
6.0732
 20
7.236519
 42
0.107163
 10
6.086232
 20
7.226028
 42
0.077084
 10
6.103111
 20
7.220613
 42
0.064141
 10
6.124366
 20
7.220008999999999
 42
0.064141
 10
6.14508
 20
7.224810000000001
 42
0.077084
 10
6.160553
 20
7.233460000000001
 42
0.107163
 10
6.17125
 20
7.246324
 42
0.108069
 10
6.173676
 20
7.255267999999999
 42
0.145982
  0
LWPOLYLINE
  5
316
330
18
100
AcDbEntity
  8
0
100
AcDbPolyline
 90
        9
 70
     0
 43
0.0
 10
6.068539
 20
7.236933000000001
 42
0.145982
 10
6.073249
 20
7.225461
 42
0.107163
 10
6.086281
 20
7.21497
 42
0.077084
 10
6.10316
 20
7.209556
 42
0.064141
 10
6.124415
 20
7.208951
 42
0.064141
 10
6.145129
 20
7.213753
 42
0.077084
 10
6.160602
 20
7.222402000000001
 42
0.107163
 10
6.171298999999999
 20
7.235266
 42
0.108069
 10
6.173725
 20
7.244211
 42
0.145982
  0
LWPOLYLINE
  5
322
330
18
100
AcDbEntity
  8
0
100
AcDbPolyline
 90
        9
 70
     0
 43
0.0
 10
6.068588
 20
7.225876
 42
0.145982
 10
6.073298
 20
7.214403999999999
 42
0.107163
 10
6.08633
 20
7.203913000000001
 42
0.077084
 10
6.103209
 20
7.198498
 42
0.064141
 10
6.124464
 20
7.197894
 42
0.064141
 10
6.145178
 20
7.202694999999999
 42
0.077084
 10
6.160651000000001
 20
7.211345
 42
0.107163
 10
6.171348
 20
7.224208999999999
 42
0.108069
 10
6.173774
 20
7.233153999999999
 42
0.145982
  0
LWPOLYLINE
  5
32E
330
18
100
AcDbEntity
  8
0
100
AcDbPolyline
 90
        9
 70
     0
 43
0.0
 10
6.068637
 20
7.214817999999999
 42
0.145982
 10
6.073347
 20
7.203347
 42
0.107163
 10
6.086379
 20
7.192855000000001
 42
0.077084
 10
6.103258
 20
7.187441000000001
 42
0.064141
 10
6.124512999999999
 20
7.186836
 42
0.064141
 10
6.145226999999999
 20
7.191638
 42
0.077084
 10
6.1607
 20
7.200286999999999
 42
0.107163
 10
6.171397
 20
7.213152
 42
0.108069
 10
6.173823000000001
 20
7.222096000000001
 42
0.145982
  0
LWPOLYLINE
  5
33A
330
18
100
AcDbEntity
  8
0
100
AcDbPolyline
 90
        9
 70
     0
 43
0.0
 10
6.068686000000001
 20
7.203761
 42
0.145982
 10
6.073396
 20
7.192289
 42
0.107163
 10
6.086428
 20
7.181798
 42
0.077084
 10
6.103307
 20
7.176384
 42
0.064141
 10
6.124562
 20
7.175779
 42
0.064141
 10
6.145276
 20
7.180581
 42
0.077084
 10
6.160749
 20
7.18923
 42
0.107163
 10
6.171446
 20
7.202094000000001
 42
0.108069
 10
6.173872
 20
7.211039
 42
0.145982
  0
LWPOLYLINE
  5
346
330
18
100
AcDbEntity
  8
0
100
AcDbPolyline
 90
        9
 70
     0
 43
0.0
 10
6.068735
 20
7.192703
 42
0.145982
 10
6.073445
 20
7.181232000000001
 42
0.107163
 10
6.086477
 20
7.170739999999999
 42
0.077084
 10
6.103356
 20
7.165325999999999
 42
0.064141
 10
6.124611
 20
7.164722
 42
0.064141
 10
6.145325
 20
7.169523
 42
0.077084
 10
6.160798000000001
 20
7.178172999999999
 42
0.107163
 10
6.171494999999999
 20
7.191037
 42
0.108069
 10
6.173921
 20
7.199981
 42
0.145982
  0
LWPOLYLINE
  5
352
330
18
100
AcDbEntity
  8
0
100
AcDbPolyline
 90
        9
 70
     0
 43
0.0
 10
6.068784
 20
7.181646000000001
 42
0.145982
 10
6.073494
 20
7.170174
 42
0.107163
 10
6.086526
 20
7.159683
 42
0.077084
 10
6.103405
 20
7.154269
 42
0.064141
 10
6.12466
 20
7.153664
 42
0.064141
 10
6.145373999999999
 20
7.158466000000001
 42
0.077084
 10
6.160847
 20
7.167114999999999
 42
0.107163
 10
6.171544
 20
7.179978999999999
 42
0.108069
 10
6.17397
 20
7.188924
 42
0.145982
  0
LWPOLYLINE
  5
35E
330
18
100
AcDbEntity
  8
0
100
AcDbPolyline
 90
        9
 70
     0
 43
0.0
 10
6.068833000000001
 20
7.170589
 42
0.145982
 10
6.073543
 20
7.159117
 42
0.107163
 10
6.086575
 20
7.148625999999999
 42
0.077084
 10
6.103454
 20
7.143211
 42
0.064141
 10
6.124708999999999
 20
7.142607000000001
 42
0.064141
 10
6.145423
 20
7.147408
 42
0.077084
 10
6.160896
 20
7.156058
 42
0.107163
 10
6.171593
 20
7.168922
 42
0.108069
 10
6.174019
 20
7.177866000000001
 42
0.145982
  0
LWPOLYLINE
  5
36A
330
18
100
AcDbEntity
  8
0
100
AcDbPolyline
 90
        9
 70
     0
 43
0.0
 10
6.068882
 20
7.159530999999999
 42
0.145982
 10
6.073592
 20
7.148059
 42
0.107163
 10
6.086624
 20
7.137567999999999
 42
0.077084
 10
6.103503
 20
7.132153999999999
 42
0.064141
 10
6.124758
 20
7.131549000000001
 42
0.064141
 10
6.145472
 20
7.136350999999999
 42
0.077084
 10
6.160945
 20
7.145
 42
0.107163
 10
6.171641999999999
 20
7.157864
 42
0.108069
 10
6.174068
 20
7.166809
 42
0.145982
  0
LWPOLYLINE
  5
376
330
18
100
AcDbEntity
  8
0
100
AcDbPolyline
 90
        9
 70
     0
 43
0.0
 10
6.068931
 20
7.148474
 42
0.145982
 10
6.073641
 20
7.137002000000001
 42
0.107163
 10
6.086673
 20
7.126511
 42
0.077084
 10
6.103552
 20
7.121096000000001
 42
0.064141
 10
6.124807
 20
7.120492
 42
0.064141
 10
6.145521
 20
7.125292999999999
 42
0.077084
 10
6.160994000000001
 20
7.133943
 42
0.107163
 10
6.171691
 20
7.146807000000001
 42
0.108069
 10
6.174117
 20
7.155752000000001
 42
0.145982
  0
LWPOLYLINE
  5
382
330
18
100
AcDbEntity
  8
0
100
AcDbPolyline
 90
        9
 70
     0
 43
0.0
 10
6.068980000000001
 20
7.137416
 42
0.145982
 10
6.07369
 20
7.125945
 42
0.107163
 10
6.086722
 20
7.115453
 42
0.077084
 10
6.103601
 20
7.110039
 42
0.064141
 10
6.124855999999999
 20
7.109433999999999
 42
0.064141
 10
6.145569999999999
 20
7.114236
 42
0.077084
 10
6.161043
 20
7.122885000000001
 42
0.107163
 10
6.17174
 20
7.13575
 42
0.108069
 10
6.174166000000001
 20
7.144694
 42
0.145982
  0
LWPOLYLINE
  5
38E
330
18
100
AcDbEntity
  8
0
100
AcDbPolyline
 90
        9
 70
     0
 43
0.0
 10
6.069029000000001
 20
7.126359
 42
0.145982
 10
6.073739
 20
7.114887
 42
0.107163
 10
6.086771
 20
7.104396
 42
0.077084
 10
6.10365
 20
7.098982
 42
0.064141
 10
6.124905
 20
7.098377
 42
0.064141
 10
6.145619
 20
7.103178999999999
 42
0.077084
 10
6.161092
 20
7.111828
 42
0.107163
 10
6.171789
 20
7.124692
 42
0.108069
 10
6.174215
 20
7.133636999999999
 42
0.145982
  0
LWPOLYLINE
  5
39A
330
18
100
AcDbEntity
  8
0
100
AcDbPolyline
 90
        9
 70
     0
 43
0.0
 10
6.069078
 20
7.115301
 42
0.145982
 10
6.073788
 20
7.10383
 42
0.107163
 10
6.08682
 20
7.093338
 42
0.077084
 10
6.103699
 20
7.087924
 42
0.064141
 10
6.124954
 20
7.087319
 42
0.064141
 10
6.145668
 20
7.092121000000001
 42
0.077084
 10
6.161141000000001
 20
7.10077
 42
0.107163
 10
6.171838
 20
7.113635
 42
0.108069
 10
6.174264
 20
7.122578999999999
 42
0.145982
  0
LWPOLYLINE
  5
3A6
330
18
100
AcDbEntity
  8
0
100
AcDbPolyline
 90
        9
 70
     0
 43
0.0
 10
6.069127
 20
7.104244
 42
0.145982
 10
6.073837
 20
7.092772
 42
0.107163
 10
6.086869
 20
7.082281
 42
0.077084
 10
6.103748
 20
7.076867
 42
0.064141
 10
6.125003
 20
7.076262
 42
0.064141
 10
6.145716999999999
 20
7.081064
 42
0.077084
 10
6.16119
 20
7.089713000000001
 42
0.107163
 10
6.171887
 20
7.102577
 42
0.108069
 10
6.174313
 20
7.111522
 42
0.145982
  0
LWPOLYLINE
  5
3B2
330
18
100
AcDbEntity
  8
0
100
AcDbPolyline
 90
        9
 70
     0
 43
0.0
 10
6.069176000000001
 20
7.093187
 42
0.145982
 10
6.073886
 20
7.081714999999999
 42
0.107163
 10
6.086918
 20
7.071224000000001
 42
0.077084
 10
6.103797
 20
7.065809
 42
0.064141
 10
6.125051999999999
 20
7.065205000000001
 42
0.064141
 10
6.145766
 20
7.070005999999999
 42
0.077084
 10
6.161239
 20
7.078656
 42
0.107163
 10
6.171936
 20
7.09152
 42
0.108069
 10
6.174362
 20
7.100464
 42
0.145982
  0
LWPOLYLINE
  5
3BE
330
18
100
AcDbEntity
  8
0
100
AcDbPolyline
 90
        9
 70
     0
 43
0.0
 10
6.069225
 20
7.082128999999999
 42
0.145982
 10
6.073935
 20
7.070657000000001
 42
0.107163
 10
6.086967
 20
7.060166000000001
 42
0.077084
 10
6.103846
 20
7.054752000000001
 42
0.064141
 10
6.125101
 20
7.054147
 42
0.064141
 10
6.145815
 20
7.058949
 42
0.077084
 10
6.161288
 20
7.067597999999999
 42
0.107163
 10
6.171985
 20
7.080462
 42
0.108069
 10
6.174411
 20
7.089407000000001
 42
0.145982
  0
LWPOLYLINE
  5
3CA
330
18
100
AcDbEntity
  8
0
100
AcDbPolyline
 90
        9
 70
     0
 43
0.0
 10
6.069274
 20
7.071072
 42
0.145982
 10
6.073983999999999
 20
7.0596
 42
0.107163
 10
6.087016
 20
7.049109
 42
0.077084
 10
6.103895
 20
7.043694
 42
0.064141
 10
6.12515
 20
7.043089999999999
 42
0.064141
 10
6.145864
 20
7.047891
 42
0.077084
 10
6.161337000000001
 20
7.056541
 42
0.107163
 10
6.172034
 20
7.069405000000001
 42
0.108069
 10
6.17446
 20
7.078349
 42
0.145982
  0
LWPOLYLINE
  5
3D6
330
18
100
AcDbEntity
  8
0
100
AcDbPolyline
 90
        9
 70
     0
 43
0.0
 10
6.069323000000001
 20
7.060014
 42
0.145982
 10
6.074033
 20
7.048541999999999
 42
0.107163
 10
6.087065
 20
7.038050999999999
 42
0.077084
 10
6.103944
 20
7.032636999999999
 42
0.064141
 10
6.125198999999999
 20
7.032032000000001
 42
0.064141
 10
6.145913
 20
7.036834
 42
0.077084
 10
6.161386
 20
7.045483
 42
0.107163
 10
6.172083
 20
7.058348
 42
0.108069
 10
6.174509
 20
7.067292
 42
0.145982
  0
LWPOLYLINE
  5
3E2
330
18
100
AcDbEntity
  8
0
100
AcDbPolyline
 90
        9
 70
     0
 43
0.0
 10
6.069372
 20
7.048957000000001
 42
0.145982
 10
6.074082
 20
7.037485
 42
0.107163
 10
6.087114
 20
7.026994
 42
0.077084
 10
6.103993
 20
7.02158
 42
0.064141
 10
6.125248
 20
7.020975
 42
0.064141
 10
6.145962
 20
7.025777000000001
 42
0.077084
 10
6.161435
 20
7.034426
 42
0.107163
 10
6.172132
 20
7.047289999999999
 42
0.108069
 10
6.174558
 20
7.056235000000001
 42
0.145982
  0
LWPOLYLINE
  5
3EE
330
18
100
AcDbEntity
  8
0
100
AcDbPolyline
 90
        9
 70
     0
 43
0.0
 10
6.069421
 20
7.037899
 42
0.145982
 10
6.074131
 20
7.026428
 42
0.107163
 10
6.087162999999999
 20
7.015936
 42
0.077084
 10
6.104042
 20
7.010522
 42
0.064141
 10
6.125297
 20
7.009917
 42
0.064141
 10
6.146011
 20
7.014719
 42
0.077084
 10
6.161484
 20
7.023368
 42
0.107163
 10
6.172181
 20
7.036233
 42
0.108069
 10
6.174607
 20
7.045177000000001
 42
0.145982
  0
LWPOLYLINE
  5
3FA
330
18
100
AcDbEntity
  8
0
100
AcDbPolyline
 90
        9
 70
     0
 43
0.0
 10
6.06947
 20
7.026842
 42
0.145982
 10
6.07418
 20
7.01537
 42
0.107163
 10
6.087212
 20
7.004878999999999
 42
0.077084
 10
6.104091
 20
6.999465
 42
0.064141
 10
6.125346
 20
6.998860000000001
 42
0.064141
 10
6.146059999999999
 20
7.003661999999999
 42
0.077084
 10
6.161533
 20
7.012311
 42
0.107163
 10
6.17223
 20
7.025175
 42
0.108069
 10
6.174656
 20
7.03412
 42
0.145982
  0
LWPOLYLINE
  5
406
330
18
100
AcDbEntity
  8
0
100
AcDbPolyline
 90
        9
 70
     0
 43
0.0
 10
6.069519000000001
 20
7.015784
 42
0.145982
 10
6.074229
 20
7.004313000000001
 42
0.107163
 10
6.087261
 20
6.993821000000001
 42
0.077084
 10
6.10414
 20
6.988407000000001
 42
0.064141
 10
6.125395
 20
6.987803
 42
0.064141
 10
6.146109
 20
6.992603999999999
 42
0.077084
 10
6.161582
 20
7.001253999999999
 42
0.107163
 10
6.172279000000001
 20
7.014117999999999
 42
0.108069
 10
6.174705
 20
7.023062
 42
0.145982
  0
LINE
  5
412
330
18
100
AcDbEntity
  8
0
100
AcDbLine
 10
6.176064
 20
6.966460000000001
 30
0.0
 11
7.806653
 21
6.392048
 31
0.0
  0
LWPOLYLINE
  5
413
330
18
100
AcDbEntity
  8
0
100
AcDbPolyline
 90
        9
 70
     0
 43
0.0
 10
6.069568
 20
7.004727000000001
 42
0.145982
 10
6.074278
 20
6.993255
 42
0.107163
 10
6.08731
 20
6.982764
 42
0.077084
 10
6.104189
 20
6.97735
 42
0.064141
 10
6.125444
 20
6.976744999999999
 42
0.064141
 10
6.146158
 20
6.981547
 42
0.077084
 10
6.161631
 20
6.990196000000001
 42
0.107163
 10
6.172328
 20
7.003060000000001
 42
0.108069
 10
6.174754
 20
7.012005
 42
0.145982
  0
LWPOLYLINE
  5
41F
330
18
100
AcDbEntity
  8
0
100
AcDbPolyline
 90
        9
 70
     0
 43
0.0
 10
6.06962
 20
6.992918
 42
0.145982
 10
6.074330000000001
 20
6.981446000000001
 42
0.107163
 10
6.087362000000001
 20
6.970955
 42
0.077084
 10
6.104241
 20
6.96554
 42
0.064141
 10
6.125496
 20
6.964936
 42
0.064141
 10
6.146211
 20
6.969736999999999
 42
0.077084
 10
6.161683
 20
6.978387
 42
0.107163
 10
6.17238
 20
6.991250999999999
 42
0.108069
 10
6.174805999999999
 20
7.000195
 42
0.145982
  0
LWPOLYLINE
  5
42B
330
18
100
AcDbEntity
  8
0
100
AcDbPolyline
 90
        9
 70
     0
 43
0.0
 10
6.069669
 20
6.98186
 42
0.145982
 10
6.074379
 20
6.970389
 42
0.107163
 10
6.087411
 20
6.959897
 42
0.077084
 10
6.10429
 20
6.954483
 42
0.064141
 10
6.125545
 20
6.953878
 42
0.064141
 10
6.14626
 20
6.95868
 42
0.077084
 10
6.161732
 20
6.967328999999999
 42
0.107163
 10
6.172429
 20
6.980194
 42
0.108069
 10
6.174855
 20
6.989138000000001
 42
0.145982
  0
LWPOLYLINE
  5
437
330
18
100
AcDbEntity
  8
0
100
AcDbPolyline
 90
        9
 70
     0
 43
0.0
 10
6.069718
 20
6.970803
 42
0.145982
 10
6.074428
 20
6.959331
 42
0.107163
 10
6.08746
 20
6.94884
 42
0.077084
 10
6.104339
 20
6.943426
 42
0.064141
 10
6.125594
 20
6.942821
 42
0.064141
 10
6.146309
 20
6.947622999999999
 42
0.077084
 10
6.161781
 20
6.956272
 42
0.107163
 10
6.172478
 20
6.969136
 42
0.108069
 10
6.174904
 20
6.978081
 42
0.145982
  0
LWPOLYLINE
  5
443
330
18
100
AcDbEntity
  8
0
100
AcDbPolyline
 90
        9
 70
     0
 43
0.0
 10
6.069767
 20
6.959745
 42
0.145982
 10
6.074477
 20
6.948274000000001
 42
0.107163
 10
6.087509
 20
6.937782
 42
0.077084
 10
6.104388
 20
6.932367999999999
 42
0.064141
 10
6.125643
 20
6.931763
 42
0.064141
 10
6.146358
 20
6.936564999999999
 42
0.077084
 10
6.16183
 20
6.945214
 42
0.107163
 10
6.172527
 20
6.958079
 42
0.108069
 10
6.174953
 20
6.967022999999999
 42
0.145982
  0
LWPOLYLINE
  5
44F
330
18
100
AcDbEntity
  8
0
100
AcDbPolyline
 90
        9
 70
     0
 43
0.0
 10
6.069816
 20
6.948688000000001
 42
0.145982
 10
6.074526000000001
 20
6.937216
 42
0.107163
 10
6.087558000000001
 20
6.926725
 42
0.077084
 10
6.104437
 20
6.921311
 42
0.064141
 10
6.125692
 20
6.920706
 42
0.064141
 10
6.146407
 20
6.925508
 42
0.077084
 10
6.161879
 20
6.934157000000001
 42
0.107163
 10
6.172576
 20
6.947021
 42
0.108069
 10
6.175002
 20
6.955966
 42
0.145982
  0
LWPOLYLINE
  5
45B
330
18
100
AcDbEntity
  8
0
100
AcDbPolyline
 90
        9
 70
     0
 43
0.0
 10
6.069865
 20
6.93763
 42
0.145982
 10
6.074575
 20
6.926158999999999
 42
0.107163
 10
6.087607
 20
6.915667999999999
 42
0.077084
 10
6.104486
 20
6.910253
 42
0.064141
 10
6.125741000000001
 20
6.909649000000001
 42
0.064141
 10
6.146456
 20
6.91445
 42
0.077084
 10
6.161928
 20
6.9231
 42
0.107163
 10
6.172625
 20
6.935964
 42
0.108069
 10
6.175051
 20
6.944908
 42
0.145982
  0
LWPOLYLINE
  5
467
330
18
100
AcDbEntity
  8
0
100
AcDbPolyline
 90
        9
 70
     0
 43
0.0
 10
6.071149
 20
6.64777
 42
0.145982
 10
6.075859
 20
6.636299
 42
0.107163
 10
6.088892
 20
6.625807000000001
 42
0.077084
 10
6.10577
 20
6.620392999999999
 42
0.064141
 10
6.127026
 20
6.619788000000001
 42
0.064141
 10
6.14774
 20
6.62459
 42
0.077084
 10
6.163212000000001
 20
6.633239
 42
0.107163
 10
6.173909
 20
6.646103999999999
 42
0.108069
 10
6.176335
 20
6.655048
 42
0.145982
  0
LINE
  5
473
330
18
100
AcDbEntity
  8
0
100
AcDbLine
 10
6.176326
 20
6.654876
 30
0.0
 11
6.172956
 21
7.415402
 31
0.0
  0
LINE
  5
474
330
18
100
AcDbEntity
  8
0
100
AcDbLine
 10
3.16622
 20
8.338348
 30
0.0
 11
3.173772
 21
7.739617999999999
 31
0.0
  0
LWPOLYLINE
  5
475
330
18
100
AcDbEntity
  8
0
100
AcDbPolyline
 90
       16
 70
     1
 43
0.0
 10
3.071626
 20
8.328889
 42
0.145982
 10
3.075865
 20
8.318564
 42
0.107163
 10
3.087594
 20
8.309122
 42
0.077084
 10
3.102785
 20
8.304249
 42
0.064141
 10
3.121914
 20
8.303705000000001
 42
0.064141
 10
3.140558
 20
8.308026
 42
0.077084
 10
3.154483
 20
8.315811
 42
0.107163
 10
3.16411
 20
8.327389
 42
0.145982
 10
3.16622
 20
8.338348
 42
0.145982
 10
3.161981
 20
8.348673
 42
0.107163
 10
3.150252
 20
8.358115
 42
0.077084
 10
3.135061
 20
8.362988
 42
0.064141
 10
3.115932
 20
8.363532000000001
 42
0.064141
 10
3.097289
 20
8.359210000000001
 42
0.077084
 10
3.083364
 20
8.351426
 42
0.107163
 10
3.073736
 20
8.339848
 42
0.145982
  0
LWPOLYLINE
  5
488
330
18
100
AcDbEntity
  8
0
100
AcDbPolyline
 90
        9
 70
     0
 43
0.0
 10
3.071872
 20
8.309374999999999
 42
0.136945
 10
3.07603
 20
8.299737
 42
0.107163
 10
3.087759
 20
8.290295
 42
0.077084
 10
3.10295
 20
8.285422000000001
 42
0.064141
 10
3.12208
 20
8.284877999999999
 42
0.064141
 10
3.140723
 20
8.289199
 42
0.077084
 10
3.154648
 20
8.296984
 42
0.107163
 10
3.164275
 20
8.308562
 42
0.145982
 10
3.166386
 20
8.319521
 42
0.145982
  0
LWPOLYLINE
  5
494
330
18
100
AcDbEntity
  8
0
100
AcDbPolyline
 90
        9
 70
     0
 43
0.0
 10
3.071749
 20
8.319132000000002
 42
0.136945
 10
3.075907
 20
8.309494000000001
 42
0.107163
 10
3.087636
 20
8.300052000000001
 42
0.077084
 10
3.102827
 20
8.295178999999999
 42
0.064141
 10
3.121957
 20
8.294635000000001
 42
0.064141
 10
3.1406
 20
8.298956
 42
0.077084
 10
3.154525
 20
8.306741000000001
 42
0.107163
 10
3.164152
 20
8.318319000000001
 42
0.145982
 10
3.166262
 20
8.329278
 42
0.145982
  0
LWPOLYLINE
  5
4A0
330
18
100
AcDbEntity
  8
0
100
AcDbPolyline
 90
        9
 70
     0
 43
0.0
 10
3.071995
 20
8.299617999999999
 42
0.136945
 10
3.076153
 20
8.28998
 42
0.107163
 10
3.087882
 20
8.280538
 42
0.077084
 10
3.103073
 20
8.275665
 42
0.064141
 10
3.122203
 20
8.275121
 42
0.064141
 10
3.140846
 20
8.279442
 42
0.077084
 10
3.154771
 20
8.287227
 42
0.107163
 10
3.164398
 20
8.298805
 42
0.145982
 10
3.166509
 20
8.309764
 42
0.145982
  0
LWPOLYLINE
  5
4AC
330
18
100
AcDbEntity
  8
0
100
AcDbPolyline
 90
        9
 70
     0
 43
0.0
 10
3.072118
 20
8.289861
 42
0.136945
 10
3.076276
 20
8.280222999999999
 42
0.107163
 10
3.088005
 20
8.270781
 42
0.077084
 10
3.103196
 20
8.265908
 42
0.064141
 10
3.122326
 20
8.265364
 42
0.064141
 10
3.140969
 20
8.269685000000001
 42
0.077084
 10
3.154894
 20
8.277469999999999
 42
0.107163
 10
3.164521
 20
8.289047999999999
 42
0.145982
 10
3.166632
 20
8.300007000000001
 42
0.145982
  0
LWPOLYLINE
  5
4B8
330
18
100
AcDbEntity
  8
0
100
AcDbPolyline
 90
        9
 70
     0
 43
0.0
 10
3.072241
 20
8.280104
 42
0.136945
 10
3.076399
 20
8.270466000000001
 42
0.107163
 10
3.088128
 20
8.261024000000001
 42
0.077084
 10
3.103319
 20
8.256150999999999
 42
0.064141
 10
3.122449
 20
8.255607000000001
 42
0.064141
 10
3.141092
 20
8.259928
 42
0.077084
 10
3.155017
 20
8.267713000000001
 42
0.107163
 10
3.164644
 20
8.279291000000001
 42
0.145982
 10
3.166755
 20
8.29025
 42
0.145982
  0
LWPOLYLINE
  5
4C4
330
18
100
AcDbEntity
  8
0
100
AcDbPolyline
 90
        9
 70
     0
 43
0.0
 10
3.072364
 20
8.270347000000001
 42
0.136945
 10
3.076522
 20
8.260709
 42
0.107163
 10
3.088251
 20
8.251267
 42
0.077084
 10
3.103442
 20
8.246394
 42
0.064141
 10
3.122572
 20
8.245850000000001
 42
0.064141
 10
3.141215
 20
8.250171
 42
0.077084
 10
3.15514
 20
8.257956
 42
0.107163
 10
3.164767
 20
8.269534
 42
0.145982
 10
3.166878
 20
8.280493
 42
0.145982
  0
LWPOLYLINE
  5
4D0
330
18
100
AcDbEntity
  8
0
100
AcDbPolyline
 90
        9
 70
     0
 43
0.0
 10
3.072487
 20
8.260589999999999
 42
0.136945
 10
3.076645
 20
8.250952
 42
0.107163
 10
3.088374
 20
8.24151
 42
0.077084
 10
3.103565
 20
8.236637
 42
0.064141
 10
3.122695
 20
8.236092999999999
 42
0.064141
 10
3.141338
 20
8.240414
 42
0.077084
 10
3.155263
 20
8.248199000000001
 42
0.107163
 10
3.16489
 20
8.259777
 42
0.145982
 10
3.167001
 20
8.270735999999999
 42
0.145982
  0
LWPOLYLINE
  5
4DC
330
18
100
AcDbEntity
  8
0
100
AcDbPolyline
 90
        9
 70
     0
 43
0.0
 10
3.07261
 20
8.250833
 42
0.136945
 10
3.076768
 20
8.241194999999999
 42
0.107163
 10
3.088498
 20
8.231752999999999
 42
0.077084
 10
3.103688
 20
8.22688
 42
0.064141
 10
3.122818
 20
8.226336
 42
0.064141
 10
3.141461
 20
8.230657000000001
 42
0.077084
 10
3.155386
 20
8.238441999999999
 42
0.107163
 10
3.165013
 20
8.250019999999999
 42
0.145982
 10
3.167124
 20
8.260978999999999
 42
0.145982
  0
LWPOLYLINE
  5
4E8
330
18
100
AcDbEntity
  8
0
100
AcDbPolyline
 90
        9
 70
     0
 43
0.0
 10
3.072733
 20
8.241076
 42
0.136945
 10
3.076891
 20
8.231438000000001
 42
0.107163
 10
3.088621
 20
8.221996000000001
 42
0.077084
 10
3.103811
 20
8.217122999999999
 42
0.064141
 10
3.122941
 20
8.216578999999999
 42
0.064141
 10
3.141584
 20
8.2209
 42
0.077084
 10
3.155509
 20
8.228685000000001
 42
0.107163
 10
3.165136
 20
8.240263000000001
 42
0.145982
 10
3.167247
 20
8.251222
 42
0.145982
  0
LWPOLYLINE
  5
4F4
330
18
100
AcDbEntity
  8
0
100
AcDbPolyline
 90
        9
 70
     0
 43
0.0
 10
3.072856
 20
8.231319000000001
 42
0.136945
 10
3.077014
 20
8.221681
 42
0.107163
 10
3.088744
 20
8.212239
 42
0.077084
 10
3.103934
 20
8.207366
 42
0.064141
 10
3.123064
 20
8.206822000000001
 42
0.064141
 10
3.141707
 20
8.211143
 42
0.077084
 10
3.155632
 20
8.218928
 42
0.107163
 10
3.165259
 20
8.230506
 42
0.145982
 10
3.16737
 20
8.241465
 42
0.145982
  0
LWPOLYLINE
  5
500
330
18
100
AcDbEntity
  8
0
100
AcDbPolyline
 90
        9
 70
     0
 43
0.0
 10
3.072979
 20
8.221561999999999
 42
0.136945
 10
3.077137
 20
8.211924
 42
0.107163
 10
3.088867
 20
8.202482
 42
0.077084
 10
3.104057
 20
8.197609
 42
0.064141
 10
3.123187
 20
8.197065
 42
0.064141
 10
3.14183
 20
8.201385999999999
 42
0.077084
 10
3.155755
 20
8.209171000000001
 42
0.107163
 10
3.165383
 20
8.220749
 42
0.145982
 10
3.167493
 20
8.231707999999999
 42
0.145982
  0
LINE
  5
50C
330
18
100
AcDbEntity
  8
0
100
AcDbLine
 10
3.177913
 20
8.022627
 30
0.0
 11
3.961712
 21
7.746516000000001
 31
0.0
  0
LWPOLYLINE
  5
50D
330
18
100
AcDbEntity
  8
0
100
AcDbPolyline
 90
        9
 70
     0
 43
0.0
 10
3.073103
 20
8.211805
 42
0.136945
 10
3.07726
 20
8.202166999999999
 42
0.107163
 10
3.08899
 20
8.192724999999999
 42
0.077084
 10
3.10418
 20
8.187852000000001
 42
0.064141
 10
3.12331
 20
8.187308
 42
0.064141
 10
3.141953
 20
8.191628999999999
 42
0.077084
 10
3.155878
 20
8.199413999999999
 42
0.107163
 10
3.165506
 20
8.210991999999999
 42
0.145982
 10
3.167616
 20
8.221950999999999
 42
0.145982
  0
LWPOLYLINE
  5
519
330
18
100
AcDbEntity
  8
0
100
AcDbPolyline
 90
        9
 70
     0
 43
0.0
 10
3.073226
 20
8.202048
 42
0.136945
 10
3.077384
 20
8.192410000000001
 42
0.107163
 10
3.089113
 20
8.182967999999999
 42
0.077084
 10
3.104304
 20
8.178094999999999
 42
0.064141
 10
3.123433
 20
8.177550999999999
 42
0.064141
 10
3.142076
 20
8.181872
 42
0.077084
 10
3.156001
 20
8.189657
 42
0.107163
 10
3.165629
 20
8.201235000000001
 42
0.145982
 10
3.167739
 20
8.212194
 42
0.145982
  0
LWPOLYLINE
  5
525
330
18
100
AcDbEntity
  8
0
100
AcDbPolyline
 90
        9
 70
     0
 43
0.0
 10
3.073349
 20
8.192291000000001
 42
0.136945
 10
3.077507
 20
8.182653
 42
0.107163
 10
3.089236
 20
8.173211
 42
0.077084
 10
3.104427
 20
8.168338
 42
0.064141
 10
3.123556
 20
8.167794000000001
 42
0.064141
 10
3.142199
 20
8.172115
 42
0.077084
 10
3.156124
 20
8.1799
 42
0.107163
 10
3.165752
 20
8.191478
 42
0.145982
 10
3.167862
 20
8.202437
 42
0.145982
  0
LWPOLYLINE
  5
531
330
18
100
AcDbEntity
  8
0
100
AcDbPolyline
 90
        9
 70
     0
 43
0.0
 10
3.073472
 20
8.182534
 42
0.136945
 10
3.07763
 20
8.172896000000002
 42
0.107163
 10
3.089359
 20
8.163454
 42
0.077084
 10
3.10455
 20
8.158581
 42
0.064141
 10
3.123679
 20
8.158037
 42
0.064141
 10
3.142323
 20
8.162357999999999
 42
0.077084
 10
3.156247
 20
8.170143
 42
0.107163
 10
3.165875
 20
8.181721000000001
 42
0.145982
 10
3.167985
 20
8.192680000000001
 42
0.145982
  0
LWPOLYLINE
  5
53D
330
18
100
AcDbEntity
  8
0
100
AcDbPolyline
 90
        9
 70
     0
 43
0.0
 10
3.073595
 20
8.172777
 42
0.136945
 10
3.077753
 20
8.163138999999999
 42
0.107163
 10
3.089482
 20
8.153696999999999
 42
0.077084
 10
3.104673
 20
8.148824000000001
 42
0.064141
 10
3.123802
 20
8.14828
 42
0.064141
 10
3.142446
 20
8.152600999999999
 42
0.077084
 10
3.156371
 20
8.160386000000001
 42
0.107163
 10
3.165998
 20
8.171963999999999
 42
0.145982
 10
3.168108
 20
8.182922999999999
 42
0.145982
  0
LWPOLYLINE
  5
549
330
18
100
AcDbEntity
  8
0
100
AcDbPolyline
 90
        9
 70
     0
 43
0.0
 10
3.073718
 20
8.16302
 42
0.136945
 10
3.077876
 20
8.153382000000001
 42
0.107163
 10
3.089605
 20
8.143939999999999
 42
0.077084
 10
3.104796
 20
8.139066999999999
 42
0.064141
 10
3.123925
 20
8.138522999999999
 42
0.064141
 10
3.142569
 20
8.142844
 42
0.077084
 10
3.156494
 20
8.150628999999999
 42
0.107163
 10
3.166121
 20
8.162207
 42
0.145982
 10
3.168231
 20
8.173166
 42
0.145982
  0
LWPOLYLINE
  5
555
330
18
100
AcDbEntity
  8
0
100
AcDbPolyline
 90
        9
 70
     0
 43
0.0
 10
3.073841
 20
8.153263000000001
 42
0.136945
 10
3.077999
 20
8.143625
 42
0.107163
 10
3.089728
 20
8.134183
 42
0.077084
 10
3.104919
 20
8.12931
 42
0.064141
 10
3.124049
 20
8.128766000000001
 42
0.064141
 10
3.142692
 20
8.133087
 42
0.077084
 10
3.156617
 20
8.140872
 42
0.107163
 10
3.166244
 20
8.15245
 42
0.145982
 10
3.168354
 20
8.163409
 42
0.145982
  0
LWPOLYLINE
  5
561
330
18
100
AcDbEntity
  8
0
100
AcDbPolyline
 90
        9
 70
     0
 43
0.0
 10
3.073964
 20
8.143506
 42
0.136945
 10
3.078122
 20
8.133868
 42
0.107163
 10
3.089851
 20
8.124426
 42
0.077084
 10
3.105042
 20
8.119553
 42
0.064141
 10
3.124172
 20
8.119009
 42
0.064141
 10
3.142815
 20
8.123330000000001
 42
0.077084
 10
3.15674
 20
8.131114999999999
 42
0.107163
 10
3.166367
 20
8.142693
 42
0.145982
 10
3.168478
 20
8.153652000000001
 42
0.145982
  0
LWPOLYLINE
  5
56D
330
18
100
AcDbEntity
  8
0
100
AcDbPolyline
 90
        9
 70
     0
 43
0.0
 10
3.074087
 20
8.133749
 42
0.136945
 10
3.078245
 20
8.124110999999999
 42
0.107163
 10
3.089974
 20
8.114669000000001
 42
0.077084
 10
3.105165
 20
8.109796000000001
 42
0.064141
 10
3.124295
 20
8.109252
 42
0.064141
 10
3.142938
 20
8.113572999999999
 42
0.077084
 10
3.156863
 20
8.121358000000001
 42
0.107163
 10
3.16649
 20
8.132936000000001
 42
0.145982
 10
3.168601
 20
8.143895000000001
 42
0.145982
  0
LWPOLYLINE
  5
579
330
18
100
AcDbEntity
  8
0
100
AcDbPolyline
 90
        9
 70
     0
 43
0.0
 10
3.07421
 20
8.123991999999999
 42
0.136945
 10
3.078368
 20
8.114353999999999
 42
0.107163
 10
3.090097
 20
8.104911999999999
 42
0.077084
 10
3.105288
 20
8.100039000000001
 42
0.064141
 10
3.124418
 20
8.099494999999999
 42
0.064141
 10
3.143061
 20
8.103816
 42
0.077084
 10
3.156986
 20
8.111601
 42
0.107163
 10
3.166613
 20
8.123178999999999
 42
0.145982
 10
3.168724
 20
8.134138
 42
0.145982
  0
LWPOLYLINE
  5
585
330
18
100
AcDbEntity
  8
0
100
AcDbPolyline
 90
        9
 70
     0
 43
0.0
 10
3.074333
 20
8.114235000000001
 42
0.136945
 10
3.078491
 20
8.104597
 42
0.107163
 10
3.09022
 20
8.095155
 42
0.077084
 10
3.105411
 20
8.090282
 42
0.064141
 10
3.124541
 20
8.089738000000001
 42
0.064141
 10
3.143184
 20
8.094059
 42
0.077084
 10
3.157109
 20
8.101844
 42
0.107163
 10
3.166736
 20
8.113422
 42
0.145982
 10
3.168847
 20
8.124381
 42
0.145982
  0
LWPOLYLINE
  5
591
330
18
100
AcDbEntity
  8
0
100
AcDbPolyline
 90
        9
 70
     0
 43
0.0
 10
3.074456
 20
8.104478
 42
0.136945
 10
3.078614
 20
8.09484
 42
0.107163
 10
3.090343
 20
8.085398
 42
0.077084
 10
3.105534
 20
8.080525
 42
0.064141
 10
3.124664
 20
8.079981
 42
0.064141
 10
3.143307
 20
8.084302000000001
 42
0.077084
 10
3.157232
 20
8.092086999999999
 42
0.107163
 10
3.166859
 20
8.103665
 42
0.145982
 10
3.16897
 20
8.114624000000001
 42
0.145982
  0
LWPOLYLINE
  5
59D
330
18
100
AcDbEntity
  8
0
100
AcDbPolyline
 90
        9
 70
     0
 43
0.0
 10
3.074579
 20
8.094721
 42
0.136945
 10
3.078737
 20
8.085083000000001
 42
0.107163
 10
3.090467
 20
8.075641000000001
 42
0.077084
 10
3.105657
 20
8.070767999999999
 42
0.064141
 10
3.124787
 20
8.070224000000001
 42
0.064141
 10
3.14343
 20
8.074545000000001
 42
0.077084
 10
3.157355
 20
8.082330000000001
 42
0.107163
 10
3.166982
 20
8.093908000000001
 42
0.145982
 10
3.169093
 20
8.104867000000001
 42
0.145982
  0
LWPOLYLINE
  5
5A9
330
18
100
AcDbEntity
  8
0
100
AcDbPolyline
 90
        9
 70
     0
 43
0.0
 10
3.074702
 20
8.084963999999999
 42
0.136945
 10
3.07886
 20
8.075325999999999
 42
0.107163
 10
3.09059
 20
8.065884000000001
 42
0.077084
 10
3.10578
 20
8.061011000000001
 42
0.064141
 10
3.12491
 20
8.060466999999999
 42
0.064141
 10
3.143553
 20
8.064788
 42
0.077084
 10
3.157478
 20
8.072573
 42
0.107163
 10
3.167105
 20
8.084151
 42
0.145982
 10
3.169216
 20
8.09511
 42
0.145982
  0
LWPOLYLINE
  5
5B5
330
18
100
AcDbEntity
  8
0
100
AcDbPolyline
 90
        9
 70
     0
 43
0.0
 10
3.074825
 20
8.075207000000001
 42
0.136945
 10
3.078983
 20
8.065569
 42
0.107163
 10
3.090713
 20
8.056127
 42
0.077084
 10
3.105903
 20
8.051254
 42
0.064141
 10
3.125033
 20
8.050710000000001
 42
0.064141
 10
3.143676
 20
8.055031
 42
0.077084
 10
3.157601
 20
8.062816
 42
0.107163
 10
3.167228
 20
8.074394
 42
0.145982
 10
3.169339
 20
8.085353
 42
0.145982
  0
LWPOLYLINE
  5
5C1
330
18
100
AcDbEntity
  8
0
100
AcDbPolyline
 90
        9
 70
     0
 43
0.0
 10
3.074948
 20
8.06545
 42
0.136945
 10
3.079106
 20
8.055812
 42
0.107163
 10
3.090836
 20
8.04637
 42
0.077084
 10
3.106026
 20
8.041497
 42
0.064141
 10
3.125156
 20
8.040953
 42
0.064141
 10
3.143799
 20
8.045274000000001
 42
0.077084
 10
3.157724
 20
8.053058999999999
 42
0.107163
 10
3.167352
 20
8.064636999999999
 42
0.145982
 10
3.169462
 20
8.075596000000001
 42
0.145982
  0
LWPOLYLINE
  5
5CD
330
18
100
AcDbEntity
  8
0
100
AcDbPolyline
 90
        9
 70
     0
 43
0.0
 10
3.075072
 20
8.055693
 42
0.136945
 10
3.079229
 20
8.046055000000001
 42
0.107163
 10
3.090959
 20
8.036613000000001
 42
0.077084
 10
3.106149
 20
8.031739999999999
 42
0.064141
 10
3.125279
 20
8.031196000000001
 42
0.064141
 10
3.143922
 20
8.035517000000001
 42
0.077084
 10
3.157847
 20
8.043302000000001
 42
0.107163
 10
3.167475
 20
8.054880000000001
 42
0.145982
 10
3.169585
 20
8.065839
 42
0.145982
  0
LWPOLYLINE
  5
5D9
330
18
100
AcDbEntity
  8
0
100
AcDbPolyline
 90
        9
 70
     0
 43
0.0
 10
3.075195
 20
8.045935999999999
 42
0.136945
 10
3.079353
 20
8.036298
 42
0.107163
 10
3.091082
 20
8.026856
 42
0.077084
 10
3.106273
 20
8.021983000000001
 42
0.064141
 10
3.125402
 20
8.021438999999999
 42
0.064141
 10
3.144045
 20
8.02576
 42
0.077084
 10
3.15797
 20
8.033545
 42
0.107163
 10
3.167598
 20
8.045123
 42
0.145982
 10
3.169708
 20
8.056082
 42
0.145982
  0
LWPOLYLINE
  5
5E5
330
18
100
AcDbEntity
  8
0
100
AcDbPolyline
 90
        9
 70
     0
 43
0.0
 10
3.075318
 20
8.036178999999999
 42
0.136945
 10
3.079476
 20
8.026541
 42
0.107163
 10
3.091205
 20
8.017099
 42
0.077084
 10
3.106396
 20
8.012226
 42
0.064141
 10
3.125525
 20
8.011682
 42
0.064141
 10
3.144168
 20
8.016003
 42
0.077084
 10
3.158093
 20
8.023788
 42
0.107163
 10
3.167721
 20
8.035366
 42
0.145982
 10
3.169831
 20
8.046325
 42
0.145982
  0
LWPOLYLINE
  5
5F1
330
18
100
AcDbEntity
  8
0
100
AcDbPolyline
 90
        9
 70
     0
 43
0.0
 10
3.075441
 20
8.026422
 42
0.136945
 10
3.079599
 20
8.016784
 42
0.107163
 10
3.091328
 20
8.007342
 42
0.077084
 10
3.106519
 20
8.002469
 42
0.064141
 10
3.125648
 20
8.001925
 42
0.064141
 10
3.144291
 20
8.006246000000001
 42
0.077084
 10
3.158216
 20
8.014030999999999
 42
0.107163
 10
3.167844
 20
8.025608999999999
 42
0.145982
 10
3.169954
 20
8.036567999999999
 42
0.145982
  0
LWPOLYLINE
  5
5FD
330
18
100
AcDbEntity
  8
0
100
AcDbPolyline
 90
        9
 70
     0
 43
0.0
 10
3.075564
 20
8.016665
 42
0.136945
 10
3.079722
 20
8.007027000000001
 42
0.107163
 10
3.091451
 20
7.997585000000001
 42
0.077084
 10
3.106642
 20
7.992711999999999
 42
0.064141
 10
3.125771
 20
7.992168
 42
0.064141
 10
3.144415
 20
7.996489
 42
0.077084
 10
3.158339
 20
8.004274000000001
 42
0.107163
 10
3.167967
 20
8.015852000000001
 42
0.145982
 10
3.170077
 20
8.026811
 42
0.145982
  0
LWPOLYLINE
  5
609
330
18
100
AcDbEntity
  8
0
100
AcDbPolyline
 90
        9
 70
     0
 43
0.0
 10
3.075687
 20
8.006908000000001
 42
0.136945
 10
3.079845
 20
7.997269999999999
 42
0.107163
 10
3.091574
 20
7.987828
 42
0.077084
 10
3.106765
 20
7.982955000000001
 42
0.064141
 10
3.125894
 20
7.982411
 42
0.064141
 10
3.144538
 20
7.986732000000001
 42
0.077084
 10
3.158463
 20
7.994517
 42
0.107163
 10
3.16809
 20
8.006095
 42
0.145982
 10
3.1702
 20
8.017054
 42
0.145982
  0
LWPOLYLINE
  5
615
330
18
100
AcDbEntity
  8
0
100
AcDbPolyline
 90
        9
 70
     0
 43
0.0
 10
3.07581
 20
7.997151
 42
0.136945
 10
3.079968
 20
7.987513000000001
 42
0.107163
 10
3.091697
 20
7.978071000000001
 42
0.077084
 10
3.106888
 20
7.973198
 42
0.064141
 10
3.126018
 20
7.972654
 42
0.064141
 10
3.144661
 20
7.976975
 42
0.077084
 10
3.158586
 20
7.984760000000001
 42
0.107163
 10
3.168213
 20
7.996338000000001
 42
0.145982
 10
3.170323
 20
8.007296999999999
 42
0.145982
  0
LWPOLYLINE
  5
621
330
18
100
AcDbEntity
  8
0
100
AcDbPolyline
 90
        9
 70
     0
 43
0.0
 10
3.075933
 20
7.987394
 42
0.136945
 10
3.080091
 20
7.977755999999999
 42
0.107163
 10
3.09182
 20
7.968314
 42
0.077084
 10
3.107011
 20
7.963441
 42
0.064141
 10
3.126141
 20
7.962897
 42
0.064141
 10
3.144784
 20
7.967217999999999
 42
0.077084
 10
3.158709
 20
7.975003
 42
0.107163
 10
3.168336
 20
7.986581
 42
0.145982
 10
3.170447
 20
7.997539999999999
 42
0.145982
  0
LWPOLYLINE
  5
62D
330
18
100
AcDbEntity
  8
0
100
AcDbPolyline
 90
        9
 70
     0
 43
0.0
 10
3.076056
 20
7.977637
 42
0.136945
 10
3.080214
 20
7.967999000000001
 42
0.107163
 10
3.091943
 20
7.958557000000001
 42
0.077084
 10
3.107134
 20
7.953684
 42
0.064141
 10
3.126264
 20
7.953139999999999
 42
0.064141
 10
3.144907
 20
7.957462
 42
0.077084
 10
3.158832
 20
7.965246000000001
 42
0.107163
 10
3.168459
 20
7.976824000000001
 42
0.145982
 10
3.17057
 20
7.987783
 42
0.145982
  0
LWPOLYLINE
  5
639
330
18
100
AcDbEntity
  8
0
100
AcDbPolyline
 90
        9
 70
     0
 43
0.0
 10
3.076179
 20
7.96788
 42
0.136945
 10
3.080337
 20
7.958242
 42
0.107163
 10
3.092066
 20
7.9488
 42
0.077084
 10
3.107257
 20
7.943927
 42
0.064141
 10
3.126387
 20
7.943383
 42
0.064141
 10
3.14503
 20
7.947705
 42
0.077084
 10
3.158955
 20
7.955489
 42
0.107163
 10
3.168582
 20
7.967067
 42
0.145982
 10
3.170693
 20
7.978026
 42
0.145982
  0
LWPOLYLINE
  5
645
330
18
100
AcDbEntity
  8
0
100
AcDbPolyline
 90
        9
 70
     0
 43
0.0
 10
3.076302
 20
7.958123
 42
0.136945
 10
3.08046
 20
7.948485000000001
 42
0.107163
 10
3.092189
 20
7.939042999999999
 42
0.077084
 10
3.10738
 20
7.93417
 42
0.064141
 10
3.12651
 20
7.933625999999999
 42
0.064141
 10
3.145153
 20
7.937948
 42
0.077084
 10
3.159078
 20
7.945732000000001
 42
0.107163
 10
3.168705
 20
7.957310000000001
 42
0.145982
 10
3.170816
 20
7.968269
 42
0.145982
  0
LWPOLYLINE
  5
651
330
18
100
AcDbEntity
  8
0
100
AcDbPolyline
 90
        9
 70
     0
 43
0.0
 10
3.076425
 20
7.948366
 42
0.136945
 10
3.080583
 20
7.938728
 42
0.107163
 10
3.092312
 20
7.929286
 42
0.077084
 10
3.107503
 20
7.924413
 42
0.064141
 10
3.126633
 20
7.923869
 42
0.064141
 10
3.145276
 20
7.928191
 42
0.077084
 10
3.159201
 20
7.935975
 42
0.107163
 10
3.168828
 20
7.947553
 42
0.145982
 10
3.170939
 20
7.958512
 42
0.145982
  0
LWPOLYLINE
  5
65D
330
18
100
AcDbEntity
  8
0
100
AcDbPolyline
 90
        9
 70
     0
 43
0.0
 10
3.079168
 20
7.730919
 42
0.136945
 10
3.083326
 20
7.721282
 42
0.107163
 10
3.095055
 20
7.71184
 42
0.077084
 10
3.110246
 20
7.706967
 42
0.064141
 10
3.129375
 20
7.706423
 42
0.064141
 10
3.148019
 20
7.710744
 42
0.077084
 10
3.161943
 20
7.718528999999999
 42
0.107163
 10
3.171571
 20
7.730106
 42
0.145982
 10
3.173681
 20
7.741066
 42
0.145982
  0
LINE
  5
669
330
18
100
AcDbEntity
  8
0
100
AcDbLine
 10
3.172357
 20
7.851798
 30
0.0
 11
3.463221
 21
7.749335
 31
0.0
  0
LWPOLYLINE
  5
66A
330
18
100
AcDbEntity
  8
0
100
AcDbPolyline
 90
       16
 70
     1
 43
0.0
 10
8.032501
 20
5.798049
 42
0.135739
 10
8.036810000000001
 20
5.785978
 42
0.106931
 10
8.048688
 20
5.775022
 42
0.081694
 10
8.064498
 20
5.768909
 42
0.069858
 10
8.084242
 20
5.767595
 42
0.069858
 10
8.103585000000001
 20
5.771769
 42
0.081694
 10
8.118337
 20
5.780118
 42
0.106931
 10
8.128494
 20
5.792686
 42
0.135739
 10
8.131
 20
5.805257
 42
0.135739
 10
8.12669
 20
5.817328
 42
0.106931
 10
8.114813
 20
5.828284
 42
0.081694
 10
8.099002000000001
 20
5.834397
 42
0.069858
 10
8.079257999999999
 20
5.835711
 42
0.069858
 10
8.059916000000001
 20
5.831537
 42
0.081694
 10
8.045164
 20
5.823188
 42
0.106931
 10
8.035007
 20
5.81062
 42
0.135739
  0
LWPOLYLINE
  5
67D
330
18
100
AcDbEntity
  8
0
100
AcDbPolyline
 90
       16
 70
     1
 43
0.0
 10
2.185087
 20
7.967205
 42
0.133054
 10
2.187607
 20
7.956066000000001
 42
0.10674
 10
2.196718
 20
7.945242
 42
0.08292
 10
2.209755
 20
7.938238
 42
0.071475
 10
2.226603
 20
7.935089
 42
0.071475
 10
2.243656
 20
7.936811
 42
0.08292
 10
2.257236
 20
7.942694
 42
0.10674
 10
2.267225
 20
7.952714
 42
0.133054
 10
2.270672
 20
7.963602000000001
 42
0.133054
 10
2.268152
 20
7.974741000000001
 42
0.10674
 10
2.259041
 20
7.985564999999999
 42
0.08292
 10
2.246003
 20
7.992569000000001
 42
0.071475
 10
2.229156
 20
7.995717999999999
 42
0.071475
 10
2.212103
 20
7.993996000000001
 42
0.08292
 10
2.198523
 20
7.988113
 42
0.10674
 10
2.188534
 20
7.978092999999999
 42
0.133054
  0
LWPOLYLINE
  5
690
330
18
100
AcDbEntity
  8
0
100
AcDbPolyline
 90
       16
 70
     1
 43
0.0
 10
8.843164999999999
 20
3.278603
 42
0.105357
 10
8.825778999999999
 20
3.272194
 42
0.101075
 10
8.811852999999999
 20
3.258835
 42
0.095555
 10
8.804005999999999
 20
3.240988
 42
0.091988
 10
8.803192999999999
 20
3.220766
 42
0.091988
 10
8.809688000000001
 20
3.201597
 42
0.095555
 10
8.822258
 20
3.186695
 42
0.101075
 10
8.839392
 20
3.177816
 42
0.105357
 10
8.85788
 20
3.176581
 42
0.105357
 10
8.875266
 20
3.18299
 42
0.101075
 10
8.889192
 20
3.196349
 42
0.095555
 10
8.897039
 20
3.214196
 42
0.091988
 10
8.897853
 20
3.234418
 42
0.091988
 10
8.891358
 20
3.253587
 42
0.095555
 10
8.878788
 20
3.268489
 42
0.101075
 10
8.861654
 20
3.277368
 42
0.105357
  0
LWPOLYLINE
  5
6A3
330
18
100
AcDbEntity
  8
0
100
AcDbPolyline
 90
        9
 70
     0
 43
0.0
 10
8.033134
 20
2.155458
 42
0.135739
 10
8.037443
 20
2.143386
 42
0.106931
 10
8.049321000000001
 20
2.132431
 42
0.081694
 10
8.065130999999999
 20
2.126317
 42
0.069858
 10
8.084875
 20
2.125003
 42
0.069858
 10
8.104217
 20
2.129177
 42
0.081694
 10
8.118969
 20
2.137527
 42
0.106931
 10
8.129125999999999
 20
2.150095
 42
0.062426
 10
8.131131
 20
2.155729
 42
0.036065
  0
LWPOLYLINE
  5
6AF
330
18
100
AcDbEntity
  8
0
100
AcDbPolyline
 90
        7
 70
     0
 43
0.0
 10
2.185166
 20
4.33901
 42
0.135739
 10
2.189475
 20
4.326938
 42
0.106931
 10
2.201353
 20
4.315982
 42
0.081694
 10
2.217163
 20
4.309869
 42
0.069858
 10
2.236907
 20
4.308555
 42
0.069858
 10
2.25625
 20
4.312729
 42
0.247692
 10
2.270559
 20
4.325078
  0
LWPOLYLINE
  5
6B9
330
18
100
AcDbEntity
  8
0
100
AcDbPolyline
 90
       16
 70
     1
 43
0.0
 10
0.273081
 20
7.195244000000001
 42
0.108899
 10
0.28954
 20
7.189192
 42
0.10221
 10
0.308154
 20
7.190465
 42
0.093985
 10
0.325134
 20
7.198866000000001
 42
0.088895
 10
0.338725
 20
7.213553
 42
0.088895
 10
0.346369
 20
7.232046
 42
0.093985
 10
0.346885
 20
7.250984
 42
0.10221
 10
0.340245
 20
7.268419000000001
 42
0.108899
 10
0.327856
 20
7.28083
 42
0.108899
 10
0.311397
 20
7.286882
 42
0.10221
 10
0.292783
 20
7.285609
 42
0.093985
 10
0.275803
 20
7.277209
 42
0.088895
 10
0.262212
 20
7.262521
 42
0.088895
 10
0.254567
 20
7.244028
 42
0.093985
 10
0.254051
 20
7.225091
 42
0.10221
 10
0.260691
 20
7.207655
 42
0.108899
  0
LWPOLYLINE
  5
6CC
330
18
100
AcDbEntity
  8
0
  6
DASHED2
100
AcDbPolyline
 90
       16
 70
     0
 43
0.0
 10
3.079755
 20
7.728138
 10
2.932209
 20
6.692736
 42
-0.229263
 10
2.80308
 20
6.509553
 42
0.230232
 10
2.635912
 20
6.330374
 42
0.28716
 10
2.671341
 20
6.163607
 42
-0.030393
 10
2.807084
 20
5.981024
 42
-0.164661
 10
2.812089
 20
5.86691
 42
-0.307057
 10
2.685686
 20
5.810811
 42
0.7705569999999999
 10
2.692164
 20
5.72912
 42
0.304084
 10
2.88607
 20
5.835441
 42
0.184495
 10
2.877755
 20
6.019474
 42
0.036349
 10
2.734173
 20
6.210707
 42
-0.291894
 10
2.711161
 20
6.30274
 42
-0.242132
 10
2.836241
 20
6.436536
 42
0.234253
 10
3.011145
 20
6.679732
 10
3.172368
 20
7.731839999999999
  0
LWPOLYLINE
  5
6DF
330
18
100
AcDbEntity
  8
0
  6
DASHED2
100
AcDbPolyline
 90
       16
 70
     0
 43
0.0
 10
6.175928
 20
6.651807000000001
 10
5.959817
 20
5.333342
 42
-0.234253
 10
5.784914
 20
5.090147
 42
0.242132
 10
5.659833
 20
4.95635
 42
0.291894
 10
5.682845
 20
4.864318
 42
-0.036349
 10
5.826427
 20
4.673083999999999
 42
-0.184495
 10
5.834741999999999
 20
4.489052
 42
-0.304084
 10
5.640836
 20
4.382730000000001
 42
-0.7705569999999999
 10
5.634358
 20
4.464421
 42
0.307057
 10
5.760761000000001
 20
4.520521
 42
0.164661
 10
5.755756
 20
4.634635
 42
0.030393
 10
5.620013
 20
4.817216999999999
 42
-0.28716
 10
5.584585
 20
4.983984
 42
-0.230232
 10
5.751752
 20
5.163163
 42
0.229263
 10
5.880881
 20
5.346346
 10
6.072051999999999
 20
6.643387
  0
LINE
  5
6F2
330
18
100
AcDbEntity
  8
0
  6
DASHED2
100
AcDbLine
 10
2.270559
 20
6.369478
 30
0.0
 11
8.032449
 21
3.666487
 31
0.0
  0
LINE
  5
6F3
330
18
100
AcDbEntity
  8
0
  6
DASHED2
100
AcDbLine
 10
2.270559
 20
6.258248
 30
0.0
 11
7.953203
 21
3.592789
 31
0.0
  0
LINE
  5
6F4
330
18
100
AcDbEntity
  8
0
100
AcDbLine
 10
8.131131
 20
3.620193
 30
0.0
 11
8.862366999999999
 21
3.27716
 31
0.0
  0
LINE
  5
6F5
330
18
100
AcDbEntity
  8
0
100
AcDbLine
 10
8.131131
 20
3.509331
 30
0.0
 11
8.833638000000001
 21
3.179819
 31
0.0
  0
LWPOLYLINE
  5
6F6
330
18
100
AcDbEntity
  8
0
100
AcDbPolyline
 90
       42
 70
     0
 43
0.0
 10
6.291013
 20
2.526884
 10
6.305305000000001
 20
2.526527
 10
6.348348000000001
 20
2.523524
 10
6.413412999999999
 20
2.514515
 10
6.467467
 20
2.526527
 10
6.507508000000001
 20
2.545546
 10
6.571572
 20
2.548549
 10
6.650651
 20
2.536537
 10
6.711712
 20
2.512513
 10
6.759760000000001
 20
2.495495
 10
6.822823
 20
2.498498
 10
6.871872
 20
2.501502
 10
6.915916
 20
2.508509
 10
6.94995
 20
2.521522
 10
6.964964999999999
 20
2.52953
 10
6.993994
 20
2.52953
 10
7.024024000000001
 20
2.516517
 10
7.041041000000001
 20
2.512513
 10
7.080080000000001
 20
2.515516
 10
7.136136000000001
 20
2.533534
 10
7.175175
 20
2.551552
 10
7.213213000000001
 20
2.565566
 10
7.281281
 20
2.581582
 10
7.296296000000001
 20
2.587588
 10
7.318318
 20
2.608609
 10
7.337337
 20
2.632633
 10
7.362361999999999
 20
2.665666
 10
7.403403
 20
2.698699
 10
7.432432
 20
2.711712
 10
7.46046
 20
2.716717
 10
7.502503
 20
2.730731
 10
7.553553999999999
 20
2.741742
 10
7.646647
 20
2.765766
 10
7.700701
 20
2.776777
 10
7.733733999999999
 20
2.793794
 10
7.735736
 20
2.800801
 10
7.746747
 20
2.826827
 10
7.783784
 20
2.872873
 10
7.793794
 20
2.87988
 10
7.820821000000001
 20
2.901902
 10
7.866867
 20
2.943944
 10
8.032680000000001
 20
3.155635
  0
LWPOLYLINE
  5
723
330
18
100
AcDbEntity
  8
0
100
AcDbPolyline
 90
       14
 70
     0
 43
0.0
 10
8.131131
 20
3.281325
 10
8.373372999999999
 20
3.590591
 10
8.555555999999999
 20
3.834835
 10
8.592592999999999
 20
3.873874
 10
8.610611000000001
 20
3.900901
 10
8.619619999999999
 20
3.932933
 10
8.622622999999999
 20
3.978979
 10
8.618619000000001
 20
4.01001
 10
8.623624000000001
 20
4.045045
 10
8.628629
 20
4.088088
 10
8.635636
 20
4.131131
 10
8.642643
 20
4.175175
 10
8.652652999999999
 20
4.229229
 10
8.673283
 20
4.291755
  0
LINE
  5
734
330
18
100
AcDbEntity
  8
0
  6
DASHED2
100
AcDbLine
 10
8.032458999999999
 20
3.644709
 30
0.0
 11
8.031491000000001
 21
5.780403
 31
0.0
  0
LINE
  5
735
330
18
100
AcDbEntity
  8
0
  6
DASHED2
100
AcDbLine
 10
8.131131
 20
3.719816
 30
0.0
 11
8.131131
 21
5.787466
 31
0.0
  0
LINE
  5
736
330
18
100
AcDbEntity
  8
0
  6
DASHED2
100
AcDbLine
 10
2.185166
 20
4.937938
 30
0.0
 11
2.185166
 21
7.964213000000001
 31
0.0
  0
LINE
  5
737
330
18
100
AcDbEntity
  8
0
  6
DASHED2
100
AcDbLine
 10
2.270559
 20
4.911878
 30
0.0
 11
2.270559
 21
7.962119
 31
0.0
  0
LINE
  5
738
330
18
100
AcDbEntity
  8
0
  6
DASHED2
100
AcDbLine
 10
0.681299
 20
7.115025
 30
0.0
 11
2.185166
 21
6.409537
 31
0.0
  0
LINE
  5
739
330
18
100
AcDbEntity
  8
0
  6
DASHED2
100
AcDbLine
 10
0.688341
 20
7.000392
 30
0.0
 11
2.185166
 21
6.298302
 31
0.0
  0
LINE
  5
73A
330
18
100
AcDbEntity
  8
0
100
AcDbLine
 10
7.953203
 20
3.592789
 30
0.0
 11
8.032499000000001
 21
3.555595
 31
0.0
  0
ARC
  5
73B
330
18
100
AcDbEntity
  8
0
100
AcDbCircle
 10
8.014571999999999
 20
5.666312000000001
 30
0.0
 40
0.25
100
AcDbArc
 50
273.918409
 51
297.790376
  0
ARC
  5
73C
330
18
100
AcDbEntity
  8
0
100
AcDbCircle
 10
8.014571999999999
 20
5.666312000000001
 30
0.0
 40
0.25
100
AcDbArc
 50
297.790376
 51
312.302527
  0
LINE
  5
73D
330
18
100
AcDbEntity
  8
0
100
AcDbLine
 10
4.93994
 20
3.289043
 30
0.0
 11
6.291013
 21
2.526884
 31
0.0
  0
LWPOLYLINE
  5
73E
330
18
100
AcDbEntity
  8
0
100
AcDbPolyline
 90
        9
 70
     0
 43
0.0
 10
6.175711
 20
6.793799000000001
 10
6.502669999999999
 20
6.67862
 42
-0.621729
 10
6.511231
 20
6.607388
 10
6.04413
 20
6.302745
 42
-0.244628
 10
5.814424
 20
6.280141
 10
5.431987
 20
6.433665
 42
-0.6069060000000001
 10
5.425038
 20
6.50429
 10
5.873215
 20
6.796591
 42
-0.208594
 10
6.070343
 20
6.829746000000001
  0
TEXT
  5
74A
330
18
100
AcDbEntity
  8
0
100
AcDbText
 10
0.8211959999999999
 20
2.419355
 30
0.0
 40
0.22
  1
Simpson Strong-Tie
100
AcDbText
  0
TEXT
  5
74B
330
18
100
AcDbEntity
  8
0
100
AcDbText
 10
0.8211959999999999
 20
2.063164
 30
0.0
 40
0.22
  1
SSTB (in Concrete Block)
100
AcDbText
  0
LINE
  5
74C
330
18
100
AcDbEntity
  8
0
 62
     0
100
AcDbLine
 10
1.175523
 20
8.210103999999999
 30
0.0
 11
1.175523
 21
8.210103999999999
 31
0.0
  0
LINE
  5
74D
330
18
100
AcDbEntity
  8
0
 62
     0
100
AcDbLine
 10
1.304443
 20
8.309028
 30
0.0
 11
1.304443
 21
8.309028
 31
0.0
  0
LINE
  5
74E
330
18
100
AcDbEntity
  8
0
 62
     0
100
AcDbLine
 10
1.425033
 20
8.401558999999999
 30
0.0
 11
1.425033
 21
8.401558999999999
 31
0.0
  0
LINE
  5
74F
330
18
100
AcDbEntity
  8
0
 62
     0
100
AcDbLine
 10
1.034354
 20
8.299296999999999
 30
0.0
 11
1.034354
 21
8.299296999999999
 31
0.0
  0
LINE
  5
750
330
18
100
AcDbEntity
  8
0
 62
     0
100
AcDbLine
 10
1.179471
 20
8.181647
 30
0.0
 11
1.179471
 21
8.181647
 31
0.0
  0
LINE
  5
751
330
18
100
AcDbEntity
  8
0
 62
     0
100
AcDbLine
 10
1.260211
 20
8.270894
 30
0.0
 11
1.260211
 21
8.270894
 31
0.0
  0
LINE
  5
752
330
18
100
AcDbEntity
  8
0
 62
     0
100
AcDbLine
 10
1.30238
 20
8.244028999999999
 30
0.0
 11
1.30238
 21
8.244028999999999
 31
0.0
  0
LINE
  5
753
330
18
100
AcDbEntity
  8
0
 62
     0
100
AcDbLine
 10
1.373428
 20
8.397724999999999
 30
0.0
 11
1.373428
 21
8.397724999999999
 31
0.0
  0
LINE
  5
754
330
18
100
AcDbEntity
  8
0
 62
     0
100
AcDbLine
 10
0.990966
 20
8.243463
 30
0.0
 11
0.990966
 21
8.243463
 31
0.0
  0
LINE
  5
755
330
18
100
AcDbEntity
  8
0
 62
     0
100
AcDbLine
 10
1.13411
 20
8.292007
 30
0.0
 11
1.13411
 21
8.292007
 31
0.0
  0
LINE
  5
756
330
18
100
AcDbEntity
  8
0
 62
     0
100
AcDbLine
 10
1.152542
 20
8.275117
 30
0.0
 11
1.152542
 21
8.275117
 31
0.0
  0
LINE
  5
757
330
18
100
AcDbEntity
  8
0
 62
     0
100
AcDbLine
 10
1.434723
 20
8.379775
 30
0.0
 11
1.434723
 21
8.379775
 31
0.0
  0
LINE
  5
758
330
18
100
AcDbEntity
  8
0
 62
     0
100
AcDbLine
 10
1.453155
 20
8.362885
 30
0.0
 11
1.453155
 21
8.362885
 31
0.0
  0
LINE
  5
759
330
18
100
AcDbEntity
  8
0
 62
     0
100
AcDbLine
 10
2.366459
 20
7.938844000000001
 30
0.0
 11
2.366459
 21
7.938844000000001
 31
0.0
  0
LINE
  5
75A
330
18
100
AcDbEntity
  8
0
 62
     0
100
AcDbLine
 10
2.495378
 20
8.037768
 30
0.0
 11
2.495378
 21
8.037768
 31
0.0
  0
LINE
  5
75B
330
18
100
AcDbEntity
  8
0
 62
     0
100
AcDbLine
 10
2.231588
 20
7.835355
 30
0.0
 11
2.231588
 21
7.835355
 31
0.0
  0
LINE
  5
75C
330
18
100
AcDbEntity
  8
0
 62
     0
100
AcDbLine
 10
1.975779
 20
7.836582000000001
 30
0.0
 11
1.975779
 21
7.836582000000001
 31
0.0
  0
LINE
  5
75D
330
18
100
AcDbEntity
  8
0
 62
     0
100
AcDbLine
 10
2.104699
 20
7.935506
 30
0.0
 11
2.104699
 21
7.935506
 31
0.0
  0
LINE
  5
75E
330
18
100
AcDbEntity
  8
0
 62
     0
100
AcDbLine
 10
2.225289
 20
8.028036999999999
 30
0.0
 11
2.225289
 21
8.028036999999999
 31
0.0
  0
LINE
  5
75F
330
18
100
AcDbEntity
  8
0
 62
     0
100
AcDbLine
 10
2.360159
 20
8.131527
 30
0.0
 11
2.360159
 21
8.131527
 31
0.0
  0
LINE
  5
760
330
18
100
AcDbEntity
  8
0
 62
     0
100
AcDbLine
 10
1.83461
 20
7.925775
 30
0.0
 11
1.83461
 21
7.925775
 31
0.0
  0
LINE
  5
761
330
18
100
AcDbEntity
  8
0
 62
     0
100
AcDbLine
 10
1.96948
 20
8.029264
 30
0.0
 11
1.96948
 21
8.029264
 31
0.0
  0
LINE
  5
762
330
18
100
AcDbEntity
  8
0
 62
     0
100
AcDbLine
 10
2.119352
 20
7.787553999999999
 30
0.0
 11
2.119352
 21
7.787553999999999
 31
0.0
  0
LINE
  5
763
330
18
100
AcDbEntity
  8
0
 62
     0
100
AcDbLine
 10
2.171402
 20
7.794407000000001
 30
0.0
 11
2.171402
 21
7.794407000000001
 31
0.0
  0
LINE
  5
764
330
18
100
AcDbEntity
  8
0
 62
     0
100
AcDbLine
 10
1.810025
 20
8.005746
 30
0.0
 11
1.810025
 21
8.005746
 31
0.0
  0
LINE
  5
765
330
18
100
AcDbEntity
  8
0
 62
     0
100
AcDbLine
 10
1.891324
 20
8.016449
 30
0.0
 11
1.891324
 21
8.016449
 31
0.0
  0
LINE
  5
766
330
18
100
AcDbEntity
  8
0
 62
     0
100
AcDbLine
 10
2.027152
 20
8.034331
 30
0.0
 11
2.027152
 21
8.034331
 31
0.0
  0
LINE
  5
767
330
18
100
AcDbEntity
  8
0
 62
     0
100
AcDbLine
 10
2.079203
 20
8.041183999999999
 30
0.0
 11
2.079203
 21
8.041183999999999
 31
0.0
  0
LINE
  5
768
330
18
100
AcDbEntity
  8
0
 62
     0
100
AcDbLine
 10
2.160501
 20
8.051886999999999
 30
0.0
 11
2.160501
 21
8.051886999999999
 31
0.0
  0
LINE
  5
769
330
18
100
AcDbEntity
  8
0
 62
     0
100
AcDbLine
 10
2.296329
 20
8.069769000000001
 30
0.0
 11
2.296329
 21
8.069769000000001
 31
0.0
  0
LINE
  5
76A
330
18
100
AcDbEntity
  8
0
 62
     0
100
AcDbLine
 10
2.34838
 20
8.076622
 30
0.0
 11
2.34838
 21
8.076622
 31
0.0
  0
LINE
  5
76B
330
18
100
AcDbEntity
  8
0
 62
     0
100
AcDbLine
 10
2.429679
 20
8.087325
 30
0.0
 11
2.429679
 21
8.087325
 31
0.0
  0
LINE
  5
76C
330
18
100
AcDbEntity
  8
0
 62
     0
100
AcDbLine
 10
1.963802
 20
8.021616
 30
0.0
 11
1.963802
 21
8.021616
 31
0.0
  0
LINE
  5
76D
330
18
100
AcDbEntity
  8
0
 62
     0
100
AcDbLine
 10
2.005972
 20
7.994750999999999
 30
0.0
 11
2.005972
 21
7.994750999999999
 31
0.0
  0
LINE
  5
76E
330
18
100
AcDbEntity
  8
0
 62
     0
100
AcDbLine
 10
2.157782
 20
7.898037
 30
0.0
 11
2.157782
 21
7.898037
 31
0.0
  0
LINE
  5
76F
330
18
100
AcDbEntity
  8
0
 62
     0
100
AcDbLine
 10
2.275216
 20
8.022182000000001
 30
0.0
 11
2.275216
 21
8.022182000000001
 31
0.0
  0
LINE
  5
770
330
18
100
AcDbEntity
  8
0
 62
     0
100
AcDbLine
 10
2.317386
 20
7.995317
 30
0.0
 11
2.317386
 21
7.995317
 31
0.0
  0
LINE
  5
771
330
18
100
AcDbEntity
  8
0
 62
     0
100
AcDbLine
 10
2.58663
 20
8.022748
 30
0.0
 11
2.58663
 21
8.022748
 31
0.0
  0
LINE
  5
772
330
18
100
AcDbEntity
  8
0
 62
     0
100
AcDbLine
 10
2.6288
 20
7.995883
 30
0.0
 11
2.6288
 21
7.995883
 31
0.0
  0
LINE
  5
773
330
18
100
AcDbEntity
  8
0
 62
     0
100
AcDbLine
 10
1.846368
 20
7.897471
 30
0.0
 11
1.846368
 21
7.897471
 31
0.0
  0
LINE
  5
774
330
18
100
AcDbEntity
  8
0
 62
     0
100
AcDbLine
 10
1.844649
 20
8.004146
 30
0.0
 11
1.844649
 21
8.004146
 31
0.0
  0
LINE
  5
775
330
18
100
AcDbEntity
  8
0
 62
     0
100
AcDbLine
 10
1.863081
 20
7.987257000000001
 30
0.0
 11
1.863081
 21
7.987257000000001
 31
0.0
  0
LINE
  5
776
330
18
100
AcDbEntity
  8
0
 62
     0
100
AcDbLine
 10
1.95008
 20
7.907537
 30
0.0
 11
1.95008
 21
7.907537
 31
0.0
  0
LINE
  5
777
330
18
100
AcDbEntity
  8
0
 62
     0
100
AcDbLine
 10
2.049612
 20
7.816332000000001
 30
0.0
 11
2.049612
 21
7.816332000000001
 31
0.0
  0
LINE
  5
778
330
18
100
AcDbEntity
  8
0
 62
     0
100
AcDbLine
 10
2.068044
 20
7.799442999999999
 30
0.0
 11
2.068044
 21
7.799442999999999
 31
0.0
  0
LINE
  5
779
330
18
100
AcDbEntity
  8
0
 62
     0
100
AcDbLine
 10
2.145262
 20
8.091913999999999
 30
0.0
 11
2.145262
 21
8.091913999999999
 31
0.0
  0
LINE
  5
77A
330
18
100
AcDbEntity
  8
0
 62
     0
100
AcDbLine
 10
2.163693
 20
8.075024000000001
 30
0.0
 11
2.163693
 21
8.075024000000001
 31
0.0
  0
LINE
  5
77B
330
18
100
AcDbEntity
  8
0
 62
     0
100
AcDbLine
 10
2.250692
 20
7.995305
 30
0.0
 11
2.250692
 21
7.995305
 31
0.0
  0
LINE
  5
77C
330
18
100
AcDbEntity
  8
0
 62
     0
100
AcDbLine
 10
2.350225
 20
7.9041
 30
0.0
 11
2.350225
 21
7.9041
 31
0.0
  0
LINE
  5
77D
330
18
100
AcDbEntity
  8
0
 62
     0
100
AcDbLine
 10
2.368657
 20
7.887210000000001
 30
0.0
 11
2.368657
 21
7.887210000000001
 31
0.0
  0
LINE
  5
77E
330
18
100
AcDbEntity
  8
0
 62
     0
100
AcDbLine
 10
2.650837
 20
7.991867
 30
0.0
 11
2.650837
 21
7.991867
 31
0.0
  0
LINE
  5
77F
330
18
100
AcDbEntity
  8
0
 62
     0
100
AcDbLine
 10
2.904955
 20
7.561983000000001
 30
0.0
 11
2.904955
 21
7.561983000000001
 31
0.0
  0
LINE
  5
780
330
18
100
AcDbEntity
  8
0
 62
     0
100
AcDbLine
 10
3.025545
 20
7.654514999999999
 30
0.0
 11
3.025545
 21
7.654514999999999
 31
0.0
  0
LINE
  5
781
330
18
100
AcDbEntity
  8
0
 62
     0
100
AcDbLine
 10
2.769736
 20
7.655742
 30
0.0
 11
2.769736
 21
7.655742
 31
0.0
  0
LINE
  5
782
330
18
100
AcDbEntity
  8
0
 62
     0
100
AcDbLine
 10
2.898656
 20
7.754666
 30
0.0
 11
2.898656
 21
7.754666
 31
0.0
  0
LINE
  5
783
330
18
100
AcDbEntity
  8
0
 62
     0
100
AcDbLine
 10
3.019246
 20
7.847198
 30
0.0
 11
3.019246
 21
7.847198
 31
0.0
  0
LINE
  5
784
330
18
100
AcDbEntity
  8
0
 62
     0
100
AcDbLine
 10
2.507977
 20
7.652403
 30
0.0
 11
2.507977
 21
7.652403
 31
0.0
  0
LINE
  5
785
330
18
100
AcDbEntity
  8
0
 62
     0
100
AcDbLine
 10
2.628567
 20
7.744935000000001
 30
0.0
 11
2.628567
 21
7.744935000000001
 31
0.0
  0
LINE
  5
786
330
18
100
AcDbEntity
  8
0
 62
     0
100
AcDbLine
 10
3.166715
 20
7.565322
 30
0.0
 11
3.166715
 21
7.565322
 31
0.0
  0
LINE
  5
787
330
18
100
AcDbEntity
  8
0
 62
     0
100
AcDbLine
 10
3.295635
 20
7.664246
 30
0.0
 11
3.295635
 21
7.664246
 31
0.0
  0
LINE
  5
788
330
18
100
AcDbEntity
  8
0
 62
     0
100
AcDbLine
 10
3.416224
 20
7.756778
 30
0.0
 11
3.416224
 21
7.756778
 31
0.0
  0
LINE
  5
789
330
18
100
AcDbEntity
  8
0
 62
     0
100
AcDbLine
 10
2.614078
 20
7.593771
 30
0.0
 11
2.614078
 21
7.593771
 31
0.0
  0
LINE
  5
78A
330
18
100
AcDbEntity
  8
0
 62
     0
100
AcDbLine
 10
2.749906
 20
7.611653
 30
0.0
 11
2.749906
 21
7.611653
 31
0.0
  0
LINE
  5
78B
330
18
100
AcDbEntity
  8
0
 62
     0
100
AcDbLine
 10
2.801957
 20
7.618506
 30
0.0
 11
2.801957
 21
7.618506
 31
0.0
  0
LINE
  5
78C
330
18
100
AcDbEntity
  8
0
 62
     0
100
AcDbLine
 10
2.883255
 20
7.629209
 30
0.0
 11
2.883255
 21
7.629209
 31
0.0
  0
LINE
  5
78D
330
18
100
AcDbEntity
  8
0
 62
     0
100
AcDbLine
 10
3.019083
 20
7.647091000000001
 30
0.0
 11
3.019083
 21
7.647091000000001
 31
0.0
  0
LINE
  5
78E
330
18
100
AcDbEntity
  8
0
 62
     0
100
AcDbLine
 10
3.28826
 20
7.682529
 30
0.0
 11
3.28826
 21
7.682529
 31
0.0
  0
LINE
  5
78F
330
18
100
AcDbEntity
  8
0
 62
     0
100
AcDbLine
 10
3.340311
 20
7.689382000000001
 30
0.0
 11
3.340311
 21
7.689382000000001
 31
0.0
  0
LINE
  5
790
330
18
100
AcDbEntity
  8
0
 62
     0
100
AcDbLine
 10
3.42161
 20
7.700085000000001
 30
0.0
 11
3.42161
 21
7.700085000000001
 31
0.0
  0
LINE
  5
791
330
18
100
AcDbEntity
  8
0
 62
     0
100
AcDbLine
 10
3.071134
 20
7.653944
 30
0.0
 11
3.071134
 21
7.653944
 31
0.0
  0
LINE
  5
792
330
18
100
AcDbEntity
  8
0
 62
     0
100
AcDbLine
 10
3.152432
 20
7.664647
 30
0.0
 11
3.152432
 21
7.664647
 31
0.0
  0
LINE
  5
793
330
18
100
AcDbEntity
  8
0
 62
     0
100
AcDbLine
 10
2.667393
 20
7.772336999999999
 30
0.0
 11
2.667393
 21
7.772336999999999
 31
0.0
  0
LINE
  5
794
330
18
100
AcDbEntity
  8
0
 62
     0
100
AcDbLine
 10
2.709563
 20
7.745472
 30
0.0
 11
2.709563
 21
7.745472
 31
0.0
  0
LINE
  5
795
330
18
100
AcDbEntity
  8
0
 62
     0
100
AcDbLine
 10
2.861373
 20
7.648758
 30
0.0
 11
2.861373
 21
7.648758
 31
0.0
  0
LINE
  5
796
330
18
100
AcDbEntity
  8
0
 62
     0
100
AcDbLine
 10
3.05957
 20
7.522492999999999
 30
0.0
 11
3.05957
 21
7.522492999999999
 31
0.0
  0
LINE
  5
797
330
18
100
AcDbEntity
  8
0
 62
     0
100
AcDbLine
 10
2.978807
 20
7.772903
 30
0.0
 11
2.978807
 21
7.772903
 31
0.0
  0
LINE
  5
798
330
18
100
AcDbEntity
  8
0
 62
     0
100
AcDbLine
 10
3.020977
 20
7.746038
 30
0.0
 11
3.020977
 21
7.746038
 31
0.0
  0
LINE
  5
799
330
18
100
AcDbEntity
  8
0
 62
     0
100
AcDbLine
 10
3.172787
 20
7.649324000000001
 30
0.0
 11
3.172787
 21
7.649324000000001
 31
0.0
  0
LINE
  5
79A
330
18
100
AcDbEntity
  8
0
 62
     0
100
AcDbLine
 10
3.290222
 20
7.773469
 30
0.0
 11
3.290222
 21
7.773469
 31
0.0
  0
LINE
  5
79B
330
18
100
AcDbEntity
  8
0
 62
     0
100
AcDbLine
 10
3.332391
 20
7.746604
 30
0.0
 11
3.332391
 21
7.746604
 31
0.0
  0
LINE
  5
79C
330
18
100
AcDbEntity
  8
0
 62
     0
100
AcDbLine
 10
2.549959
 20
7.648192
 30
0.0
 11
2.549959
 21
7.648192
 31
0.0
  0
LINE
  5
79D
330
18
100
AcDbEntity
  8
0
 62
     0
100
AcDbLine
 10
2.748156
 20
7.521927000000001
 30
0.0
 11
2.748156
 21
7.521927000000001
 31
0.0
  0
LINE
  5
79E
330
18
100
AcDbEntity
  8
0
 62
     0
100
AcDbLine
 10
2.790326
 20
7.495062
 30
0.0
 11
2.790326
 21
7.495062
 31
0.0
  0
LINE
  5
79F
330
18
100
AcDbEntity
  8
0
 62
     0
100
AcDbLine
 10
2.555188
 20
7.716286
 30
0.0
 11
2.555188
 21
7.716286
 31
0.0
  0
LINE
  5
7A0
330
18
100
AcDbEntity
  8
0
 62
     0
100
AcDbLine
 10
2.57362
 20
7.699396000000001
 30
0.0
 11
2.57362
 21
7.699396000000001
 31
0.0
  0
LINE
  5
7A1
330
18
100
AcDbEntity
  8
0
 62
     0
100
AcDbLine
 10
2.660618
 20
7.619675999999999
 30
0.0
 11
2.660618
 21
7.619675999999999
 31
0.0
  0
LINE
  5
7A2
330
18
100
AcDbEntity
  8
0
 62
     0
100
AcDbLine
 10
2.760151
 20
7.528472
 30
0.0
 11
2.760151
 21
7.528472
 31
0.0
  0
LINE
  5
7A3
330
18
100
AcDbEntity
  8
0
 62
     0
100
AcDbLine
 10
2.778583
 20
7.511582000000001
 30
0.0
 11
2.778583
 21
7.511582000000001
 31
0.0
  0
LINE
  5
7A4
330
18
100
AcDbEntity
  8
0
 62
     0
100
AcDbLine
 10
2.8558
 20
7.804053
 30
0.0
 11
2.8558
 21
7.804053
 31
0.0
  0
LINE
  5
7A5
330
18
100
AcDbEntity
  8
0
 62
     0
100
AcDbLine
 10
2.874232
 20
7.787164
 30
0.0
 11
2.874232
 21
7.787164
 31
0.0
  0
LINE
  5
7A6
330
18
100
AcDbEntity
  8
0
 62
     0
100
AcDbLine
 10
2.961231
 20
7.707444000000001
 30
0.0
 11
2.961231
 21
7.707444000000001
 31
0.0
  0
LINE
  5
7A7
330
18
100
AcDbEntity
  8
0
 62
     0
100
AcDbLine
 10
3.060763
 20
7.616239
 30
0.0
 11
3.060763
 21
7.616239
 31
0.0
  0
LINE
  5
7A8
330
18
100
AcDbEntity
  8
0
 62
     0
100
AcDbLine
 10
3.079195
 20
7.599349
 30
0.0
 11
3.079195
 21
7.599349
 31
0.0
  0
LINE
  5
7A9
330
18
100
AcDbEntity
  8
0
 62
     0
100
AcDbLine
 10
3.261844
 20
7.795211
 30
0.0
 11
3.261844
 21
7.795211
 31
0.0
  0
LINE
  5
7AA
330
18
100
AcDbEntity
  8
0
 62
     0
100
AcDbLine
 10
3.361376
 20
7.704007000000001
 30
0.0
 11
3.361376
 21
7.704007000000001
 31
0.0
  0
LINE
  5
7AB
330
18
100
AcDbEntity
  8
0
 62
     0
100
AcDbLine
 10
3.379808
 20
7.687117
 30
0.0
 11
3.379808
 21
7.687117
 31
0.0
  0
LINE
  5
7AC
330
18
100
AcDbEntity
  8
0
 62
     0
100
AcDbLine
 10
4.370248
 20
6.908697999999999
 30
0.0
 11
4.370248
 21
6.908697999999999
 31
0.0
  0
LINE
  5
7AD
330
18
100
AcDbEntity
  8
0
 62
     0
100
AcDbLine
 10
4.499168
 20
7.007622000000001
 30
0.0
 11
4.499168
 21
7.007622000000001
 31
0.0
  0
LINE
  5
7AE
330
18
100
AcDbEntity
  8
0
 62
     0
100
AcDbLine
 10
4.619758
 20
7.100153
 30
0.0
 11
4.619758
 21
7.100153
 31
0.0
  0
LINE
  5
7AF
330
18
100
AcDbEntity
  8
0
 62
     0
100
AcDbLine
 10
4.754628
 20
7.203643
 30
0.0
 11
4.754628
 21
7.203643
 31
0.0
  0
LINE
  5
7B0
330
18
100
AcDbEntity
  8
0
 62
     0
100
AcDbLine
 10
4.613459
 20
7.292836
 30
0.0
 11
4.613459
 21
7.292836
 31
0.0
  0
LINE
  5
7B1
330
18
100
AcDbEntity
  8
0
 62
     0
100
AcDbLine
 10
4.10219
 20
7.098042
 30
0.0
 11
4.10219
 21
7.098042
 31
0.0
  0
LINE
  5
7B2
330
18
100
AcDbEntity
  8
0
 62
     0
100
AcDbLine
 10
4.22278
 20
7.190573
 30
0.0
 11
4.22278
 21
7.190573
 31
0.0
  0
LINE
  5
7B3
330
18
100
AcDbEntity
  8
0
 62
     0
100
AcDbLine
 10
4.35765
 20
7.294063
 30
0.0
 11
4.35765
 21
7.294063
 31
0.0
  0
LINE
  5
7B4
330
18
100
AcDbEntity
  8
0
 62
     0
100
AcDbLine
 10
3.832101
 20
7.088311
 30
0.0
 11
3.832101
 21
7.088311
 31
0.0
  0
LINE
  5
7B5
330
18
100
AcDbEntity
  8
0
 62
     0
100
AcDbLine
 10
3.966971
 20
7.1918
 30
0.0
 11
3.966971
 21
7.1918
 31
0.0
  0
LINE
  5
7B6
330
18
100
AcDbEntity
  8
0
 62
     0
100
AcDbLine
 10
4.095891
 20
7.290724000000001
 30
0.0
 11
4.095891
 21
7.290724000000001
 31
0.0
  0
LINE
  5
7B7
330
18
100
AcDbEntity
  8
0
 62
     0
100
AcDbLine
 10
4.216480000000001
 20
7.383255999999999
 30
0.0
 11
4.216480000000001
 21
7.383255999999999
 31
0.0
  0
LINE
  5
7B8
330
18
100
AcDbEntity
  8
0
 62
     0
100
AcDbLine
 10
3.705212
 20
7.188461
 30
0.0
 11
3.705212
 21
7.188461
 31
0.0
  0
LINE
  5
7B9
330
18
100
AcDbEntity
  8
0
 62
     0
100
AcDbLine
 10
3.825801
 20
7.280993
 30
0.0
 11
3.825801
 21
7.280993
 31
0.0
  0
LINE
  5
7BA
330
18
100
AcDbEntity
  8
0
 62
     0
100
AcDbLine
 10
3.960671
 20
7.384483
 30
0.0
 11
3.960671
 21
7.384483
 31
0.0
  0
LINE
  5
7BB
330
18
100
AcDbEntity
  8
0
 62
     0
100
AcDbLine
 10
4.089591
 20
7.483406
 30
0.0
 11
4.089591
 21
7.483406
 31
0.0
  0
LINE
  5
7BC
330
18
100
AcDbEntity
  8
0
 62
     0
100
AcDbLine
 10
3.569992
 20
7.28222
 30
0.0
 11
3.569992
 21
7.28222
 31
0.0
  0
LINE
  5
7BD
330
18
100
AcDbEntity
  8
0
 62
     0
100
AcDbLine
 10
3.698912
 20
7.381144
 30
0.0
 11
3.698912
 21
7.381144
 31
0.0
  0
LINE
  5
7BE
330
18
100
AcDbEntity
  8
0
 62
     0
100
AcDbLine
 10
4.505468000000001
 20
6.814939
 30
0.0
 11
4.505468000000001
 21
6.814939
 31
0.0
  0
LINE
  5
7BF
330
18
100
AcDbEntity
  8
0
 62
     0
100
AcDbLine
 10
4.626057
 20
6.907471000000001
 30
0.0
 11
4.626057
 21
6.907471000000001
 31
0.0
  0
LINE
  5
7C0
330
18
100
AcDbEntity
  8
0
 62
     0
100
AcDbLine
 10
4.760927
 20
7.010961
 30
0.0
 11
4.760927
 21
7.010961
 31
0.0
  0
LINE
  5
7C1
330
18
100
AcDbEntity
  8
0
 62
     0
100
AcDbLine
 10
4.889847000000001
 20
7.109884
 30
0.0
 11
4.889847000000001
 21
7.109884
 31
0.0
  0
LINE
  5
7C2
330
18
100
AcDbEntity
  8
0
 62
     0
100
AcDbLine
 10
5.010437000000001
 20
7.202416
 30
0.0
 11
5.010437000000001
 21
7.202416
 31
0.0
  0
LINE
  5
7C3
330
18
100
AcDbEntity
  8
0
 62
     0
100
AcDbLine
 10
4.767227
 20
6.818278
 30
0.0
 11
4.767227
 21
6.818278
 31
0.0
  0
LINE
  5
7C4
330
18
100
AcDbEntity
  8
0
 62
     0
100
AcDbLine
 10
4.896147
 20
6.917202000000001
 30
0.0
 11
4.896147
 21
6.917202000000001
 31
0.0
  0
LINE
  5
7C5
330
18
100
AcDbEntity
  8
0
 62
     0
100
AcDbLine
 10
5.016736
 20
7.009734
 30
0.0
 11
5.016736
 21
7.009734
 31
0.0
  0
LINE
  5
7C6
330
18
100
AcDbEntity
  8
0
 62
     0
100
AcDbLine
 10
5.151606
 20
7.113223
 30
0.0
 11
5.151606
 21
7.113223
 31
0.0
  0
LINE
  5
7C7
330
18
100
AcDbEntity
  8
0
 62
     0
100
AcDbLine
 10
5.157906
 20
6.920541
 30
0.0
 11
5.157906
 21
6.920541
 31
0.0
  0
LINE
  5
7C8
330
18
100
AcDbEntity
  8
0
 62
     0
100
AcDbLine
 10
5.286826000000001
 20
7.019464
 30
0.0
 11
5.286826000000001
 21
7.019464
 31
0.0
  0
LINE
  5
7C9
330
18
100
AcDbEntity
  8
0
 62
     0
100
AcDbLine
 10
4.641568
 20
7.08395
 30
0.0
 11
4.641568
 21
7.08395
 31
0.0
  0
LINE
  5
7CA
330
18
100
AcDbEntity
  8
0
 62
     0
100
AcDbLine
 10
4.693619
 20
7.090803
 30
0.0
 11
4.693619
 21
7.090803
 31
0.0
  0
LINE
  5
7CB
330
18
100
AcDbEntity
  8
0
 62
     0
100
AcDbLine
 10
4.774918
 20
7.101506
 30
0.0
 11
4.774918
 21
7.101506
 31
0.0
  0
LINE
  5
7CC
330
18
100
AcDbEntity
  8
0
 62
     0
100
AcDbLine
 10
4.910745
 20
7.119388000000001
 30
0.0
 11
4.910745
 21
7.119388000000001
 31
0.0
  0
LINE
  5
7CD
330
18
100
AcDbEntity
  8
0
 62
     0
100
AcDbLine
 10
4.962796
 20
7.126241
 30
0.0
 11
4.962796
 21
7.126241
 31
0.0
  0
LINE
  5
7CE
330
18
100
AcDbEntity
  8
0
 62
     0
100
AcDbLine
 10
5.044095
 20
7.136944000000001
 30
0.0
 11
5.044095
 21
7.136944000000001
 31
0.0
  0
LINE
  5
7CF
330
18
100
AcDbEntity
  8
0
 62
     0
100
AcDbLine
 10
3.606009
 20
7.206531
 30
0.0
 11
3.606009
 21
7.206531
 31
0.0
  0
LINE
  5
7D0
330
18
100
AcDbEntity
  8
0
 62
     0
100
AcDbLine
 10
3.741837
 20
7.224414
 30
0.0
 11
3.741837
 21
7.224414
 31
0.0
  0
LINE
  5
7D1
330
18
100
AcDbEntity
  8
0
 62
     0
100
AcDbLine
 10
3.793888
 20
7.231266000000001
 30
0.0
 11
3.793888
 21
7.231266000000001
 31
0.0
  0
LINE
  5
7D2
330
18
100
AcDbEntity
  8
0
 62
     0
100
AcDbLine
 10
3.875186
 20
7.241969
 30
0.0
 11
3.875186
 21
7.241969
 31
0.0
  0
LINE
  5
7D3
330
18
100
AcDbEntity
  8
0
 62
     0
100
AcDbLine
 10
4.011014
 20
7.259850999999999
 30
0.0
 11
4.011014
 21
7.259850999999999
 31
0.0
  0
LINE
  5
7D4
330
18
100
AcDbEntity
  8
0
 62
     0
100
AcDbLine
 10
4.063065
 20
7.266703999999999
 30
0.0
 11
4.063065
 21
7.266703999999999
 31
0.0
  0
LINE
  5
7D5
330
18
100
AcDbEntity
  8
0
 62
     0
100
AcDbLine
 10
4.144362999999999
 20
7.277407000000001
 30
0.0
 11
4.144362999999999
 21
7.277407000000001
 31
0.0
  0
LINE
  5
7D6
330
18
100
AcDbEntity
  8
0
 62
     0
100
AcDbLine
 10
4.280191
 20
7.295289
 30
0.0
 11
4.280191
 21
7.295289
 31
0.0
  0
LINE
  5
7D7
330
18
100
AcDbEntity
  8
0
 62
     0
100
AcDbLine
 10
4.332242
 20
7.302142
 30
0.0
 11
4.332242
 21
7.302142
 31
0.0
  0
LINE
  5
7D8
330
18
100
AcDbEntity
  8
0
 62
     0
100
AcDbLine
 10
4.413541
 20
7.312844999999999
 30
0.0
 11
4.413541
 21
7.312844999999999
 31
0.0
  0
LINE
  5
7D9
330
18
100
AcDbEntity
  8
0
 62
     0
100
AcDbLine
 10
4.549369
 20
7.330727
 30
0.0
 11
4.549369
 21
7.330727
 31
0.0
  0
LINE
  5
7DA
330
18
100
AcDbEntity
  8
0
 62
     0
100
AcDbLine
 10
4.601419
 20
7.33758
 30
0.0
 11
4.601419
 21
7.33758
 31
0.0
  0
LINE
  5
7DB
330
18
100
AcDbEntity
  8
0
 62
     0
100
AcDbLine
 10
4.052164
 20
7.524184
 30
0.0
 11
4.052164
 21
7.524184
 31
0.0
  0
LINE
  5
7DC
330
18
100
AcDbEntity
  8
0
 62
     0
100
AcDbLine
 10
4.516641
 20
6.808588
 30
0.0
 11
4.516641
 21
6.808588
 31
0.0
  0
LINE
  5
7DD
330
18
100
AcDbEntity
  8
0
 62
     0
100
AcDbLine
 10
4.59794
 20
6.819292
 30
0.0
 11
4.59794
 21
6.819292
 31
0.0
  0
LINE
  5
7DE
330
18
100
AcDbEntity
  8
0
 62
     0
100
AcDbLine
 10
4.733768
 20
6.837174
 30
0.0
 11
4.733768
 21
6.837174
 31
0.0
  0
LINE
  5
7DF
330
18
100
AcDbEntity
  8
0
 62
     0
100
AcDbLine
 10
4.785819
 20
6.844026
 30
0.0
 11
4.785819
 21
6.844026
 31
0.0
  0
LINE
  5
7E0
330
18
100
AcDbEntity
  8
0
 62
     0
100
AcDbLine
 10
4.867117
 20
6.854728999999999
 30
0.0
 11
4.867117
 21
6.854728999999999
 31
0.0
  0
LINE
  5
7E1
330
18
100
AcDbEntity
  8
0
 62
     0
100
AcDbLine
 10
5.002945
 20
6.872611999999999
 30
0.0
 11
5.002945
 21
6.872611999999999
 31
0.0
  0
LINE
  5
7E2
330
18
100
AcDbEntity
  8
0
 62
     0
100
AcDbLine
 10
5.054996
 20
6.879464
 30
0.0
 11
5.054996
 21
6.879464
 31
0.0
  0
LINE
  5
7E3
330
18
100
AcDbEntity
  8
0
 62
     0
100
AcDbLine
 10
3.876379
 20
7.400046000000001
 30
0.0
 11
3.876379
 21
7.400046000000001
 31
0.0
  0
LINE
  5
7E4
330
18
100
AcDbEntity
  8
0
 62
     0
100
AcDbLine
 10
4.074576
 20
7.27378
 30
0.0
 11
4.074576
 21
7.27378
 31
0.0
  0
LINE
  5
7E5
330
18
100
AcDbEntity
  8
0
 62
     0
100
AcDbLine
 10
4.116745
 20
7.246916000000001
 30
0.0
 11
4.116745
 21
7.246916000000001
 31
0.0
  0
LINE
  5
7E6
330
18
100
AcDbEntity
  8
0
 62
     0
100
AcDbLine
 10
4.268555999999999
 20
7.150202
 30
0.0
 11
4.268555999999999
 21
7.150202
 31
0.0
  0
LINE
  5
7E7
330
18
100
AcDbEntity
  8
0
 62
     0
100
AcDbLine
 10
4.466753
 20
7.023936
 30
0.0
 11
4.466753
 21
7.023936
 31
0.0
  0
LINE
  5
7E8
330
18
100
AcDbEntity
  8
0
 62
     0
100
AcDbLine
 10
4.508922
 20
6.997071000000001
 30
0.0
 11
4.508922
 21
6.997071000000001
 31
0.0
  0
LINE
  5
7E9
330
18
100
AcDbEntity
  8
0
 62
     0
100
AcDbLine
 10
4.660733000000001
 20
6.900357000000001
 30
0.0
 11
4.660733000000001
 21
6.900357000000001
 31
0.0
  0
LINE
  5
7EA
330
18
100
AcDbEntity
  8
0
 62
     0
100
AcDbLine
 10
4.85893
 20
6.774092
 30
0.0
 11
4.85893
 21
6.774092
 31
0.0
  0
LINE
  5
7EB
330
18
100
AcDbEntity
  8
0
 62
     0
100
AcDbLine
 10
4.901098999999999
 20
6.747227000000001
 30
0.0
 11
4.901098999999999
 21
6.747227000000001
 31
0.0
  0
LINE
  5
7EC
330
18
100
AcDbEntity
  8
0
 62
     0
100
AcDbLine
 10
4.035982
 20
7.497325999999999
 30
0.0
 11
4.035982
 21
7.497325999999999
 31
0.0
  0
LINE
  5
7ED
330
18
100
AcDbEntity
  8
0
 62
     0
100
AcDbLine
 10
4.187793
 20
7.400612
 30
0.0
 11
4.187793
 21
7.400612
 31
0.0
  0
LINE
  5
7EE
330
18
100
AcDbEntity
  8
0
 62
     0
100
AcDbLine
 10
4.385990000000001
 20
7.274346
 30
0.0
 11
4.385990000000001
 21
7.274346
 31
0.0
  0
LINE
  5
7EF
330
18
100
AcDbEntity
  8
0
 62
     0
100
AcDbLine
 10
4.428159
 20
7.247481
 30
0.0
 11
4.428159
 21
7.247481
 31
0.0
  0
LINE
  5
7F0
330
18
100
AcDbEntity
  8
0
 62
     0
100
AcDbLine
 10
4.778167
 20
7.024502
 30
0.0
 11
4.778167
 21
7.024502
 31
0.0
  0
LINE
  5
7F1
330
18
100
AcDbEntity
  8
0
 62
     0
100
AcDbLine
 10
4.820336
 20
6.997636999999999
 30
0.0
 11
4.820336
 21
6.997636999999999
 31
0.0
  0
LINE
  5
7F2
330
18
100
AcDbEntity
  8
0
 62
     0
100
AcDbLine
 10
4.972147000000001
 20
6.900923
 30
0.0
 11
4.972147000000001
 21
6.900923
 31
0.0
  0
LINE
  5
7F3
330
18
100
AcDbEntity
  8
0
 62
     0
100
AcDbLine
 10
4.891384
 20
7.151333
 30
0.0
 11
4.891384
 21
7.151333
 31
0.0
  0
LINE
  5
7F4
330
18
100
AcDbEntity
  8
0
 62
     0
100
AcDbLine
 10
5.089581
 20
7.025067999999999
 30
0.0
 11
5.089581
 21
7.025067999999999
 31
0.0
  0
LINE
  5
7F5
330
18
100
AcDbEntity
  8
0
 62
     0
100
AcDbLine
 10
5.131751
 20
6.998203
 30
0.0
 11
5.131751
 21
6.998203
 31
0.0
  0
LINE
  5
7F6
330
18
100
AcDbEntity
  8
0
 62
     0
100
AcDbLine
 10
3.763161
 20
7.273215
 30
0.0
 11
3.763161
 21
7.273215
 31
0.0
  0
LINE
  5
7F7
330
18
100
AcDbEntity
  8
0
 62
     0
100
AcDbLine
 10
3.805331
 20
7.24635
 30
0.0
 11
3.805331
 21
7.24635
 31
0.0
  0
LINE
  5
7F8
330
18
100
AcDbEntity
  8
0
 62
     0
100
AcDbLine
 10
3.957142
 20
7.149636
 30
0.0
 11
3.957142
 21
7.149636
 31
0.0
  0
LINE
  5
7F9
330
18
100
AcDbEntity
  8
0
 62
     0
100
AcDbLine
 10
4.349319
 20
6.899791000000001
 30
0.0
 11
4.349319
 21
6.899791000000001
 31
0.0
  0
LINE
  5
7FA
330
18
100
AcDbEntity
  8
0
 62
     0
100
AcDbLine
 10
3.493917
 20
7.245784
 30
0.0
 11
3.493917
 21
7.245784
 31
0.0
  0
LINE
  5
7FB
330
18
100
AcDbEntity
  8
0
 62
     0
100
AcDbLine
 10
3.972383
 20
7.507351
 30
0.0
 11
3.972383
 21
7.507351
 31
0.0
  0
LINE
  5
7FC
330
18
100
AcDbEntity
  8
0
 62
     0
100
AcDbLine
 10
4.071915
 20
7.416146
 30
0.0
 11
4.071915
 21
7.416146
 31
0.0
  0
LINE
  5
7FD
330
18
100
AcDbEntity
  8
0
 62
     0
100
AcDbLine
 10
4.090347
 20
7.399255999999999
 30
0.0
 11
4.090347
 21
7.399255999999999
 31
0.0
  0
LINE
  5
7FE
330
18
100
AcDbEntity
  8
0
 62
     0
100
AcDbLine
 10
4.177346
 20
7.319537
 30
0.0
 11
4.177346
 21
7.319537
 31
0.0
  0
LINE
  5
7FF
330
18
100
AcDbEntity
  8
0
 62
     0
100
AcDbLine
 10
4.276878
 20
7.228332000000001
 30
0.0
 11
4.276878
 21
7.228332000000001
 31
0.0
  0
LINE
  5
800
330
18
100
AcDbEntity
  8
0
 62
     0
100
AcDbLine
 10
4.29531
 20
7.211442
 30
0.0
 11
4.29531
 21
7.211442
 31
0.0
  0
LINE
  5
801
330
18
100
AcDbEntity
  8
0
 62
     0
100
AcDbLine
 10
4.481841
 20
7.040518
 30
0.0
 11
4.481841
 21
7.040518
 31
0.0
  0
LINE
  5
802
330
18
100
AcDbEntity
  8
0
 62
     0
100
AcDbLine
 10
4.500273
 20
7.023628
 30
0.0
 11
4.500273
 21
7.023628
 31
0.0
  0
LINE
  5
803
330
18
100
AcDbEntity
  8
0
 62
     0
100
AcDbLine
 10
4.587272000000001
 20
6.943909
 30
0.0
 11
4.587272000000001
 21
6.943909
 31
0.0
  0
LINE
  5
804
330
18
100
AcDbEntity
  8
0
 62
     0
100
AcDbLine
 10
4.686804
 20
6.852703999999999
 30
0.0
 11
4.686804
 21
6.852703999999999
 31
0.0
  0
LINE
  5
805
330
18
100
AcDbEntity
  8
0
 62
     0
100
AcDbLine
 10
4.705236
 20
6.835814
 30
0.0
 11
4.705236
 21
6.835814
 31
0.0
  0
LINE
  5
806
330
18
100
AcDbEntity
  8
0
 62
     0
100
AcDbLine
 10
4.792235
 20
6.756094999999999
 30
0.0
 11
4.792235
 21
6.756094999999999
 31
0.0
  0
LINE
  5
807
330
18
100
AcDbEntity
  8
0
 62
     0
100
AcDbLine
 10
4.577491
 20
7.3161
 30
0.0
 11
4.577491
 21
7.3161
 31
0.0
  0
LINE
  5
808
330
18
100
AcDbEntity
  8
0
 62
     0
100
AcDbLine
 10
4.595923
 20
7.29921
 30
0.0
 11
4.595923
 21
7.29921
 31
0.0
  0
LINE
  5
809
330
18
100
AcDbEntity
  8
0
 62
     0
100
AcDbLine
 10
4.782454
 20
7.128286
 30
0.0
 11
4.782454
 21
7.128286
 31
0.0
  0
LINE
  5
80A
330
18
100
AcDbEntity
  8
0
 62
     0
100
AcDbLine
 10
4.800886
 20
7.111396000000001
 30
0.0
 11
4.800886
 21
7.111396000000001
 31
0.0
  0
LINE
  5
80B
330
18
100
AcDbEntity
  8
0
 62
     0
100
AcDbLine
 10
4.887885
 20
7.031675999999999
 30
0.0
 11
4.887885
 21
7.031675999999999
 31
0.0
  0
LINE
  5
80C
330
18
100
AcDbEntity
  8
0
 62
     0
100
AcDbLine
 10
4.987417
 20
6.940472
 30
0.0
 11
4.987417
 21
6.940472
 31
0.0
  0
LINE
  5
80D
330
18
100
AcDbEntity
  8
0
 62
     0
100
AcDbLine
 10
5.005849
 20
6.923582000000001
 30
0.0
 11
5.005849
 21
6.923582000000001
 31
0.0
  0
LINE
  5
80E
330
18
100
AcDbEntity
  8
0
 62
     0
100
AcDbLine
 10
5.188497
 20
7.119444000000001
 30
0.0
 11
5.188497
 21
7.119444000000001
 31
0.0
  0
LINE
  5
80F
330
18
100
AcDbEntity
  8
0
 62
     0
100
AcDbLine
 10
5.28803
 20
7.028239
 30
0.0
 11
5.28803
 21
7.028239
 31
0.0
  0
LINE
  5
810
330
18
100
AcDbEntity
  8
0
 62
     0
100
AcDbLine
 10
5.306462000000001
 20
7.011349000000001
 30
0.0
 11
5.306462000000001
 21
7.011349000000001
 31
0.0
  0
LINE
  5
811
330
18
100
AcDbEntity
  8
0
 62
     0
100
AcDbLine
 10
3.771302
 20
7.328378999999999
 30
0.0
 11
3.771302
 21
7.328378999999999
 31
0.0
  0
LINE
  5
812
330
18
100
AcDbEntity
  8
0
 62
     0
100
AcDbLine
 10
3.789734
 20
7.311489
 30
0.0
 11
3.789734
 21
7.311489
 31
0.0
  0
LINE
  5
813
330
18
100
AcDbEntity
  8
0
 62
     0
100
AcDbLine
 10
3.876733
 20
7.231769
 30
0.0
 11
3.876733
 21
7.231769
 31
0.0
  0
LINE
  5
814
330
18
100
AcDbEntity
  8
0
 62
     0
100
AcDbLine
 10
3.976265
 20
7.140565
 30
0.0
 11
3.976265
 21
7.140565
 31
0.0
  0
LINE
  5
815
330
18
100
AcDbEntity
  8
0
 62
     0
100
AcDbLine
 10
3.994697
 20
7.123675
 30
0.0
 11
3.994697
 21
7.123675
 31
0.0
  0
LINE
  5
816
330
18
100
AcDbEntity
  8
0
 62
     0
100
AcDbLine
 10
4.081696
 20
7.043955
 30
0.0
 11
4.081696
 21
7.043955
 31
0.0
  0
LINE
  5
817
330
18
100
AcDbEntity
  8
0
 62
     0
100
AcDbLine
 10
3.47069
 20
7.240611
 30
0.0
 11
3.47069
 21
7.240611
 31
0.0
  0
LINE
  5
818
330
18
100
AcDbEntity
  8
0
 62
     0
100
AcDbLine
 10
3.489122
 20
7.223721
 30
0.0
 11
3.489122
 21
7.223721
 31
0.0
  0
LINE
  5
819
330
18
100
AcDbEntity
  8
0
 62
     0
100
AcDbLine
 10
5.702702
 20
6.350997
 30
0.0
 11
5.702702
 21
6.350997
 31
0.0
  0
LINE
  5
81A
330
18
100
AcDbEntity
  8
0
 62
     0
100
AcDbLine
 10
5.823292
 20
6.443529
 30
0.0
 11
5.823292
 21
6.443529
 31
0.0
  0
LINE
  5
81B
330
18
100
AcDbEntity
  8
0
 62
     0
100
AcDbLine
 10
5.958162000000001
 20
6.547019000000001
 30
0.0
 11
5.958162000000001
 21
6.547019000000001
 31
0.0
  0
LINE
  5
81C
330
18
100
AcDbEntity
  8
0
 62
     0
100
AcDbLine
 10
5.567483
 20
6.444756
 30
0.0
 11
5.567483
 21
6.444756
 31
0.0
  0
LINE
  5
81D
330
18
100
AcDbEntity
  8
0
 62
     0
100
AcDbLine
 10
5.696403
 20
6.54368
 30
0.0
 11
5.696403
 21
6.54368
 31
0.0
  0
LINE
  5
81E
330
18
100
AcDbEntity
  8
0
 62
     0
100
AcDbLine
 10
5.816992
 20
6.636212
 30
0.0
 11
5.816992
 21
6.636212
 31
0.0
  0
LINE
  5
81F
330
18
100
AcDbEntity
  8
0
 62
     0
100
AcDbLine
 10
5.951862
 20
6.739700999999999
 30
0.0
 11
5.951862
 21
6.739700999999999
 31
0.0
  0
LINE
  5
820
330
18
100
AcDbEntity
  8
0
 62
     0
100
AcDbLine
 10
5.964461
 20
6.354336
 30
0.0
 11
5.964461
 21
6.354336
 31
0.0
  0
LINE
  5
821
330
18
100
AcDbEntity
  8
0
 62
     0
100
AcDbLine
 10
6.093381
 20
6.45326
 30
0.0
 11
6.093381
 21
6.45326
 31
0.0
  0
LINE
  5
822
330
18
100
AcDbEntity
  8
0
 62
     0
100
AcDbLine
 10
5.508572
 20
6.421349
 30
0.0
 11
5.508572
 21
6.421349
 31
0.0
  0
LINE
  5
823
330
18
100
AcDbEntity
  8
0
 62
     0
100
AcDbLine
 10
5.589871
 20
6.432052
 30
0.0
 11
5.589871
 21
6.432052
 31
0.0
  0
LINE
  5
824
330
18
100
AcDbEntity
  8
0
 62
     0
100
AcDbLine
 10
5.725699
 20
6.449934
 30
0.0
 11
5.725699
 21
6.449934
 31
0.0
  0
LINE
  5
825
330
18
100
AcDbEntity
  8
0
 62
     0
100
AcDbLine
 10
5.77775
 20
6.456786
 30
0.0
 11
5.77775
 21
6.456786
 31
0.0
  0
LINE
  5
826
330
18
100
AcDbEntity
  8
0
 62
     0
100
AcDbLine
 10
5.859048000000001
 20
6.46749
 30
0.0
 11
5.859048000000001
 21
6.46749
 31
0.0
  0
LINE
  5
827
330
18
100
AcDbEntity
  8
0
 62
     0
100
AcDbLine
 10
5.994876000000001
 20
6.485372
 30
0.0
 11
5.994876000000001
 21
6.485372
 31
0.0
  0
LINE
  5
828
330
18
100
AcDbEntity
  8
0
 62
     0
100
AcDbLine
 10
6.046926999999999
 20
6.492224
 30
0.0
 11
6.046926999999999
 21
6.492224
 31
0.0
  0
LINE
  5
829
330
18
100
AcDbEntity
  8
0
 62
     0
100
AcDbLine
 10
6.128225
 20
6.502927
 30
0.0
 11
6.128225
 21
6.502927
 31
0.0
  0
LINE
  5
82A
330
18
100
AcDbEntity
  8
0
 62
     0
100
AcDbLine
 10
5.766849
 20
6.714266
 30
0.0
 11
5.766849
 21
6.714266
 31
0.0
  0
LINE
  5
82B
330
18
100
AcDbEntity
  8
0
 62
     0
100
AcDbLine
 10
5.902677
 20
6.732148
 30
0.0
 11
5.902677
 21
6.732148
 31
0.0
  0
LINE
  5
82C
330
18
100
AcDbEntity
  8
0
 62
     0
100
AcDbLine
 10
5.954727
 20
6.739000999999999
 30
0.0
 11
5.954727
 21
6.739000999999999
 31
0.0
  0
LINE
  5
82D
330
18
100
AcDbEntity
  8
0
 62
     0
100
AcDbLine
 10
6.036026000000001
 20
6.749704
 30
0.0
 11
6.036026000000001
 21
6.749704
 31
0.0
  0
LINE
  5
82E
330
18
100
AcDbEntity
  8
0
 62
     0
100
AcDbLine
 10
5.562521
 20
6.524813
 30
0.0
 11
5.562521
 21
6.524813
 31
0.0
  0
LINE
  5
82F
330
18
100
AcDbEntity
  8
0
 62
     0
100
AcDbLine
 10
5.60469
 20
6.497948
 30
0.0
 11
5.60469
 21
6.497948
 31
0.0
  0
LINE
  5
830
330
18
100
AcDbEntity
  8
0
 62
     0
100
AcDbLine
 10
5.756501
 20
6.401235
 30
0.0
 11
5.756501
 21
6.401235
 31
0.0
  0
LINE
  5
831
330
18
100
AcDbEntity
  8
0
 62
     0
100
AcDbLine
 10
5.954698000000001
 20
6.274969000000001
 30
0.0
 11
5.954698000000001
 21
6.274969000000001
 31
0.0
  0
LINE
  5
832
330
18
100
AcDbEntity
  8
0
 62
     0
100
AcDbLine
 10
5.675738
 20
6.651644999999999
 30
0.0
 11
5.675738
 21
6.651644999999999
 31
0.0
  0
LINE
  5
833
330
18
100
AcDbEntity
  8
0
 62
     0
100
AcDbLine
 10
5.873935
 20
6.525379
 30
0.0
 11
5.873935
 21
6.525379
 31
0.0
  0
LINE
  5
834
330
18
100
AcDbEntity
  8
0
 62
     0
100
AcDbLine
 10
5.916105
 20
6.498514
 30
0.0
 11
5.916105
 21
6.498514
 31
0.0
  0
LINE
  5
835
330
18
100
AcDbEntity
  8
0
 62
     0
100
AcDbLine
 10
6.067915
 20
6.4018
 30
0.0
 11
6.067915
 21
6.4018
 31
0.0
  0
LINE
  5
836
330
18
100
AcDbEntity
  8
0
 62
     0
100
AcDbLine
 10
5.835342
 20
6.748925
 30
0.0
 11
5.835342
 21
6.748925
 31
0.0
  0
LINE
  5
837
330
18
100
AcDbEntity
  8
0
 62
     0
100
AcDbLine
 10
5.987152
 20
6.652211
 30
0.0
 11
5.987152
 21
6.652211
 31
0.0
  0
LINE
  5
838
330
18
100
AcDbEntity
  8
0
 62
     0
100
AcDbLine
 10
5.502774
 20
6.468234
 30
0.0
 11
5.502774
 21
6.468234
 31
0.0
  0
LINE
  5
839
330
18
100
AcDbEntity
  8
0
 62
     0
100
AcDbLine
 10
5.602306
 20
6.377029
 30
0.0
 11
5.602306
 21
6.377029
 31
0.0
  0
LINE
  5
83A
330
18
100
AcDbEntity
  8
0
 62
     0
100
AcDbLine
 10
5.620737999999999
 20
6.36014
 30
0.0
 11
5.620737999999999
 21
6.36014
 31
0.0
  0
LINE
  5
83B
330
18
100
AcDbEntity
  8
0
 62
     0
100
AcDbLine
 10
5.697956
 20
6.652611
 30
0.0
 11
5.697956
 21
6.652611
 31
0.0
  0
LINE
  5
83C
330
18
100
AcDbEntity
  8
0
 62
     0
100
AcDbLine
 10
5.716387999999999
 20
6.635721
 30
0.0
 11
5.716387999999999
 21
6.635721
 31
0.0
  0
LINE
  5
83D
330
18
100
AcDbEntity
  8
0
 62
     0
100
AcDbLine
 10
5.803386
 20
6.556002
 30
0.0
 11
5.803386
 21
6.556002
 31
0.0
  0
LINE
  5
83E
330
18
100
AcDbEntity
  8
0
 62
     0
100
AcDbLine
 10
5.902919
 20
6.464797
 30
0.0
 11
5.902919
 21
6.464797
 31
0.0
  0
LINE
  5
83F
330
18
100
AcDbEntity
  8
0
 62
     0
100
AcDbLine
 10
5.921351000000001
 20
6.447907
 30
0.0
 11
5.921351000000001
 21
6.447907
 31
0.0
  0
LINE
  5
840
330
18
100
AcDbEntity
  8
0
 62
     0
100
AcDbLine
 10
6.00835
 20
6.368187
 30
0.0
 11
6.00835
 21
6.368187
 31
0.0
  0
LINE
  5
841
330
18
100
AcDbEntity
  8
0
 62
     0
100
AcDbLine
 10
5.998568
 20
6.740378
 30
0.0
 11
5.998568
 21
6.740378
 31
0.0
  0
LINE
  5
842
330
18
100
AcDbEntity
  8
0
 62
     0
100
AcDbLine
 10
6.017
 20
6.723489
 30
0.0
 11
6.017
 21
6.723489
 31
0.0
  0
LINE
  5
843
330
18
100
AcDbEntity
  8
0
 62
     0
100
AcDbLine
 10
0.945261
 20
7.243353
 30
0.0
 11
0.945261
 21
7.243353
 31
0.0
  0
LINE
  5
844
330
18
100
AcDbEntity
  8
0
 62
     0
100
AcDbLine
 10
0.9263629999999999
 20
7.8214
 30
0.0
 11
0.9263629999999999
 21
7.8214
 31
0.0
  0
LINE
  5
845
330
18
100
AcDbEntity
  8
0
 62
     0
100
AcDbLine
 10
0.7080350000000001
 20
7.860666
 30
0.0
 11
0.7080350000000001
 21
7.860666
 31
0.0
  0
LINE
  5
846
330
18
100
AcDbEntity
  8
0
 62
     0
100
AcDbLine
 10
1.115518
 20
7.914312
 30
0.0
 11
1.115518
 21
7.914312
 31
0.0
  0
LINE
  5
847
330
18
100
AcDbEntity
  8
0
 62
     0
100
AcDbLine
 10
0.9450850000000001
 20
7.519098
 30
0.0
 11
0.9450850000000001
 21
7.519098
 31
0.0
  0
LINE
  5
848
330
18
100
AcDbEntity
  8
0
 62
     0
100
AcDbLine
 10
1.071594
 20
7.438503
 30
0.0
 11
1.071594
 21
7.438503
 31
0.0
  0
LINE
  5
849
330
18
100
AcDbEntity
  8
0
 62
     0
100
AcDbLine
 10
0.696811
 20
7.740844
 30
0.0
 11
0.696811
 21
7.740844
 31
0.0
  0
LINE
  5
84A
330
18
100
AcDbEntity
  8
0
 62
     0
100
AcDbLine
 10
0.752107
 20
7.690174000000001
 30
0.0
 11
0.752107
 21
7.690174000000001
 31
0.0
  0
LINE
  5
84B
330
18
100
AcDbEntity
  8
0
 62
     0
100
AcDbLine
 10
1.013103
 20
7.451014999999999
 30
0.0
 11
1.013103
 21
7.451014999999999
 31
0.0
  0
LINE
  5
84C
330
18
100
AcDbEntity
  8
0
 62
     0
100
AcDbLine
 10
2.136196
 20
6.972094
 30
0.0
 11
2.136196
 21
6.972094
 31
0.0
  0
LINE
  5
84D
330
18
100
AcDbEntity
  8
0
 62
     0
100
AcDbLine
 10
2.497965
 20
7.249689
 30
0.0
 11
2.497965
 21
7.249689
 31
0.0
  0
LINE
  5
84E
330
18
100
AcDbEntity
  8
0
 62
     0
100
AcDbLine
 10
1.730538
 20
7.253369999999999
 30
0.0
 11
1.730538
 21
7.253369999999999
 31
0.0
  0
LINE
  5
84F
330
18
100
AcDbEntity
  8
0
 62
     0
100
AcDbLine
 10
2.117298
 20
7.550141
 30
0.0
 11
2.117298
 21
7.550141
 31
0.0
  0
LINE
  5
850
330
18
100
AcDbEntity
  8
0
 62
     0
100
AcDbLine
 10
1.30703
 20
7.520948
 30
0.0
 11
1.30703
 21
7.520948
 31
0.0
  0
LINE
  5
851
330
18
100
AcDbEntity
  8
0
 62
     0
100
AcDbLine
 10
2.516863
 20
6.671641999999999
 30
0.0
 11
2.516863
 21
6.671641999999999
 31
0.0
  0
LINE
  5
852
330
18
100
AcDbEntity
  8
0
 62
     0
100
AcDbLine
 10
2.921473
 20
6.982110000000001
 30
0.0
 11
2.921473
 21
6.982110000000001
 31
0.0
  0
LINE
  5
853
330
18
100
AcDbEntity
  8
0
 62
     0
100
AcDbLine
 10
2.940371
 20
6.404063
 30
0.0
 11
2.940371
 21
6.404063
 31
0.0
  0
LINE
  5
854
330
18
100
AcDbEntity
  8
0
 62
     0
100
AcDbLine
 10
2.6324
 20
6.560523
 30
0.0
 11
2.6324
 21
6.560523
 31
0.0
  0
LINE
  5
855
330
18
100
AcDbEntity
  8
0
 62
     0
100
AcDbLine
 10
2.876296
 20
6.592633
 30
0.0
 11
2.876296
 21
6.592633
 31
0.0
  0
LINE
  5
856
330
18
100
AcDbEntity
  8
0
 62
     0
100
AcDbLine
 10
1.392117
 20
7.173982000000001
 30
0.0
 11
1.392117
 21
7.173982000000001
 31
0.0
  0
LINE
  5
857
330
18
100
AcDbEntity
  8
0
 62
     0
100
AcDbLine
 10
1.54827
 20
7.194539999999999
 30
0.0
 11
1.54827
 21
7.194539999999999
 31
0.0
  0
LINE
  5
858
330
18
100
AcDbEntity
  8
0
 62
     0
100
AcDbLine
 10
1.792165
 20
7.226649
 30
0.0
 11
1.792165
 21
7.226649
 31
0.0
  0
LINE
  5
859
330
18
100
AcDbEntity
  8
0
 62
     0
100
AcDbLine
 10
2.355802
 20
7.300853999999999
 30
0.0
 11
2.355802
 21
7.300853999999999
 31
0.0
  0
LINE
  5
85A
330
18
100
AcDbEntity
  8
0
 62
     0
100
AcDbLine
 10
2.599697
 20
7.332963
 30
0.0
 11
2.599697
 21
7.332963
 31
0.0
  0
LINE
  5
85B
330
18
100
AcDbEntity
  8
0
 62
     0
100
AcDbLine
 10
2.199649
 20
7.280296000000001
 30
0.0
 11
2.199649
 21
7.280296000000001
 31
0.0
  0
LINE
  5
85C
330
18
100
AcDbEntity
  8
0
 62
     0
100
AcDbLine
 10
1.527025
 20
7.148361
 30
0.0
 11
1.527025
 21
7.148361
 31
0.0
  0
LINE
  5
85D
330
18
100
AcDbEntity
  8
0
 62
     0
100
AcDbLine
 10
2.121616
 20
6.769564999999999
 30
0.0
 11
2.121616
 21
6.769564999999999
 31
0.0
  0
LINE
  5
85E
330
18
100
AcDbEntity
  8
0
 62
     0
100
AcDbLine
 10
2.248125
 20
6.688969999999999
 30
0.0
 11
2.248125
 21
6.688969999999999
 31
0.0
  0
LINE
  5
85F
330
18
100
AcDbEntity
  8
0
 62
     0
100
AcDbLine
 10
1.284737
 20
7.899592
 30
0.0
 11
1.284737
 21
7.899592
 31
0.0
  0
LINE
  5
860
330
18
100
AcDbEntity
  8
0
 62
     0
100
AcDbLine
 10
1.879328
 20
7.520795
 30
0.0
 11
1.879328
 21
7.520795
 31
0.0
  0
LINE
  5
861
330
18
100
AcDbEntity
  8
0
 62
     0
100
AcDbLine
 10
2.005836
 20
7.4402
 30
0.0
 11
2.005836
 21
7.4402
 31
0.0
  0
LINE
  5
862
330
18
100
AcDbEntity
  8
0
 62
     0
100
AcDbLine
 10
2.461268
 20
7.150059
 30
0.0
 11
2.461268
 21
7.150059
 31
0.0
  0
LINE
  5
863
330
18
100
AcDbEntity
  8
0
 62
     0
100
AcDbLine
 10
1.3117
 20
7.177401
 30
0.0
 11
1.3117
 21
7.177401
 31
0.0
  0
LINE
  5
864
330
18
100
AcDbEntity
  8
0
 62
     0
100
AcDbLine
 10
1.366996
 20
7.126732000000001
 30
0.0
 11
1.366996
 21
7.126732000000001
 31
0.0
  0
LINE
  5
865
330
18
100
AcDbEntity
  8
0
 62
     0
100
AcDbLine
 10
2.52983
 20
7.150875999999999
 30
0.0
 11
2.52983
 21
7.150875999999999
 31
0.0
  0
LINE
  5
866
330
18
100
AcDbEntity
  8
0
 62
     0
100
AcDbLine
 10
2.828427
 20
6.877261999999999
 30
0.0
 11
2.828427
 21
6.877261999999999
 31
0.0
  0
LINE
  5
867
330
18
100
AcDbEntity
  8
0
 62
     0
100
AcDbLine
 10
2.883723
 20
6.826592999999999
 30
0.0
 11
2.883723
 21
6.826592999999999
 31
0.0
  0
LINE
  5
868
330
18
100
AcDbEntity
  8
0
 62
     0
100
AcDbLine
 10
2.213538
 20
7.440703999999999
 30
0.0
 11
2.213538
 21
7.440703999999999
 31
0.0
  0
LINE
  5
869
330
18
100
AcDbEntity
  8
0
 62
     0
100
AcDbLine
 10
2.268834
 20
7.390035000000001
 30
0.0
 11
2.268834
 21
7.390035000000001
 31
0.0
  0
LINE
  5
86A
330
18
100
AcDbEntity
  8
0
 62
     0
100
AcDbLine
 10
4.131307
 20
6.132803
 30
0.0
 11
4.131307
 21
6.132803
 31
0.0
  0
LINE
  5
86B
330
18
100
AcDbEntity
  8
0
 62
     0
100
AcDbLine
 10
4.518066
 20
6.429575
 30
0.0
 11
4.518066
 21
6.429575
 31
0.0
  0
LINE
  5
86C
330
18
100
AcDbEntity
  8
0
 62
     0
100
AcDbLine
 10
3.707798
 20
6.400382
 30
0.0
 11
3.707798
 21
6.400382
 31
0.0
  0
LINE
  5
86D
330
18
100
AcDbEntity
  8
0
 62
     0
100
AcDbLine
 10
4.112409
 20
6.710851
 30
0.0
 11
4.112409
 21
6.710851
 31
0.0
  0
LINE
  5
86E
330
18
100
AcDbEntity
  8
0
 62
     0
100
AcDbLine
 10
3.327131
 20
6.700834
 30
0.0
 11
3.327131
 21
6.700834
 31
0.0
  0
LINE
  5
86F
330
18
100
AcDbEntity
  8
0
 62
     0
100
AcDbLine
 10
4.536964
 20
5.851527
 30
0.0
 11
4.536964
 21
5.851527
 31
0.0
  0
LINE
  5
870
330
18
100
AcDbEntity
  8
0
 62
     0
100
AcDbLine
 10
3.960427
 20
5.958616
 30
0.0
 11
3.960427
 21
5.958616
 31
0.0
  0
LINE
  5
871
330
18
100
AcDbEntity
  8
0
 62
     0
100
AcDbLine
 10
4.36791
 20
6.012262000000001
 30
0.0
 11
4.36791
 21
6.012262000000001
 31
0.0
  0
LINE
  5
872
330
18
100
AcDbEntity
  8
0
 62
     0
100
AcDbLine
 10
4.524063
 20
6.03282
 30
0.0
 11
4.524063
 21
6.03282
 31
0.0
  0
LINE
  5
873
330
18
100
AcDbEntity
  8
0
 62
     0
100
AcDbLine
 10
4.767958
 20
6.06493
 30
0.0
 11
4.767958
 21
6.06493
 31
0.0
  0
LINE
  5
874
330
18
100
AcDbEntity
  8
0
 62
     0
100
AcDbLine
 10
3.28378
 20
6.646278999999999
 30
0.0
 11
3.28378
 21
6.646278999999999
 31
0.0
  0
LINE
  5
875
330
18
100
AcDbEntity
  8
0
 62
     0
100
AcDbLine
 10
3.439932
 20
6.666836999999999
 30
0.0
 11
3.439932
 21
6.666836999999999
 31
0.0
  0
LINE
  5
876
330
18
100
AcDbEntity
  8
0
 62
     0
100
AcDbLine
 10
3.683828
 20
6.698946
 30
0.0
 11
3.683828
 21
6.698946
 31
0.0
  0
LINE
  5
877
330
18
100
AcDbEntity
  8
0
 62
     0
100
AcDbLine
 10
4.091312
 20
6.752592999999999
 30
0.0
 11
4.091312
 21
6.752592999999999
 31
0.0
  0
LINE
  5
878
330
18
100
AcDbEntity
  8
0
 62
     0
100
AcDbLine
 10
3.055859
 20
6.771261999999999
 30
0.0
 11
3.055859
 21
6.771261999999999
 31
0.0
  0
LINE
  5
879
330
18
100
AcDbEntity
  8
0
 62
     0
100
AcDbLine
 10
3.182367
 20
6.690667
 30
0.0
 11
3.182367
 21
6.690667
 31
0.0
  0
LINE
  5
87A
330
18
100
AcDbEntity
  8
0
 62
     0
100
AcDbLine
 10
3.637799
 20
6.400526
 30
0.0
 11
3.637799
 21
6.400526
 31
0.0
  0
LINE
  5
87B
330
18
100
AcDbEntity
  8
0
 62
     0
100
AcDbLine
 10
4.232390000000001
 20
6.021729
 30
0.0
 11
4.232390000000001
 21
6.021729
 31
0.0
  0
LINE
  5
87C
330
18
100
AcDbEntity
  8
0
 62
     0
100
AcDbLine
 10
4.358899
 20
5.941134
 30
0.0
 11
4.358899
 21
5.941134
 31
0.0
  0
LINE
  5
87D
330
18
100
AcDbEntity
  8
0
 62
     0
100
AcDbLine
 10
4.81433
 20
5.650993
 30
0.0
 11
4.81433
 21
5.650993
 31
0.0
  0
LINE
  5
87E
330
18
100
AcDbEntity
  8
0
 62
     0
100
AcDbLine
 10
3.990101
 20
6.77296
 30
0.0
 11
3.990101
 21
6.77296
 31
0.0
  0
LINE
  5
87F
330
18
100
AcDbEntity
  8
0
 62
     0
100
AcDbLine
 10
4.11661
 20
6.692365
 30
0.0
 11
4.11661
 21
6.692365
 31
0.0
  0
LINE
  5
880
330
18
100
AcDbEntity
  8
0
 62
     0
100
AcDbLine
 10
4.572041000000001
 20
6.402223
 30
0.0
 11
4.572041000000001
 21
6.402223
 31
0.0
  0
LINE
  5
881
330
18
100
AcDbEntity
  8
0
 62
     0
100
AcDbLine
 10
3.144719
 20
6.587434
 30
0.0
 11
3.144719
 21
6.587434
 31
0.0
  0
LINE
  5
882
330
18
100
AcDbEntity
  8
0
 62
     0
100
AcDbLine
 10
3.443317
 20
6.31382
 30
0.0
 11
3.443317
 21
6.31382
 31
0.0
  0
LINE
  5
883
330
18
100
AcDbEntity
  8
0
 62
     0
100
AcDbLine
 10
3.498613
 20
6.26315
 30
0.0
 11
3.498613
 21
6.26315
 31
0.0
  0
LINE
  5
884
330
18
100
AcDbEntity
  8
0
 62
     0
100
AcDbLine
 10
3.759609
 20
6.023991000000001
 30
0.0
 11
3.759609
 21
6.023991000000001
 31
0.0
  0
LINE
  5
885
330
18
100
AcDbEntity
  8
0
 62
     0
100
AcDbLine
 10
4.345155
 20
6.577122
 30
0.0
 11
4.345155
 21
6.577122
 31
0.0
  0
LINE
  5
886
330
18
100
AcDbEntity
  8
0
 62
     0
100
AcDbLine
 10
4.400451
 20
6.526453
 30
0.0
 11
4.400451
 21
6.526453
 31
0.0
  0
LINE
  5
887
330
18
100
AcDbEntity
  8
0
 62
     0
100
AcDbLine
 10
4.661447
 20
6.287294
 30
0.0
 11
4.661447
 21
6.287294
 31
0.0
  0
LINE
  5
888
330
18
100
AcDbEntity
  8
0
 62
     0
100
AcDbLine
 10
6.108567
 20
5.279816
 30
0.0
 11
6.108567
 21
5.279816
 31
0.0
  0
LINE
  5
889
330
18
100
AcDbEntity
  8
0
 62
     0
100
AcDbLine
 10
6.513177
 20
5.590284
 30
0.0
 11
6.513177
 21
5.590284
 31
0.0
  0
LINE
  5
88A
330
18
100
AcDbEntity
  8
0
 62
     0
100
AcDbLine
 10
5.34114
 20
5.283497000000001
 30
0.0
 11
5.34114
 21
5.283497000000001
 31
0.0
  0
LINE
  5
88B
330
18
100
AcDbEntity
  8
0
 62
     0
100
AcDbLine
 10
5.727899
 20
5.580268
 30
0.0
 11
5.727899
 21
5.580268
 31
0.0
  0
LINE
  5
88C
330
18
100
AcDbEntity
  8
0
 62
     0
100
AcDbLine
 10
6.089669000000001
 20
5.857863
 30
0.0
 11
6.089669000000001
 21
5.857863
 31
0.0
  0
LINE
  5
88D
330
18
100
AcDbEntity
  8
0
 62
     0
100
AcDbLine
 10
5.322242
 20
5.861544
 30
0.0
 11
5.322242
 21
5.861544
 31
0.0
  0
LINE
  5
88E
330
18
100
AcDbEntity
  8
0
 62
     0
100
AcDbLine
 10
6.532075
 20
5.012237
 30
0.0
 11
6.532075
 21
5.012237
 31
0.0
  0
LINE
  5
88F
330
18
100
AcDbEntity
  8
0
 62
     0
100
AcDbLine
 10
6.918834
 20
5.309008
 30
0.0
 11
6.918834
 21
5.309008
 31
0.0
  0
LINE
  5
890
330
18
100
AcDbEntity
  8
0
 62
     0
100
AcDbLine
 10
6.937732000000001
 20
4.730961
 30
0.0
 11
6.937732000000001
 21
4.730961
 31
0.0
  0
LINE
  5
891
330
18
100
AcDbEntity
  8
0
 62
     0
100
AcDbLine
 10
5.452041
 20
5.378246
 30
0.0
 11
5.452041
 21
5.378246
 31
0.0
  0
LINE
  5
892
330
18
100
AcDbEntity
  8
0
 62
     0
100
AcDbLine
 10
5.608194
 20
5.398804
 30
0.0
 11
5.608194
 21
5.398804
 31
0.0
  0
LINE
  5
893
330
18
100
AcDbEntity
  8
0
 62
     0
100
AcDbLine
 10
5.852089
 20
5.430912999999999
 30
0.0
 11
5.852089
 21
5.430912999999999
 31
0.0
  0
LINE
  5
894
330
18
100
AcDbEntity
  8
0
 62
     0
100
AcDbLine
 10
6.259573000000001
 20
5.484559
 30
0.0
 11
6.259573000000001
 21
5.484559
 31
0.0
  0
LINE
  5
895
330
18
100
AcDbEntity
  8
0
 62
     0
100
AcDbLine
 10
6.415725
 20
5.505117
 30
0.0
 11
6.415725
 21
5.505117
 31
0.0
  0
LINE
  5
896
330
18
100
AcDbEntity
  8
0
 62
     0
100
AcDbLine
 10
6.659621000000001
 20
5.537227
 30
0.0
 11
6.659621000000001
 21
5.537227
 31
0.0
  0
LINE
  5
897
330
18
100
AcDbEntity
  8
0
 62
     0
100
AcDbLine
 10
5.175441999999999
 20
6.118576
 30
0.0
 11
5.175441999999999
 21
6.118576
 31
0.0
  0
LINE
  5
898
330
18
100
AcDbEntity
  8
0
 62
     0
100
AcDbLine
 10
5.331595
 20
6.139133999999999
 30
0.0
 11
5.331595
 21
6.139133999999999
 31
0.0
  0
LINE
  5
899
330
18
100
AcDbEntity
  8
0
 62
     0
100
AcDbLine
 10
5.57549
 20
6.171243
 30
0.0
 11
5.57549
 21
6.171243
 31
0.0
  0
LINE
  5
89A
330
18
100
AcDbEntity
  8
0
 62
     0
100
AcDbLine
 10
6.536172000000001
 20
4.744229
 30
0.0
 11
6.536172000000001
 21
4.744229
 31
0.0
  0
LINE
  5
89B
330
18
100
AcDbEntity
  8
0
 62
     0
100
AcDbLine
 10
6.692324
 20
4.764787
 30
0.0
 11
6.692324
 21
4.764787
 31
0.0
  0
LINE
  5
89C
330
18
100
AcDbEntity
  8
0
 62
     0
100
AcDbLine
 10
6.93622
 20
4.796896
 30
0.0
 11
6.93622
 21
4.796896
 31
0.0
  0
LINE
  5
89D
330
18
100
AcDbEntity
  8
0
 62
     0
100
AcDbLine
 10
5.408921
 20
5.272196
 30
0.0
 11
5.408921
 21
5.272196
 31
0.0
  0
LINE
  5
89E
330
18
100
AcDbEntity
  8
0
 62
     0
100
AcDbLine
 10
5.53543
 20
5.191601
 30
0.0
 11
5.53543
 21
5.191601
 31
0.0
  0
LINE
  5
89F
330
18
100
AcDbEntity
  8
0
 62
     0
100
AcDbLine
 10
5.166632
 20
6.023427
 30
0.0
 11
5.166632
 21
6.023427
 31
0.0
  0
LINE
  5
8A0
330
18
100
AcDbEntity
  8
0
 62
     0
100
AcDbLine
 10
5.293141
 20
5.942832
 30
0.0
 11
5.293141
 21
5.942832
 31
0.0
  0
LINE
  5
8A1
330
18
100
AcDbEntity
  8
0
 62
     0
100
AcDbLine
 10
5.748572
 20
5.65269
 30
0.0
 11
5.748572
 21
5.65269
 31
0.0
  0
LINE
  5
8A2
330
18
100
AcDbEntity
  8
0
 62
     0
100
AcDbLine
 10
6.343163
 20
5.273894
 30
0.0
 11
6.343163
 21
5.273894
 31
0.0
  0
LINE
  5
8A3
330
18
100
AcDbEntity
  8
0
 62
     0
100
AcDbLine
 10
6.469672
 20
5.193299
 30
0.0
 11
6.469672
 21
5.193299
 31
0.0
  0
LINE
  5
8A4
330
18
100
AcDbEntity
  8
0
 62
     0
100
AcDbLine
 10
6.925103999999999
 20
4.903157
 30
0.0
 11
6.925103999999999
 21
4.903157
 31
0.0
  0
LINE
  5
8A5
330
18
100
AcDbEntity
  8
0
 62
     0
100
AcDbLine
 10
6.682815
 20
5.654388
 30
0.0
 11
6.682815
 21
5.654388
 31
0.0
  0
LINE
  5
8A6
330
18
100
AcDbEntity
  8
0
 62
     0
100
AcDbLine
 10
4.960044
 20
6.01368
 30
0.0
 11
4.960044
 21
6.01368
 31
0.0
  0
LINE
  5
8A7
330
18
100
AcDbEntity
  8
0
 62
     0
100
AcDbLine
 10
5.01534
 20
5.963011
 30
0.0
 11
5.01534
 21
5.963011
 31
0.0
  0
LINE
  5
8A8
330
18
100
AcDbEntity
  8
0
 62
     0
100
AcDbLine
 10
5.276336
 20
5.723852
 30
0.0
 11
5.276336
 21
5.723852
 31
0.0
  0
LINE
  5
8A9
330
18
100
AcDbEntity
  8
0
 62
     0
100
AcDbLine
 10
5.574933000000001
 20
5.450238
 30
0.0
 11
5.574933000000001
 21
5.450238
 31
0.0
  0
LINE
  5
8AA
330
18
100
AcDbEntity
  8
0
 62
     0
100
AcDbLine
 10
5.630229
 20
5.399569000000001
 30
0.0
 11
5.630229
 21
5.399569000000001
 31
0.0
  0
LINE
  5
8AB
330
18
100
AcDbEntity
  8
0
 62
     0
100
AcDbLine
 10
5.891225
 20
5.16041
 30
0.0
 11
5.891225
 21
5.16041
 31
0.0
  0
LINE
  5
8AC
330
18
100
AcDbEntity
  8
0
 62
     0
100
AcDbLine
 10
6.189823000000001
 20
4.886796
 30
0.0
 11
6.189823000000001
 21
4.886796
 31
0.0
  0
LINE
  5
8AD
330
18
100
AcDbEntity
  8
0
 62
     0
100
AcDbLine
 10
6.245118
 20
4.836126
 30
0.0
 11
6.245118
 21
4.836126
 31
0.0
  0
LINE
  5
8AE
330
18
100
AcDbEntity
  8
0
 62
     0
100
AcDbLine
 10
6.476771
 20
5.713541
 30
0.0
 11
6.476771
 21
5.713541
 31
0.0
  0
LINE
  5
8AF
330
18
100
AcDbEntity
  8
0
 62
     0
100
AcDbLine
 10
6.532067
 20
5.662871
 30
0.0
 11
6.532067
 21
5.662871
 31
0.0
  0
LINE
  5
8B0
330
18
100
AcDbEntity
  8
0
 62
     0
100
AcDbLine
 10
6.793063
 20
5.423712
 30
0.0
 11
6.793063
 21
5.423712
 31
0.0
  0
LINE
  5
8B1
330
18
100
AcDbEntity
  8
0
 62
     0
100
AcDbLine
 10
1.344826
 20
6.364854
 30
0.0
 11
1.344826
 21
6.364854
 31
0.0
  0
LINE
  5
8B2
330
18
100
AcDbEntity
  8
0
 62
     0
100
AcDbLine
 10
1.749436
 20
6.675322
 30
0.0
 11
1.749436
 21
6.675322
 31
0.0
  0
LINE
  5
8B3
330
18
100
AcDbEntity
  8
0
 62
     0
100
AcDbLine
 10
0.964159
 20
6.665306
 30
0.0
 11
0.964159
 21
6.665306
 31
0.0
  0
LINE
  5
8B4
330
18
100
AcDbEntity
  8
0
 62
     0
100
AcDbLine
 10
1.325928
 20
6.942900999999999
 30
0.0
 11
1.325928
 21
6.942900999999999
 31
0.0
  0
LINE
  5
8B5
330
18
100
AcDbEntity
  8
0
 62
     0
100
AcDbLine
 10
1.768334
 20
6.097275
 30
0.0
 11
1.768334
 21
6.097275
 31
0.0
  0
LINE
  5
8B6
330
18
100
AcDbEntity
  8
0
 62
     0
100
AcDbLine
 10
1.017337
 20
6.347896
 30
0.0
 11
1.017337
 21
6.347896
 31
0.0
  0
LINE
  5
8B7
330
18
100
AcDbEntity
  8
0
 62
     0
100
AcDbLine
 10
1.261232
 20
6.380006
 30
0.0
 11
1.261232
 21
6.380006
 31
0.0
  0
LINE
  5
8B8
330
18
100
AcDbEntity
  8
0
 62
     0
100
AcDbLine
 10
1.668716
 20
6.433652
 30
0.0
 11
1.668716
 21
6.433652
 31
0.0
  0
LINE
  5
8B9
330
18
100
AcDbEntity
  8
0
 62
     0
100
AcDbLine
 10
1.824869
 20
6.45421
 30
0.0
 11
1.824869
 21
6.45421
 31
0.0
  0
LINE
  5
8BA
330
18
100
AcDbEntity
  8
0
 62
     0
100
AcDbLine
 10
0.740738
 20
7.088226
 30
0.0
 11
0.740738
 21
7.088226
 31
0.0
  0
LINE
  5
8BB
330
18
100
AcDbEntity
  8
0
 62
     0
100
AcDbLine
 10
0.984633
 20
7.120336
 30
0.0
 11
0.984633
 21
7.120336
 31
0.0
  0
LINE
  5
8BC
330
18
100
AcDbEntity
  8
0
 62
     0
100
AcDbLine
 10
1.187374
 20
6.767867
 30
0.0
 11
1.187374
 21
6.767867
 31
0.0
  0
LINE
  5
8BD
330
18
100
AcDbEntity
  8
0
 62
     0
100
AcDbLine
 10
1.313882
 20
6.687272
 30
0.0
 11
1.313882
 21
6.687272
 31
0.0
  0
LINE
  5
8BE
330
18
100
AcDbEntity
  8
0
 62
     0
100
AcDbLine
 10
1.769314
 20
6.397130000000001
 30
0.0
 11
1.769314
 21
6.397130000000001
 31
0.0
  0
LINE
  5
8BF
330
18
100
AcDbEntity
  8
0
 62
     0
100
AcDbLine
 10
0.726154
 20
6.624271
 30
0.0
 11
0.726154
 21
6.624271
 31
0.0
  0
LINE
  5
8C0
330
18
100
AcDbEntity
  8
0
 62
     0
100
AcDbLine
 10
1.024751
 20
6.350657
 30
0.0
 11
1.024751
 21
6.350657
 31
0.0
  0
LINE
  5
8C1
330
18
100
AcDbEntity
  8
0
 62
     0
100
AcDbLine
 10
1.926589
 20
6.613959
 30
0.0
 11
1.926589
 21
6.613959
 31
0.0
  0
LINE
  5
8C2
330
18
100
AcDbEntity
  8
0
 62
     0
100
AcDbLine
 10
1.981885
 20
6.563289999999999
 30
0.0
 11
1.981885
 21
6.563289999999999
 31
0.0
  0
LINE
  5
8C3
330
18
100
AcDbEntity
  8
0
 62
     0
100
AcDbLine
 10
3.364927
 20
5.54474
 30
0.0
 11
3.364927
 21
5.54474
 31
0.0
  0
LINE
  5
8C4
330
18
100
AcDbEntity
  8
0
 62
     0
100
AcDbLine
 10
3.726696
 20
5.822335
 30
0.0
 11
3.726696
 21
5.822335
 31
0.0
  0
LINE
  5
8C5
330
18
100
AcDbEntity
  8
0
 62
     0
100
AcDbLine
 10
2.959269
 20
5.826016
 30
0.0
 11
2.959269
 21
5.826016
 31
0.0
  0
LINE
  5
8C6
330
18
100
AcDbEntity
  8
0
 62
     0
100
AcDbLine
 10
2.173992
 20
5.815999
 30
0.0
 11
2.173992
 21
5.815999
 31
0.0
  0
LINE
  5
8C7
330
18
100
AcDbEntity
  8
0
 62
     0
100
AcDbLine
 10
2.535761
 20
6.093595
 30
0.0
 11
2.535761
 21
6.093595
 31
0.0
  0
LINE
  5
8C8
330
18
100
AcDbEntity
  8
0
 62
     0
100
AcDbLine
 10
2.155094
 20
6.394047000000001
 30
0.0
 11
2.155094
 21
6.394047000000001
 31
0.0
  0
LINE
  5
8C9
330
18
100
AcDbEntity
  8
0
 62
     0
100
AcDbLine
 10
3.745594
 20
5.244288
 30
0.0
 11
3.745594
 21
5.244288
 31
0.0
  0
LINE
  5
8CA
330
18
100
AcDbEntity
  8
0
 62
     0
100
AcDbLine
 10
3.429494
 20
5.111972
 30
0.0
 11
3.429494
 21
5.111972
 31
0.0
  0
LINE
  5
8CB
330
18
100
AcDbEntity
  8
0
 62
     0
100
AcDbLine
 10
3.836977
 20
5.165619
 30
0.0
 11
3.836977
 21
5.165619
 31
0.0
  0
LINE
  5
8CC
330
18
100
AcDbEntity
  8
0
 62
     0
100
AcDbLine
 10
3.560379
 20
5.905949
 30
0.0
 11
3.560379
 21
5.905949
 31
0.0
  0
LINE
  5
8CD
330
18
100
AcDbEntity
  8
0
 62
     0
100
AcDbLine
 10
2.345363
 20
5.745989
 30
0.0
 11
2.345363
 21
5.745989
 31
0.0
  0
LINE
  5
8CE
330
18
100
AcDbEntity
  8
0
 62
     0
100
AcDbLine
 10
3.152895
 20
5.852303
 30
0.0
 11
3.152895
 21
5.852303
 31
0.0
  0
LINE
  5
8CF
330
18
100
AcDbEntity
  8
0
 62
     0
100
AcDbLine
 10
2.752847
 20
5.799634999999999
 30
0.0
 11
2.752847
 21
5.799634999999999
 31
0.0
  0
LINE
  5
8D0
330
18
100
AcDbEntity
  8
0
 62
     0
100
AcDbLine
 10
2.908999
 20
5.820193
 30
0.0
 11
2.908999
 21
5.820193
 31
0.0
  0
LINE
  5
8D1
330
18
100
AcDbEntity
  8
0
 62
     0
100
AcDbLine
 10
2.945845
 20
5.647597
 30
0.0
 11
2.945845
 21
5.647597
 31
0.0
  0
LINE
  5
8D2
330
18
100
AcDbEntity
  8
0
 62
     0
100
AcDbLine
 10
3.540436
 20
5.268801
 30
0.0
 11
3.540436
 21
5.268801
 31
0.0
  0
LINE
  5
8D3
330
18
100
AcDbEntity
  8
0
 62
     0
100
AcDbLine
 10
3.666945
 20
5.188206
 30
0.0
 11
3.666945
 21
5.188206
 31
0.0
  0
LINE
  5
8D4
330
18
100
AcDbEntity
  8
0
 62
     0
100
AcDbLine
 10
2.363905
 20
6.018333999999999
 30
0.0
 11
2.363905
 21
6.018333999999999
 31
0.0
  0
LINE
  5
8D5
330
18
100
AcDbEntity
  8
0
 62
     0
100
AcDbLine
 10
2.490413
 20
5.937739
 30
0.0
 11
2.490413
 21
5.937739
 31
0.0
  0
LINE
  5
8D6
330
18
100
AcDbEntity
  8
0
 62
     0
100
AcDbLine
 10
3.298147
 20
6.020032
 30
0.0
 11
3.298147
 21
6.020032
 31
0.0
  0
LINE
  5
8D7
330
18
100
AcDbEntity
  8
0
 62
     0
100
AcDbLine
 10
3.424656
 20
5.939437
 30
0.0
 11
3.424656
 21
5.939437
 31
0.0
  0
LINE
  5
8D8
330
18
100
AcDbEntity
  8
0
 62
     0
100
AcDbLine
 10
3.880087
 20
5.649295
 30
0.0
 11
3.880087
 21
5.649295
 31
0.0
  0
LINE
  5
8D9
330
18
100
AcDbEntity
  8
0
 62
     0
100
AcDbLine
 10
2.857771
 20
5.760689
 30
0.0
 11
2.857771
 21
5.760689
 31
0.0
  0
LINE
  5
8DA
330
18
100
AcDbEntity
  8
0
 62
     0
100
AcDbLine
 10
3.156368
 20
5.487075
 30
0.0
 11
3.156368
 21
5.487075
 31
0.0
  0
LINE
  5
8DB
330
18
100
AcDbEntity
  8
0
 62
     0
100
AcDbLine
 10
3.211664
 20
5.436405000000001
 30
0.0
 11
3.211664
 21
5.436405000000001
 31
0.0
  0
LINE
  5
8DC
330
18
100
AcDbEntity
  8
0
 62
     0
100
AcDbLine
 10
3.47266
 20
5.197247
 30
0.0
 11
3.47266
 21
5.197247
 31
0.0
  0
LINE
  5
8DD
330
18
100
AcDbEntity
  8
0
 62
     0
100
AcDbLine
 10
2.242881
 20
6.324131
 30
0.0
 11
2.242881
 21
6.324131
 31
0.0
  0
LINE
  5
8DE
330
18
100
AcDbEntity
  8
0
 62
     0
100
AcDbLine
 10
2.541479
 20
6.050517
 30
0.0
 11
2.541479
 21
6.050517
 31
0.0
  0
LINE
  5
8DF
330
18
100
AcDbEntity
  8
0
 62
     0
100
AcDbLine
 10
2.596775
 20
5.999848
 30
0.0
 11
2.596775
 21
5.999848
 31
0.0
  0
LINE
  5
8E0
330
18
100
AcDbEntity
  8
0
 62
     0
100
AcDbLine
 10
4.955426999999999
 20
4.394981
 30
0.0
 11
4.955426999999999
 21
4.394981
 31
0.0
  0
LINE
  5
8E1
330
18
100
AcDbEntity
  8
0
 62
     0
100
AcDbLine
 10
5.360037999999999
 20
4.70545
 30
0.0
 11
5.360037999999999
 21
4.70545
 31
0.0
  0
LINE
  5
8E2
330
18
100
AcDbEntity
  8
0
 62
     0
100
AcDbLine
 10
4.57476
 20
4.695433
 30
0.0
 11
4.57476
 21
4.695433
 31
0.0
  0
LINE
  5
8E3
330
18
100
AcDbEntity
  8
0
 62
     0
100
AcDbLine
 10
4.936529
 20
4.973028
 30
0.0
 11
4.936529
 21
4.973028
 31
0.0
  0
LINE
  5
8E4
330
18
100
AcDbEntity
  8
0
 62
     0
100
AcDbLine
 10
4.169103
 20
4.976709
 30
0.0
 11
4.169103
 21
4.976709
 31
0.0
  0
LINE
  5
8E5
330
18
100
AcDbEntity
  8
0
 62
     0
100
AcDbLine
 10
4.555862
 20
5.27348
 30
0.0
 11
4.555862
 21
5.27348
 31
0.0
  0
LINE
  5
8E6
330
18
100
AcDbEntity
  8
0
 62
     0
100
AcDbLine
 10
4.150205000000001
 20
5.554755999999999
 30
0.0
 11
4.150205000000001
 21
5.554755999999999
 31
0.0
  0
LINE
  5
8E7
330
18
100
AcDbEntity
  8
0
 62
     0
100
AcDbLine
 10
5.378936
 20
4.127402
 30
0.0
 11
5.378936
 21
4.127402
 31
0.0
  0
LINE
  5
8E8
330
18
100
AcDbEntity
  8
0
 62
     0
100
AcDbLine
 10
5.765695
 20
4.424174
 30
0.0
 11
5.765695
 21
4.424174
 31
0.0
  0
LINE
  5
8E9
330
18
100
AcDbEntity
  8
0
 62
     0
100
AcDbLine
 10
4.921108
 20
4.531602
 30
0.0
 11
4.921108
 21
4.531602
 31
0.0
  0
LINE
  5
8EA
330
18
100
AcDbEntity
  8
0
 62
     0
100
AcDbLine
 10
5.077261
 20
4.55216
 30
0.0
 11
5.077261
 21
4.55216
 31
0.0
  0
LINE
  5
8EB
330
18
100
AcDbEntity
  8
0
 62
     0
100
AcDbLine
 10
5.321155999999999
 20
4.584269
 30
0.0
 11
5.321155999999999
 21
4.584269
 31
0.0
  0
LINE
  5
8EC
330
18
100
AcDbEntity
  8
0
 62
     0
100
AcDbLine
 10
5.884792
 20
4.658473000000001
 30
0.0
 11
5.884792
 21
4.658473000000001
 31
0.0
  0
LINE
  5
8ED
330
18
100
AcDbEntity
  8
0
 62
     0
100
AcDbLine
 10
5.72864
 20
4.637916000000001
 30
0.0
 11
5.72864
 21
4.637916000000001
 31
0.0
  0
LINE
  5
8EE
330
18
100
AcDbEntity
  8
0
 62
     0
100
AcDbLine
 10
3.99313
 20
5.186177
 30
0.0
 11
3.99313
 21
5.186177
 31
0.0
  0
LINE
  5
8EF
330
18
100
AcDbEntity
  8
0
 62
     0
100
AcDbLine
 10
4.237025
 20
5.218286
 30
0.0
 11
4.237025
 21
5.218286
 31
0.0
  0
LINE
  5
8F0
330
18
100
AcDbEntity
  8
0
 62
     0
100
AcDbLine
 10
4.644508999999999
 20
5.271932
 30
0.0
 11
4.644508999999999
 21
5.271932
 31
0.0
  0
LINE
  5
8F1
330
18
100
AcDbEntity
  8
0
 62
     0
100
AcDbLine
 10
4.800662
 20
5.29249
 30
0.0
 11
4.800662
 21
5.29249
 31
0.0
  0
LINE
  5
8F2
330
18
100
AcDbEntity
  8
0
 62
     0
100
AcDbLine
 10
4.122376
 20
4.898064
 30
0.0
 11
4.122376
 21
4.898064
 31
0.0
  0
LINE
  5
8F3
330
18
100
AcDbEntity
  8
0
 62
     0
100
AcDbLine
 10
4.716967
 20
4.519268
 30
0.0
 11
4.716967
 21
4.519268
 31
0.0
  0
LINE
  5
8F4
330
18
100
AcDbEntity
  8
0
 62
     0
100
AcDbLine
 10
4.843476
 20
4.438673000000001
 30
0.0
 11
4.843476
 21
4.438673000000001
 31
0.0
  0
LINE
  5
8F5
330
18
100
AcDbEntity
  8
0
 62
     0
100
AcDbLine
 10
4.474678
 20
5.270499
 30
0.0
 11
4.474678
 21
5.270499
 31
0.0
  0
LINE
  5
8F6
330
18
100
AcDbEntity
  8
0
 62
     0
100
AcDbLine
 10
4.601187
 20
5.189904
 30
0.0
 11
4.601187
 21
5.189904
 31
0.0
  0
LINE
  5
8F7
330
18
100
AcDbEntity
  8
0
 62
     0
100
AcDbLine
 10
5.777718
 20
4.440371
 30
0.0
 11
5.777718
 21
4.440371
 31
0.0
  0
LINE
  5
8F8
330
18
100
AcDbEntity
  8
0
 62
     0
100
AcDbLine
 10
5.056618
 20
4.899762
 30
0.0
 11
5.056618
 21
4.899762
 31
0.0
  0
LINE
  5
8F9
330
18
100
AcDbEntity
  8
0
 62
     0
100
AcDbLine
 10
5.651209
 20
4.520966000000001
 30
0.0
 11
5.651209
 21
4.520966000000001
 31
0.0
  0
LINE
  5
8FA
330
18
100
AcDbEntity
  8
0
 62
     0
100
AcDbLine
 10
4.058206
 20
5.750376999999999
 30
0.0
 11
4.058206
 21
5.750376999999999
 31
0.0
  0
LINE
  5
8FB
330
18
100
AcDbEntity
  8
0
 62
     0
100
AcDbLine
 10
4.113502
 20
5.699708
 30
0.0
 11
4.113502
 21
5.699708
 31
0.0
  0
LINE
  5
8FC
330
18
100
AcDbEntity
  8
0
 62
     0
100
AcDbLine
 10
4.374498
 20
5.460548999999999
 30
0.0
 11
4.374498
 21
5.460548999999999
 31
0.0
  0
LINE
  5
8FD
330
18
100
AcDbEntity
  8
0
 62
     0
100
AcDbLine
 10
4.989387000000001
 20
4.897107
 30
0.0
 11
4.989387000000001
 21
4.897107
 31
0.0
  0
LINE
  5
8FE
330
18
100
AcDbEntity
  8
0
 62
     0
100
AcDbLine
 10
5.287985
 20
4.623493
 30
0.0
 11
5.287985
 21
4.623493
 31
0.0
  0
LINE
  5
8FF
330
18
100
AcDbEntity
  8
0
 62
     0
100
AcDbLine
 10
5.34328
 20
4.572824
 30
0.0
 11
5.34328
 21
4.572824
 31
0.0
  0
LINE
  5
900
330
18
100
AcDbEntity
  8
0
 62
     0
100
AcDbLine
 10
5.604277
 20
4.333665
 30
0.0
 11
5.604277
 21
4.333665
 31
0.0
  0
LINE
  5
901
330
18
100
AcDbEntity
  8
0
 62
     0
100
AcDbLine
 10
4.673095
 20
5.186935
 30
0.0
 11
4.673095
 21
5.186935
 31
0.0
  0
LINE
  5
902
330
18
100
AcDbEntity
  8
0
 62
     0
100
AcDbLine
 10
4.728391
 20
5.136266
 30
0.0
 11
4.728391
 21
5.136266
 31
0.0
  0
LINE
  5
903
330
18
100
AcDbEntity
  8
0
 62
     0
100
AcDbLine
 10
0.983057
 20
6.087259
 30
0.0
 11
0.983057
 21
6.087259
 31
0.0
  0
LINE
  5
904
330
18
100
AcDbEntity
  8
0
 62
     0
100
AcDbLine
 10
1.137783
 20
5.587008
 30
0.0
 11
1.137783
 21
5.587008
 31
0.0
  0
LINE
  5
905
330
18
100
AcDbEntity
  8
0
 62
     0
100
AcDbLine
 10
0.8611840000000001
 20
6.327338
 30
0.0
 11
0.8611840000000001
 21
6.327338
 31
0.0
  0
LINE
  5
906
330
18
100
AcDbEntity
  8
0
 62
     0
100
AcDbLine
 10
1.07736
 20
5.644202
 30
0.0
 11
1.07736
 21
5.644202
 31
0.0
  0
LINE
  5
907
330
18
100
AcDbEntity
  8
0
 62
     0
100
AcDbLine
 10
2.19289
 20
5.237952
 30
0.0
 11
2.19289
 21
5.237952
 31
0.0
  0
LINE
  5
908
330
18
100
AcDbEntity
  8
0
 62
     0
100
AcDbLine
 10
1.787232
 20
5.519228
 30
0.0
 11
1.787232
 21
5.519228
 31
0.0
  0
LINE
  5
909
330
18
100
AcDbEntity
  8
0
 62
     0
100
AcDbLine
 10
1.363724
 20
5.786807
 30
0.0
 11
1.363724
 21
5.786807
 31
0.0
  0
LINE
  5
90A
330
18
100
AcDbEntity
  8
0
 62
     0
100
AcDbLine
 10
2.573557
 20
4.9375
 30
0.0
 11
2.573557
 21
4.9375
 31
0.0
  0
LINE
  5
90B
330
18
100
AcDbEntity
  8
0
 62
     0
100
AcDbLine
 10
2.378066
 20
4.973549
 30
0.0
 11
2.378066
 21
4.973549
 31
0.0
  0
LINE
  5
90C
330
18
100
AcDbEntity
  8
0
 62
     0
100
AcDbLine
 10
2.621962
 20
5.005659
 30
0.0
 11
2.621962
 21
5.005659
 31
0.0
  0
LINE
  5
90D
330
18
100
AcDbEntity
  8
0
 62
     0
100
AcDbLine
 10
2.221914
 20
4.952991
 30
0.0
 11
2.221914
 21
4.952991
 31
0.0
  0
LINE
  5
90E
330
18
100
AcDbEntity
  8
0
 62
     0
100
AcDbLine
 10
1.293936
 20
5.607566
 30
0.0
 11
1.293936
 21
5.607566
 31
0.0
  0
LINE
  5
90F
330
18
100
AcDbEntity
  8
0
 62
     0
100
AcDbLine
 10
1.537831
 20
5.639675
 30
0.0
 11
1.537831
 21
5.639675
 31
0.0
  0
LINE
  5
910
330
18
100
AcDbEntity
  8
0
 62
     0
100
AcDbLine
 10
1.945315
 20
5.693322
 30
0.0
 11
1.945315
 21
5.693322
 31
0.0
  0
LINE
  5
911
330
18
100
AcDbEntity
  8
0
 62
     0
100
AcDbLine
 10
2.101467
 20
5.713880000000001
 30
0.0
 11
2.101467
 21
5.713880000000001
 31
0.0
  0
LINE
  5
912
330
18
100
AcDbEntity
  8
0
 62
     0
100
AcDbLine
 10
1.671951
 20
5.265406
 30
0.0
 11
1.671951
 21
5.265406
 31
0.0
  0
LINE
  5
913
330
18
100
AcDbEntity
  8
0
 62
     0
100
AcDbLine
 10
1.798459
 20
5.184811
 30
0.0
 11
1.798459
 21
5.184811
 31
0.0
  0
LINE
  5
914
330
18
100
AcDbEntity
  8
0
 62
     0
100
AcDbLine
 10
1.429662
 20
6.016636
 30
0.0
 11
1.429662
 21
6.016636
 31
0.0
  0
LINE
  5
915
330
18
100
AcDbEntity
  8
0
 62
     0
100
AcDbLine
 10
1.556171
 20
5.936041
 30
0.0
 11
1.556171
 21
5.936041
 31
0.0
  0
LINE
  5
916
330
18
100
AcDbEntity
  8
0
 62
     0
100
AcDbLine
 10
2.011602
 20
5.645899
 30
0.0
 11
2.011602
 21
5.645899
 31
0.0
  0
LINE
  5
917
330
18
100
AcDbEntity
  8
0
 62
     0
100
AcDbLine
 10
2.606193
 20
5.267103
 30
0.0
 11
2.606193
 21
5.267103
 31
0.0
  0
LINE
  5
918
330
18
100
AcDbEntity
  8
0
 62
     0
100
AcDbLine
 10
2.732702
 20
5.186508
 30
0.0
 11
2.732702
 21
5.186508
 31
0.0
  0
LINE
  5
919
330
18
100
AcDbEntity
  8
0
 62
     0
100
AcDbLine
 10
1.341043
 20
6.060828
 30
0.0
 11
1.341043
 21
6.060828
 31
0.0
  0
LINE
  5
91A
330
18
100
AcDbEntity
  8
0
 62
     0
100
AcDbLine
 10
1.639641
 20
5.787214
 30
0.0
 11
1.639641
 21
5.787214
 31
0.0
  0
LINE
  5
91B
330
18
100
AcDbEntity
  8
0
 62
     0
100
AcDbLine
 10
1.694937
 20
5.736545
 30
0.0
 11
1.694937
 21
5.736545
 31
0.0
  0
LINE
  5
91C
330
18
100
AcDbEntity
  8
0
 62
     0
100
AcDbLine
 10
1.955933
 20
5.497386
 30
0.0
 11
1.955933
 21
5.497386
 31
0.0
  0
LINE
  5
91D
330
18
100
AcDbEntity
  8
0
 62
     0
100
AcDbLine
 10
2.309826
 20
5.173103
 30
0.0
 11
2.309826
 21
5.173103
 31
0.0
  0
LINE
  5
91E
330
18
100
AcDbEntity
  8
0
 62
     0
100
AcDbLine
 10
2.570822
 20
4.933944
 30
0.0
 11
2.570822
 21
4.933944
 31
0.0
  0
LINE
  5
91F
330
18
100
AcDbEntity
  8
0
 62
     0
100
AcDbLine
 10
2.869419
 20
4.66033
 30
0.0
 11
2.869419
 21
4.66033
 31
0.0
  0
LINE
  5
920
330
18
100
AcDbEntity
  8
0
 62
     0
100
AcDbLine
 10
2.25453
 20
5.223772
 30
0.0
 11
2.25453
 21
5.223772
 31
0.0
  0
LINE
  5
921
330
18
100
AcDbEntity
  8
0
 62
     0
100
AcDbLine
 10
3.78339
 20
4.088194000000001
 30
0.0
 11
3.78339
 21
4.088194000000001
 31
0.0
  0
LINE
  5
922
330
18
100
AcDbEntity
  8
0
 62
     0
100
AcDbLine
 10
4.188001
 20
4.398662
 30
0.0
 11
4.188001
 21
4.398662
 31
0.0
  0
LINE
  5
923
330
18
100
AcDbEntity
  8
0
 62
     0
100
AcDbLine
 10
3.402723
 20
4.388646
 30
0.0
 11
3.402723
 21
4.388646
 31
0.0
  0
LINE
  5
924
330
18
100
AcDbEntity
  8
0
 62
     0
100
AcDbLine
 10
3.764492
 20
4.666241
 30
0.0
 11
3.764492
 21
4.666241
 31
0.0
  0
LINE
  5
925
330
18
100
AcDbEntity
  8
0
 62
     0
100
AcDbLine
 10
3.383825
 20
4.966693
 30
0.0
 11
3.383825
 21
4.966693
 31
0.0
  0
LINE
  5
926
330
18
100
AcDbEntity
  8
0
 62
     0
100
AcDbLine
 10
4.206899
 20
3.820615
 30
0.0
 11
4.206899
 21
3.820615
 31
0.0
  0
LINE
  5
927
330
18
100
AcDbEntity
  8
0
 62
     0
100
AcDbLine
 10
4.593658000000001
 20
4.117386
 30
0.0
 11
4.593658000000001
 21
4.117386
 31
0.0
  0
LINE
  5
928
330
18
100
AcDbEntity
  8
0
 62
     0
100
AcDbLine
 10
4.612556
 20
3.539339
 30
0.0
 11
4.612556
 21
3.539339
 31
0.0
  0
LINE
  5
929
330
18
100
AcDbEntity
  8
0
 62
     0
100
AcDbLine
 10
4.390175
 20
3.684958
 30
0.0
 11
4.390175
 21
3.684958
 31
0.0
  0
LINE
  5
92A
330
18
100
AcDbEntity
  8
0
 62
     0
100
AcDbLine
 10
4.546328
 20
3.705516
 30
0.0
 11
4.546328
 21
3.705516
 31
0.0
  0
LINE
  5
92B
330
18
100
AcDbEntity
  8
0
 62
     0
100
AcDbLine
 10
4.790223
 20
3.737625
 30
0.0
 11
4.790223
 21
3.737625
 31
0.0
  0
LINE
  5
92C
330
18
100
AcDbEntity
  8
0
 62
     0
100
AcDbLine
 10
3.306044
 20
4.318975
 30
0.0
 11
3.306044
 21
4.318975
 31
0.0
  0
LINE
  5
92D
330
18
100
AcDbEntity
  8
0
 62
     0
100
AcDbLine
 10
3.462197
 20
4.339533
 30
0.0
 11
3.462197
 21
4.339533
 31
0.0
  0
LINE
  5
92E
330
18
100
AcDbEntity
  8
0
 62
     0
100
AcDbLine
 10
3.706092
 20
4.371642
 30
0.0
 11
3.706092
 21
4.371642
 31
0.0
  0
LINE
  5
92F
330
18
100
AcDbEntity
  8
0
 62
     0
100
AcDbLine
 10
4.113576
 20
4.425288
 30
0.0
 11
4.113576
 21
4.425288
 31
0.0
  0
LINE
  5
930
330
18
100
AcDbEntity
  8
0
 62
     0
100
AcDbLine
 10
4.269729
 20
4.445846
 30
0.0
 11
4.269729
 21
4.445846
 31
0.0
  0
LINE
  5
931
330
18
100
AcDbEntity
  8
0
 62
     0
100
AcDbLine
 10
4.513624
 20
4.477956
 30
0.0
 11
4.513624
 21
4.477956
 31
0.0
  0
LINE
  5
932
330
18
100
AcDbEntity
  8
0
 62
     0
100
AcDbLine
 10
3.029446
 20
5.059305
 30
0.0
 11
3.029446
 21
5.059305
 31
0.0
  0
LINE
  5
933
330
18
100
AcDbEntity
  8
0
 62
     0
100
AcDbLine
 10
3.185598
 20
5.079863
 30
0.0
 11
3.185598
 21
5.079863
 31
0.0
  0
LINE
  5
934
330
18
100
AcDbEntity
  8
0
 62
     0
100
AcDbLine
 10
3.430422
 20
4.145136
 30
0.0
 11
3.430422
 21
4.145136
 31
0.0
  0
LINE
  5
935
330
18
100
AcDbEntity
  8
0
 62
     0
100
AcDbLine
 10
3.188133
 20
4.896367
 30
0.0
 11
3.188133
 21
4.896367
 31
0.0
  0
LINE
  5
936
330
18
100
AcDbEntity
  8
0
 62
     0
100
AcDbLine
 10
3.782724
 20
4.51757
 30
0.0
 11
3.782724
 21
4.51757
 31
0.0
  0
LINE
  5
937
330
18
100
AcDbEntity
  8
0
 62
     0
100
AcDbLine
 10
3.909233
 20
4.436975
 30
0.0
 11
3.909233
 21
4.436975
 31
0.0
  0
LINE
  5
938
330
18
100
AcDbEntity
  8
0
 62
     0
100
AcDbLine
 10
4.364664
 20
4.146833999999999
 30
0.0
 11
4.364664
 21
4.146833999999999
 31
0.0
  0
LINE
  5
939
330
18
100
AcDbEntity
  8
0
 62
     0
100
AcDbLine
 10
4.087549
 20
4.633804000000001
 30
0.0
 11
4.087549
 21
4.633804000000001
 31
0.0
  0
LINE
  5
93A
330
18
100
AcDbEntity
  8
0
 62
     0
100
AcDbLine
 10
4.386147
 20
4.36019
 30
0.0
 11
4.386147
 21
4.36019
 31
0.0
  0
LINE
  5
93B
330
18
100
AcDbEntity
  8
0
 62
     0
100
AcDbLine
 10
4.441441999999999
 20
4.309521
 30
0.0
 11
4.441441999999999
 21
4.309521
 31
0.0
  0
LINE
  5
93C
330
18
100
AcDbEntity
  8
0
 62
     0
100
AcDbLine
 10
4.702439
 20
4.070362
 30
0.0
 11
4.702439
 21
4.070362
 31
0.0
  0
LINE
  5
93D
330
18
100
AcDbEntity
  8
0
 62
     0
100
AcDbLine
 10
6.569871000000001
 20
3.856143
 30
0.0
 11
6.569871000000001
 21
3.856143
 31
0.0
  0
LINE
  5
93E
330
18
100
AcDbEntity
  8
0
 62
     0
100
AcDbLine
 10
6.956630000000001
 20
4.152914
 30
0.0
 11
6.956630000000001
 21
4.152914
 31
0.0
  0
LINE
  5
93F
330
18
100
AcDbEntity
  8
0
 62
     0
100
AcDbLine
 10
6.146363
 20
4.123722
 30
0.0
 11
6.146363
 21
4.123722
 31
0.0
  0
LINE
  5
940
330
18
100
AcDbEntity
  8
0
 62
     0
100
AcDbLine
 10
6.550973
 20
4.43419
 30
0.0
 11
6.550973
 21
4.43419
 31
0.0
  0
LINE
  5
941
330
18
100
AcDbEntity
  8
0
 62
     0
100
AcDbLine
 10
6.127465
 20
4.701769000000001
 30
0.0
 11
6.127465
 21
4.701769000000001
 31
0.0
  0
LINE
  5
942
330
18
100
AcDbEntity
  8
0
 62
     0
100
AcDbLine
 10
6.975528999999999
 20
3.574867
 30
0.0
 11
6.975528999999999
 21
3.574867
 31
0.0
  0
LINE
  5
943
330
18
100
AcDbEntity
  8
0
 62
     0
100
AcDbLine
 10
7.337298
 20
3.852462
 30
0.0
 11
7.337298
 21
3.852462
 31
0.0
  0
LINE
  5
944
330
18
100
AcDbEntity
  8
0
 62
     0
100
AcDbLine
 10
7.356196000000001
 20
3.274415
 30
0.0
 11
7.356196000000001
 21
3.274415
 31
0.0
  0
LINE
  5
945
330
18
100
AcDbEntity
  8
0
 62
     0
100
AcDbLine
 10
7.760806
 20
3.584883
 30
0.0
 11
7.760806
 21
3.584883
 31
0.0
  0
LINE
  5
946
330
18
100
AcDbEntity
  8
0
 62
     0
100
AcDbLine
 10
8.147566000000001
 20
3.881655
 30
0.0
 11
8.147566000000001
 21
3.881655
 31
0.0
  0
LINE
  5
947
330
18
100
AcDbEntity
  8
0
 62
     0
100
AcDbLine
 10
7.779704
 20
3.006836
 30
0.0
 11
7.779704
 21
3.006836
 31
0.0
  0
LINE
  5
948
330
18
100
AcDbEntity
  8
0
 62
     0
100
AcDbLine
 10
7.089369000000001
 20
3.263569
 30
0.0
 11
7.089369000000001
 21
3.263569
 31
0.0
  0
LINE
  5
949
330
18
100
AcDbEntity
  8
0
 62
     0
100
AcDbLine
 10
7.245522
 20
3.284127
 30
0.0
 11
7.245522
 21
3.284127
 31
0.0
  0
LINE
  5
94A
330
18
100
AcDbEntity
  8
0
 62
     0
100
AcDbLine
 10
7.489417
 20
3.316236
 30
0.0
 11
7.489417
 21
3.316236
 31
0.0
  0
LINE
  5
94B
330
18
100
AcDbEntity
  8
0
 62
     0
100
AcDbLine
 10
6.005239
 20
3.897585
 30
0.0
 11
6.005239
 21
3.897585
 31
0.0
  0
LINE
  5
94C
330
18
100
AcDbEntity
  8
0
 62
     0
100
AcDbLine
 10
6.161391
 20
3.918143
 30
0.0
 11
6.161391
 21
3.918143
 31
0.0
  0
LINE
  5
94D
330
18
100
AcDbEntity
  8
0
 62
     0
100
AcDbLine
 10
6.405287
 20
3.950253
 30
0.0
 11
6.405287
 21
3.950253
 31
0.0
  0
LINE
  5
94E
330
18
100
AcDbEntity
  8
0
 62
     0
100
AcDbLine
 10
6.812771000000001
 20
4.003899
 30
0.0
 11
6.812771000000001
 21
4.003899
 31
0.0
  0
LINE
  5
94F
330
18
100
AcDbEntity
  8
0
 62
     0
100
AcDbLine
 10
6.968922999999999
 20
4.024457
 30
0.0
 11
6.968922999999999
 21
4.024457
 31
0.0
  0
LINE
  5
950
330
18
100
AcDbEntity
  8
0
 62
     0
100
AcDbLine
 10
7.212819000000001
 20
4.056566
 30
0.0
 11
7.212819000000001
 21
4.056566
 31
0.0
  0
LINE
  5
951
330
18
100
AcDbEntity
  8
0
 62
     0
100
AcDbLine
 10
7.620302000000001
 20
4.110212000000001
 30
0.0
 11
7.620302000000001
 21
4.110212000000001
 31
0.0
  0
LINE
  5
952
330
18
100
AcDbEntity
  8
0
 62
     0
100
AcDbLine
 10
6.128688
 20
4.690583
 30
0.0
 11
6.128688
 21
4.690583
 31
0.0
  0
LINE
  5
953
330
18
100
AcDbEntity
  8
0
 62
     0
100
AcDbLine
 10
6.23315
 20
4.150229
 30
0.0
 11
6.23315
 21
4.150229
 31
0.0
  0
LINE
  5
954
330
18
100
AcDbEntity
  8
0
 62
     0
100
AcDbLine
 10
6.82774
 20
3.771433
 30
0.0
 11
6.82774
 21
3.771433
 31
0.0
  0
LINE
  5
955
330
18
100
AcDbEntity
  8
0
 62
     0
100
AcDbLine
 10
6.954249000000001
 20
3.690838
 30
0.0
 11
6.954249000000001
 21
3.690838
 31
0.0
  0
LINE
  5
956
330
18
100
AcDbEntity
  8
0
 62
     0
100
AcDbLine
 10
7.409681
 20
3.400696
 30
0.0
 11
7.409681
 21
3.400696
 31
0.0
  0
LINE
  5
957
330
18
100
AcDbEntity
  8
0
 62
     0
100
AcDbLine
 10
6.585452
 20
4.522663
 30
0.0
 11
6.585452
 21
4.522663
 31
0.0
  0
LINE
  5
958
330
18
100
AcDbEntity
  8
0
 62
     0
100
AcDbLine
 10
6.711961
 20
4.442069
 30
0.0
 11
6.711961
 21
4.442069
 31
0.0
  0
LINE
  5
959
330
18
100
AcDbEntity
  8
0
 62
     0
100
AcDbLine
 10
7.167392
 20
4.151927
 30
0.0
 11
7.167392
 21
4.151927
 31
0.0
  0
LINE
  5
95A
330
18
100
AcDbEntity
  8
0
 62
     0
100
AcDbLine
 10
7.761983
 20
3.773131
 30
0.0
 11
7.761983
 21
3.773131
 31
0.0
  0
LINE
  5
95B
330
18
100
AcDbEntity
  8
0
 62
     0
100
AcDbLine
 10
7.888491999999999
 20
3.692536
 30
0.0
 11
7.888491999999999
 21
3.692536
 31
0.0
  0
LINE
  5
95C
330
18
100
AcDbEntity
  8
0
 62
     0
100
AcDbLine
 10
6.219166
 20
3.770223
 30
0.0
 11
6.219166
 21
3.770223
 31
0.0
  0
LINE
  5
95D
330
18
100
AcDbEntity
  8
0
 62
     0
100
AcDbLine
 10
6.506115
 20
4.596967
 30
0.0
 11
6.506115
 21
4.596967
 31
0.0
  0
LINE
  5
95E
330
18
100
AcDbEntity
  8
0
 62
     0
100
AcDbLine
 10
6.804711999999999
 20
4.323353
 30
0.0
 11
6.804711999999999
 21
4.323353
 31
0.0
  0
LINE
  5
95F
330
18
100
AcDbEntity
  8
0
 62
     0
100
AcDbLine
 10
6.860008000000001
 20
4.272684
 30
0.0
 11
6.860008000000001
 21
4.272684
 31
0.0
  0
LINE
  5
960
330
18
100
AcDbEntity
  8
0
 62
     0
100
AcDbLine
 10
7.419600999999999
 20
3.759911
 30
0.0
 11
7.419600999999999
 21
3.759911
 31
0.0
  0
LINE
  5
961
330
18
100
AcDbEntity
  8
0
 62
     0
100
AcDbLine
 10
7.474897
 20
3.709242
 30
0.0
 11
7.474897
 21
3.709242
 31
0.0
  0
LINE
  5
962
330
18
100
AcDbEntity
  8
0
 62
     0
100
AcDbLine
 10
7.735892999999999
 20
3.470083
 30
0.0
 11
7.735892999999999
 21
3.470083
 31
0.0
  0
LINE
  5
963
330
18
100
AcDbEntity
  8
0
 62
     0
100
AcDbLine
 10
7.121003999999999
 20
4.033525
 30
0.0
 11
7.121003999999999
 21
4.033525
 31
0.0
  0
LINE
  5
964
330
18
100
AcDbEntity
  8
0
 62
     0
100
AcDbLine
 10
7.3184
 20
4.430509
 30
0.0
 11
7.3184
 21
4.430509
 31
0.0
  0
LINE
  5
965
330
18
100
AcDbEntity
  8
0
 62
     0
100
AcDbLine
 10
7.72301
 20
4.740978
 30
0.0
 11
7.72301
 21
4.740978
 31
0.0
  0
LINE
  5
966
330
18
100
AcDbEntity
  8
0
 62
     0
100
AcDbLine
 10
8.109769999999999
 20
5.037749
 30
0.0
 11
8.109769999999999
 21
5.037749
 31
0.0
  0
LINE
  5
967
330
18
100
AcDbEntity
  8
0
 62
     0
100
AcDbLine
 10
7.299502
 20
5.008557
 30
0.0
 11
7.299502
 21
5.008557
 31
0.0
  0
LINE
  5
968
330
18
100
AcDbEntity
  8
0
 62
     0
100
AcDbLine
 10
7.704111999999999
 20
5.319025
 30
0.0
 11
7.704111999999999
 21
5.319025
 31
0.0
  0
LINE
  5
969
330
18
100
AcDbEntity
  8
0
 62
     0
100
AcDbLine
 10
7.741908000000001
 20
4.162931
 30
0.0
 11
7.741908000000001
 21
4.162931
 31
0.0
  0
LINE
  5
96A
330
18
100
AcDbEntity
  8
0
 62
     0
100
AcDbLine
 10
8.490437
 20
4.737297
 30
0.0
 11
8.490437
 21
4.737297
 31
0.0
  0
LINE
  5
96B
330
18
100
AcDbEntity
  8
0
 62
     0
100
AcDbLine
 10
8.128667999999999
 20
4.459702
 30
0.0
 11
8.128667999999999
 21
4.459702
 31
0.0
  0
LINE
  5
96C
330
18
100
AcDbEntity
  8
0
 62
     0
100
AcDbLine
 10
8.020350000000001
 20
4.16288
 30
0.0
 11
8.020350000000001
 21
4.16288
 31
0.0
  0
LINE
  5
96D
330
18
100
AcDbEntity
  8
0
 62
     0
100
AcDbLine
 10
7.343704
 20
4.850543
 30
0.0
 11
7.343704
 21
4.850543
 31
0.0
  0
LINE
  5
96E
330
18
100
AcDbEntity
  8
0
 62
     0
100
AcDbLine
 10
7.499855999999999
 20
4.871101
 30
0.0
 11
7.499855999999999
 21
4.871101
 31
0.0
  0
LINE
  5
96F
330
18
100
AcDbEntity
  8
0
 62
     0
100
AcDbLine
 10
7.743752000000001
 20
4.90321
 30
0.0
 11
7.743752000000001
 21
4.90321
 31
0.0
  0
LINE
  5
970
330
18
100
AcDbEntity
  8
0
 62
     0
100
AcDbLine
 10
8.151235
 20
4.956856
 30
0.0
 11
8.151235
 21
4.956856
 31
0.0
  0
LINE
  5
971
330
18
100
AcDbEntity
  8
0
 62
     0
100
AcDbLine
 10
8.307388000000001
 20
4.977414
 30
0.0
 11
8.307388000000001
 21
4.977414
 31
0.0
  0
LINE
  5
972
330
18
100
AcDbEntity
  8
0
 62
     0
100
AcDbLine
 10
7.067105000000001
 20
5.590873
 30
0.0
 11
7.067105000000001
 21
5.590873
 31
0.0
  0
LINE
  5
973
330
18
100
AcDbEntity
  8
0
 62
     0
100
AcDbLine
 10
7.519695
 20
4.524361
 30
0.0
 11
7.519695
 21
4.524361
 31
0.0
  0
LINE
  5
974
330
18
100
AcDbEntity
  8
0
 62
     0
100
AcDbLine
 10
7.646203
 20
4.443766
 30
0.0
 11
7.646203
 21
4.443766
 31
0.0
  0
LINE
  5
975
330
18
100
AcDbEntity
  8
0
 62
     0
100
AcDbLine
 10
8.101635
 20
4.153624
 30
0.0
 11
8.101635
 21
4.153624
 31
0.0
  0
LINE
  5
976
330
18
100
AcDbEntity
  8
0
 62
     0
100
AcDbLine
 10
7.277406
 20
5.275592
 30
0.0
 11
7.277406
 21
5.275592
 31
0.0
  0
LINE
  5
977
330
18
100
AcDbEntity
  8
0
 62
     0
100
AcDbLine
 10
7.403915
 20
5.194997
 30
0.0
 11
7.403915
 21
5.194997
 31
0.0
  0
LINE
  5
978
330
18
100
AcDbEntity
  8
0
 62
     0
100
AcDbLine
 10
7.859346
 20
4.904855
 30
0.0
 11
7.859346
 21
4.904855
 31
0.0
  0
LINE
  5
979
330
18
100
AcDbEntity
  8
0
 62
     0
100
AcDbLine
 10
8.453937
 20
4.526059
 30
0.0
 11
8.453937
 21
4.526059
 31
0.0
  0
LINE
  5
97A
330
18
100
AcDbEntity
  8
0
 62
     0
100
AcDbLine
 10
7.091661
 20
5.150098000000001
 30
0.0
 11
7.091661
 21
5.150098000000001
 31
0.0
  0
LINE
  5
97B
330
18
100
AcDbEntity
  8
0
 62
     0
100
AcDbLine
 10
7.146955999999999
 20
5.099429
 30
0.0
 11
7.146955999999999
 21
5.099429
 31
0.0
  0
LINE
  5
97C
330
18
100
AcDbEntity
  8
0
 62
     0
100
AcDbLine
 10
7.407953
 20
4.86027
 30
0.0
 11
7.407953
 21
4.86027
 31
0.0
  0
LINE
  5
97D
330
18
100
AcDbEntity
  8
0
 62
     0
100
AcDbLine
 10
7.70655
 20
4.586656
 30
0.0
 11
7.70655
 21
4.586656
 31
0.0
  0
LINE
  5
97E
330
18
100
AcDbEntity
  8
0
 62
     0
100
AcDbLine
 10
7.761846
 20
4.535987
 30
0.0
 11
7.761846
 21
4.535987
 31
0.0
  0
LINE
  5
97F
330
18
100
AcDbEntity
  8
0
 62
     0
100
AcDbLine
 10
8.022842000000001
 20
4.296828
 30
0.0
 11
8.022842000000001
 21
4.296828
 31
0.0
  0
LINE
  5
980
330
18
100
AcDbEntity
  8
0
 62
     0
100
AcDbLine
 10
5.397834
 20
3.549355
 30
0.0
 11
5.397834
 21
3.549355
 31
0.0
  0
LINE
  5
981
330
18
100
AcDbEntity
  8
0
 62
     0
100
AcDbLine
 10
4.974325
 20
3.816934
 30
0.0
 11
4.974325
 21
3.816934
 31
0.0
  0
LINE
  5
982
330
18
100
AcDbEntity
  8
0
 62
     0
100
AcDbLine
 10
5.803491
 20
3.268079
 30
0.0
 11
5.803491
 21
3.268079
 31
0.0
  0
LINE
  5
983
330
18
100
AcDbEntity
  8
0
 62
     0
100
AcDbLine
 10
6.165261
 20
3.545675
 30
0.0
 11
6.165261
 21
3.545675
 31
0.0
  0
LINE
  5
984
330
18
100
AcDbEntity
  8
0
 62
     0
100
AcDbLine
 10
6.184158999999999
 20
2.967628
 30
0.0
 11
6.184158999999999
 21
2.967628
 31
0.0
  0
LINE
  5
985
330
18
100
AcDbEntity
  8
0
 62
     0
100
AcDbLine
 10
6.588769
 20
3.278096
 30
0.0
 11
6.588769
 21
3.278096
 31
0.0
  0
LINE
  5
986
330
18
100
AcDbEntity
  8
0
 62
     0
100
AcDbLine
 10
6.607667
 20
2.700049
 30
0.0
 11
6.607667
 21
2.700049
 31
0.0
  0
LINE
  5
987
330
18
100
AcDbEntity
  8
0
 62
     0
100
AcDbLine
 10
5.474306
 20
3.050942
 30
0.0
 11
5.474306
 21
3.050942
 31
0.0
  0
LINE
  5
988
330
18
100
AcDbEntity
  8
0
 62
     0
100
AcDbLine
 10
5.630458
 20
3.071499
 30
0.0
 11
5.630458
 21
3.071499
 31
0.0
  0
LINE
  5
989
330
18
100
AcDbEntity
  8
0
 62
     0
100
AcDbLine
 10
5.874354
 20
3.103609
 30
0.0
 11
5.874354
 21
3.103609
 31
0.0
  0
LINE
  5
98A
330
18
100
AcDbEntity
  8
0
 62
     0
100
AcDbLine
 10
6.281838
 20
3.157255
 30
0.0
 11
6.281838
 21
3.157255
 31
0.0
  0
LINE
  5
98B
330
18
100
AcDbEntity
  8
0
 62
     0
100
AcDbLine
 10
6.43799
 20
3.177813
 30
0.0
 11
6.43799
 21
3.177813
 31
0.0
  0
LINE
  5
98C
330
18
100
AcDbEntity
  8
0
 62
     0
100
AcDbLine
 10
6.681886
 20
3.209922
 30
0.0
 11
6.681886
 21
3.209922
 31
0.0
  0
LINE
  5
98D
330
18
100
AcDbEntity
  8
0
 62
     0
100
AcDbLine
 10
5.197707
 20
3.791272
 30
0.0
 11
5.197707
 21
3.791272
 31
0.0
  0
LINE
  5
98E
330
18
100
AcDbEntity
  8
0
 62
     0
100
AcDbLine
 10
5.353859
 20
3.811830000000001
 30
0.0
 11
5.353859
 21
3.811830000000001
 31
0.0
  0
LINE
  5
98F
330
18
100
AcDbEntity
  8
0
 62
     0
100
AcDbLine
 10
5.597755
 20
3.843939
 30
0.0
 11
5.597755
 21
3.843939
 31
0.0
  0
LINE
  5
990
330
18
100
AcDbEntity
  8
0
 62
     0
100
AcDbLine
 10
4.959255000000001
 20
3.768037
 30
0.0
 11
4.959255000000001
 21
3.768037
 31
0.0
  0
LINE
  5
991
330
18
100
AcDbEntity
  8
0
 62
     0
100
AcDbLine
 10
5.085764
 20
3.687442
 30
0.0
 11
5.085764
 21
3.687442
 31
0.0
  0
LINE
  5
992
330
18
100
AcDbEntity
  8
0
 62
     0
100
AcDbLine
 10
5.541195
 20
3.397301
 30
0.0
 11
5.541195
 21
3.397301
 31
0.0
  0
LINE
  5
993
330
18
100
AcDbEntity
  8
0
 62
     0
100
AcDbLine
 10
6.135786
 20
3.018504
 30
0.0
 11
6.135786
 21
3.018504
 31
0.0
  0
LINE
  5
994
330
18
100
AcDbEntity
  8
0
 62
     0
100
AcDbLine
 10
6.262295
 20
2.937909
 30
0.0
 11
6.262295
 21
2.937909
 31
0.0
  0
LINE
  5
995
330
18
100
AcDbEntity
  8
0
 62
     0
100
AcDbLine
 10
6.717727
 20
2.647768
 30
0.0
 11
6.717727
 21
2.647768
 31
0.0
  0
LINE
  5
996
330
18
100
AcDbEntity
  8
0
 62
     0
100
AcDbLine
 10
5.893498
 20
3.769735
 30
0.0
 11
5.893498
 21
3.769735
 31
0.0
  0
LINE
  5
997
330
18
100
AcDbEntity
  8
0
 62
     0
100
AcDbLine
 10
6.020007
 20
3.68914
 30
0.0
 11
6.020007
 21
3.68914
 31
0.0
  0
LINE
  5
998
330
18
100
AcDbEntity
  8
0
 62
     0
100
AcDbLine
 10
6.475438
 20
3.398998
 30
0.0
 11
6.475438
 21
3.398998
 31
0.0
  0
LINE
  5
999
330
18
100
AcDbEntity
  8
0
 62
     0
100
AcDbLine
 10
5.001036
 20
3.796748000000001
 30
0.0
 11
5.001036
 21
3.796748000000001
 31
0.0
  0
LINE
  5
99A
330
18
100
AcDbEntity
  8
0
 62
     0
100
AcDbLine
 10
5.056332
 20
3.746079
 30
0.0
 11
5.056332
 21
3.746079
 31
0.0
  0
LINE
  5
99B
330
18
100
AcDbEntity
  8
0
 62
     0
100
AcDbLine
 10
5.317328
 20
3.50692
 30
0.0
 11
5.317328
 21
3.50692
 31
0.0
  0
LINE
  5
99C
330
18
100
AcDbEntity
  8
0
 62
     0
100
AcDbLine
 10
5.615925
 20
3.233306
 30
0.0
 11
5.615925
 21
3.233306
 31
0.0
  0
LINE
  5
99D
330
18
100
AcDbEntity
  8
0
 62
     0
100
AcDbLine
 10
5.671221
 20
3.182637
 30
0.0
 11
5.671221
 21
3.182637
 31
0.0
  0
LINE
  5
99E
330
18
100
AcDbEntity
  8
0
 62
     0
100
AcDbLine
 10
5.932217
 20
2.943478
 30
0.0
 11
5.932217
 21
2.943478
 31
0.0
  0
LINE
  5
99F
330
18
100
AcDbEntity
  8
0
 62
     0
100
AcDbLine
 10
6.230815
 20
2.669864
 30
0.0
 11
6.230815
 21
2.669864
 31
0.0
  0
LINE
  5
9A0
330
18
100
AcDbEntity
  8
0
 62
     0
100
AcDbLine
 10
6.28611
 20
2.619194
 30
0.0
 11
6.28611
 21
2.619194
 31
0.0
  0
LINE
  5
9A1
330
18
100
AcDbEntity
  8
0
 62
     0
100
AcDbLine
 10
6.834055
 20
3.20678
 30
0.0
 11
6.834055
 21
3.20678
 31
0.0
  0
LINE
  5
9A2
330
18
100
AcDbEntity
  8
0
 62
     0
100
AcDbLine
 10
4.225797
 20
3.242568
 30
0.0
 11
4.225797
 21
3.242568
 31
0.0
  0
LINE
  5
9A3
330
18
100
AcDbEntity
  8
0
 62
     0
100
AcDbLine
 10
4.631454
 20
2.961292
 30
0.0
 11
4.631454
 21
2.961292
 31
0.0
  0
LINE
  5
9A4
330
18
100
AcDbEntity
  8
0
 62
     0
100
AcDbLine
 10
5.012121
 20
2.66084
 30
0.0
 11
5.012121
 21
2.66084
 31
0.0
  0
LINE
  5
9A5
330
18
100
AcDbEntity
  8
0
 62
     0
100
AcDbLine
 10
5.822389
 20
2.690032
 30
0.0
 11
5.822389
 21
2.690032
 31
0.0
  0
LINE
  5
9A6
330
18
100
AcDbEntity
  8
0
 62
     0
100
AcDbLine
 10
4.666774
 20
2.944628
 30
0.0
 11
4.666774
 21
2.944628
 31
0.0
  0
LINE
  5
9A7
330
18
100
AcDbEntity
  8
0
 62
     0
100
AcDbLine
 10
4.822926
 20
2.965186
 30
0.0
 11
4.822926
 21
2.965186
 31
0.0
  0
LINE
  5
9A8
330
18
100
AcDbEntity
  8
0
 62
     0
100
AcDbLine
 10
5.066822
 20
2.997295
 30
0.0
 11
5.066822
 21
2.997295
 31
0.0
  0
LINE
  5
9A9
330
18
100
AcDbEntity
  8
0
 62
     0
100
AcDbLine
 10
3.982691
 20
3.631312
 30
0.0
 11
3.982691
 21
3.631312
 31
0.0
  0
LINE
  5
9AA
330
18
100
AcDbEntity
  8
0
 62
     0
100
AcDbLine
 10
4.267301
 20
3.015109
 30
0.0
 11
4.267301
 21
3.015109
 31
0.0
  0
LINE
  5
9AB
330
18
100
AcDbEntity
  8
0
 62
     0
100
AcDbLine
 10
4.39381
 20
2.934514
 30
0.0
 11
4.39381
 21
2.934514
 31
0.0
  0
LINE
  5
9AC
330
18
100
AcDbEntity
  8
0
 62
     0
100
AcDbLine
 10
4.606953
 20
3.395603
 30
0.0
 11
4.606953
 21
3.395603
 31
0.0
  0
LINE
  5
9AD
330
18
100
AcDbEntity
  8
0
 62
     0
100
AcDbLine
 10
5.201544
 20
3.016807
 30
0.0
 11
5.201544
 21
3.016807
 31
0.0
  0
LINE
  5
9AE
330
18
100
AcDbEntity
  8
0
 62
     0
100
AcDbLine
 10
5.328053
 20
2.936212
 30
0.0
 11
5.328053
 21
2.936212
 31
0.0
  0
LINE
  5
9AF
330
18
100
AcDbEntity
  8
0
 62
     0
100
AcDbLine
 10
4.099198
 20
3.533445
 30
0.0
 11
4.099198
 21
3.533445
 31
0.0
  0
LINE
  5
9B0
330
18
100
AcDbEntity
  8
0
 62
     0
100
AcDbLine
 10
4.154494000000001
 20
3.482776
 30
0.0
 11
4.154494000000001
 21
3.482776
 31
0.0
  0
LINE
  5
9B1
330
18
100
AcDbEntity
  8
0
 62
     0
100
AcDbLine
 10
4.41549
 20
3.243617
 30
0.0
 11
4.41549
 21
3.243617
 31
0.0
  0
LINE
  5
9B2
330
18
100
AcDbEntity
  8
0
 62
     0
100
AcDbLine
 10
4.714087
 20
2.970003
 30
0.0
 11
4.714087
 21
2.970003
 31
0.0
  0
LINE
  5
9B3
330
18
100
AcDbEntity
  8
0
 62
     0
100
AcDbLine
 10
4.769383
 20
2.919334
 30
0.0
 11
4.769383
 21
2.919334
 31
0.0
  0
LINE
  5
9B4
330
18
100
AcDbEntity
  8
0
 62
     0
100
AcDbLine
 10
5.030379
 20
2.680175
 30
0.0
 11
5.030379
 21
2.680175
 31
0.0
  0
LINE
  5
9B5
330
18
100
AcDbEntity
  8
0
 62
     0
100
AcDbLine
 10
3.802288
 20
3.510147
 30
0.0
 11
3.802288
 21
3.510147
 31
0.0
  0
LINE
  5
9B6
330
18
100
AcDbEntity
  8
0
 62
     0
100
AcDbLine
 10
3.582643
 20
3.578645
 30
0.0
 11
3.582643
 21
3.578645
 31
0.0
  0
LINE
  5
9B7
330
18
100
AcDbEntity
  8
0
 62
     0
100
AcDbLine
 10
3.738796
 20
3.599202
 30
0.0
 11
3.738796
 21
3.599202
 31
0.0
  0
LINE
  5
9B8
330
18
100
AcDbEntity
  8
0
 62
     0
100
AcDbLine
 10
3.800601
 20
3.807059
 30
0.0
 11
3.800601
 21
3.807059
 31
0.0
  0
LINE
  5
9B9
330
18
100
AcDbEntity
  8
0
 62
     0
100
AcDbLine
 10
7.375094
 20
2.696368
 30
0.0
 11
7.375094
 21
2.696368
 31
0.0
  0
LINE
  5
9BA
330
18
100
AcDbEntity
  8
0
 62
     0
100
AcDbLine
 10
7.070028999999999
 20
3.020202
 30
0.0
 11
7.070028999999999
 21
3.020202
 31
0.0
  0
LINE
  5
9BB
330
18
100
AcDbEntity
  8
0
 62
     0
100
AcDbLine
 10
7.196538
 20
2.939607
 30
0.0
 11
7.196538
 21
2.939607
 31
0.0
  0
LINE
  5
9BC
330
18
100
AcDbEntity
  8
0
 62
     0
100
AcDbLine
 10
7.132653
 20
2.933166
 30
0.0
 11
7.132653
 21
2.933166
 31
0.0
  0
LINE
  5
9BD
330
18
100
AcDbEntity
  8
0
 62
     0
100
AcDbLine
 10
7.187948
 20
2.882497
 30
0.0
 11
7.187948
 21
2.882497
 31
0.0
  0
LINE
  5
9BE
330
18
100
AcDbEntity
  8
0
 62
     0
100
AcDbLine
 10
6.764717
 20
5.980814
 30
0.0
 11
6.764717
 21
5.980814
 31
0.0
  0
LINE
  5
9BF
330
18
100
AcDbEntity
  8
0
 62
     0
100
AcDbLine
 10
6.893636999999999
 20
6.079738
 30
0.0
 11
6.893636999999999
 21
6.079738
 31
0.0
  0
LINE
  5
9C0
330
18
100
AcDbEntity
  8
0
 62
     0
100
AcDbLine
 10
7.014227
 20
6.17227
 30
0.0
 11
7.014227
 21
6.17227
 31
0.0
  0
LINE
  5
9C1
330
18
100
AcDbEntity
  8
0
 62
     0
100
AcDbLine
 10
7.149097
 20
6.275759
 30
0.0
 11
7.149097
 21
6.275759
 31
0.0
  0
LINE
  5
9C2
330
18
100
AcDbEntity
  8
0
 62
     0
100
AcDbLine
 10
7.278017
 20
6.374683
 30
0.0
 11
7.278017
 21
6.374683
 31
0.0
  0
LINE
  5
9C3
330
18
100
AcDbEntity
  8
0
 62
     0
100
AcDbLine
 10
6.623548
 20
6.070007
 30
0.0
 11
6.623548
 21
6.070007
 31
0.0
  0
LINE
  5
9C4
330
18
100
AcDbEntity
  8
0
 62
     0
100
AcDbLine
 10
6.758417999999999
 20
6.173497
 30
0.0
 11
6.758417999999999
 21
6.173497
 31
0.0
  0
LINE
  5
9C5
330
18
100
AcDbEntity
  8
0
 62
     0
100
AcDbLine
 10
6.887338000000001
 20
6.272419999999999
 30
0.0
 11
6.887338000000001
 21
6.272419999999999
 31
0.0
  0
LINE
  5
9C6
330
18
100
AcDbEntity
  8
0
 62
     0
100
AcDbLine
 10
7.007928
 20
6.364952
 30
0.0
 11
7.007928
 21
6.364952
 31
0.0
  0
LINE
  5
9C7
330
18
100
AcDbEntity
  8
0
 62
     0
100
AcDbLine
 10
6.367739
 20
6.071234
 30
0.0
 11
6.367739
 21
6.071234
 31
0.0
  0
LINE
  5
9C8
330
18
100
AcDbEntity
  8
0
 62
     0
100
AcDbLine
 10
6.496658999999999
 20
6.170158
 30
0.0
 11
6.496658999999999
 21
6.170158
 31
0.0
  0
LINE
  5
9C9
330
18
100
AcDbEntity
  8
0
 62
     0
100
AcDbLine
 10
6.617248
 20
6.26269
 30
0.0
 11
6.617248
 21
6.26269
 31
0.0
  0
LINE
  5
9CA
330
18
100
AcDbEntity
  8
0
 62
     0
100
AcDbLine
 10
6.752119
 20
6.366179
 30
0.0
 11
6.752119
 21
6.366179
 31
0.0
  0
LINE
  5
9CB
330
18
100
AcDbEntity
  8
0
 62
     0
100
AcDbLine
 10
6.881038
 20
6.465103
 30
0.0
 11
6.881038
 21
6.465103
 31
0.0
  0
LINE
  5
9CC
330
18
100
AcDbEntity
  8
0
 62
     0
100
AcDbLine
 10
6.448453
 20
6.027256
 30
0.0
 11
6.448453
 21
6.027256
 31
0.0
  0
LINE
  5
9CD
330
18
100
AcDbEntity
  8
0
 62
     0
100
AcDbLine
 10
6.500503
 20
6.034109
 30
0.0
 11
6.500503
 21
6.034109
 31
0.0
  0
LINE
  5
9CE
330
18
100
AcDbEntity
  8
0
 62
     0
100
AcDbLine
 10
6.581802000000001
 20
6.044812
 30
0.0
 11
6.581802000000001
 21
6.044812
 31
0.0
  0
LINE
  5
9CF
330
18
100
AcDbEntity
  8
0
 62
     0
100
AcDbLine
 10
6.717630000000001
 20
6.062694000000001
 30
0.0
 11
6.717630000000001
 21
6.062694000000001
 31
0.0
  0
LINE
  5
9D0
330
18
100
AcDbEntity
  8
0
 62
     0
100
AcDbLine
 10
6.769680999999999
 20
6.069546
 30
0.0
 11
6.769680999999999
 21
6.069546
 31
0.0
  0
LINE
  5
9D1
330
18
100
AcDbEntity
  8
0
 62
     0
100
AcDbLine
 10
6.850979
 20
6.08025
 30
0.0
 11
6.850979
 21
6.08025
 31
0.0
  0
LINE
  5
9D2
330
18
100
AcDbEntity
  8
0
 62
     0
100
AcDbLine
 10
6.986807000000001
 20
6.098132
 30
0.0
 11
6.986807000000001
 21
6.098132
 31
0.0
  0
LINE
  5
9D3
330
18
100
AcDbEntity
  8
0
 62
     0
100
AcDbLine
 10
7.038858
 20
6.104984
 30
0.0
 11
7.038858
 21
6.104984
 31
0.0
  0
LINE
  5
9D4
330
18
100
AcDbEntity
  8
0
 62
     0
100
AcDbLine
 10
7.120157000000001
 20
6.115687
 30
0.0
 11
7.120157000000001
 21
6.115687
 31
0.0
  0
LINE
  5
9D5
330
18
100
AcDbEntity
  8
0
 62
     0
100
AcDbLine
 10
6.625430000000001
 20
6.309471
 30
0.0
 11
6.625430000000001
 21
6.309471
 31
0.0
  0
LINE
  5
9D6
330
18
100
AcDbEntity
  8
0
 62
     0
100
AcDbLine
 10
6.677480999999999
 20
6.316323000000001
 30
0.0
 11
6.677480999999999
 21
6.316323000000001
 31
0.0
  0
LINE
  5
9D7
330
18
100
AcDbEntity
  8
0
 62
     0
100
AcDbLine
 10
6.758780000000001
 20
6.327026
 30
0.0
 11
6.758780000000001
 21
6.327026
 31
0.0
  0
LINE
  5
9D8
330
18
100
AcDbEntity
  8
0
 62
     0
100
AcDbLine
 10
6.894608
 20
6.344908
 30
0.0
 11
6.894608
 21
6.344908
 31
0.0
  0
LINE
  5
9D9
330
18
100
AcDbEntity
  8
0
 62
     0
100
AcDbLine
 10
6.946658
 20
6.351761
 30
0.0
 11
6.946658
 21
6.351761
 31
0.0
  0
LINE
  5
9DA
330
18
100
AcDbEntity
  8
0
 62
     0
100
AcDbLine
 10
7.027957000000001
 20
6.362464
 30
0.0
 11
7.027957000000001
 21
6.362464
 31
0.0
  0
LINE
  5
9DB
330
18
100
AcDbEntity
  8
0
 62
     0
100
AcDbLine
 10
7.163785000000001
 20
6.380346
 30
0.0
 11
7.163785000000001
 21
6.380346
 31
0.0
  0
LINE
  5
9DC
330
18
100
AcDbEntity
  8
0
 62
     0
100
AcDbLine
 10
7.215836
 20
6.387199
 30
0.0
 11
7.215836
 21
6.387199
 31
0.0
  0
LINE
  5
9DD
330
18
100
AcDbEntity
  8
0
 62
     0
100
AcDbLine
 10
7.297134
 20
6.397901999999999
 30
0.0
 11
7.297134
 21
6.397901999999999
 31
0.0
  0
LINE
  5
9DE
330
18
100
AcDbEntity
  8
0
 62
     0
100
AcDbLine
 10
6.577526
 20
6.276101000000001
 30
0.0
 11
6.577526
 21
6.276101000000001
 31
0.0
  0
LINE
  5
9DF
330
18
100
AcDbEntity
  8
0
 62
     0
100
AcDbLine
 10
6.619696
 20
6.249236
 30
0.0
 11
6.619696
 21
6.249236
 31
0.0
  0
LINE
  5
9E0
330
18
100
AcDbEntity
  8
0
 62
     0
100
AcDbLine
 10
6.771506
 20
6.152522
 30
0.0
 11
6.771506
 21
6.152522
 31
0.0
  0
LINE
  5
9E1
330
18
100
AcDbEntity
  8
0
 62
     0
100
AcDbLine
 10
6.969703
 20
6.026257
 30
0.0
 11
6.969703
 21
6.026257
 31
0.0
  0
LINE
  5
9E2
330
18
100
AcDbEntity
  8
0
 62
     0
100
AcDbLine
 10
6.690744000000001
 20
6.402932
 30
0.0
 11
6.690744000000001
 21
6.402932
 31
0.0
  0
LINE
  5
9E3
330
18
100
AcDbEntity
  8
0
 62
     0
100
AcDbLine
 10
6.88894
 20
6.276667
 30
0.0
 11
6.88894
 21
6.276667
 31
0.0
  0
LINE
  5
9E4
330
18
100
AcDbEntity
  8
0
 62
     0
100
AcDbLine
 10
6.93111
 20
6.249802
 30
0.0
 11
6.93111
 21
6.249802
 31
0.0
  0
LINE
  5
9E5
330
18
100
AcDbEntity
  8
0
 62
     0
100
AcDbLine
 10
7.082921000000001
 20
6.153087999999999
 30
0.0
 11
7.082921000000001
 21
6.153087999999999
 31
0.0
  0
LINE
  5
9E6
330
18
100
AcDbEntity
  8
0
 62
     0
100
AcDbLine
 10
6.808178
 20
6.527076999999999
 30
0.0
 11
6.808178
 21
6.527076999999999
 31
0.0
  0
LINE
  5
9E7
330
18
100
AcDbEntity
  8
0
 62
     0
100
AcDbLine
 10
6.850347
 20
6.500212
 30
0.0
 11
6.850347
 21
6.500212
 31
0.0
  0
LINE
  5
9E8
330
18
100
AcDbEntity
  8
0
 62
     0
100
AcDbLine
 10
7.002158000000001
 20
6.403498
 30
0.0
 11
7.002158000000001
 21
6.403498
 31
0.0
  0
LINE
  5
9E9
330
18
100
AcDbEntity
  8
0
 62
     0
100
AcDbLine
 10
7.200355
 20
6.277233
 30
0.0
 11
7.200355
 21
6.277233
 31
0.0
  0
LINE
  5
9EA
330
18
100
AcDbEntity
  8
0
 62
     0
100
AcDbLine
 10
7.242524
 20
6.250368
 30
0.0
 11
7.242524
 21
6.250368
 31
0.0
  0
LINE
  5
9EB
330
18
100
AcDbEntity
  8
0
 62
     0
100
AcDbLine
 10
6.460092
 20
6.151956
 30
0.0
 11
6.460092
 21
6.151956
 31
0.0
  0
LINE
  5
9EC
330
18
100
AcDbEntity
  8
0
 62
     0
100
AcDbLine
 10
6.658289
 20
6.025691
 30
0.0
 11
6.658289
 21
6.025691
 31
0.0
  0
LINE
  5
9ED
330
18
100
AcDbEntity
  8
0
 62
     0
100
AcDbLine
 10
6.700459
 20
5.998826
 30
0.0
 11
6.700459
 21
5.998826
 31
0.0
  0
LINE
  5
9EE
330
18
100
AcDbEntity
  8
0
 62
     0
100
AcDbLine
 10
6.513925
 20
6.268141
 30
0.0
 11
6.513925
 21
6.268141
 31
0.0
  0
LINE
  5
9EF
330
18
100
AcDbEntity
  8
0
 62
     0
100
AcDbLine
 10
6.613458000000001
 20
6.176936
 30
0.0
 11
6.613458000000001
 21
6.176936
 31
0.0
  0
LINE
  5
9F0
330
18
100
AcDbEntity
  8
0
 62
     0
100
AcDbLine
 10
6.631889999999999
 20
6.160046
 30
0.0
 11
6.631889999999999
 21
6.160046
 31
0.0
  0
LINE
  5
9F1
330
18
100
AcDbEntity
  8
0
 62
     0
100
AcDbLine
 10
6.718888000000001
 20
6.080327
 30
0.0
 11
6.718888000000001
 21
6.080327
 31
0.0
  0
LINE
  5
9F2
330
18
100
AcDbEntity
  8
0
 62
     0
100
AcDbLine
 10
6.818421000000001
 20
5.989122
 30
0.0
 11
6.818421000000001
 21
5.989122
 31
0.0
  0
LINE
  5
9F3
330
18
100
AcDbEntity
  8
0
 62
     0
100
AcDbLine
 10
6.836853
 20
5.972232
 30
0.0
 11
6.836853
 21
5.972232
 31
0.0
  0
LINE
  5
9F4
330
18
100
AcDbEntity
  8
0
 62
     0
100
AcDbLine
 10
6.709107
 20
6.452518
 30
0.0
 11
6.709107
 21
6.452518
 31
0.0
  0
LINE
  5
9F5
330
18
100
AcDbEntity
  8
0
 62
     0
100
AcDbLine
 10
6.727539
 20
6.435628
 30
0.0
 11
6.727539
 21
6.435628
 31
0.0
  0
LINE
  5
9F6
330
18
100
AcDbEntity
  8
0
 62
     0
100
AcDbLine
 10
6.814538000000001
 20
6.355908
 30
0.0
 11
6.814538000000001
 21
6.355908
 31
0.0
  0
LINE
  5
9F7
330
18
100
AcDbEntity
  8
0
 62
     0
100
AcDbLine
 10
6.91407
 20
6.264704
 30
0.0
 11
6.91407
 21
6.264704
 31
0.0
  0
LINE
  5
9F8
330
18
100
AcDbEntity
  8
0
 62
     0
100
AcDbLine
 10
6.932502
 20
6.247814
 30
0.0
 11
6.932502
 21
6.247814
 31
0.0
  0
LINE
  5
9F9
330
18
100
AcDbEntity
  8
0
 62
     0
100
AcDbLine
 10
7.019500999999999
 20
6.168094
 30
0.0
 11
7.019500999999999
 21
6.168094
 31
0.0
  0
LINE
  5
9FA
330
18
100
AcDbEntity
  8
0
 62
     0
100
AcDbLine
 10
7.115150999999999
 20
6.443676
 30
0.0
 11
7.115150999999999
 21
6.443676
 31
0.0
  0
LINE
  5
9FB
330
18
100
AcDbEntity
  8
0
 62
     0
100
AcDbLine
 10
7.214683
 20
6.352471
 30
0.0
 11
7.214683
 21
6.352471
 31
0.0
  0
LINE
  5
9FC
330
18
100
AcDbEntity
  8
0
 62
     0
100
AcDbLine
 10
7.233115
 20
6.335582
 30
0.0
 11
7.233115
 21
6.335582
 31
0.0
  0
LINE
  5
9FD
330
18
100
AcDbEntity
  8
0
 62
     0
100
AcDbLine
 10
7.820782
 20
5.606065
 30
0.0
 11
7.820782
 21
5.606065
 31
0.0
  0
LINE
  5
9FE
330
18
100
AcDbEntity
  8
0
 62
     0
100
AcDbLine
 10
7.955652000000001
 20
5.709555
 30
0.0
 11
7.955652000000001
 21
5.709555
 31
0.0
  0
LINE
  5
9FF
330
18
100
AcDbEntity
  8
0
 62
     0
100
AcDbLine
 10
8.084572
 20
5.808478
 30
0.0
 11
8.084572
 21
5.808478
 31
0.0
  0
LINE
  5
A00
330
18
100
AcDbEntity
  8
0
 62
     0
100
AcDbLine
 10
8.205162
 20
5.901009999999999
 30
0.0
 11
8.205162
 21
5.901009999999999
 31
0.0
  0
LINE
  5
A01
330
18
100
AcDbEntity
  8
0
 62
     0
100
AcDbLine
 10
8.340032000000001
 20
6.0045
 30
0.0
 11
8.340032000000001
 21
6.0045
 31
0.0
  0
LINE
  5
A02
330
18
100
AcDbEntity
  8
0
 62
     0
100
AcDbLine
 10
7.564972999999999
 20
5.607292
 30
0.0
 11
7.564972999999999
 21
5.607292
 31
0.0
  0
LINE
  5
A03
330
18
100
AcDbEntity
  8
0
 62
     0
100
AcDbLine
 10
7.693892999999999
 20
5.706216
 30
0.0
 11
7.693892999999999
 21
5.706216
 31
0.0
  0
LINE
  5
A04
330
18
100
AcDbEntity
  8
0
 62
     0
100
AcDbLine
 10
7.814483
 20
5.798748000000001
 30
0.0
 11
7.814483
 21
5.798748000000001
 31
0.0
  0
LINE
  5
A05
330
18
100
AcDbEntity
  8
0
 62
     0
100
AcDbLine
 10
7.949352999999999
 20
5.902237
 30
0.0
 11
7.949352999999999
 21
5.902237
 31
0.0
  0
LINE
  5
A06
330
18
100
AcDbEntity
  8
0
 62
     0
100
AcDbLine
 10
8.078272999999999
 20
6.001161
 30
0.0
 11
8.078272999999999
 21
6.001161
 31
0.0
  0
LINE
  5
A07
330
18
100
AcDbEntity
  8
0
 62
     0
100
AcDbLine
 10
7.961952
 20
5.516872
 30
0.0
 11
7.961952
 21
5.516872
 31
0.0
  0
LINE
  5
A08
330
18
100
AcDbEntity
  8
0
 62
     0
100
AcDbLine
 10
8.090872000000001
 20
5.615796
 30
0.0
 11
8.090872000000001
 21
5.615796
 31
0.0
  0
LINE
  5
A09
330
18
100
AcDbEntity
  8
0
 62
     0
100
AcDbLine
 10
8.211461
 20
5.708328
 30
0.0
 11
8.211461
 21
5.708328
 31
0.0
  0
LINE
  5
A0A
330
18
100
AcDbEntity
  8
0
 62
     0
100
AcDbLine
 10
8.346330999999999
 20
5.811817
 30
0.0
 11
8.346330999999999
 21
5.811817
 31
0.0
  0
LINE
  5
A0B
330
18
100
AcDbEntity
  8
0
 62
     0
100
AcDbLine
 10
8.475251
 20
5.910741000000001
 30
0.0
 11
8.475251
 21
5.910741000000001
 31
0.0
  0
LINE
  5
A0C
330
18
100
AcDbEntity
  8
0
 62
     0
100
AcDbLine
 10
8.217760999999999
 20
5.515645
 30
0.0
 11
8.217760999999999
 21
5.515645
 31
0.0
  0
LINE
  5
A0D
330
18
100
AcDbEntity
  8
0
 62
     0
100
AcDbLine
 10
7.492435
 20
5.646869000000001
 30
0.0
 11
7.492435
 21
5.646869000000001
 31
0.0
  0
LINE
  5
A0E
330
18
100
AcDbEntity
  8
0
 62
     0
100
AcDbLine
 10
7.573733
 20
5.657572
 30
0.0
 11
7.573733
 21
5.657572
 31
0.0
  0
LINE
  5
A0F
330
18
100
AcDbEntity
  8
0
 62
     0
100
AcDbLine
 10
7.709561
 20
5.675454
 30
0.0
 11
7.709561
 21
5.675454
 31
0.0
  0
LINE
  5
A10
330
18
100
AcDbEntity
  8
0
 62
     0
100
AcDbLine
 10
7.761612
 20
5.682307
 30
0.0
 11
7.761612
 21
5.682307
 31
0.0
  0
LINE
  5
A11
330
18
100
AcDbEntity
  8
0
 62
     0
100
AcDbLine
 10
7.842910000000001
 20
5.69301
 30
0.0
 11
7.842910000000001
 21
5.69301
 31
0.0
  0
LINE
  5
A12
330
18
100
AcDbEntity
  8
0
 62
     0
100
AcDbLine
 10
7.978738000000001
 20
5.710891999999999
 30
0.0
 11
7.978738000000001
 21
5.710891999999999
 31
0.0
  0
LINE
  5
A13
330
18
100
AcDbEntity
  8
0
 62
     0
100
AcDbLine
 10
8.030789
 20
5.717744000000001
 30
0.0
 11
8.030789
 21
5.717744000000001
 31
0.0
  0
LINE
  5
A14
330
18
100
AcDbEntity
  8
0
 62
     0
100
AcDbLine
 10
8.112088
 20
5.728448
 30
0.0
 11
8.112088
 21
5.728448
 31
0.0
  0
LINE
  5
A15
330
18
100
AcDbEntity
  8
0
 62
     0
100
AcDbLine
 10
8.247916
 20
5.74633
 30
0.0
 11
8.247916
 21
5.74633
 31
0.0
  0
LINE
  5
A16
330
18
100
AcDbEntity
  8
0
 62
     0
100
AcDbLine
 10
8.299966
 20
5.753182
 30
0.0
 11
8.299966
 21
5.753182
 31
0.0
  0
LINE
  5
A17
330
18
100
AcDbEntity
  8
0
 62
     0
100
AcDbLine
 10
8.381264999999999
 20
5.763885
 30
0.0
 11
8.381264999999999
 21
5.763885
 31
0.0
  0
LINE
  5
A18
330
18
100
AcDbEntity
  8
0
 62
     0
100
AcDbLine
 10
7.886539
 20
5.957669
 30
0.0
 11
7.886539
 21
5.957669
 31
0.0
  0
LINE
  5
A19
330
18
100
AcDbEntity
  8
0
 62
     0
100
AcDbLine
 10
7.938589
 20
5.964521
 30
0.0
 11
7.938589
 21
5.964521
 31
0.0
  0
LINE
  5
A1A
330
18
100
AcDbEntity
  8
0
 62
     0
100
AcDbLine
 10
8.019888
 20
5.975224
 30
0.0
 11
8.019888
 21
5.975224
 31
0.0
  0
LINE
  5
A1B
330
18
100
AcDbEntity
  8
0
 62
     0
100
AcDbLine
 10
8.155716
 20
5.993106
 30
0.0
 11
8.155716
 21
5.993106
 31
0.0
  0
LINE
  5
A1C
330
18
100
AcDbEntity
  8
0
 62
     0
100
AcDbLine
 10
8.207767000000001
 20
5.999959
 30
0.0
 11
8.207767000000001
 21
5.999959
 31
0.0
  0
LINE
  5
A1D
330
18
100
AcDbEntity
  8
0
 62
     0
100
AcDbLine
 10
8.289064999999999
 20
6.010662
 30
0.0
 11
8.289064999999999
 21
6.010662
 31
0.0
  0
LINE
  5
A1E
330
18
100
AcDbEntity
  8
0
 62
     0
100
AcDbLine
 10
7.935110000000001
 20
5.446233
 30
0.0
 11
7.935110000000001
 21
5.446233
 31
0.0
  0
LINE
  5
A1F
330
18
100
AcDbEntity
  8
0
 62
     0
100
AcDbLine
 10
8.070938
 20
5.464115000000001
 30
0.0
 11
8.070938
 21
5.464115000000001
 31
0.0
  0
LINE
  5
A20
330
18
100
AcDbEntity
  8
0
 62
     0
100
AcDbLine
 10
8.122989000000001
 20
5.470968
 30
0.0
 11
8.122989000000001
 21
5.470968
 31
0.0
  0
LINE
  5
A21
330
18
100
AcDbEntity
  8
0
 62
     0
100
AcDbLine
 10
7.786511999999999
 20
5.90381
 30
0.0
 11
7.786511999999999
 21
5.90381
 31
0.0
  0
LINE
  5
A22
330
18
100
AcDbEntity
  8
0
 62
     0
100
AcDbLine
 10
7.984709
 20
5.777544
 30
0.0
 11
7.984709
 21
5.777544
 31
0.0
  0
LINE
  5
A23
330
18
100
AcDbEntity
  8
0
 62
     0
100
AcDbLine
 10
8.026878
 20
5.750679
 30
0.0
 11
8.026878
 21
5.750679
 31
0.0
  0
LINE
  5
A24
330
18
100
AcDbEntity
  8
0
 62
     0
100
AcDbLine
 10
8.178689
 20
5.653965
 30
0.0
 11
8.178689
 21
5.653965
 31
0.0
  0
LINE
  5
A25
330
18
100
AcDbEntity
  8
0
 62
     0
100
AcDbLine
 10
7.903946
 20
6.027954
 30
0.0
 11
7.903946
 21
6.027954
 31
0.0
  0
LINE
  5
A26
330
18
100
AcDbEntity
  8
0
 62
     0
100
AcDbLine
 10
7.946115
 20
6.001089
 30
0.0
 11
7.946115
 21
6.001089
 31
0.0
  0
LINE
  5
A27
330
18
100
AcDbEntity
  8
0
 62
     0
100
AcDbLine
 10
8.097925999999999
 20
5.904375
 30
0.0
 11
8.097925999999999
 21
5.904375
 31
0.0
  0
LINE
  5
A28
330
18
100
AcDbEntity
  8
0
 62
     0
100
AcDbLine
 10
8.296123
 20
5.77811
 30
0.0
 11
8.296123
 21
5.77811
 31
0.0
  0
LINE
  5
A29
330
18
100
AcDbEntity
  8
0
 62
     0
100
AcDbLine
 10
8.338291999999999
 20
5.751245
 30
0.0
 11
8.338291999999999
 21
5.751245
 31
0.0
  0
LINE
  5
A2A
330
18
100
AcDbEntity
  8
0
 62
     0
100
AcDbLine
 10
8.21536
 20
6.028519999999999
 30
0.0
 11
8.21536
 21
6.028519999999999
 31
0.0
  0
LINE
  5
A2B
330
18
100
AcDbEntity
  8
0
 62
     0
100
AcDbLine
 10
8.257530000000001
 20
6.001655
 30
0.0
 11
8.257530000000001
 21
6.001655
 31
0.0
  0
LINE
  5
A2C
330
18
100
AcDbEntity
  8
0
 62
     0
100
AcDbLine
 10
8.40934
 20
5.904941
 30
0.0
 11
8.40934
 21
5.904941
 31
0.0
  0
LINE
  5
A2D
330
18
100
AcDbEntity
  8
0
 62
     0
100
AcDbLine
 10
7.673295
 20
5.776978
 30
0.0
 11
7.673295
 21
5.776978
 31
0.0
  0
LINE
  5
A2E
330
18
100
AcDbEntity
  8
0
 62
     0
100
AcDbLine
 10
7.715464
 20
5.750113
 30
0.0
 11
7.715464
 21
5.750113
 31
0.0
  0
LINE
  5
A2F
330
18
100
AcDbEntity
  8
0
 62
     0
100
AcDbLine
 10
7.867275
 20
5.653398999999999
 30
0.0
 11
7.867275
 21
5.653398999999999
 31
0.0
  0
LINE
  5
A30
330
18
100
AcDbEntity
  8
0
 62
     0
100
AcDbLine
 10
8.065472
 20
5.527133999999999
 30
0.0
 11
8.065472
 21
5.527133999999999
 31
0.0
  0
LINE
  5
A31
330
18
100
AcDbEntity
  8
0
 62
     0
100
AcDbLine
 10
8.107641000000001
 20
5.500269
 30
0.0
 11
8.107641000000001
 21
5.500269
 31
0.0
  0
LINE
  5
A32
330
18
100
AcDbEntity
  8
0
 62
     0
100
AcDbLine
 10
7.555860000000001
 20
5.652833
 30
0.0
 11
7.555860000000001
 21
5.652833
 31
0.0
  0
LINE
  5
A33
330
18
100
AcDbEntity
  8
0
 62
     0
100
AcDbLine
 10
7.754057
 20
5.526568
 30
0.0
 11
7.754057
 21
5.526568
 31
0.0
  0
LINE
  5
A34
330
18
100
AcDbEntity
  8
0
 62
     0
100
AcDbLine
 10
7.796227
 20
5.499703
 30
0.0
 11
7.796227
 21
5.499703
 31
0.0
  0
LINE
  5
A35
330
18
100
AcDbEntity
  8
0
 62
     0
100
AcDbLine
 10
7.73004
 20
5.880234
 30
0.0
 11
7.73004
 21
5.880234
 31
0.0
  0
LINE
  5
A36
330
18
100
AcDbEntity
  8
0
 62
     0
100
AcDbLine
 10
7.829572
 20
5.789029
 30
0.0
 11
7.829572
 21
5.789029
 31
0.0
  0
LINE
  5
A37
330
18
100
AcDbEntity
  8
0
 62
     0
100
AcDbLine
 10
7.848004
 20
5.772139
 30
0.0
 11
7.848004
 21
5.772139
 31
0.0
  0
LINE
  5
A38
330
18
100
AcDbEntity
  8
0
 62
     0
100
AcDbLine
 10
7.935003
 20
5.692419999999999
 30
0.0
 11
7.935003
 21
5.692419999999999
 31
0.0
  0
LINE
  5
A39
330
18
100
AcDbEntity
  8
0
 62
     0
100
AcDbLine
 10
8.034535
 20
5.601215
 30
0.0
 11
8.034535
 21
5.601215
 31
0.0
  0
LINE
  5
A3A
330
18
100
AcDbEntity
  8
0
 62
     0
100
AcDbLine
 10
8.052967000000001
 20
5.584325
 30
0.0
 11
8.052967000000001
 21
5.584325
 31
0.0
  0
LINE
  5
A3B
330
18
100
AcDbEntity
  8
0
 62
     0
100
AcDbLine
 10
8.139966000000001
 20
5.504606
 30
0.0
 11
8.139966000000001
 21
5.504606
 31
0.0
  0
LINE
  5
A3C
330
18
100
AcDbEntity
  8
0
 62
     0
100
AcDbLine
 10
7.925222
 20
6.064611
 30
0.0
 11
7.925222
 21
6.064611
 31
0.0
  0
LINE
  5
A3D
330
18
100
AcDbEntity
  8
0
 62
     0
100
AcDbLine
 10
7.943654
 20
6.047721
 30
0.0
 11
7.943654
 21
6.047721
 31
0.0
  0
LINE
  5
A3E
330
18
100
AcDbEntity
  8
0
 62
     0
100
AcDbLine
 10
8.030652999999999
 20
5.968001
 30
0.0
 11
8.030652999999999
 21
5.968001
 31
0.0
  0
LINE
  5
A3F
330
18
100
AcDbEntity
  8
0
 62
     0
100
AcDbLine
 10
8.130185000000001
 20
5.876797
 30
0.0
 11
8.130185000000001
 21
5.876797
 31
0.0
  0
LINE
  5
A40
330
18
100
AcDbEntity
  8
0
 62
     0
100
AcDbLine
 10
8.148617
 20
5.859907
 30
0.0
 11
8.148617
 21
5.859907
 31
0.0
  0
LINE
  5
A41
330
18
100
AcDbEntity
  8
0
 62
     0
100
AcDbLine
 10
8.235616
 20
5.780187000000001
 30
0.0
 11
8.235616
 21
5.780187000000001
 31
0.0
  0
LINE
  5
A42
330
18
100
AcDbEntity
  8
0
 62
     0
100
AcDbLine
 10
8.335148
 20
5.688983
 30
0.0
 11
8.335148
 21
5.688983
 31
0.0
  0
LINE
  5
A43
330
18
100
AcDbEntity
  8
0
 62
     0
100
AcDbLine
 10
8.353580000000001
 20
5.672093
 30
0.0
 11
8.353580000000001
 21
5.672093
 31
0.0
  0
LINE
  5
A44
330
18
100
AcDbEntity
  8
0
 62
     0
100
AcDbLine
 10
8.430797999999999
 20
5.964564
 30
0.0
 11
8.430797999999999
 21
5.964564
 31
0.0
  0
LINE
  5
A45
330
18
100
AcDbEntity
  8
0
 62
     0
100
AcDbLine
 10
8.44923
 20
5.947674
 30
0.0
 11
8.44923
 21
5.947674
 31
0.0
  0
LINE
  5
A46
330
18
100
AcDbEntity
  8
0
 62
     0
100
AcDbLine
 10
8.536228
 20
5.867955
 30
0.0
 11
8.536228
 21
5.867955
 31
0.0
  0
LINE
  5
A47
330
18
100
AcDbEntity
  8
0
 62
     0
100
AcDbLine
 10
7.528960000000001
 20
5.701262
 30
0.0
 11
7.528960000000001
 21
5.701262
 31
0.0
  0
LINE
  5
A48
330
18
100
AcDbEntity
  8
0
 62
     0
100
AcDbLine
 10
7.547391999999999
 20
5.684372
 30
0.0
 11
7.547391999999999
 21
5.684372
 31
0.0
  0
LINE
  5
A49
330
18
100
AcDbEntity
  8
0
 62
     0
100
AcDbLine
 10
7.63439
 20
5.604652
 30
0.0
 11
7.63439
 21
5.604652
 31
0.0
  0
LINE
  5
A4A
330
18
100
AcDbEntity
  8
0
 62
     0
100
AcDbLine
 10
7.733923
 20
5.513447
 30
0.0
 11
7.733923
 21
5.513447
 31
0.0
  0
LINE
  5
A4B
330
18
100
AcDbEntity
  8
0
 62
     0
100
AcDbLine
 10
8.494149
 20
5.332694
 30
0.0
 11
8.494149
 21
5.332694
 31
0.0
  0
LINE
  5
A4C
330
18
100
AcDbEntity
  8
0
 62
     0
100
AcDbLine
 10
8.614739
 20
5.425226
 30
0.0
 11
8.614739
 21
5.425226
 31
0.0
  0
LINE
  5
A4D
330
18
100
AcDbEntity
  8
0
 62
     0
100
AcDbLine
 10
8.749609
 20
5.528715
 30
0.0
 11
8.749609
 21
5.528715
 31
0.0
  0
LINE
  5
A4E
330
18
100
AcDbEntity
  8
0
 62
     0
100
AcDbLine
 10
8.878528999999999
 20
5.627639
 30
0.0
 11
8.878528999999999
 21
5.627639
 31
0.0
  0
LINE
  5
A4F
330
18
100
AcDbEntity
  8
0
 62
     0
100
AcDbLine
 10
8.999119
 20
5.72017
 30
0.0
 11
8.999119
 21
5.72017
 31
0.0
  0
LINE
  5
A50
330
18
100
AcDbEntity
  8
0
 62
     0
100
AcDbLine
 10
8.621038
 20
5.232543
 30
0.0
 11
8.621038
 21
5.232543
 31
0.0
  0
LINE
  5
A51
330
18
100
AcDbEntity
  8
0
 62
     0
100
AcDbLine
 10
8.755908
 20
5.336033000000001
 30
0.0
 11
8.755908
 21
5.336033000000001
 31
0.0
  0
LINE
  5
A52
330
18
100
AcDbEntity
  8
0
 62
     0
100
AcDbLine
 10
8.884828000000001
 20
5.434956
 30
0.0
 11
8.884828000000001
 21
5.434956
 31
0.0
  0
LINE
  5
A53
330
18
100
AcDbEntity
  8
0
 62
     0
100
AcDbLine
 10
9.005417999999999
 20
5.527488
 30
0.0
 11
9.005417999999999
 21
5.527488
 31
0.0
  0
LINE
  5
A54
330
18
100
AcDbEntity
  8
0
 62
     0
100
AcDbLine
 10
8.432314999999999
 20
5.252776
 30
0.0
 11
8.432314999999999
 21
5.252776
 31
0.0
  0
LINE
  5
A55
330
18
100
AcDbEntity
  8
0
 62
     0
100
AcDbLine
 10
8.484366
 20
5.259629
 30
0.0
 11
8.484366
 21
5.259629
 31
0.0
  0
LINE
  5
A56
330
18
100
AcDbEntity
  8
0
 62
     0
100
AcDbLine
 10
8.565664
 20
5.270332
 30
0.0
 11
8.565664
 21
5.270332
 31
0.0
  0
LINE
  5
A57
330
18
100
AcDbEntity
  8
0
 62
     0
100
AcDbLine
 10
8.701492
 20
5.288214
 30
0.0
 11
8.701492
 21
5.288214
 31
0.0
  0
LINE
  5
A58
330
18
100
AcDbEntity
  8
0
 62
     0
100
AcDbLine
 10
8.753542999999999
 20
5.295067
 30
0.0
 11
8.753542999999999
 21
5.295067
 31
0.0
  0
LINE
  5
A59
330
18
100
AcDbEntity
  8
0
 62
     0
100
AcDbLine
 10
8.661342999999999
 20
5.541843
 30
0.0
 11
8.661342999999999
 21
5.541843
 31
0.0
  0
LINE
  5
A5A
330
18
100
AcDbEntity
  8
0
 62
     0
100
AcDbLine
 10
8.742642
 20
5.552547
 30
0.0
 11
8.742642
 21
5.552547
 31
0.0
  0
LINE
  5
A5B
330
18
100
AcDbEntity
  8
0
 62
     0
100
AcDbLine
 10
8.87847
 20
5.570429
 30
0.0
 11
8.87847
 21
5.570429
 31
0.0
  0
LINE
  5
A5C
330
18
100
AcDbEntity
  8
0
 62
     0
100
AcDbLine
 10
8.930521000000001
 20
5.577281
 30
0.0
 11
8.930521000000001
 21
5.577281
 31
0.0
  0
LINE
  5
A5D
330
18
100
AcDbEntity
  8
0
 62
     0
100
AcDbLine
 10
9.011819000000001
 20
5.587984
 30
0.0
 11
9.011819000000001
 21
5.587984
 31
0.0
  0
LINE
  5
A5E
330
18
100
AcDbEntity
  8
0
 62
     0
100
AcDbLine
 10
8.6883
 20
5.528266
 30
0.0
 11
8.6883
 21
5.528266
 31
0.0
  0
LINE
  5
A5F
330
18
100
AcDbEntity
  8
0
 62
     0
100
AcDbLine
 10
8.73047
 20
5.501401
 30
0.0
 11
8.73047
 21
5.501401
 31
0.0
  0
LINE
  5
A60
330
18
100
AcDbEntity
  8
0
 62
     0
100
AcDbLine
 10
8.88228
 20
5.404687
 30
0.0
 11
8.88228
 21
5.404687
 31
0.0
  0
LINE
  5
A61
330
18
100
AcDbEntity
  8
0
 62
     0
100
AcDbLine
 10
8.801517000000001
 20
5.655097000000001
 30
0.0
 11
8.801517000000001
 21
5.655097000000001
 31
0.0
  0
LINE
  5
A62
330
18
100
AcDbEntity
  8
0
 62
     0
100
AcDbLine
 10
8.999713999999999
 20
5.528832
 30
0.0
 11
8.999713999999999
 21
5.528832
 31
0.0
  0
LINE
  5
A63
330
18
100
AcDbEntity
  8
0
 62
     0
100
AcDbLine
 10
8.918951
 20
5.779242
 30
0.0
 11
8.918951
 21
5.779242
 31
0.0
  0
LINE
  5
A64
330
18
100
AcDbEntity
  8
0
 62
     0
100
AcDbLine
 10
8.961121
 20
5.752377
 30
0.0
 11
8.961121
 21
5.752377
 31
0.0
  0
LINE
  5
A65
330
18
100
AcDbEntity
  8
0
 62
     0
100
AcDbLine
 10
9.112931
 20
5.655663
 30
0.0
 11
9.112931
 21
5.655663
 31
0.0
  0
LINE
  5
A66
330
18
100
AcDbEntity
  8
0
 62
     0
100
AcDbLine
 10
8.570866000000001
 20
5.404121
 30
0.0
 11
8.570866000000001
 21
5.404121
 31
0.0
  0
LINE
  5
A67
330
18
100
AcDbEntity
  8
0
 62
     0
100
AcDbLine
 10
8.769063000000001
 20
5.277855000000001
 30
0.0
 11
8.769063000000001
 21
5.277855000000001
 31
0.0
  0
LINE
  5
A68
330
18
100
AcDbEntity
  8
0
 62
     0
100
AcDbLine
 10
8.457649
 20
5.27729
 30
0.0
 11
8.457649
 21
5.27729
 31
0.0
  0
LINE
  5
A69
330
18
100
AcDbEntity
  8
0
 62
     0
100
AcDbLine
 10
8.499817999999999
 20
5.250425
 30
0.0
 11
8.499817999999999
 21
5.250425
 31
0.0
  0
LINE
  5
A6A
330
18
100
AcDbEntity
  8
0
 62
     0
100
AcDbLine
 10
8.651629
 20
5.153711
 30
0.0
 11
8.651629
 21
5.153711
 31
0.0
  0
LINE
  5
A6B
330
18
100
AcDbEntity
  8
0
 62
     0
100
AcDbLine
 10
8.645541999999999
 20
5.404559
 30
0.0
 11
8.645541999999999
 21
5.404559
 31
0.0
  0
LINE
  5
A6C
330
18
100
AcDbEntity
  8
0
 62
     0
100
AcDbLine
 10
8.745074000000001
 20
5.313354
 30
0.0
 11
8.745074000000001
 21
5.313354
 31
0.0
  0
LINE
  5
A6D
330
18
100
AcDbEntity
  8
0
 62
     0
100
AcDbLine
 10
8.763506
 20
5.296465
 30
0.0
 11
8.763506
 21
5.296465
 31
0.0
  0
LINE
  5
A6E
330
18
100
AcDbEntity
  8
0
 62
     0
100
AcDbLine
 10
8.840724
 20
5.588936
 30
0.0
 11
8.840724
 21
5.588936
 31
0.0
  0
LINE
  5
A6F
330
18
100
AcDbEntity
  8
0
 62
     0
100
AcDbLine
 10
8.859156000000001
 20
5.572046
 30
0.0
 11
8.859156000000001
 21
5.572046
 31
0.0
  0
LINE
  5
A70
330
18
100
AcDbEntity
  8
0
 62
     0
100
AcDbLine
 10
8.946155000000001
 20
5.492327
 30
0.0
 11
8.946155000000001
 21
5.492327
 31
0.0
  0
LINE
  5
A71
330
18
100
AcDbEntity
  8
0
 62
     0
100
AcDbLine
 10
9.041803999999999
 20
5.767908
 30
0.0
 11
9.041803999999999
 21
5.767908
 31
0.0
  0
LINE
  5
A72
330
18
100
AcDbEntity
  8
0
 62
     0
100
AcDbLine
 10
9.141337
 20
5.676704
 30
0.0
 11
9.141337
 21
5.676704
 31
0.0
  0
LINE
  5
A73
330
18
100
AcDbEntity
  8
0
 62
     0
100
AcDbLine
 10
8.444462
 20
5.225587
 30
0.0
 11
8.444462
 21
5.225587
 31
0.0
  0
LINE
  5
A74
330
18
100
AcDbEntity
  8
0
 62
     0
100
AcDbLine
 10
8.743022999999999
 20
5.187884
 30
0.0
 11
8.743022999999999
 21
5.187884
 31
0.0
  0
LINE
  5
A75
330
18
100
AcDbEntity
  8
0
 62
     0
100
AcDbLine
 10
8.837432000000002
 20
5.260326999999999
 30
0.0
 11
8.837432000000002
 21
5.260326999999999
 31
0.0
  0
LINE
  5
A76
330
18
100
AcDbEntity
  8
0
 62
     0
100
AcDbLine
 10
8.927676
 20
5.329573
 30
0.0
 11
8.927676
 21
5.329573
 31
0.0
  0
LINE
  5
A77
330
18
100
AcDbEntity
  8
0
 62
     0
100
AcDbLine
 10
9.012089
 20
5.394345
 30
0.0
 11
9.012089
 21
5.394345
 31
0.0
  0
LINE
  5
A78
330
18
100
AcDbEntity
  8
0
 62
     0
100
AcDbLine
 10
9.106498
 20
5.466787999999999
 30
0.0
 11
9.106498
 21
5.466787999999999
 31
0.0
  0
LINE
  5
A79
330
18
100
AcDbEntity
  8
0
 62
     0
100
AcDbLine
 10
9.102088
 20
5.601666000000001
 30
0.0
 11
9.102088
 21
5.601666000000001
 31
0.0
  0
LINE
  5
A7A
330
18
100
AcDbEntity
  8
0
 62
     0
100
AcDbLine
 10
9.192332
 20
5.670912
 30
0.0
 11
9.192332
 21
5.670912
 31
0.0
  0
LINE
  5
A7B
330
18
100
AcDbEntity
  8
0
 62
     0
100
AcDbLine
 10
8.747432
 20
5.053006
 30
0.0
 11
8.747432
 21
5.053006
 31
0.0
  0
LINE
  5
A7C
330
18
100
AcDbEntity
  8
0
 62
     0
100
AcDbLine
 10
8.841841000000001
 20
5.125449
 30
0.0
 11
8.841841000000001
 21
5.125449
 31
0.0
  0
LINE
  5
A7D
330
18
100
AcDbEntity
  8
0
 62
     0
100
AcDbLine
 10
8.932085000000001
 20
5.194696
 30
0.0
 11
8.932085000000001
 21
5.194696
 31
0.0
  0
LINE
  5
A7E
330
18
100
AcDbEntity
  8
0
 62
     0
100
AcDbLine
 10
9.016498
 20
5.259468
 30
0.0
 11
9.016498
 21
5.259468
 31
0.0
  0
LINE
  5
A7F
330
18
100
AcDbEntity
  8
0
 62
     0
100
AcDbLine
 10
9.110907000000001
 20
5.33191
 30
0.0
 11
9.110907000000001
 21
5.33191
 31
0.0
  0
LINE
  5
A80
330
18
100
AcDbEntity
  8
0
 62
     0
100
AcDbLine
 10
8.667428999999999
 20
4.853356
 30
0.0
 11
8.667428999999999
 21
4.853356
 31
0.0
  0
LINE
  5
A81
330
18
100
AcDbEntity
  8
0
 62
     0
100
AcDbLine
 10
8.751842
 20
4.918129
 30
0.0
 11
8.751842
 21
4.918129
 31
0.0
  0
LINE
  5
A82
330
18
100
AcDbEntity
  8
0
 62
     0
100
AcDbLine
 10
8.846250999999999
 20
4.990571
 30
0.0
 11
8.846250999999999
 21
4.990571
 31
0.0
  0
LINE
  5
A83
330
18
100
AcDbEntity
  8
0
 62
     0
100
AcDbLine
 10
8.936494999999999
 20
5.059818
 30
0.0
 11
8.936494999999999
 21
5.059818
 31
0.0
  0
LINE
  5
A84
330
18
100
AcDbEntity
  8
0
 62
     0
100
AcDbLine
 10
8.671839
 20
4.718479
 30
0.0
 11
8.671839
 21
4.718479
 31
0.0
  0
LINE
  5
A85
330
18
100
AcDbEntity
  8
0
 62
     0
100
AcDbLine
 10
8.718591999999999
 20
5.135116
 30
0.0
 11
8.718591999999999
 21
5.135116
 31
0.0
  0
LINE
  5
A86
330
18
100
AcDbEntity
  8
0
 62
     0
100
AcDbLine
 10
8.755027
 20
5.139913
 30
0.0
 11
8.755027
 21
5.139913
 31
0.0
  0
LINE
  5
A87
330
18
100
AcDbEntity
  8
0
 62
     0
100
AcDbLine
 10
8.811935999999999
 20
5.147405
 30
0.0
 11
8.811935999999999
 21
5.147405
 31
0.0
  0
LINE
  5
A88
330
18
100
AcDbEntity
  8
0
 62
     0
100
AcDbLine
 10
8.907016000000001
 20
5.159923
 30
0.0
 11
8.907016000000001
 21
5.159923
 31
0.0
  0
LINE
  5
A89
330
18
100
AcDbEntity
  8
0
 62
     0
100
AcDbLine
 10
8.943451
 20
5.16472
 30
0.0
 11
8.943451
 21
5.16472
 31
0.0
  0
LINE
  5
A8A
330
18
100
AcDbEntity
  8
0
 62
     0
100
AcDbLine
 10
9.000360000000001
 20
5.172212
 30
0.0
 11
9.000360000000001
 21
5.172212
 31
0.0
  0
LINE
  5
A8B
330
18
100
AcDbEntity
  8
0
 62
     0
100
AcDbLine
 10
8.878912
 20
5.337463
 30
0.0
 11
8.878912
 21
5.337463
 31
0.0
  0
LINE
  5
A8C
330
18
100
AcDbEntity
  8
0
 62
     0
100
AcDbLine
 10
8.93582
 20
5.344955000000001
 30
0.0
 11
8.93582
 21
5.344955000000001
 31
0.0
  0
LINE
  5
A8D
330
18
100
AcDbEntity
  8
0
 62
     0
100
AcDbLine
 10
9.030900000000001
 20
5.357473000000001
 30
0.0
 11
9.030900000000001
 21
5.357473000000001
 31
0.0
  0
LINE
  5
A8E
330
18
100
AcDbEntity
  8
0
 62
     0
100
AcDbLine
 10
9.067335999999999
 20
5.36227
 30
0.0
 11
9.067335999999999
 21
5.36227
 31
0.0
  0
LINE
  5
A8F
330
18
100
AcDbEntity
  8
0
 62
     0
100
AcDbLine
 10
9.124245
 20
5.369762000000001
 30
0.0
 11
9.124245
 21
5.369762000000001
 31
0.0
  0
LINE
  5
A90
330
18
100
AcDbEntity
  8
0
 62
     0
100
AcDbLine
 10
9.059705000000001
 20
5.542506
 30
0.0
 11
9.059705000000001
 21
5.542506
 31
0.0
  0
LINE
  5
A91
330
18
100
AcDbEntity
  8
0
 62
     0
100
AcDbLine
 10
9.154783999999999
 20
5.555023
 30
0.0
 11
9.154783999999999
 21
5.555023
 31
0.0
  0
LINE
  5
A92
330
18
100
AcDbEntity
  8
0
 62
     0
100
AcDbLine
 10
8.688052000000001
 20
4.949855
 30
0.0
 11
8.688052000000001
 21
4.949855
 31
0.0
  0
LINE
  5
A93
330
18
100
AcDbEntity
  8
0
 62
     0
100
AcDbLine
 10
8.783130999999999
 20
4.962372
 30
0.0
 11
8.783130999999999
 21
4.962372
 31
0.0
  0
LINE
  5
A94
330
18
100
AcDbEntity
  8
0
 62
     0
100
AcDbLine
 10
8.819566999999999
 20
4.967169
 30
0.0
 11
8.819566999999999
 21
4.967169
 31
0.0
  0
LINE
  5
A95
330
18
100
AcDbEntity
  8
0
 62
     0
100
AcDbLine
 10
8.876476
 20
4.974662
 30
0.0
 11
8.876476
 21
4.974662
 31
0.0
  0
LINE
  5
A96
330
18
100
AcDbEntity
  8
0
 62
     0
100
AcDbLine
 10
8.659247000000001
 20
4.764822000000001
 30
0.0
 11
8.659247000000001
 21
4.764822000000001
 31
0.0
  0
LINE
  5
A97
330
18
100
AcDbEntity
  8
0
 62
     0
100
AcDbLine
 10
8.695683000000001
 20
4.769619000000001
 30
0.0
 11
8.695683000000001
 21
4.769619000000001
 31
0.0
  0
LINE
  5
A98
330
18
100
AcDbEntity
  8
0
 62
     0
100
AcDbLine
 10
8.817183
 20
5.191123999999999
 30
0.0
 11
8.817183
 21
5.191123999999999
 31
0.0
  0
LINE
  5
A99
330
18
100
AcDbEntity
  8
0
 62
     0
100
AcDbLine
 10
8.955921
 20
5.102738
 30
0.0
 11
8.955921
 21
5.102738
 31
0.0
  0
LINE
  5
A9A
330
18
100
AcDbEntity
  8
0
 62
     0
100
AcDbLine
 10
8.899386999999999
 20
5.278025
 30
0.0
 11
8.899386999999999
 21
5.278025
 31
0.0
  0
LINE
  5
A9B
330
18
100
AcDbEntity
  8
0
 62
     0
100
AcDbLine
 10
8.928906
 20
5.25922
 30
0.0
 11
8.928906
 21
5.25922
 31
0.0
  0
LINE
  5
A9C
330
18
100
AcDbEntity
  8
0
 62
     0
100
AcDbLine
 10
9.035173
 20
5.19152
 30
0.0
 11
9.035173
 21
5.19152
 31
0.0
  0
LINE
  5
A9D
330
18
100
AcDbEntity
  8
0
 62
     0
100
AcDbLine
 10
8.978638999999999
 20
5.366807
 30
0.0
 11
8.978638999999999
 21
5.366807
 31
0.0
  0
LINE
  5
A9E
330
18
100
AcDbEntity
  8
0
 62
     0
100
AcDbLine
 10
9.117377000000001
 20
5.278421
 30
0.0
 11
9.117377000000001
 21
5.278421
 31
0.0
  0
LINE
  5
A9F
330
18
100
AcDbEntity
  8
0
 62
     0
100
AcDbLine
 10
9.060842999999998
 20
5.453709
 30
0.0
 11
9.060842999999998
 21
5.453709
 31
0.0
  0
LINE
  5
AA0
330
18
100
AcDbEntity
  8
0
 62
     0
100
AcDbLine
 10
9.090361999999999
 20
5.434903
 30
0.0
 11
9.090361999999999
 21
5.434903
 31
0.0
  0
LINE
  5
AA1
330
18
100
AcDbEntity
  8
0
 62
     0
100
AcDbLine
 10
9.140095000000001
 20
5.54249
 30
0.0
 11
9.140095000000001
 21
5.54249
 31
0.0
  0
LINE
  5
AA2
330
18
100
AcDbEntity
  8
0
 62
     0
100
AcDbLine
 10
8.737931
 20
5.102342
 30
0.0
 11
8.737931
 21
5.102342
 31
0.0
  0
LINE
  5
AA3
330
18
100
AcDbEntity
  8
0
 62
     0
100
AcDbLine
 10
8.76745
 20
5.083536000000001
 30
0.0
 11
8.76745
 21
5.083536000000001
 31
0.0
  0
LINE
  5
AA4
330
18
100
AcDbEntity
  8
0
 62
     0
100
AcDbLine
 10
8.873716999999999
 20
5.015837
 30
0.0
 11
8.873716999999999
 21
5.015837
 31
0.0
  0
LINE
  5
AA5
330
18
100
AcDbEntity
  8
0
 62
     0
100
AcDbLine
 10
8.794464999999999
 20
4.927055
 30
0.0
 11
8.794464999999999
 21
4.927055
 31
0.0
  0
LINE
  5
AA6
330
18
100
AcDbEntity
  8
0
 62
     0
100
AcDbLine
 10
8.823983999999999
 20
4.908249
 30
0.0
 11
8.823983999999999
 21
4.908249
 31
0.0
  0
LINE
  5
AA7
330
18
100
AcDbEntity
  8
0
 62
     0
100
AcDbLine
 10
8.712261
 20
4.840153
 30
0.0
 11
8.712261
 21
4.840153
 31
0.0
  0
LINE
  5
AA8
330
18
100
AcDbEntity
  8
0
 62
     0
100
AcDbLine
 10
8.633009
 20
4.751372
 30
0.0
 11
8.633009
 21
4.751372
 31
0.0
  0
LINE
  5
AA9
330
18
100
AcDbEntity
  8
0
 62
     0
100
AcDbLine
 10
8.662528
 20
4.732566
 30
0.0
 11
8.662528
 21
4.732566
 31
0.0
  0
LINE
  5
AAA
330
18
100
AcDbEntity
  8
0
 62
     0
100
AcDbLine
 10
8.704088000000001
 20
5.166787
 30
0.0
 11
8.704088000000001
 21
5.166787
 31
0.0
  0
LINE
  5
AAB
330
18
100
AcDbEntity
  8
0
 62
     0
100
AcDbLine
 10
8.716991
 20
5.154964
 30
0.0
 11
8.716991
 21
5.154964
 31
0.0
  0
LINE
  5
AAC
330
18
100
AcDbEntity
  8
0
 62
     0
100
AcDbLine
 10
8.777889999999999
 20
5.09916
 30
0.0
 11
8.777889999999999
 21
5.09916
 31
0.0
  0
LINE
  5
AAD
330
18
100
AcDbEntity
  8
0
 62
     0
100
AcDbLine
 10
8.847562
 20
5.035317
 30
0.0
 11
8.847562
 21
5.035317
 31
0.0
  0
LINE
  5
AAE
330
18
100
AcDbEntity
  8
0
 62
     0
100
AcDbLine
 10
8.860465
 20
5.023494
 30
0.0
 11
8.860465
 21
5.023494
 31
0.0
  0
LINE
  5
AAF
330
18
100
AcDbEntity
  8
0
 62
     0
100
AcDbLine
 10
8.844844
 20
5.292066999999999
 30
0.0
 11
8.844844
 21
5.292066999999999
 31
0.0
  0
LINE
  5
AB0
330
18
100
AcDbEntity
  8
0
 62
     0
100
AcDbLine
 10
8.914517
 20
5.228224
 30
0.0
 11
8.914517
 21
5.228224
 31
0.0
  0
LINE
  5
AB1
330
18
100
AcDbEntity
  8
0
 62
     0
100
AcDbLine
 10
8.92742
 20
5.216401
 30
0.0
 11
8.92742
 21
5.216401
 31
0.0
  0
LINE
  5
AB2
330
18
100
AcDbEntity
  8
0
 62
     0
100
AcDbLine
 10
8.988319000000001
 20
5.160598
 30
0.0
 11
8.988319000000001
 21
5.160598
 31
0.0
  0
LINE
  5
AB3
330
18
100
AcDbEntity
  8
0
 62
     0
100
AcDbLine
 10
8.981472
 20
5.421131
 30
0.0
 11
8.981472
 21
5.421131
 31
0.0
  0
LINE
  5
AB4
330
18
100
AcDbEntity
  8
0
 62
     0
100
AcDbLine
 10
8.994374000000001
 20
5.409308
 30
0.0
 11
8.994374000000001
 21
5.409308
 31
0.0
  0
LINE
  5
AB5
330
18
100
AcDbEntity
  8
0
 62
     0
100
AcDbLine
 10
9.055273
 20
5.353505
 30
0.0
 11
9.055273
 21
5.353505
 31
0.0
  0
LINE
  5
AB6
330
18
100
AcDbEntity
  8
0
 62
     0
100
AcDbLine
 10
9.124946000000001
 20
5.289661
 30
0.0
 11
9.124946000000001
 21
5.289661
 31
0.0
  0
LINE
  5
AB7
330
18
100
AcDbEntity
  8
0
 62
     0
100
AcDbLine
 10
9.137848
 20
5.277839
 30
0.0
 11
9.137848
 21
5.277839
 31
0.0
  0
LINE
  5
AB8
330
18
100
AcDbEntity
  8
0
 62
     0
100
AcDbLine
 10
9.122228
 20
5.546412
 30
0.0
 11
9.122228
 21
5.546412
 31
0.0
  0
LINE
  5
AB9
330
18
100
AcDbEntity
  8
0
 62
     0
100
AcDbLine
 10
8.710935000000001
 20
4.906253
 30
0.0
 11
8.710935000000001
 21
4.906253
 31
0.0
  0
LINE
  5
ABA
330
18
100
AcDbEntity
  8
0
 62
     0
100
AcDbLine
 10
8.780608000000001
 20
4.84241
 30
0.0
 11
8.780608000000001
 21
4.84241
 31
0.0
  0
LINE
  5
ABB
330
18
100
AcDbEntity
  8
0
 62
     0
100
AcDbLine
 10
8.793510000000001
 20
4.830587
 30
0.0
 11
8.793510000000001
 21
4.830587
 31
0.0
  0
LINE
  5
ABC
330
18
100
AcDbEntity
  8
0
 62
     0
100
AcDbLine
 10
8.643980000000001
 20
4.713346
 30
0.0
 11
8.643980000000001
 21
4.713346
 31
0.0
  0
LINE
  5
ABD
330
18
100
AcDbEntity
  8
0
 62
     0
100
AcDbLine
 10
8.491595
 20
4.441912
 30
0.0
 11
8.491595
 21
4.441912
 31
0.0
  0
LINE
  5
ABE
330
18
100
AcDbEntity
  8
0
 62
     0
100
AcDbLine
 10
8.586003999999999
 20
4.514354
 30
0.0
 11
8.586003999999999
 21
4.514354
 31
0.0
  0
LINE
  5
ABF
330
18
100
AcDbEntity
  8
0
 62
     0
100
AcDbLine
 10
8.676247999999999
 20
4.583601
 30
0.0
 11
8.676247999999999
 21
4.583601
 31
0.0
  0
LINE
  5
AC0
330
18
100
AcDbEntity
  8
0
 62
     0
100
AcDbLine
 10
8.756250999999999
 20
4.783251
 30
0.0
 11
8.756250999999999
 21
4.783251
 31
0.0
  0
LINE
  5
AC1
330
18
100
AcDbEntity
  8
0
 62
     0
100
AcDbLine
 10
8.411592000000001
 20
4.242262
 30
0.0
 11
8.411592000000001
 21
4.242262
 31
0.0
  0
LINE
  5
AC2
330
18
100
AcDbEntity
  8
0
 62
     0
100
AcDbLine
 10
8.496005
 20
4.307034
 30
0.0
 11
8.496005
 21
4.307034
 31
0.0
  0
LINE
  5
AC3
330
18
100
AcDbEntity
  8
0
 62
     0
100
AcDbLine
 10
8.504823
 20
4.382011
 30
0.0
 11
8.504823
 21
4.382011
 31
0.0
  0
LINE
  5
AC4
330
18
100
AcDbEntity
  8
0
 62
     0
100
AcDbLine
 10
8.571797999999999
 20
4.572069
 30
0.0
 11
8.571797999999999
 21
4.572069
 31
0.0
  0
LINE
  5
AC5
330
18
100
AcDbEntity
  8
0
 62
     0
100
AcDbLine
 10
8.628707
 20
4.579561
 30
0.0
 11
8.628707
 21
4.579561
 31
0.0
  0
LINE
  5
AC6
330
18
100
AcDbEntity
  8
0
 62
     0
100
AcDbLine
 10
8.723787
 20
4.592079
 30
0.0
 11
8.723787
 21
4.592079
 31
0.0
  0
LINE
  5
AC7
330
18
100
AcDbEntity
  8
0
 62
     0
100
AcDbLine
 10
8.752591000000001
 20
4.777111
 30
0.0
 11
8.752591000000001
 21
4.777111
 31
0.0
  0
LINE
  5
AC8
330
18
100
AcDbEntity
  8
0
 62
     0
100
AcDbLine
 10
8.607339
 20
4.489183000000001
 30
0.0
 11
8.607339
 21
4.489183000000001
 31
0.0
  0
LINE
  5
AC9
330
18
100
AcDbEntity
  8
0
 62
     0
100
AcDbLine
 10
8.689542999999999
 20
4.576084
 30
0.0
 11
8.689542999999999
 21
4.576084
 31
0.0
  0
LINE
  5
ACA
330
18
100
AcDbEntity
  8
0
 62
     0
100
AcDbLine
 10
8.719061999999999
 20
4.557279
 30
0.0
 11
8.719061999999999
 21
4.557279
 31
0.0
  0
LINE
  5
ACB
330
18
100
AcDbEntity
  8
0
 62
     0
100
AcDbLine
 10
8.528086999999999
 20
4.400401000000001
 30
0.0
 11
8.528086999999999
 21
4.400401000000001
 31
0.0
  0
LINE
  5
ACC
330
18
100
AcDbEntity
  8
0
 62
     0
100
AcDbLine
 10
8.557606
 20
4.381596
 30
0.0
 11
8.557606
 21
4.381596
 31
0.0
  0
LINE
  5
ACD
330
18
100
AcDbEntity
  8
0
 62
     0
100
AcDbLine
 10
8.445883
 20
4.3135
 30
0.0
 11
8.445883
 21
4.3135
 31
0.0
  0
LINE
  5
ACE
330
18
100
AcDbEntity
  8
0
 62
     0
100
AcDbLine
 10
8.510071
 20
4.327532
 30
0.0
 11
8.510071
 21
4.327532
 31
0.0
  0
LINE
  5
ACF
330
18
100
AcDbEntity
  8
0
 62
     0
100
AcDbLine
 10
8.577026
 20
4.520439
 30
0.0
 11
8.577026
 21
4.520439
 31
0.0
  0
LINE
  5
AD0
330
18
100
AcDbEntity
  8
0
 62
     0
100
AcDbLine
 10
8.713653000000001
 20
4.649503
 30
0.0
 11
8.713653000000001
 21
4.649503
 31
0.0
  0
LINE
  5
AD1
330
18
100
AcDbEntity
  8
0
 62
     0
100
AcDbLine
 10
8.726555000000001
 20
4.637680000000001
 30
0.0
 11
8.726555000000001
 21
4.637680000000001
 31
0.0
  0
LINE
  5
AD2
330
18
100
AcDbEntity
  8
0
 62
     0
100
AcDbLine
 10
8.590413999999999
 20
4.379477
 30
0.0
 11
8.590413999999999
 21
4.379477
 31
0.0
  0
LINE
  5
AD3
330
18
100
AcDbEntity
  8
0
 62
     0
100
AcDbLine
 10
8.680657999999999
 20
4.448723
 30
0.0
 11
8.680657999999999
 21
4.448723
 31
0.0
  0
LINE
  5
AD4
330
18
100
AcDbEntity
  8
0
 62
     0
100
AcDbLine
 10
8.416001
 20
4.107384
 30
0.0
 11
8.416001
 21
4.107384
 31
0.0
  0
LINE
  5
AD5
330
18
100
AcDbEntity
  8
0
 62
     0
100
AcDbLine
 10
8.500413999999999
 20
4.172157
 30
0.0
 11
8.500413999999999
 21
4.172157
 31
0.0
  0
LINE
  5
AD6
330
18
100
AcDbEntity
  8
0
 62
     0
100
AcDbLine
 10
8.594823
 20
4.244599
 30
0.0
 11
8.594823
 21
4.244599
 31
0.0
  0
LINE
  5
AD7
330
18
100
AcDbEntity
  8
0
 62
     0
100
AcDbLine
 10
8.476018
 20
4.196978
 30
0.0
 11
8.476018
 21
4.196978
 31
0.0
  0
LINE
  5
AD8
330
18
100
AcDbEntity
  8
0
 62
     0
100
AcDbLine
 10
8.512454
 20
4.201775
 30
0.0
 11
8.512454
 21
4.201775
 31
0.0
  0
LINE
  5
AD9
330
18
100
AcDbEntity
  8
0
 62
     0
100
AcDbLine
 10
8.569362
 20
4.209267
 30
0.0
 11
8.569362
 21
4.209267
 31
0.0
  0
LINE
  5
ADA
330
18
100
AcDbEntity
  8
0
 62
     0
100
AcDbLine
 10
8.599902
 20
4.394528
 30
0.0
 11
8.599902
 21
4.394528
 31
0.0
  0
LINE
  5
ADB
330
18
100
AcDbEntity
  8
0
 62
     0
100
AcDbLine
 10
8.636338
 20
4.399325
 30
0.0
 11
8.636338
 21
4.399325
 31
0.0
  0
LINE
  5
ADC
330
18
100
AcDbEntity
  8
0
 62
     0
100
AcDbLine
 10
8.693247
 20
4.406817
 30
0.0
 11
8.693247
 21
4.406817
 31
0.0
  0
LINE
  5
ADD
330
18
100
AcDbEntity
  8
0
 62
     0
100
AcDbLine
 10
8.584621
 20
4.225114
 30
0.0
 11
8.584621
 21
4.225114
 31
0.0
  0
LINE
  5
ADE
330
18
100
AcDbEntity
  8
0
 62
     0
100
AcDbLine
 10
8.663872999999999
 20
4.313896
 30
0.0
 11
8.663872999999999
 21
4.313896
 31
0.0
  0
LINE
  5
ADF
330
18
100
AcDbEntity
  8
0
 62
     0
100
AcDbLine
 10
8.502416999999999
 20
4.138213
 30
0.0
 11
8.502416999999999
 21
4.138213
 31
0.0
  0
LINE
  5
AE0
330
18
100
AcDbEntity
  8
0
 62
     0
100
AcDbLine
 10
8.443116
 20
4.134625
 30
0.0
 11
8.443116
 21
4.134625
 31
0.0
  0
LINE
  5
AE1
330
18
100
AcDbEntity
  8
0
 62
     0
100
AcDbLine
 10
8.579744
 20
4.263688
 30
0.0
 11
8.579744
 21
4.263688
 31
0.0
  0
LINE
  5
AE2
330
18
100
AcDbEntity
  8
0
 62
     0
100
AcDbLine
 10
8.592646
 20
4.251866000000001
 30
0.0
 11
8.592646
 21
4.251866000000001
 31
0.0
  0
LINE
  5
AE3
330
18
100
AcDbEntity
  8
0
 62
     0
100
AcDbLine
 10
8.646697999999999
 20
4.456596
 30
0.0
 11
8.646697999999999
 21
4.456596
 31
0.0
  0
LINE
  5
AE4
330
18
100
AcDbEntity
  8
0
 62
     0
100
AcDbLine
 10
8.659601
 20
4.444773000000001
 30
0.0
 11
8.659601
 21
4.444773000000001
 31
0.0
  0
LINE
  5
AE5
330
18
100
AcDbEntity
  8
0
 62
     0
100
AcDbLine
 10
8.7205
 20
4.388969
 30
0.0
 11
8.7205
 21
4.388969
 31
0.0
  0
LINE
  5
AE6
330
18
100
AcDbEntity
  8
0
 62
     0
100
AcDbLine
 10
8.330166999999999
 20
3.90326
 30
0.0
 11
8.330166999999999
 21
3.90326
 31
0.0
  0
LINE
  5
AE7
330
18
100
AcDbEntity
  8
0
 62
     0
100
AcDbLine
 10
8.420411
 20
3.972507
 30
0.0
 11
8.420411
 21
3.972507
 31
0.0
  0
LINE
  5
AE8
330
18
100
AcDbEntity
  8
0
 62
     0
100
AcDbLine
 10
7.971102
 20
3.489478
 30
0.0
 11
7.971102
 21
3.489478
 31
0.0
  0
LINE
  5
AE9
330
18
100
AcDbEntity
  8
0
 62
     0
100
AcDbLine
 10
8.155755000000001
 20
3.631168
 30
0.0
 11
8.155755000000001
 21
3.631168
 31
0.0
  0
LINE
  5
AEA
330
18
100
AcDbEntity
  8
0
 62
     0
100
AcDbLine
 10
8.240167999999999
 20
3.69594
 30
0.0
 11
8.240167999999999
 21
3.69594
 31
0.0
  0
LINE
  5
AEB
330
18
100
AcDbEntity
  8
0
 62
     0
100
AcDbLine
 10
8.264685
 20
3.806674
 30
0.0
 11
8.264685
 21
3.806674
 31
0.0
  0
LINE
  5
AEC
330
18
100
AcDbEntity
  8
0
 62
     0
100
AcDbLine
 10
8.321594000000001
 20
3.814167
 30
0.0
 11
8.321594000000001
 21
3.814167
 31
0.0
  0
LINE
  5
AED
330
18
100
AcDbEntity
  8
0
 62
     0
100
AcDbLine
 10
8.445478
 20
4.011717
 30
0.0
 11
8.445478
 21
4.011717
 31
0.0
  0
LINE
  5
AEE
330
18
100
AcDbEntity
  8
0
 62
     0
100
AcDbLine
 10
8.291228
 20
3.854942
 30
0.0
 11
8.291228
 21
3.854942
 31
0.0
  0
LINE
  5
AEF
330
18
100
AcDbEntity
  8
0
 62
     0
100
AcDbLine
 10
8.423164999999999
 20
4.049430999999999
 30
0.0
 11
8.423164999999999
 21
4.049430999999999
 31
0.0
  0
LINE
  5
AF0
330
18
100
AcDbEntity
  8
0
 62
     0
100
AcDbLine
 10
8.452684
 20
4.030625
 30
0.0
 11
8.452684
 21
4.030625
 31
0.0
  0
LINE
  5
AF1
330
18
100
AcDbEntity
  8
0
 62
     0
100
AcDbLine
 10
8.235405
 20
3.816437
 30
0.0
 11
8.235405
 21
3.816437
 31
0.0
  0
LINE
  5
AF2
330
18
100
AcDbEntity
  8
0
 62
     0
100
AcDbLine
 10
8.248308
 20
3.804614
 30
0.0
 11
8.248308
 21
3.804614
 31
0.0
  0
LINE
  5
AF3
330
18
100
AcDbEntity
  8
0
 62
     0
100
AcDbLine
 10
8.376161999999999
 20
3.941717
 30
0.0
 11
8.376161999999999
 21
3.941717
 31
0.0
  0
LINE
  5
AF4
330
18
100
AcDbEntity
  8
0
 62
     0
100
AcDbLine
 10
8.512789
 20
4.070781
 30
0.0
 11
8.512789
 21
4.070781
 31
0.0
  0
LINE
  5
AF5
330
18
100
AcDbEntity
  8
0
 62
     0
100
AcDbLine
 10
8.168450999999999
 20
3.62353
 30
0.0
 11
8.168450999999999
 21
3.62353
 31
0.0
  0
LINE
  5
AF6
330
18
100
AcDbEntity
  8
0
 62
     0
100
AcDbLine
 10
7.970924
 20
3.55027
 30
0.0
 11
7.970924
 21
3.55027
 31
0.0
  0
LINE
  5
AF7
330
18
100
AcDbEntity
  8
0
 62
     0
100
AcDbLine
 10
8.031822999999999
 20
3.494466000000001
 30
0.0
 11
8.031822999999999
 21
3.494466000000001
 31
0.0
  0
LINE
  5
AF8
330
18
100
AcDbEntity
  8
0
 62
     0
100
AcDbLine
 10
6.213971
 20
6.545792
 30
0.0
 11
6.213971
 21
6.545792
 31
0.0
  0
LINE
  5
AF9
330
18
100
AcDbEntity
  8
0
 62
     0
100
AcDbLine
 10
6.348841
 20
6.649280999999999
 30
0.0
 11
6.348841
 21
6.649280999999999
 31
0.0
  0
LINE
  5
AFA
330
18
100
AcDbEntity
  8
0
 62
     0
100
AcDbLine
 10
6.207671
 20
6.738474000000001
 30
0.0
 11
6.207671
 21
6.738474000000001
 31
0.0
  0
LINE
  5
AFB
330
18
100
AcDbEntity
  8
0
 62
     0
100
AcDbLine
 10
6.264053
 20
6.520809
 30
0.0
 11
6.264053
 21
6.520809
 31
0.0
  0
LINE
  5
AFC
330
18
100
AcDbEntity
  8
0
 62
     0
100
AcDbLine
 10
6.316104
 20
6.527662
 30
0.0
 11
6.316104
 21
6.527662
 31
0.0
  0
LINE
  5
AFD
330
18
100
AcDbEntity
  8
0
 62
     0
100
AcDbLine
 10
6.397403
 20
6.538365
 30
0.0
 11
6.397403
 21
6.538365
 31
0.0
  0
LINE
  5
AFE
330
18
100
AcDbEntity
  8
0
 62
     0
100
AcDbLine
 10
6.223905
 20
6.774439
 30
0.0
 11
6.223905
 21
6.774439
 31
0.0
  0
LINE
  5
AFF
330
18
100
AcDbEntity
  8
0
 62
     0
100
AcDbLine
 10
6.185349
 20
6.525945
 30
0.0
 11
6.185349
 21
6.525945
 31
0.0
  0
LINE
  5
B00
330
18
100
AcDbEntity
  8
0
 62
     0
100
AcDbLine
 10
6.227519
 20
6.49908
 30
0.0
 11
6.227519
 21
6.49908
 31
0.0
  0
LINE
  5
B01
330
18
100
AcDbEntity
  8
0
 62
     0
100
AcDbLine
 10
6.298566
 20
6.652777
 30
0.0
 11
6.298566
 21
6.652777
 31
0.0
  0
LINE
  5
B02
330
18
100
AcDbEntity
  8
0
 62
     0
100
AcDbLine
 10
6.203532
 20
6.552564
 30
0.0
 11
6.203532
 21
6.552564
 31
0.0
  0
LINE
  5
B03
330
18
100
AcDbEntity
  8
0
 62
     0
100
AcDbLine
 10
6.221963
 20
6.535675
 30
0.0
 11
6.221963
 21
6.535675
 31
0.0
  0
LINE
  5
B04
330
18
100
AcDbEntity
  8
0
 62
     0
100
AcDbLine
 10
6.504144
 20
6.640332000000001
 30
0.0
 11
6.504144
 21
6.640332000000001
 31
0.0
  0
LINE
  5
B05
330
18
100
AcDbEntity
  8
0
 62
     0
100
AcDbLine
 10
6.522576
 20
6.623442
 30
0.0
 11
6.522576
 21
6.623442
 31
0.0
  0
LINE
  5
B06
330
18
100
AcDbEntity
  8
0
 62
     0
100
AcDbLine
 10
1.80613
 20
4.941180999999999
 30
0.0
 11
1.80613
 21
4.941180999999999
 31
0.0
  0
LINE
  5
B07
330
18
100
AcDbEntity
  8
0
 62
     0
100
AcDbLine
 10
1.382622
 20
5.20876
 30
0.0
 11
1.382622
 21
5.20876
 31
0.0
  0
LINE
  5
B08
330
18
100
AcDbEntity
  8
0
 62
     0
100
AcDbLine
 10
1.81443
 20
4.899344999999999
 30
0.0
 11
1.81443
 21
4.899344999999999
 31
0.0
  0
ENDSEC
  0
SECTION
  2
OBJECTS
  0
DICTIONARY
  5
C
330
0
100
AcDbDictionary
281
     1
  3
ACAD_COLOR
350
B0E
  3
ACAD_GROUP
350
D
  3
ACAD_LAYOUT
350
15
  3
ACAD_MATERIAL
350
B10
  3
ACAD_MLINESTYLE
350
12
  3
ACAD_PLOTSETTINGS
350
14
  3
ACAD_PLOTSTYLENAME
350
E
  3
ACDBHEADERROUNDTRIPXREC
350
B0D
  0
DICTIONARY
  5
B0E
102
{ACAD_REACTORS
330
C
102
}
330
C
100
AcDbDictionary
281
     1
  0
DICTIONARY
  5
D
102
{ACAD_REACTORS
330
C
102
}
330
C
100
AcDbDictionary
281
     1
  0
DICTIONARY
  5
15
102
{ACAD_REACTORS
330
C
102
}
330
C
100
AcDbDictionary
281
     1
  3
Layout1
350
17
  3
Model
350
19
  0
DICTIONARY
  5
B10
102
{ACAD_REACTORS
330
C
102
}
330
C
100
AcDbDictionary
281
     1
  0
DICTIONARY
  5
12
102
{ACAD_REACTORS
330
C
102
}
330
C
100
AcDbDictionary
281
     1
  3
Standard
350
13
  0
DICTIONARY
  5
14
102
{ACAD_REACTORS
330
C
102
}
330
C
100
AcDbDictionary
281
     1
  0
ACDBDICTIONARYWDFLT
  5
E
102
{ACAD_REACTORS
330
C
102
}
330
C
100
AcDbDictionary
281
     1
  3
Normal
350
F
100
AcDbDictionaryWithDefault
340
F
  0
DICTIONARY
  5
B0D
102
{ACAD_REACTORS
330
C
102
}
330
C
100
AcDbDictionary
281
     1
  3
COLORDICT
350
B0F
  3
MATERIALDICT
350
B11
  0
LAYOUT
  5
17
102
{ACAD_REACTORS
330
15
102
}
102
{ACAD_XDICTIONARY
360
B12
102
}
330
15
100
AcDbPlotSettings
  1

  2

  4

  6

 40
0.0
 41
0.0
 42
0.0
 43
0.0
 44
0.0
 45
0.0
 46
0.0
 47
0.0
 48
0.0
 49
0.0
140
0.0
141
0.0
142
1.0
143
1.0
 70
   688
 72
     0
 73
     0
 74
     5
  7

 75
    16
147
1.0
148
0.0
149
0.0
100
AcDbLayout
  1
Layout1
 70
     1
 71
     1
 10
0.0
 20
0.0
 11
12.0
 21
9.0
 12
0.0
 22
0.0
 32
0.0
 14
1.000000000000000E+20
 24
1.000000000000000E+20
 34
1.000000000000000E+20
 15
-1.000000000000000E+20
 25
-1.000000000000000E+20
 35
-1.000000000000000E+20
146
0.0
 13
0.0
 23
0.0
 33
0.0
 16
1.0
 26
0.0
 36
0.0
 17
0.0
 27
1.0
 37
0.0
 76
     0
330
16
  0
LAYOUT
  5
19
102
{ACAD_REACTORS
330
15
102
}
102
{ACAD_XDICTIONARY
360
B14
102
}
330
15
100
AcDbPlotSettings
  1

  2

  4

  6

 40
0.0
 41
0.0
 42
0.0
 43
0.0
 44
0.0
 45
0.0
 46
0.0
 47
0.0
 48
0.0
 49
0.0
140
0.0
141
0.0
142
1.0
143
1.0
 70
  1712
 72
     0
 73
     0
 74
     0
  7

 75
     0
147
1.0
148
0.0
149
0.0
100
AcDbLayout
  1
Model
 70
     1
 71
     0
 10
0.0
 20
0.0
 11
0.0
 21
0.0
 12
0.0
 22
0.0
 32
0.0
 14
0.0
 24
0.0
 34
0.0
 15
0.0
 25
0.0
 35
0.0
146
0.0
 13
0.0
 23
0.0
 33
0.0
 16
1.0
 26
0.0
 36
0.0
 17
0.0
 27
1.0
 37
0.0
 76
     0
330
18
  0
MLINESTYLE
  5
13
102
{ACAD_REACTORS
330
12
102
}
330
12
100
AcDbMlineStyle
  2
Standard
 70
     0
  3

 62
   256
 51
90.0
 52
90.0
 71
     2
 49
0.5
 62
   256
  6
BYLAYER
 49
-0.5
 62
   256
  6
BYLAYER
  0
ACDBPLACEHOLDER
  5
F
102
{ACAD_REACTORS
330
E
102
}
330
E
  0
XRECORD
  5
B0F
102
{ACAD_REACTORS
330
B0D
102
}
330
B0D
100
AcDbXrecord
340
B0E
  0
XRECORD
  5
B11
102
{ACAD_REACTORS
330
B0D
102
}
330
B0D
100
AcDbXrecord
340
B10
  0
DICTIONARY
  5
B12
330
17
100
AcDbDictionary
280
     1
281
     1
  3
ACAD_XREC_ROUNDTRIP
360
B13
  0
DICTIONARY
  5
B14
330
19
100
AcDbDictionary
280
     1
281
     1
  3
ACAD_XREC_ROUNDTRIP
360
B15
  0
XRECORD
  5
B13
102
{ACAD_REACTORS
330
B12
102
}
330
B12
100
AcDbXrecord
102
SHADEPLOT
 70
     0
102
SHADEPLOTRESLEVEL
 70
     0
102
SHADEPLOTCUSTOMDPI
 70
     0
  0
XRECORD
  5
B15
102
{ACAD_REACTORS
330
B14
102
}
330
B14
100
AcDbXrecord
102
SHADEPLOT
 70
     0
102
SHADEPLOTRESLEVEL
 70
     0
102
SHADEPLOTCUSTOMDPI
 70
     0
  0
ENDSEC
  0
EOF
