  0
SECTION
  2
HEADER
  9
$ACADVER
  1
AC1015
  9
$ACADMAINTVER
 70
     6
  9
$DWGCODEPAGE
  3
ISO8859-1
  9
$INSBASE
 10
0.0
 20
0.0
 30
0.0
  9
$EXTMIN
 10
0.8055770000000001
 20
0.503563
 30
0.0
  9
$EXTMAX
 10
7.437651285714284
 20
10.62543849228202
 30
0.0
  9
$LIMMIN
 10
0.0
 20
0.0
  9
$LIMMAX
 10
8.5
 20
11.0
  9
$ORTHOMODE
 70
     1
  9
$REGENMODE
 70
     0
  9
$FILLMODE
 70
     1
  9
$QTEXTMODE
 70
     0
  9
$MIRRTEXT
 70
     1
  9
$LTSCALE
 40
0.5
  9
$ATTMODE
 70
     1
  9
$TEXTSIZE
 40
0.18
  9
$TRACEWID
 40
0.05
  9
$TEXTSTYLE
  7
STANDARD
  9
$CLAYER
  8
0
  9
$CELTYPE
  6
ByLayer
  9
$CECOLOR
 62
   256
  9
$CELTSCALE
 40
1.0
  9
$DISPSILH
 70
     0
  9
$DIMSCALE
 40
1.0
  9
$DIMASZ
 40
0.2
  9
$DIMEXO
 40
0.0625
  9
$DIMDLI
 40
0.38
  9
$DIMRND
 40
0.0
  9
$DIMDLE
 40
0.0
  9
$DIMEXE
 40
0.075
  9
$DIMTP
 40
0.0
  9
$DIMTM
 40
0.0
  9
$DIMTXT
 40
0.1
  9
$DIMCEN
 40
0.09
  9
$DIMTSZ
 40
0.0
  9
$DIMTOL
 70
     0
  9
$DIMLIM
 70
     0
  9
$DIMTIH
 70
     0
  9
$DIMTOH
 70
     0
  9
$DIMSE1
 70
     0
  9
$DIMSE2
 70
     0
  9
$DIMTAD
 70
     1
  9
$DIMZIN
 70
     0
  9
$DIMBLK
  1

  9
$DIMASO
 70
     0
  9
$DIMSHO
 70
     1
  9
$DIMPOST
  1

  9
$DIMAPOST
  1

  9
$DIMALT
 70
     0
  9
$DIMALTD
 70
     2
  9
$DIMALTF
 40
25.4
  9
$DIMLFAC
 40
1.0
  9
$DIMTOFL
 70
     0
  9
$DIMTVP
 40
0.0
  9
$DIMTIX
 70
     0
  9
$DIMSOXD
 70
     0
  9
$DIMSAH
 70
     0
  9
$DIMBLK1
  1

  9
$DIMBLK2
  1

  9
$DIMSTYLE
  2
Standard
  9
$DIMCLRD
 70
     0
  9
$DIMCLRE
 70
     0
  9
$DIMCLRT
 70
     0
  9
$DIMTFAC
 40
1.0
  9
$DIMGAP
 40
0.09
  9
$DIMJUST
 70
     0
  9
$DIMSD1
 70
     0
  9
$DIMSD2
 70
     0
  9
$DIMTOLJ
 70
     1
  9
$DIMTZIN
 70
     0
  9
$DIMALTZ
 70
     0
  9
$DIMALTTZ
 70
     0
  9
$DIMUPT
 70
     0
  9
$DIMDEC
 70
     4
  9
$DIMTDEC
 70
     4
  9
$DIMALTU
 70
     2
  9
$DIMALTTD
 70
     2
  9
$DIMTXSTY
  7
STANDARD
  9
$DIMAUNIT
 70
     0
  9
$DIMADEC
 70
     0
  9
$DIMALTRND
 40
0.0
  9
$DIMAZIN
 70
     0
  9
$DIMDSEP
 70
    46
  9
$DIMATFIT
 70
     3
  9
$DIMFRAC
 70
     0
  9
$DIMLDRBLK
  1

  9
$DIMLUNIT
 70
     2
  9
$DIMLWD
 70
    -2
  9
$DIMLWE
 70
    -2
  9
$DIMTMOVE
 70
     0
  9
$LUNITS
 70
     2
  9
$LUPREC
 70
     4
  9
$SKETCHINC
 40
0.1
  9
$FILLETRAD
 40
0.0
  9
$AUNITS
 70
     0
  9
$AUPREC
 70
     0
  9
$MENU
  1
acad
  9
$ELEVATION
 40
0.0
  9
$PELEVATION
 40
0.0
  9
$THICKNESS
 40
0.0
  9
$LIMCHECK
 70
     0
  9
$CHAMFERA
 40
0.0
  9
$CHAMFERB
 40
0.0
  9
$CHAMFERC
 40
1.0
  9
$CHAMFERD
 40
0.0
  9
$SKPOLY
 70
     0
  9
$TDCREATE
 40
2453955.560975625
  9
$TDUCREATE
 40
2453955.894308958
  9
$TDUPDATE
 40
2453955.602642303
  9
$TDUUPDATE
 40
2453955.89430897
  9
$TDINDWG
 40
0.0000000116
  9
$TDUSRTIMER
 40
0.0000000116
  9
$USRTIMER
 70
     1
  9
$ANGBASE
 50
0.0
  9
$ANGDIR
 70
     0
  9
$PDMODE
 70
     0
  9
$PDSIZE
 40
0.0
  9
$PLINEWID
 40
0.0
  9
$SPLFRAME
 70
     0
  9
$SPLINETYPE
 70
     6
  9
$SPLINESEGS
 70
     8
  9
$HANDSEED
  5
487
  9
$SURFTAB1
 70
     6
  9
$SURFTAB2
 70
     6
  9
$SURFTYPE
 70
     6
  9
$SURFU
 70
     6
  9
$SURFV
 70
     6
  9
$UCSBASE
  2

  9
$UCSNAME
  2

  9
$UCSORG
 10
0.0
 20
0.0
 30
0.0
  9
$UCSXDIR
 10
1.0
 20
0.0
 30
0.0
  9
$UCSYDIR
 10
0.0
 20
1.0
 30
0.0
  9
$UCSORTHOREF
  2

  9
$UCSORTHOVIEW
 70
     0
  9
$UCSORGTOP
 10
0.0
 20
0.0
 30
0.0
  9
$UCSORGBOTTOM
 10
0.0
 20
0.0
 30
0.0
  9
$UCSORGLEFT
 10
0.0
 20
0.0
 30
0.0
  9
$UCSORGRIGHT
 10
0.0
 20
0.0
 30
0.0
  9
$UCSORGFRONT
 10
0.0
 20
0.0
 30
0.0
  9
$UCSORGBACK
 10
0.0
 20
0.0
 30
0.0
  9
$PUCSBASE
  2

  9
$PUCSNAME
  2

  9
$PUCSORG
 10
0.0
 20
0.0
 30
0.0
  9
$PUCSXDIR
 10
1.0
 20
0.0
 30
0.0
  9
$PUCSYDIR
 10
0.0
 20
1.0
 30
0.0
  9
$PUCSORTHOREF
  2

  9
$PUCSORTHOVIEW
 70
     0
  9
$PUCSORGTOP
 10
0.0
 20
0.0
 30
0.0
  9
$PUCSORGBOTTOM
 10
0.0
 20
0.0
 30
0.0
  9
$PUCSORGLEFT
 10
0.0
 20
0.0
 30
0.0
  9
$PUCSORGRIGHT
 10
0.0
 20
0.0
 30
0.0
  9
$PUCSORGFRONT
 10
0.0
 20
0.0
 30
0.0
  9
$PUCSORGBACK
 10
0.0
 20
0.0
 30
0.0
  9
$USERI1
 70
     0
  9
$USERI2
 70
     0
  9
$USERI3
 70
     0
  9
$USERI4
 70
     0
  9
$USERI5
 70
     0
  9
$USERR1
 40
0.0
  9
$USERR2
 40
0.0
  9
$USERR3
 40
0.0
  9
$USERR4
 40
0.0
  9
$USERR5
 40
0.0
  9
$WORLDVIEW
 70
     1
  9
$SHADEDGE
 70
     3
  9
$SHADEDIF
 70
    70
  9
$TILEMODE
 70
     1
  9
$MAXACTVP
 70
    16
  9
$PINSBASE
 10
0.0
 20
0.0
 30
0.0
  9
$PLIMCHECK
 70
     0
  9
$PEXTMIN
 10
1.000000000000000E+20
 20
1.000000000000000E+20
 30
1.000000000000000E+20
  9
$PEXTMAX
 10
-1.000000000000000E+20
 20
-1.000000000000000E+20
 30
-1.000000000000000E+20
  9
$PLIMMIN
 10
0.0
 20
0.0
  9
$PLIMMAX
 10
12.0
 20
9.0
  9
$UNITMODE
 70
     0
  9
$VISRETAIN
 70
     0
  9
$PLINEGEN
 70
     0
  9
$PSLTSCALE
 70
     1
  9
$TREEDEPTH
 70
  3020
  9
$CMLSTYLE
  2
Standard
  9
$CMLJUST
 70
     0
  9
$CMLSCALE
 40
1.0
  9
$PROXYGRAPHICS
 70
     1
  9
$MEASUREMENT
 70
     0
  9
$CELWEIGHT
370
    -1
  9
$ENDCAPS
280
     0
  9
$JOINSTYLE
280
     0
  9
$LWDISPLAY
290
     0
  9
$INSUNITS
 70
     1
  9
$HYPERLINKBASE
  1

  9
$STYLESHEET
  1

  9
$XEDIT
290
     1
  9
$CEPSNTYPE
380
     0
  9
$PSTYLEMODE
290
     0
  9
$FINGERPRINTGUID
  2
{FAEB1C30-E019-11D5-929B-00C0DF256EC4}
  9
$VERSIONGUID
  2
{FAEB1C32-E019-11D5-929B-00C0DF256EC4}
  9
$EXTNAMES
290
     1
  9
$PSVPSCALE
 40
0.0
  9
$OLESTARTUP
290
     0
  0
ENDSEC
  0
SECTION
  2
CLASSES
  0
CLASS
  1
ACDBDICTIONARYWDFLT
  2
AcDbDictionaryWithDefault
  3
AutoCAD 2000
 90
        0
280
     0
281
     0
  0
CLASS
  1
ACDBPLACEHOLDER
  2
AcDbPlaceHolder
  3
ObjectDBX Classes
 90
        0
280
     0
281
     0
  0
CLASS
  1
LAYOUT
  2
AcDbLayout
  3
ObjectDBX Classes
 90
        0
280
     0
281
     0
  0
ENDSEC
  0
SECTION
  2
TABLES
  0
TABLE
  2
VPORT
  5
8
330
0
100
AcDbSymbolTable
 70
     2
  0
VPORT
  5
1F
330
8
100
AcDbSymbolTableRecord
100
AcDbViewportTableRecord
  2
*ACTIVE
 70
     0
 10
0.0
 20
0.0
 11
1.0
 21
1.0
 12
7.630750605326877
 22
5.5
 13
0.0
 23
0.0
 14
1.0
 24
1.0
 15
0.0
 25
0.0
 16
0.0
 26
0.0
 36
1.0
 17
0.0
 27
0.0
 37
0.0
 40
11.0
 41
0.7207678883071553
 42
50.0
 43
0.0
 44
0.0
 50
0.0
 51
0.0
 71
     0
 72
  2000
 73
     1
 74
     0
 75
     0
 76
     0
 77
     0
 78
     0
281
     0
 65
     1
110
0.0
120
0.0
130
0.0
111
1.0
121
0.0
131
0.0
112
0.0
122
1.0
132
0.0
 79
     0
146
0.0
  0
ENDTAB
  0
TABLE
  2
LTYPE
  5
5
330
0
100
AcDbSymbolTable
 70
     2
  0
LTYPE
  5
10
330
5
100
AcDbSymbolTableRecord
100
AcDbLinetypeTableRecord
  2
ByBlock
 70
     0
  3

 72
    65
 73
     0
 40
0.0
  0
LTYPE
  5
11
330
5
100
AcDbSymbolTableRecord
100
AcDbLinetypeTableRecord
  2
ByLayer
 70
     0
  3

 72
    65
 73
     0
 40
0.0
  0
LTYPE
  5
1B
330
5
100
AcDbSymbolTableRecord
100
AcDbLinetypeTableRecord
  2
CONTINUOUS
 70
     0
  3
Solid line
 72
    65
 73
     0
 40
0.0
  0
LTYPE
  5
1C
330
5
100
AcDbSymbolTableRecord
100
AcDbLinetypeTableRecord
  2
DASHED2
 70
     0
  3
_ _ _ _ _ _ _ _ _ _ _ _ _ _ _ _ _ _ _ _ _ _ _ _
 72
    65
 73
     2
 40
0.375
 49
0.25
 74
     0
 49
-0.125
 74
     0
  0
ENDTAB
  0
TABLE
  2
LAYER
  5
2
330
0
100
AcDbSymbolTable
 70
     1
  0
LAYER
  5
1D
330
2
100
AcDbSymbolTableRecord
100
AcDbLayerTableRecord
  2
0
 70
     0
 62
     7
  6
CONTINUOUS
370
    -3
390
F
  0
ENDTAB
  0
TABLE
  2
STYLE
  5
3
330
0
100
AcDbSymbolTable
 70
     1
  0
STYLE
  5
22
330
3
100
AcDbSymbolTableRecord
100
AcDbTextStyleTableRecord
  2
STANDARD
 70
     0
 40
0.0
 41
0.8
 50
0.0
 71
     0
 42
0.18
  3
ROMANS.shx
  4

  0
ENDTAB
  0
TABLE
  2
VIEW
  5
6
330
0
100
AcDbSymbolTable
 70
     1
  0
VIEW
  5
21
330
6
100
AcDbSymbolTableRecord
100
AcDbViewTableRecord
  2
1
 70
     0
 40
11.0
 10
7.225941000000001
 20
5.5
 41
14.451883
 11
0.0
 21
0.0
 31
1.0
 12
0.0
 22
0.0
 32
0.0
 42
50.0
 43
0.0
 44
0.0
 50
0.0
 71
     0
281
     0
 72
     0
  0
ENDTAB
  0
TABLE
  2
UCS
  5
7
330
0
100
AcDbSymbolTable
 70
     0
  0
ENDTAB
  0
TABLE
  2
APPID
  5
9
330
0
100
AcDbSymbolTable
 70
     1
  0
APPID
  5
20
330
9
100
AcDbSymbolTableRecord
100
AcDbRegAppTableRecord
  2
ACAD
 70
     0
  0
ENDTAB
  0
TABLE
  2
DIMSTYLE
  5
A
330
0
100
AcDbSymbolTable
 70
     1
100
AcDbDimStyleTable
  0
DIMSTYLE
105
23
330
A
100
AcDbSymbolTableRecord
100
AcDbDimStyleTableRecord
  2
Standard
 70
     0
  3

  4

340
22
  0
ENDTAB
  0
TABLE
  2
BLOCK_RECORD
  5
1
330
0
100
AcDbSymbolTable
 70
     0
  0
BLOCK_RECORD
  5
18
330
1
100
AcDbSymbolTableRecord
100
AcDbBlockTableRecord
  2
*Model_Space
340
19
  0
BLOCK_RECORD
  5
16
330
1
100
AcDbSymbolTableRecord
100
AcDbBlockTableRecord
  2
*Paper_Space
340
17
  0
ENDTAB
  0
ENDSEC
  0
SECTION
  2
BLOCKS
  0
BLOCK
  5
47C
330
18
100
AcDbEntity
  8
0
100
AcDbBlockBegin
  2
*Model_Space
 70
     0
 10
0.0
 20
0.0
 30
0.0
  3
*Model_Space
  1

  4

  0
ENDBLK
  5
47D
330
18
100
AcDbEntity
  8
0
100
AcDbBlockEnd
  0
BLOCK
  5
47A
330
16
100
AcDbEntity
 67
     1
  8
0
100
AcDbBlockBegin
  2
*Paper_Space
 70
     0
 10
0.0
 20
0.0
 30
0.0
  3
*Paper_Space
  1

  4

  0
ENDBLK
  5
47B
330
16
100
AcDbEntity
 67
     1
  8
0
100
AcDbBlockEnd
  0
ENDSEC
  0
SECTION
  2
ENTITIES
  0
LINE
  5
24
330
18
100
AcDbEntity
  8
0
100
AcDbLine
 10
1.690867
 20
1.915941
 30
0.0
 11
1.690867
 21
2.775475
 31
0.0
  0
LINE
  5
25
330
18
100
AcDbEntity
  8
0
100
AcDbLine
 10
1.690867
 20
1.915941
 30
0.0
 11
1.984375
 21
1.915941
 31
0.0
  0
LINE
  5
26
330
18
100
AcDbEntity
  8
0
100
AcDbLine
 10
6.452887000000001
 20
1.915941
 30
0.0
 11
6.452887000000001
 21
5.364372
 31
0.0
  0
LINE
  5
27
330
18
100
AcDbEntity
  8
0
100
AcDbLine
 10
5.416028
 20
1.915941
 30
0.0
 11
5.416028
 21
2.757927
 31
0.0
  0
LINE
  5
28
330
18
100
AcDbEntity
  8
0
100
AcDbLine
 10
4.744496
 20
1.915941
 30
0.0
 11
4.744496
 21
2.992793
 31
0.0
  0
LINE
  5
29
330
18
100
AcDbEntity
  8
0
100
AcDbLine
 10
4.744496
 20
2.992793
 30
0.0
 11
2.742442
 21
2.992793
 31
0.0
  0
LINE
  5
2A
330
18
100
AcDbEntity
  8
0
100
AcDbLine
 10
2.742442
 20
2.992793
 30
0.0
 11
2.742442
 21
6.225941000000001
 31
0.0
  0
LINE
  5
2B
330
18
100
AcDbEntity
  8
0
100
AcDbLine
 10
5.416028
 20
1.915941
 30
0.0
 11
6.452887000000001
 21
1.915941
 31
0.0
  0
LINE
  5
2C
330
18
100
AcDbEntity
  8
0
100
AcDbLine
 10
1.534151
 20
6.584116000000001
 30
0.0
 11
2.414322
 21
6.323207
 31
0.0
  0
LINE
  5
2D
330
18
100
AcDbEntity
  8
0
100
AcDbLine
 10
5.350741
 20
10.44744
 30
0.0
 11
5.704225
 21
10.338239
 31
0.0
  0
LINE
  5
2E
330
18
100
AcDbEntity
  8
0
100
AcDbLine
 10
5.212663
 20
5.364372
 30
0.0
 11
5.63349
 21
5.364372
 31
0.0
  0
LINE
  5
2F
330
18
100
AcDbEntity
  8
0
100
AcDbLine
 10
2.414322
 20
6.323207
 30
0.0
 11
2.488475
 21
6.373825
 31
0.0
  0
LINE
  5
30
330
18
100
AcDbEntity
  8
0
100
AcDbLine
 10
2.488475
 20
6.373825
 30
0.0
 11
2.544685
 21
6.229714
 31
0.0
  0
LINE
  5
31
330
18
100
AcDbEntity
  8
0
100
AcDbLine
 10
2.544685
 20
6.229714
 30
0.0
 11
2.596468
 21
6.269213
 31
0.0
  0
LINE
  5
32
330
18
100
AcDbEntity
  8
0
100
AcDbLine
 10
2.596468
 20
6.269213
 30
0.0
 11
2.867102
 21
6.188988
 31
0.0
  0
LINE
  5
33
330
18
100
AcDbEntity
  8
0
100
AcDbLine
 10
7.063947
 20
6.181214
 30
0.0
 11
6.564544000000001
 21
6.181214
 31
0.0
  0
LINE
  5
34
330
18
100
AcDbEntity
  8
0
100
AcDbLine
 10
5.63349
 20
5.364372
 30
0.0
 11
5.697137000000001
 21
5.454962
 31
0.0
  0
LINE
  5
35
330
18
100
AcDbEntity
  8
0
100
AcDbLine
 10
5.697137000000001
 20
5.454962
 30
0.0
 11
5.777444999999999
 21
5.240793
 31
0.0
  0
LINE
  5
36
330
18
100
AcDbEntity
  8
0
100
AcDbLine
 10
5.777444999999999
 20
5.240793
 30
0.0
 11
5.849561000000001
 21
5.364372
 31
0.0
  0
LINE
  5
37
330
18
100
AcDbEntity
  8
0
100
AcDbLine
 10
5.600287000000001
 20
6.181214
 30
0.0
 11
5.666238
 21
6.317938
 31
0.0
  0
LINE
  5
38
330
18
100
AcDbEntity
  8
0
100
AcDbLine
 10
5.666238
 20
6.317938
 30
0.0
 11
5.808619
 21
6.102829
 31
0.0
  0
LINE
  5
39
330
18
100
AcDbEntity
  8
0
100
AcDbLine
 10
5.808619
 20
6.102829
 30
0.0
 11
5.858190000000001
 21
6.181214
 31
0.0
  0
LINE
  5
3A
330
18
100
AcDbEntity
  8
0
100
AcDbLine
 10
5.849561000000001
 20
5.364372
 30
0.0
 11
6.515314
 21
5.364372
 31
0.0
  0
LINE
  5
3B
330
18
100
AcDbEntity
  8
0
100
AcDbLine
 10
5.600287000000001
 20
6.181214
 30
0.0
 11
5.238858000000001
 21
6.181214
 31
0.0
  0
LINE
  5
3C
330
18
100
AcDbEntity
  8
0
100
AcDbLine
 10
5.416028
 20
6.181214
 30
0.0
 11
5.416028
 21
7.754114
 31
0.0
  0
LINE
  5
3D
330
18
100
AcDbEntity
  8
0
100
AcDbLine
 10
6.452887000000001
 20
6.181214
 30
0.0
 11
6.452887000000001
 21
7.392258
 31
0.0
  0
LINE
  5
3E
330
18
100
AcDbEntity
  8
0
100
AcDbLine
 10
5.704225
 20
10.338239
 30
0.0
 11
5.777304
 21
10.38179
 31
0.0
  0
LINE
  5
3F
330
18
100
AcDbEntity
  8
0
100
AcDbLine
 10
5.777304
 20
10.38179
 30
0.0
 11
5.816503
 21
10.228651
 31
0.0
  0
LINE
  5
40
330
18
100
AcDbEntity
  8
0
100
AcDbLine
 10
5.816503
 20
10.228651
 30
0.0
 11
5.892435
 21
10.280096
 31
0.0
  0
LINE
  5
41
330
18
100
AcDbEntity
  8
0
100
AcDbLine
 10
5.892435
 20
10.280096
 30
0.0
 11
6.515314
 21
10.087671
 31
0.0
  0
LINE
  5
42
330
18
100
AcDbEntity
  8
0
100
AcDbLine
 10
6.564544000000001
 20
5.364372
 30
0.0
 11
7.063947
 21
5.364372
 31
0.0
  0
LINE
  5
43
330
18
100
AcDbEntity
  8
0
100
AcDbLine
 10
6.515314
 20
6.181214
 30
0.0
 11
5.858190000000001
 21
6.181214
 31
0.0
  0
LINE
  5
44
330
18
100
AcDbEntity
  8
0
  6
DASHED2
100
AcDbLine
 10
5.928866
 20
2.216478
 30
0.0
 11
5.928866
 21
2.899367
 31
0.0
  0
LINE
  5
45
330
18
100
AcDbEntity
  8
0
  6
DASHED2
100
AcDbLine
 10
6.028866000000001
 20
2.216478
 30
0.0
 11
6.028866000000001
 21
2.999367
 31
0.0
  0
LINE
  5
46
330
18
100
AcDbEntity
  8
0
  6
DASHED2
100
AcDbLine
 10
4.53274
 20
2.501024
 30
0.0
 11
4.53274
 21
2.401024
 31
0.0
  0
LINE
  5
47
330
18
100
AcDbEntity
  8
0
  6
DASHED2
100
AcDbLine
 10
4.53274
 20
2.501024
 30
0.0
 11
2.684643
 21
2.501024
 31
0.0
  0
ARC
  5
48
330
18
100
AcDbEntity
  8
0
  6
DASHED2
100
AcDbCircle
 10
2.684643
 20
2.901024
 30
0.0
 40
0.4
100
AcDbArc
 50
180.0
 51
270.0
  0
LINE
  5
49
330
18
100
AcDbEntity
  8
0
100
AcDbLine
 10
2.284643
 20
2.901024
 30
0.0
 11
2.284643
 21
2.980305
 31
0.0
  0
LINE
  5
4A
330
18
100
AcDbEntity
  8
0
  6
DASHED2
100
AcDbLine
 10
4.53274
 20
2.401024
 30
0.0
 11
2.684643
 21
2.401024
 31
0.0
  0
ARC
  5
4B
330
18
100
AcDbEntity
  8
0
  6
DASHED2
100
AcDbCircle
 10
2.684643
 20
2.901024
 30
0.0
 40
0.5
100
AcDbArc
 50
182.327541
 51
270.0
  0
LINE
  5
4C
330
18
100
AcDbEntity
  8
0
  6
DASHED2
100
AcDbLine
 10
2.184643
 20
3.052677
 30
0.0
 11
2.184643
 21
6.391290000000001
 31
0.0
  0
LINE
  5
4D
330
18
100
AcDbEntity
  8
0
  6
DASHED2
100
AcDbLine
 10
6.028866000000001
 20
2.216478
 30
0.0
 11
5.928866
 21
2.216478
 31
0.0
  0
CIRCLE
  5
4E
330
18
100
AcDbEntity
  8
0
100
AcDbCircle
 10
2.010499
 20
2.792169
 30
0.0
 40
0.061071
  0
LINE
  5
4F
330
18
100
AcDbEntity
  8
0
  6
DASHED2
100
AcDbLine
 10
1.966908
 20
2.834942
 30
0.0
 11
2.296497
 21
3.164531
 31
0.0
  0
LINE
  5
50
330
18
100
AcDbEntity
  8
0
  6
DASHED2
100
AcDbLine
 10
2.049567
 20
2.745229
 30
0.0
 11
2.382683
 21
3.078345
 31
0.0
  0
ARC
  5
51
330
18
100
AcDbEntity
  8
0
  6
DASHED2
100
AcDbCircle
 10
2.33959
 20
3.121438
 30
0.0
 40
0.060943
100
AcDbArc
 50
315.0
 51
135.0
  0
LINE
  5
52
330
18
100
AcDbEntity
  8
0
  6
DASHED2
100
AcDbLine
 10
2.284643
 20
3.152677
 30
0.0
 11
2.284643
 21
6.361647000000001
 31
0.0
  0
LINE
  5
53
330
18
100
AcDbEntity
  8
0
  6
DASHED2
100
AcDbLine
 10
5.774728
 20
2.745229
 30
0.0
 11
6.107844
 21
3.078345
 31
0.0
  0
ARC
  5
54
330
18
100
AcDbEntity
  8
0
  6
DASHED2
100
AcDbCircle
 10
6.064751
 20
3.121438
 30
0.0
 40
0.060943
100
AcDbArc
 50
315.0
 51
135.0
  0
LINE
  5
55
330
18
100
AcDbEntity
  8
0
  6
DASHED2
100
AcDbLine
 10
5.692069
 20
2.834942
 30
0.0
 11
6.021658
 21
3.164531
 31
0.0
  0
CIRCLE
  5
56
330
18
100
AcDbEntity
  8
0
100
AcDbCircle
 10
5.73566
 20
2.792169
 30
0.0
 40
0.061071
  0
LINE
  5
57
330
18
100
AcDbEntity
  8
0
  6
DASHED2
100
AcDbLine
 10
5.928866
 20
3.071739
 30
0.0
 11
5.928866
 21
5.364372
 31
0.0
  0
LINE
  5
58
330
18
100
AcDbEntity
  8
0
  6
DASHED2
100
AcDbLine
 10
6.028866000000001
 20
3.170695
 30
0.0
 11
6.028866000000001
 21
5.364372
 31
0.0
  0
CIRCLE
  5
59
330
18
100
AcDbEntity
  8
0
100
AcDbCircle
 10
5.73566
 20
8.556621
 30
0.0
 40
0.061071
  0
LINE
  5
5A
330
18
100
AcDbEntity
  8
0
  6
DASHED2
100
AcDbLine
 10
5.692069
 20
8.513847999999999
 30
0.0
 11
6.021658
 21
8.184258999999999
 31
0.0
  0
ARC
  5
5B
330
18
100
AcDbEntity
  8
0
  6
DASHED2
100
AcDbCircle
 10
6.064751
 20
8.227352
 30
0.0
 40
0.060943
100
AcDbArc
 50
225.0
 51
45.0
  0
LINE
  5
5C
330
18
100
AcDbEntity
  8
0
  6
DASHED2
100
AcDbLine
 10
5.774728
 20
8.603561000000001
 30
0.0
 11
6.107844
 21
8.270445000000001
 31
0.0
  0
LINE
  5
5D
330
18
100
AcDbEntity
  8
0
  6
DASHED2
100
AcDbLine
 10
5.928866
 20
8.449423
 30
0.0
 11
5.928866
 21
10.268841
 31
0.0
  0
LINE
  5
5E
330
18
100
AcDbEntity
  8
0
  6
DASHED2
100
AcDbLine
 10
6.028866000000001
 20
8.349423
 30
0.0
 11
6.028866000000001
 21
10.237948
 31
0.0
  0
ARC
  5
5F
330
18
100
AcDbEntity
  8
0
100
AcDbCircle
 10
2.259643
 20
6.772013
 30
0.0
 40
0.030838
100
AcDbArc
 50
215.837532
 51
324.162468
  0
ARC
  5
60
330
18
100
AcDbEntity
  8
0
100
AcDbCircle
 10
2.209643
 20
6.735902
 30
0.0
 40
0.030838
100
AcDbArc
 50
35.837532
 51
144.162468
  0
ARC
  5
61
330
18
100
AcDbEntity
  8
0
100
AcDbCircle
 10
2.259643
 20
6.735902
 30
0.0
 40
0.030838
100
AcDbArc
 50
35.837532
 51
144.162468
  0
ARC
  5
62
330
18
100
AcDbEntity
  8
0
100
AcDbCircle
 10
6.003866
 20
5.534227
 30
0.0
 40
0.030838
100
AcDbArc
 50
35.837532
 51
144.162468
  0
ARC
  5
63
330
18
100
AcDbEntity
  8
0
100
AcDbCircle
 10
6.003866
 20
5.570338
 30
0.0
 40
0.030838
100
AcDbArc
 50
215.837532
 51
324.162468
  0
ARC
  5
64
330
18
100
AcDbEntity
  8
0
100
AcDbCircle
 10
5.953866000000001
 20
5.534227
 30
0.0
 40
0.030838
100
AcDbArc
 50
35.837532
 51
144.162468
  0
LINE
  5
65
330
18
100
AcDbEntity
  8
0
100
AcDbLine
 10
5.928866
 20
6.092008
 30
0.0
 11
5.928866
 21
6.181214
 31
0.0
  0
LINE
  5
66
330
18
100
AcDbEntity
  8
0
100
AcDbLine
 10
6.028866000000001
 20
6.092008
 30
0.0
 11
6.028866000000001
 21
6.181214
 31
0.0
  0
ARC
  5
67
330
18
100
AcDbEntity
  8
0
100
AcDbCircle
 10
5.953866000000001
 20
10.59515
 30
0.0
 40
0.030838
100
AcDbArc
 50
35.837532
 51
144.162468
  0
ARC
  5
68
330
18
100
AcDbEntity
  8
0
100
AcDbCircle
 10
6.003866
 20
10.631261
 30
0.0
 40
0.030838
100
AcDbArc
 50
215.837532
 51
324.162468
  0
ARC
  5
69
330
18
100
AcDbEntity
  8
0
100
AcDbCircle
 10
6.003866
 20
10.59515
 30
0.0
 40
0.030838
100
AcDbArc
 50
35.837532
 51
144.162468
  0
ARC
  5
6A
330
18
100
AcDbEntity
  8
0
100
AcDbCircle
 10
6.003866
 20
6.110064
 30
0.0
 40
0.030838
100
AcDbArc
 50
215.837532
 51
324.162468
  0
ARC
  5
6B
330
18
100
AcDbEntity
  8
0
100
AcDbCircle
 10
5.953866000000001
 20
6.073953
 30
0.0
 40
0.030838
100
AcDbArc
 50
35.837532
 51
144.162468
  0
ARC
  5
6C
330
18
100
AcDbEntity
  8
0
100
AcDbCircle
 10
5.953866000000001
 20
6.110064
 30
0.0
 40
0.030838
100
AcDbArc
 50
215.837532
 51
324.162468
  0
LINE
  5
6D
330
18
100
AcDbEntity
  8
0
100
AcDbLine
 10
2.184643
 20
6.391290000000001
 30
0.0
 11
2.184643
 21
6.753957000000001
 31
0.0
  0
LINE
  5
6E
330
18
100
AcDbEntity
  8
0
100
AcDbLine
 10
2.284643
 20
6.361647000000001
 30
0.0
 11
2.284643
 21
6.753957000000001
 31
0.0
  0
LINE
  5
6F
330
18
100
AcDbEntity
  8
0
100
AcDbLine
 10
5.928866
 20
10.268841
 30
0.0
 11
5.928866
 21
10.613205
 31
0.0
  0
LINE
  5
70
330
18
100
AcDbEntity
  8
0
100
AcDbLine
 10
6.028866000000001
 20
10.237948
 30
0.0
 11
6.028866000000001
 21
10.613205
 31
0.0
  0
LINE
  5
71
330
18
100
AcDbEntity
  8
0
  6
DASHED2
100
AcDbLine
 10
5.928866
 20
6.181214
 30
0.0
 11
5.928866
 21
8.277051
 31
0.0
  0
LINE
  5
72
330
18
100
AcDbEntity
  8
0
  6
DASHED2
100
AcDbLine
 10
6.028866000000001
 20
6.181214
 30
0.0
 11
6.028866000000001
 21
8.178094999999999
 31
0.0
  0
LINE
  5
73
330
18
100
AcDbEntity
  8
0
100
AcDbLine
 10
5.928866
 20
5.364372
 30
0.0
 11
5.928866
 21
5.552283
 31
0.0
  0
LINE
  5
74
330
18
100
AcDbEntity
  8
0
100
AcDbLine
 10
6.028866000000001
 20
5.364372
 30
0.0
 11
6.028866000000001
 21
5.552283
 31
0.0
  0
LINE
  5
75
330
18
100
AcDbEntity
  8
0
100
AcDbLine
 10
7.063947
 20
2.216478
 30
0.0
 11
6.564544000000001
 21
2.216478
 31
0.0
  0
LINE
  5
76
330
18
100
AcDbEntity
  8
0
100
AcDbLine
 10
6.564544000000001
 20
10.060202
 30
0.0
 11
7.063947
 21
10.060202
 31
0.0
  0
LINE
  5
77
330
18
100
AcDbEntity
  8
0
100
AcDbLine
 10
6.840322000000001
 20
2.216478
 30
0.0
 11
6.840322000000001
 21
2.625589
 31
0.0
  0
LINE
  5
78
330
18
100
AcDbEntity
  8
0
100
AcDbLine
 10
6.840322000000001
 20
6.181214
 30
0.0
 11
6.840322000000001
 21
7.451431
 31
0.0
  0
LINE
  5
79
330
18
100
AcDbEntity
  8
0
100
AcDbLine
 10
5.638730000000001
 20
2.792169
 30
0.0
 11
4.977933
 21
2.792169
 31
0.0
  0
LINE
  5
7A
330
18
100
AcDbEntity
  8
0
100
AcDbLine
 10
5.349244000000001
 20
1.915941
 30
0.0
 11
4.977933
 21
1.915941
 31
0.0
  0
LINE
  5
7B
330
18
100
AcDbEntity
  8
0
100
AcDbLine
 10
5.087223000000001
 20
1.657922
 30
0.0
 11
5.087223000000001
 21
1.915941
 31
0.0
  0
LINE
  5
7C
330
18
100
AcDbEntity
  8
0
100
AcDbLine
 10
5.416028
 20
1.849157
 30
0.0
 11
5.416028
 21
1.437331
 31
0.0
  0
LINE
  5
7D
330
18
100
AcDbEntity
  8
0
100
AcDbLine
 10
5.73566
 20
2.69378
 30
0.0
 11
5.73566
 21
1.437331
 31
0.0
  0
LINE
  5
7E
330
18
100
AcDbEntity
  8
0
100
AcDbLine
 10
5.991349
 20
1.586743
 30
0.0
 11
5.73566
 21
1.586743
 31
0.0
  0
LINE
  5
7F
330
18
100
AcDbEntity
  8
0
100
AcDbLine
 10
4.744496
 20
3.063216
 30
0.0
 11
4.744496
 21
3.952248
 31
0.0
  0
LINE
  5
80
330
18
100
AcDbEntity
  8
0
100
AcDbLine
 10
4.744496
 20
3.763805000000001
 30
0.0
 11
4.458892
 21
3.763805000000001
 31
0.0
  0
LINE
  5
81
330
18
100
AcDbEntity
  8
0
100
AcDbLine
 10
2.010499
 20
2.653007
 30
0.0
 11
2.010499
 21
1.433724
 31
0.0
  0
LINE
  5
82
330
18
100
AcDbEntity
  8
0
100
AcDbLine
 10
1.903382
 20
2.792169
 30
0.0
 11
0.952263
 21
2.792169
 31
0.0
  0
LINE
  5
83
330
18
100
AcDbEntity
  8
0
100
AcDbLine
 10
1.638572
 20
6.284872
 30
0.0
 11
0.952263
 21
6.284872
 31
0.0
  0
LINE
  5
84
330
18
100
AcDbEntity
  8
0
100
AcDbLine
 10
1.152154
 20
2.792169
 30
0.0
 11
1.152154
 21
3.557074
 31
0.0
  0
LINE
  5
85
330
18
100
AcDbEntity
  8
0
100
AcDbLine
 10
1.361422
 20
3.111893
 30
0.0
 11
1.361422
 21
2.792169
 31
0.0
  0
LINE
  5
86
330
18
100
AcDbEntity
  8
0
100
AcDbLine
 10
1.413015
 20
1.579156
 30
0.0
 11
1.690867
 21
1.579156
 31
0.0
  0
LINE
  5
87
330
18
100
AcDbEntity
  8
0
100
AcDbLine
 10
1.638087
 20
1.915941
 30
0.0
 11
0.952263
 21
1.915941
 31
0.0
  0
LINE
  5
88
330
18
100
AcDbEntity
  8
0
100
AcDbLine
 10
1.690867
 20
1.86585
 30
0.0
 11
1.690867
 21
1.433724
 31
0.0
  0
SOLID
  5
89
330
18
100
AcDbEntity
  8
0
100
AcDbTrace
 10
1.102154
 20
6.142278
 30
0.0
 11
1.202154
 21
6.142278
 31
0.0
 12
1.152154
 22
6.284872
 32
0.0
 13
1.152154
 23
6.284872
 33
0.0
  0
SOLID
  5
8A
330
18
100
AcDbEntity
  8
0
100
AcDbTrace
 10
1.102154
 20
2.934762
 30
0.0
 11
1.202154
 21
2.934762
 31
0.0
 12
1.152154
 22
2.792169
 32
0.0
 13
1.152154
 23
2.792169
 33
0.0
  0
SOLID
  5
8B
330
18
100
AcDbEntity
  8
0
100
AcDbTrace
 10
1.311422
 20
2.934762
 30
0.0
 11
1.411422
 21
2.934762
 31
0.0
 12
1.361422
 22
2.792169
 32
0.0
 13
1.361422
 23
2.792169
 33
0.0
  0
SOLID
  5
8C
330
18
100
AcDbEntity
  8
0
100
AcDbTrace
 10
1.548274
 20
1.529156
 30
0.0
 11
1.548274
 21
1.629156
 31
0.0
 12
1.690867
 22
1.579156
 32
0.0
 13
1.690867
 23
1.579156
 33
0.0
  0
SOLID
  5
8D
330
18
100
AcDbEntity
  8
0
100
AcDbTrace
 10
1.311422
 20
1.773348
 30
0.0
 11
1.411422
 21
1.773348
 31
0.0
 12
1.361422
 22
1.915941
 32
0.0
 13
1.361422
 23
1.915941
 33
0.0
  0
SOLID
  5
8E
330
18
100
AcDbEntity
  8
0
100
AcDbTrace
 10
2.153092
 20
1.529156
 30
0.0
 11
2.153092
 21
1.629156
 31
0.0
 12
2.010499
 22
1.579156
 32
0.0
 13
2.010499
 23
1.579156
 33
0.0
  0
SOLID
  5
8F
330
18
100
AcDbEntity
  8
0
100
AcDbTrace
 10
5.878253
 20
1.536743
 30
0.0
 11
5.878253
 21
1.636743
 31
0.0
 12
5.73566
 22
1.586743
 32
0.0
 13
5.73566
 23
1.586743
 33
0.0
  0
SOLID
  5
90
330
18
100
AcDbEntity
  8
0
100
AcDbTrace
 10
5.273435
 20
1.536743
 30
0.0
 11
5.273435
 21
1.636743
 31
0.0
 12
5.416028
 22
1.586743
 32
0.0
 13
5.416028
 23
1.586743
 33
0.0
  0
SOLID
  5
91
330
18
100
AcDbEntity
  8
0
100
AcDbTrace
 10
5.037223
 20
1.773348
 30
0.0
 11
5.137223000000001
 21
1.773348
 31
0.0
 12
5.087223000000001
 22
1.915941
 32
0.0
 13
5.087223000000001
 23
1.915941
 33
0.0
  0
SOLID
  5
92
330
18
100
AcDbEntity
  8
0
100
AcDbTrace
 10
5.037223
 20
2.934762
 30
0.0
 11
5.137223000000001
 21
2.934762
 31
0.0
 12
5.087223000000001
 22
2.792169
 32
0.0
 13
5.087223000000001
 23
2.792169
 33
0.0
  0
SOLID
  5
93
330
18
100
AcDbEntity
  8
0
100
AcDbTrace
 10
6.790322
 20
2.359072
 30
0.0
 11
6.890322
 21
2.359072
 31
0.0
 12
6.840322000000001
 22
2.216478
 32
0.0
 13
6.840322000000001
 23
2.216478
 33
0.0
  0
SOLID
  5
94
330
18
100
AcDbEntity
  8
0
100
AcDbTrace
 10
6.790322
 20
5.221779
 30
0.0
 11
6.890322
 21
5.221779
 31
0.0
 12
6.840322000000001
 22
5.364372
 32
0.0
 13
6.840322000000001
 23
5.364372
 33
0.0
  0
SOLID
  5
95
330
18
100
AcDbEntity
  8
0
100
AcDbTrace
 10
6.790322
 20
9.917608999999999
 30
0.0
 11
6.890322
 21
9.917608999999999
 31
0.0
 12
6.840322000000001
 22
10.060202
 32
0.0
 13
6.840322000000001
 23
10.060202
 33
0.0
  0
SOLID
  5
96
330
18
100
AcDbEntity
  8
0
100
AcDbTrace
 10
6.790322
 20
6.323808000000001
 30
0.0
 11
6.890322
 21
6.323808000000001
 31
0.0
 12
6.840322000000001
 22
6.181214
 32
0.0
 13
6.840322000000001
 23
6.181214
 33
0.0
  0
TEXT
  5
97
330
18
100
AcDbEntity
  8
0
100
AcDbText
 10
1.102913
 20
4.116649857142857
 30
0.0
 40
0.15
  1
30" MIN.
 50
90.0
 72
     1
 11
1.102913
 21
4.609507
 31
0.0
100
AcDbText
  0
TEXT
  5
98
330
18
100
AcDbEntity
  8
0
100
AcDbText
 10
1.341673
 20
3.627087
 30
0.0
 40
0.15
  1
REBAR LENGTH
 50
90.0
 72
     1
 11
1.341673
 21
4.477087
 31
0.0
100
AcDbText
  0
LINE
  5
99
330
18
100
AcDbEntity
  8
0
100
AcDbLine
 10
1.152154
 20
5.359315000000001
 30
0.0
 11
1.152154
 21
6.284872
 31
0.0
  0
TEXT
  5
9A
330
18
100
AcDbEntity
  8
0
100
AcDbText
 10
1.271575
 20
2.411563
 30
0.0
 40
0.15
  1
5"
 72
     1
 11
1.396575
 21
2.411563
 31
0.0
100
AcDbText
  0
TEXT
  5
9B
330
18
100
AcDbEntity
  8
0
100
AcDbText
 10
1.168003571428571
 20
2.186282
 30
0.0
 40
0.15
  1
MIN.
 72
     1
 11
1.396575
 21
2.186282
 31
0.0
100
AcDbText
  0
LINE
  5
9C
330
18
100
AcDbEntity
  8
0
100
AcDbLine
 10
1.361422
 20
1.915941
 30
0.0
 11
1.361422
 21
1.659198
 31
0.0
  0
TEXT
  5
9D
330
18
100
AcDbEntity
  8
0
100
AcDbText
 10
2.298204571428571
 20
1.504531
 30
0.0
 40
0.15
  1
1 3/4" MIN.
 72
     1
 11
3.026776
 21
1.504531
 31
0.0
100
AcDbText
  0
LINE
  5
9E
330
18
100
AcDbEntity
  8
0
100
AcDbLine
 10
2.010499
 20
1.579156
 30
0.0
 11
2.272015
 21
1.579156
 31
0.0
  0
SOLID
  5
9F
330
18
100
AcDbEntity
  8
0
100
AcDbTrace
 10
4.601903
 20
3.713805
 30
0.0
 11
4.601903
 21
3.813805
 31
0.0
 12
4.744496
 22
3.763805000000001
 32
0.0
 13
4.744496
 23
3.763805000000001
 33
0.0
  0
SOLID
  5
A0
330
18
100
AcDbEntity
  8
0
100
AcDbTrace
 10
2.885035
 20
3.713805
 30
0.0
 11
2.885035
 21
3.813805
 31
0.0
 12
2.742442
 22
3.763805000000001
 32
0.0
 13
2.742442
 23
3.763805000000001
 33
0.0
  0
TEXT
  5
A1
330
18
100
AcDbEntity
  8
0
100
AcDbText
 10
3.060102
 20
5.235412999999999
 30
0.0
 40
0.15
  1
DIAGONAL
 41
0.9
100
AcDbText
  0
TEXT
  5
A2
330
18
100
AcDbEntity
  8
0
100
AcDbText
 10
3.060102
 20
5.439431
 30
0.0
 40
0.15
  1
PLACE
 41
0.9
100
AcDbText
  0
TEXT
  5
A3
330
18
100
AcDbEntity
  8
0
100
AcDbText
 10
3.060102
 20
5.031394000000001
 30
0.0
 40
0.15
  1
IN CORNER
 41
0.9
100
AcDbText
  0
TEXT
  5
A4
330
18
100
AcDbEntity
  8
0
100
AcDbText
 10
3.060102
 20
4.827375
 30
0.0
 40
0.15
  1
APPLICATION
 41
0.9
100
AcDbText
  0
TEXT
  5
A5
330
18
100
AcDbEntity
  8
0
100
AcDbText
 10
3.034842
 20
4.002052
 30
0.0
 40
0.15
  1
12" MIN. FOR
 41
0.8
100
AcDbText
  0
TEXT
  5
A6
330
18
100
AcDbEntity
  8
0
100
AcDbText
 10
3.034842
 20
3.798034
 30
0.0
 40
0.15
  1
7/8" DIA. SSTB
 41
0.8
100
AcDbText
  0
TEXT
  5
A7
330
18
100
AcDbEntity
  8
0
100
AcDbText
 10
3.034842
 20
3.389997
 30
0.0
 40
0.15
  1
TABLE LOAD
 41
0.8
100
AcDbText
  0
TEXT
  5
A8
330
18
100
AcDbEntity
  8
0
100
AcDbText
 10
3.034842
 20
3.594015
 30
0.0
 40
0.15
  1
FOR FULL
 41
0.8
100
AcDbText
  0
LINE
  5
A9
330
18
100
AcDbEntity
  8
0
100
AcDbLine
 10
3.027468
 20
3.763805000000001
 30
0.0
 11
2.742442
 21
3.763805000000001
 31
0.0
  0
TEXT
  5
AA
330
18
100
AcDbEntity
  8
0
100
AcDbText
 10
7.032886
 20
2.631314571428572
 30
0.0
 40
0.15
  1
MIN. REBAR LENGTH
 50
90.0
 72
     1
 11
7.032886
 21
3.784886
 31
0.0
100
AcDbText
  0
TEXT
  5
AB
330
18
100
AcDbEntity
  8
0
100
AcDbText
 10
6.794125999999999
 20
3.228244142857143
 30
0.0
 40
0.15
  1
2x1e+12"
 50
90.0
 72
     1
 11
6.794125999999999
 21
3.785387
 31
0.0
100
AcDbText
  0
LINE
  5
AC
330
18
100
AcDbEntity
  8
0
100
AcDbLine
 10
6.840322000000001
 20
4.965402
 30
0.0
 11
6.840322000000001
 21
5.364372
 31
0.0
  0
TEXT
  5
AD
330
18
100
AcDbEntity
  8
0
100
AcDbText
 10
6.794125999999999
 20
7.749275142857142
 30
0.0
 40
0.15
  1
2x1e+12"
 50
90.0
 72
     1
 11
6.794125999999999
 21
8.306417999999999
 31
0.0
100
AcDbText
  0
TEXT
  5
AE
330
18
100
AcDbEntity
  8
0
100
AcDbText
 10
7.032886
 20
7.152345571428571
 30
0.0
 40
0.15
  1
MIN. REBAR LENGTH
 50
90.0
 72
     1
 11
7.032886
 21
8.305916999999999
 31
0.0
100
AcDbText
  0
TEXT
  5
AF
330
18
100
AcDbEntity
  8
0
100
AcDbText
 10
4.451605571428571
 20
7.928692
 30
0.0
 40
0.15
  1
LOCATE
 41
0.9
 72
     2
 11
5.165177
 21
7.928692
 31
0.0
100
AcDbText
  0
TEXT
  5
B0
330
18
100
AcDbEntity
  8
0
100
AcDbText
 10
3.885891285714286
 20
7.724672999999999
 30
0.0
 40
0.15
  1
APPROX. 45%%D
 41
0.9
 72
     2
 11
5.165177
 21
7.724672999999999
 31
0.0
100
AcDbText
  0
TEXT
  5
B1
330
18
100
AcDbEntity
  8
0
100
AcDbText
 10
4.001605571428572
 20
7.520655000000001
 30
0.0
 40
0.15
  1
FROM WALL
 41
0.9
 72
     2
 11
5.165177
 21
7.520655000000001
 31
0.0
100
AcDbText
  0
LINE
  5
B2
330
18
100
AcDbEntity
  8
0
100
AcDbLine
 10
6.154167
 20
8.137914
 30
0.0
 11
6.768325999999999
 21
7.523461
 31
0.0
  0
LINE
  5
B3
330
18
100
AcDbEntity
  8
0
100
AcDbLine
 10
6.840322000000001
 20
9.502794
 30
0.0
 11
6.840322000000001
 21
10.060202
 31
0.0
  0
ARC
  5
B4
330
18
100
AcDbEntity
  8
0
100
AcDbCircle
 10
5.607493
 20
8.699769999999999
 30
0.0
 40
1.524788
100
AcDbArc
 50
262.786431
 51
314.589951
  0
LWPOLYLINE
  5
B5
330
18
100
AcDbEntity
  8
0
100
AcDbPolyline
 90
        2
 70
     1
 43
0.0
 10
6.22778
 20
7.315353
 42
1.0
 10
6.265280000000001
 20
7.315353
 42
1.0
  0
ARC
  5
BA
330
18
100
AcDbEntity
  8
0
100
AcDbCircle
 10
5.478806
 20
6.958539999999999
 30
0.0
 40
0.846591
100
AcDbArc
 50
24.927493
 51
101.955509
  0
SOLID
  5
BB
330
18
100
AcDbEntity
  8
0
100
AcDbTrace
 10
5.561996
 20
7.22612
 30
0.0
 11
5.554431
 21
7.126407
 31
0.0
 12
5.416028
 22
7.187050999999999
 32
0.0
 13
5.416028
 23
7.187050999999999
 33
0.0
  0
SOLID
  5
BC
330
18
100
AcDbEntity
  8
0
100
AcDbTrace
 10
6.599417999999999
 20
7.484789999999999
 30
0.0
 11
6.535986
 21
7.562098
 31
0.0
 12
6.677936999999999
 22
7.613894
 32
0.0
 13
6.677936999999999
 23
7.613894
 33
0.0
  0
ARC
  5
BD
330
18
100
AcDbEntity
  8
0
100
AcDbCircle
 10
4.045324
 20
3.374735
 30
0.0
 40
2.176557
100
AcDbArc
 50
119.451312
 51
168.914342
  0
ARC
  5
BE
330
18
100
AcDbEntity
  8
0
100
AcDbCircle
 10
2.9733
 20
3.527739
 30
0.0
 40
1.096546
100
AcDbArc
 50
165.988232
 51
209.981731
  0
SOLID
  5
BF
330
18
100
AcDbEntity
  8
0
100
AcDbTrace
 10
1.911415
 20
3.081121
 30
0.0
 11
1.999253
 21
3.128918
 31
0.0
 12
2.023488
 22
2.979768
 32
0.0
 13
2.023488
 23
2.979768
 33
0.0
  0
LINE
  5
C0
330
18
100
AcDbEntity
  8
0
100
AcDbLine
 10
5.087223000000001
 20
2.792169
 30
0.0
 11
5.087223000000001
 21
3.155666
 31
0.0
  0
LINE
  5
C1
330
18
100
AcDbEntity
  8
0
100
AcDbLine
 10
5.416028
 20
1.586743
 30
0.0
 11
5.130344
 21
1.586743
 31
0.0
  0
TEXT
  5
C2
330
18
100
AcDbEntity
  8
0
100
AcDbText
 10
4.893804571428571
 20
2.186282
 30
0.0
 40
0.15
  1
MIN.
 72
     1
 11
5.122376
 21
2.186282
 31
0.0
100
AcDbText
  0
TEXT
  5
C3
330
18
100
AcDbEntity
  8
0
100
AcDbText
 10
4.997376
 20
2.411563
 30
0.0
 40
0.15
  1
5"
 72
     1
 11
5.122376
 21
2.411563
 31
0.0
100
AcDbText
  0
TEXT
  5
C4
330
18
100
AcDbEntity
  8
0
100
AcDbText
 10
6.023365571428571
 20
1.512118
 30
0.0
 40
0.15
  1
1 3/4" MIN.
 72
     1
 11
6.751937
 21
1.512118
 31
0.0
100
AcDbText
  0
LINE
  5
C5
330
18
100
AcDbEntity
  8
0
100
AcDbLine
 10
2.039051
 20
1.915941
 30
0.0
 11
4.744496
 21
1.915941
 31
0.0
  0
LINE
  5
C6
330
18
100
AcDbEntity
  8
0
100
AcDbLine
 10
1.690867
 20
2.819762
 30
0.0
 11
1.690867
 21
6.537661
 31
0.0
  0
LINE
  5
C7
330
18
100
AcDbEntity
  8
0
100
AcDbLine
 10
5.416028
 20
2.850006
 30
0.0
 11
5.416028
 21
5.364372
 31
0.0
  0
LINE
  5
C8
330
18
100
AcDbEntity
  8
0
100
AcDbLine
 10
5.416028
 20
7.850861
 30
0.0
 11
5.416028
 21
10.427271
 31
0.0
  0
LINE
  5
C9
330
18
100
AcDbEntity
  8
0
100
AcDbLine
 10
6.452887000000001
 20
7.472494
 30
0.0
 11
6.452887000000001
 21
7.760478999999999
 31
0.0
  0
LINE
  5
CA
330
18
100
AcDbEntity
  8
0
100
AcDbLine
 10
6.452887000000001
 20
7.910460000000001
 30
0.0
 11
6.452887000000001
 21
10.106956
 31
0.0
  0
LWPOLYLINE
  5
CB
330
18
100
AcDbEntity
  8
0
100
AcDbPolyline
 90
        2
 70
     0
 43
0.0
 10
5.63349
 20
5.364372
 10
5.697137000000001
 20
5.454962
  0
TEXT
  5
D0
330
18
100
AcDbEntity
  8
0
100
AcDbText
 10
2.787617
 20
0.9884
 30
0.0
 40
0.18
  1
Simpson Strong-Tie
100
AcDbText
  0
TEXT
  5
D1
330
18
100
AcDbEntity
  8
0
100
AcDbText
 10
2.787617
 20
0.696971
 30
0.0
 40
0.18
  1
SSTB (in plan view)
100
AcDbText
  0
POINT
  5
D2
330
18
100
AcDbEntity
  8
0
100
AcDbPoint
 10
0.8055770000000001
 20
0.503563
 30
0.0
  0
LINE
  5
D3
330
18
100
AcDbEntity
  8
0
 62
     0
100
AcDbLine
 10
5.449478
 20
8.033094
 30
0.0
 11
5.449478
 21
8.033094
 31
0.0
  0
LINE
  5
D4
330
18
100
AcDbEntity
  8
0
 62
     0
100
AcDbLine
 10
5.642858
 20
8.181480000000001
 30
0.0
 11
5.642858
 21
8.181480000000001
 31
0.0
  0
LINE
  5
D5
330
18
100
AcDbEntity
  8
0
 62
     0
100
AcDbLine
 10
5.823743
 20
8.320278
 30
0.0
 11
5.823743
 21
8.320278
 31
0.0
  0
LINE
  5
D6
330
18
100
AcDbEntity
  8
0
 62
     0
100
AcDbLine
 10
5.440029
 20
8.322118
 30
0.0
 11
5.440029
 21
8.322118
 31
0.0
  0
LINE
  5
D7
330
18
100
AcDbEntity
  8
0
 62
     0
100
AcDbLine
 10
5.633408999999999
 20
8.470504
 30
0.0
 11
5.633408999999999
 21
8.470504
 31
0.0
  0
LINE
  5
D8
330
18
100
AcDbEntity
  8
0
 62
     0
100
AcDbLine
 10
5.814294
 20
8.609301
 30
0.0
 11
5.814294
 21
8.609301
 31
0.0
  0
LINE
  5
D9
330
18
100
AcDbEntity
  8
0
 62
     0
100
AcDbLine
 10
5.43058
 20
8.611141999999999
 30
0.0
 11
5.43058
 21
8.611141999999999
 31
0.0
  0
LINE
  5
DA
330
18
100
AcDbEntity
  8
0
 62
     0
100
AcDbLine
 10
5.62396
 20
8.759527
 30
0.0
 11
5.62396
 21
8.759527
 31
0.0
  0
LINE
  5
DB
330
18
100
AcDbEntity
  8
0
 62
     0
100
AcDbLine
 10
5.804844999999999
 20
8.898325
 30
0.0
 11
5.804844999999999
 21
8.898325
 31
0.0
  0
LINE
  5
DC
330
18
100
AcDbEntity
  8
0
 62
     0
100
AcDbLine
 10
5.421131
 20
8.900164999999999
 30
0.0
 11
5.421131
 21
8.900164999999999
 31
0.0
  0
LINE
  5
DD
330
18
100
AcDbEntity
  8
0
 62
     0
100
AcDbLine
 10
5.614511
 20
9.048551
 30
0.0
 11
5.614511
 21
9.048551
 31
0.0
  0
LINE
  5
DE
330
18
100
AcDbEntity
  8
0
 62
     0
100
AcDbLine
 10
5.795396
 20
9.187348
 30
0.0
 11
5.795396
 21
9.187348
 31
0.0
  0
LINE
  5
DF
330
18
100
AcDbEntity
  8
0
 62
     0
100
AcDbLine
 10
5.605062
 20
9.337574
 30
0.0
 11
5.605062
 21
9.337574
 31
0.0
  0
LINE
  5
E0
330
18
100
AcDbEntity
  8
0
 62
     0
100
AcDbLine
 10
5.785947
 20
9.476372
 30
0.0
 11
5.785947
 21
9.476372
 31
0.0
  0
LINE
  5
E1
330
18
100
AcDbEntity
  8
0
 62
     0
100
AcDbLine
 10
5.595613
 20
9.626598
 30
0.0
 11
5.595613
 21
9.626598
 31
0.0
  0
LINE
  5
E2
330
18
100
AcDbEntity
  8
0
 62
     0
100
AcDbLine
 10
5.776498
 20
9.765395
 30
0.0
 11
5.776498
 21
9.765395
 31
0.0
  0
LINE
  5
E3
330
18
100
AcDbEntity
  8
0
 62
     0
100
AcDbLine
 10
5.586164
 20
9.915621
 30
0.0
 11
5.586164
 21
9.915621
 31
0.0
  0
LINE
  5
E4
330
18
100
AcDbEntity
  8
0
 62
     0
100
AcDbLine
 10
5.767049
 20
10.054419
 30
0.0
 11
5.767049
 21
10.054419
 31
0.0
  0
LINE
  5
E5
330
18
100
AcDbEntity
  8
0
 62
     0
100
AcDbLine
 10
5.576715
 20
10.204645
 30
0.0
 11
5.576715
 21
10.204645
 31
0.0
  0
LINE
  5
E6
330
18
100
AcDbEntity
  8
0
 62
     0
100
AcDbLine
 10
5.7576
 20
10.343443
 30
0.0
 11
5.7576
 21
10.343443
 31
0.0
  0
LINE
  5
E7
330
18
100
AcDbEntity
  8
0
 62
     0
100
AcDbLine
 10
5.458927
 20
7.744071000000001
 30
0.0
 11
5.458927
 21
7.744071000000001
 31
0.0
  0
LINE
  5
E8
330
18
100
AcDbEntity
  8
0
 62
     0
100
AcDbLine
 10
5.652307
 20
7.892456
 30
0.0
 11
5.652307
 21
7.892456
 31
0.0
  0
LINE
  5
E9
330
18
100
AcDbEntity
  8
0
 62
     0
100
AcDbLine
 10
5.833192
 20
8.031253999999999
 30
0.0
 11
5.833192
 21
8.031253999999999
 31
0.0
  0
LINE
  5
EA
330
18
100
AcDbEntity
  8
0
 62
     0
100
AcDbLine
 10
5.468376
 20
7.455047
 30
0.0
 11
5.468376
 21
7.455047
 31
0.0
  0
LINE
  5
EB
330
18
100
AcDbEntity
  8
0
 62
     0
100
AcDbLine
 10
5.661756
 20
7.603433
 30
0.0
 11
5.661756
 21
7.603433
 31
0.0
  0
LINE
  5
EC
330
18
100
AcDbEntity
  8
0
 62
     0
100
AcDbLine
 10
5.842641
 20
7.742230999999999
 30
0.0
 11
5.842641
 21
7.742230999999999
 31
0.0
  0
LINE
  5
ED
330
18
100
AcDbEntity
  8
0
 62
     0
100
AcDbLine
 10
5.477825
 20
7.166024
 30
0.0
 11
5.477825
 21
7.166024
 31
0.0
  0
LINE
  5
EE
330
18
100
AcDbEntity
  8
0
 62
     0
100
AcDbLine
 10
5.671205000000001
 20
7.314409
 30
0.0
 11
5.671205000000001
 21
7.314409
 31
0.0
  0
LINE
  5
EF
330
18
100
AcDbEntity
  8
0
 62
     0
100
AcDbLine
 10
5.852090000000001
 20
7.453207000000001
 30
0.0
 11
5.852090000000001
 21
7.453207000000001
 31
0.0
  0
LINE
  5
F0
330
18
100
AcDbEntity
  8
0
 62
     0
100
AcDbLine
 10
5.487274
 20
6.877000000000001
 30
0.0
 11
5.487274
 21
6.877000000000001
 31
0.0
  0
LINE
  5
F1
330
18
100
AcDbEntity
  8
0
 62
     0
100
AcDbLine
 10
5.680654
 20
7.025386
 30
0.0
 11
5.680654
 21
7.025386
 31
0.0
  0
LINE
  5
F2
330
18
100
AcDbEntity
  8
0
 62
     0
100
AcDbLine
 10
5.861539
 20
7.164183
 30
0.0
 11
5.861539
 21
7.164183
 31
0.0
  0
LINE
  5
F3
330
18
100
AcDbEntity
  8
0
 62
     0
100
AcDbLine
 10
5.496723
 20
6.587977
 30
0.0
 11
5.496723
 21
6.587977
 31
0.0
  0
LINE
  5
F4
330
18
100
AcDbEntity
  8
0
 62
     0
100
AcDbLine
 10
5.690103
 20
6.736362
 30
0.0
 11
5.690103
 21
6.736362
 31
0.0
  0
LINE
  5
F5
330
18
100
AcDbEntity
  8
0
 62
     0
100
AcDbLine
 10
5.870988
 20
6.87516
 30
0.0
 11
5.870988
 21
6.87516
 31
0.0
  0
LINE
  5
F6
330
18
100
AcDbEntity
  8
0
 62
     0
100
AcDbLine
 10
5.506172
 20
6.298953
 30
0.0
 11
5.506172
 21
6.298953
 31
0.0
  0
LINE
  5
F7
330
18
100
AcDbEntity
  8
0
 62
     0
100
AcDbLine
 10
5.699552
 20
6.447339
 30
0.0
 11
5.699552
 21
6.447339
 31
0.0
  0
LINE
  5
F8
330
18
100
AcDbEntity
  8
0
 62
     0
100
AcDbLine
 10
5.880437000000001
 20
6.586136
 30
0.0
 11
5.880437000000001
 21
6.586136
 31
0.0
  0
LINE
  5
F9
330
18
100
AcDbEntity
  8
0
 62
     0
100
AcDbLine
 10
5.889886
 20
6.297113
 30
0.0
 11
5.889886
 21
6.297113
 31
0.0
  0
LINE
  5
FA
330
18
100
AcDbEntity
  8
0
 62
     0
100
AcDbLine
 10
5.44763
 20
8.096273
 30
0.0
 11
5.44763
 21
8.096273
 31
0.0
  0
LINE
  5
FB
330
18
100
AcDbEntity
  8
0
 62
     0
100
AcDbLine
 10
5.569577
 20
8.112328
 30
0.0
 11
5.569577
 21
8.112328
 31
0.0
  0
LINE
  5
FC
330
18
100
AcDbEntity
  8
0
 62
     0
100
AcDbLine
 10
5.773319
 20
8.139151
 30
0.0
 11
5.773319
 21
8.139151
 31
0.0
  0
LINE
  5
FD
330
18
100
AcDbEntity
  8
0
 62
     0
100
AcDbLine
 10
5.851395
 20
8.149430000000001
 30
0.0
 11
5.851395
 21
8.149430000000001
 31
0.0
  0
LINE
  5
FE
330
18
100
AcDbEntity
  8
0
 62
     0
100
AcDbLine
 10
5.431278
 20
8.482493
 30
0.0
 11
5.431278
 21
8.482493
 31
0.0
  0
LINE
  5
FF
330
18
100
AcDbEntity
  8
0
 62
     0
100
AcDbLine
 10
5.63502
 20
8.509316
 30
0.0
 11
5.63502
 21
8.509316
 31
0.0
  0
LINE
  5
100
330
18
100
AcDbEntity
  8
0
 62
     0
100
AcDbLine
 10
5.49672
 20
8.879481
 30
0.0
 11
5.49672
 21
8.879481
 31
0.0
  0
LINE
  5
101
330
18
100
AcDbEntity
  8
0
 62
     0
100
AcDbLine
 10
5.574797
 20
8.889760000000001
 30
0.0
 11
5.574797
 21
8.889760000000001
 31
0.0
  0
LINE
  5
102
330
18
100
AcDbEntity
  8
0
 62
     0
100
AcDbLine
 10
5.696744
 20
8.905814999999999
 30
0.0
 11
5.696744
 21
8.905814999999999
 31
0.0
  0
LINE
  5
103
330
18
100
AcDbEntity
  8
0
 62
     0
100
AcDbLine
 10
5.900486
 20
8.932638000000001
 30
0.0
 11
5.900486
 21
8.932638000000001
 31
0.0
  0
LINE
  5
104
330
18
100
AcDbEntity
  8
0
 62
     0
100
AcDbLine
 10
5.436497
 20
9.259925000000001
 30
0.0
 11
5.436497
 21
9.259925000000001
 31
0.0
  0
LINE
  5
105
330
18
100
AcDbEntity
  8
0
 62
     0
100
AcDbLine
 10
5.558445
 20
9.275980000000001
 30
0.0
 11
5.558445
 21
9.275980000000001
 31
0.0
  0
LINE
  5
106
330
18
100
AcDbEntity
  8
0
 62
     0
100
AcDbLine
 10
5.762187
 20
9.302802999999999
 30
0.0
 11
5.762187
 21
9.302802999999999
 31
0.0
  0
LINE
  5
107
330
18
100
AcDbEntity
  8
0
 62
     0
100
AcDbLine
 10
5.840262999999999
 20
9.313082000000001
 30
0.0
 11
5.840262999999999
 21
9.313082000000001
 31
0.0
  0
LINE
  5
108
330
18
100
AcDbEntity
  8
0
 62
     0
100
AcDbLine
 10
5.420146
 20
9.646144999999999
 30
0.0
 11
5.420146
 21
9.646144999999999
 31
0.0
  0
LINE
  5
109
330
18
100
AcDbEntity
  8
0
 62
     0
100
AcDbLine
 10
5.623887
 20
9.672967999999999
 30
0.0
 11
5.623887
 21
9.672967999999999
 31
0.0
  0
LINE
  5
10A
330
18
100
AcDbEntity
  8
0
 62
     0
100
AcDbLine
 10
5.701964
 20
9.683247
 30
0.0
 11
5.701964
 21
9.683247
 31
0.0
  0
LINE
  5
10B
330
18
100
AcDbEntity
  8
0
 62
     0
100
AcDbLine
 10
5.823911
 20
9.699302000000001
 30
0.0
 11
5.823911
 21
9.699302000000001
 31
0.0
  0
LINE
  5
10C
330
18
100
AcDbEntity
  8
0
 62
     0
100
AcDbLine
 10
5.485588
 20
10.043133
 30
0.0
 11
5.485588
 21
10.043133
 31
0.0
  0
LINE
  5
10D
330
18
100
AcDbEntity
  8
0
 62
     0
100
AcDbLine
 10
5.563664
 20
10.053412
 30
0.0
 11
5.563664
 21
10.053412
 31
0.0
  0
LINE
  5
10E
330
18
100
AcDbEntity
  8
0
 62
     0
100
AcDbLine
 10
5.685612
 20
10.069467
 30
0.0
 11
5.685612
 21
10.069467
 31
0.0
  0
LINE
  5
10F
330
18
100
AcDbEntity
  8
0
 62
     0
100
AcDbLine
 10
5.889354
 20
10.09629
 30
0.0
 11
5.889354
 21
10.09629
 31
0.0
  0
LINE
  5
110
330
18
100
AcDbEntity
  8
0
 62
     0
100
AcDbLine
 10
5.425365
 20
10.423577
 30
0.0
 11
5.425365
 21
10.423577
 31
0.0
  0
LINE
  5
111
330
18
100
AcDbEntity
  8
0
 62
     0
100
AcDbLine
 10
5.507853
 20
7.715828999999999
 30
0.0
 11
5.507853
 21
7.715828999999999
 31
0.0
  0
LINE
  5
112
330
18
100
AcDbEntity
  8
0
 62
     0
100
AcDbLine
 10
5.585929
 20
7.726108
 30
0.0
 11
5.585929
 21
7.726108
 31
0.0
  0
LINE
  5
113
330
18
100
AcDbEntity
  8
0
 62
     0
100
AcDbLine
 10
5.707877
 20
7.742163000000001
 30
0.0
 11
5.707877
 21
7.742163000000001
 31
0.0
  0
LINE
  5
114
330
18
100
AcDbEntity
  8
0
 62
     0
100
AcDbLine
 10
5.911619
 20
7.768986
 30
0.0
 11
5.911619
 21
7.768986
 31
0.0
  0
LINE
  5
115
330
18
100
AcDbEntity
  8
0
 62
     0
100
AcDbLine
 10
5.44241
 20
7.318841
 30
0.0
 11
5.44241
 21
7.318841
 31
0.0
  0
LINE
  5
116
330
18
100
AcDbEntity
  8
0
 62
     0
100
AcDbLine
 10
5.646152
 20
7.345664
 30
0.0
 11
5.646152
 21
7.345664
 31
0.0
  0
LINE
  5
117
330
18
100
AcDbEntity
  8
0
 62
     0
100
AcDbLine
 10
5.724228
 20
7.355942999999999
 30
0.0
 11
5.724228
 21
7.355942999999999
 31
0.0
  0
LINE
  5
118
330
18
100
AcDbEntity
  8
0
 62
     0
100
AcDbLine
 10
5.846176
 20
7.371998
 30
0.0
 11
5.846176
 21
7.371998
 31
0.0
  0
LINE
  5
119
330
18
100
AcDbEntity
  8
0
 62
     0
100
AcDbLine
 10
5.458762
 20
6.932621000000001
 30
0.0
 11
5.458762
 21
6.932621000000001
 31
0.0
  0
LINE
  5
11A
330
18
100
AcDbEntity
  8
0
 62
     0
100
AcDbLine
 10
5.58071
 20
6.948676
 30
0.0
 11
5.58071
 21
6.948676
 31
0.0
  0
LINE
  5
11B
330
18
100
AcDbEntity
  8
0
 62
     0
100
AcDbLine
 10
5.784451
 20
6.975499
 30
0.0
 11
5.784451
 21
6.975499
 31
0.0
  0
LINE
  5
11C
330
18
100
AcDbEntity
  8
0
 62
     0
100
AcDbLine
 10
5.862528
 20
6.985778
 30
0.0
 11
5.862528
 21
6.985778
 31
0.0
  0
LINE
  5
11D
330
18
100
AcDbEntity
  8
0
 62
     0
100
AcDbLine
 10
5.518985
 20
6.552177
 30
0.0
 11
5.518985
 21
6.552177
 31
0.0
  0
LINE
  5
11E
330
18
100
AcDbEntity
  8
0
 62
     0
100
AcDbLine
 10
5.597061
 20
6.562456
 30
0.0
 11
5.597061
 21
6.562456
 31
0.0
  0
LINE
  5
11F
330
18
100
AcDbEntity
  8
0
 62
     0
100
AcDbLine
 10
5.719009
 20
6.578511
 30
0.0
 11
5.719009
 21
6.578511
 31
0.0
  0
LINE
  5
120
330
18
100
AcDbEntity
  8
0
 62
     0
100
AcDbLine
 10
5.922751
 20
6.605334
 30
0.0
 11
5.922751
 21
6.605334
 31
0.0
  0
LINE
  5
121
330
18
100
AcDbEntity
  8
0
 62
     0
100
AcDbLine
 10
5.857308
 20
6.208345
 30
0.0
 11
5.857308
 21
6.208345
 31
0.0
  0
LINE
  5
122
330
18
100
AcDbEntity
  8
0
 62
     0
100
AcDbLine
 10
5.558509
 20
8.278817
 30
0.0
 11
5.558509
 21
8.278817
 31
0.0
  0
LINE
  5
123
330
18
100
AcDbEntity
  8
0
 62
     0
100
AcDbLine
 10
5.621764
 20
8.238519
 30
0.0
 11
5.621764
 21
8.238519
 31
0.0
  0
LINE
  5
124
330
18
100
AcDbEntity
  8
0
 62
     0
100
AcDbLine
 10
5.849479
 20
8.093448
 30
0.0
 11
5.849479
 21
8.093448
 31
0.0
  0
LINE
  5
125
330
18
100
AcDbEntity
  8
0
 62
     0
100
AcDbLine
 10
5.437365
 20
8.654432
 30
0.0
 11
5.437365
 21
8.654432
 31
0.0
  0
LINE
  5
126
330
18
100
AcDbEntity
  8
0
 62
     0
100
AcDbLine
 10
5.50062
 20
8.614135000000001
 30
0.0
 11
5.50062
 21
8.614135000000001
 31
0.0
  0
LINE
  5
127
330
18
100
AcDbEntity
  8
0
 62
     0
100
AcDbLine
 10
5.728335
 20
8.469064
 30
0.0
 11
5.728335
 21
8.469064
 31
0.0
  0
LINE
  5
128
330
18
100
AcDbEntity
  8
0
 62
     0
100
AcDbLine
 10
5.607191
 20
8.844678999999999
 30
0.0
 11
5.607191
 21
8.844678999999999
 31
0.0
  0
LINE
  5
129
330
18
100
AcDbEntity
  8
0
 62
     0
100
AcDbLine
 10
5.904486
 20
8.655281
 30
0.0
 11
5.904486
 21
8.655281
 31
0.0
  0
LINE
  5
12A
330
18
100
AcDbEntity
  8
0
 62
     0
100
AcDbLine
 10
5.486047
 20
9.220294000000001
 30
0.0
 11
5.486047
 21
9.220294000000001
 31
0.0
  0
LINE
  5
12B
330
18
100
AcDbEntity
  8
0
 62
     0
100
AcDbLine
 10
5.783342
 20
9.030896
 30
0.0
 11
5.783342
 21
9.030896
 31
0.0
  0
LINE
  5
12C
330
18
100
AcDbEntity
  8
0
 62
     0
100
AcDbLine
 10
5.846597
 20
8.990599000000001
 30
0.0
 11
5.846597
 21
8.990599000000001
 31
0.0
  0
LINE
  5
12D
330
18
100
AcDbEntity
  8
0
 62
     0
100
AcDbLine
 10
5.662198
 20
9.406511999999999
 30
0.0
 11
5.662198
 21
9.406511999999999
 31
0.0
  0
LINE
  5
12E
330
18
100
AcDbEntity
  8
0
 62
     0
100
AcDbLine
 10
5.725452
 20
9.366213999999999
 30
0.0
 11
5.725452
 21
9.366213999999999
 31
0.0
  0
LINE
  5
12F
330
18
100
AcDbEntity
  8
0
 62
     0
100
AcDbLine
 10
5.541054
 20
9.782127000000001
 30
0.0
 11
5.541054
 21
9.782127000000001
 31
0.0
  0
LINE
  5
130
330
18
100
AcDbEntity
  8
0
 62
     0
100
AcDbLine
 10
5.604308000000001
 20
9.74183
 30
0.0
 11
5.604308000000001
 21
9.74183
 31
0.0
  0
LINE
  5
131
330
18
100
AcDbEntity
  8
0
 62
     0
100
AcDbLine
 10
5.832024
 20
9.596759000000001
 30
0.0
 11
5.832024
 21
9.596759000000001
 31
0.0
  0
LINE
  5
132
330
18
100
AcDbEntity
  8
0
 62
     0
100
AcDbLine
 10
5.419909
 20
10.157742
 30
0.0
 11
5.419909
 21
10.157742
 31
0.0
  0
LINE
  5
133
330
18
100
AcDbEntity
  8
0
 62
     0
100
AcDbLine
 10
5.483164
 20
10.117445
 30
0.0
 11
5.483164
 21
10.117445
 31
0.0
  0
LINE
  5
134
330
18
100
AcDbEntity
  8
0
 62
     0
100
AcDbLine
 10
5.710879
 20
9.972374
 30
0.0
 11
5.710879
 21
9.972374
 31
0.0
  0
LINE
  5
135
330
18
100
AcDbEntity
  8
0
 62
     0
100
AcDbLine
 10
5.589735
 20
10.347989
 30
0.0
 11
5.589735
 21
10.347989
 31
0.0
  0
LINE
  5
136
330
18
100
AcDbEntity
  8
0
 62
     0
100
AcDbLine
 10
5.887031
 20
10.158591
 30
0.0
 11
5.887031
 21
10.158591
 31
0.0
  0
LINE
  5
137
330
18
100
AcDbEntity
  8
0
 62
     0
100
AcDbLine
 10
5.679654
 20
7.903200999999999
 30
0.0
 11
5.679654
 21
7.903200999999999
 31
0.0
  0
LINE
  5
138
330
18
100
AcDbEntity
  8
0
 62
     0
100
AcDbLine
 10
5.742908
 20
7.862903999999999
 30
0.0
 11
5.742908
 21
7.862903999999999
 31
0.0
  0
LINE
  5
139
330
18
100
AcDbEntity
  8
0
 62
     0
100
AcDbLine
 10
5.503502
 20
7.716984
 30
0.0
 11
5.503502
 21
7.716984
 31
0.0
  0
LINE
  5
13A
330
18
100
AcDbEntity
  8
0
 62
     0
100
AcDbLine
 10
5.800798
 20
7.527586
 30
0.0
 11
5.800798
 21
7.527586
 31
0.0
  0
LINE
  5
13B
330
18
100
AcDbEntity
  8
0
 62
     0
100
AcDbLine
 10
5.864052
 20
7.487289
 30
0.0
 11
5.864052
 21
7.487289
 31
0.0
  0
LINE
  5
13C
330
18
100
AcDbEntity
  8
0
 62
     0
100
AcDbLine
 10
5.624647
 20
7.341369
 30
0.0
 11
5.624647
 21
7.341369
 31
0.0
  0
LINE
  5
13D
330
18
100
AcDbEntity
  8
0
 62
     0
100
AcDbLine
 10
5.921942
 20
7.151971000000001
 30
0.0
 11
5.921942
 21
7.151971000000001
 31
0.0
  0
LINE
  5
13E
330
18
100
AcDbEntity
  8
0
 62
     0
100
AcDbLine
 10
5.454821
 20
7.151122
 30
0.0
 11
5.454821
 21
7.151122
 31
0.0
  0
LINE
  5
13F
330
18
100
AcDbEntity
  8
0
 62
     0
100
AcDbLine
 10
5.518075
 20
7.110824000000001
 30
0.0
 11
5.518075
 21
7.110824000000001
 31
0.0
  0
LINE
  5
140
330
18
100
AcDbEntity
  8
0
 62
     0
100
AcDbLine
 10
5.745791000000001
 20
6.965754
 30
0.0
 11
5.745791000000001
 21
6.965754
 31
0.0
  0
LINE
  5
141
330
18
100
AcDbEntity
  8
0
 62
     0
100
AcDbLine
 10
5.575965
 20
6.775507000000001
 30
0.0
 11
5.575965
 21
6.775507000000001
 31
0.0
  0
LINE
  5
142
330
18
100
AcDbEntity
  8
0
 62
     0
100
AcDbLine
 10
5.63922
 20
6.735208999999999
 30
0.0
 11
5.63922
 21
6.735208999999999
 31
0.0
  0
LINE
  5
143
330
18
100
AcDbEntity
  8
0
 62
     0
100
AcDbLine
 10
5.866935
 20
6.590138000000001
 30
0.0
 11
5.866935
 21
6.590138000000001
 31
0.0
  0
LINE
  5
144
330
18
100
AcDbEntity
  8
0
 62
     0
100
AcDbLine
 10
5.697108999999999
 20
6.399891
 30
0.0
 11
5.697108999999999
 21
6.399891
 31
0.0
  0
LINE
  5
145
330
18
100
AcDbEntity
  8
0
 62
     0
100
AcDbLine
 10
5.760364
 20
6.359594
 30
0.0
 11
5.760364
 21
6.359594
 31
0.0
  0
LINE
  5
146
330
18
100
AcDbEntity
  8
0
 62
     0
100
AcDbLine
 10
5.520958
 20
6.213674
 30
0.0
 11
5.520958
 21
6.213674
 31
0.0
  0
LINE
  5
147
330
18
100
AcDbEntity
  8
0
 62
     0
100
AcDbLine
 10
5.554471
 20
8.362263
 30
0.0
 11
5.554471
 21
8.362263
 31
0.0
  0
LINE
  5
148
330
18
100
AcDbEntity
  8
0
 62
     0
100
AcDbLine
 10
5.582119000000001
 20
8.336929
 30
0.0
 11
5.582119000000001
 21
8.336929
 31
0.0
  0
LINE
  5
149
330
18
100
AcDbEntity
  8
0
 62
     0
100
AcDbLine
 10
5.712617
 20
8.217349000000001
 30
0.0
 11
5.712617
 21
8.217349000000001
 31
0.0
  0
LINE
  5
14A
330
18
100
AcDbEntity
  8
0
 62
     0
100
AcDbLine
 10
5.861916000000001
 20
8.080541999999999
 30
0.0
 11
5.861916000000001
 21
8.080541999999999
 31
0.0
  0
LINE
  5
14B
330
18
100
AcDbEntity
  8
0
 62
     0
100
AcDbLine
 10
5.889564
 20
8.055208
 30
0.0
 11
5.889564
 21
8.055208
 31
0.0
  0
LINE
  5
14C
330
18
100
AcDbEntity
  8
0
 62
     0
100
AcDbLine
 10
5.418149
 20
9.032022
 30
0.0
 11
5.418149
 21
9.032022
 31
0.0
  0
LINE
  5
14D
330
18
100
AcDbEntity
  8
0
 62
     0
100
AcDbLine
 10
5.548647
 20
8.912443
 30
0.0
 11
5.548647
 21
8.912443
 31
0.0
  0
LINE
  5
14E
330
18
100
AcDbEntity
  8
0
 62
     0
100
AcDbLine
 10
5.697945
 20
8.775636
 30
0.0
 11
5.697945
 21
8.775636
 31
0.0
  0
LINE
  5
14F
330
18
100
AcDbEntity
  8
0
 62
     0
100
AcDbLine
 10
5.725593
 20
8.750301
 30
0.0
 11
5.725593
 21
8.750301
 31
0.0
  0
LINE
  5
150
330
18
100
AcDbEntity
  8
0
 62
     0
100
AcDbLine
 10
5.856091
 20
8.630722
 30
0.0
 11
5.856091
 21
8.630722
 31
0.0
  0
LINE
  5
151
330
18
100
AcDbEntity
  8
0
 62
     0
100
AcDbLine
 10
5.533975
 20
9.470728999999999
 30
0.0
 11
5.533975
 21
9.470728999999999
 31
0.0
  0
LINE
  5
152
330
18
100
AcDbEntity
  8
0
 62
     0
100
AcDbLine
 10
5.561623
 20
9.445395
 30
0.0
 11
5.561623
 21
9.445395
 31
0.0
  0
LINE
  5
153
330
18
100
AcDbEntity
  8
0
 62
     0
100
AcDbLine
 10
5.692121
 20
9.325814999999999
 30
0.0
 11
5.692121
 21
9.325814999999999
 31
0.0
  0
LINE
  5
154
330
18
100
AcDbEntity
  8
0
 62
     0
100
AcDbLine
 10
5.841419999999999
 20
9.189007999999999
 30
0.0
 11
5.841419999999999
 21
9.189007999999999
 31
0.0
  0
LINE
  5
155
330
18
100
AcDbEntity
  8
0
 62
     0
100
AcDbLine
 10
5.869068
 20
9.163674
 30
0.0
 11
5.869068
 21
9.163674
 31
0.0
  0
LINE
  5
156
330
18
100
AcDbEntity
  8
0
 62
     0
100
AcDbLine
 10
5.528151
 20
10.020909
 30
0.0
 11
5.528151
 21
10.020909
 31
0.0
  0
LINE
  5
157
330
18
100
AcDbEntity
  8
0
 62
     0
100
AcDbLine
 10
5.677449
 20
9.884102
 30
0.0
 11
5.677449
 21
9.884102
 31
0.0
  0
LINE
  5
158
330
18
100
AcDbEntity
  8
0
 62
     0
100
AcDbLine
 10
5.705097
 20
9.858767
 30
0.0
 11
5.705097
 21
9.858767
 31
0.0
  0
LINE
  5
159
330
18
100
AcDbEntity
  8
0
 62
     0
100
AcDbLine
 10
5.835595
 20
9.739188
 30
0.0
 11
5.835595
 21
9.739188
 31
0.0
  0
LINE
  5
15A
330
18
100
AcDbEntity
  8
0
 62
     0
100
AcDbLine
 10
5.438644999999999
 20
7.923556
 30
0.0
 11
5.438644999999999
 21
7.923556
 31
0.0
  0
LINE
  5
15B
330
18
100
AcDbEntity
  8
0
 62
     0
100
AcDbLine
 10
5.569143
 20
7.803977000000001
 30
0.0
 11
5.569143
 21
7.803977000000001
 31
0.0
  0
LINE
  5
15C
330
18
100
AcDbEntity
  8
0
 62
     0
100
AcDbLine
 10
5.718441
 20
7.66717
 30
0.0
 11
5.718441
 21
7.66717
 31
0.0
  0
LINE
  5
15D
330
18
100
AcDbEntity
  8
0
 62
     0
100
AcDbLine
 10
5.746089
 20
7.641835
 30
0.0
 11
5.746089
 21
7.641835
 31
0.0
  0
LINE
  5
15E
330
18
100
AcDbEntity
  8
0
 62
     0
100
AcDbLine
 10
5.876587000000001
 20
7.522256
 30
0.0
 11
5.876587000000001
 21
7.522256
 31
0.0
  0
LINE
  5
15F
330
18
100
AcDbEntity
  8
0
 62
     0
100
AcDbLine
 10
5.425668
 20
7.390604
 30
0.0
 11
5.425668
 21
7.390604
 31
0.0
  0
LINE
  5
160
330
18
100
AcDbEntity
  8
0
 62
     0
100
AcDbLine
 10
5.574967
 20
7.253797000000001
 30
0.0
 11
5.574967
 21
7.253797000000001
 31
0.0
  0
LINE
  5
161
330
18
100
AcDbEntity
  8
0
 62
     0
100
AcDbLine
 10
5.602615
 20
7.228463000000001
 30
0.0
 11
5.602615
 21
7.228463000000001
 31
0.0
  0
LINE
  5
162
330
18
100
AcDbEntity
  8
0
 62
     0
100
AcDbLine
 10
5.733113
 20
7.108883000000001
 30
0.0
 11
5.733113
 21
7.108883000000001
 31
0.0
  0
LINE
  5
163
330
18
100
AcDbEntity
  8
0
 62
     0
100
AcDbLine
 10
5.882412
 20
6.972076
 30
0.0
 11
5.882412
 21
6.972076
 31
0.0
  0
LINE
  5
164
330
18
100
AcDbEntity
  8
0
 62
     0
100
AcDbLine
 10
5.91006
 20
6.946742
 30
0.0
 11
5.91006
 21
6.946742
 31
0.0
  0
LINE
  5
165
330
18
100
AcDbEntity
  8
0
 62
     0
100
AcDbLine
 10
5.431493
 20
6.840425
 30
0.0
 11
5.431493
 21
6.840425
 31
0.0
  0
LINE
  5
166
330
18
100
AcDbEntity
  8
0
 62
     0
100
AcDbLine
 10
5.459141000000001
 20
6.81509
 30
0.0
 11
5.459141000000001
 21
6.81509
 31
0.0
  0
LINE
  5
167
330
18
100
AcDbEntity
  8
0
 62
     0
100
AcDbLine
 10
5.589639
 20
6.695511
 30
0.0
 11
5.589639
 21
6.695511
 31
0.0
  0
LINE
  5
168
330
18
100
AcDbEntity
  8
0
 62
     0
100
AcDbLine
 10
5.738937
 20
6.558704
 30
0.0
 11
5.738937
 21
6.558704
 31
0.0
  0
LINE
  5
169
330
18
100
AcDbEntity
  8
0
 62
     0
100
AcDbLine
 10
5.766585
 20
6.533369
 30
0.0
 11
5.766585
 21
6.533369
 31
0.0
  0
LINE
  5
16A
330
18
100
AcDbEntity
  8
0
 62
     0
100
AcDbLine
 10
5.897083
 20
6.413790000000001
 30
0.0
 11
5.897083
 21
6.413790000000001
 31
0.0
  0
LINE
  5
16B
330
18
100
AcDbEntity
  8
0
 62
     0
100
AcDbLine
 10
5.446164
 20
6.282138
 30
0.0
 11
5.446164
 21
6.282138
 31
0.0
  0
LINE
  5
16C
330
18
100
AcDbEntity
  8
0
 62
     0
100
AcDbLine
 10
5.591214
 20
3.697741
 30
0.0
 11
5.591214
 21
3.697741
 31
0.0
  0
LINE
  5
16D
330
18
100
AcDbEntity
  8
0
 62
     0
100
AcDbLine
 10
5.784593
 20
3.846127
 30
0.0
 11
5.784593
 21
3.846127
 31
0.0
  0
LINE
  5
16E
330
18
100
AcDbEntity
  8
0
 62
     0
100
AcDbLine
 10
6.167783
 20
4.140158
 30
0.0
 11
6.167783
 21
4.140158
 31
0.0
  0
LINE
  5
16F
330
18
100
AcDbEntity
  8
0
 62
     0
100
AcDbLine
 10
6.361163
 20
4.288544
 30
0.0
 11
6.361163
 21
4.288544
 31
0.0
  0
LINE
  5
170
330
18
100
AcDbEntity
  8
0
 62
     0
100
AcDbLine
 10
5.581765
 20
3.986765
 30
0.0
 11
5.581765
 21
3.986765
 31
0.0
  0
LINE
  5
171
330
18
100
AcDbEntity
  8
0
 62
     0
100
AcDbLine
 10
5.775144
 20
4.13515
 30
0.0
 11
5.775144
 21
4.13515
 31
0.0
  0
LINE
  5
172
330
18
100
AcDbEntity
  8
0
 62
     0
100
AcDbLine
 10
6.158334
 20
4.429182
 30
0.0
 11
6.158334
 21
4.429182
 31
0.0
  0
LINE
  5
173
330
18
100
AcDbEntity
  8
0
 62
     0
100
AcDbLine
 10
6.351714
 20
4.577567
 30
0.0
 11
6.351714
 21
4.577567
 31
0.0
  0
LINE
  5
174
330
18
100
AcDbEntity
  8
0
 62
     0
100
AcDbLine
 10
5.572316000000001
 20
4.275788
 30
0.0
 11
5.572316000000001
 21
4.275788
 31
0.0
  0
LINE
  5
175
330
18
100
AcDbEntity
  8
0
 62
     0
100
AcDbLine
 10
5.765695
 20
4.424174
 30
0.0
 11
5.765695
 21
4.424174
 31
0.0
  0
LINE
  5
176
330
18
100
AcDbEntity
  8
0
 62
     0
100
AcDbLine
 10
6.148885
 20
4.718205
 30
0.0
 11
6.148885
 21
4.718205
 31
0.0
  0
LINE
  5
177
330
18
100
AcDbEntity
  8
0
 62
     0
100
AcDbLine
 10
6.342265
 20
4.866591000000001
 30
0.0
 11
6.342265
 21
4.866591000000001
 31
0.0
  0
LINE
  5
178
330
18
100
AcDbEntity
  8
0
 62
     0
100
AcDbLine
 10
5.562867
 20
4.564812
 30
0.0
 11
5.562867
 21
4.564812
 31
0.0
  0
LINE
  5
179
330
18
100
AcDbEntity
  8
0
 62
     0
100
AcDbLine
 10
5.756246
 20
4.713197
 30
0.0
 11
5.756246
 21
4.713197
 31
0.0
  0
LINE
  5
17A
330
18
100
AcDbEntity
  8
0
 62
     0
100
AcDbLine
 10
6.139436
 20
5.007229
 30
0.0
 11
6.139436
 21
5.007229
 31
0.0
  0
LINE
  5
17B
330
18
100
AcDbEntity
  8
0
 62
     0
100
AcDbLine
 10
6.332816
 20
5.155615
 30
0.0
 11
6.332816
 21
5.155615
 31
0.0
  0
LINE
  5
17C
330
18
100
AcDbEntity
  8
0
 62
     0
100
AcDbLine
 10
5.553418
 20
4.853835
 30
0.0
 11
5.553418
 21
4.853835
 31
0.0
  0
LINE
  5
17D
330
18
100
AcDbEntity
  8
0
 62
     0
100
AcDbLine
 10
5.746797
 20
5.002221
 30
0.0
 11
5.746797
 21
5.002221
 31
0.0
  0
LINE
  5
17E
330
18
100
AcDbEntity
  8
0
 62
     0
100
AcDbLine
 10
5.927682
 20
5.141018
 30
0.0
 11
5.927682
 21
5.141018
 31
0.0
  0
LINE
  5
17F
330
18
100
AcDbEntity
  8
0
 62
     0
100
AcDbLine
 10
6.129987
 20
5.296253
 30
0.0
 11
6.129987
 21
5.296253
 31
0.0
  0
LINE
  5
180
330
18
100
AcDbEntity
  8
0
 62
     0
100
AcDbLine
 10
5.543969000000001
 20
5.142859
 30
0.0
 11
5.543969000000001
 21
5.142859
 31
0.0
  0
LINE
  5
181
330
18
100
AcDbEntity
  8
0
 62
     0
100
AcDbLine
 10
5.737348
 20
5.291244
 30
0.0
 11
5.737348
 21
5.291244
 31
0.0
  0
LINE
  5
182
330
18
100
AcDbEntity
  8
0
 62
     0
100
AcDbLine
 10
5.600663
 20
3.408717
 30
0.0
 11
5.600663
 21
3.408717
 31
0.0
  0
LINE
  5
183
330
18
100
AcDbEntity
  8
0
 62
     0
100
AcDbLine
 10
5.794042
 20
3.557103
 30
0.0
 11
5.794042
 21
3.557103
 31
0.0
  0
LINE
  5
184
330
18
100
AcDbEntity
  8
0
 62
     0
100
AcDbLine
 10
6.177232
 20
3.851135
 30
0.0
 11
6.177232
 21
3.851135
 31
0.0
  0
LINE
  5
185
330
18
100
AcDbEntity
  8
0
 62
     0
100
AcDbLine
 10
6.370612
 20
3.99952
 30
0.0
 11
6.370612
 21
3.99952
 31
0.0
  0
LINE
  5
186
330
18
100
AcDbEntity
  8
0
 62
     0
100
AcDbLine
 10
5.610112
 20
3.119694
 30
0.0
 11
5.610112
 21
3.119694
 31
0.0
  0
LINE
  5
187
330
18
100
AcDbEntity
  8
0
 62
     0
100
AcDbLine
 10
5.803491
 20
3.268079
 30
0.0
 11
5.803491
 21
3.268079
 31
0.0
  0
LINE
  5
188
330
18
100
AcDbEntity
  8
0
 62
     0
100
AcDbLine
 10
6.186681
 20
3.562111
 30
0.0
 11
6.186681
 21
3.562111
 31
0.0
  0
LINE
  5
189
330
18
100
AcDbEntity
  8
0
 62
     0
100
AcDbLine
 10
6.380061
 20
3.710497
 30
0.0
 11
6.380061
 21
3.710497
 31
0.0
  0
LINE
  5
18A
330
18
100
AcDbEntity
  8
0
 62
     0
100
AcDbLine
 10
5.417255
 20
2.675436
 30
0.0
 11
5.417255
 21
2.675436
 31
0.0
  0
LINE
  5
18B
330
18
100
AcDbEntity
  8
0
 62
     0
100
AcDbLine
 10
5.619561
 20
2.83067
 30
0.0
 11
5.619561
 21
2.83067
 31
0.0
  0
LINE
  5
18C
330
18
100
AcDbEntity
  8
0
 62
     0
100
AcDbLine
 10
5.81294
 20
2.979056
 30
0.0
 11
5.81294
 21
2.979056
 31
0.0
  0
LINE
  5
18D
330
18
100
AcDbEntity
  8
0
 62
     0
100
AcDbLine
 10
6.19613
 20
3.273088
 30
0.0
 11
6.19613
 21
3.273088
 31
0.0
  0
LINE
  5
18E
330
18
100
AcDbEntity
  8
0
 62
     0
100
AcDbLine
 10
6.38951
 20
3.421473
 30
0.0
 11
6.38951
 21
3.421473
 31
0.0
  0
LINE
  5
18F
330
18
100
AcDbEntity
  8
0
 62
     0
100
AcDbLine
 10
5.426704
 20
2.386413
 30
0.0
 11
5.426704
 21
2.386413
 31
0.0
  0
LINE
  5
190
330
18
100
AcDbEntity
  8
0
 62
     0
100
AcDbLine
 10
5.62901
 20
2.541647
 30
0.0
 11
5.62901
 21
2.541647
 31
0.0
  0
LINE
  5
191
330
18
100
AcDbEntity
  8
0
 62
     0
100
AcDbLine
 10
5.822389
 20
2.690032
 30
0.0
 11
5.822389
 21
2.690032
 31
0.0
  0
LINE
  5
192
330
18
100
AcDbEntity
  8
0
 62
     0
100
AcDbLine
 10
6.205579
 20
2.984064
 30
0.0
 11
6.205579
 21
2.984064
 31
0.0
  0
LINE
  5
193
330
18
100
AcDbEntity
  8
0
 62
     0
100
AcDbLine
 10
6.398959
 20
3.13245
 30
0.0
 11
6.398959
 21
3.13245
 31
0.0
  0
LINE
  5
194
330
18
100
AcDbEntity
  8
0
 62
     0
100
AcDbLine
 10
5.436153
 20
2.097389
 30
0.0
 11
5.436153
 21
2.097389
 31
0.0
  0
LINE
  5
195
330
18
100
AcDbEntity
  8
0
 62
     0
100
AcDbLine
 10
5.638458999999999
 20
2.252623
 30
0.0
 11
5.638458999999999
 21
2.252623
 31
0.0
  0
LINE
  5
196
330
18
100
AcDbEntity
  8
0
 62
     0
100
AcDbLine
 10
5.831837999999999
 20
2.401009
 30
0.0
 11
5.831837999999999
 21
2.401009
 31
0.0
  0
LINE
  5
197
330
18
100
AcDbEntity
  8
0
 62
     0
100
AcDbLine
 10
6.215028
 20
2.69504
 30
0.0
 11
6.215028
 21
2.69504
 31
0.0
  0
LINE
  5
198
330
18
100
AcDbEntity
  8
0
 62
     0
100
AcDbLine
 10
6.408408000000001
 20
2.843426
 30
0.0
 11
6.408408000000001
 21
2.843426
 31
0.0
  0
LINE
  5
199
330
18
100
AcDbEntity
  8
0
 62
     0
100
AcDbLine
 10
5.647908
 20
1.9636
 30
0.0
 11
5.647908
 21
1.9636
 31
0.0
  0
LINE
  5
19A
330
18
100
AcDbEntity
  8
0
 62
     0
100
AcDbLine
 10
5.841287
 20
2.111985
 30
0.0
 11
5.841287
 21
2.111985
 31
0.0
  0
LINE
  5
19B
330
18
100
AcDbEntity
  8
0
 62
     0
100
AcDbLine
 10
6.224476999999999
 20
2.406017
 30
0.0
 11
6.224476999999999
 21
2.406017
 31
0.0
  0
LINE
  5
19C
330
18
100
AcDbEntity
  8
0
 62
     0
100
AcDbLine
 10
6.417857
 20
2.554403
 30
0.0
 11
6.417857
 21
2.554403
 31
0.0
  0
LINE
  5
19D
330
18
100
AcDbEntity
  8
0
 62
     0
100
AcDbLine
 10
6.031621
 20
1.961759
 30
0.0
 11
6.031621
 21
1.961759
 31
0.0
  0
LINE
  5
19E
330
18
100
AcDbEntity
  8
0
 62
     0
100
AcDbLine
 10
6.233926
 20
2.116993
 30
0.0
 11
6.233926
 21
2.116993
 31
0.0
  0
LINE
  5
19F
330
18
100
AcDbEntity
  8
0
 62
     0
100
AcDbLine
 10
6.427306
 20
2.265379
 30
0.0
 11
6.427306
 21
2.265379
 31
0.0
  0
LINE
  5
1A0
330
18
100
AcDbEntity
  8
0
 62
     0
100
AcDbLine
 10
6.436755000000001
 20
1.976355
 30
0.0
 11
6.436755000000001
 21
1.976355
 31
0.0
  0
LINE
  5
1A1
330
18
100
AcDbEntity
  8
0
 62
     0
100
AcDbLine
 10
5.492159
 20
3.441664
 30
0.0
 11
5.492159
 21
3.441664
 31
0.0
  0
LINE
  5
1A2
330
18
100
AcDbEntity
  8
0
 62
     0
100
AcDbLine
 10
5.614107
 20
3.457719
 30
0.0
 11
5.614107
 21
3.457719
 31
0.0
  0
LINE
  5
1A3
330
18
100
AcDbEntity
  8
0
 62
     0
100
AcDbLine
 10
5.817848000000001
 20
3.484542
 30
0.0
 11
5.817848000000001
 21
3.484542
 31
0.0
  0
LINE
  5
1A4
330
18
100
AcDbEntity
  8
0
 62
     0
100
AcDbLine
 10
5.895925
 20
3.494821
 30
0.0
 11
5.895925
 21
3.494821
 31
0.0
  0
LINE
  5
1A5
330
18
100
AcDbEntity
  8
0
 62
     0
100
AcDbLine
 10
6.221614
 20
3.537699
 30
0.0
 11
6.221614
 21
3.537699
 31
0.0
  0
LINE
  5
1A6
330
18
100
AcDbEntity
  8
0
 62
     0
100
AcDbLine
 10
6.299691
 20
3.547978
 30
0.0
 11
6.299691
 21
3.547978
 31
0.0
  0
LINE
  5
1A7
330
18
100
AcDbEntity
  8
0
 62
     0
100
AcDbLine
 10
6.421638
 20
3.564033
 30
0.0
 11
6.421638
 21
3.564033
 31
0.0
  0
LINE
  5
1A8
330
18
100
AcDbEntity
  8
0
 62
     0
100
AcDbLine
 10
5.475807
 20
3.827884
 30
0.0
 11
5.475807
 21
3.827884
 31
0.0
  0
LINE
  5
1A9
330
18
100
AcDbEntity
  8
0
 62
     0
100
AcDbLine
 10
5.679549
 20
3.854707
 30
0.0
 11
5.679549
 21
3.854707
 31
0.0
  0
LINE
  5
1AA
330
18
100
AcDbEntity
  8
0
 62
     0
100
AcDbLine
 10
5.757625
 20
3.864986
 30
0.0
 11
5.757625
 21
3.864986
 31
0.0
  0
LINE
  5
1AB
330
18
100
AcDbEntity
  8
0
 62
     0
100
AcDbLine
 10
5.879573000000001
 20
3.881041
 30
0.0
 11
5.879573000000001
 21
3.881041
 31
0.0
  0
LINE
  5
1AC
330
18
100
AcDbEntity
  8
0
 62
     0
100
AcDbLine
 10
6.083315
 20
3.907864
 30
0.0
 11
6.083315
 21
3.907864
 31
0.0
  0
LINE
  5
1AD
330
18
100
AcDbEntity
  8
0
 62
     0
100
AcDbLine
 10
6.161391
 20
3.918143
 30
0.0
 11
6.161391
 21
3.918143
 31
0.0
  0
LINE
  5
1AE
330
18
100
AcDbEntity
  8
0
 62
     0
100
AcDbLine
 10
6.283339
 20
3.934198
 30
0.0
 11
6.283339
 21
3.934198
 31
0.0
  0
LINE
  5
1AF
330
18
100
AcDbEntity
  8
0
 62
     0
100
AcDbLine
 10
5.54125
 20
4.224873000000001
 30
0.0
 11
5.54125
 21
4.224873000000001
 31
0.0
  0
LINE
  5
1B0
330
18
100
AcDbEntity
  8
0
 62
     0
100
AcDbLine
 10
5.619326
 20
4.235151999999999
 30
0.0
 11
5.619326
 21
4.235151999999999
 31
0.0
  0
LINE
  5
1B1
330
18
100
AcDbEntity
  8
0
 62
     0
100
AcDbLine
 10
5.741274
 20
4.251206
 30
0.0
 11
5.741274
 21
4.251206
 31
0.0
  0
LINE
  5
1B2
330
18
100
AcDbEntity
  8
0
 62
     0
100
AcDbLine
 10
6.14504
 20
4.304363
 30
0.0
 11
6.14504
 21
4.304363
 31
0.0
  0
LINE
  5
1B3
330
18
100
AcDbEntity
  8
0
 62
     0
100
AcDbLine
 10
6.348781
 20
4.331186
 30
0.0
 11
6.348781
 21
4.331186
 31
0.0
  0
LINE
  5
1B4
330
18
100
AcDbEntity
  8
0
 62
     0
100
AcDbLine
 10
6.426858
 20
4.341465
 30
0.0
 11
6.426858
 21
4.341465
 31
0.0
  0
LINE
  5
1B5
330
18
100
AcDbEntity
  8
0
 62
     0
100
AcDbLine
 10
5.481026
 20
4.605316999999999
 30
0.0
 11
5.481026
 21
4.605316999999999
 31
0.0
  0
LINE
  5
1B6
330
18
100
AcDbEntity
  8
0
 62
     0
100
AcDbLine
 10
5.602974
 20
4.621371
 30
0.0
 11
5.602974
 21
4.621371
 31
0.0
  0
LINE
  5
1B7
330
18
100
AcDbEntity
  8
0
 62
     0
100
AcDbLine
 10
5.806716000000001
 20
4.648194
 30
0.0
 11
5.806716000000001
 21
4.648194
 31
0.0
  0
LINE
  5
1B8
330
18
100
AcDbEntity
  8
0
 62
     0
100
AcDbLine
 10
5.884792
 20
4.658473000000001
 30
0.0
 11
5.884792
 21
4.658473000000001
 31
0.0
  0
LINE
  5
1B9
330
18
100
AcDbEntity
  8
0
 62
     0
100
AcDbLine
 10
6.210482
 20
4.701351
 30
0.0
 11
6.210482
 21
4.701351
 31
0.0
  0
LINE
  5
1BA
330
18
100
AcDbEntity
  8
0
 62
     0
100
AcDbLine
 10
6.288558
 20
4.71163
 30
0.0
 11
6.288558
 21
4.71163
 31
0.0
  0
LINE
  5
1BB
330
18
100
AcDbEntity
  8
0
 62
     0
100
AcDbLine
 10
6.410506
 20
4.727685
 30
0.0
 11
6.410506
 21
4.727685
 31
0.0
  0
LINE
  5
1BC
330
18
100
AcDbEntity
  8
0
 62
     0
100
AcDbLine
 10
5.464675
 20
4.991536
 30
0.0
 11
5.464675
 21
4.991536
 31
0.0
  0
LINE
  5
1BD
330
18
100
AcDbEntity
  8
0
 62
     0
100
AcDbLine
 10
5.668417
 20
5.01836
 30
0.0
 11
5.668417
 21
5.01836
 31
0.0
  0
LINE
  5
1BE
330
18
100
AcDbEntity
  8
0
 62
     0
100
AcDbLine
 10
5.746493
 20
5.028639
 30
0.0
 11
5.746493
 21
5.028639
 31
0.0
  0
LINE
  5
1BF
330
18
100
AcDbEntity
  8
0
 62
     0
100
AcDbLine
 10
5.868441000000001
 20
5.044693
 30
0.0
 11
5.868441000000001
 21
5.044693
 31
0.0
  0
LINE
  5
1C0
330
18
100
AcDbEntity
  8
0
 62
     0
100
AcDbLine
 10
6.072183
 20
5.071516
 30
0.0
 11
6.072183
 21
5.071516
 31
0.0
  0
LINE
  5
1C1
330
18
100
AcDbEntity
  8
0
 62
     0
100
AcDbLine
 10
6.150258999999999
 20
5.081795
 30
0.0
 11
6.150258999999999
 21
5.081795
 31
0.0
  0
LINE
  5
1C2
330
18
100
AcDbEntity
  8
0
 62
     0
100
AcDbLine
 10
6.272207
 20
5.09785
 30
0.0
 11
6.272207
 21
5.09785
 31
0.0
  0
LINE
  5
1C3
330
18
100
AcDbEntity
  8
0
 62
     0
100
AcDbLine
 10
5.552382
 20
3.06122
 30
0.0
 11
5.552382
 21
3.06122
 31
0.0
  0
LINE
  5
1C4
330
18
100
AcDbEntity
  8
0
 62
     0
100
AcDbLine
 10
5.630458
 20
3.071499
 30
0.0
 11
5.630458
 21
3.071499
 31
0.0
  0
LINE
  5
1C5
330
18
100
AcDbEntity
  8
0
 62
     0
100
AcDbLine
 10
5.752406
 20
3.087554
 30
0.0
 11
5.752406
 21
3.087554
 31
0.0
  0
LINE
  5
1C6
330
18
100
AcDbEntity
  8
0
 62
     0
100
AcDbLine
 10
6.156172
 20
3.140711
 30
0.0
 11
6.156172
 21
3.140711
 31
0.0
  0
LINE
  5
1C7
330
18
100
AcDbEntity
  8
0
 62
     0
100
AcDbLine
 10
6.359914
 20
3.167534
 30
0.0
 11
6.359914
 21
3.167534
 31
0.0
  0
LINE
  5
1C8
330
18
100
AcDbEntity
  8
0
 62
     0
100
AcDbLine
 10
6.43799
 20
3.177813
 30
0.0
 11
6.43799
 21
3.177813
 31
0.0
  0
LINE
  5
1C9
330
18
100
AcDbEntity
  8
0
 62
     0
100
AcDbLine
 10
5.486939
 20
2.664232
 30
0.0
 11
5.486939
 21
2.664232
 31
0.0
  0
LINE
  5
1CA
330
18
100
AcDbEntity
  8
0
 62
     0
100
AcDbLine
 10
5.690681
 20
2.691055
 30
0.0
 11
5.690681
 21
2.691055
 31
0.0
  0
LINE
  5
1CB
330
18
100
AcDbEntity
  8
0
 62
     0
100
AcDbLine
 10
5.768758
 20
2.701334
 30
0.0
 11
5.768758
 21
2.701334
 31
0.0
  0
LINE
  5
1CC
330
18
100
AcDbEntity
  8
0
 62
     0
100
AcDbLine
 10
5.890705000000001
 20
2.717389
 30
0.0
 11
5.890705000000001
 21
2.717389
 31
0.0
  0
LINE
  5
1CD
330
18
100
AcDbEntity
  8
0
 62
     0
100
AcDbLine
 10
6.094447
 20
2.744212
 30
0.0
 11
6.094447
 21
2.744212
 31
0.0
  0
LINE
  5
1CE
330
18
100
AcDbEntity
  8
0
 62
     0
100
AcDbLine
 10
6.172524
 20
2.754491
 30
0.0
 11
6.172524
 21
2.754491
 31
0.0
  0
LINE
  5
1CF
330
18
100
AcDbEntity
  8
0
 62
     0
100
AcDbLine
 10
6.294471
 20
2.770546
 30
0.0
 11
6.294471
 21
2.770546
 31
0.0
  0
LINE
  5
1D0
330
18
100
AcDbEntity
  8
0
 62
     0
100
AcDbLine
 10
5.425215000000001
 20
2.267733
 30
0.0
 11
5.425215000000001
 21
2.267733
 31
0.0
  0
LINE
  5
1D1
330
18
100
AcDbEntity
  8
0
 62
     0
100
AcDbLine
 10
5.503291
 20
2.278012
 30
0.0
 11
5.503291
 21
2.278012
 31
0.0
  0
LINE
  5
1D2
330
18
100
AcDbEntity
  8
0
 62
     0
100
AcDbLine
 10
5.625239
 20
2.294067
 30
0.0
 11
5.625239
 21
2.294067
 31
0.0
  0
LINE
  5
1D3
330
18
100
AcDbEntity
  8
0
 62
     0
100
AcDbLine
 10
5.828981
 20
2.32089
 30
0.0
 11
5.828981
 21
2.32089
 31
0.0
  0
LINE
  5
1D4
330
18
100
AcDbEntity
  8
0
 62
     0
100
AcDbLine
 10
5.907057
 20
2.331169
 30
0.0
 11
5.907057
 21
2.331169
 31
0.0
  0
LINE
  5
1D5
330
18
100
AcDbEntity
  8
0
 62
     0
100
AcDbLine
 10
6.029005000000001
 20
2.347224
 30
0.0
 11
6.029005000000001
 21
2.347224
 31
0.0
  0
LINE
  5
1D6
330
18
100
AcDbEntity
  8
0
 62
     0
100
AcDbLine
 10
6.232747
 20
2.374047
 30
0.0
 11
6.232747
 21
2.374047
 31
0.0
  0
LINE
  5
1D7
330
18
100
AcDbEntity
  8
0
 62
     0
100
AcDbLine
 10
6.310823
 20
2.384326
 30
0.0
 11
6.310823
 21
2.384326
 31
0.0
  0
LINE
  5
1D8
330
18
100
AcDbEntity
  8
0
 62
     0
100
AcDbLine
 10
6.432771
 20
2.400381
 30
0.0
 11
6.432771
 21
2.400381
 31
0.0
  0
LINE
  5
1D9
330
18
100
AcDbEntity
  8
0
 62
     0
100
AcDbLine
 10
5.763538
 20
1.923902
 30
0.0
 11
5.763538
 21
1.923902
 31
0.0
  0
LINE
  5
1DA
330
18
100
AcDbEntity
  8
0
 62
     0
100
AcDbLine
 10
5.967280000000001
 20
1.950725
 30
0.0
 11
5.967280000000001
 21
1.950725
 31
0.0
  0
LINE
  5
1DB
330
18
100
AcDbEntity
  8
0
 62
     0
100
AcDbLine
 10
6.045356
 20
1.961004
 30
0.0
 11
6.045356
 21
1.961004
 31
0.0
  0
LINE
  5
1DC
330
18
100
AcDbEntity
  8
0
 62
     0
100
AcDbLine
 10
6.167304
 20
1.977059
 30
0.0
 11
6.167304
 21
1.977059
 31
0.0
  0
LINE
  5
1DD
330
18
100
AcDbEntity
  8
0
 62
     0
100
AcDbLine
 10
6.371046
 20
2.003882
 30
0.0
 11
6.371046
 21
2.003882
 31
0.0
  0
LINE
  5
1DE
330
18
100
AcDbEntity
  8
0
 62
     0
100
AcDbLine
 10
6.449122
 20
2.014161
 30
0.0
 11
6.449122
 21
2.014161
 31
0.0
  0
LINE
  5
1DF
330
18
100
AcDbEntity
  8
0
 62
     0
100
AcDbLine
 10
5.610876999999999
 20
3.768886
 30
0.0
 11
5.610876999999999
 21
3.768886
 31
0.0
  0
LINE
  5
1E0
330
18
100
AcDbEntity
  8
0
 62
     0
100
AcDbLine
 10
5.674131
 20
3.728589
 30
0.0
 11
5.674131
 21
3.728589
 31
0.0
  0
LINE
  5
1E1
330
18
100
AcDbEntity
  8
0
 62
     0
100
AcDbLine
 10
5.901847
 20
3.583518
 30
0.0
 11
5.901847
 21
3.583518
 31
0.0
  0
LINE
  5
1E2
330
18
100
AcDbEntity
  8
0
 62
     0
100
AcDbLine
 10
6.199142
 20
3.39412
 30
0.0
 11
6.199142
 21
3.39412
 31
0.0
  0
LINE
  5
1E3
330
18
100
AcDbEntity
  8
0
 62
     0
100
AcDbLine
 10
6.262397
 20
3.353822
 30
0.0
 11
6.262397
 21
3.353822
 31
0.0
  0
LINE
  5
1E4
330
18
100
AcDbEntity
  8
0
 62
     0
100
AcDbLine
 10
5.489732
 20
4.144501999999999
 30
0.0
 11
5.489732
 21
4.144501999999999
 31
0.0
  0
LINE
  5
1E5
330
18
100
AcDbEntity
  8
0
 62
     0
100
AcDbLine
 10
5.552987
 20
4.104204
 30
0.0
 11
5.552987
 21
4.104204
 31
0.0
  0
LINE
  5
1E6
330
18
100
AcDbEntity
  8
0
 62
     0
100
AcDbLine
 10
5.780702
 20
3.959133
 30
0.0
 11
5.780702
 21
3.959133
 31
0.0
  0
LINE
  5
1E7
330
18
100
AcDbEntity
  8
0
 62
     0
100
AcDbLine
 10
6.077998
 20
3.769735
 30
0.0
 11
6.077998
 21
3.769735
 31
0.0
  0
LINE
  5
1E8
330
18
100
AcDbEntity
  8
0
 62
     0
100
AcDbLine
 10
6.141252
 20
3.729438
 30
0.0
 11
6.141252
 21
3.729438
 31
0.0
  0
LINE
  5
1E9
330
18
100
AcDbEntity
  8
0
 62
     0
100
AcDbLine
 10
6.368968
 20
3.584367
 30
0.0
 11
6.368968
 21
3.584367
 31
0.0
  0
LINE
  5
1EA
330
18
100
AcDbEntity
  8
0
 62
     0
100
AcDbLine
 10
5.431842
 20
4.479819
 30
0.0
 11
5.431842
 21
4.479819
 31
0.0
  0
LINE
  5
1EB
330
18
100
AcDbEntity
  8
0
 62
     0
100
AcDbLine
 10
5.659558000000001
 20
4.334749
 30
0.0
 11
5.659558000000001
 21
4.334749
 31
0.0
  0
LINE
  5
1EC
330
18
100
AcDbEntity
  8
0
 62
     0
100
AcDbLine
 10
6.247824
 20
3.959982
 30
0.0
 11
6.247824
 21
3.959982
 31
0.0
  0
LINE
  5
1ED
330
18
100
AcDbEntity
  8
0
 62
     0
100
AcDbLine
 10
5.538414
 20
4.710364
 30
0.0
 11
5.538414
 21
4.710364
 31
0.0
  0
LINE
  5
1EE
330
18
100
AcDbEntity
  8
0
 62
     0
100
AcDbLine
 10
5.835709
 20
4.520966000000001
 30
0.0
 11
5.835709
 21
4.520966000000001
 31
0.0
  0
LINE
  5
1EF
330
18
100
AcDbEntity
  8
0
 62
     0
100
AcDbLine
 10
5.898964
 20
4.480668
 30
0.0
 11
5.898964
 21
4.480668
 31
0.0
  0
LINE
  5
1F0
330
18
100
AcDbEntity
  8
0
 62
     0
100
AcDbLine
 10
6.126679
 20
4.335597
 30
0.0
 11
6.126679
 21
4.335597
 31
0.0
  0
LINE
  5
1F1
330
18
100
AcDbEntity
  8
0
 62
     0
100
AcDbLine
 10
6.423975
 20
4.146199
 30
0.0
 11
6.423975
 21
4.146199
 31
0.0
  0
LINE
  5
1F2
330
18
100
AcDbEntity
  8
0
 62
     0
100
AcDbLine
 10
5.417269999999999
 20
5.085979
 30
0.0
 11
5.417269999999999
 21
5.085979
 31
0.0
  0
LINE
  5
1F3
330
18
100
AcDbEntity
  8
0
 62
     0
100
AcDbLine
 10
5.714565
 20
4.896580999999999
 30
0.0
 11
5.714565
 21
4.896580999999999
 31
0.0
  0
LINE
  5
1F4
330
18
100
AcDbEntity
  8
0
 62
     0
100
AcDbLine
 10
5.777819999999999
 20
4.856284
 30
0.0
 11
5.777819999999999
 21
4.856284
 31
0.0
  0
LINE
  5
1F5
330
18
100
AcDbEntity
  8
0
 62
     0
100
AcDbLine
 10
6.302830999999999
 20
4.521815
 30
0.0
 11
6.302830999999999
 21
4.521815
 31
0.0
  0
LINE
  5
1F6
330
18
100
AcDbEntity
  8
0
 62
     0
100
AcDbLine
 10
6.366085
 20
4.481517
 30
0.0
 11
6.366085
 21
4.481517
 31
0.0
  0
LINE
  5
1F7
330
18
100
AcDbEntity
  8
0
 62
     0
100
AcDbLine
 10
5.593421
 20
5.272196
 30
0.0
 11
5.593421
 21
5.272196
 31
0.0
  0
LINE
  5
1F8
330
18
100
AcDbEntity
  8
0
 62
     0
100
AcDbLine
 10
5.656675
 20
5.231898999999999
 30
0.0
 11
5.656675
 21
5.231898999999999
 31
0.0
  0
LINE
  5
1F9
330
18
100
AcDbEntity
  8
0
 62
     0
100
AcDbLine
 10
5.884391
 20
5.086828
 30
0.0
 11
5.884391
 21
5.086828
 31
0.0
  0
LINE
  5
1FA
330
18
100
AcDbEntity
  8
0
 62
     0
100
AcDbLine
 10
6.181686
 20
4.89743
 30
0.0
 11
6.181686
 21
4.89743
 31
0.0
  0
LINE
  5
1FB
330
18
100
AcDbEntity
  8
0
 62
     0
100
AcDbLine
 10
6.244941000000001
 20
4.857132
 30
0.0
 11
6.244941000000001
 21
4.857132
 31
0.0
  0
LINE
  5
1FC
330
18
100
AcDbEntity
  8
0
 62
     0
100
AcDbLine
 10
6.060542
 20
5.273045
 30
0.0
 11
6.060542
 21
5.273045
 31
0.0
  0
LINE
  5
1FD
330
18
100
AcDbEntity
  8
0
 62
     0
100
AcDbLine
 10
6.123797
 20
5.232748
 30
0.0
 11
6.123797
 21
5.232748
 31
0.0
  0
LINE
  5
1FE
330
18
100
AcDbEntity
  8
0
 62
     0
100
AcDbLine
 10
6.351512000000001
 20
5.087676999999999
 30
0.0
 11
6.351512000000001
 21
5.087676999999999
 31
0.0
  0
LINE
  5
1FF
330
18
100
AcDbEntity
  8
0
 62
     0
100
AcDbLine
 10
5.434725
 20
3.582669
 30
0.0
 11
5.434725
 21
3.582669
 31
0.0
  0
LINE
  5
200
330
18
100
AcDbEntity
  8
0
 62
     0
100
AcDbLine
 10
5.732021
 20
3.393271
 30
0.0
 11
5.732021
 21
3.393271
 31
0.0
  0
LINE
  5
201
330
18
100
AcDbEntity
  8
0
 62
     0
100
AcDbLine
 10
5.795275
 20
3.352973
 30
0.0
 11
5.795275
 21
3.352973
 31
0.0
  0
LINE
  5
202
330
18
100
AcDbEntity
  8
0
 62
     0
100
AcDbLine
 10
6.320286
 20
3.018504
 30
0.0
 11
6.320286
 21
3.018504
 31
0.0
  0
LINE
  5
203
330
18
100
AcDbEntity
  8
0
 62
     0
100
AcDbLine
 10
6.383541
 20
2.978207
 30
0.0
 11
6.383541
 21
2.978207
 31
0.0
  0
LINE
  5
204
330
18
100
AcDbEntity
  8
0
 62
     0
100
AcDbLine
 10
5.55587
 20
3.207054
 30
0.0
 11
5.55587
 21
3.207054
 31
0.0
  0
LINE
  5
205
330
18
100
AcDbEntity
  8
0
 62
     0
100
AcDbLine
 10
5.853165
 20
3.017656
 30
0.0
 11
5.853165
 21
3.017656
 31
0.0
  0
LINE
  5
206
330
18
100
AcDbEntity
  8
0
 62
     0
100
AcDbLine
 10
6.144135
 20
2.832287
 30
0.0
 11
6.144135
 21
2.832287
 31
0.0
  0
LINE
  5
207
330
18
100
AcDbEntity
  8
0
 62
     0
100
AcDbLine
 10
6.441431
 20
2.642889
 30
0.0
 11
6.441431
 21
2.642889
 31
0.0
  0
LINE
  5
208
330
18
100
AcDbEntity
  8
0
 62
     0
100
AcDbLine
 10
5.449298000000001
 20
2.976509
 30
0.0
 11
5.449298000000001
 21
2.976509
 31
0.0
  0
LINE
  5
209
330
18
100
AcDbEntity
  8
0
 62
     0
100
AcDbLine
 10
5.677014
 20
2.831438
 30
0.0
 11
5.677014
 21
2.831438
 31
0.0
  0
LINE
  5
20A
330
18
100
AcDbEntity
  8
0
 62
     0
100
AcDbLine
 10
6.037564
 20
2.601743
 30
0.0
 11
6.037564
 21
2.601743
 31
0.0
  0
LINE
  5
20B
330
18
100
AcDbEntity
  8
0
 62
     0
100
AcDbLine
 10
6.265279000000001
 20
2.456672
 30
0.0
 11
6.265279000000001
 21
2.456672
 31
0.0
  0
LINE
  5
20C
330
18
100
AcDbEntity
  8
0
 62
     0
100
AcDbLine
 10
5.507187999999999
 20
2.641191
 30
0.0
 11
5.507187999999999
 21
2.641191
 31
0.0
  0
LINE
  5
20D
330
18
100
AcDbEntity
  8
0
 62
     0
100
AcDbLine
 10
5.570442
 20
2.600894
 30
0.0
 11
5.570442
 21
2.600894
 31
0.0
  0
LINE
  5
20E
330
18
100
AcDbEntity
  8
0
 62
     0
100
AcDbLine
 10
5.798158
 20
2.455823
 30
0.0
 11
5.798158
 21
2.455823
 31
0.0
  0
LINE
  5
20F
330
18
100
AcDbEntity
  8
0
 62
     0
100
AcDbLine
 10
6.095454
 20
2.266425
 30
0.0
 11
6.095454
 21
2.266425
 31
0.0
  0
LINE
  5
210
330
18
100
AcDbEntity
  8
0
 62
     0
100
AcDbLine
 10
6.158708
 20
2.226127
 30
0.0
 11
6.158708
 21
2.226127
 31
0.0
  0
LINE
  5
211
330
18
100
AcDbEntity
  8
0
 62
     0
100
AcDbLine
 10
6.386424
 20
2.081057
 30
0.0
 11
6.386424
 21
2.081057
 31
0.0
  0
LINE
  5
212
330
18
100
AcDbEntity
  8
0
 62
     0
100
AcDbLine
 10
5.628332
 20
2.265576
 30
0.0
 11
5.628332
 21
2.265576
 31
0.0
  0
LINE
  5
213
330
18
100
AcDbEntity
  8
0
 62
     0
100
AcDbLine
 10
5.691587
 20
2.225279
 30
0.0
 11
5.691587
 21
2.225279
 31
0.0
  0
LINE
  5
214
330
18
100
AcDbEntity
  8
0
 62
     0
100
AcDbLine
 10
5.919302
 20
2.080208
 30
0.0
 11
5.919302
 21
2.080208
 31
0.0
  0
LINE
  5
215
330
18
100
AcDbEntity
  8
0
 62
     0
100
AcDbLine
 10
5.452181
 20
2.079359
 30
0.0
 11
5.452181
 21
2.079359
 31
0.0
  0
LINE
  5
216
330
18
100
AcDbEntity
  8
0
 62
     0
100
AcDbLine
 10
5.487156
 20
4.065206
 30
0.0
 11
5.487156
 21
4.065206
 31
0.0
  0
LINE
  5
217
330
18
100
AcDbEntity
  8
0
 62
     0
100
AcDbLine
 10
5.636455000000001
 20
3.928399
 30
0.0
 11
5.636455000000001
 21
3.928399
 31
0.0
  0
LINE
  5
218
330
18
100
AcDbEntity
  8
0
 62
     0
100
AcDbLine
 10
5.664103
 20
3.903065
 30
0.0
 11
5.664103
 21
3.903065
 31
0.0
  0
LINE
  5
219
330
18
100
AcDbEntity
  8
0
 62
     0
100
AcDbLine
 10
5.794601
 20
3.783485
 30
0.0
 11
5.794601
 21
3.783485
 31
0.0
  0
LINE
  5
21A
330
18
100
AcDbEntity
  8
0
 62
     0
100
AcDbLine
 10
6.102046
 20
3.501764
 30
0.0
 11
6.102046
 21
3.501764
 31
0.0
  0
LINE
  5
21B
330
18
100
AcDbEntity
  8
0
 62
     0
100
AcDbLine
 10
6.251344000000001
 20
3.364957
 30
0.0
 11
6.251344000000001
 21
3.364957
 31
0.0
  0
LINE
  5
21C
330
18
100
AcDbEntity
  8
0
 62
     0
100
AcDbLine
 10
6.278992
 20
3.339623000000001
 30
0.0
 11
6.278992
 21
3.339623000000001
 31
0.0
  0
LINE
  5
21D
330
18
100
AcDbEntity
  8
0
 62
     0
100
AcDbLine
 10
6.40949
 20
3.220043
 30
0.0
 11
6.40949
 21
3.220043
 31
0.0
  0
LINE
  5
21E
330
18
100
AcDbEntity
  8
0
 62
     0
100
AcDbLine
 10
5.472485
 20
4.623493
 30
0.0
 11
5.472485
 21
4.623493
 31
0.0
  0
LINE
  5
21F
330
18
100
AcDbEntity
  8
0
 62
     0
100
AcDbLine
 10
5.500133
 20
4.598158
 30
0.0
 11
5.500133
 21
4.598158
 31
0.0
  0
LINE
  5
220
330
18
100
AcDbEntity
  8
0
 62
     0
100
AcDbLine
 10
5.630631
 20
4.478579
 30
0.0
 11
5.630631
 21
4.478579
 31
0.0
  0
LINE
  5
221
330
18
100
AcDbEntity
  8
0
 62
     0
100
AcDbLine
 10
5.779929
 20
4.341772
 30
0.0
 11
5.779929
 21
4.341772
 31
0.0
  0
LINE
  5
222
330
18
100
AcDbEntity
  8
0
 62
     0
100
AcDbLine
 10
5.807576999999999
 20
4.316437000000001
 30
0.0
 11
5.807576999999999
 21
4.316437000000001
 31
0.0
  0
LINE
  5
223
330
18
100
AcDbEntity
  8
0
 62
     0
100
AcDbLine
 10
6.087374
 20
4.060051000000001
 30
0.0
 11
6.087374
 21
4.060051000000001
 31
0.0
  0
LINE
  5
224
330
18
100
AcDbEntity
  8
0
 62
     0
100
AcDbLine
 10
6.115022
 20
4.034716
 30
0.0
 11
6.115022
 21
4.034716
 31
0.0
  0
LINE
  5
225
330
18
100
AcDbEntity
  8
0
 62
     0
100
AcDbLine
 10
6.24552
 20
3.915137
 30
0.0
 11
6.24552
 21
3.915137
 31
0.0
  0
LINE
  5
226
330
18
100
AcDbEntity
  8
0
 62
     0
100
AcDbLine
 10
6.394819
 20
3.77833
 30
0.0
 11
6.394819
 21
3.77833
 31
0.0
  0
LINE
  5
227
330
18
100
AcDbEntity
  8
0
 62
     0
100
AcDbLine
 10
6.422466
 20
3.752995
 30
0.0
 11
6.422466
 21
3.752995
 31
0.0
  0
LINE
  5
228
330
18
100
AcDbEntity
  8
0
 62
     0
100
AcDbLine
 10
5.46666
 20
5.173672
 30
0.0
 11
5.46666
 21
5.173672
 31
0.0
  0
LINE
  5
229
330
18
100
AcDbEntity
  8
0
 62
     0
100
AcDbLine
 10
5.615958999999999
 20
5.036865
 30
0.0
 11
5.615958999999999
 21
5.036865
 31
0.0
  0
LINE
  5
22A
330
18
100
AcDbEntity
  8
0
 62
     0
100
AcDbLine
 10
5.643607
 20
5.011531
 30
0.0
 11
5.643607
 21
5.011531
 31
0.0
  0
LINE
  5
22B
330
18
100
AcDbEntity
  8
0
 62
     0
100
AcDbLine
 10
5.774105000000001
 20
4.891951000000001
 30
0.0
 11
5.774105000000001
 21
4.891951000000001
 31
0.0
  0
LINE
  5
22C
330
18
100
AcDbEntity
  8
0
 62
     0
100
AcDbLine
 10
5.923404
 20
4.755144000000001
 30
0.0
 11
5.923404
 21
4.755144000000001
 31
0.0
  0
LINE
  5
22D
330
18
100
AcDbEntity
  8
0
 62
     0
100
AcDbLine
 10
6.08155
 20
4.610230000000001
 30
0.0
 11
6.08155
 21
4.610230000000001
 31
0.0
  0
LINE
  5
22E
330
18
100
AcDbEntity
  8
0
 62
     0
100
AcDbLine
 10
6.230848
 20
4.473423
 30
0.0
 11
6.230848
 21
4.473423
 31
0.0
  0
LINE
  5
22F
330
18
100
AcDbEntity
  8
0
 62
     0
100
AcDbLine
 10
6.258496
 20
4.448089
 30
0.0
 11
6.258496
 21
4.448089
 31
0.0
  0
LINE
  5
230
330
18
100
AcDbEntity
  8
0
 62
     0
100
AcDbLine
 10
6.388994
 20
4.328509
 30
0.0
 11
6.388994
 21
4.328509
 31
0.0
  0
LINE
  5
231
330
18
100
AcDbEntity
  8
0
 62
     0
100
AcDbLine
 10
5.917579
 20
5.305324
 30
0.0
 11
5.917579
 21
5.305324
 31
0.0
  0
LINE
  5
232
330
18
100
AcDbEntity
  8
0
 62
     0
100
AcDbLine
 10
6.066878
 20
5.168517
 30
0.0
 11
6.066878
 21
5.168517
 31
0.0
  0
LINE
  5
233
330
18
100
AcDbEntity
  8
0
 62
     0
100
AcDbLine
 10
6.094526
 20
5.143182
 30
0.0
 11
6.094526
 21
5.143182
 31
0.0
  0
LINE
  5
234
330
18
100
AcDbEntity
  8
0
 62
     0
100
AcDbLine
 10
6.225023999999999
 20
5.023603
 30
0.0
 11
6.225023999999999
 21
5.023603
 31
0.0
  0
LINE
  5
235
330
18
100
AcDbEntity
  8
0
 62
     0
100
AcDbLine
 10
6.374323
 20
4.886796
 30
0.0
 11
6.374323
 21
4.886796
 31
0.0
  0
LINE
  5
236
330
18
100
AcDbEntity
  8
0
 62
     0
100
AcDbLine
 10
6.401971
 20
4.861461
 30
0.0
 11
6.401971
 21
4.861461
 31
0.0
  0
LINE
  5
237
330
18
100
AcDbEntity
  8
0
 62
     0
100
AcDbLine
 10
5.492980999999999
 20
3.515027
 30
0.0
 11
5.492980999999999
 21
3.515027
 31
0.0
  0
LINE
  5
238
330
18
100
AcDbEntity
  8
0
 62
     0
100
AcDbLine
 10
5.520629000000001
 20
3.489692
 30
0.0
 11
5.520629000000001
 21
3.489692
 31
0.0
  0
LINE
  5
239
330
18
100
AcDbEntity
  8
0
 62
     0
100
AcDbLine
 10
5.651127
 20
3.370113
 30
0.0
 11
5.651127
 21
3.370113
 31
0.0
  0
LINE
  5
23A
330
18
100
AcDbEntity
  8
0
 62
     0
100
AcDbLine
 10
5.800425
 20
3.233306
 30
0.0
 11
5.800425
 21
3.233306
 31
0.0
  0
LINE
  5
23B
330
18
100
AcDbEntity
  8
0
 62
     0
100
AcDbLine
 10
5.828073000000001
 20
3.207971
 30
0.0
 11
5.828073000000001
 21
3.207971
 31
0.0
  0
LINE
  5
23C
330
18
100
AcDbEntity
  8
0
 62
     0
100
AcDbLine
 10
6.10787
 20
2.951585
 30
0.0
 11
6.10787
 21
2.951585
 31
0.0
  0
LINE
  5
23D
330
18
100
AcDbEntity
  8
0
 62
     0
100
AcDbLine
 10
6.135518
 20
2.92625
 30
0.0
 11
6.135518
 21
2.92625
 31
0.0
  0
LINE
  5
23E
330
18
100
AcDbEntity
  8
0
 62
     0
100
AcDbLine
 10
6.266016000000001
 20
2.806671
 30
0.0
 11
6.266016000000001
 21
2.806671
 31
0.0
  0
LINE
  5
23F
330
18
100
AcDbEntity
  8
0
 62
     0
100
AcDbLine
 10
6.415315000000001
 20
2.669864
 30
0.0
 11
6.415315000000001
 21
2.669864
 31
0.0
  0
LINE
  5
240
330
18
100
AcDbEntity
  8
0
 62
     0
100
AcDbLine
 10
6.442962000000001
 20
2.644529
 30
0.0
 11
6.442962000000001
 21
2.644529
 31
0.0
  0
LINE
  5
241
330
18
100
AcDbEntity
  8
0
 62
     0
100
AcDbLine
 10
5.507651999999999
 20
2.95674
 30
0.0
 11
5.507651999999999
 21
2.95674
 31
0.0
  0
LINE
  5
242
330
18
100
AcDbEntity
  8
0
 62
     0
100
AcDbLine
 10
5.656951
 20
2.819933
 30
0.0
 11
5.656951
 21
2.819933
 31
0.0
  0
LINE
  5
243
330
18
100
AcDbEntity
  8
0
 62
     0
100
AcDbLine
 10
5.684599
 20
2.794599
 30
0.0
 11
5.684599
 21
2.794599
 31
0.0
  0
LINE
  5
244
330
18
100
AcDbEntity
  8
0
 62
     0
100
AcDbLine
 10
6.122542
 20
2.393298
 30
0.0
 11
6.122542
 21
2.393298
 31
0.0
  0
LINE
  5
245
330
18
100
AcDbEntity
  8
0
 62
     0
100
AcDbLine
 10
6.27184
 20
2.256491
 30
0.0
 11
6.27184
 21
2.256491
 31
0.0
  0
LINE
  5
246
330
18
100
AcDbEntity
  8
0
 62
     0
100
AcDbLine
 10
6.299487999999999
 20
2.231157
 30
0.0
 11
6.299487999999999
 21
2.231157
 31
0.0
  0
LINE
  5
247
330
18
100
AcDbEntity
  8
0
 62
     0
100
AcDbLine
 10
6.429986
 20
2.111577
 30
0.0
 11
6.429986
 21
2.111577
 31
0.0
  0
LINE
  5
248
330
18
100
AcDbEntity
  8
0
 62
     0
100
AcDbLine
 10
5.815097
 20
2.675019
 30
0.0
 11
5.815097
 21
2.675019
 31
0.0
  0
LINE
  5
249
330
18
100
AcDbEntity
  8
0
 62
     0
100
AcDbLine
 10
5.513477
 20
2.406561
 30
0.0
 11
5.513477
 21
2.406561
 31
0.0
  0
LINE
  5
24A
330
18
100
AcDbEntity
  8
0
 62
     0
100
AcDbLine
 10
5.541124
 20
2.381226
 30
0.0
 11
5.541124
 21
2.381226
 31
0.0
  0
LINE
  5
24B
330
18
100
AcDbEntity
  8
0
 62
     0
100
AcDbLine
 10
5.671623
 20
2.261647
 30
0.0
 11
5.671623
 21
2.261647
 31
0.0
  0
LINE
  5
24C
330
18
100
AcDbEntity
  8
0
 62
     0
100
AcDbLine
 10
5.820921
 20
2.12484
 30
0.0
 11
5.820921
 21
2.12484
 31
0.0
  0
LINE
  5
24D
330
18
100
AcDbEntity
  8
0
 62
     0
100
AcDbLine
 10
5.848569
 20
2.099505
 30
0.0
 11
5.848569
 21
2.099505
 31
0.0
  0
LINE
  5
24E
330
18
100
AcDbEntity
  8
0
 62
     0
100
AcDbLine
 10
5.979067
 20
1.979926
 30
0.0
 11
5.979067
 21
1.979926
 31
0.0
  0
LINE
  5
24F
330
18
100
AcDbEntity
  8
0
 62
     0
100
AcDbLine
 10
1.863348
 20
2.911168
 30
0.0
 11
1.863348
 21
2.911168
 31
0.0
  0
LINE
  5
250
330
18
100
AcDbEntity
  8
0
 62
     0
100
AcDbLine
 10
2.065653
 20
3.066402
 30
0.0
 11
2.065653
 21
3.066402
 31
0.0
  0
LINE
  5
251
330
18
100
AcDbEntity
  8
0
 62
     0
100
AcDbLine
 10
2.439918
 20
3.353585
 30
0.0
 11
2.439918
 21
3.353585
 31
0.0
  0
LINE
  5
252
330
18
100
AcDbEntity
  8
0
 62
     0
100
AcDbLine
 10
2.642223
 20
3.508819
 30
0.0
 11
2.642223
 21
3.508819
 31
0.0
  0
LINE
  5
253
330
18
100
AcDbEntity
  8
0
 62
     0
100
AcDbLine
 10
1.853899
 20
3.200191
 30
0.0
 11
1.853899
 21
3.200191
 31
0.0
  0
LINE
  5
254
330
18
100
AcDbEntity
  8
0
 62
     0
100
AcDbLine
 10
2.056204
 20
3.355425
 30
0.0
 11
2.056204
 21
3.355425
 31
0.0
  0
LINE
  5
255
330
18
100
AcDbEntity
  8
0
 62
     0
100
AcDbLine
 10
2.430469
 20
3.642608
 30
0.0
 11
2.430469
 21
3.642608
 31
0.0
  0
LINE
  5
256
330
18
100
AcDbEntity
  8
0
 62
     0
100
AcDbLine
 10
2.632774
 20
3.797843
 30
0.0
 11
2.632774
 21
3.797843
 31
0.0
  0
LINE
  5
257
330
18
100
AcDbEntity
  8
0
 62
     0
100
AcDbLine
 10
1.84445
 20
3.489215
 30
0.0
 11
1.84445
 21
3.489215
 31
0.0
  0
LINE
  5
258
330
18
100
AcDbEntity
  8
0
 62
     0
100
AcDbLine
 10
2.046755
 20
3.644449
 30
0.0
 11
2.046755
 21
3.644449
 31
0.0
  0
LINE
  5
259
330
18
100
AcDbEntity
  8
0
 62
     0
100
AcDbLine
 10
2.42102
 20
3.931632
 30
0.0
 11
2.42102
 21
3.931632
 31
0.0
  0
LINE
  5
25A
330
18
100
AcDbEntity
  8
0
 62
     0
100
AcDbLine
 10
2.623325
 20
4.086866000000001
 30
0.0
 11
2.623325
 21
4.086866000000001
 31
0.0
  0
LINE
  5
25B
330
18
100
AcDbEntity
  8
0
 62
     0
100
AcDbLine
 10
1.835001
 20
3.778238
 30
0.0
 11
1.835001
 21
3.778238
 31
0.0
  0
LINE
  5
25C
330
18
100
AcDbEntity
  8
0
 62
     0
100
AcDbLine
 10
2.037306
 20
3.933472
 30
0.0
 11
2.037306
 21
3.933472
 31
0.0
  0
LINE
  5
25D
330
18
100
AcDbEntity
  8
0
 62
     0
100
AcDbLine
 10
2.411571
 20
4.220656
 30
0.0
 11
2.411571
 21
4.220656
 31
0.0
  0
LINE
  5
25E
330
18
100
AcDbEntity
  8
0
 62
     0
100
AcDbLine
 10
2.613876
 20
4.37589
 30
0.0
 11
2.613876
 21
4.37589
 31
0.0
  0
LINE
  5
25F
330
18
100
AcDbEntity
  8
0
 62
     0
100
AcDbLine
 10
1.825552
 20
4.067262
 30
0.0
 11
1.825552
 21
4.067262
 31
0.0
  0
LINE
  5
260
330
18
100
AcDbEntity
  8
0
 62
     0
100
AcDbLine
 10
2.027857
 20
4.222496
 30
0.0
 11
2.027857
 21
4.222496
 31
0.0
  0
LINE
  5
261
330
18
100
AcDbEntity
  8
0
 62
     0
100
AcDbLine
 10
2.402122
 20
4.509679
 30
0.0
 11
2.402122
 21
4.509679
 31
0.0
  0
LINE
  5
262
330
18
100
AcDbEntity
  8
0
 62
     0
100
AcDbLine
 10
2.604427
 20
4.664912999999999
 30
0.0
 11
2.604427
 21
4.664912999999999
 31
0.0
  0
LINE
  5
263
330
18
100
AcDbEntity
  8
0
 62
     0
100
AcDbLine
 10
1.816103
 20
4.356285
 30
0.0
 11
1.816103
 21
4.356285
 31
0.0
  0
LINE
  5
264
330
18
100
AcDbEntity
  8
0
 62
     0
100
AcDbLine
 10
2.018408
 20
4.51152
 30
0.0
 11
2.018408
 21
4.51152
 31
0.0
  0
LINE
  5
265
330
18
100
AcDbEntity
  8
0
 62
     0
100
AcDbLine
 10
2.392673
 20
4.798703
 30
0.0
 11
2.392673
 21
4.798703
 31
0.0
  0
LINE
  5
266
330
18
100
AcDbEntity
  8
0
 62
     0
100
AcDbLine
 10
2.594978
 20
4.953937000000001
 30
0.0
 11
2.594978
 21
4.953937000000001
 31
0.0
  0
LINE
  5
267
330
18
100
AcDbEntity
  8
0
 62
     0
100
AcDbLine
 10
1.806654
 20
4.645308999999999
 30
0.0
 11
1.806654
 21
4.645308999999999
 31
0.0
  0
LINE
  5
268
330
18
100
AcDbEntity
  8
0
 62
     0
100
AcDbLine
 10
2.008959
 20
4.800543
 30
0.0
 11
2.008959
 21
4.800543
 31
0.0
  0
LINE
  5
269
330
18
100
AcDbEntity
  8
0
 62
     0
100
AcDbLine
 10
2.383224
 20
5.087726
 30
0.0
 11
2.383224
 21
5.087726
 31
0.0
  0
LINE
  5
26A
330
18
100
AcDbEntity
  8
0
 62
     0
100
AcDbLine
 10
2.585529
 20
5.24296
 30
0.0
 11
2.585529
 21
5.24296
 31
0.0
  0
LINE
  5
26B
330
18
100
AcDbEntity
  8
0
 62
     0
100
AcDbLine
 10
1.797205
 20
4.934332
 30
0.0
 11
1.797205
 21
4.934332
 31
0.0
  0
LINE
  5
26C
330
18
100
AcDbEntity
  8
0
 62
     0
100
AcDbLine
 10
1.99951
 20
5.089567
 30
0.0
 11
1.99951
 21
5.089567
 31
0.0
  0
LINE
  5
26D
330
18
100
AcDbEntity
  8
0
 62
     0
100
AcDbLine
 10
2.373775
 20
5.37675
 30
0.0
 11
2.373775
 21
5.37675
 31
0.0
  0
LINE
  5
26E
330
18
100
AcDbEntity
  8
0
 62
     0
100
AcDbLine
 10
2.57608
 20
5.531984
 30
0.0
 11
2.57608
 21
5.531984
 31
0.0
  0
LINE
  5
26F
330
18
100
AcDbEntity
  8
0
 62
     0
100
AcDbLine
 10
1.787756
 20
5.223356
 30
0.0
 11
1.787756
 21
5.223356
 31
0.0
  0
LINE
  5
270
330
18
100
AcDbEntity
  8
0
 62
     0
100
AcDbLine
 10
1.990061
 20
5.37859
 30
0.0
 11
1.990061
 21
5.37859
 31
0.0
  0
LINE
  5
271
330
18
100
AcDbEntity
  8
0
 62
     0
100
AcDbLine
 10
2.183441
 20
5.526976
 30
0.0
 11
2.183441
 21
5.526976
 31
0.0
  0
LINE
  5
272
330
18
100
AcDbEntity
  8
0
 62
     0
100
AcDbLine
 10
2.364326
 20
5.665773000000001
 30
0.0
 11
2.364326
 21
5.665773000000001
 31
0.0
  0
LINE
  5
273
330
18
100
AcDbEntity
  8
0
 62
     0
100
AcDbLine
 10
2.566631
 20
5.821008
 30
0.0
 11
2.566631
 21
5.821008
 31
0.0
  0
LINE
  5
274
330
18
100
AcDbEntity
  8
0
 62
     0
100
AcDbLine
 10
1.778307
 20
5.51238
 30
0.0
 11
1.778307
 21
5.51238
 31
0.0
  0
LINE
  5
275
330
18
100
AcDbEntity
  8
0
 62
     0
100
AcDbLine
 10
1.980612
 20
5.667614
 30
0.0
 11
1.980612
 21
5.667614
 31
0.0
  0
LINE
  5
276
330
18
100
AcDbEntity
  8
0
 62
     0
100
AcDbLine
 10
2.173992
 20
5.815999
 30
0.0
 11
2.173992
 21
5.815999
 31
0.0
  0
LINE
  5
277
330
18
100
AcDbEntity
  8
0
 62
     0
100
AcDbLine
 10
2.354877
 20
5.954797
 30
0.0
 11
2.354877
 21
5.954797
 31
0.0
  0
LINE
  5
278
330
18
100
AcDbEntity
  8
0
 62
     0
100
AcDbLine
 10
2.557182
 20
6.110030999999999
 30
0.0
 11
2.557182
 21
6.110030999999999
 31
0.0
  0
LINE
  5
279
330
18
100
AcDbEntity
  8
0
 62
     0
100
AcDbLine
 10
1.768858
 20
5.801403
 30
0.0
 11
1.768858
 21
5.801403
 31
0.0
  0
LINE
  5
27A
330
18
100
AcDbEntity
  8
0
 62
     0
100
AcDbLine
 10
1.971163
 20
5.956637000000001
 30
0.0
 11
1.971163
 21
5.956637000000001
 31
0.0
  0
LINE
  5
27B
330
18
100
AcDbEntity
  8
0
 62
     0
100
AcDbLine
 10
2.164543
 20
6.105023
 30
0.0
 11
2.164543
 21
6.105023
 31
0.0
  0
LINE
  5
27C
330
18
100
AcDbEntity
  8
0
 62
     0
100
AcDbLine
 10
2.345428
 20
6.243821
 30
0.0
 11
2.345428
 21
6.243821
 31
0.0
  0
LINE
  5
27D
330
18
100
AcDbEntity
  8
0
 62
     0
100
AcDbLine
 10
1.759409
 20
6.090427
 30
0.0
 11
1.759409
 21
6.090427
 31
0.0
  0
LINE
  5
27E
330
18
100
AcDbEntity
  8
0
 62
     0
100
AcDbLine
 10
1.961714
 20
6.245661
 30
0.0
 11
1.961714
 21
6.245661
 31
0.0
  0
LINE
  5
27F
330
18
100
AcDbEntity
  8
0
 62
     0
100
AcDbLine
 10
2.155094
 20
6.394047000000001
 30
0.0
 11
2.155094
 21
6.394047000000001
 31
0.0
  0
LINE
  5
280
330
18
100
AcDbEntity
  8
0
 62
     0
100
AcDbLine
 10
1.74996
 20
6.37945
 30
0.0
 11
1.74996
 21
6.37945
 31
0.0
  0
LINE
  5
281
330
18
100
AcDbEntity
  8
0
 62
     0
100
AcDbLine
 10
1.691913
 20
2.483346
 30
0.0
 11
1.691913
 21
2.483346
 31
0.0
  0
LINE
  5
282
330
18
100
AcDbEntity
  8
0
 62
     0
100
AcDbLine
 10
1.872797
 20
2.622144
 30
0.0
 11
1.872797
 21
2.622144
 31
0.0
  0
LINE
  5
283
330
18
100
AcDbEntity
  8
0
 62
     0
100
AcDbLine
 10
2.449367
 20
3.064561
 30
0.0
 11
2.449367
 21
3.064561
 31
0.0
  0
LINE
  5
284
330
18
100
AcDbEntity
  8
0
 62
     0
100
AcDbLine
 10
2.651672
 20
3.219796
 30
0.0
 11
2.651672
 21
3.219796
 31
0.0
  0
LINE
  5
285
330
18
100
AcDbEntity
  8
0
 62
     0
100
AcDbLine
 10
1.701362
 20
2.194323
 30
0.0
 11
1.701362
 21
2.194323
 31
0.0
  0
LINE
  5
286
330
18
100
AcDbEntity
  8
0
 62
     0
100
AcDbLine
 10
1.882246
 20
2.33312
 30
0.0
 11
1.882246
 21
2.33312
 31
0.0
  0
LINE
  5
287
330
18
100
AcDbEntity
  8
0
 62
     0
100
AcDbLine
 10
2.084551
 20
2.488355
 30
0.0
 11
2.084551
 21
2.488355
 31
0.0
  0
LINE
  5
288
330
18
100
AcDbEntity
  8
0
 62
     0
100
AcDbLine
 10
2.458816
 20
2.775538
 30
0.0
 11
2.458816
 21
2.775538
 31
0.0
  0
LINE
  5
289
330
18
100
AcDbEntity
  8
0
 62
     0
100
AcDbLine
 10
2.661121
 20
2.930772
 30
0.0
 11
2.661121
 21
2.930772
 31
0.0
  0
LINE
  5
28A
330
18
100
AcDbEntity
  8
0
 62
     0
100
AcDbLine
 10
1.891695
 20
2.044097
 30
0.0
 11
1.891695
 21
2.044097
 31
0.0
  0
LINE
  5
28B
330
18
100
AcDbEntity
  8
0
 62
     0
100
AcDbLine
 10
2.094
 20
2.199331
 30
0.0
 11
2.094
 21
2.199331
 31
0.0
  0
LINE
  5
28C
330
18
100
AcDbEntity
  8
0
 62
     0
100
AcDbLine
 10
2.28738
 20
2.347717
 30
0.0
 11
2.28738
 21
2.347717
 31
0.0
  0
LINE
  5
28D
330
18
100
AcDbEntity
  8
0
 62
     0
100
AcDbLine
 10
2.67057
 20
2.641748
 30
0.0
 11
2.67057
 21
2.641748
 31
0.0
  0
LINE
  5
28E
330
18
100
AcDbEntity
  8
0
 62
     0
100
AcDbLine
 10
2.86395
 20
2.790134
 30
0.0
 11
2.86395
 21
2.790134
 31
0.0
  0
LINE
  5
28F
330
18
100
AcDbEntity
  8
0
 62
     0
100
AcDbLine
 10
3.044834
 20
2.928932
 30
0.0
 11
3.044834
 21
2.928932
 31
0.0
  0
LINE
  5
290
330
18
100
AcDbEntity
  8
0
 62
     0
100
AcDbLine
 10
2.296829
 20
2.058693
 30
0.0
 11
2.296829
 21
2.058693
 31
0.0
  0
LINE
  5
291
330
18
100
AcDbEntity
  8
0
 62
     0
100
AcDbLine
 10
2.477714
 20
2.197491
 30
0.0
 11
2.477714
 21
2.197491
 31
0.0
  0
LINE
  5
292
330
18
100
AcDbEntity
  8
0
 62
     0
100
AcDbLine
 10
2.680019
 20
2.352725
 30
0.0
 11
2.680019
 21
2.352725
 31
0.0
  0
LINE
  5
293
330
18
100
AcDbEntity
  8
0
 62
     0
100
AcDbLine
 10
2.873399
 20
2.50111
 30
0.0
 11
2.873399
 21
2.50111
 31
0.0
  0
LINE
  5
294
330
18
100
AcDbEntity
  8
0
 62
     0
100
AcDbLine
 10
3.054283
 20
2.639908
 30
0.0
 11
3.054283
 21
2.639908
 31
0.0
  0
LINE
  5
295
330
18
100
AcDbEntity
  8
0
 62
     0
100
AcDbLine
 10
3.256588
 20
2.795142
 30
0.0
 11
3.256588
 21
2.795142
 31
0.0
  0
LINE
  5
296
330
18
100
AcDbEntity
  8
0
 62
     0
100
AcDbLine
 10
3.449968
 20
2.943528
 30
0.0
 11
3.449968
 21
2.943528
 31
0.0
  0
LINE
  5
297
330
18
100
AcDbEntity
  8
0
 62
     0
100
AcDbLine
 10
2.689468
 20
2.063701
 30
0.0
 11
2.689468
 21
2.063701
 31
0.0
  0
LINE
  5
298
330
18
100
AcDbEntity
  8
0
 62
     0
100
AcDbLine
 10
2.882848
 20
2.212087
 30
0.0
 11
2.882848
 21
2.212087
 31
0.0
  0
LINE
  5
299
330
18
100
AcDbEntity
  8
0
 62
     0
100
AcDbLine
 10
3.063732
 20
2.350884
 30
0.0
 11
3.063732
 21
2.350884
 31
0.0
  0
LINE
  5
29A
330
18
100
AcDbEntity
  8
0
 62
     0
100
AcDbLine
 10
3.266037
 20
2.506119
 30
0.0
 11
3.266037
 21
2.506119
 31
0.0
  0
LINE
  5
29B
330
18
100
AcDbEntity
  8
0
 62
     0
100
AcDbLine
 10
3.459417
 20
2.654504
 30
0.0
 11
3.459417
 21
2.654504
 31
0.0
  0
LINE
  5
29C
330
18
100
AcDbEntity
  8
0
 62
     0
100
AcDbLine
 10
3.640302
 20
2.793302
 30
0.0
 11
3.640302
 21
2.793302
 31
0.0
  0
LINE
  5
29D
330
18
100
AcDbEntity
  8
0
 62
     0
100
AcDbLine
 10
3.842607
 20
2.948536
 30
0.0
 11
3.842607
 21
2.948536
 31
0.0
  0
LINE
  5
29E
330
18
100
AcDbEntity
  8
0
 62
     0
100
AcDbLine
 10
2.892297
 20
1.923063
 30
0.0
 11
2.892297
 21
1.923063
 31
0.0
  0
LINE
  5
29F
330
18
100
AcDbEntity
  8
0
 62
     0
100
AcDbLine
 10
3.073181
 20
2.061861
 30
0.0
 11
3.073181
 21
2.061861
 31
0.0
  0
LINE
  5
2A0
330
18
100
AcDbEntity
  8
0
 62
     0
100
AcDbLine
 10
3.275486
 20
2.217095
 30
0.0
 11
3.275486
 21
2.217095
 31
0.0
  0
LINE
  5
2A1
330
18
100
AcDbEntity
  8
0
 62
     0
100
AcDbLine
 10
3.468866
 20
2.365481
 30
0.0
 11
3.468866
 21
2.365481
 31
0.0
  0
LINE
  5
2A2
330
18
100
AcDbEntity
  8
0
 62
     0
100
AcDbLine
 10
3.649751
 20
2.504278
 30
0.0
 11
3.649751
 21
2.504278
 31
0.0
  0
LINE
  5
2A3
330
18
100
AcDbEntity
  8
0
 62
     0
100
AcDbLine
 10
3.852056
 20
2.659512
 30
0.0
 11
3.852056
 21
2.659512
 31
0.0
  0
LINE
  5
2A4
330
18
100
AcDbEntity
  8
0
 62
     0
100
AcDbLine
 10
4.045436000000001
 20
2.807898
 30
0.0
 11
4.045436000000001
 21
2.807898
 31
0.0
  0
LINE
  5
2A5
330
18
100
AcDbEntity
  8
0
 62
     0
100
AcDbLine
 10
4.226319999999999
 20
2.946696
 30
0.0
 11
4.226319999999999
 21
2.946696
 31
0.0
  0
LINE
  5
2A6
330
18
100
AcDbEntity
  8
0
 62
     0
100
AcDbLine
 10
3.284935
 20
1.928071
 30
0.0
 11
3.284935
 21
1.928071
 31
0.0
  0
LINE
  5
2A7
330
18
100
AcDbEntity
  8
0
 62
     0
100
AcDbLine
 10
3.478315
 20
2.076457
 30
0.0
 11
3.478315
 21
2.076457
 31
0.0
  0
LINE
  5
2A8
330
18
100
AcDbEntity
  8
0
 62
     0
100
AcDbLine
 10
3.6592
 20
2.215255
 30
0.0
 11
3.6592
 21
2.215255
 31
0.0
  0
LINE
  5
2A9
330
18
100
AcDbEntity
  8
0
 62
     0
100
AcDbLine
 10
3.861505
 20
2.370489
 30
0.0
 11
3.861505
 21
2.370489
 31
0.0
  0
LINE
  5
2AA
330
18
100
AcDbEntity
  8
0
 62
     0
100
AcDbLine
 10
4.054885
 20
2.518874
 30
0.0
 11
4.054885
 21
2.518874
 31
0.0
  0
LINE
  5
2AB
330
18
100
AcDbEntity
  8
0
 62
     0
100
AcDbLine
 10
4.235769
 20
2.657672
 30
0.0
 11
4.235769
 21
2.657672
 31
0.0
  0
LINE
  5
2AC
330
18
100
AcDbEntity
  8
0
 62
     0
100
AcDbLine
 10
4.438073999999999
 20
2.812906
 30
0.0
 11
4.438073999999999
 21
2.812906
 31
0.0
  0
LINE
  5
2AD
330
18
100
AcDbEntity
  8
0
 62
     0
100
AcDbLine
 10
4.631454
 20
2.961292
 30
0.0
 11
4.631454
 21
2.961292
 31
0.0
  0
LINE
  5
2AE
330
18
100
AcDbEntity
  8
0
 62
     0
100
AcDbLine
 10
3.668649
 20
1.926231
 30
0.0
 11
3.668649
 21
1.926231
 31
0.0
  0
LINE
  5
2AF
330
18
100
AcDbEntity
  8
0
 62
     0
100
AcDbLine
 10
3.870954
 20
2.081465
 30
0.0
 11
3.870954
 21
2.081465
 31
0.0
  0
LINE
  5
2B0
330
18
100
AcDbEntity
  8
0
 62
     0
100
AcDbLine
 10
4.064334
 20
2.229851
 30
0.0
 11
4.064334
 21
2.229851
 31
0.0
  0
LINE
  5
2B1
330
18
100
AcDbEntity
  8
0
 62
     0
100
AcDbLine
 10
4.245218
 20
2.368648
 30
0.0
 11
4.245218
 21
2.368648
 31
0.0
  0
LINE
  5
2B2
330
18
100
AcDbEntity
  8
0
 62
     0
100
AcDbLine
 10
4.447523
 20
2.523883
 30
0.0
 11
4.447523
 21
2.523883
 31
0.0
  0
LINE
  5
2B3
330
18
100
AcDbEntity
  8
0
 62
     0
100
AcDbLine
 10
4.640903
 20
2.672268
 30
0.0
 11
4.640903
 21
2.672268
 31
0.0
  0
LINE
  5
2B4
330
18
100
AcDbEntity
  8
0
 62
     0
100
AcDbLine
 10
4.073783000000001
 20
1.940827
 30
0.0
 11
4.073783000000001
 21
1.940827
 31
0.0
  0
LINE
  5
2B5
330
18
100
AcDbEntity
  8
0
 62
     0
100
AcDbLine
 10
4.254667
 20
2.079625
 30
0.0
 11
4.254667
 21
2.079625
 31
0.0
  0
LINE
  5
2B6
330
18
100
AcDbEntity
  8
0
 62
     0
100
AcDbLine
 10
4.456972
 20
2.234859
 30
0.0
 11
4.456972
 21
2.234859
 31
0.0
  0
LINE
  5
2B7
330
18
100
AcDbEntity
  8
0
 62
     0
100
AcDbLine
 10
4.650352
 20
2.383245
 30
0.0
 11
4.650352
 21
2.383245
 31
0.0
  0
LINE
  5
2B8
330
18
100
AcDbEntity
  8
0
 62
     0
100
AcDbLine
 10
4.466421
 20
1.945836
 30
0.0
 11
4.466421
 21
1.945836
 31
0.0
  0
LINE
  5
2B9
330
18
100
AcDbEntity
  8
0
 62
     0
100
AcDbLine
 10
4.659801
 20
2.094221
 30
0.0
 11
4.659801
 21
2.094221
 31
0.0
  0
LINE
  5
2BA
330
18
100
AcDbEntity
  8
0
 62
     0
100
AcDbLine
 10
1.703614
 20
3.719638
 30
0.0
 11
1.703614
 21
3.719638
 31
0.0
  0
LINE
  5
2BB
330
18
100
AcDbEntity
  8
0
 62
     0
100
AcDbLine
 10
1.907356
 20
3.746461
 30
0.0
 11
1.907356
 21
3.746461
 31
0.0
  0
LINE
  5
2BC
330
18
100
AcDbEntity
  8
0
 62
     0
100
AcDbLine
 10
1.985433
 20
3.75674
 30
0.0
 11
1.985433
 21
3.75674
 31
0.0
  0
LINE
  5
2BD
330
18
100
AcDbEntity
  8
0
 62
     0
100
AcDbLine
 10
2.10738
 20
3.772795
 30
0.0
 11
2.10738
 21
3.772795
 31
0.0
  0
LINE
  5
2BE
330
18
100
AcDbEntity
  8
0
 62
     0
100
AcDbLine
 10
2.311122
 20
3.799618
 30
0.0
 11
2.311122
 21
3.799618
 31
0.0
  0
LINE
  5
2BF
330
18
100
AcDbEntity
  8
0
 62
     0
100
AcDbLine
 10
2.389199
 20
3.809897
 30
0.0
 11
2.389199
 21
3.809897
 31
0.0
  0
LINE
  5
2C0
330
18
100
AcDbEntity
  8
0
 62
     0
100
AcDbLine
 10
2.511146
 20
3.825952
 30
0.0
 11
2.511146
 21
3.825952
 31
0.0
  0
LINE
  5
2C1
330
18
100
AcDbEntity
  8
0
 62
     0
100
AcDbLine
 10
2.714888
 20
3.852775
 30
0.0
 11
2.714888
 21
3.852775
 31
0.0
  0
LINE
  5
2C2
330
18
100
AcDbEntity
  8
0
 62
     0
100
AcDbLine
 10
1.769057
 20
4.116626999999999
 30
0.0
 11
1.769057
 21
4.116626999999999
 31
0.0
  0
LINE
  5
2C3
330
18
100
AcDbEntity
  8
0
 62
     0
100
AcDbLine
 10
1.847133
 20
4.126906
 30
0.0
 11
1.847133
 21
4.126906
 31
0.0
  0
LINE
  5
2C4
330
18
100
AcDbEntity
  8
0
 62
     0
100
AcDbLine
 10
1.969081
 20
4.14296
 30
0.0
 11
1.969081
 21
4.14296
 31
0.0
  0
LINE
  5
2C5
330
18
100
AcDbEntity
  8
0
 62
     0
100
AcDbLine
 10
2.172823
 20
4.169783
 30
0.0
 11
2.172823
 21
4.169783
 31
0.0
  0
LINE
  5
2C6
330
18
100
AcDbEntity
  8
0
 62
     0
100
AcDbLine
 10
2.372847
 20
4.196117
 30
0.0
 11
2.372847
 21
4.196117
 31
0.0
  0
LINE
  5
2C7
330
18
100
AcDbEntity
  8
0
 62
     0
100
AcDbLine
 10
2.576589
 20
4.22294
 30
0.0
 11
2.576589
 21
4.22294
 31
0.0
  0
LINE
  5
2C8
330
18
100
AcDbEntity
  8
0
 62
     0
100
AcDbLine
 10
2.654665
 20
4.233219
 30
0.0
 11
2.654665
 21
4.233219
 31
0.0
  0
LINE
  5
2C9
330
18
100
AcDbEntity
  8
0
 62
     0
100
AcDbLine
 10
1.708834
 20
4.497071
 30
0.0
 11
1.708834
 21
4.497071
 31
0.0
  0
LINE
  5
2CA
330
18
100
AcDbEntity
  8
0
 62
     0
100
AcDbLine
 10
1.830782
 20
4.513125
 30
0.0
 11
1.830782
 21
4.513125
 31
0.0
  0
LINE
  5
2CB
330
18
100
AcDbEntity
  8
0
 62
     0
100
AcDbLine
 10
2.034523
 20
4.539948000000001
 30
0.0
 11
2.034523
 21
4.539948000000001
 31
0.0
  0
LINE
  5
2CC
330
18
100
AcDbEntity
  8
0
 62
     0
100
AcDbLine
 10
2.1126
 20
4.550227
 30
0.0
 11
2.1126
 21
4.550227
 31
0.0
  0
LINE
  5
2CD
330
18
100
AcDbEntity
  8
0
 62
     0
100
AcDbLine
 10
2.438289
 20
4.593105
 30
0.0
 11
2.438289
 21
4.593105
 31
0.0
  0
LINE
  5
2CE
330
18
100
AcDbEntity
  8
0
 62
     0
100
AcDbLine
 10
2.516366
 20
4.603383999999999
 30
0.0
 11
2.516366
 21
4.603383999999999
 31
0.0
  0
LINE
  5
2CF
330
18
100
AcDbEntity
  8
0
 62
     0
100
AcDbLine
 10
2.638313
 20
4.619439
 30
0.0
 11
2.638313
 21
4.619439
 31
0.0
  0
LINE
  5
2D0
330
18
100
AcDbEntity
  8
0
 62
     0
100
AcDbLine
 10
1.692482
 20
4.883290000000001
 30
0.0
 11
1.692482
 21
4.883290000000001
 31
0.0
  0
LINE
  5
2D1
330
18
100
AcDbEntity
  8
0
 62
     0
100
AcDbLine
 10
1.896224
 20
4.910114
 30
0.0
 11
1.896224
 21
4.910114
 31
0.0
  0
LINE
  5
2D2
330
18
100
AcDbEntity
  8
0
 62
     0
100
AcDbLine
 10
1.9743
 20
4.920393
 30
0.0
 11
1.9743
 21
4.920393
 31
0.0
  0
LINE
  5
2D3
330
18
100
AcDbEntity
  8
0
 62
     0
100
AcDbLine
 10
2.096248
 20
4.936447
 30
0.0
 11
2.096248
 21
4.936447
 31
0.0
  0
LINE
  5
2D4
330
18
100
AcDbEntity
  8
0
 62
     0
100
AcDbLine
 10
2.29999
 20
4.96327
 30
0.0
 11
2.29999
 21
4.96327
 31
0.0
  0
LINE
  5
2D5
330
18
100
AcDbEntity
  8
0
 62
     0
100
AcDbLine
 10
2.378066
 20
4.973549
 30
0.0
 11
2.378066
 21
4.973549
 31
0.0
  0
LINE
  5
2D6
330
18
100
AcDbEntity
  8
0
 62
     0
100
AcDbLine
 10
2.500014
 20
4.989604
 30
0.0
 11
2.500014
 21
4.989604
 31
0.0
  0
LINE
  5
2D7
330
18
100
AcDbEntity
  8
0
 62
     0
100
AcDbLine
 10
2.703756
 20
5.016426999999999
 30
0.0
 11
2.703756
 21
5.016426999999999
 31
0.0
  0
LINE
  5
2D8
330
18
100
AcDbEntity
  8
0
 62
     0
100
AcDbLine
 10
1.757925
 20
5.280279
 30
0.0
 11
1.757925
 21
5.280279
 31
0.0
  0
LINE
  5
2D9
330
18
100
AcDbEntity
  8
0
 62
     0
100
AcDbLine
 10
1.836001
 20
5.290558
 30
0.0
 11
1.836001
 21
5.290558
 31
0.0
  0
LINE
  5
2DA
330
18
100
AcDbEntity
  8
0
 62
     0
100
AcDbLine
 10
1.957949
 20
5.306612
 30
0.0
 11
1.957949
 21
5.306612
 31
0.0
  0
LINE
  5
2DB
330
18
100
AcDbEntity
  8
0
 62
     0
100
AcDbLine
 10
2.161691
 20
5.333436
 30
0.0
 11
2.161691
 21
5.333436
 31
0.0
  0
LINE
  5
2DC
330
18
100
AcDbEntity
  8
0
 62
     0
100
AcDbLine
 10
2.361715
 20
5.359769
 30
0.0
 11
2.361715
 21
5.359769
 31
0.0
  0
LINE
  5
2DD
330
18
100
AcDbEntity
  8
0
 62
     0
100
AcDbLine
 10
2.565456
 20
5.386592
 30
0.0
 11
2.565456
 21
5.386592
 31
0.0
  0
LINE
  5
2DE
330
18
100
AcDbEntity
  8
0
 62
     0
100
AcDbLine
 10
2.643533
 20
5.396871
 30
0.0
 11
2.643533
 21
5.396871
 31
0.0
  0
LINE
  5
2DF
330
18
100
AcDbEntity
  8
0
 62
     0
100
AcDbLine
 10
1.697701
 20
5.660723
 30
0.0
 11
1.697701
 21
5.660723
 31
0.0
  0
LINE
  5
2E0
330
18
100
AcDbEntity
  8
0
 62
     0
100
AcDbLine
 10
1.819649
 20
5.676777
 30
0.0
 11
1.819649
 21
5.676777
 31
0.0
  0
LINE
  5
2E1
330
18
100
AcDbEntity
  8
0
 62
     0
100
AcDbLine
 10
2.023391
 20
5.703601
 30
0.0
 11
2.023391
 21
5.703601
 31
0.0
  0
LINE
  5
2E2
330
18
100
AcDbEntity
  8
0
 62
     0
100
AcDbLine
 10
2.101467
 20
5.713880000000001
 30
0.0
 11
2.101467
 21
5.713880000000001
 31
0.0
  0
LINE
  5
2E3
330
18
100
AcDbEntity
  8
0
 62
     0
100
AcDbLine
 10
2.427157
 20
5.756757
 30
0.0
 11
2.427157
 21
5.756757
 31
0.0
  0
LINE
  5
2E4
330
18
100
AcDbEntity
  8
0
 62
     0
100
AcDbLine
 10
2.505233
 20
5.767036
 30
0.0
 11
2.505233
 21
5.767036
 31
0.0
  0
LINE
  5
2E5
330
18
100
AcDbEntity
  8
0
 62
     0
100
AcDbLine
 10
2.627181
 20
5.783091000000001
 30
0.0
 11
2.627181
 21
5.783091000000001
 31
0.0
  0
LINE
  5
2E6
330
18
100
AcDbEntity
  8
0
 62
     0
100
AcDbLine
 10
1.885092
 20
6.073766
 30
0.0
 11
1.885092
 21
6.073766
 31
0.0
  0
LINE
  5
2E7
330
18
100
AcDbEntity
  8
0
 62
     0
100
AcDbLine
 10
1.963168
 20
6.084045
 30
0.0
 11
1.963168
 21
6.084045
 31
0.0
  0
LINE
  5
2E8
330
18
100
AcDbEntity
  8
0
 62
     0
100
AcDbLine
 10
2.085116
 20
6.100099
 30
0.0
 11
2.085116
 21
6.100099
 31
0.0
  0
LINE
  5
2E9
330
18
100
AcDbEntity
  8
0
 62
     0
100
AcDbLine
 10
2.288858
 20
6.126923000000001
 30
0.0
 11
2.288858
 21
6.126923000000001
 31
0.0
  0
LINE
  5
2EA
330
18
100
AcDbEntity
  8
0
 62
     0
100
AcDbLine
 10
2.366934
 20
6.137201
 30
0.0
 11
2.366934
 21
6.137201
 31
0.0
  0
LINE
  5
2EB
330
18
100
AcDbEntity
  8
0
 62
     0
100
AcDbLine
 10
2.488882
 20
6.153256
 30
0.0
 11
2.488882
 21
6.153256
 31
0.0
  0
LINE
  5
2EC
330
18
100
AcDbEntity
  8
0
 62
     0
100
AcDbLine
 10
2.692624
 20
6.180079
 30
0.0
 11
2.692624
 21
6.180079
 31
0.0
  0
LINE
  5
2ED
330
18
100
AcDbEntity
  8
0
 62
     0
100
AcDbLine
 10
1.746792
 20
6.443931
 30
0.0
 11
1.746792
 21
6.443931
 31
0.0
  0
LINE
  5
2EE
330
18
100
AcDbEntity
  8
0
 62
     0
100
AcDbLine
 10
1.824869
 20
6.45421
 30
0.0
 11
1.824869
 21
6.45421
 31
0.0
  0
LINE
  5
2EF
330
18
100
AcDbEntity
  8
0
 62
     0
100
AcDbLine
 10
1.719966
 20
3.333418
 30
0.0
 11
1.719966
 21
3.333418
 31
0.0
  0
LINE
  5
2F0
330
18
100
AcDbEntity
  8
0
 62
     0
100
AcDbLine
 10
1.841914
 20
3.349473
 30
0.0
 11
1.841914
 21
3.349473
 31
0.0
  0
LINE
  5
2F1
330
18
100
AcDbEntity
  8
0
 62
     0
100
AcDbLine
 10
2.045656
 20
3.376296
 30
0.0
 11
2.045656
 21
3.376296
 31
0.0
  0
LINE
  5
2F2
330
18
100
AcDbEntity
  8
0
 62
     0
100
AcDbLine
 10
2.123732
 20
3.386575
 30
0.0
 11
2.123732
 21
3.386575
 31
0.0
  0
LINE
  5
2F3
330
18
100
AcDbEntity
  8
0
 62
     0
100
AcDbLine
 10
2.449422
 20
3.429453
 30
0.0
 11
2.449422
 21
3.429453
 31
0.0
  0
LINE
  5
2F4
330
18
100
AcDbEntity
  8
0
 62
     0
100
AcDbLine
 10
2.527498
 20
3.439732
 30
0.0
 11
2.527498
 21
3.439732
 31
0.0
  0
LINE
  5
2F5
330
18
100
AcDbEntity
  8
0
 62
     0
100
AcDbLine
 10
2.649446
 20
3.455787
 30
0.0
 11
2.649446
 21
3.455787
 31
0.0
  0
LINE
  5
2F6
330
18
100
AcDbEntity
  8
0
 62
     0
100
AcDbLine
 10
1.780189
 20
2.952974
 30
0.0
 11
1.780189
 21
2.952974
 31
0.0
  0
LINE
  5
2F7
330
18
100
AcDbEntity
  8
0
 62
     0
100
AcDbLine
 10
1.858266
 20
2.963253
 30
0.0
 11
1.858266
 21
2.963253
 31
0.0
  0
LINE
  5
2F8
330
18
100
AcDbEntity
  8
0
 62
     0
100
AcDbLine
 10
1.980213
 20
2.979308
 30
0.0
 11
1.980213
 21
2.979308
 31
0.0
  0
LINE
  5
2F9
330
18
100
AcDbEntity
  8
0
 62
     0
100
AcDbLine
 10
2.383979
 20
3.032465
 30
0.0
 11
2.383979
 21
3.032465
 31
0.0
  0
LINE
  5
2FA
330
18
100
AcDbEntity
  8
0
 62
     0
100
AcDbLine
 10
2.587721
 20
3.059288
 30
0.0
 11
2.587721
 21
3.059288
 31
0.0
  0
LINE
  5
2FB
330
18
100
AcDbEntity
  8
0
 62
     0
100
AcDbLine
 10
2.665797
 20
3.069567
 30
0.0
 11
2.665797
 21
3.069567
 31
0.0
  0
LINE
  5
2FC
330
18
100
AcDbEntity
  8
0
 62
     0
100
AcDbLine
 10
1.714747
 20
2.555986
 30
0.0
 11
1.714747
 21
2.555986
 31
0.0
  0
LINE
  5
2FD
330
18
100
AcDbEntity
  8
0
 62
     0
100
AcDbLine
 10
1.918489
 20
2.582809
 30
0.0
 11
1.918489
 21
2.582809
 31
0.0
  0
LINE
  5
2FE
330
18
100
AcDbEntity
  8
0
 62
     0
100
AcDbLine
 10
1.996565
 20
2.593088
 30
0.0
 11
1.996565
 21
2.593088
 31
0.0
  0
LINE
  5
2FF
330
18
100
AcDbEntity
  8
0
 62
     0
100
AcDbLine
 10
2.118513
 20
2.609143
 30
0.0
 11
2.118513
 21
2.609143
 31
0.0
  0
LINE
  5
300
330
18
100
AcDbEntity
  8
0
 62
     0
100
AcDbLine
 10
2.400331
 20
2.646245
 30
0.0
 11
2.400331
 21
2.646245
 31
0.0
  0
LINE
  5
301
330
18
100
AcDbEntity
  8
0
 62
     0
100
AcDbLine
 10
2.522279
 20
2.6623
 30
0.0
 11
2.522279
 21
2.6623
 31
0.0
  0
LINE
  5
302
330
18
100
AcDbEntity
  8
0
 62
     0
100
AcDbLine
 10
2.726021
 20
2.689123
 30
0.0
 11
2.726021
 21
2.689123
 31
0.0
  0
LINE
  5
303
330
18
100
AcDbEntity
  8
0
 62
     0
100
AcDbLine
 10
2.804097
 20
2.699402
 30
0.0
 11
2.804097
 21
2.699402
 31
0.0
  0
LINE
  5
304
330
18
100
AcDbEntity
  8
0
 62
     0
100
AcDbLine
 10
2.926045
 20
2.715457
 30
0.0
 11
2.926045
 21
2.715457
 31
0.0
  0
LINE
  5
305
330
18
100
AcDbEntity
  8
0
 62
     0
100
AcDbLine
 10
3.129786
 20
2.74228
 30
0.0
 11
3.129786
 21
2.74228
 31
0.0
  0
LINE
  5
306
330
18
100
AcDbEntity
  8
0
 62
     0
100
AcDbLine
 10
3.207863
 20
2.752559
 30
0.0
 11
3.207863
 21
2.752559
 31
0.0
  0
LINE
  5
307
330
18
100
AcDbEntity
  8
0
 62
     0
100
AcDbLine
 10
3.32981
 20
2.768613
 30
0.0
 11
3.32981
 21
2.768613
 31
0.0
  0
LINE
  5
308
330
18
100
AcDbEntity
  8
0
 62
     0
100
AcDbLine
 10
3.533552
 20
2.795436
 30
0.0
 11
3.533552
 21
2.795436
 31
0.0
  0
LINE
  5
309
330
18
100
AcDbEntity
  8
0
 62
     0
100
AcDbLine
 10
3.611629
 20
2.805715
 30
0.0
 11
3.611629
 21
2.805715
 31
0.0
  0
LINE
  5
30A
330
18
100
AcDbEntity
  8
0
 62
     0
100
AcDbLine
 10
3.733576
 20
2.82177
 30
0.0
 11
3.733576
 21
2.82177
 31
0.0
  0
LINE
  5
30B
330
18
100
AcDbEntity
  8
0
 62
     0
100
AcDbLine
 10
3.937318
 20
2.848593
 30
0.0
 11
3.937318
 21
2.848593
 31
0.0
  0
LINE
  5
30C
330
18
100
AcDbEntity
  8
0
 62
     0
100
AcDbLine
 10
4.015395
 20
2.858872
 30
0.0
 11
4.015395
 21
2.858872
 31
0.0
  0
LINE
  5
30D
330
18
100
AcDbEntity
  8
0
 62
     0
100
AcDbLine
 10
4.137341999999999
 20
2.874927
 30
0.0
 11
4.137341999999999
 21
2.874927
 31
0.0
  0
LINE
  5
30E
330
18
100
AcDbEntity
  8
0
 62
     0
100
AcDbLine
 10
4.341084
 20
2.90175
 30
0.0
 11
4.341084
 21
2.90175
 31
0.0
  0
LINE
  5
30F
330
18
100
AcDbEntity
  8
0
 62
     0
100
AcDbLine
 10
4.41916
 20
2.912029
 30
0.0
 11
4.41916
 21
2.912029
 31
0.0
  0
LINE
  5
310
330
18
100
AcDbEntity
  8
0
 62
     0
100
AcDbLine
 10
4.541108
 20
2.928084
 30
0.0
 11
4.541108
 21
2.928084
 31
0.0
  0
LINE
  5
311
330
18
100
AcDbEntity
  8
0
 62
     0
100
AcDbLine
 10
1.731098
 20
2.169766
 30
0.0
 11
1.731098
 21
2.169766
 31
0.0
  0
LINE
  5
312
330
18
100
AcDbEntity
  8
0
 62
     0
100
AcDbLine
 10
1.853046
 20
2.185821
 30
0.0
 11
1.853046
 21
2.185821
 31
0.0
  0
LINE
  5
313
330
18
100
AcDbEntity
  8
0
 62
     0
100
AcDbLine
 10
2.056788
 20
2.212644
 30
0.0
 11
2.056788
 21
2.212644
 31
0.0
  0
LINE
  5
314
330
18
100
AcDbEntity
  8
0
 62
     0
100
AcDbLine
 10
2.134864
 20
2.222923
 30
0.0
 11
2.134864
 21
2.222923
 31
0.0
  0
LINE
  5
315
330
18
100
AcDbEntity
  8
0
 62
     0
100
AcDbLine
 10
2.256812
 20
2.238978
 30
0.0
 11
2.256812
 21
2.238978
 31
0.0
  0
LINE
  5
316
330
18
100
AcDbEntity
  8
0
 62
     0
100
AcDbLine
 10
2.460554
 20
2.265801
 30
0.0
 11
2.460554
 21
2.265801
 31
0.0
  0
LINE
  5
317
330
18
100
AcDbEntity
  8
0
 62
     0
100
AcDbLine
 10
2.53863
 20
2.27608
 30
0.0
 11
2.53863
 21
2.27608
 31
0.0
  0
LINE
  5
318
330
18
100
AcDbEntity
  8
0
 62
     0
100
AcDbLine
 10
2.660578
 20
2.292135
 30
0.0
 11
2.660578
 21
2.292135
 31
0.0
  0
LINE
  5
319
330
18
100
AcDbEntity
  8
0
 62
     0
100
AcDbLine
 10
2.86432
 20
2.318958
 30
0.0
 11
2.86432
 21
2.318958
 31
0.0
  0
LINE
  5
31A
330
18
100
AcDbEntity
  8
0
 62
     0
100
AcDbLine
 10
2.942396
 20
2.329237
 30
0.0
 11
2.942396
 21
2.329237
 31
0.0
  0
LINE
  5
31B
330
18
100
AcDbEntity
  8
0
 62
     0
100
AcDbLine
 10
3.064344
 20
2.345291
 30
0.0
 11
3.064344
 21
2.345291
 31
0.0
  0
LINE
  5
31C
330
18
100
AcDbEntity
  8
0
 62
     0
100
AcDbLine
 10
3.268086
 20
2.372115
 30
0.0
 11
3.268086
 21
2.372115
 31
0.0
  0
LINE
  5
31D
330
18
100
AcDbEntity
  8
0
 62
     0
100
AcDbLine
 10
3.346162
 20
2.382394
 30
0.0
 11
3.346162
 21
2.382394
 31
0.0
  0
LINE
  5
31E
330
18
100
AcDbEntity
  8
0
 62
     0
100
AcDbLine
 10
3.46811
 20
2.398448
 30
0.0
 11
3.46811
 21
2.398448
 31
0.0
  0
LINE
  5
31F
330
18
100
AcDbEntity
  8
0
 62
     0
100
AcDbLine
 10
4.275642
 20
2.504762
 30
0.0
 11
4.275642
 21
2.504762
 31
0.0
  0
LINE
  5
320
330
18
100
AcDbEntity
  8
0
 62
     0
100
AcDbLine
 10
4.479384
 20
2.531585
 30
0.0
 11
4.479384
 21
2.531585
 31
0.0
  0
LINE
  5
321
330
18
100
AcDbEntity
  8
0
 62
     0
100
AcDbLine
 10
4.55746
 20
2.541864
 30
0.0
 11
4.55746
 21
2.541864
 31
0.0
  0
LINE
  5
322
330
18
100
AcDbEntity
  8
0
 62
     0
100
AcDbLine
 10
4.679408000000001
 20
2.557919
 30
0.0
 11
4.679408000000001
 21
2.557919
 31
0.0
  0
LINE
  5
323
330
18
100
AcDbEntity
  8
0
 62
     0
100
AcDbLine
 10
2.798877
 20
1.92197
 30
0.0
 11
2.798877
 21
1.92197
 31
0.0
  0
LINE
  5
324
330
18
100
AcDbEntity
  8
0
 62
     0
100
AcDbLine
 10
3.002619
 20
1.948793
 30
0.0
 11
3.002619
 21
1.948793
 31
0.0
  0
LINE
  5
325
330
18
100
AcDbEntity
  8
0
 62
     0
100
AcDbLine
 10
3.080696
 20
1.959072
 30
0.0
 11
3.080696
 21
1.959072
 31
0.0
  0
LINE
  5
326
330
18
100
AcDbEntity
  8
0
 62
     0
100
AcDbLine
 10
3.202643
 20
1.975126
 30
0.0
 11
3.202643
 21
1.975126
 31
0.0
  0
LINE
  5
327
330
18
100
AcDbEntity
  8
0
 62
     0
100
AcDbLine
 10
3.406385
 20
2.001949
 30
0.0
 11
3.406385
 21
2.001949
 31
0.0
  0
LINE
  5
328
330
18
100
AcDbEntity
  8
0
 62
     0
100
AcDbLine
 10
3.484462
 20
2.012228
 30
0.0
 11
3.484462
 21
2.012228
 31
0.0
  0
LINE
  5
329
330
18
100
AcDbEntity
  8
0
 62
     0
100
AcDbLine
 10
3.606409
 20
2.028283
 30
0.0
 11
3.606409
 21
2.028283
 31
0.0
  0
LINE
  5
32A
330
18
100
AcDbEntity
  8
0
 62
     0
100
AcDbLine
 10
3.810151
 20
2.055106
 30
0.0
 11
3.810151
 21
2.055106
 31
0.0
  0
LINE
  5
32B
330
18
100
AcDbEntity
  8
0
 62
     0
100
AcDbLine
 10
3.888227
 20
2.065385
 30
0.0
 11
3.888227
 21
2.065385
 31
0.0
  0
LINE
  5
32C
330
18
100
AcDbEntity
  8
0
 62
     0
100
AcDbLine
 10
4.010175
 20
2.08144
 30
0.0
 11
4.010175
 21
2.08144
 31
0.0
  0
LINE
  5
32D
330
18
100
AcDbEntity
  8
0
 62
     0
100
AcDbLine
 10
4.213917
 20
2.108263
 30
0.0
 11
4.213917
 21
2.108263
 31
0.0
  0
LINE
  5
32E
330
18
100
AcDbEntity
  8
0
 62
     0
100
AcDbLine
 10
4.291993
 20
2.118542
 30
0.0
 11
4.291993
 21
2.118542
 31
0.0
  0
LINE
  5
32F
330
18
100
AcDbEntity
  8
0
 62
     0
100
AcDbLine
 10
4.413941
 20
2.134597
 30
0.0
 11
4.413941
 21
2.134597
 31
0.0
  0
LINE
  5
330
330
18
100
AcDbEntity
  8
0
 62
     0
100
AcDbLine
 10
4.617683
 20
2.16142
 30
0.0
 11
4.617683
 21
2.16142
 31
0.0
  0
LINE
  5
331
330
18
100
AcDbEntity
  8
0
 62
     0
100
AcDbLine
 10
4.695759
 20
2.171699
 30
0.0
 11
4.695759
 21
2.171699
 31
0.0
  0
LINE
  5
332
330
18
100
AcDbEntity
  8
0
 62
     0
100
AcDbLine
 10
1.977595
 20
4.889790000000001
 30
0.0
 11
1.977595
 21
4.889790000000001
 31
0.0
  0
LINE
  5
333
330
18
100
AcDbEntity
  8
0
 62
     0
100
AcDbLine
 10
2.040849
 20
4.849493
 30
0.0
 11
2.040849
 21
4.849493
 31
0.0
  0
LINE
  5
334
330
18
100
AcDbEntity
  8
0
 62
     0
100
AcDbLine
 10
2.56586
 20
4.515024
 30
0.0
 11
2.56586
 21
4.515024
 31
0.0
  0
LINE
  5
335
330
18
100
AcDbEntity
  8
0
 62
     0
100
AcDbLine
 10
2.629115
 20
4.474726
 30
0.0
 11
2.629115
 21
4.474726
 31
0.0
  0
LINE
  5
336
330
18
100
AcDbEntity
  8
0
 62
     0
100
AcDbLine
 10
1.856451
 20
5.265406
 30
0.0
 11
1.856451
 21
5.265406
 31
0.0
  0
LINE
  5
337
330
18
100
AcDbEntity
  8
0
 62
     0
100
AcDbLine
 10
1.919705
 20
5.225108000000001
 30
0.0
 11
1.919705
 21
5.225108000000001
 31
0.0
  0
LINE
  5
338
330
18
100
AcDbEntity
  8
0
 62
     0
100
AcDbLine
 10
2.147421
 20
5.080037
 30
0.0
 11
2.147421
 21
5.080037
 31
0.0
  0
LINE
  5
339
330
18
100
AcDbEntity
  8
0
 62
     0
100
AcDbLine
 10
2.444716
 20
4.890639
 30
0.0
 11
2.444716
 21
4.890639
 31
0.0
  0
LINE
  5
33A
330
18
100
AcDbEntity
  8
0
 62
     0
100
AcDbLine
 10
2.507971
 20
4.850342
 30
0.0
 11
2.507971
 21
4.850342
 31
0.0
  0
LINE
  5
33B
330
18
100
AcDbEntity
  8
0
 62
     0
100
AcDbLine
 10
2.735686
 20
4.705271
 30
0.0
 11
2.735686
 21
4.705271
 31
0.0
  0
LINE
  5
33C
330
18
100
AcDbEntity
  8
0
 62
     0
100
AcDbLine
 10
1.735306
 20
5.641021
 30
0.0
 11
1.735306
 21
5.641021
 31
0.0
  0
LINE
  5
33D
330
18
100
AcDbEntity
  8
0
 62
     0
100
AcDbLine
 10
1.798561
 20
5.600723
 30
0.0
 11
1.798561
 21
5.600723
 31
0.0
  0
LINE
  5
33E
330
18
100
AcDbEntity
  8
0
 62
     0
100
AcDbLine
 10
2.026276
 20
5.455653
 30
0.0
 11
2.026276
 21
5.455653
 31
0.0
  0
LINE
  5
33F
330
18
100
AcDbEntity
  8
0
 62
     0
100
AcDbLine
 10
2.323572
 20
5.266254
 30
0.0
 11
2.323572
 21
5.266254
 31
0.0
  0
LINE
  5
340
330
18
100
AcDbEntity
  8
0
 62
     0
100
AcDbLine
 10
2.386826
 20
5.225957
 30
0.0
 11
2.386826
 21
5.225957
 31
0.0
  0
LINE
  5
341
330
18
100
AcDbEntity
  8
0
 62
     0
100
AcDbLine
 10
2.614542
 20
5.080886000000001
 30
0.0
 11
2.614542
 21
5.080886000000001
 31
0.0
  0
LINE
  5
342
330
18
100
AcDbEntity
  8
0
 62
     0
100
AcDbLine
 10
1.905132
 20
5.831268
 30
0.0
 11
1.905132
 21
5.831268
 31
0.0
  0
LINE
  5
343
330
18
100
AcDbEntity
  8
0
 62
     0
100
AcDbLine
 10
2.493398
 20
5.456501
 30
0.0
 11
2.493398
 21
5.456501
 31
0.0
  0
LINE
  5
344
330
18
100
AcDbEntity
  8
0
 62
     0
100
AcDbLine
 10
1.783988
 20
6.206883
 30
0.0
 11
1.783988
 21
6.206883
 31
0.0
  0
LINE
  5
345
330
18
100
AcDbEntity
  8
0
 62
     0
100
AcDbLine
 10
2.081283
 20
6.017485
 30
0.0
 11
2.081283
 21
6.017485
 31
0.0
  0
LINE
  5
346
330
18
100
AcDbEntity
  8
0
 62
     0
100
AcDbLine
 10
2.144538
 20
5.977188
 30
0.0
 11
2.144538
 21
5.977188
 31
0.0
  0
LINE
  5
347
330
18
100
AcDbEntity
  8
0
 62
     0
100
AcDbLine
 10
2.372253
 20
5.832117
 30
0.0
 11
2.372253
 21
5.832117
 31
0.0
  0
LINE
  5
348
330
18
100
AcDbEntity
  8
0
 62
     0
100
AcDbLine
 10
2.669549
 20
5.642719000000001
 30
0.0
 11
2.669549
 21
5.642719000000001
 31
0.0
  0
LINE
  5
349
330
18
100
AcDbEntity
  8
0
 62
     0
100
AcDbLine
 10
2.732803
 20
5.602421
 30
0.0
 11
2.732803
 21
5.602421
 31
0.0
  0
LINE
  5
34A
330
18
100
AcDbEntity
  8
0
 62
     0
100
AcDbLine
 10
1.960139
 20
6.3931
 30
0.0
 11
1.960139
 21
6.3931
 31
0.0
  0
LINE
  5
34B
330
18
100
AcDbEntity
  8
0
 62
     0
100
AcDbLine
 10
2.023394
 20
6.352803
 30
0.0
 11
2.023394
 21
6.352803
 31
0.0
  0
LINE
  5
34C
330
18
100
AcDbEntity
  8
0
 62
     0
100
AcDbLine
 10
2.548405
 20
6.018333999999999
 30
0.0
 11
2.548405
 21
6.018333999999999
 31
0.0
  0
LINE
  5
34D
330
18
100
AcDbEntity
  8
0
 62
     0
100
AcDbLine
 10
2.611659
 20
5.978036
 30
0.0
 11
2.611659
 21
5.978036
 31
0.0
  0
LINE
  5
34E
330
18
100
AcDbEntity
  8
0
 62
     0
100
AcDbLine
 10
2.490515
 20
6.353651999999999
 30
0.0
 11
2.490515
 21
6.353651999999999
 31
0.0
  0
LINE
  5
34F
330
18
100
AcDbEntity
  8
0
 62
     0
100
AcDbLine
 10
2.718231
 20
6.208581
 30
0.0
 11
2.718231
 21
6.208581
 31
0.0
  0
LINE
  5
350
330
18
100
AcDbEntity
  8
0
 62
     0
100
AcDbLine
 10
1.801444
 20
4.703573
 30
0.0
 11
1.801444
 21
4.703573
 31
0.0
  0
LINE
  5
351
330
18
100
AcDbEntity
  8
0
 62
     0
100
AcDbLine
 10
2.098739
 20
4.514175
 30
0.0
 11
2.098739
 21
4.514175
 31
0.0
  0
LINE
  5
352
330
18
100
AcDbEntity
  8
0
 62
     0
100
AcDbLine
 10
2.161994
 20
4.473877
 30
0.0
 11
2.161994
 21
4.473877
 31
0.0
  0
LINE
  5
353
330
18
100
AcDbEntity
  8
0
 62
     0
100
AcDbLine
 10
4.515056
 20
2.974812
 30
0.0
 11
4.515056
 21
2.974812
 31
0.0
  0
LINE
  5
354
330
18
100
AcDbEntity
  8
0
 62
     0
100
AcDbLine
 10
4.742771
 20
2.829741
 30
0.0
 11
4.742771
 21
2.829741
 31
0.0
  0
LINE
  5
355
330
18
100
AcDbEntity
  8
0
 62
     0
100
AcDbLine
 10
2.389709
 20
4.328807
 30
0.0
 11
2.389709
 21
4.328807
 31
0.0
  0
LINE
  5
356
330
18
100
AcDbEntity
  8
0
 62
     0
100
AcDbLine
 10
2.687005
 20
4.139408
 30
0.0
 11
2.687005
 21
4.139408
 31
0.0
  0
LINE
  5
357
330
18
100
AcDbEntity
  8
0
 62
     0
100
AcDbLine
 10
1.694872
 20
4.473029
 30
0.0
 11
1.694872
 21
4.473029
 31
0.0
  0
LINE
  5
358
330
18
100
AcDbEntity
  8
0
 62
     0
100
AcDbLine
 10
1.922588
 20
4.327958
 30
0.0
 11
1.922588
 21
4.327958
 31
0.0
  0
LINE
  5
359
330
18
100
AcDbEntity
  8
0
 62
     0
100
AcDbLine
 10
4.047934
 20
2.973963
 30
0.0
 11
4.047934
 21
2.973963
 31
0.0
  0
LINE
  5
35A
330
18
100
AcDbEntity
  8
0
 62
     0
100
AcDbLine
 10
4.27565
 20
2.828892
 30
0.0
 11
4.27565
 21
2.828892
 31
0.0
  0
LINE
  5
35B
330
18
100
AcDbEntity
  8
0
 62
     0
100
AcDbLine
 10
4.572946
 20
2.639494
 30
0.0
 11
4.572946
 21
2.639494
 31
0.0
  0
LINE
  5
35C
330
18
100
AcDbEntity
  8
0
 62
     0
100
AcDbLine
 10
4.6362
 20
2.599196
 30
0.0
 11
4.6362
 21
2.599196
 31
0.0
  0
LINE
  5
35D
330
18
100
AcDbEntity
  8
0
 62
     0
100
AcDbLine
 10
2.510853
 20
3.953191
 30
0.0
 11
2.510853
 21
3.953191
 31
0.0
  0
LINE
  5
35E
330
18
100
AcDbEntity
  8
0
 62
     0
100
AcDbLine
 10
1.752762
 20
4.137711
 30
0.0
 11
1.752762
 21
4.137711
 31
0.0
  0
LINE
  5
35F
330
18
100
AcDbEntity
  8
0
 62
     0
100
AcDbLine
 10
1.816017
 20
4.097413
 30
0.0
 11
1.816017
 21
4.097413
 31
0.0
  0
LINE
  5
360
330
18
100
AcDbEntity
  8
0
 62
     0
100
AcDbLine
 10
2.043732
 20
3.952342
 30
0.0
 11
2.043732
 21
3.952342
 31
0.0
  0
LINE
  5
361
330
18
100
AcDbEntity
  8
0
 62
     0
100
AcDbLine
 10
4.69409
 20
2.263878
 30
0.0
 11
4.69409
 21
2.263878
 31
0.0
  0
LINE
  5
362
330
18
100
AcDbEntity
  8
0
 62
     0
100
AcDbLine
 10
2.341028
 20
3.762944
 30
0.0
 11
2.341028
 21
3.762944
 31
0.0
  0
LINE
  5
363
330
18
100
AcDbEntity
  8
0
 62
     0
100
AcDbLine
 10
2.404282
 20
3.722647
 30
0.0
 11
2.404282
 21
3.722647
 31
0.0
  0
LINE
  5
364
330
18
100
AcDbEntity
  8
0
 62
     0
100
AcDbLine
 10
2.631998
 20
3.577576
 30
0.0
 11
2.631998
 21
3.577576
 31
0.0
  0
LINE
  5
365
330
18
100
AcDbEntity
  8
0
 62
     0
100
AcDbLine
 10
3.580813
 20
2.973114
 30
0.0
 11
3.580813
 21
2.973114
 31
0.0
  0
LINE
  5
366
330
18
100
AcDbEntity
  8
0
 62
     0
100
AcDbLine
 10
3.808529
 20
2.828043
 30
0.0
 11
3.808529
 21
2.828043
 31
0.0
  0
LINE
  5
367
330
18
100
AcDbEntity
  8
0
 62
     0
100
AcDbLine
 10
4.105824
 20
2.638645
 30
0.0
 11
4.105824
 21
2.638645
 31
0.0
  0
LINE
  5
368
330
18
100
AcDbEntity
  8
0
 62
     0
100
AcDbLine
 10
4.169079
 20
2.598347
 30
0.0
 11
4.169079
 21
2.598347
 31
0.0
  0
LINE
  5
369
330
18
100
AcDbEntity
  8
0
 62
     0
100
AcDbLine
 10
1.873906
 20
3.762095
 30
0.0
 11
1.873906
 21
3.762095
 31
0.0
  0
LINE
  5
36A
330
18
100
AcDbEntity
  8
0
 62
     0
100
AcDbLine
 10
1.937161
 20
3.721798
 30
0.0
 11
1.937161
 21
3.721798
 31
0.0
  0
LINE
  5
36B
330
18
100
AcDbEntity
  8
0
 62
     0
100
AcDbLine
 10
2.164876
 20
3.576727
 30
0.0
 11
2.164876
 21
3.576727
 31
0.0
  0
LINE
  5
36C
330
18
100
AcDbEntity
  8
0
 62
     0
100
AcDbLine
 10
4.226969
 20
2.263029
 30
0.0
 11
4.226969
 21
2.263029
 31
0.0
  0
LINE
  5
36D
330
18
100
AcDbEntity
  8
0
 62
     0
100
AcDbLine
 10
4.290223
 20
2.222732
 30
0.0
 11
4.290223
 21
2.222732
 31
0.0
  0
LINE
  5
36E
330
18
100
AcDbEntity
  8
0
 62
     0
100
AcDbLine
 10
4.517939
 20
2.077661
 30
0.0
 11
4.517939
 21
2.077661
 31
0.0
  0
LINE
  5
36F
330
18
100
AcDbEntity
  8
0
 62
     0
100
AcDbLine
 10
2.462172
 20
3.387329
 30
0.0
 11
2.462172
 21
3.387329
 31
0.0
  0
LINE
  5
370
330
18
100
AcDbEntity
  8
0
 62
     0
100
AcDbLine
 10
2.525426
 20
3.347031
 30
0.0
 11
2.525426
 21
3.347031
 31
0.0
  0
LINE
  5
371
330
18
100
AcDbEntity
  8
0
 62
     0
100
AcDbLine
 10
3.113692
 20
2.972265
 30
0.0
 11
3.113692
 21
2.972265
 31
0.0
  0
LINE
  5
372
330
18
100
AcDbEntity
  8
0
 62
     0
100
AcDbLine
 10
3.341408
 20
2.827194
 30
0.0
 11
3.341408
 21
2.827194
 31
0.0
  0
LINE
  5
373
330
18
100
AcDbEntity
  8
0
 62
     0
100
AcDbLine
 10
3.638703
 20
2.637796
 30
0.0
 11
3.638703
 21
2.637796
 31
0.0
  0
LINE
  5
374
330
18
100
AcDbEntity
  8
0
 62
     0
100
AcDbLine
 10
3.701957
 20
2.597498
 30
0.0
 11
3.701957
 21
2.597498
 31
0.0
  0
LINE
  5
375
330
18
100
AcDbEntity
  8
0
 62
     0
100
AcDbLine
 10
1.697755
 20
3.575878
 30
0.0
 11
1.697755
 21
3.575878
 31
0.0
  0
LINE
  5
376
330
18
100
AcDbEntity
  8
0
 62
     0
100
AcDbLine
 10
1.995051
 20
3.38648
 30
0.0
 11
1.995051
 21
3.38648
 31
0.0
  0
LINE
  5
377
330
18
100
AcDbEntity
  8
0
 62
     0
100
AcDbLine
 10
2.058305
 20
3.346183
 30
0.0
 11
2.058305
 21
3.346183
 31
0.0
  0
LINE
  5
378
330
18
100
AcDbEntity
  8
0
 62
     0
100
AcDbLine
 10
3.759847
 20
2.262181
 30
0.0
 11
3.759847
 21
2.262181
 31
0.0
  0
LINE
  5
379
330
18
100
AcDbEntity
  8
0
 62
     0
100
AcDbLine
 10
3.823102
 20
2.221883
 30
0.0
 11
3.823102
 21
2.221883
 31
0.0
  0
LINE
  5
37A
330
18
100
AcDbEntity
  8
0
 62
     0
100
AcDbLine
 10
4.050816999999999
 20
2.076812
 30
0.0
 11
4.050816999999999
 21
2.076812
 31
0.0
  0
LINE
  5
37B
330
18
100
AcDbEntity
  8
0
 62
     0
100
AcDbLine
 10
2.286021
 20
3.201112
 30
0.0
 11
2.286021
 21
3.201112
 31
0.0
  0
LINE
  5
37C
330
18
100
AcDbEntity
  8
0
 62
     0
100
AcDbLine
 10
2.583316
 20
3.011714
 30
0.0
 11
2.583316
 21
3.011714
 31
0.0
  0
LINE
  5
37D
330
18
100
AcDbEntity
  8
0
 62
     0
100
AcDbLine
 10
2.646571
 20
2.971416
 30
0.0
 11
2.646571
 21
2.971416
 31
0.0
  0
LINE
  5
37E
330
18
100
AcDbEntity
  8
0
 62
     0
100
AcDbLine
 10
2.874286
 20
2.826345
 30
0.0
 11
2.874286
 21
2.826345
 31
0.0
  0
LINE
  5
37F
330
18
100
AcDbEntity
  8
0
 62
     0
100
AcDbLine
 10
3.171582
 20
2.636947
 30
0.0
 11
3.171582
 21
2.636947
 31
0.0
  0
LINE
  5
380
330
18
100
AcDbEntity
  8
0
 62
     0
100
AcDbLine
 10
3.234836
 20
2.59665
 30
0.0
 11
3.234836
 21
2.59665
 31
0.0
  0
LINE
  5
381
330
18
100
AcDbEntity
  8
0
 62
     0
100
AcDbLine
 10
1.818899
 20
3.200263
 30
0.0
 11
1.818899
 21
3.200263
 31
0.0
  0
LINE
  5
382
330
18
100
AcDbEntity
  8
0
 62
     0
100
AcDbLine
 10
2.116195
 20
3.010865
 30
0.0
 11
2.116195
 21
3.010865
 31
0.0
  0
LINE
  5
383
330
18
100
AcDbEntity
  8
0
 62
     0
100
AcDbLine
 10
3.292726
 20
2.261332
 30
0.0
 11
3.292726
 21
2.261332
 31
0.0
  0
LINE
  5
384
330
18
100
AcDbEntity
  8
0
 62
     0
100
AcDbLine
 10
3.35598
 20
2.221034
 30
0.0
 11
3.35598
 21
2.221034
 31
0.0
  0
LINE
  5
385
330
18
100
AcDbEntity
  8
0
 62
     0
100
AcDbLine
 10
3.583696
 20
2.075963
 30
0.0
 11
3.583696
 21
2.075963
 31
0.0
  0
LINE
  5
386
330
18
100
AcDbEntity
  8
0
 62
     0
100
AcDbLine
 10
2.407165
 20
2.825496
 30
0.0
 11
2.407165
 21
2.825496
 31
0.0
  0
LINE
  5
387
330
18
100
AcDbEntity
  8
0
 62
     0
100
AcDbLine
 10
2.70446
 20
2.636098
 30
0.0
 11
2.70446
 21
2.636098
 31
0.0
  0
LINE
  5
388
330
18
100
AcDbEntity
  8
0
 62
     0
100
AcDbLine
 10
2.767715
 20
2.595801
 30
0.0
 11
2.767715
 21
2.595801
 31
0.0
  0
LINE
  5
389
330
18
100
AcDbEntity
  8
0
 62
     0
100
AcDbLine
 10
1.712328
 20
2.969718
 30
0.0
 11
1.712328
 21
2.969718
 31
0.0
  0
LINE
  5
38A
330
18
100
AcDbEntity
  8
0
 62
     0
100
AcDbLine
 10
1.940044
 20
2.824647
 30
0.0
 11
1.940044
 21
2.824647
 31
0.0
  0
LINE
  5
38B
330
18
100
AcDbEntity
  8
0
 62
     0
100
AcDbLine
 10
2.825605
 20
2.260483
 30
0.0
 11
2.825605
 21
2.260483
 31
0.0
  0
LINE
  5
38C
330
18
100
AcDbEntity
  8
0
 62
     0
100
AcDbLine
 10
2.888859
 20
2.220185
 30
0.0
 11
2.888859
 21
2.220185
 31
0.0
  0
LINE
  5
38D
330
18
100
AcDbEntity
  8
0
 62
     0
100
AcDbLine
 10
3.116575
 20
2.075115
 30
0.0
 11
3.116575
 21
2.075115
 31
0.0
  0
LINE
  5
38E
330
18
100
AcDbEntity
  8
0
 62
     0
100
AcDbLine
 10
2.237339
 20
2.635249
 30
0.0
 11
2.237339
 21
2.635249
 31
0.0
  0
LINE
  5
38F
330
18
100
AcDbEntity
  8
0
 62
     0
100
AcDbLine
 10
1.770218
 20
2.6344
 30
0.0
 11
1.770218
 21
2.6344
 31
0.0
  0
LINE
  5
390
330
18
100
AcDbEntity
  8
0
 62
     0
100
AcDbLine
 10
1.833472
 20
2.594103
 30
0.0
 11
1.833472
 21
2.594103
 31
0.0
  0
LINE
  5
391
330
18
100
AcDbEntity
  8
0
 62
     0
100
AcDbLine
 10
2.061188
 20
2.449032
 30
0.0
 11
2.061188
 21
2.449032
 31
0.0
  0
LINE
  5
392
330
18
100
AcDbEntity
  8
0
 62
     0
100
AcDbLine
 10
2.358483
 20
2.259634
 30
0.0
 11
2.358483
 21
2.259634
 31
0.0
  0
LINE
  5
393
330
18
100
AcDbEntity
  8
0
 62
     0
100
AcDbLine
 10
2.421738
 20
2.219337
 30
0.0
 11
2.421738
 21
2.219337
 31
0.0
  0
LINE
  5
394
330
18
100
AcDbEntity
  8
0
 62
     0
100
AcDbLine
 10
2.649453
 20
2.074266
 30
0.0
 11
2.649453
 21
2.074266
 31
0.0
  0
LINE
  5
395
330
18
100
AcDbEntity
  8
0
 62
     0
100
AcDbLine
 10
1.891362
 20
2.258785
 30
0.0
 11
1.891362
 21
2.258785
 31
0.0
  0
LINE
  5
396
330
18
100
AcDbEntity
  8
0
 62
     0
100
AcDbLine
 10
1.954617
 20
2.218488
 30
0.0
 11
1.954617
 21
2.218488
 31
0.0
  0
LINE
  5
397
330
18
100
AcDbEntity
  8
0
 62
     0
100
AcDbLine
 10
2.182332
 20
2.073417
 30
0.0
 11
2.182332
 21
2.073417
 31
0.0
  0
LINE
  5
398
330
18
100
AcDbEntity
  8
0
 62
     0
100
AcDbLine
 10
1.715211
 20
2.072568
 30
0.0
 11
1.715211
 21
2.072568
 31
0.0
  0
LINE
  5
399
330
18
100
AcDbEntity
  8
0
 62
     0
100
AcDbLine
 10
1.708314
 20
5.348507
 30
0.0
 11
1.708314
 21
5.348507
 31
0.0
  0
LINE
  5
39A
330
18
100
AcDbEntity
  8
0
 62
     0
100
AcDbLine
 10
1.838812
 20
5.228928
 30
0.0
 11
1.838812
 21
5.228928
 31
0.0
  0
LINE
  5
39B
330
18
100
AcDbEntity
  8
0
 62
     0
100
AcDbLine
 10
1.988111
 20
5.092121
 30
0.0
 11
1.988111
 21
5.092121
 31
0.0
  0
LINE
  5
39C
330
18
100
AcDbEntity
  8
0
 62
     0
100
AcDbLine
 10
2.015759
 20
5.066786000000001
 30
0.0
 11
2.015759
 21
5.066786000000001
 31
0.0
  0
LINE
  5
39D
330
18
100
AcDbEntity
  8
0
 62
     0
100
AcDbLine
 10
2.146257
 20
4.947207
 30
0.0
 11
2.146257
 21
4.947207
 31
0.0
  0
LINE
  5
39E
330
18
100
AcDbEntity
  8
0
 62
     0
100
AcDbLine
 10
4.298369999999999
 20
2.975159
 30
0.0
 11
4.298369999999999
 21
2.975159
 31
0.0
  0
LINE
  5
39F
330
18
100
AcDbEntity
  8
0
 62
     0
100
AcDbLine
 10
4.447668
 20
2.838352
 30
0.0
 11
4.447668
 21
2.838352
 31
0.0
  0
LINE
  5
3A0
330
18
100
AcDbEntity
  8
0
 62
     0
100
AcDbLine
 10
4.475316
 20
2.813017
 30
0.0
 11
4.475316
 21
2.813017
 31
0.0
  0
LINE
  5
3A1
330
18
100
AcDbEntity
  8
0
 62
     0
100
AcDbLine
 10
4.605814
 20
2.693438
 30
0.0
 11
4.605814
 21
2.693438
 31
0.0
  0
LINE
  5
3A2
330
18
100
AcDbEntity
  8
0
 62
     0
100
AcDbLine
 10
2.295556
 20
4.8104
 30
0.0
 11
2.295556
 21
4.8104
 31
0.0
  0
LINE
  5
3A3
330
18
100
AcDbEntity
  8
0
 62
     0
100
AcDbLine
 10
2.323204
 20
4.785065
 30
0.0
 11
2.323204
 21
4.785065
 31
0.0
  0
LINE
  5
3A4
330
18
100
AcDbEntity
  8
0
 62
     0
100
AcDbLine
 10
2.453702
 20
4.665486000000001
 30
0.0
 11
2.453702
 21
4.665486000000001
 31
0.0
  0
LINE
  5
3A5
330
18
100
AcDbEntity
  8
0
 62
     0
100
AcDbLine
 10
2.603
 20
4.528679
 30
0.0
 11
2.603
 21
4.528679
 31
0.0
  0
LINE
  5
3A6
330
18
100
AcDbEntity
  8
0
 62
     0
100
AcDbLine
 10
2.630648
 20
4.503344
 30
0.0
 11
2.630648
 21
4.503344
 31
0.0
  0
LINE
  5
3A7
330
18
100
AcDbEntity
  8
0
 62
     0
100
AcDbLine
 10
1.824141
 20
5.787214
 30
0.0
 11
1.824141
 21
5.787214
 31
0.0
  0
LINE
  5
3A8
330
18
100
AcDbEntity
  8
0
 62
     0
100
AcDbLine
 10
1.851789
 20
5.761880000000001
 30
0.0
 11
1.851789
 21
5.761880000000001
 31
0.0
  0
LINE
  5
3A9
330
18
100
AcDbEntity
  8
0
 62
     0
100
AcDbLine
 10
1.982287
 20
5.6423
 30
0.0
 11
1.982287
 21
5.6423
 31
0.0
  0
LINE
  5
3AA
330
18
100
AcDbEntity
  8
0
 62
     0
100
AcDbLine
 10
2.131585
 20
5.505493
 30
0.0
 11
2.131585
 21
5.505493
 31
0.0
  0
LINE
  5
3AB
330
18
100
AcDbEntity
  8
0
 62
     0
100
AcDbLine
 10
2.159233
 20
5.480159
 30
0.0
 11
2.159233
 21
5.480159
 31
0.0
  0
LINE
  5
3AC
330
18
100
AcDbEntity
  8
0
 62
     0
100
AcDbLine
 10
2.289731
 20
5.360579
 30
0.0
 11
2.289731
 21
5.360579
 31
0.0
  0
LINE
  5
3AD
330
18
100
AcDbEntity
  8
0
 62
     0
100
AcDbLine
 10
2.43903
 20
5.223772
 30
0.0
 11
2.43903
 21
5.223772
 31
0.0
  0
LINE
  5
3AE
330
18
100
AcDbEntity
  8
0
 62
     0
100
AcDbLine
 10
2.466678
 20
5.198437
 30
0.0
 11
2.466678
 21
5.198437
 31
0.0
  0
LINE
  5
3AF
330
18
100
AcDbEntity
  8
0
 62
     0
100
AcDbLine
 10
2.597176
 20
5.078858
 30
0.0
 11
2.597176
 21
5.078858
 31
0.0
  0
LINE
  5
3B0
330
18
100
AcDbEntity
  8
0
 62
     0
100
AcDbLine
 10
1.818316
 20
6.337394000000001
 30
0.0
 11
1.818316
 21
6.337394000000001
 31
0.0
  0
LINE
  5
3B1
330
18
100
AcDbEntity
  8
0
 62
     0
100
AcDbLine
 10
1.967615
 20
6.200587000000001
 30
0.0
 11
1.967615
 21
6.200587000000001
 31
0.0
  0
LINE
  5
3B2
330
18
100
AcDbEntity
  8
0
 62
     0
100
AcDbLine
 10
1.995263
 20
6.175252
 30
0.0
 11
1.995263
 21
6.175252
 31
0.0
  0
LINE
  5
3B3
330
18
100
AcDbEntity
  8
0
 62
     0
100
AcDbLine
 10
2.125761
 20
6.055673000000001
 30
0.0
 11
2.125761
 21
6.055673000000001
 31
0.0
  0
LINE
  5
3B4
330
18
100
AcDbEntity
  8
0
 62
     0
100
AcDbLine
 10
2.302708
 20
5.893530999999999
 30
0.0
 11
2.302708
 21
5.893530999999999
 31
0.0
  0
LINE
  5
3B5
330
18
100
AcDbEntity
  8
0
 62
     0
100
AcDbLine
 10
2.433206
 20
5.773952
 30
0.0
 11
2.433206
 21
5.773952
 31
0.0
  0
LINE
  5
3B6
330
18
100
AcDbEntity
  8
0
 62
     0
100
AcDbLine
 10
2.582504
 20
5.637144999999999
 30
0.0
 11
2.582504
 21
5.637144999999999
 31
0.0
  0
LINE
  5
3B7
330
18
100
AcDbEntity
  8
0
 62
     0
100
AcDbLine
 10
2.610152
 20
5.61181
 30
0.0
 11
2.610152
 21
5.61181
 31
0.0
  0
LINE
  5
3B8
330
18
100
AcDbEntity
  8
0
 62
     0
100
AcDbLine
 10
2.74065
 20
5.49223
 30
0.0
 11
2.74065
 21
5.49223
 31
0.0
  0
LINE
  5
3B9
330
18
100
AcDbEntity
  8
0
 62
     0
100
AcDbLine
 10
2.446182
 20
6.306903
 30
0.0
 11
2.446182
 21
6.306903
 31
0.0
  0
LINE
  5
3BA
330
18
100
AcDbEntity
  8
0
 62
     0
100
AcDbLine
 10
2.57668
 20
6.187323999999999
 30
0.0
 11
2.57668
 21
6.187323999999999
 31
0.0
  0
LINE
  5
3BB
330
18
100
AcDbEntity
  8
0
 62
     0
100
AcDbLine
 10
2.725979
 20
6.050517
 30
0.0
 11
2.725979
 21
6.050517
 31
0.0
  0
LINE
  5
3BC
330
18
100
AcDbEntity
  8
0
 62
     0
100
AcDbLine
 10
1.695338
 20
4.815555000000001
 30
0.0
 11
1.695338
 21
4.815555000000001
 31
0.0
  0
LINE
  5
3BD
330
18
100
AcDbEntity
  8
0
 62
     0
100
AcDbLine
 10
1.844637
 20
4.678748000000001
 30
0.0
 11
1.844637
 21
4.678748000000001
 31
0.0
  0
LINE
  5
3BE
330
18
100
AcDbEntity
  8
0
 62
     0
100
AcDbLine
 10
1.872285
 20
4.653414
 30
0.0
 11
1.872285
 21
4.653414
 31
0.0
  0
LINE
  5
3BF
330
18
100
AcDbEntity
  8
0
 62
     0
100
AcDbLine
 10
2.002783
 20
4.533834
 30
0.0
 11
2.002783
 21
4.533834
 31
0.0
  0
LINE
  5
3C0
330
18
100
AcDbEntity
  8
0
 62
     0
100
AcDbLine
 10
2.152081
 20
4.397027
 30
0.0
 11
2.152081
 21
4.397027
 31
0.0
  0
LINE
  5
3C1
330
18
100
AcDbEntity
  8
0
 62
     0
100
AcDbLine
 10
2.179729
 20
4.371693
 30
0.0
 11
2.179729
 21
4.371693
 31
0.0
  0
LINE
  5
3C2
330
18
100
AcDbEntity
  8
0
 62
     0
100
AcDbLine
 10
4.331842
 20
2.399645
 30
0.0
 11
4.331842
 21
2.399645
 31
0.0
  0
LINE
  5
3C3
330
18
100
AcDbEntity
  8
0
 62
     0
100
AcDbLine
 10
4.46234
 20
2.280065
 30
0.0
 11
4.46234
 21
2.280065
 31
0.0
  0
LINE
  5
3C4
330
18
100
AcDbEntity
  8
0
 62
     0
100
AcDbLine
 10
4.611639
 20
2.143258
 30
0.0
 11
4.611639
 21
2.143258
 31
0.0
  0
LINE
  5
3C5
330
18
100
AcDbEntity
  8
0
 62
     0
100
AcDbLine
 10
4.639286
 20
2.117924
 30
0.0
 11
4.639286
 21
2.117924
 31
0.0
  0
LINE
  5
3C6
330
18
100
AcDbEntity
  8
0
 62
     0
100
AcDbLine
 10
2.310227
 20
4.252113
 30
0.0
 11
2.310227
 21
4.252113
 31
0.0
  0
LINE
  5
3C7
330
18
100
AcDbEntity
  8
0
 62
     0
100
AcDbLine
 10
2.459526
 20
4.115306
 30
0.0
 11
2.459526
 21
4.115306
 31
0.0
  0
LINE
  5
3C8
330
18
100
AcDbEntity
  8
0
 62
     0
100
AcDbLine
 10
2.487174
 20
4.089971
 30
0.0
 11
2.487174
 21
4.089971
 31
0.0
  0
LINE
  5
3C9
330
18
100
AcDbEntity
  8
0
 62
     0
100
AcDbLine
 10
2.617672
 20
3.970392
 30
0.0
 11
2.617672
 21
3.970392
 31
0.0
  0
LINE
  5
3CA
330
18
100
AcDbEntity
  8
0
 62
     0
100
AcDbLine
 10
3.689305000000001
 20
2.988422
 30
0.0
 11
3.689305000000001
 21
2.988422
 31
0.0
  0
LINE
  5
3CB
330
18
100
AcDbEntity
  8
0
 62
     0
100
AcDbLine
 10
3.716953
 20
2.963087
 30
0.0
 11
3.716953
 21
2.963087
 31
0.0
  0
LINE
  5
3CC
330
18
100
AcDbEntity
  8
0
 62
     0
100
AcDbLine
 10
3.847451
 20
2.843508
 30
0.0
 11
3.847451
 21
2.843508
 31
0.0
  0
LINE
  5
3CD
330
18
100
AcDbEntity
  8
0
 62
     0
100
AcDbLine
 10
3.996749
 20
2.7067
 30
0.0
 11
3.996749
 21
2.7067
 31
0.0
  0
LINE
  5
3CE
330
18
100
AcDbEntity
  8
0
 62
     0
100
AcDbLine
 10
4.024397
 20
2.681366
 30
0.0
 11
4.024397
 21
2.681366
 31
0.0
  0
LINE
  5
3CF
330
18
100
AcDbEntity
  8
0
 62
     0
100
AcDbLine
 10
4.154895
 20
2.561786
 30
0.0
 11
4.154895
 21
2.561786
 31
0.0
  0
LINE
  5
3D0
330
18
100
AcDbEntity
  8
0
 62
     0
100
AcDbLine
 10
1.701162
 20
4.265376
 30
0.0
 11
1.701162
 21
4.265376
 31
0.0
  0
LINE
  5
3D1
330
18
100
AcDbEntity
  8
0
 62
     0
100
AcDbLine
 10
1.72881
 20
4.240041000000001
 30
0.0
 11
1.72881
 21
4.240041000000001
 31
0.0
  0
LINE
  5
3D2
330
18
100
AcDbEntity
  8
0
 62
     0
100
AcDbLine
 10
1.859308
 20
4.120462
 30
0.0
 11
1.859308
 21
4.120462
 31
0.0
  0
LINE
  5
3D3
330
18
100
AcDbEntity
  8
0
 62
     0
100
AcDbLine
 10
2.008607
 20
3.983655
 30
0.0
 11
2.008607
 21
3.983655
 31
0.0
  0
LINE
  5
3D4
330
18
100
AcDbEntity
  8
0
 62
     0
100
AcDbLine
 10
2.036255
 20
3.95832
 30
0.0
 11
2.036255
 21
3.95832
 31
0.0
  0
LINE
  5
3D5
330
18
100
AcDbEntity
  8
0
 62
     0
100
AcDbLine
 10
2.166753
 20
3.838741
 30
0.0
 11
2.166753
 21
3.838741
 31
0.0
  0
LINE
  5
3D6
330
18
100
AcDbEntity
  8
0
 62
     0
100
AcDbLine
 10
3.853275
 20
2.293328
 30
0.0
 11
3.853275
 21
2.293328
 31
0.0
  0
LINE
  5
3D7
330
18
100
AcDbEntity
  8
0
 62
     0
100
AcDbLine
 10
3.880923
 20
2.267993
 30
0.0
 11
3.880923
 21
2.267993
 31
0.0
  0
LINE
  5
3D8
330
18
100
AcDbEntity
  8
0
 62
     0
100
AcDbLine
 10
4.011421
 20
2.148414
 30
0.0
 11
4.011421
 21
2.148414
 31
0.0
  0
LINE
  5
3D9
330
18
100
AcDbEntity
  8
0
 62
     0
100
AcDbLine
 10
4.16072
 20
2.011607
 30
0.0
 11
4.16072
 21
2.011607
 31
0.0
  0
LINE
  5
3DA
330
18
100
AcDbEntity
  8
0
 62
     0
100
AcDbLine
 10
4.188367
 20
1.986272
 30
0.0
 11
4.188367
 21
1.986272
 31
0.0
  0
LINE
  5
3DB
330
18
100
AcDbEntity
  8
0
 62
     0
100
AcDbLine
 10
2.316052
 20
3.701934
 30
0.0
 11
2.316052
 21
3.701934
 31
0.0
  0
LINE
  5
3DC
330
18
100
AcDbEntity
  8
0
 62
     0
100
AcDbLine
 10
2.3437
 20
3.676599
 30
0.0
 11
2.3437
 21
3.676599
 31
0.0
  0
LINE
  5
3DD
330
18
100
AcDbEntity
  8
0
 62
     0
100
AcDbLine
 10
2.474198
 20
3.55702
 30
0.0
 11
2.474198
 21
3.55702
 31
0.0
  0
LINE
  5
3DE
330
18
100
AcDbEntity
  8
0
 62
     0
100
AcDbLine
 10
2.623496
 20
3.420212
 30
0.0
 11
2.623496
 21
3.420212
 31
0.0
  0
LINE
  5
3DF
330
18
100
AcDbEntity
  8
0
 62
     0
100
AcDbLine
 10
2.651144
 20
3.394878
 30
0.0
 11
2.651144
 21
3.394878
 31
0.0
  0
LINE
  5
3E0
330
18
100
AcDbEntity
  8
0
 62
     0
100
AcDbLine
 10
3.238386
 20
2.85677
 30
0.0
 11
3.238386
 21
2.85677
 31
0.0
  0
LINE
  5
3E1
330
18
100
AcDbEntity
  8
0
 62
     0
100
AcDbLine
 10
3.266034
 20
2.831436
 30
0.0
 11
3.266034
 21
2.831436
 31
0.0
  0
LINE
  5
3E2
330
18
100
AcDbEntity
  8
0
 62
     0
100
AcDbLine
 10
3.396532
 20
2.711856
 30
0.0
 11
3.396532
 21
2.711856
 31
0.0
  0
LINE
  5
3E3
330
18
100
AcDbEntity
  8
0
 62
     0
100
AcDbLine
 10
3.545830000000001
 20
2.575049
 30
0.0
 11
3.545830000000001
 21
2.575049
 31
0.0
  0
LINE
  5
3E4
330
18
100
AcDbEntity
  8
0
 62
     0
100
AcDbLine
 10
3.573478
 20
2.549715
 30
0.0
 11
3.573478
 21
2.549715
 31
0.0
  0
LINE
  5
3E5
330
18
100
AcDbEntity
  8
0
 62
     0
100
AcDbLine
 10
1.715834
 20
3.707089
 30
0.0
 11
1.715834
 21
3.707089
 31
0.0
  0
LINE
  5
3E6
330
18
100
AcDbEntity
  8
0
 62
     0
100
AcDbLine
 10
1.865133
 20
3.570282
 30
0.0
 11
1.865133
 21
3.570282
 31
0.0
  0
LINE
  5
3E7
330
18
100
AcDbEntity
  8
0
 62
     0
100
AcDbLine
 10
1.892781
 20
3.544948
 30
0.0
 11
1.892781
 21
3.544948
 31
0.0
  0
LINE
  5
3E8
330
18
100
AcDbEntity
  8
0
 62
     0
100
AcDbLine
 10
2.023279
 20
3.425368
 30
0.0
 11
2.023279
 21
3.425368
 31
0.0
  0
LINE
  5
3E9
330
18
100
AcDbEntity
  8
0
 62
     0
100
AcDbLine
 10
2.172577
 20
3.288561
 30
0.0
 11
2.172577
 21
3.288561
 31
0.0
  0
LINE
  5
3EA
330
18
100
AcDbEntity
  8
0
 62
     0
100
AcDbLine
 10
3.253057
 20
2.298484
 30
0.0
 11
3.253057
 21
2.298484
 31
0.0
  0
LINE
  5
3EB
330
18
100
AcDbEntity
  8
0
 62
     0
100
AcDbLine
 10
3.402356
 20
2.161677
 30
0.0
 11
3.402356
 21
2.161677
 31
0.0
  0
LINE
  5
3EC
330
18
100
AcDbEntity
  8
0
 62
     0
100
AcDbLine
 10
3.430004
 20
2.136342
 30
0.0
 11
3.430004
 21
2.136342
 31
0.0
  0
LINE
  5
3ED
330
18
100
AcDbEntity
  8
0
 62
     0
100
AcDbLine
 10
3.560502
 20
2.016763
 30
0.0
 11
3.560502
 21
2.016763
 31
0.0
  0
LINE
  5
3EE
330
18
100
AcDbEntity
  8
0
 62
     0
100
AcDbLine
 10
2.480022
 20
3.00684
 30
0.0
 11
2.480022
 21
3.00684
 31
0.0
  0
LINE
  5
3EF
330
18
100
AcDbEntity
  8
0
 62
     0
100
AcDbLine
 10
2.50767
 20
2.981505
 30
0.0
 11
2.50767
 21
2.981505
 31
0.0
  0
LINE
  5
3F0
330
18
100
AcDbEntity
  8
0
 62
     0
100
AcDbLine
 10
2.638168
 20
2.861926
 30
0.0
 11
2.638168
 21
2.861926
 31
0.0
  0
LINE
  5
3F1
330
18
100
AcDbEntity
  8
0
 62
     0
100
AcDbLine
 10
2.787467
 20
2.725119
 30
0.0
 11
2.787467
 21
2.725119
 31
0.0
  0
LINE
  5
3F2
330
18
100
AcDbEntity
  8
0
 62
     0
100
AcDbLine
 10
2.815115
 20
2.699784
 30
0.0
 11
2.815115
 21
2.699784
 31
0.0
  0
LINE
  5
3F3
330
18
100
AcDbEntity
  8
0
 62
     0
100
AcDbLine
 10
2.945613
 20
2.580205
 30
0.0
 11
2.945613
 21
2.580205
 31
0.0
  0
LINE
  5
3F4
330
18
100
AcDbEntity
  8
0
 62
     0
100
AcDbLine
 10
1.721658
 20
3.15691
 30
0.0
 11
1.721658
 21
3.15691
 31
0.0
  0
LINE
  5
3F5
330
18
100
AcDbEntity
  8
0
 62
     0
100
AcDbLine
 10
1.749306
 20
3.131575
 30
0.0
 11
1.749306
 21
3.131575
 31
0.0
  0
LINE
  5
3F6
330
18
100
AcDbEntity
  8
0
 62
     0
100
AcDbLine
 10
1.879804
 20
3.011996
 30
0.0
 11
1.879804
 21
3.011996
 31
0.0
  0
LINE
  5
3F7
330
18
100
AcDbEntity
  8
0
 62
     0
100
AcDbLine
 10
2.643992
 20
2.311746
 30
0.0
 11
2.643992
 21
2.311746
 31
0.0
  0
LINE
  5
3F8
330
18
100
AcDbEntity
  8
0
 62
     0
100
AcDbLine
 10
2.67164
 20
2.286412
 30
0.0
 11
2.67164
 21
2.286412
 31
0.0
  0
LINE
  5
3F9
330
18
100
AcDbEntity
  8
0
 62
     0
100
AcDbLine
 10
2.802138
 20
2.166832
 30
0.0
 11
2.802138
 21
2.166832
 31
0.0
  0
LINE
  5
3FA
330
18
100
AcDbEntity
  8
0
 62
     0
100
AcDbLine
 10
2.951437
 20
2.030025
 30
0.0
 11
2.951437
 21
2.030025
 31
0.0
  0
LINE
  5
3FB
330
18
100
AcDbEntity
  8
0
 62
     0
100
AcDbLine
 10
2.979085
 20
2.004691
 30
0.0
 11
2.979085
 21
2.004691
 31
0.0
  0
LINE
  5
3FC
330
18
100
AcDbEntity
  8
0
 62
     0
100
AcDbLine
 10
2.187249
 20
2.730275
 30
0.0
 11
2.187249
 21
2.730275
 31
0.0
  0
LINE
  5
3FD
330
18
100
AcDbEntity
  8
0
 62
     0
100
AcDbLine
 10
1.73633
 20
2.598623
 30
0.0
 11
1.73633
 21
2.598623
 31
0.0
  0
LINE
  5
3FE
330
18
100
AcDbEntity
  8
0
 62
     0
100
AcDbLine
 10
1.885629
 20
2.461816
 30
0.0
 11
1.885629
 21
2.461816
 31
0.0
  0
LINE
  5
3FF
330
18
100
AcDbEntity
  8
0
 62
     0
100
AcDbLine
 10
1.913277
 20
2.436482
 30
0.0
 11
1.913277
 21
2.436482
 31
0.0
  0
LINE
  5
400
330
18
100
AcDbEntity
  8
0
 62
     0
100
AcDbLine
 10
2.043775
 20
2.316902
 30
0.0
 11
2.043775
 21
2.316902
 31
0.0
  0
LINE
  5
401
330
18
100
AcDbEntity
  8
0
 62
     0
100
AcDbLine
 10
2.193073
 20
2.180095
 30
0.0
 11
2.193073
 21
2.180095
 31
0.0
  0
LINE
  5
402
330
18
100
AcDbEntity
  8
0
 62
     0
100
AcDbLine
 10
2.220721
 20
2.154761
 30
0.0
 11
2.220721
 21
2.154761
 31
0.0
  0
LINE
  5
403
330
18
100
AcDbEntity
  8
0
 62
     0
100
AcDbLine
 10
2.351219
 20
2.035181
 30
0.0
 11
2.351219
 21
2.035181
 31
0.0
  0
LINE
  5
404
330
18
100
AcDbEntity
  8
0
 62
     0
100
AcDbLine
 10
1.742154
 20
2.048444
 30
0.0
 11
1.742154
 21
2.048444
 31
0.0
  0
LINE
  5
405
330
18
100
AcDbEntity
  8
0
 62
     0
100
AcDbLine
 10
1.769802
 20
2.023109
 30
0.0
 11
1.769802
 21
2.023109
 31
0.0
  0
LINE
  5
406
330
18
100
AcDbEntity
  8
0
 62
     0
100
AcDbLine
 10
6.044946
 20
7.897465
 30
0.0
 11
6.044946
 21
7.897465
 31
0.0
  0
LINE
  5
407
330
18
100
AcDbEntity
  8
0
 62
     0
100
AcDbLine
 10
6.238326
 20
8.04585
 30
0.0
 11
6.238326
 21
8.04585
 31
0.0
  0
LINE
  5
408
330
18
100
AcDbEntity
  8
0
 62
     0
100
AcDbLine
 10
6.41921
 20
8.184647999999999
 30
0.0
 11
6.41921
 21
8.184647999999999
 31
0.0
  0
LINE
  5
409
330
18
100
AcDbEntity
  8
0
 62
     0
100
AcDbLine
 10
6.228877
 20
8.334874000000001
 30
0.0
 11
6.228877
 21
8.334874000000001
 31
0.0
  0
LINE
  5
40A
330
18
100
AcDbEntity
  8
0
 62
     0
100
AcDbLine
 10
6.409761000000001
 20
8.473671000000001
 30
0.0
 11
6.409761000000001
 21
8.473671000000001
 31
0.0
  0
LINE
  5
40B
330
18
100
AcDbEntity
  8
0
 62
     0
100
AcDbLine
 10
6.219428
 20
8.623897
 30
0.0
 11
6.219428
 21
8.623897
 31
0.0
  0
LINE
  5
40C
330
18
100
AcDbEntity
  8
0
 62
     0
100
AcDbLine
 10
6.400312
 20
8.762694999999999
 30
0.0
 11
6.400312
 21
8.762694999999999
 31
0.0
  0
LINE
  5
40D
330
18
100
AcDbEntity
  8
0
 62
     0
100
AcDbLine
 10
6.209979
 20
8.912921000000001
 30
0.0
 11
6.209979
 21
8.912921000000001
 31
0.0
  0
LINE
  5
40E
330
18
100
AcDbEntity
  8
0
 62
     0
100
AcDbLine
 10
6.390863
 20
9.051719
 30
0.0
 11
6.390863
 21
9.051719
 31
0.0
  0
LINE
  5
40F
330
18
100
AcDbEntity
  8
0
 62
     0
100
AcDbLine
 10
6.200530000000001
 20
9.201945
 30
0.0
 11
6.200530000000001
 21
9.201945
 31
0.0
  0
LINE
  5
410
330
18
100
AcDbEntity
  8
0
 62
     0
100
AcDbLine
 10
6.381414
 20
9.340742000000001
 30
0.0
 11
6.381414
 21
9.340742000000001
 31
0.0
  0
LINE
  5
411
330
18
100
AcDbEntity
  8
0
 62
     0
100
AcDbLine
 10
6.191081
 20
9.490967999999999
 30
0.0
 11
6.191081
 21
9.490967999999999
 31
0.0
  0
LINE
  5
412
330
18
100
AcDbEntity
  8
0
 62
     0
100
AcDbLine
 10
6.371965
 20
9.629766
 30
0.0
 11
6.371965
 21
9.629766
 31
0.0
  0
LINE
  5
413
330
18
100
AcDbEntity
  8
0
 62
     0
100
AcDbLine
 10
6.181632
 20
9.779992
 30
0.0
 11
6.181632
 21
9.779992
 31
0.0
  0
LINE
  5
414
330
18
100
AcDbEntity
  8
0
 62
     0
100
AcDbLine
 10
6.362516
 20
9.918789
 30
0.0
 11
6.362516
 21
9.918789
 31
0.0
  0
LINE
  5
415
330
18
100
AcDbEntity
  8
0
 62
     0
100
AcDbLine
 10
6.172183
 20
10.069015
 30
0.0
 11
6.172183
 21
10.069015
 31
0.0
  0
LINE
  5
416
330
18
100
AcDbEntity
  8
0
 62
     0
100
AcDbLine
 10
6.054395
 20
7.608441
 30
0.0
 11
6.054395
 21
7.608441
 31
0.0
  0
LINE
  5
417
330
18
100
AcDbEntity
  8
0
 62
     0
100
AcDbLine
 10
6.247775
 20
7.756827
 30
0.0
 11
6.247775
 21
7.756827
 31
0.0
  0
LINE
  5
418
330
18
100
AcDbEntity
  8
0
 62
     0
100
AcDbLine
 10
6.428659
 20
7.895624000000001
 30
0.0
 11
6.428659
 21
7.895624000000001
 31
0.0
  0
LINE
  5
419
330
18
100
AcDbEntity
  8
0
 62
     0
100
AcDbLine
 10
6.063844000000001
 20
7.319417999999999
 30
0.0
 11
6.063844000000001
 21
7.319417999999999
 31
0.0
  0
LINE
  5
41A
330
18
100
AcDbEntity
  8
0
 62
     0
100
AcDbLine
 10
6.257224
 20
7.467803
 30
0.0
 11
6.257224
 21
7.467803
 31
0.0
  0
LINE
  5
41B
330
18
100
AcDbEntity
  8
0
 62
     0
100
AcDbLine
 10
6.438108000000001
 20
7.606601
 30
0.0
 11
6.438108000000001
 21
7.606601
 31
0.0
  0
LINE
  5
41C
330
18
100
AcDbEntity
  8
0
 62
     0
100
AcDbLine
 10
6.073293
 20
7.030394
 30
0.0
 11
6.073293
 21
7.030394
 31
0.0
  0
LINE
  5
41D
330
18
100
AcDbEntity
  8
0
 62
     0
100
AcDbLine
 10
6.266673
 20
7.178780000000001
 30
0.0
 11
6.266673
 21
7.178780000000001
 31
0.0
  0
LINE
  5
41E
330
18
100
AcDbEntity
  8
0
 62
     0
100
AcDbLine
 10
6.447557
 20
7.317577
 30
0.0
 11
6.447557
 21
7.317577
 31
0.0
  0
LINE
  5
41F
330
18
100
AcDbEntity
  8
0
 62
     0
100
AcDbLine
 10
6.082742
 20
6.74137
 30
0.0
 11
6.082742
 21
6.74137
 31
0.0
  0
LINE
  5
420
330
18
100
AcDbEntity
  8
0
 62
     0
100
AcDbLine
 10
6.276122
 20
6.889755999999999
 30
0.0
 11
6.276122
 21
6.889755999999999
 31
0.0
  0
LINE
  5
421
330
18
100
AcDbEntity
  8
0
 62
     0
100
AcDbLine
 10
6.092191000000001
 20
6.452347000000001
 30
0.0
 11
6.092191000000001
 21
6.452347000000001
 31
0.0
  0
LINE
  5
422
330
18
100
AcDbEntity
  8
0
 62
     0
100
AcDbLine
 10
6.285571
 20
6.600732000000001
 30
0.0
 11
6.285571
 21
6.600732000000001
 31
0.0
  0
LINE
  5
423
330
18
100
AcDbEntity
  8
0
 62
     0
100
AcDbLine
 10
6.29502
 20
6.311709
 30
0.0
 11
6.29502
 21
6.311709
 31
0.0
  0
LINE
  5
424
330
18
100
AcDbEntity
  8
0
 62
     0
100
AcDbLine
 10
6.177085
 20
8.192308000000001
 30
0.0
 11
6.177085
 21
8.192308000000001
 31
0.0
  0
LINE
  5
425
330
18
100
AcDbEntity
  8
0
 62
     0
100
AcDbLine
 10
6.255161
 20
8.202586999999999
 30
0.0
 11
6.255161
 21
8.202586999999999
 31
0.0
  0
LINE
  5
426
330
18
100
AcDbEntity
  8
0
 62
     0
100
AcDbLine
 10
6.377109
 20
8.218641
 30
0.0
 11
6.377109
 21
8.218641
 31
0.0
  0
LINE
  5
427
330
18
100
AcDbEntity
  8
0
 62
     0
100
AcDbLine
 10
6.038786
 20
8.562472999999999
 30
0.0
 11
6.038786
 21
8.562472999999999
 31
0.0
  0
LINE
  5
428
330
18
100
AcDbEntity
  8
0
 62
     0
100
AcDbLine
 10
6.116862
 20
8.572752000000001
 30
0.0
 11
6.116862
 21
8.572752000000001
 31
0.0
  0
LINE
  5
429
330
18
100
AcDbEntity
  8
0
 62
     0
100
AcDbLine
 10
6.23881
 20
8.588807000000001
 30
0.0
 11
6.23881
 21
8.588807000000001
 31
0.0
  0
LINE
  5
42A
330
18
100
AcDbEntity
  8
0
 62
     0
100
AcDbLine
 10
6.442552
 20
8.61563
 30
0.0
 11
6.442552
 21
8.61563
 31
0.0
  0
LINE
  5
42B
330
18
100
AcDbEntity
  8
0
 62
     0
100
AcDbLine
 10
6.10051
 20
8.958971999999999
 30
0.0
 11
6.10051
 21
8.958971999999999
 31
0.0
  0
LINE
  5
42C
330
18
100
AcDbEntity
  8
0
 62
     0
100
AcDbLine
 10
6.304252
 20
8.985795
 30
0.0
 11
6.304252
 21
8.985795
 31
0.0
  0
LINE
  5
42D
330
18
100
AcDbEntity
  8
0
 62
     0
100
AcDbLine
 10
6.382328
 20
8.996074
 30
0.0
 11
6.382328
 21
8.996074
 31
0.0
  0
LINE
  5
42E
330
18
100
AcDbEntity
  8
0
 62
     0
100
AcDbLine
 10
6.165953
 20
9.355960000000001
 30
0.0
 11
6.165953
 21
9.355960000000001
 31
0.0
  0
LINE
  5
42F
330
18
100
AcDbEntity
  8
0
 62
     0
100
AcDbLine
 10
6.244029
 20
9.366239
 30
0.0
 11
6.244029
 21
9.366239
 31
0.0
  0
LINE
  5
430
330
18
100
AcDbEntity
  8
0
 62
     0
100
AcDbLine
 10
6.365977
 20
9.382294
 30
0.0
 11
6.365977
 21
9.382294
 31
0.0
  0
LINE
  5
431
330
18
100
AcDbEntity
  8
0
 62
     0
100
AcDbLine
 10
6.10573
 20
9.736403999999999
 30
0.0
 11
6.10573
 21
9.736403999999999
 31
0.0
  0
LINE
  5
432
330
18
100
AcDbEntity
  8
0
 62
     0
100
AcDbLine
 10
6.227677
 20
9.752459
 30
0.0
 11
6.227677
 21
9.752459
 31
0.0
  0
LINE
  5
433
330
18
100
AcDbEntity
  8
0
 62
     0
100
AcDbLine
 10
6.431419
 20
9.779282
 30
0.0
 11
6.431419
 21
9.779282
 31
0.0
  0
LINE
  5
434
330
18
100
AcDbEntity
  8
0
 62
     0
100
AcDbLine
 10
6.089378
 20
10.122624
 30
0.0
 11
6.089378
 21
10.122624
 31
0.0
  0
LINE
  5
435
330
18
100
AcDbEntity
  8
0
 62
     0
100
AcDbLine
 10
6.29312
 20
10.149447
 30
0.0
 11
6.29312
 21
10.149447
 31
0.0
  0
LINE
  5
436
330
18
100
AcDbEntity
  8
0
 62
     0
100
AcDbLine
 10
6.111643
 20
7.795319
 30
0.0
 11
6.111643
 21
7.795319
 31
0.0
  0
LINE
  5
437
330
18
100
AcDbEntity
  8
0
 62
     0
100
AcDbLine
 10
6.315385
 20
7.822143
 30
0.0
 11
6.315385
 21
7.822143
 31
0.0
  0
LINE
  5
438
330
18
100
AcDbEntity
  8
0
 62
     0
100
AcDbLine
 10
6.393461
 20
7.832422
 30
0.0
 11
6.393461
 21
7.832422
 31
0.0
  0
LINE
  5
439
330
18
100
AcDbEntity
  8
0
 62
     0
100
AcDbLine
 10
6.049918
 20
7.398821000000001
 30
0.0
 11
6.049918
 21
7.398821000000001
 31
0.0
  0
LINE
  5
43A
330
18
100
AcDbEntity
  8
0
 62
     0
100
AcDbLine
 10
6.127994
 20
7.4091
 30
0.0
 11
6.127994
 21
7.4091
 31
0.0
  0
LINE
  5
43B
330
18
100
AcDbEntity
  8
0
 62
     0
100
AcDbLine
 10
6.249942
 20
7.425153999999999
 30
0.0
 11
6.249942
 21
7.425153999999999
 31
0.0
  0
LINE
  5
43C
330
18
100
AcDbEntity
  8
0
 62
     0
100
AcDbLine
 10
6.188217
 20
7.028656
 30
0.0
 11
6.188217
 21
7.028656
 31
0.0
  0
LINE
  5
43D
330
18
100
AcDbEntity
  8
0
 62
     0
100
AcDbLine
 10
6.266294
 20
7.038935
 30
0.0
 11
6.266294
 21
7.038935
 31
0.0
  0
LINE
  5
43E
330
18
100
AcDbEntity
  8
0
 62
     0
100
AcDbLine
 10
6.388241000000001
 20
7.054989
 30
0.0
 11
6.388241000000001
 21
7.054989
 31
0.0
  0
LINE
  5
43F
330
18
100
AcDbEntity
  8
0
 62
     0
100
AcDbLine
 10
6.122775
 20
6.631667
 30
0.0
 11
6.122775
 21
6.631667
 31
0.0
  0
LINE
  5
440
330
18
100
AcDbEntity
  8
0
 62
     0
100
AcDbLine
 10
6.326517
 20
6.65849
 30
0.0
 11
6.326517
 21
6.65849
 31
0.0
  0
LINE
  5
441
330
18
100
AcDbEntity
  8
0
 62
     0
100
AcDbLine
 10
6.404593
 20
6.668769
 30
0.0
 11
6.404593
 21
6.668769
 31
0.0
  0
LINE
  5
442
330
18
100
AcDbEntity
  8
0
 62
     0
100
AcDbLine
 10
6.06105
 20
6.235169
 30
0.0
 11
6.06105
 21
6.235169
 31
0.0
  0
LINE
  5
443
330
18
100
AcDbEntity
  8
0
 62
     0
100
AcDbLine
 10
6.139126999999999
 20
6.245447
 30
0.0
 11
6.139126999999999
 21
6.245447
 31
0.0
  0
LINE
  5
444
330
18
100
AcDbEntity
  8
0
 62
     0
100
AcDbLine
 10
6.261074
 20
6.261502
 30
0.0
 11
6.261074
 21
6.261502
 31
0.0
  0
LINE
  5
445
330
18
100
AcDbEntity
  8
0
 62
     0
100
AcDbLine
 10
6.316601
 20
8.094297000000001
 30
0.0
 11
6.316601
 21
8.094297000000001
 31
0.0
  0
LINE
  5
446
330
18
100
AcDbEntity
  8
0
 62
     0
100
AcDbLine
 10
6.195457
 20
8.469913
 30
0.0
 11
6.195457
 21
8.469913
 31
0.0
  0
LINE
  5
447
330
18
100
AcDbEntity
  8
0
 62
     0
100
AcDbLine
 10
6.074312
 20
8.845528
 30
0.0
 11
6.074312
 21
8.845528
 31
0.0
  0
LINE
  5
448
330
18
100
AcDbEntity
  8
0
 62
     0
100
AcDbLine
 10
6.371608
 20
8.656130000000001
 30
0.0
 11
6.371608
 21
8.656130000000001
 31
0.0
  0
LINE
  5
449
330
18
100
AcDbEntity
  8
0
 62
     0
100
AcDbLine
 10
6.434862
 20
8.615832000000001
 30
0.0
 11
6.434862
 21
8.615832000000001
 31
0.0
  0
LINE
  5
44A
330
18
100
AcDbEntity
  8
0
 62
     0
100
AcDbLine
 10
6.250463
 20
9.031744999999999
 30
0.0
 11
6.250463
 21
9.031744999999999
 31
0.0
  0
LINE
  5
44B
330
18
100
AcDbEntity
  8
0
 62
     0
100
AcDbLine
 10
6.313718
 20
8.991448
 30
0.0
 11
6.313718
 21
8.991448
 31
0.0
  0
LINE
  5
44C
330
18
100
AcDbEntity
  8
0
 62
     0
100
AcDbLine
 10
6.129319000000001
 20
9.407361
 30
0.0
 11
6.129319000000001
 21
9.407361
 31
0.0
  0
LINE
  5
44D
330
18
100
AcDbEntity
  8
0
 62
     0
100
AcDbLine
 10
6.192574
 20
9.367063
 30
0.0
 11
6.192574
 21
9.367063
 31
0.0
  0
LINE
  5
44E
330
18
100
AcDbEntity
  8
0
 62
     0
100
AcDbLine
 10
6.420289
 20
9.221992
 30
0.0
 11
6.420289
 21
9.221992
 31
0.0
  0
LINE
  5
44F
330
18
100
AcDbEntity
  8
0
 62
     0
100
AcDbLine
 10
6.071429
 20
9.742678
 30
0.0
 11
6.071429
 21
9.742678
 31
0.0
  0
LINE
  5
450
330
18
100
AcDbEntity
  8
0
 62
     0
100
AcDbLine
 10
6.299144999999999
 20
9.597608000000001
 30
0.0
 11
6.299144999999999
 21
9.597608000000001
 31
0.0
  0
LINE
  5
451
330
18
100
AcDbEntity
  8
0
 62
     0
100
AcDbLine
 10
6.178001
 20
9.973222999999999
 30
0.0
 11
6.178001
 21
9.973222999999999
 31
0.0
  0
LINE
  5
452
330
18
100
AcDbEntity
  8
0
 62
     0
100
AcDbLine
 10
6.146775
 20
7.90405
 30
0.0
 11
6.146775
 21
7.90405
 31
0.0
  0
LINE
  5
453
330
18
100
AcDbEntity
  8
0
 62
     0
100
AcDbLine
 10
6.210029000000001
 20
7.863753
 30
0.0
 11
6.210029000000001
 21
7.863753
 31
0.0
  0
LINE
  5
454
330
18
100
AcDbEntity
  8
0
 62
     0
100
AcDbLine
 10
6.437745
 20
7.718682
 30
0.0
 11
6.437745
 21
7.718682
 31
0.0
  0
LINE
  5
455
330
18
100
AcDbEntity
  8
0
 62
     0
100
AcDbLine
 10
6.267919
 20
7.528435000000001
 30
0.0
 11
6.267919
 21
7.528435000000001
 31
0.0
  0
LINE
  5
456
330
18
100
AcDbEntity
  8
0
 62
     0
100
AcDbLine
 10
6.331174
 20
7.488138
 30
0.0
 11
6.331174
 21
7.488138
 31
0.0
  0
LINE
  5
457
330
18
100
AcDbEntity
  8
0
 62
     0
100
AcDbLine
 10
6.091768
 20
7.342217999999999
 30
0.0
 11
6.091768
 21
7.342217999999999
 31
0.0
  0
LINE
  5
458
330
18
100
AcDbEntity
  8
0
 62
     0
100
AcDbLine
 10
6.389063
 20
7.152819999999999
 30
0.0
 11
6.389063
 21
7.152819999999999
 31
0.0
  0
LINE
  5
459
330
18
100
AcDbEntity
  8
0
 62
     0
100
AcDbLine
 10
6.452318
 20
7.112522
 30
0.0
 11
6.452318
 21
7.112522
 31
0.0
  0
LINE
  5
45A
330
18
100
AcDbEntity
  8
0
 62
     0
100
AcDbLine
 10
6.212912
 20
6.966602000000001
 30
0.0
 11
6.212912
 21
6.966602000000001
 31
0.0
  0
LINE
  5
45B
330
18
100
AcDbEntity
  8
0
 62
     0
100
AcDbLine
 10
6.043086
 20
6.776355000000001
 30
0.0
 11
6.043086
 21
6.776355000000001
 31
0.0
  0
LINE
  5
45C
330
18
100
AcDbEntity
  8
0
 62
     0
100
AcDbLine
 10
6.106341000000001
 20
6.736058
 30
0.0
 11
6.106341000000001
 21
6.736058
 31
0.0
  0
LINE
  5
45D
330
18
100
AcDbEntity
  8
0
 62
     0
100
AcDbLine
 10
6.334057
 20
6.590986999999999
 30
0.0
 11
6.334057
 21
6.590986999999999
 31
0.0
  0
LINE
  5
45E
330
18
100
AcDbEntity
  8
0
 62
     0
100
AcDbLine
 10
6.164231
 20
6.40074
 30
0.0
 11
6.164231
 21
6.40074
 31
0.0
  0
LINE
  5
45F
330
18
100
AcDbEntity
  8
0
 62
     0
100
AcDbLine
 10
6.227485
 20
6.360443
 30
0.0
 11
6.227485
 21
6.360443
 31
0.0
  0
LINE
  5
460
330
18
100
AcDbEntity
  8
0
 62
     0
100
AcDbLine
 10
6.16936
 20
7.798821
 30
0.0
 11
6.16936
 21
7.798821
 31
0.0
  0
LINE
  5
461
330
18
100
AcDbEntity
  8
0
 62
     0
100
AcDbLine
 10
6.197008
 20
7.773486999999999
 30
0.0
 11
6.197008
 21
7.773486999999999
 31
0.0
  0
LINE
  5
462
330
18
100
AcDbEntity
  8
0
 62
     0
100
AcDbLine
 10
6.327506
 20
7.653907000000001
 30
0.0
 11
6.327506
 21
7.653907000000001
 31
0.0
  0
LINE
  5
463
330
18
100
AcDbEntity
  8
0
 62
     0
100
AcDbLine
 10
6.033038
 20
8.468580000000001
 30
0.0
 11
6.033038
 21
8.468580000000001
 31
0.0
  0
LINE
  5
464
330
18
100
AcDbEntity
  8
0
 62
     0
100
AcDbLine
 10
6.163536
 20
8.349001
 30
0.0
 11
6.163536
 21
8.349001
 31
0.0
  0
LINE
  5
465
330
18
100
AcDbEntity
  8
0
 62
     0
100
AcDbLine
 10
6.312835
 20
8.212194
 30
0.0
 11
6.312835
 21
8.212194
 31
0.0
  0
LINE
  5
466
330
18
100
AcDbEntity
  8
0
 62
     0
100
AcDbLine
 10
6.340483
 20
8.186859
 30
0.0
 11
6.340483
 21
8.186859
 31
0.0
  0
LINE
  5
467
330
18
100
AcDbEntity
  8
0
 62
     0
100
AcDbLine
 10
6.148864
 20
8.907287
 30
0.0
 11
6.148864
 21
8.907287
 31
0.0
  0
LINE
  5
468
330
18
100
AcDbEntity
  8
0
 62
     0
100
AcDbLine
 10
6.176512000000001
 20
8.881952999999999
 30
0.0
 11
6.176512000000001
 21
8.881952999999999
 31
0.0
  0
LINE
  5
469
330
18
100
AcDbEntity
  8
0
 62
     0
100
AcDbLine
 10
6.30701
 20
8.762373
 30
0.0
 11
6.30701
 21
8.762373
 31
0.0
  0
LINE
  5
46A
330
18
100
AcDbEntity
  8
0
 62
     0
100
AcDbLine
 10
6.14304
 20
9.457466999999999
 30
0.0
 11
6.14304
 21
9.457466999999999
 31
0.0
  0
LINE
  5
46B
330
18
100
AcDbEntity
  8
0
 62
     0
100
AcDbLine
 10
6.292339
 20
9.32066
 30
0.0
 11
6.292339
 21
9.32066
 31
0.0
  0
LINE
  5
46C
330
18
100
AcDbEntity
  8
0
 62
     0
100
AcDbLine
 10
6.319987
 20
9.295325
 30
0.0
 11
6.319987
 21
9.295325
 31
0.0
  0
LINE
  5
46D
330
18
100
AcDbEntity
  8
0
 62
     0
100
AcDbLine
 10
6.450485
 20
9.175746
 30
0.0
 11
6.450485
 21
9.175746
 31
0.0
  0
LINE
  5
46E
330
18
100
AcDbEntity
  8
0
 62
     0
100
AcDbLine
 10
6.128368
 20
10.015753
 30
0.0
 11
6.128368
 21
10.015753
 31
0.0
  0
LINE
  5
46F
330
18
100
AcDbEntity
  8
0
 62
     0
100
AcDbLine
 10
6.156016
 20
9.990419000000001
 30
0.0
 11
6.156016
 21
9.990419000000001
 31
0.0
  0
LINE
  5
470
330
18
100
AcDbEntity
  8
0
 62
     0
100
AcDbLine
 10
6.286514
 20
9.870839
 30
0.0
 11
6.286514
 21
9.870839
 31
0.0
  0
LINE
  5
471
330
18
100
AcDbEntity
  8
0
 62
     0
100
AcDbLine
 10
6.435813
 20
9.734032000000001
 30
0.0
 11
6.435813
 21
9.734032000000001
 31
0.0
  0
LINE
  5
472
330
18
100
AcDbEntity
  8
0
 62
     0
100
AcDbLine
 10
6.053534
 20
7.360114
 30
0.0
 11
6.053534
 21
7.360114
 31
0.0
  0
LINE
  5
473
330
18
100
AcDbEntity
  8
0
 62
     0
100
AcDbLine
 10
6.184032
 20
7.240535
 30
0.0
 11
6.184032
 21
7.240535
 31
0.0
  0
LINE
  5
474
330
18
100
AcDbEntity
  8
0
 62
     0
100
AcDbLine
 10
6.333330999999999
 20
7.103728
 30
0.0
 11
6.333330999999999
 21
7.103728
 31
0.0
  0
LINE
  5
475
330
18
100
AcDbEntity
  8
0
 62
     0
100
AcDbLine
 10
6.360979
 20
7.078392999999999
 30
0.0
 11
6.360979
 21
7.078392999999999
 31
0.0
  0
LINE
  5
476
330
18
100
AcDbEntity
  8
0
 62
     0
100
AcDbLine
 10
6.040558
 20
6.827162
 30
0.0
 11
6.040558
 21
6.827162
 31
0.0
  0
LINE
  5
477
330
18
100
AcDbEntity
  8
0
 62
     0
100
AcDbLine
 10
6.189856
 20
6.690355
 30
0.0
 11
6.189856
 21
6.690355
 31
0.0
  0
LINE
  5
478
330
18
100
AcDbEntity
  8
0
 62
     0
100
AcDbLine
 10
6.217504
 20
6.665021
 30
0.0
 11
6.217504
 21
6.665021
 31
0.0
  0
LINE
  5
479
330
18
100
AcDbEntity
  8
0
 62
     0
100
AcDbLine
 10
6.348001999999999
 20
6.545441
 30
0.0
 11
6.348001999999999
 21
6.545441
 31
0.0
  0
ENDSEC
  0
SECTION
  2
OBJECTS
  0
DICTIONARY
  5
C
330
0
100
AcDbDictionary
281
     1
  3
ACAD_COLOR
350
47F
  3
ACAD_GROUP
350
D
  3
ACAD_LAYOUT
350
15
  3
ACAD_MATERIAL
350
481
  3
ACAD_MLINESTYLE
350
12
  3
ACAD_PLOTSETTINGS
350
14
  3
ACAD_PLOTSTYLENAME
350
E
  3
ACDBHEADERROUNDTRIPXREC
350
47E
  0
DICTIONARY
  5
47F
102
{ACAD_REACTORS
330
C
102
}
330
C
100
AcDbDictionary
281
     1
  0
DICTIONARY
  5
D
102
{ACAD_REACTORS
330
C
102
}
330
C
100
AcDbDictionary
281
     1
  0
DICTIONARY
  5
15
102
{ACAD_REACTORS
330
C
102
}
330
C
100
AcDbDictionary
281
     1
  3
Layout1
350
17
  3
Model
350
19
  0
DICTIONARY
  5
481
102
{ACAD_REACTORS
330
C
102
}
330
C
100
AcDbDictionary
281
     1
  0
DICTIONARY
  5
12
102
{ACAD_REACTORS
330
C
102
}
330
C
100
AcDbDictionary
281
     1
  3
Standard
350
13
  0
DICTIONARY
  5
14
102
{ACAD_REACTORS
330
C
102
}
330
C
100
AcDbDictionary
281
     1
  0
ACDBDICTIONARYWDFLT
  5
E
102
{ACAD_REACTORS
330
C
102
}
330
C
100
AcDbDictionary
281
     1
  3
Normal
350
F
100
AcDbDictionaryWithDefault
340
F
  0
DICTIONARY
  5
47E
102
{ACAD_REACTORS
330
C
102
}
330
C
100
AcDbDictionary
281
     1
  3
COLORDICT
350
480
  3
MATERIALDICT
350
482
  0
LAYOUT
  5
17
102
{ACAD_REACTORS
330
15
102
}
102
{ACAD_XDICTIONARY
360
483
102
}
330
15
100
AcDbPlotSettings
  1

  2

  4

  6

 40
0.0
 41
0.0
 42
0.0
 43
0.0
 44
0.0
 45
0.0
 46
0.0
 47
0.0
 48
0.0
 49
0.0
140
0.0
141
0.0
142
1.0
143
1.0
 70
   688
 72
     0
 73
     0
 74
     5
  7

 75
    16
147
1.0
148
0.0
149
0.0
100
AcDbLayout
  1
Layout1
 70
     1
 71
     1
 10
0.0
 20
0.0
 11
12.0
 21
9.0
 12
0.0
 22
0.0
 32
0.0
 14
1.000000000000000E+20
 24
1.000000000000000E+20
 34
1.000000000000000E+20
 15
-1.000000000000000E+20
 25
-1.000000000000000E+20
 35
-1.000000000000000E+20
146
0.0
 13
0.0
 23
0.0
 33
0.0
 16
1.0
 26
0.0
 36
0.0
 17
0.0
 27
1.0
 37
0.0
 76
     0
330
16
  0
LAYOUT
  5
19
102
{ACAD_REACTORS
330
15
102
}
102
{ACAD_XDICTIONARY
360
485
102
}
330
15
100
AcDbPlotSettings
  1

  2

  4

  6

 40
0.0
 41
0.0
 42
0.0
 43
0.0
 44
0.0
 45
0.0
 46
0.0
 47
0.0
 48
0.0
 49
0.0
140
0.0
141
0.0
142
1.0
143
1.0
 70
  1712
 72
     0
 73
     0
 74
     0
  7

 75
     0
147
1.0
148
0.0
149
0.0
100
AcDbLayout
  1
Model
 70
     1
 71
     0
 10
0.0
 20
0.0
 11
0.0
 21
0.0
 12
0.0
 22
0.0
 32
0.0
 14
0.0
 24
0.0
 34
0.0
 15
0.0
 25
0.0
 35
0.0
146
0.0
 13
0.0
 23
0.0
 33
0.0
 16
1.0
 26
0.0
 36
0.0
 17
0.0
 27
1.0
 37
0.0
 76
     0
330
18
  0
MLINESTYLE
  5
13
102
{ACAD_REACTORS
330
12
102
}
330
12
100
AcDbMlineStyle
  2
Standard
 70
     0
  3

 62
   256
 51
90.0
 52
90.0
 71
     2
 49
0.5
 62
   256
  6
BYLAYER
 49
-0.5
 62
   256
  6
BYLAYER
  0
ACDBPLACEHOLDER
  5
F
102
{ACAD_REACTORS
330
E
102
}
330
E
  0
XRECORD
  5
480
102
{ACAD_REACTORS
330
47E
102
}
330
47E
100
AcDbXrecord
340
47F
  0
XRECORD
  5
482
102
{ACAD_REACTORS
330
47E
102
}
330
47E
100
AcDbXrecord
340
481
  0
DICTIONARY
  5
483
330
17
100
AcDbDictionary
280
     1
281
     1
  3
ACAD_XREC_ROUNDTRIP
360
484
  0
DICTIONARY
  5
485
330
19
100
AcDbDictionary
280
     1
281
     1
  3
ACAD_XREC_ROUNDTRIP
360
486
  0
XRECORD
  5
484
102
{ACAD_REACTORS
330
483
102
}
330
483
100
AcDbXrecord
102
SHADEPLOT
 70
     0
102
SHADEPLOTRESLEVEL
 70
     0
102
SHADEPLOTCUSTOMDPI
 70
     0
  0
XRECORD
  5
486
102
{ACAD_REACTORS
330
485
102
}
330
485
100
AcDbXrecord
102
SHADEPLOT
 70
     0
102
SHADEPLOTRESLEVEL
 70
     0
102
SHADEPLOTCUSTOMDPI
 70
     0
  0
ENDSEC
  0
EOF
