  0
SECTION
  2
HEADER
  9
$ACADVER
  1
AC1015
  9
$ACADMAINTVER
 70
     6
  9
$DWGCODEPAGE
  3
ANSI_1252
  9
$INSBASE
 10
0.0
 20
0.0
 30
0.0
  9
$EXTMIN
 10
55.70419930474541
 20
77.13088619818643
 30
-0.0015258207003612
  9
$EXTMAX
 10
140.9020853448196
 20
207.3169087079446
 30
0.0000000349246008
  9
$LIMMIN
 10
64.52905002170138
 20
78.85547960069444
  9
$LIMMAX
 10
140.2584499782986
 20
202.7841769748264
  9
$ORTHOMODE
 70
     0
  9
$REGENMODE
 70
     1
  9
$FILLMODE
 70
     1
  9
$QTEXTMODE
 70
     0
  9
$MIRRTEXT
 70
     1
  9
$LTSCALE
 40
1.0
  9
$ATTMODE
 70
     1
  9
$TEXTSIZE
 40
0.2
  9
$TRACEWID
 40
0.05
  9
$TEXTSTYLE
  7
STANDARD
  9
$CLAYER
  8
0
  9
$CELTYPE
  6
CONTINUOUS
  9
$CECOLOR
 62
   256
  9
$CELTSCALE
 40
1.0
  9
$DISPSILH
 70
     0
  9
$DIMSCALE
 40
1.0
  9
$DIMASZ
 40
0.18
  9
$DIMEXO
 40
0.0625
  9
$DIMDLI
 40
0.38
  9
$DIMRND
 40
0.0
  9
$DIMDLE
 40
0.0
  9
$DIMEXE
 40
0.18
  9
$DIMTP
 40
0.0
  9
$DIMTM
 40
0.0
  9
$DIMTXT
 40
0.18
  9
$DIMCEN
 40
0.09
  9
$DIMTSZ
 40
0.0
  9
$DIMTOL
 70
     0
  9
$DIMLIM
 70
     0
  9
$DIMTIH
 70
     1
  9
$DIMTOH
 70
     1
  9
$DIMSE1
 70
     0
  9
$DIMSE2
 70
     0
  9
$DIMTAD
 70
     0
  9
$DIMZIN
 70
     0
  9
$DIMBLK
  1

  9
$DIMASO
 70
     1
  9
$DIMSHO
 70
     1
  9
$DIMPOST
  1

  9
$DIMAPOST
  1

  9
$DIMALT
 70
     0
  9
$DIMALTD
 70
     2
  9
$DIMALTF
 40
25.4
  9
$DIMLFAC
 40
1.0
  9
$DIMTOFL
 70
     0
  9
$DIMTVP
 40
0.0
  9
$DIMTIX
 70
     0
  9
$DIMSOXD
 70
     0
  9
$DIMSAH
 70
     0
  9
$DIMBLK1
  1

  9
$DIMBLK2
  1

  9
$DIMSTYLE
  2
STANDARD
  9
$DIMCLRD
 70
     0
  9
$DIMCLRE
 70
     0
  9
$DIMCLRT
 70
     0
  9
$DIMTFAC
 40
1.0
  9
$DIMGAP
 40
0.09
  9
$DIMJUST
 70
     0
  9
$DIMSD1
 70
     0
  9
$DIMSD2
 70
     0
  9
$DIMTOLJ
 70
     1
  9
$DIMTZIN
 70
     0
  9
$DIMALTZ
 70
     0
  9
$DIMALTTZ
 70
     0
  9
$DIMUPT
 70
     0
  9
$DIMDEC
 70
     4
  9
$DIMTDEC
 70
     4
  9
$DIMALTU
 70
     2
  9
$DIMALTTD
 70
     2
  9
$DIMTXSTY
  7
STANDARD
  9
$DIMAUNIT
 70
     0
  9
$DIMADEC
 70
     0
  9
$DIMALTRND
 40
0.0
  9
$DIMAZIN
 70
     0
  9
$DIMDSEP
 70
    46
  9
$DIMATFIT
 70
     3
  9
$DIMFRAC
 70
     0
  9
$DIMLDRBLK
  1

  9
$DIMLUNIT
 70
     2
  9
$DIMLWD
 70
    -2
  9
$DIMLWE
 70
    -2
  9
$DIMTMOVE
 70
     0
  9
$LUNITS
 70
     2
  9
$LUPREC
 70
     4
  9
$SKETCHINC
 40
0.1
  9
$FILLETRAD
 40
0.0
  9
$AUNITS
 70
     0
  9
$AUPREC
 70
     0
  9
$MENU
  1
acad
  9
$ELEVATION
 40
0.0
  9
$PELEVATION
 40
0.0
  9
$THICKNESS
 40
0.0
  9
$LIMCHECK
 70
     0
  9
$CHAMFERA
 40
0.0
  9
$CHAMFERB
 40
0.0
  9
$CHAMFERC
 40
0.0
  9
$CHAMFERD
 40
0.0
  9
$SKPOLY
 70
     0
  9
$TDCREATE
 40
2444971.666666667
  9
$TDUCREATE
 40
2444972.0
  9
$TDUPDATE
 40
2452219.425773611
  9
$TDUUPDATE
 40
2452219.759106944
  9
$TDINDWG
 40
0.0007863426
  9
$TDUSRTIMER
 40
0.0007863426
  9
$USRTIMER
 70
     1
  9
$ANGBASE
 50
0.0
  9
$ANGDIR
 70
     0
  9
$PDMODE
 70
     0
  9
$PDSIZE
 40
0.0
  9
$PLINEWID
 40
0.0
  9
$SPLFRAME
 70
     0
  9
$SPLINETYPE
 70
     6
  9
$SPLINESEGS
 70
     8
  9
$HANDSEED
  5
1EA
  9
$SURFTAB1
 70
     6
  9
$SURFTAB2
 70
     6
  9
$SURFTYPE
 70
     6
  9
$SURFU
 70
     6
  9
$SURFV
 70
     6
  9
$UCSBASE
  2

  9
$UCSNAME
  2

  9
$UCSORG
 10
0.0
 20
0.0
 30
0.0
  9
$UCSXDIR
 10
1.0
 20
0.0
 30
0.0
  9
$UCSYDIR
 10
0.0
 20
1.0
 30
0.0
  9
$UCSORTHOREF
  2

  9
$UCSORTHOVIEW
 70
     0
  9
$UCSORGTOP
 10
0.0
 20
0.0
 30
0.0
  9
$UCSORGBOTTOM
 10
0.0
 20
0.0
 30
0.0
  9
$UCSORGLEFT
 10
0.0
 20
0.0
 30
0.0
  9
$UCSORGRIGHT
 10
0.0
 20
0.0
 30
0.0
  9
$UCSORGFRONT
 10
0.0
 20
0.0
 30
0.0
  9
$UCSORGBACK
 10
0.0
 20
0.0
 30
0.0
  9
$PUCSBASE
  2

  9
$PUCSNAME
  2

  9
$PUCSORG
 10
0.0
 20
0.0
 30
0.0
  9
$PUCSXDIR
 10
1.0
 20
0.0
 30
0.0
  9
$PUCSYDIR
 10
0.0
 20
1.0
 30
0.0
  9
$PUCSORTHOREF
  2

  9
$PUCSORTHOVIEW
 70
     0
  9
$PUCSORGTOP
 10
0.0
 20
0.0
 30
0.0
  9
$PUCSORGBOTTOM
 10
0.0
 20
0.0
 30
0.0
  9
$PUCSORGLEFT
 10
0.0
 20
0.0
 30
0.0
  9
$PUCSORGRIGHT
 10
0.0
 20
0.0
 30
0.0
  9
$PUCSORGFRONT
 10
0.0
 20
0.0
 30
0.0
  9
$PUCSORGBACK
 10
0.0
 20
0.0
 30
0.0
  9
$USERI1
 70
     0
  9
$USERI2
 70
     0
  9
$USERI3
 70
     0
  9
$USERI4
 70
     0
  9
$USERI5
 70
     0
  9
$USERR1
 40
0.0
  9
$USERR2
 40
0.0
  9
$USERR3
 40
0.0
  9
$USERR4
 40
0.0
  9
$USERR5
 40
0.0
  9
$WORLDVIEW
 70
     1
  9
$SHADEDGE
 70
     3
  9
$SHADEDIF
 70
    70
  9
$TILEMODE
 70
     1
  9
$MAXACTVP
 70
    16
  9
$PINSBASE
 10
0.0
 20
0.0
 30
0.0
  9
$PLIMCHECK
 70
     0
  9
$PEXTMIN
 10
1.000000000000000E+20
 20
1.000000000000000E+20
 30
1.000000000000000E+20
  9
$PEXTMAX
 10
-1.000000000000000E+20
 20
-1.000000000000000E+20
 30
-1.000000000000000E+20
  9
$PLIMMIN
 10
0.0
 20
0.0
  9
$PLIMMAX
 10
12.0
 20
9.0
  9
$UNITMODE
 70
     0
  9
$VISRETAIN
 70
     0
  9
$PLINEGEN
 70
     1
  9
$PSLTSCALE
 70
     0
  9
$TREEDEPTH
 70
  3020
  9
$CMLSTYLE
  2
STANDARD
  9
$CMLJUST
 70
     0
  9
$CMLSCALE
 40
1.0
  9
$PROXYGRAPHICS
 70
     0
  9
$MEASUREMENT
 70
     0
  9
$CELWEIGHT
370
    -1
  9
$ENDCAPS
280
     0
  9
$JOINSTYLE
280
     0
  9
$LWDISPLAY
290
     0
  9
$INSUNITS
 70
     0
  9
$HYPERLINKBASE
  1

  9
$STYLESHEET
  1

  9
$XEDIT
290
     1
  9
$CEPSNTYPE
380
     0
  9
$PSTYLEMODE
290
     1
  9
$FINGERPRINTGUID
  2
{0AE0CFEA-D1C7-11D5-923F-00805F198AD5}
  9
$VERSIONGUID
  2
{0AE0CFEC-D1C7-11D5-923F-00805F198AD5}
  9
$EXTNAMES
290
     1
  9
$PSVPSCALE
 40
0.0
  9
$OLESTARTUP
290
     0
  0
ENDSEC
  0
SECTION
  2
CLASSES
  0
CLASS
  1
LWPOLYLINE
  2
AcDbPolyline
  3
AutoCAD 2000
 90
        0
280
     0
281
     1
  0
CLASS
  1
IMAGE
  2
AcDbRasterImage
  3
ISM
 90
      127
280
     0
281
     1
  0
CLASS
  1
OLE2FRAME
  2
AcDbOle2Frame
  3
AutoCAD 2000
 90
        0
280
     0
281
     1
  0
CLASS
  1
HATCH
  2
AcDbHatch
  3
AutoCAD 2000
 90
        0
280
     0
281
     1
  0
CLASS
  1
DICTIONARYVAR
  2
AcDbDictionaryVar
  3
AutoCAD 2000
 90
        0
280
     0
281
     0
  0
CLASS
  1
RASTERVARIABLES
  2
AcDbRasterVariables
  3
ISM
 90
        0
280
     0
281
     0
  0
CLASS
  1
IMAGEDEF
  2
AcDbRasterImageDef
  3
ISM
 90
        0
280
     0
281
     0
  0
CLASS
  1
IMAGEDEF_REACTOR
  2
AcDbRasterImageDefReactor
  3
ISM
 90
        1
280
     0
281
     0
  0
CLASS
  1
IDBUFFER
  2
AcDbIdBuffer
  3
AutoCAD 2000
 90
        0
280
     0
281
     0
  0
CLASS
  1
SPATIAL_FILTER
  2
AcDbSpatialFilter
  3
AutoCAD 2000
 90
        0
280
     0
281
     0
  0
CLASS
  1
XRECORD
  2
AcDbXrecord
  3
AutoCAD 2000
 90
        0
280
     0
281
     0
  0
CLASS
  1
SORTENTSTABLE
  2
AcDbSortentsTable
  3
AutoCAD 2000
 90
        0
280
     0
281
     0
  0
CLASS
  1
LAYER_INDEX
  2
AcDbLayerIndex
  3
AutoCAD 2000
 90
        0
280
     0
281
     0
  0
CLASS
  1
SPATIAL_INDEX
  2
AcDbSpatialIndex
  3
AutoCAD 2000
 90
        0
280
     0
281
     0
  0
CLASS
  1
OBJECT_PTR
  2
CAseDLPNTableRecord
  3
ASE-LPNTableRecord
 90
        1
280
     1
281
     0
  0
CLASS
  1
LAYOUT
  2
AcDbLayout
  3
ObjectDBX Classes
 90
        0
280
     0
281
     0
  0
CLASS
  1
PLOTSETTINGS
  2
AcDbPlotSettings
  3
AutoCAD 2000
 90
        0
280
     0
281
     0
  0
CLASS
  1
ACDBDICTIONARYWDFLT
  2
AcDbDictionaryWithDefault
  3
AutoCAD 2000
 90
        0
280
     0
281
     0
  0
CLASS
  1
ACDBPLACEHOLDER
  2
AcDbPlaceHolder
  3
ObjectDBX Classes
 90
        0
280
     0
281
     0
  0
CLASS
  1
VBAPROJECT
  2
AcDbVbaProject
  3
ObjectDBX Classes
 90
        0
280
     0
281
     0
  0
CLASS
  1
WIPEOUT
  2
AcDbWipeout
  3
WipeOut|AutoCAD Express Tool|expresstools@autodesk.com
 90
      127
280
     0
281
     1
  0
CLASS
  1
WIPEOUTVARIABLES
  2
AcDbWipeoutVariables
  3
WipeOut|AutoCAD Express Tool|expresstools@autodesk.com
 90
        0
280
     0
281
     0
  0
CLASS
  1
RTEXT
  2
RText
  3
RText|AutoCAD Express Tool|expresstools@autodesk.com
 90
        0
280
     0
281
     1
  0
CLASS
  1
ARCALIGNEDTEXT
  2
AcDbArcAlignedText
  3
ATEXT|AutoCAD Express Tool|expresstools@autodesk.com
 90
        0
280
     0
281
     1
  0
CLASS
  1
LONG_TRANSACTION
  2
AcDbLongTransaction
  3
AutoCAD 2000
 90
        0
280
     1
281
     0
  0
CLASS
  1
LWPOLYLINE
  2
AcDbPolyline
  3
AutoCAD 2000
 90
        0
280
     0
281
     1
  0
CLASS
  1
HATCH
  2
AcDbHatch
  3
AutoCAD 2000
 90
        0
280
     0
281
     1
  0
CLASS
  1
XRECORD
  2
AcDbXrecord
  3
AutoCAD 2000
 90
        0
280
     0
281
     0
  0
ENDSEC
  0
SECTION
  2
TABLES
  0
TABLE
  2
VPORT
  5
7
330
0
100
AcDbSymbolTable
 70
     2
  0
VPORT
  5
1B6
330
7
100
AcDbSymbolTableRecord
100
AcDbViewportTableRecord
  2
*Active
 70
     0
 10
0.0
 20
0.0
 11
1.0
 21
1.0
 12
98.3031423247825
 22
142.2238974530655
 13
0.0
 23
0.0
 14
1.0
 24
1.0
 15
0.0
 25
0.0
 16
0.0
 26
0.0
 36
1.0
 17
0.0
 27
0.0
 37
0.0
 40
132.236196092589
 41
1.836842105263158
 42
50.0
 43
0.0
 44
0.0
 50
0.0
 51
0.0
 71
     0
 72
   100
 73
     1
 74
     1
 75
     0
 76
     0
 77
     0
 78
     0
281
     0
 65
     1
110
0.0
120
0.0
130
0.0
111
1.0
121
0.0
131
0.0
112
0.0
122
1.0
132
0.0
 79
     0
146
0.0
  0
ENDTAB
  0
TABLE
  2
LTYPE
  5
4
330
0
100
AcDbSymbolTable
 70
     2
  0
LTYPE
  5
11
330
4
100
AcDbSymbolTableRecord
100
AcDbLinetypeTableRecord
  2
BYBLOCK
 70
     0
  3

 72
    65
 73
     0
 40
0.0
  0
LTYPE
  5
12
330
4
100
AcDbSymbolTableRecord
100
AcDbLinetypeTableRecord
  2
BYLAYER
 70
     0
  3

 72
    65
 73
     0
 40
0.0
  0
LTYPE
  5
13
330
4
100
AcDbSymbolTableRecord
100
AcDbLinetypeTableRecord
  2
CONTINUOUS
 70
     0
  3
Solid line
 72
    65
 73
     0
 40
0.0
  0
LTYPE
  5
15A
330
4
100
AcDbSymbolTableRecord
100
AcDbLinetypeTableRecord
  2
AI9-LTYPE1
 70
     0
  3
Illustrator Dash Style No.1
 72
    65
 73
     6
 40
13.33499939441681
 49
2.963333198759291
 74
     0
 49
-1.481666599379645
 74
     0
 49
2.963333198759291
 74
     0
 49
-1.481666599379645
 74
     0
 49
2.963333198759291
 74
     0
 49
-1.481666599379645
 74
     0
  0
ENDTAB
  0
TABLE
  2
LAYER
  5
2
330
0
100
AcDbSymbolTable
 70
     2
  0
LAYER
  5
14
330
2
100
AcDbSymbolTableRecord
100
AcDbLayerTableRecord
  2
0
 70
     0
 62
     7
  6
CONTINUOUS
370
    -3
390
0
  0
LAYER
  5
21
330
2
100
AcDbSymbolTableRecord
100
AcDbLayerTableRecord
  2
LAYER_1
 70
     0
 62
     5
  6
CONTINUOUS
370
    -3
390
0
  0
ENDTAB
  0
TABLE
  2
STYLE
  5
3
330
0
100
AcDbSymbolTable
 70
     5
  0
STYLE
  5
17
330
3
100
AcDbSymbolTableRecord
100
AcDbTextStyleTableRecord
  2
STANDARD
 70
     0
 40
0.0
 41
1.0
 50
0.0
 71
     0
 42
0.2
  3
txt
  4

  0
STYLE
  5
1D
330
3
100
AcDbSymbolTableRecord
100
AcDbTextStyleTableRecord
  2
STD
 70
     0
 40
0.0
 41
1.0
 50
0.0
 71
     0
 42
0.2
  3
txt
  4

  0
STYLE
  5
1E
330
3
100
AcDbSymbolTableRecord
100
AcDbTextStyleTableRecord
  2
TATESTD
 70
     4
 40
0.0
 41
1.0
 50
0.0
 71
     0
 42
0.2
  3
txt
  4

  0
STYLE
  5
1F
330
3
100
AcDbSymbolTableRecord
100
AcDbTextStyleTableRecord
  2
KANJISTD
 70
     0
 40
0.0
 41
1.0
 50
0.0
 71
     0
 42
0.2
  3
txt
  4
extfont
  0
STYLE
  5
20
330
3
100
AcDbSymbolTableRecord
100
AcDbTextStyleTableRecord
  2
KANJITATE
 70
     4
 40
0.0
 41
1.0
 50
0.0
 71
     0
 42
0.2
  3
txt
  4
extfont
  0
ENDTAB
  0
TABLE
  2
VIEW
  5
5
330
0
100
AcDbSymbolTable
 70
     0
  0
ENDTAB
  0
TABLE
  2
UCS
  5
6
330
0
100
AcDbSymbolTable
 70
     0
  0
ENDTAB
  0
TABLE
  2
APPID
  5
8
330
0
100
AcDbSymbolTable
 70
     1
  0
APPID
  5
16
330
8
100
AcDbSymbolTableRecord
100
AcDbRegAppTableRecord
  2
ACAD
 70
     0
  0
ENDTAB
  0
TABLE
  2
DIMSTYLE
  5
9
330
0
100
AcDbSymbolTable
 70
     1
100
AcDbDimStyleTable
  0
DIMSTYLE
105
18
330
9
100
AcDbSymbolTableRecord
100
AcDbDimStyleTableRecord
  2
STANDARD
 70
     0
  3

  4

289
     0
340
17
  0
ENDTAB
  0
TABLE
  2
BLOCK_RECORD
  5
1
330
0
100
AcDbSymbolTable
 70
     2
  0
BLOCK_RECORD
  5
A
330
1
100
AcDbSymbolTableRecord
100
AcDbBlockTableRecord
  2
*MODEL_SPACE
340
1B1
  0
BLOCK_RECORD
  5
B
330
1
100
AcDbSymbolTableRecord
100
AcDbBlockTableRecord
  2
*PAPER_SPACE
340
1B2
  0
BLOCK_RECORD
  5
22
330
1
100
AcDbSymbolTableRecord
100
AcDbBlockTableRecord
  2
AI9-BLK1
340
0
102
{BLKREFS
331
23
102
}
  0
BLOCK_RECORD
  5
104
330
1
100
AcDbSymbolTableRecord
100
AcDbBlockTableRecord
  2
AI9-BLK2
340
0
102
{BLKREFS
331
105
102
}
  0
ENDTAB
  0
ENDSEC
  0
SECTION
  2
BLOCKS
  0
BLOCK
  5
D
330
A
100
AcDbEntity
  8
0
100
AcDbBlockBegin
  2
*MODEL_SPACE
 70
     0
 10
0.0
 20
0.0
 30
0.0
  3
*MODEL_SPACE
  1

  4

  0
ENDBLK
  5
E
330
A
100
AcDbEntity
  8
0
100
AcDbBlockEnd
  0
BLOCK
  5
F
330
B
100
AcDbEntity
 67
     1
  8
0
100
AcDbBlockBegin
  2
*PAPER_SPACE
 70
     0
 10
0.0
 20
0.0
 30
0.0
  3
*PAPER_SPACE
  1

  4

  0
ENDBLK
  5
10
330
B
100
AcDbEntity
 67
     1
  8
0
100
AcDbBlockEnd
  0
BLOCK
  5
24
330
22
100
AcDbEntity
  8
LAYER_1
 62
     7
100
AcDbBlockBegin
  2
AI9-BLK1
 70
     0
 10
0.0
 20
0.0
 30
0.0
  3
AI9-BLK1
  1

  4

  0
LWPOLYLINE
  5
19E
330
22
100
AcDbEntity
  8
LAYER_1
 62
     7
100
AcDbPolyline
 90
       11
 70
     0
 43
0.0
 10
-34.76893717447916
 20
39.40999755859374
 10
-34.76893717447916
 20
6.715007866753472
 10
-32.99126790364583
 20
4.344437662760416
 10
-36.54695095486111
 20
2.369019911024306
 10
-34.76893717447916
 20
0.3936021592881944
 10
-34.76893717447916
 20
-55.3177259657118
 10
-2.963126627604166
 20
-55.31979302300347
 10
-0.9877088758680555
 20
-53.54177924262152
 10
0.9877088758680555
 20
-57.0974622938368
 10
3.358279079861111
 20
-55.31979302300347
 10
17.43338894314236
 20
-55.31979302300347
  0
LWPOLYLINE
  5
198
330
22
100
AcDbEntity
  8
LAYER_1
 62
     7
100
AcDbPolyline
 90
        4
 70
     0
 43
0.0
 10
24.84137776692708
 20
-55.31979302300347
 10
37.73240831163194
 20
-55.31979302300347
 10
37.73240831163194
 20
0.5910061306423611
 10
26.66417778862847
 20
6.464893934461805
  0
LWPOLYLINE
  5
185
330
22
100
AcDbEntity
  8
LAYER_1
 62
     7
100
AcDbPolyline
 90
       17
 70
     0
 43
0.0
 10
-2.370570203993055
 20
59.26373833550347
 10
-14.62236328125
 20
59.26373833550347
 10
-16.99293348524305
 20
57.48227945963541
 10
-18.96835123697916
 20
61.0383070203993
 10
-20.94376898871528
 20
59.26029324001735
 10
-26.37323947482639
 20
59.26029324001735
 10
-26.37323947482639
 20
39.11371934678819
 10
-34.76893717447916
 20
43.26230333116319
 10
-34.76893717447916
 20
28.44598117404514
 10
3.951180013020833
 20
2.171271430121528
 10
14.79565158420139
 20
4.255209689670139
 10
19.55780707465278
 20
3.751881239149305
 10
19.55780707465278
 20
5.595696343315971
 10
21.97419704861111
 20
5.634281412760416
 10
26.57064344618055
 20
6.517603895399305
 10
26.57064344618055
 20
15.70360649956597
 10
4.570263671875
 20
25.39018147786458
  0
LWPOLYLINE
  5
17F
330
22
100
AcDbEntity
  8
LAYER_1
  6
AI9-LTYPE1
 62
     7
100
AcDbPolyline
 90
        4
 70
     0
 43
0.0
 10
-13.03262396918403
 20
-21.88152398003472
 10
-35.75699055989583
 20
2.895775010850694
 10
-33.38642035590277
 20
4.081232367621527
 10
-12.41939697265625
 20
-17.38791368272569
  0
LWPOLYLINE
  5
179
330
22
100
AcDbEntity
  8
LAYER_1
  6
AI9-LTYPE1
 62
     7
100
AcDbPolyline
 90
        4
 70
     0
 43
0.0
 10
-9.280742730034721
 20
-20.60184326171875
 10
17.81665581597222
 20
-48.34829779730902
 10
14.26062825520833
 20
-51.64077555338541
 10
-10.35940212673611
 20
-24.79641927083333
  0
LINE
  5
178
330
22
100
AcDbEntity
  8
LAYER_1
 62
     7
100
AcDbLine
 10
19.55780707465278
 20
3.751881239149305
 30
0.0
 11
19.55780707465278
 21
13.23416205512153
 31
0.0
  0
LINE
  5
177
330
22
100
AcDbEntity
  8
LAYER_1
 62
     7
100
AcDbLine
 10
-26.37323947482639
 20
59.26029324001735
 30
0.0
 11
-26.37323947482639
 21
29.53221978081597
 31
0.0
  0
LWPOLYLINE
  5
172
330
22
100
AcDbEntity
  8
LAYER_1
 62
     7
100
AcDbPolyline
 90
        3
 70
     0
 43
0.0
 10
-20.44664171006944
 20
59.75431993272569
 10
-20.44664171006944
 20
26.07506646050347
 10
-14.02601725260417
 20
26.96424560546875
  0
LINE
  5
171
330
22
100
AcDbEntity
  8
LAYER_1
 62
     7
100
AcDbLine
 10
-34.76893717447916
 20
34.47110866970486
 30
0.0
 11
3.951180013020833
 21
11.95017496744792
 31
0.0
  0
LWPOLYLINE
  5
168
330
22
100
AcDbEntity
  8
LAYER_1
 62
     7
100
AcDbPolyline
 90
        7
 70
     0
 43
0.0
 10
3.951180013020833
 20
2.171271430121528
 10
3.951180013020833
 20
11.95017496744792
 10
14.80736490885417
 20
13.75161539713542
 10
19.55780707465278
 20
13.23416205512153
 10
18.56975368923611
 20
15.0783216688368
 10
22.05997992621528
 20
14.88057318793403
 10
26.57064344618055
 20
15.70360649956597
  0
LINE
  5
167
330
22
100
AcDbEntity
  8
LAYER_1
 62
     7
100
AcDbLine
 10
14.79565158420139
 20
4.255209689670139
 30
0.0
 11
14.79565158420139
 21
13.69511583116319
 31
0.0
  0
LINE
  5
166
330
22
100
AcDbEntity
  8
LAYER_1
 62
     7
100
AcDbLine
 10
21.99796820746528
 20
5.629802788628472
 30
0.0
 11
21.99796820746528
 21
14.88057318793403
 31
0.0
  0
LINE
  5
165
330
22
100
AcDbEntity
  8
LAYER_1
 62
     7
100
AcDbLine
 10
19.55780707465278
 20
13.23416205512153
 30
0.0
 11
18.56975368923611
 21
15.0783216688368
 31
0.0
  0
SPLINE
  5
164
330
22
100
AcDbEntity
  8
LAYER_1
 62
     7
100
AcDbSpline
210
0.0
220
0.0
230
1.0
 70
     8
 71
     3
 72
    20
 73
    16
 74
     0
 42
0.0000000001
 43
0.0000000001
 40
0.0
 40
0.0
 40
0.0
 40
0.0
 40
1.0
 40
1.0
 40
1.0
 40
2.0
 40
2.0
 40
2.0
 40
3.0
 40
3.0
 40
3.0
 40
4.0
 40
4.0
 40
4.0
 40
5.0
 40
5.0
 40
5.0
 40
5.0
 10
3.951180013020833
 20
8.88817409939236
 30
0.0
 10
5.037418619791667
 20
8.641160753038193
 30
0.0
 10
6.124001736111111
 20
9.382200792100694
 30
0.0
 10
6.86504177517361
 20
9.57960476345486
 30
0.0
 10
7.6057373046875
 20
9.777353244357638
 30
0.0
 10
8.297167968749999
 20
10.22177056206597
 30
0.0
 10
9.037863498263889
 20
10.27103542751736
 30
0.0
 10
9.778903537326388
 20
10.32030029296875
 30
0.0
 10
10.3714599609375
 20
10.71545274522569
 30
0.0
 10
11.21102973090278
 20
11.30835367838542
 30
0.0
 10
12.05059950086806
 20
11.90091010199653
 30
0.0
 10
13.97675238715278
 20
12.64160563151042
 30
0.0
 10
14.81632215711806
 20
12.74047987196181
 30
0.0
 10
16.19918348524305
 20
12.19718831380208
 30
0.0
 10
18.32308485243055
 20
11.60463189019097
 30
0.0
 10
19.55780707465278
 20
11.55502251519097
 30
0.0
  0
SPLINE
  5
163
330
22
100
AcDbEntity
  8
LAYER_1
 62
     7
100
AcDbSpline
210
0.0
220
0.0
230
1.0
 70
     8
 71
     3
 72
    20
 73
    16
 74
     0
 42
0.0000000001
 43
0.0000000001
 40
0.0
 40
0.0
 40
0.0
 40
0.0
 40
1.0
 40
1.0
 40
1.0
 40
2.0
 40
2.0
 40
2.0
 40
3.0
 40
3.0
 40
3.0
 40
4.0
 40
4.0
 40
4.0
 40
5.0
 40
5.0
 40
5.0
 40
5.0
 10
3.951180013020833
 20
7.406438530815971
 30
0.0
 10
4.889279513888888
 20
7.604187011718749
 30
0.0
 10
5.728849283854166
 20
7.702716742621528
 30
0.0
 10
6.469889322916666
 20
7.900465223524305
 30
0.0
 10
7.210584852430555
 20
8.097869194878472
 30
0.0
 10
8.000889756944444
 20
8.394147406684027
 30
0.0
 10
8.741585286458333
 20
8.443756781684026
 30
0.0
 10
9.482280815972221
 20
8.493021647135416
 30
0.0
 10
10.3714599609375
 20
8.456159125434027
 30
0.0
 10
11.21102973090278
 20
9.048715549045138
 30
0.0
 10
12.05059950086806
 20
9.641271972656249
 30
0.0
 10
13.97675238715278
 20
10.38231201171875
 30
0.0
 10
14.81632215711806
 20
10.48084174262153
 30
0.0
 10
16.19918348524305
 20
9.937550184461804
 30
0.0
 10
18.32308485243055
 20
9.344993760850693
 30
0.0
 10
19.55780707465278
 20
9.295728895399305
 30
0.0
  0
SPLINE
  5
162
330
22
100
AcDbEntity
  8
LAYER_1
 62
     7
100
AcDbSpline
210
0.0
220
0.0
230
1.0
 70
     8
 71
     3
 72
    20
 73
    16
 74
     0
 42
0.0000000001
 43
0.0000000001
 40
0.0
 40
0.0
 40
0.0
 40
0.0
 40
1.0
 40
1.0
 40
1.0
 40
2.0
 40
2.0
 40
2.0
 40
3.0
 40
3.0
 40
3.0
 40
4.0
 40
4.0
 40
4.0
 40
5.0
 40
5.0
 40
5.0
 40
5.0
 10
3.951180013020833
 20
5.344548882378472
 30
0.0
 10
4.889279513888888
 20
5.542297363281249
 30
0.0
 10
5.728849283854166
 20
5.640827094184028
 30
0.0
 10
6.469889322916666
 20
5.838575575086805
 30
0.0
 10
7.210584852430555
 20
6.035979546440972
 30
0.0
 10
8.000889756944444
 20
6.332257758246527
 30
0.0
 10
8.741585286458333
 20
6.381867133246527
 30
0.0
 10
9.482280815972221
 20
6.431131998697916
 30
0.0
 10
10.49789496527778
 20
6.62164577907986
 30
0.0
 10
11.50730794270833
 20
6.813882107204861
 30
0.0
 10
12.54462619357639
 20
7.011630588107638
 30
0.0
 10
13.97675238715278
 20
7.850855848524305
 30
0.0
 10
14.81632215711806
 20
7.949730088975694
 30
0.0
 10
16.19918348524305
 20
7.406438530815971
 30
0.0
 10
18.32308485243055
 20
6.813882107204861
 30
0.0
 10
19.55780707465278
 20
6.764617241753472
 30
0.0
  0
SPLINE
  5
161
330
22
100
AcDbEntity
  8
LAYER_1
 62
     7
100
AcDbSpline
210
0.0
220
0.0
230
1.0
 70
     8
 71
     3
 72
    20
 73
    16
 74
     0
 42
0.0000000001
 43
0.0000000001
 40
0.0
 40
0.0
 40
0.0
 40
0.0
 40
1.0
 40
1.0
 40
1.0
 40
2.0
 40
2.0
 40
2.0
 40
3.0
 40
3.0
 40
3.0
 40
4.0
 40
4.0
 40
4.0
 40
5.0
 40
5.0
 40
5.0
 40
5.0
 10
3.951180013020833
 20
3.393935818142361
 30
0.0
 10
4.889279513888888
 20
3.591339789496527
 30
0.0
 10
5.728849283854166
 20
3.690214029947916
 30
0.0
 10
6.469889322916666
 20
3.887618001302083
 30
0.0
 10
7.210584852430555
 20
4.085366482204861
 30
0.0
 10
8.000889756944444
 20
4.381644694010416
 30
0.0
 10
8.741585286458333
 20
4.430909559461806
 30
0.0
 10
9.482280815972221
 20
4.480174424913194
 30
0.0
 10
10.49789496527778
 20
4.670688205295138
 30
0.0
 10
11.50730794270833
 20
4.862924533420139
 30
0.0
 10
12.54462619357639
 20
5.060673014322917
 30
0.0
 10
13.97675238715278
 20
5.579159884982638
 30
0.0
 10
14.81632215711806
 20
5.678034125434027
 30
0.0
 10
16.19918348524305
 20
5.134742567274305
 30
0.0
 10
18.32308485243055
 20
4.862924533420139
 30
0.0
 10
19.55780707465278
 20
4.81365966796875
 30
0.0
  0
SPLINE
  5
160
330
22
100
AcDbEntity
  8
LAYER_1
 62
     7
100
AcDbSpline
210
0.0
220
0.0
230
1.0
 70
     8
 71
     3
 72
    11
 73
     7
 74
     0
 42
0.0000000001
 43
0.0000000001
 40
0.0
 40
0.0
 40
0.0
 40
0.0
 40
1.0
 40
1.0
 40
1.0
 40
2.0
 40
2.0
 40
2.0
 40
2.0
 10
3.951180013020833
 20
10.70305040147569
 30
0.0
 10
5.037418619791667
 20
10.45638156467014
 30
0.0
 10
6.124001736111111
 20
11.19707709418403
 30
0.0
 10
6.86504177517361
 20
11.39448106553819
 30
0.0
 10
7.6057373046875
 20
11.59222954644097
 30
0.0
 10
8.445307074652778
 20
11.40688340928819
 30
0.0
 10
9.482280815972221
 20
12.83935411241319
 30
0.0
  0
SPLINE
  5
15F
330
22
100
AcDbEntity
  8
LAYER_1
 62
     7
100
AcDbSpline
210
0.0
220
0.0
230
1.0
 70
     8
 71
     3
 72
    14
 73
    10
 74
     0
 42
0.0000000001
 43
0.0000000001
 40
0.0
 40
0.0
 40
0.0
 40
0.0
 40
1.0
 40
1.0
 40
1.0
 40
2.0
 40
2.0
 40
2.0
 40
3.0
 40
3.0
 40
3.0
 40
3.0
 10
18.91564127604167
 20
14.41961941189236
 30
0.0
 10
19.65633680555555
 20
14.02446695963542
 30
0.0
 10
21.23694661458333
 20
13.4319105360243
 30
0.0
 10
21.92837727864583
 20
13.33303629557292
 30
0.0
 10
22.66907280815972
 20
13.67892388237847
 30
0.0
 10
23.90379503038194
 20
14.07407633463542
 30
0.0
 10
24.54561631944444
 20
14.1233412000868
 30
0.0
 10
25.18778211805556
 20
14.17260606553819
 30
0.0
 10
26.12622612847222
 20
14.71589762369792
 30
0.0
 10
26.57064344618055
 20
14.86403672960069
 30
0.0
  0
SPLINE
  5
15E
330
22
100
AcDbEntity
  8
LAYER_1
 62
     7
100
AcDbSpline
210
0.0
220
0.0
230
1.0
 70
     8
 71
     3
 72
    14
 73
    10
 74
     0
 42
0.0000000001
 43
0.0000000001
 40
0.0
 40
0.0
 40
0.0
 40
0.0
 40
1.0
 40
1.0
 40
1.0
 40
2.0
 40
2.0
 40
2.0
 40
3.0
 40
3.0
 40
3.0
 40
3.0
 10
19.60707194010417
 20
12.34532741970486
 30
0.0
 10
20.34776746961805
 20
11.95017496744792
 30
0.0
 10
21.23694661458333
 20
11.80203586154514
 30
0.0
 10
21.92837727864583
 20
11.70316162109375
 30
0.0
 10
22.66907280815972
 20
12.04904920789931
 30
0.0
 10
23.90379503038194
 20
12.44420166015625
 30
0.0
 10
24.54561631944444
 20
12.49346652560764
 30
0.0
 10
25.18778211805556
 20
12.54307590060764
 30
0.0
 10
26.12622612847222
 20
13.08602294921875
 30
0.0
 10
26.57064344618055
 20
13.23416205512153
 30
0.0
  0
SPLINE
  5
15D
330
22
100
AcDbEntity
  8
LAYER_1
 62
     7
100
AcDbSpline
210
0.0
220
0.0
230
1.0
 70
     8
 71
     3
 72
    14
 73
    10
 74
     0
 42
0.0000000001
 43
0.0000000001
 40
0.0
 40
0.0
 40
0.0
 40
0.0
 40
1.0
 40
1.0
 40
1.0
 40
2.0
 40
2.0
 40
2.0
 40
3.0
 40
3.0
 40
3.0
 40
3.0
 10
19.60707194010417
 20
9.974757215711804
 30
0.0
 10
20.34776746961805
 20
9.57960476345486
 30
0.0
 10
21.23694661458333
 20
9.431465657552083
 30
0.0
 10
21.92837727864583
 20
9.332591417100694
 30
0.0
 10
22.66907280815972
 20
9.678479003906249
 30
0.0
 10
23.90379503038194
 20
10.07363145616319
 30
0.0
 10
24.54561631944444
 20
10.12289632161458
 30
0.0
 10
25.18778211805556
 20
10.17216118706597
 30
0.0
 10
26.12622612847222
 20
10.71545274522569
 30
0.0
 10
26.57064344618055
 20
10.86359185112847
 30
0.0
  0
SPLINE
  5
15C
330
22
100
AcDbEntity
  8
LAYER_1
 62
     7
100
AcDbSpline
210
0.0
220
0.0
230
1.0
 70
     8
 71
     3
 72
    14
 73
    10
 74
     0
 42
0.0000000001
 43
0.0000000001
 40
0.0
 40
0.0
 40
0.0
 40
0.0
 40
1.0
 40
1.0
 40
1.0
 40
2.0
 40
2.0
 40
2.0
 40
3.0
 40
3.0
 40
3.0
 40
3.0
 10
19.60707194010417
 20
7.604187011718749
 30
0.0
 10
20.34776746961805
 20
7.209034559461805
 30
0.0
 10
21.23694661458333
 20
7.060895453559027
 30
0.0
 10
21.92837727864583
 20
6.962021213107638
 30
0.0
 10
22.66907280815972
 20
7.307908799913194
 30
0.0
 10
23.90379503038194
 20
7.702716742621528
 30
0.0
 10
24.54561631944444
 20
7.752326117621527
 30
0.0
 10
25.18778211805556
 20
7.801590983072916
 30
0.0
 10
26.12622612847222
 20
8.344882541232638
 30
0.0
 10
26.57064344618055
 20
8.493021647135416
 30
0.0
  0
SPLINE
  5
15B
330
22
100
AcDbEntity
  8
LAYER_1
  6
AI9-LTYPE1
 62
     7
100
AcDbSpline
210
0.0
220
0.0
230
1.0
 70
     8
 71
     3
 72
    50
 73
    46
 74
     0
 42
0.0000000001
 43
0.0000000001
 40
0.0
 40
0.0
 40
0.0
 40
0.0
 40
1.0
 40
1.0
 40
1.0
 40
2.0
 40
2.0
 40
2.0
 40
3.0
 40
3.0
 40
3.0
 40
4.0
 40
4.0
 40
4.0
 40
5.0
 40
5.0
 40
5.0
 40
6.0
 40
6.0
 40
6.0
 40
7.0
 40
7.0
 40
7.0
 40
8.0
 40
8.0
 40
8.0
 40
9.0
 40
9.0
 40
9.0
 40
10.0
 40
10.0
 40
10.0
 40
11.0
 40
11.0
 40
11.0
 40
12.0
 40
12.0
 40
12.0
 40
13.0
 40
13.0
 40
13.0
 40
14.0
 40
14.0
 40
14.0
 40
15.0
 40
15.0
 40
15.0
 40
15.0
 10
-8.494916449652777
 20
24.09964870876736
 30
0.0
 10
-8.494916449652777
 20
24.09964870876736
 30
0.0
 10
-8.494916449652777
 20
14.61702338324653
 30
0.0
 10
-8.494916449652777
 20
14.61702338324653
 30
0.0
 10
-8.494916449652777
 20
14.61702338324653
 30
0.0
 10
-12.7093017578125
 20
-20.41546359592014
 30
0.0
 10
-12.7093017578125
 20
-20.41546359592014
 30
0.0
 10
-13.10445421006944
 20
-22.91763644748264
 30
0.0
 10
-14.15796440972222
 20
-24.76145155164931
 30
0.0
 10
-16.00177951388889
 20
-25.81496175130208
 30
0.0
 10
-17.84559461805555
 20
-26.86881646050347
 30
0.0
 10
-19.55780707465278
 20
-29.23938666449653
 30
0.0
 10
-19.55780707465278
 20
-31.08320176866319
 30
0.0
 10
-19.55780707465278
 20
-32.92701687282986
 30
0.0
 10
-19.03070746527778
 20
-34.77083197699653
 30
0.0
 10
-16.92368706597222
 20
-36.35109727647569
 30
0.0
 10
-14.81632215711806
 20
-37.93170708550347
 30
0.0
 10
-9.943579101562499
 20
-40.82903238932291
 30
0.0
 10
-9.943579101562499
 20
-44.1215101453993
 30
0.0
 10
-9.943579101562499
 20
-47.41398790147569
 30
0.0
 10
-13.10445421006944
 20
-48.73104790581597
 30
0.0
 10
-15.211474609375
 20
-49.52135281032986
 30
0.0
 10
-16.13338216145833
 20
-49.9165052625868
 30
0.0
 10
-16.26498480902778
 20
-51.36516791449652
 30
0.0
 10
-16.00177951388889
 20
-51.89192301432291
 30
0.0
 10
-15.73822970920139
 20
-52.4186781141493
 30
0.0
 10
-14.81632215711806
 20
-52.6822279188368
 30
0.0
 10
-13.89441460503472
 20
-52.4186781141493
 30
0.0
 10
-9.680029296874999
 20
-50.57486300998264
 30
0.0
 10
-6.651101345486111
 20
-48.99459771050347
 30
0.0
 10
-6.651101345486111
 20
-44.1215101453993
 30
0.0
 10
-6.651101345486111
 20
-39.24842258029513
 30
0.0
 10
-11.65544704861111
 20
-36.48269992404514
 30
0.0
 10
-13.89441460503472
 20
-34.63888481987847
 30
0.0
 10
-16.13338216145833
 20
-32.7950697157118
 30
0.0
 10
-17.05528971354167
 20
-30.5564466688368
 30
0.0
 10
-13.49926215277778
 20
-28.18553195529514
 30
0.0
 10
-9.943579101562499
 20
-25.81496175130208
 30
0.0
 10
-9.382028537326388
 20
-21.5864515516493
 30
0.0
 10
-9.15327419704861
 20
-19.75676133897569
 30
0.0
 10
-9.15327419704861
 20
-19.75676133897569
 30
0.0
 10
-4.938888888888888
 20
14.61702338324653
 30
0.0
 10
-4.938888888888888
 20
14.61702338324653
 30
0.0
 10
-4.938888888888888
 20
14.61702338324653
 30
0.0
 10
-4.938888888888888
 20
22.38743625217014
 30
0.0
 10
-4.938888888888888
 20
22.38743625217014
 30
0.0
  0
INSERT
  5
105
330
22
100
AcDbEntity
  8
LAYER_1
 62
     7
100
AcDbBlockReference
  2
AI9-BLK2
 10
-6.387551540798611
 20
40.65987820095486
 30
0.0
  0
SPLINE
  5
103
330
22
100
AcDbEntity
  8
LAYER_1
 62
     7
100
AcDbSpline
210
0.0
220
0.0
230
1.0
 70
     8
 71
     3
 72
    38
 73
    34
 74
     0
 42
0.0000000001
 43
0.0000000001
 40
0.0
 40
0.0
 40
0.0
 40
0.0
 40
1.0
 40
1.0
 40
1.0
 40
2.0
 40
2.0
 40
2.0
 40
3.0
 40
3.0
 40
3.0
 40
4.0
 40
4.0
 40
4.0
 40
5.0
 40
5.0
 40
5.0
 40
6.0
 40
6.0
 40
6.0
 40
7.0
 40
7.0
 40
7.0
 40
8.0
 40
8.0
 40
8.0
 40
9.0
 40
9.0
 40
9.0
 40
10.0
 40
10.0
 40
10.0
 40
11.0
 40
11.0
 40
11.0
 40
11.0
 10
-34.76893717447916
 20
16.29650743272569
 30
0.0
 10
-34.76893717447916
 20
16.29650743272569
 30
0.0
 10
-26.00082465277778
 20
8.768284776475694
 30
0.0
 10
-26.00082465277778
 20
8.768284776475694
 30
0.0
 10
-25.54986165364583
 20
8.427220323350694
 30
0.0
 10
-25.35245768229166
 20
8.493021647135416
 30
0.0
 10
-24.95730523003472
 20
8.493021647135416
 30
0.0
 10
-24.56215277777778
 20
8.493021647135416
 30
0.0
 10
-24.56215277777778
 20
8.229816351996528
 30
0.0
 10
-24.49635145399305
 20
7.966266547309027
 30
0.0
 10
-24.43055013020833
 20
7.702716742621528
 30
0.0
 10
-24.36474880642361
 20
7.702716742621528
 30
0.0
 10
-23.96959635416667
 20
7.636915418836805
 30
0.0
 10
-23.57444390190972
 20
7.571114095052082
 30
0.0
 10
-24.09258626302083
 20
7.042980957031249
 30
0.0
 10
-23.80078667534722
 20
6.878994411892361
 30
0.0
 10
-23.80078667534722
 20
6.878994411892361
 30
0.0
 10
-18.63555501302083
 20
2.434821234809028
 30
0.0
 10
-18.63555501302083
 20
2.434821234809028
 30
0.0
 10
-18.2407470703125
 20
2.105470106336806
 30
0.0
 10
-17.91139594184028
 20
2.105470106336806
 30
0.0
 10
-17.58204481336805
 20
2.039668782552083
 30
0.0
 10
-17.25269368489583
 20
1.973867458767361
 30
0.0
 10
-17.12109103732639
 20
1.38131103515625
 30
0.0
 10
-17.12109103732639
 20
1.38131103515625
 30
0.0
 10
-17.12109103732639
 20
1.38131103515625
 30
0.0
 10
-17.13211534288194
 20
1.094679090711805
 30
0.0
 10
-16.96192762586805
 20
1.007518174913194
 30
0.0
 10
-16.96192762586805
 20
1.007518174913194
 30
0.0
 10
-5.432571072048611
 20
-8.891619194878471
 30
0.0
 10
-5.432571072048611
 20
-8.891619194878471
 30
0.0
 10
-5.432571072048611
 20
-8.891619194878471
 30
0.0
 10
37.73240831163194
 20
0.5910061306423611
 30
0.0
 10
37.73240831163194
 20
0.5910061306423611
 30
0.0
  0
LINE
  5
102
330
22
100
AcDbEntity
  8
LAYER_1
 62
     7
100
AcDbLine
 10
-5.432571072048611
 20
-8.891619194878471
 30
0.0
 11
-5.432571072048611
 21
-55.31600341796874
 31
0.0
  0
ELLIPSE
  5
101
330
22
100
AcDbEntity
  8
LAYER_1
 62
     7
100
AcDbEllipse
 10
30.55696343315972
 20
-41.49600287543402
 30
0.0
 11
0.279052734375
 21
0.0
 31
0.0
210
0.0
220
0.0
230
1.0
 40
0.7506172839506173
 41
0.0
 42
6.283185307179586
  0
CIRCLE
  5
100
330
22
100
AcDbEntity
  8
LAYER_1
 62
     7
100
AcDbCircle
 10
36.43395182291666
 20
-43.47142062717013
 30
0.0
 40
0.2094618055555556
  0
ELLIPSE
  5
FF
330
22
100
AcDbEntity
  8
LAYER_1
 62
     7
100
AcDbEllipse
 10
34.82888183593749
 20
-48.43511420355902
 30
0.0
 11
0.0
 21
-0.2094618055555556
 31
0.0
210
0.0
220
0.0
230
1.0
 40
0.6661184210526315
 41
0.0
 42
6.283185307179586
  0
ELLIPSE
  5
FE
330
22
100
AcDbEntity
  8
LAYER_1
 62
     7
100
AcDbEllipse
 10
32.35943739149305
 20
-40.77993977864583
 30
0.0
 11
0.0
 21
-0.2096340603298611
 31
0.0
210
0.0
220
0.0
230
1.0
 40
0.6672149677595015
 41
0.0
 42
6.283185307179586
  0
ELLIPSE
  5
FD
330
22
100
AcDbEntity
  8
LAYER_1
 62
     7
100
AcDbEllipse
 10
32.60645073784722
 20
-43.39752332899305
 30
0.0
 11
0.0
 21
-0.2096340603298611
 31
0.0
210
0.0
220
0.0
230
1.0
 40
0.6655715836349346
 41
0.0
 42
6.283185307179586
  0
ELLIPSE
  5
FC
330
22
100
AcDbEntity
  8
LAYER_1
 62
     7
100
AcDbEllipse
 10
33.94004720052083
 20
-46.70636528862847
 30
0.0
 11
0.0
 21
-0.2094618055555556
 31
0.0
210
0.0
220
0.0
230
1.0
 40
0.6661184210526315
 41
0.0
 42
6.283185307179586
  0
ELLIPSE
  5
FB
330
22
100
AcDbEntity
  8
LAYER_1
 62
     7
100
AcDbEllipse
 10
32.43350694444444
 20
-49.42282307942708
 30
0.0
 11
0.0
 21
-0.2094618055555556
 31
0.0
210
0.0
220
0.0
230
1.0
 40
0.6677631578947368
 41
0.0
 42
6.283185307179586
  0
CIRCLE
  5
FA
330
22
100
AcDbEntity
  8
LAYER_1
 62
     7
100
AcDbCircle
 10
9.087472873263888
 20
-51.15553385416666
 30
0.0
 40
0.2096340603298611
  0
CIRCLE
  5
F9
330
22
100
AcDbEntity
  8
LAYER_1
 62
     7
100
AcDbCircle
 10
7.309459092881943
 20
-53.52610405815972
 30
0.0
 40
0.2096340603298611
  0
ELLIPSE
  5
F8
330
22
100
AcDbEntity
  8
LAYER_1
 62
     7
100
AcDbEllipse
 10
3.778236219618055
 20
-51.79752739800347
 30
0.0
 11
0.0
 21
-0.2793972439236111
 31
0.0
210
0.0
220
0.0
230
1.0
 40
0.499383477188656
 41
0.0
 42
6.283185307179586
  0
ELLIPSE
  5
F7
330
22
100
AcDbEntity
  8
LAYER_1
 62
     7
100
AcDbEllipse
 10
2.938666449652778
 20
-51.35311008029513
 30
0.0
 11
0.0
 21
-0.2094618055555556
 31
0.0
210
0.0
220
0.0
230
1.0
 40
0.6661184210526315
 41
0.0
 42
6.283185307179586
  0
ELLIPSE
  5
F6
330
22
100
AcDbEntity
  8
LAYER_1
 62
     7
100
AcDbEllipse
 10
2.889057074652778
 20
-53.18038872612847
 30
0.0
 11
0.2793972439236111
 21
0.0
 31
0.0
210
0.0
220
0.0
230
1.0
 40
0.749691738594328
 41
0.0
 42
6.283185307179586
  0
CIRCLE
  5
F5
330
22
100
AcDbEntity
  8
LAYER_1
 62
     7
100
AcDbCircle
 10
33.00160319010416
 20
-47.49667019314236
 30
0.0
 40
0.2094618055555556
  0
SPLINE
  5
F4
330
22
100
AcDbEntity
  8
LAYER_1
 62
     7
100
AcDbSpline
210
0.0
220
0.0
230
1.0
 70
    11
 71
     3
 72
    17
 73
    13
 74
     0
 42
0.0000000001
 43
0.0000000001
 40
0.0
 40
0.0
 40
0.0
 40
0.0
 40
1.0
 40
1.0
 40
1.0
 40
2.0
 40
2.0
 40
2.0
 40
3.0
 40
3.0
 40
3.0
 40
4.0
 40
4.0
 40
4.0
 40
4.0
 10
25.74761013454861
 20
1.973867458767361
 30
0.0
 10
25.80410970052083
 20
1.918401421440972
 30
0.0
 10
26.00254720052083
 20
2.015208604600694
 30
0.0
 10
25.90057237413194
 20
2.045869954427083
 30
0.0
 10
25.94742567274305
 20
2.128896755642361
 30
0.0
 10
25.840283203125
 20
2.171615939670139
 30
0.0
 10
25.68318684895833
 20
2.161625162760417
 30
0.0
 10
25.51368815104166
 20
2.219502766927083
 30
0.0
 10
25.39931098090278
 20
2.161625162760417
 30
0.0
 10
25.49439561631944
 20
2.098579915364583
 30
0.0
 10
25.41033528645833
 20
1.987647840711805
 30
0.0
 10
25.53642578125
 20
1.937004937065972
 30
0.0
 10
25.74761013454861
 20
1.973867458767361
 30
0.0
  0
SPLINE
  5
F3
330
22
100
AcDbEntity
  8
LAYER_1
 62
     7
100
AcDbSpline
210
0.0
220
0.0
230
1.0
 70
    11
 71
     3
 72
    17
 73
    13
 74
     0
 42
0.0000000001
 43
0.0000000001
 40
0.0
 40
0.0
 40
0.0
 40
0.0
 40
1.0
 40
1.0
 40
1.0
 40
2.0
 40
2.0
 40
2.0
 40
3.0
 40
3.0
 40
3.0
 40
4.0
 40
4.0
 40
4.0
 40
4.0
 10
-2.304768880208333
 20
-5.664942762586805
 30
0.0
 10
-2.248269314236111
 20
-5.720408799913194
 30
0.0
 10
-2.049831814236111
 20
-5.623601616753472
 30
0.0
 10
-2.151462131076389
 20
-5.592595757378472
 30
0.0
 10
-2.104953342013889
 20
-5.509568956163194
 30
0.0
 10
-2.212095811631945
 20
-5.466849772135416
 30
0.0
 10
-2.369192165798611
 20
-5.47718505859375
 30
0.0
 10
-2.538690863715277
 20
-5.418962944878472
 30
0.0
 10
-2.653068033854166
 20
-5.47718505859375
 30
0.0
 10
-2.5579833984375
 20
-5.540230305989583
 30
0.0
 10
-2.64169921875
 20
-5.651162380642361
 30
0.0
 10
-2.515953233506944
 20
-5.701805284288194
 30
0.0
 10
-2.304768880208333
 20
-5.664942762586805
 30
0.0
  0
SPLINE
  5
F2
330
22
100
AcDbEntity
  8
LAYER_1
 62
     7
100
AcDbSpline
210
0.0
220
0.0
230
1.0
 70
    11
 71
     3
 72
    17
 73
    13
 74
     0
 42
0.0000000001
 43
0.0000000001
 40
0.0
 40
0.0
 40
0.0
 40
0.0
 40
1.0
 40
1.0
 40
1.0
 40
2.0
 40
2.0
 40
2.0
 40
3.0
 40
3.0
 40
3.0
 40
4.0
 40
4.0
 40
4.0
 40
4.0
 10
-2.379871961805555
 20
-1.525660536024305
 30
0.0
 10
-2.326472981770833
 20
-1.462270779079861
 30
0.0
 10
-2.319927300347222
 20
-1.404737684461805
 30
0.0
 10
-2.308213975694444
 20
-1.295872667100694
 30
0.0
 10
-2.323027886284722
 20
-1.223525661892361
 30
0.0
 10
-2.374359809027778
 20
-1.200443522135417
 30
0.0
 10
-2.405710177951389
 20
-1.153934733072917
 30
0.0
 10
-2.457042100694444
 20
-1.163581000434028
 30
0.0
 10
-2.5207763671875
 20
-1.255909559461806
 30
0.0
 10
-2.501483832465278
 20
-1.363052029079861
 30
0.0
 10
-2.5145751953125
 20
-1.435054524739583
 30
0.0
 10
-2.475645616319444
 20
-1.45572509765625
 30
0.0
 10
-2.379871961805555
 20
-1.525660536024305
 30
0.0
  0
SPLINE
  5
F1
330
22
100
AcDbEntity
  8
LAYER_1
 62
     7
100
AcDbSpline
210
0.0
220
0.0
230
1.0
 70
    11
 71
     3
 72
    17
 73
    13
 74
     0
 42
0.0000000001
 43
0.0000000001
 40
0.0
 40
0.0
 40
0.0
 40
0.0
 40
1.0
 40
1.0
 40
1.0
 40
2.0
 40
2.0
 40
2.0
 40
3.0
 40
3.0
 40
3.0
 40
4.0
 40
4.0
 40
4.0
 40
4.0
 10
25.67836371527778
 20
3.516581217447917
 30
0.0
 10
25.75450032552083
 20
3.487297905815972
 30
0.0
 10
25.852685546875
 20
3.619589572482639
 30
0.0
 10
25.91848687065972
 20
3.646805826822916
 30
0.0
 10
25.846484375
 20
3.619245062934028
 30
0.0
 10
25.78895128038194
 20
3.716396755642361
 30
0.0
 10
25.69111056857639
 20
3.715707736545139
 30
0.0
 10
25.55640733506944
 20
3.703994411892361
 30
0.0
 10
25.48784993489583
 20
3.646116807725694
 30
0.0
 10
25.46649034288194
 20
3.591684299045139
 30
0.0
 10
25.50197482638889
 20
3.617178005642361
 30
0.0
 10
25.52298990885416
 20
3.501422797309028
 30
0.0
 10
25.67836371527778
 20
3.516581217447917
 30
0.0
  0
SPLINE
  5
F0
330
22
100
AcDbEntity
  8
LAYER_1
 62
     7
100
AcDbSpline
210
0.0
220
0.0
230
1.0
 70
    11
 71
     3
 72
    17
 73
    13
 74
     0
 42
0.0000000001
 43
0.0000000001
 40
0.0
 40
0.0
 40
0.0
 40
0.0
 40
1.0
 40
1.0
 40
1.0
 40
2.0
 40
2.0
 40
2.0
 40
3.0
 40
3.0
 40
3.0
 40
4.0
 40
4.0
 40
4.0
 40
4.0
 10
23.92928873697916
 20
2.639115397135416
 30
0.0
 10
24.00818142361111
 20
2.653240288628472
 30
0.0
 10
24.05951334635417
 20
2.720075141059028
 30
0.0
 10
24.04125434027777
 20
2.760727267795139
 30
0.0
 10
24.0698486328125
 20
2.860979546440972
 30
0.0
 10
24.02471788194444
 20
2.866147189670139
 30
0.0
 10
23.8962158203125
 20
2.899564615885416
 30
0.0
 10
23.81112196180555
 20
2.881650119357639
 30
0.0
 10
23.7783935546875
 20
2.851677788628472
 30
0.0
 10
23.744287109375
 20
2.768995496961805
 30
0.0
 10
23.80250922309028
 20
2.716630045572916
 30
0.0
 10
23.87416720920139
 20
2.660130479600694
 30
0.0
 10
23.92928873697916
 20
2.639115397135416
 30
0.0
  0
SPLINE
  5
EF
330
22
100
AcDbEntity
  8
LAYER_1
 62
     7
100
AcDbSpline
210
0.0
220
0.0
230
1.0
 70
    11
 71
     3
 72
    17
 73
    13
 74
     0
 42
0.0000000001
 43
0.0000000001
 40
0.0
 40
0.0
 40
0.0
 40
0.0
 40
1.0
 40
1.0
 40
1.0
 40
2.0
 40
2.0
 40
2.0
 40
3.0
 40
3.0
 40
3.0
 40
4.0
 40
4.0
 40
4.0
 40
4.0
 10
0.9877088758680555
 20
-5.137843153211805
 30
0.0
 10
1.066946072048611
 20
-5.123718261718749
 30
0.0
 10
1.117933485243055
 20
-5.056883409288194
 30
0.0
 10
1.099674479166667
 20
-5.016231282552083
 30
0.0
 10
1.128268771701389
 20
-4.91597900390625
 30
0.0
 10
1.083138020833333
 20
-4.911155870225694
 30
0.0
 10
0.9546359592013888
 20
-4.877738444010416
 30
0.0
 10
0.8695421006944444
 20
-4.895652940538194
 30
0.0
 10
0.8368136935763888
 20
-4.925625271267361
 30
0.0
 10
0.8027072482638888
 20
-5.008307562934028
 30
0.0
 10
0.8609293619791666
 20
-5.060673014322917
 30
0.0
 10
0.9325873480902777
 20
-5.117172580295138
 30
0.0
 10
0.9877088758680555
 20
-5.137843153211805
 30
0.0
  0
SPLINE
  5
EE
330
22
100
AcDbEntity
  8
LAYER_1
 62
     7
100
AcDbSpline
210
0.0
220
0.0
230
1.0
 70
    11
 71
     3
 72
    17
 73
    13
 74
     0
 42
0.0000000001
 43
0.0000000001
 40
0.0
 40
0.0
 40
0.0
 40
0.0
 40
1.0
 40
1.0
 40
1.0
 40
2.0
 40
2.0
 40
2.0
 40
3.0
 40
3.0
 40
3.0
 40
4.0
 40
4.0
 40
4.0
 40
4.0
 10
-4.010091145833333
 20
-5.21363525390625
 30
0.0
 10
-3.987698025173611
 20
-5.245674641927083
 30
0.0
 10
-3.813376193576389
 20
-5.168849012586805
 30
0.0
 10
-3.819577365451389
 20
-5.112693956163194
 30
0.0
 10
-3.805452473958333
 20
-5.026566569010416
 30
0.0
 10
-3.985286458333333
 20
-4.878771972656249
 30
0.0
 10
-3.987353515625
 20
-4.920457628038194
 30
0.0
 10
-4.006990559895833
 20
-4.881528049045138
 30
0.0
 10
-4.126190863715277
 20
-4.983502875434027
 30
0.0
 10
-4.157541232638889
 20
-5.073764377170138
 30
0.0
 10
-4.10517578125
 20
-5.176772732204861
 30
0.0
 10
-4.032139756944444
 20
-5.192964680989583
 30
0.0
 10
-4.010091145833333
 20
-5.21363525390625
 30
0.0
  0
SPLINE
  5
ED
330
22
100
AcDbEntity
  8
LAYER_1
 62
     7
100
AcDbSpline
210
0.0
220
0.0
230
1.0
 70
    11
 71
     3
 72
    17
 73
    13
 74
     0
 42
0.0000000001
 43
0.0000000001
 40
0.0
 40
0.0
 40
0.0
 40
0.0
 40
1.0
 40
1.0
 40
1.0
 40
2.0
 40
2.0
 40
2.0
 40
3.0
 40
3.0
 40
3.0
 40
4.0
 40
4.0
 40
4.0
 40
4.0
 10
-4.298101128472222
 20
-6.844887966579861
 30
0.0
 10
-4.145138888888889
 20
-6.856945800781249
 30
0.0
 10
-4.127568901909722
 20
-6.77667507595486
 30
0.0
 10
-4.109309895833333
 20
-6.674355740017361
 30
0.0
 10
-4.1454833984375
 20
-6.615789116753471
 30
0.0
 10
-4.138248697916667
 20
-6.508646647135416
 30
0.0
 10
-4.317049153645833
 20
-6.534484863281249
 30
0.0
 10
-4.425914171006944
 20
-6.470750596788194
 30
0.0
 10
-4.461054144965277
 20
-6.566868760850694
 30
0.0
 10
-4.490337456597222
 20
-6.668499077690972
 30
0.0
 10
-4.468977864583333
 20
-6.77633056640625
 30
0.0
 10
-4.35356716579861
 20
-6.796656629774305
 30
0.0
 10
-4.298101128472222
 20
-6.844887966579861
 30
0.0
  0
SPLINE
  5
EC
330
22
100
AcDbEntity
  8
LAYER_1
 62
     7
100
AcDbSpline
210
0.0
220
0.0
230
1.0
 70
    11
 71
     3
 72
    17
 73
    13
 74
     0
 42
0.0000000001
 43
0.0000000001
 40
0.0
 40
0.0
 40
0.0
 40
0.0
 40
1.0
 40
1.0
 40
1.0
 40
2.0
 40
2.0
 40
2.0
 40
3.0
 40
3.0
 40
3.0
 40
4.0
 40
4.0
 40
4.0
 40
4.0
 10
-13.89441460503472
 20
5.266345214843749
 30
0.0
 10
-13.74145236545139
 20
5.254287380642361
 30
0.0
 10
-13.72388237847222
 20
5.33455810546875
 30
0.0
 10
-13.70562337239583
 20
5.436877441406249
 30
0.0
 10
-13.74145236545139
 20
5.495444064670139
 30
0.0
 10
-13.73456217447917
 20
5.602931043836805
 30
0.0
 10
-13.91336263020833
 20
5.576748318142361
 30
0.0
 10
-14.02222764756944
 20
5.640482584635416
 30
0.0
 10
-14.05736762152778
 20
5.544364420572916
 30
0.0
 10
-14.08630642361111
 20
5.442734103732638
 30
0.0
 10
-14.06529134114583
 20
5.33490261501736
 30
0.0
 10
-13.94988064236111
 20
5.314576551649305
 30
0.0
 10
-13.89441460503472
 20
5.266345214843749
 30
0.0
  0
SPLINE
  5
EB
330
22
100
AcDbEntity
  8
LAYER_1
 62
     7
100
AcDbSpline
210
0.0
220
0.0
230
1.0
 70
    11
 71
     3
 72
    17
 73
    13
 74
     0
 42
0.0000000001
 43
0.0000000001
 40
0.0
 40
0.0
 40
0.0
 40
0.0
 40
1.0
 40
1.0
 40
1.0
 40
2.0
 40
2.0
 40
2.0
 40
3.0
 40
3.0
 40
3.0
 40
4.0
 40
4.0
 40
4.0
 40
4.0
 10
-2.567974175347222
 20
-6.981658257378472
 30
0.0
 10
-2.428792317708333
 20
-7.00577392578125
 30
0.0
 10
-2.401920572916667
 20
-6.959954155815971
 30
0.0
 10
-2.404676649305555
 20
-6.909655761718749
 30
0.0
 10
-2.374359809027778
 20
-6.855567762586805
 30
0.0
 10
-2.427414279513889
 20
-6.829040527343749
 30
0.0
 10
-2.550404188368055
 20
-6.862457953559027
 30
0.0
 10
-2.628263346354166
 20
-6.851778157552083
 30
0.0
 10
-2.698543294270833
 20
-6.873826768663194
 30
0.0
 10
-2.727826605902778
 20
-6.939628092447916
 30
0.0
 10
-2.685796440972222
 20
-6.947896321614583
 30
0.0
 10
-2.644110785590278
 20
-6.990960015190971
 30
0.0
 10
-2.567974175347222
 20
-6.981658257378472
 30
0.0
  0
SPLINE
  5
EA
330
22
100
AcDbEntity
  8
LAYER_1
 62
     7
100
AcDbSpline
210
0.0
220
0.0
230
1.0
 70
    11
 71
     3
 72
    17
 73
    13
 74
     0
 42
0.0000000001
 43
0.0000000001
 40
0.0
 40
0.0
 40
0.0
 40
0.0
 40
1.0
 40
1.0
 40
1.0
 40
2.0
 40
2.0
 40
2.0
 40
3.0
 40
3.0
 40
3.0
 40
4.0
 40
4.0
 40
4.0
 40
4.0
 10
9.722748480902776
 20
0.5045342339409722
 30
0.0
 10
9.790272352430554
 20
0.5007446289062499
 30
0.0
 10
9.832302517361111
 20
0.5806708441840277
 30
0.0
 10
9.849527994791666
 20
0.6478502061631943
 30
0.0
 10
9.832302517361111
 20
0.7043497721354166
 30
0.0
 10
9.827479383680554
 20
0.7677395290798611
 30
0.0
 10
9.684163411458332
 20
0.7460354275173611
 30
0.0
 10
9.644544813368055
 20
0.7091729058159721
 30
0.0
 10
9.529478624131944
 20
0.7074503580729166
 30
0.0
 10
9.581844075520833
 20
0.5961737738715277
 30
0.0
 10
9.612849934895833
 20
0.5231377495659721
 30
0.0
 10
9.660736762152776
 20
0.5103908962673611
 30
0.0
 10
9.722748480902776
 20
0.5045342339409722
 30
0.0
  0
SPLINE
  5
E9
330
22
100
AcDbEntity
  8
LAYER_1
 62
     7
100
AcDbSpline
210
0.0
220
0.0
230
1.0
 70
    11
 71
     3
 72
    17
 73
    13
 74
     0
 42
0.0000000001
 43
0.0000000001
 40
0.0
 40
0.0
 40
0.0
 40
0.0
 40
1.0
 40
1.0
 40
1.0
 40
2.0
 40
2.0
 40
2.0
 40
3.0
 40
3.0
 40
3.0
 40
4.0
 40
4.0
 40
4.0
 40
4.0
 10
30.2524169921875
 20
1.031289333767361
 30
0.0
 10
30.27067599826389
 20
1.037835015190972
 30
0.0
 10
30.42191569010416
 20
1.08365478515625
 30
0.0
 10
30.37816297743055
 20
1.124995930989583
 30
0.0
 10
30.40606825086805
 20
1.226626247829861
 30
0.0
 10
30.36610514322916
 20
1.248330349392361
 30
0.0
 10
30.18041449652777
 20
1.255220540364583
 30
0.0
 10
30.06603732638889
 20
1.240751139322917
 30
0.0
 10
30.04433322482639
 20
1.211123318142361
 30
0.0
 10
29.98025444878472
 20
1.15496826171875
 30
0.0
 10
29.96268446180555
 20
1.041969129774305
 30
0.0
 10
30.106689453125
 20
1.04644775390625
 30
0.0
 10
30.2524169921875
 20
1.031289333767361
 30
0.0
  0
SPLINE
  5
E8
330
22
100
AcDbEntity
  8
LAYER_1
 62
     7
100
AcDbSpline
210
0.0
220
0.0
230
1.0
 70
    11
 71
     3
 72
    17
 73
    13
 74
     0
 42
0.0000000001
 43
0.0000000001
 40
0.0
 40
0.0
 40
0.0
 40
0.0
 40
1.0
 40
1.0
 40
1.0
 40
2.0
 40
2.0
 40
2.0
 40
3.0
 40
3.0
 40
3.0
 40
4.0
 40
4.0
 40
4.0
 40
4.0
 10
12.44402940538194
 20
-0.9951158311631944
 30
0.0
 10
12.557373046875
 20
-0.9823689778645832
 30
0.0
 10
12.59630262586805
 20
-0.907265896267361
 30
0.0
 10
12.619384765625
 20
-0.8924519856770833
 30
0.0
 10
12.59802517361111
 20
-0.8238945855034722
 30
0.0
 10
12.54565972222222
 20
-0.7260538736979166
 30
0.0
 10
12.41371256510417
 20
-0.7425903320312499
 30
0.0
 10
12.39373101128472
 20
-0.7150295681423611
 30
0.0
 10
12.309326171875
 20
-0.7856540256076389
 30
0.0
 10
12.29761284722222
 20
-0.8504218207465277
 30
0.0
 10
12.32310655381944
 20
-0.9348266601562499
 30
0.0
 10
12.37374945746528
 20
-0.9623874240451388
 30
0.0
 10
12.44402940538194
 20
-0.9951158311631944
 30
0.0
  0
SPLINE
  5
E7
330
22
100
AcDbEntity
  8
LAYER_1
 62
     7
100
AcDbSpline
210
0.0
220
0.0
230
1.0
 70
    11
 71
     3
 72
    17
 73
    13
 74
     0
 42
0.0000000001
 43
0.0000000001
 40
0.0
 40
0.0
 40
0.0
 40
0.0
 40
1.0
 40
1.0
 40
1.0
 40
2.0
 40
2.0
 40
2.0
 40
3.0
 40
3.0
 40
3.0
 40
4.0
 40
4.0
 40
4.0
 40
4.0
 10
31.54260525173611
 20
0.7884101019965277
 30
0.0
 10
31.57981228298611
 20
0.7777303059895833
 30
0.0
 10
31.71520453559027
 20
0.7849650065104166
 30
0.0
 10
31.64354654947917
 20
0.8748819986979166
 30
0.0
 10
31.71107042100694
 20
0.9413723415798611
 30
0.0
 10
31.63562282986111
 20
0.9861585828993055
 30
0.0
 10
31.53950466579861
 20
1.01234130859375
 30
0.0
 10
31.45131022135416
 20
0.9923597547743055
 30
0.0
 10
31.34416775173611
 20
0.9778903537326388
 30
0.0
 10
31.37138400607639
 20
0.8552449544270833
 30
0.0
 10
31.38826497395833
 20
0.8345743815104166
 30
0.0
 10
31.45165473090277
 20
0.7281209309895833
 30
0.0
 10
31.54260525173611
 20
0.7884101019965277
 30
0.0
  0
SPLINE
  5
E6
330
22
100
AcDbEntity
  8
LAYER_1
 62
     7
100
AcDbSpline
210
0.0
220
0.0
230
1.0
 70
    11
 71
     3
 72
    17
 73
    13
 74
     0
 42
0.0000000001
 43
0.0000000001
 40
0.0
 40
0.0
 40
0.0
 40
0.0
 40
1.0
 40
1.0
 40
1.0
 40
2.0
 40
2.0
 40
2.0
 40
3.0
 40
3.0
 40
3.0
 40
4.0
 40
4.0
 40
4.0
 40
4.0
 10
16.21330837673611
 20
-1.690680609809028
 30
0.0
 10
16.26601833767361
 20
-1.70687255859375
 30
0.0
 10
16.27704264322917
 20
-1.630046929253472
 30
0.0
 10
16.33354220920139
 20
-1.571824815538194
 30
0.0
 10
16.32665201822917
 20
-1.527727593315972
 30
0.0
 10
16.26085069444444
 20
-1.441255696614583
 30
0.0
 10
16.19229329427083
 20
-1.461237250434028
 30
0.0
 10
16.17644585503472
 20
-1.444011773003472
 30
0.0
 10
16.0982421875
 20
-1.530828179253472
 30
0.0
 10
16.14337293836805
 20
-1.550465223524306
 30
0.0
 10
16.12511393229167
 20
-1.673455132378472
 30
0.0
 10
16.13200412326389
 20
-1.688958062065972
 30
0.0
 10
16.21330837673611
 20
-1.690680609809028
 30
0.0
  0
SPLINE
  5
E5
330
22
100
AcDbEntity
  8
LAYER_1
 62
     7
100
AcDbSpline
210
0.0
220
0.0
230
1.0
 70
    11
 71
     3
 72
    17
 73
    13
 74
     0
 42
0.0000000001
 43
0.0000000001
 40
0.0
 40
0.0
 40
0.0
 40
0.0
 40
1.0
 40
1.0
 40
1.0
 40
2.0
 40
2.0
 40
2.0
 40
3.0
 40
3.0
 40
3.0
 40
4.0
 40
4.0
 40
4.0
 40
4.0
 10
31.855419921875
 20
1.590083821614583
 30
0.0
 10
31.89676106770833
 20
1.60145263671875
 30
0.0
 10
32.05041232638889
 20
1.715140787760417
 30
0.0
 10
32.04352213541667
 20
1.813670518663194
 30
0.0
 10
32.04593370225694
 20
1.89290771484375
 30
0.0
 10
31.9515380859375
 20
1.971455891927083
 30
0.0
 10
31.85059678819444
 20
1.966632758246528
 30
0.0
 10
31.65973849826388
 20
1.908066134982639
 30
0.0
 10
31.58015679253472
 20
1.849155002170139
 30
0.0
 10
31.64320203993055
 20
1.830551486545139
 30
0.0
 10
31.64044596354166
 20
1.677589246961805
 30
0.0
 10
31.66421712239583
 20
1.614888509114583
 30
0.0
 10
31.855419921875
 20
1.590083821614583
 30
0.0
  0
SPLINE
  5
E4
330
22
100
AcDbEntity
  8
LAYER_1
 62
     7
100
AcDbSpline
210
0.0
220
0.0
230
1.0
 70
    11
 71
     3
 72
    17
 73
    13
 74
     0
 42
0.0000000001
 43
0.0000000001
 40
0.0
 40
0.0
 40
0.0
 40
0.0
 40
1.0
 40
1.0
 40
1.0
 40
2.0
 40
2.0
 40
2.0
 40
3.0
 40
3.0
 40
3.0
 40
4.0
 40
4.0
 40
4.0
 40
4.0
 10
13.88890245225694
 20
-0.9055433485243055
 30
0.0
 10
13.9247314453125
 20
-0.8486992730034721
 30
0.0
 10
14.02670627170139
 20
-0.8497328016493054
 30
0.0
 10
14.05771213107639
 20
-0.7377671983506944
 30
0.0
 10
14.008447265625
 20
-0.7064168294270833
 30
0.0
 10
13.97261827256944
 20
-0.6313137478298611
 30
0.0
 10
13.84377170138889
 20
-0.6320027669270832
 30
0.0
 10
13.81552191840278
 20
-0.6113321940104166
 30
0.0
 10
13.71285807291667
 20
-0.6960815429687499
 30
0.0
 10
13.72663845486111
 20
-0.764638943142361
 30
0.0
 10
13.76108940972222
 20
-0.8524888780381944
 30
0.0
 10
13.80587565104167
 20
-0.8859063042534722
 30
0.0
 10
13.88890245225694
 20
-0.9055433485243055
 30
0.0
  0
SPLINE
  5
E3
330
22
100
AcDbEntity
  8
LAYER_1
 62
     7
100
AcDbSpline
210
0.0
220
0.0
230
1.0
 70
    11
 71
     3
 72
    17
 73
    13
 74
     0
 42
0.0000000001
 43
0.0000000001
 40
0.0
 40
0.0
 40
0.0
 40
0.0
 40
1.0
 40
1.0
 40
1.0
 40
2.0
 40
2.0
 40
2.0
 40
3.0
 40
3.0
 40
3.0
 40
4.0
 40
4.0
 40
4.0
 40
4.0
 10
13.21848687065972
 20
0.9334486219618055
 30
0.0
 10
13.24845920138889
 20
0.9062323676215277
 30
0.0
 10
13.33217502170139
 20
0.9503295898437499
 30
0.0
 10
13.33665364583333
 20
1.011996799045139
 30
0.0
 10
13.29737955729167
 20
1.06815185546875
 30
0.0
 10
13.27188585069444
 20
1.085377332899306
 30
0.0
 10
13.23054470486111
 20
1.092267523871528
 30
0.0
 10
13.17990180121528
 20
1.090544976128472
 30
0.0
 10
13.15303005642361
 20
1.038179524739583
 30
0.0
 10
13.10927734375
 20
1.020265028211806
 30
0.0
 10
13.11685655381944
 20
0.9530856662326388
 30
0.0
 10
13.14924045138889
 20
0.9461954752604166
 30
0.0
 10
13.21848687065972
 20
0.9334486219618055
 30
0.0
  0
SPLINE
  5
E2
330
22
100
AcDbEntity
  8
LAYER_1
 62
     7
100
AcDbSpline
210
0.0
220
0.0
230
1.0
 70
    11
 71
     3
 72
    17
 73
    13
 74
     0
 42
0.0000000001
 43
0.0000000001
 40
0.0
 40
0.0
 40
0.0
 40
0.0
 40
1.0
 40
1.0
 40
1.0
 40
2.0
 40
2.0
 40
2.0
 40
3.0
 40
3.0
 40
3.0
 40
4.0
 40
4.0
 40
4.0
 40
4.0
 10
-0.8881456163194443
 20
-0.2034328884548611
 30
0.0
 10
-0.8581732855902777
 20
-0.23099365234375
 30
0.0
 10
-0.7744574652777777
 20
-0.1865519205729166
 30
0.0
 10
-0.7699788411458333
 20
-0.1248847113715278
 30
0.0
 10
-0.8092529296875
 20
-0.0687296549479167
 30
0.0
 10
-0.834402126736111
 20
-0.0518486870659722
 30
0.0
 10
-0.8757432725694444
 20
-0.0446139865451389
 30
0.0
 10
-0.9267306857638888
 20
-0.0463365342881944
 30
0.0
 10
-0.9536024305555555
 20
-0.0987019856770833
 30
0.0
 10
-0.9973551432291666
 20
-0.1166164822048611
 30
0.0
 10
-0.9897759331597221
 20
-0.1837958441840278
 30
0.0
 10
-0.9570475260416665
 20
-0.19068603515625
 30
0.0
 10
-0.8881456163194443
 20
-0.2034328884548611
 30
0.0
  0
SPLINE
  5
E1
330
22
100
AcDbEntity
  8
LAYER_1
 62
     7
100
AcDbSpline
210
0.0
220
0.0
230
1.0
 70
    11
 71
     3
 72
    17
 73
    13
 74
     0
 42
0.0000000001
 43
0.0000000001
 40
0.0
 40
0.0
 40
0.0
 40
0.0
 40
1.0
 40
1.0
 40
1.0
 40
2.0
 40
2.0
 40
2.0
 40
3.0
 40
3.0
 40
3.0
 40
4.0
 40
4.0
 40
4.0
 40
4.0
 10
2.304768880208333
 20
-2.504067654079861
 30
0.0
 10
2.3347412109375
 20
-2.531283908420139
 30
0.0
 10
2.41845703125
 20
-2.487186686197917
 30
0.0
 10
2.422935655381944
 20
-2.425519476996528
 30
0.0
 10
2.383661566840277
 20
-2.369364420572917
 30
0.0
 10
2.358167860243055
 20
-2.352138943142361
 30
0.0
 10
2.316826714409722
 20
-2.344904242621527
 30
0.0
 10
2.266183810763889
 20
-2.346971299913194
 30
0.0
 10
2.239312065972222
 20
-2.399336751302083
 30
0.0
 10
2.195559353298611
 20
-2.417251247829861
 30
0.0
 10
2.202794053819444
 20
-2.484430609809027
 30
0.0
 10
2.2355224609375
 20
-2.49132080078125
 30
0.0
 10
2.304768880208333
 20
-2.504067654079861
 30
0.0
  0
SPLINE
  5
E0
330
22
100
AcDbEntity
  8
LAYER_1
 62
     7
100
AcDbSpline
210
0.0
220
0.0
230
1.0
 70
    11
 71
     3
 72
    17
 73
    13
 74
     0
 42
0.0000000001
 43
0.0000000001
 40
0.0
 40
0.0
 40
0.0
 40
0.0
 40
1.0
 40
1.0
 40
1.0
 40
2.0
 40
2.0
 40
2.0
 40
3.0
 40
3.0
 40
3.0
 40
4.0
 40
4.0
 40
4.0
 40
4.0
 10
15.42782660590278
 20
0.7105509440104166
 30
0.0
 10
15.53255750868055
 20
0.6733439127604166
 30
0.0
 10
15.52049967447917
 20
0.7494805230034721
 30
0.0
 10
15.59353569878472
 20
0.83870849609375
 30
0.0
 10
15.571142578125
 20
0.8611016167534722
 30
0.0
 10
15.48639322916667
 20
0.9482625325520833
 30
0.0
 10
15.44643012152778
 20
0.9482625325520833
 30
0.0
 10
15.3447998046875
 20
0.9286254882812499
 30
0.0
 10
15.24764811197917
 20
0.8872843424479165
 30
0.0
 10
15.29622395833333
 20
0.7946112738715278
 30
0.0
 10
15.30001356336805
 20
0.7294989691840277
 30
0.0
 10
15.34686686197917
 20
0.6936699761284721
 30
0.0
 10
15.42782660590278
 20
0.7105509440104166
 30
0.0
  0
SPLINE
  5
DF
330
22
100
AcDbEntity
  8
LAYER_1
 62
     7
100
AcDbSpline
210
0.0
220
0.0
230
1.0
 70
    11
 71
     3
 72
    17
 73
    13
 74
     0
 42
0.0000000001
 43
0.0000000001
 40
0.0
 40
0.0
 40
0.0
 40
0.0
 40
1.0
 40
1.0
 40
1.0
 40
2.0
 40
2.0
 40
2.0
 40
3.0
 40
3.0
 40
3.0
 40
4.0
 40
4.0
 40
4.0
 40
4.0
 10
16.90818413628472
 20
-0.0018948025173611
 30
0.0
 10
17.02393934461805
 20
0.0101630316840278
 30
0.0
 10
17.08181694878472
 20
0.0766533745659722
 30
0.0
 10
17.06941460503472
 20
0.1097262912326389
 30
0.0
 10
17.01222601996528
 20
0.2241034613715278
 30
0.0
 10
16.95882703993055
 20
0.2671671549479167
 30
0.0
 10
16.947802734375
 20
0.2709567599826389
 30
0.0
 10
16.81895616319444
 20
0.28680419921875
 30
0.0
 10
16.78381618923611
 20
0.2268595377604167
 30
0.0
 10
16.74488661024305
 20
0.1148939344618055
 30
0.0
 10
16.72214898003472
 20
0.0611504448784722
 30
0.0
 10
16.79931911892361
 20
-0.0060289171006944
 30
0.0
 10
16.90818413628472
 20
-0.0018948025173611
 30
0.0
  0
SPLINE
  5
DE
330
22
100
AcDbEntity
  8
LAYER_1
 62
     7
100
AcDbSpline
210
0.0
220
0.0
230
1.0
 70
    11
 71
     3
 72
    17
 73
    13
 74
     0
 42
0.0000000001
 43
0.0000000001
 40
0.0
 40
0.0
 40
0.0
 40
0.0
 40
1.0
 40
1.0
 40
1.0
 40
2.0
 40
2.0
 40
2.0
 40
3.0
 40
3.0
 40
3.0
 40
4.0
 40
4.0
 40
4.0
 40
4.0
 10
-28.70419108072916
 20
20.77340901692708
 30
0.0
 10
-28.63701171875
 20
20.76961941189236
 30
0.0
 10
-28.59463704427083
 20
20.84920111762153
 30
0.0
 10
-28.57741156684028
 20
20.91672498914931
 30
0.0
 10
-28.59498155381944
 20
20.97322455512153
 30
0.0
 10
-28.59946017795139
 20
21.03626980251736
 30
0.0
 10
-28.74312065972222
 20
21.01491021050347
 30
0.0
 10
-28.7827392578125
 20
20.97770317925347
 30
0.0
 10
-28.89780544704861
 20
20.97632514105903
 30
0.0
 10
-28.84543999565972
 20
20.86470404730903
 30
0.0
 10
-28.81408962673611
 20
20.79201253255208
 30
0.0
 10
-28.76654730902778
 20
20.77926567925347
 30
0.0
 10
-28.70419108072916
 20
20.77340901692708
 30
0.0
  0
SPLINE
  5
DD
330
22
100
AcDbEntity
  8
LAYER_1
 62
     7
100
AcDbSpline
210
0.0
220
0.0
230
1.0
 70
    11
 71
     3
 72
    17
 73
    13
 74
     0
 42
0.0000000001
 43
0.0000000001
 40
0.0
 40
0.0
 40
0.0
 40
0.0
 40
1.0
 40
1.0
 40
1.0
 40
2.0
 40
2.0
 40
2.0
 40
3.0
 40
3.0
 40
3.0
 40
4.0
 40
4.0
 40
4.0
 40
4.0
 10
-30.702001953125
 20
17.94705268012153
 30
0.0
 10
-30.58865831163194
 20
17.95979953342014
 30
0.0
 10
-30.54972873263889
 20
18.03490261501736
 30
0.0
 10
-30.52664659288194
 20
18.04937201605903
 30
0.0
 10
-30.54800618489583
 20
18.11792941623264
 30
0.0
 10
-30.60037163628472
 20
18.2161146375868
 30
0.0
 10
-30.73231879340278
 20
18.19957817925347
 30
0.0
 10
-30.75230034722222
 20
18.22713894314236
 30
0.0
 10
-30.83636067708333
 20
18.15651448567708
 30
0.0
 10
-30.84841851128472
 20
18.09174669053819
 30
0.0
 10
-30.82326931423611
 20
18.00734185112847
 30
0.0
 10
-30.77228190104166
 20
17.97978108723958
 30
0.0
 10
-30.702001953125
 20
17.94705268012153
 30
0.0
  0
SPLINE
  5
DC
330
22
100
AcDbEntity
  8
LAYER_1
 62
     7
100
AcDbSpline
210
0.0
220
0.0
230
1.0
 70
    11
 71
     3
 72
    17
 73
    13
 74
     0
 42
0.0000000001
 43
0.0000000001
 40
0.0
 40
0.0
 40
0.0
 40
0.0
 40
1.0
 40
1.0
 40
1.0
 40
2.0
 40
2.0
 40
2.0
 40
3.0
 40
3.0
 40
3.0
 40
4.0
 40
4.0
 40
4.0
 40
4.0
 10
-26.93306749131944
 20
17.25114339192708
 30
0.0
 10
-26.88001302083333
 20
17.23529595269097
 30
0.0
 10
-26.86898871527778
 20
17.31212158203125
 30
0.0
 10
-26.81248914930555
 20
17.37034369574653
 30
0.0
 10
-26.81937934027777
 20
17.41444091796875
 30
0.0
 10
-26.8851806640625
 20
17.50056830512153
 30
0.0
 10
-26.95373806423611
 20
17.48093126085069
 30
0.0
 10
-26.96958550347222
 20
17.49815673828125
 30
0.0
 10
-27.04744466145833
 20
17.41099582248264
 30
0.0
 10
-27.00265842013889
 20
17.39170328776041
 30
0.0
 10
-27.02091742621527
 20
17.26871337890625
 30
0.0
 10
-27.01402723524305
 20
17.25321044921875
 30
0.0
 10
-26.93306749131944
 20
17.25114339192708
 30
0.0
  0
SPLINE
  5
DB
330
22
100
AcDbEntity
  8
LAYER_1
 62
     7
100
AcDbSpline
210
0.0
220
0.0
230
1.0
 70
    11
 71
     3
 72
    17
 73
    13
 74
     0
 42
0.0000000001
 43
0.0000000001
 40
0.0
 40
0.0
 40
0.0
 40
0.0
 40
1.0
 40
1.0
 40
1.0
 40
2.0
 40
2.0
 40
2.0
 40
3.0
 40
3.0
 40
3.0
 40
4.0
 40
4.0
 40
4.0
 40
4.0
 10
-29.25712890625
 20
18.0362806532118
 30
0.0
 10
-29.22129991319444
 20
18.09346923828125
 30
0.0
 10
-29.11932508680555
 20
18.0920912000868
 30
0.0
 10
-29.08831922743055
 20
18.20405680338542
 30
0.0
 10
-29.13758409288194
 20
18.23575168185764
 30
0.0
 10
-29.1734130859375
 20
18.31085476345486
 30
0.0
 10
-29.30191514756944
 20
18.30982123480903
 30
0.0
 10
-29.33050944010417
 20
18.3308363172743
 30
0.0
 10
-29.43317328559028
 20
18.24608696831597
 30
0.0
 10
-29.41939290364583
 20
18.17752956814236
 30
0.0
 10
-29.38528645833333
 20
18.08967963324653
 30
0.0
 10
-29.34015570746528
 20
18.05591769748264
 30
0.0
 10
-29.25712890625
 20
18.0362806532118
 30
0.0
  0
SPLINE
  5
DA
330
22
100
AcDbEntity
  8
LAYER_1
 62
     7
100
AcDbSpline
210
0.0
220
0.0
230
1.0
 70
    11
 71
     3
 72
    17
 73
    13
 74
     0
 42
0.0000000001
 43
0.0000000001
 40
0.0
 40
0.0
 40
0.0
 40
0.0
 40
1.0
 40
1.0
 40
1.0
 40
2.0
 40
2.0
 40
2.0
 40
3.0
 40
3.0
 40
3.0
 40
4.0
 40
4.0
 40
4.0
 40
4.0
 10
-29.92754448784722
 20
19.87561713324653
 30
0.0
 10
-29.89757215711805
 20
19.84805636935764
 30
0.0
 10
-29.81385633680555
 20
19.89249810112847
 30
0.0
 10
-29.80937771267361
 20
19.95416531032986
 30
0.0
 10
-29.84865180121528
 20
20.00997585720486
 30
0.0
 10
-29.87380099826389
 20
20.02720133463541
 30
0.0
 10
-29.91514214409722
 20
20.03443603515625
 30
0.0
 10
-29.96612955729166
 20
20.03271348741319
 30
0.0
 10
-29.99300130208333
 20
19.9803480360243
 30
0.0
 10
-30.03675401475694
 20
19.96243353949653
 30
0.0
 10
-30.0291748046875
 20
19.89525417751736
 30
0.0
 10
-29.99644639756944
 20
19.88836398654514
 30
0.0
 10
-29.92754448784722
 20
19.87561713324653
 30
0.0
  0
SPLINE
  5
D9
330
22
100
AcDbEntity
  8
LAYER_1
 62
     7
100
AcDbSpline
210
0.0
220
0.0
230
1.0
 70
    11
 71
     3
 72
    17
 73
    13
 74
     0
 42
0.0000000001
 43
0.0000000001
 40
0.0
 40
0.0
 40
0.0
 40
0.0
 40
1.0
 40
1.0
 40
1.0
 40
2.0
 40
2.0
 40
2.0
 40
3.0
 40
3.0
 40
3.0
 40
4.0
 40
4.0
 40
4.0
 40
4.0
 10
-27.71854926215277
 20
19.65271945529514
 30
0.0
 10
-27.61347384982639
 20
19.61551242404514
 30
0.0
 10
-27.62553168402777
 20
19.69164903428819
 30
0.0
 10
-27.55215115017361
 20
19.78087700737847
 30
0.0
 10
-27.57488878038194
 20
19.80292561848958
 30
0.0
 10
-27.65963812934028
 20
19.8904310438368
 30
0.0
 10
-27.69960123697916
 20
19.8904310438368
 30
0.0
 10
-27.80123155381944
 20
19.87044949001736
 30
0.0
 10
-27.89838324652778
 20
19.82945285373264
 30
0.0
 10
-27.84980740017361
 20
19.73677978515625
 30
0.0
 10
-27.84601779513889
 20
19.67132297092014
 30
0.0
 10
-27.79916449652778
 20
19.63583848741319
 30
0.0
 10
-27.71854926215277
 20
19.65271945529514
 30
0.0
  0
SPLINE
  5
D8
330
22
100
AcDbEntity
  8
LAYER_1
 62
     7
100
AcDbSpline
210
0.0
220
0.0
230
1.0
 70
    11
 71
     3
 72
    17
 73
    13
 74
     0
 42
0.0000000001
 43
0.0000000001
 40
0.0
 40
0.0
 40
0.0
 40
0.0
 40
1.0
 40
1.0
 40
1.0
 40
2.0
 40
2.0
 40
2.0
 40
3.0
 40
3.0
 40
3.0
 40
4.0
 40
4.0
 40
4.0
 40
4.0
 10
-26.23784722222222
 20
18.93992919921875
 30
0.0
 10
-26.12209201388889
 20
18.95233154296875
 30
0.0
 10
-26.06421440972222
 20
19.01847737630208
 30
0.0
 10
-26.07661675347222
 20
19.05189480251736
 30
0.0
 10
-26.13380533854166
 20
19.16627197265625
 30
0.0
 10
-26.18720431857639
 20
19.20933566623264
 30
0.0
 10
-26.19822862413194
 20
19.21312527126736
 30
0.0
 10
-26.3270751953125
 20
19.22897271050347
 30
0.0
 10
-26.36221516927083
 20
19.16902804904514
 30
0.0
 10
-26.40114474826389
 20
19.05706244574652
 30
0.0
 10
-26.42388237847222
 20
19.00331895616319
 30
0.0
 10
-26.34671223958333
 20
18.93613959418403
 30
0.0
 10
-26.23784722222222
 20
18.93992919921875
 30
0.0
  0
SPLINE
  5
D7
330
22
100
AcDbEntity
  8
LAYER_1
 62
     7
100
AcDbSpline
210
0.0
220
0.0
230
1.0
 70
    11
 71
     3
 72
    17
 73
    13
 74
     0
 42
0.0000000001
 43
0.0000000001
 40
0.0
 40
0.0
 40
0.0
 40
0.0
 40
1.0
 40
1.0
 40
1.0
 40
2.0
 40
2.0
 40
2.0
 40
3.0
 40
3.0
 40
3.0
 40
4.0
 40
4.0
 40
4.0
 40
4.0
 10
-15.34307725694444
 20
8.953975423177083
 30
0.0
 10
-15.27589789496528
 20
8.95018581814236
 30
0.0
 10
-15.23352322048611
 20
9.029767523871527
 30
0.0
 10
-15.21629774305555
 20
9.097291395399305
 30
0.0
 10
-15.23386773003472
 20
9.153790961371527
 30
0.0
 10
-15.23834635416667
 20
9.21683620876736
 30
0.0
 10
-15.3820068359375
 20
9.195476616753471
 30
0.0
 10
-15.42162543402778
 20
9.158269585503472
 30
0.0
 10
-15.53669162326389
 20
9.156891547309026
 30
0.0
 10
-15.484326171875
 20
9.045614963107639
 30
0.0
 10
-15.45297580295139
 20
8.972578938802082
 30
0.0
 10
-15.40543348524306
 20
8.959832085503471
 30
0.0
 10
-15.34307725694444
 20
8.953975423177083
 30
0.0
  0
SPLINE
  5
D6
330
22
100
AcDbEntity
  8
LAYER_1
 62
     7
100
AcDbSpline
210
0.0
220
0.0
230
1.0
 70
    11
 71
     3
 72
    17
 73
    13
 74
     0
 42
0.0000000001
 43
0.0000000001
 40
0.0
 40
0.0
 40
0.0
 40
0.0
 40
1.0
 40
1.0
 40
1.0
 40
2.0
 40
2.0
 40
2.0
 40
3.0
 40
3.0
 40
3.0
 40
4.0
 40
4.0
 40
4.0
 40
4.0
 10
-16.5664306640625
 20
8.056183539496526
 30
0.0
 10
-16.53645833333333
 20
8.028622775607639
 30
0.0
 10
-16.45274251302083
 20
8.073064507378472
 30
0.0
 10
-16.44826388888889
 20
8.134731716579861
 30
0.0
 10
-16.48753797743056
 20
8.190886773003472
 30
0.0
 10
-16.51268717447917
 20
8.208112250434027
 30
0.0
 10
-16.5540283203125
 20
8.21534695095486
 30
0.0
 10
-16.60501573350694
 20
8.213279893663193
 30
0.0
 10
-16.63188747829861
 20
8.160914442274304
 30
0.0
 10
-16.67564019097222
 20
8.142999945746528
 30
0.0
 10
-16.66806098090278
 20
8.07582058376736
 30
0.0
 10
-16.63567708333333
 20
8.068930392795139
 30
0.0
 10
-16.5664306640625
 20
8.056183539496526
 30
0.0
  0
SPLINE
  5
D5
330
22
100
AcDbEntity
  8
LAYER_1
 62
     7
100
AcDbSpline
210
0.0
220
0.0
230
1.0
 70
    11
 71
     3
 72
    17
 73
    13
 74
     0
 42
0.0000000001
 43
0.0000000001
 40
0.0
 40
0.0
 40
0.0
 40
0.0
 40
1.0
 40
1.0
 40
1.0
 40
2.0
 40
2.0
 40
2.0
 40
3.0
 40
3.0
 40
3.0
 40
4.0
 40
4.0
 40
4.0
 40
4.0
 10
-14.35709092881944
 20
7.833285861545138
 30
0.0
 10
-14.25236002604167
 20
7.796078830295138
 30
0.0
 10
-14.26441786024305
 20
7.872215440538194
 30
0.0
 10
-14.19103732638889
 20
7.961443413628471
 30
0.0
 10
-14.21377495659722
 20
7.983836534288193
 30
0.0
 10
-14.29852430555556
 20
8.070997450086805
 30
0.0
 10
-14.33848741319444
 20
8.071341959635417
 30
0.0
 10
-14.44011773003472
 20
8.05101589626736
 30
0.0
 10
-14.53726942274306
 20
8.010019259982638
 30
0.0
 10
-14.48869357638889
 20
7.917346191406249
 30
0.0
 10
-14.48490397135417
 20
7.852233886718749
 30
0.0
 10
-14.43805067274306
 20
7.816404893663194
 30
0.0
 10
-14.35709092881944
 20
7.833285861545138
 30
0.0
  0
SPLINE
  5
D4
330
22
100
AcDbEntity
  8
LAYER_1
 62
     7
100
AcDbSpline
210
0.0
220
0.0
230
1.0
 70
    11
 71
     3
 72
    17
 73
    13
 74
     0
 42
0.0000000001
 43
0.0000000001
 40
0.0
 40
0.0
 40
0.0
 40
0.0
 40
1.0
 40
1.0
 40
1.0
 40
2.0
 40
2.0
 40
2.0
 40
3.0
 40
3.0
 40
3.0
 40
4.0
 40
4.0
 40
4.0
 40
4.0
 10
-12.8767333984375
 20
7.120495605468749
 30
0.0
 10
-12.76097819010417
 20
7.13289794921875
 30
0.0
 10
-12.7031005859375
 20
7.199043782552082
 30
0.0
 10
-12.7155029296875
 20
7.232461208767361
 30
0.0
 10
-12.77269151475694
 20
7.34683837890625
 30
0.0
 10
-12.82609049479167
 20
7.389902072482638
 30
0.0
 10
-12.83711480034722
 20
7.39369167751736
 30
0.0
 10
-12.96596137152778
 20
7.409539116753471
 30
0.0
 10
-13.00110134548611
 20
7.349594455295138
 30
0.0
 10
-13.04003092447917
 20
7.237628851996528
 30
0.0
 10
-13.0627685546875
 20
7.183885362413194
 30
0.0
 10
-12.98559841579861
 20
7.116706000434027
 30
0.0
 10
-12.8767333984375
 20
7.120495605468749
 30
0.0
  0
SPLINE
  5
D3
330
22
100
AcDbEntity
  8
LAYER_1
 62
     7
100
AcDbSpline
210
0.0
220
0.0
230
1.0
 70
    11
 71
     3
 72
    17
 73
    13
 74
     0
 42
0.0000000001
 43
0.0000000001
 40
0.0
 40
0.0
 40
0.0
 40
0.0
 40
1.0
 40
1.0
 40
1.0
 40
2.0
 40
2.0
 40
2.0
 40
3.0
 40
3.0
 40
3.0
 40
4.0
 40
4.0
 40
4.0
 40
4.0
 10
4.27880859375
 20
-2.458592393663194
 30
0.0
 10
4.279153103298611
 20
-2.46341552734375
 30
0.0
 10
4.373204210069444
 20
-2.394513617621528
 30
0.0
 10
4.368381076388888
 20
-2.318721516927083
 30
0.0
 10
4.372170681423611
 20
-2.200899251302083
 30
0.0
 10
4.329451497395833
 20
-2.108915201822917
 30
0.0
 10
4.245391167534722
 20
-2.101335991753472
 30
0.0
 10
4.227132161458333
 20
-2.090656195746528
 30
0.0
 10
4.144449869791666
 20
-2.180573187934028
 30
0.0
 10
4.139971245659722
 20
-2.298050944010416
 30
0.0
 10
4.158919270833333
 20
-2.337669542100694
 30
0.0
 10
4.176833767361111
 20
-2.473406304253472
 30
0.0
 10
4.27880859375
 20
-2.458592393663194
 30
0.0
  0
SPLINE
  5
D2
330
22
100
AcDbEntity
  8
LAYER_1
 62
     7
100
AcDbSpline
210
0.0
220
0.0
230
1.0
 70
    11
 71
     3
 72
    17
 73
    13
 74
     0
 42
0.0000000001
 43
0.0000000001
 40
0.0
 40
0.0
 40
0.0
 40
0.0
 40
1.0
 40
1.0
 40
1.0
 40
2.0
 40
2.0
 40
2.0
 40
3.0
 40
3.0
 40
3.0
 40
4.0
 40
4.0
 40
4.0
 40
4.0
 10
4.717369249131944
 20
-1.514980740017361
 30
0.0
 10
4.811075846354166
 20
-1.540129937065972
 30
0.0
 10
4.841392686631944
 20
-1.464337836371528
 30
0.0
 10
4.885145399305555
 20
-1.44332275390625
 30
0.0
 10
4.865852864583333
 20
-1.371320258246528
 30
0.0
 10
4.749064127604166
 20
-1.382344563802083
 30
0.0
 10
4.732872178819444
 20
-1.370975748697917
 30
0.0
 10
4.645366753472222
 20
-1.333424207899306
 30
0.0
 10
4.52685546875
 20
-1.365463595920139
 30
0.0
 10
4.581287977430555
 20
-1.431953938802083
 30
0.0
 10
4.539946831597222
 20
-1.462270779079861
 30
0.0
 10
4.588522677951389
 20
-1.524627007378472
 30
0.0
 10
4.717369249131944
 20
-1.514980740017361
 30
0.0
  0
SPLINE
  5
D1
330
22
100
AcDbEntity
  8
LAYER_1
 62
     7
100
AcDbSpline
210
0.0
220
0.0
230
1.0
 70
    11
 71
     3
 72
    17
 73
    13
 74
     0
 42
0.0000000001
 43
0.0000000001
 40
0.0
 40
0.0
 40
0.0
 40
0.0
 40
1.0
 40
1.0
 40
1.0
 40
2.0
 40
2.0
 40
2.0
 40
3.0
 40
3.0
 40
3.0
 40
4.0
 40
4.0
 40
4.0
 40
4.0
 10
0.6859185112847221
 20
0.3960137261284722
 30
0.0
 10
0.7313937717013889
 20
0.4290866427951389
 30
0.0
 10
0.8154541015625
 20
0.5114244249131944
 30
0.0
 10
0.7841037326388888
 20
0.5382961697048611
 30
0.0
 10
0.7710123697916667
 20
0.6027194552951388
 30
0.0
 10
0.7227810329861111
 20
0.68367919921875
 30
0.0
 10
0.673171657986111
 20
0.6540513780381944
 30
0.0
 10
0.5353678385416666
 20
0.6912584092881944
 30
0.0
 10
0.4823133680555555
 20
0.6282131618923611
 30
0.0
 10
0.5105631510416666
 20
0.5289944118923611
 30
0.0
 10
0.4981608072916666
 20
0.4804185655381944
 30
0.0
 10
0.6022026909722221
 20
0.3925686306423611
 30
0.0
 10
0.6859185112847221
 20
0.3960137261284722
 30
0.0
  0
SPLINE
  5
D0
330
22
100
AcDbEntity
  8
LAYER_1
 62
     7
100
AcDbSpline
210
0.0
220
0.0
230
1.0
 70
    11
 71
     3
 72
    17
 73
    13
 74
     0
 42
0.0000000001
 43
0.0000000001
 40
0.0
 40
0.0
 40
0.0
 40
0.0
 40
1.0
 40
1.0
 40
1.0
 40
2.0
 40
2.0
 40
2.0
 40
3.0
 40
3.0
 40
3.0
 40
4.0
 40
4.0
 40
4.0
 40
4.0
 10
0.5677517361111111
 20
-1.042658148871528
 30
0.0
 10
0.6724826388888888
 20
-1.080209689670139
 30
0.0
 10
0.6604248046875
 20
-1.003728569878472
 30
0.0
 10
0.7338053385416666
 20
-0.9145005967881944
 30
0.0
 10
0.7114122178819444
 20
-0.8924519856770833
 30
0.0
 10
0.6263183593749999
 20
-0.804946560329861
 30
0.0
 10
0.586355251736111
 20
-0.804946560329861
 30
0.0
 10
0.4850694444444444
 20
-0.8249281141493055
 30
0.0
 10
0.3875732421874999
 20
-0.8662692599826388
 30
0.0
 10
0.4361490885416666
 20
-0.9585978190104166
 30
0.0
 10
0.4399386935763889
 20
-1.024054633246528
 30
0.0
 10
0.4867919921875
 20
-1.059539116753472
 30
0.0
 10
0.5677517361111111
 20
-1.042658148871528
 30
0.0
  0
SPLINE
  5
CF
330
22
100
AcDbEntity
  8
LAYER_1
 62
     7
100
AcDbSpline
210
0.0
220
0.0
230
1.0
 70
    11
 71
     3
 72
    17
 73
    13
 74
     0
 42
0.0000000001
 43
0.0000000001
 40
0.0
 40
0.0
 40
0.0
 40
0.0
 40
1.0
 40
1.0
 40
1.0
 40
2.0
 40
2.0
 40
2.0
 40
3.0
 40
3.0
 40
3.0
 40
4.0
 40
4.0
 40
4.0
 40
4.0
 10
27.96487358940972
 20
1.721686469184028
 30
0.0
 10
28.08441840277778
 20
1.769228786892361
 30
0.0
 10
28.14022894965278
 20
1.815048556857639
 30
0.0
 10
28.12782660590278
 20
1.859834798177083
 30
0.0
 10
28.14884168836805
 20
1.947340223524305
 30
0.0
 10
28.12369249131944
 20
2.006595865885417
 30
0.0
 10
27.94730360243055
 20
1.971455891927083
 30
0.0
 10
27.90630696614583
 20
1.992815483940972
 30
0.0
 10
27.8029541015625
 20
1.931492784288194
 30
0.0
 10
27.77539333767361
 20
1.847432454427083
 30
0.0
 10
27.77987196180555
 20
1.839508734809028
 30
0.0
 10
27.86393229166666
 20
1.723409016927083
 30
0.0
 10
27.96487358940972
 20
1.721686469184028
 30
0.0
  0
SPLINE
  5
CE
330
22
100
AcDbEntity
  8
LAYER_1
 62
     7
100
AcDbSpline
210
0.0
220
0.0
230
1.0
 70
    11
 71
     3
 72
    17
 73
    13
 74
     0
 42
0.0000000001
 43
0.0000000001
 40
0.0
 40
0.0
 40
0.0
 40
0.0
 40
1.0
 40
1.0
 40
1.0
 40
2.0
 40
2.0
 40
2.0
 40
3.0
 40
3.0
 40
3.0
 40
4.0
 40
4.0
 40
4.0
 40
4.0
 10
16.92368706597222
 20
-2.635670301649305
 30
0.0
 10
17.00430230034722
 20
-2.614655219184027
 30
0.0
 10
17.09146321614583
 20
-2.569868977864583
 30
0.0
 10
17.12109103732639
 20
-2.521637641059028
 30
0.0
 10
17.07010362413194
 20
-2.49132080078125
 30
0.0
 10
16.99913465711806
 20
-2.468583170572916
 30
0.0
 10
16.91231825086805
 20
-2.464104546440972
 30
0.0
 10
16.8330810546875
 20
-2.453424750434027
 30
0.0
 10
16.66151529947917
 20
-2.52232666015625
 30
0.0
 10
16.69183213975694
 20
-2.562978786892361
 30
0.0
 10
16.74798719618055
 20
-2.58433837890625
 30
0.0
 10
16.78484971788194
 20
-2.616722276475694
 30
0.0
 10
16.92368706597222
 20
-2.635670301649305
 30
0.0
  0
SPLINE
  5
CD
330
22
100
AcDbEntity
  8
LAYER_1
 62
     7
100
AcDbSpline
210
0.0
220
0.0
230
1.0
 70
    11
 71
     3
 72
    17
 73
    13
 74
     0
 42
0.0000000001
 43
0.0000000001
 40
0.0
 40
0.0
 40
0.0
 40
0.0
 40
1.0
 40
1.0
 40
1.0
 40
2.0
 40
2.0
 40
2.0
 40
3.0
 40
3.0
 40
3.0
 40
4.0
 40
4.0
 40
4.0
 40
4.0
 10
31.51332194010416
 20
-45.20154758029513
 30
0.0
 10
31.71692708333333
 20
-45.2873304578993
 30
0.0
 10
31.97393120659722
 20
-45.15745035807291
 30
0.0
 10
31.82096896701389
 20
-44.89631212022569
 30
0.0
 10
31.97083062065972
 20
-44.76574300130208
 30
0.0
 10
31.80615505642361
 20
-44.63103976779514
 30
0.0
 10
31.52090115017361
 20
-44.59486626519097
 30
0.0
 10
31.23874782986111
 20
-44.58866509331597
 30
0.0
 10
31.03858778211805
 20
-44.78572455512153
 30
0.0
 10
30.98794487847222
 20
-44.8625501844618
 30
0.0
 10
31.05581325954861
 20
-45.04755181206597
 30
0.0
 10
31.3066162109375
 20
-45.27665066189235
 30
0.0
 10
31.51332194010416
 20
-45.20154758029513
 30
0.0
  0
CIRCLE
  5
CC
330
22
100
AcDbEntity
  8
LAYER_1
 62
     7
100
AcDbCircle
 10
3.465421549479166
 20
-46.78629150390625
 30
0.0
 40
0.2094618055555556
  0
CIRCLE
  5
CB
330
22
100
AcDbEntity
  8
LAYER_1
 62
     7
100
AcDbCircle
 10
2.477712673611111
 20
-45.08234727647569
 30
0.0
 40
0.2094618055555556
  0
ELLIPSE
  5
CA
330
22
100
AcDbEntity
  8
LAYER_1
 62
     7
100
AcDbEllipse
 10
1.539268663194444
 20
-46.31706949869791
 30
0.0
 11
0.0
 21
-0.2094618055555556
 31
0.0
210
0.0
220
0.0
230
1.0
 40
0.6677631578947368
 41
0.0
 42
6.283185307179586
  0
SPLINE
  5
C9
330
22
100
AcDbEntity
  8
LAYER_1
 62
     7
100
AcDbSpline
210
0.0
220
0.0
230
1.0
 70
    11
 71
     3
 72
    17
 73
    13
 74
     0
 42
0.0000000001
 43
0.0000000001
 40
0.0
 40
0.0
 40
0.0
 40
0.0
 40
1.0
 40
1.0
 40
1.0
 40
2.0
 40
2.0
 40
2.0
 40
3.0
 40
3.0
 40
3.0
 40
4.0
 40
4.0
 40
4.0
 40
4.0
 10
0.5925564236111111
 20
-42.14609239366319
 30
0.0
 10
0.992532009548611
 20
-42.1619398328993
 30
0.0
 10
1.208884006076389
 20
-41.72820231119791
 30
0.0
 10
1.136192491319444
 20
-41.40746392144097
 30
0.0
 10
1.118622504340278
 20
-41.31685791015624
 30
0.0
 10
0.9377549913194444
 20
-40.93066270616319
 30
0.0
 10
0.6214952256944444
 20
-41.05778672960069
 30
0.0
 10
0.4471733940972222
 20
-40.91722683376736
 30
0.0
 10
0.049609375
 20
-41.22452935112847
 30
0.0
 10
0.1026638454861111
 20
-41.58144124348958
 30
0.0
 10
0.1415934244791667
 20
-41.79400363498264
 30
0.0
 10
0.3503662109375
 20
-42.1371351453993
 30
0.0
 10
0.5925564236111111
 20
-42.14609239366319
 30
0.0
  0
SPLINE
  5
C8
330
22
100
AcDbEntity
  8
LAYER_1
 62
     7
100
AcDbSpline
210
0.0
220
0.0
230
1.0
 70
    11
 71
     3
 72
    17
 73
    13
 74
     0
 42
0.0000000001
 43
0.0000000001
 40
0.0
 40
0.0
 40
0.0
 40
0.0
 40
1.0
 40
1.0
 40
1.0
 40
2.0
 40
2.0
 40
2.0
 40
3.0
 40
3.0
 40
3.0
 40
4.0
 40
4.0
 40
4.0
 40
4.0
 10
12.84090440538194
 20
-36.48269992404514
 30
0.0
 10
13.13408203125
 20
-36.47649875217014
 30
0.0
 10
13.18954806857639
 20
-36.21949462890625
 30
0.0
 10
13.29979112413194
 20
-35.92287190755208
 30
0.0
 10
13.39005262586806
 20
-35.53564317491319
 30
0.0
 10
12.95597059461806
 20
-35.34512939453125
 30
0.0
 10
12.85709635416667
 20
-35.40093994140625
 30
0.0
 10
12.34860026041667
 20
-35.32445882161458
 30
0.0
 10
12.29175618489583
 20
-35.72477891710069
 30
0.0
 10
12.23870171440972
 20
-35.89358859592014
 30
0.0
 10
12.13155924479167
 20
-36.29115261501736
 30
0.0
 10
12.495361328125
 20
-36.38795979817708
 30
0.0
 10
12.84090440538194
 20
-36.48269992404514
 30
0.0
  0
ELLIPSE
  5
C7
330
22
100
AcDbEntity
  8
LAYER_1
 62
     7
100
AcDbEllipse
 10
17.34329969618056
 20
-39.92400580512152
 30
0.0
 11
0.0
 21
-0.2094618055555556
 31
0.0
210
0.0
220
0.0
230
1.0
 40
0.6677631578947368
 41
0.0
 42
6.283185307179586
  0
ELLIPSE
  5
C6
330
22
100
AcDbEntity
  8
LAYER_1
 62
     7
100
AcDbEllipse
 10
18.89910481770833
 20
-45.15917290581597
 30
0.0
 11
0.0
 21
-0.2793972439236111
 31
0.0
210
0.0
220
0.0
230
1.0
 40
0.499383477188656
 41
0.0
 42
6.283185307179586
  0
ELLIPSE
  5
C5
330
22
100
AcDbEntity
  8
LAYER_1
 62
     7
100
AcDbEllipse
 10
18.05953504774305
 20
-44.71458333333333
 30
0.0
 11
0.0
 21
-0.2096340603298611
 31
0.0
210
0.0
220
0.0
230
1.0
 40
0.6655715836349346
 41
0.0
 42
6.283185307179586
  0
SPLINE
  5
C4
330
22
100
AcDbEntity
  8
LAYER_1
 62
     7
100
AcDbSpline
210
0.0
220
0.0
230
1.0
 70
    11
 71
     3
 72
    17
 73
    13
 74
     0
 42
0.0000000001
 43
0.0000000001
 40
0.0
 40
0.0
 40
0.0
 40
0.0
 40
1.0
 40
1.0
 40
1.0
 40
2.0
 40
2.0
 40
2.0
 40
3.0
 40
3.0
 40
3.0
 40
4.0
 40
4.0
 40
4.0
 40
4.0
 10
15.67759602864583
 20
-41.61692572699653
 30
0.0
 10
15.97042914496528
 20
-41.61072455512152
 30
0.0
 10
16.02623969184028
 20
-41.35372043185764
 30
0.0
 10
16.13648274739583
 20
-41.05709771050347
 30
0.0
 10
16.22639973958333
 20
-40.66952446831597
 30
0.0
 10
15.79266221788194
 20
-40.47901068793402
 30
0.0
 10
15.69344346788194
 20
-40.53516574435763
 30
0.0
 10
15.18529188368055
 20
-40.45868462456597
 30
0.0
 10
15.12810329861111
 20
-40.85900472005208
 30
0.0
 10
15.07539333767361
 20
-41.02781439887153
 30
0.0
 10
14.96825086805555
 20
-41.42537841796874
 30
0.0
 10
15.33205295138889
 20
-41.52218560112847
 30
0.0
 10
15.67759602864583
 20
-41.61692572699653
 30
0.0
  0
SPLINE
  5
C3
330
22
100
AcDbEntity
  8
LAYER_1
 62
     7
100
AcDbSpline
210
0.0
220
0.0
230
1.0
 70
    11
 71
     3
 72
    17
 73
    13
 74
     0
 42
0.0000000001
 43
0.0000000001
 40
0.0
 40
0.0
 40
0.0
 40
0.0
 40
1.0
 40
1.0
 40
1.0
 40
2.0
 40
2.0
 40
2.0
 40
3.0
 40
3.0
 40
3.0
 40
4.0
 40
4.0
 40
4.0
 40
4.0
 10
18.1291259765625
 20
-39.43376871744791
 30
0.0
 10
18.28139919704861
 20
-39.47097574869791
 30
0.0
 10
18.53461371527778
 20
-39.20742594401041
 30
0.0
 10
18.45330946180555
 20
-39.0055433485243
 30
0.0
 10
18.50498589409722
 20
-38.87600775824652
 30
0.0
 10
18.27347547743056
 20
-38.70960964626736
 30
0.0
 10
18.12981499565972
 20
-38.5435560438368
 30
0.0
 10
17.87418891059028
 20
-38.61211344401041
 30
0.0
 10
17.59134657118056
 20
-38.88565402560764
 30
0.0
 10
17.57928873697917
 20
-39.01691216362847
 30
0.0
 10
17.67919650607639
 20
-39.35453152126735
 30
0.0
 10
17.70882432725694
 20
-39.42618950737847
 30
0.0
 10
18.1291259765625
 20
-39.43376871744791
 30
0.0
  0
SPLINE
  5
C2
330
22
100
AcDbEntity
  8
LAYER_1
 62
     7
100
AcDbSpline
210
0.0
220
0.0
230
1.0
 70
    11
 71
     3
 72
    17
 73
    13
 74
     0
 42
0.0000000001
 43
0.0000000001
 40
0.0
 40
0.0
 40
0.0
 40
0.0
 40
1.0
 40
1.0
 40
1.0
 40
2.0
 40
2.0
 40
2.0
 40
3.0
 40
3.0
 40
3.0
 40
4.0
 40
4.0
 40
4.0
 40
4.0
 10
19.20399576822917
 20
-42.7138441297743
 30
0.0
 10
19.54574924045139
 20
-42.60911322699653
 30
0.0
 10
19.78552788628472
 20
-42.4285902235243
 30
0.0
 10
19.93435601128472
 20
-42.00794406467013
 30
0.0
 10
19.83961588541667
 20
-41.77540011935763
 30
0.0
 10
19.48304850260417
 20
-41.36681179470486
 30
0.0
 10
19.07032606336805
 20
-41.38920491536458
 30
0.0
 10
18.79023980034722
 20
-41.39575059678819
 30
0.0
 10
18.38854166666667
 20
-41.76609836154513
 30
0.0
 10
18.33824327256944
 20
-42.14781494140625
 30
0.0
 10
18.3275634765625
 20
-42.38656005859374
 30
0.0
 10
18.68275282118055
 20
-42.70040825737847
 30
0.0
 10
19.20399576822917
 20
-42.7138441297743
 30
0.0
  0
ELLIPSE
  5
C1
330
22
100
AcDbEntity
  8
LAYER_1
 62
     7
100
AcDbEllipse
 10
31.9205322265625
 20
-31.45389404296875
 30
0.0
 11
0.0
 21
-0.2094618055555556
 31
0.0
210
0.0
220
0.0
230
1.0
 40
0.6677631578947368
 41
0.0
 42
6.283185307179586
  0
ELLIPSE
  5
C0
330
22
100
AcDbEntity
  8
LAYER_1
 62
     7
100
AcDbEllipse
 10
32.21681043836805
 20
-27.10790608723958
 30
0.0
 11
0.0
 21
-0.2793972439236111
 31
0.0
210
0.0
220
0.0
230
1.0
 40
0.750924784217016
 41
0.0
 42
6.283185307179586
  0
ELLIPSE
  5
BF
330
22
100
AcDbEntity
  8
LAYER_1
 62
     7
100
AcDbEllipse
 10
31.32797580295139
 20
-25.03361409505208
 30
0.0
 11
0.2793972439236111
 21
0.0
 31
0.0
210
0.0
220
0.0
230
1.0
 40
0.749691738594328
 41
0.0
 42
6.283185307179586
  0
CIRCLE
  5
BE
330
22
100
AcDbEntity
  8
LAYER_1
 62
     7
100
AcDbCircle
 10
30.78468424479166
 20
-26.12002495659722
 30
0.0
 40
0.2096340603298611
  0
SPLINE
  5
BD
330
22
100
AcDbEntity
  8
LAYER_1
 62
     7
100
AcDbSpline
210
0.0
220
0.0
230
1.0
 70
    11
 71
     3
 72
    17
 73
    13
 74
     0
 42
0.0000000001
 43
0.0000000001
 40
0.0
 40
0.0
 40
0.0
 40
0.0
 40
1.0
 40
1.0
 40
1.0
 40
2.0
 40
2.0
 40
2.0
 40
3.0
 40
3.0
 40
3.0
 40
4.0
 40
4.0
 40
4.0
 40
4.0
 10
32.33566623263889
 20
-26.25111083984375
 30
0.0
 10
32.58612467447917
 20
-26.25145534939236
 30
0.0
 10
32.74322102864583
 20
-26.06266411675347
 30
0.0
 10
32.90927463107639
 20
-25.86112603081597
 30
0.0
 10
32.73839789496527
 20
-25.37674560546875
 30
0.0
 10
32.50929904513889
 20
-25.35435248480903
 30
0.0
 10
32.27641059027778
 20
-25.33712700737847
 30
0.0
 10
32.08865288628472
 20
-25.3288587782118
 30
0.0
 10
31.77308213975694
 20
-25.53074137369791
 30
0.0
 10
31.85886501736111
 20
-25.70334065755208
 30
0.0
 10
31.86403266059028
 20
-26.08953586154514
 30
0.0
 10
32.06178114149305
 20
-26.18806559244791
 30
0.0
 10
32.33566623263889
 20
-26.25111083984375
 30
0.0
  0
SPLINE
  5
BC
330
22
100
AcDbEntity
  8
LAYER_1
 62
     7
100
AcDbSpline
210
0.0
220
0.0
230
1.0
 70
    11
 71
     3
 72
    17
 73
    13
 74
     0
 42
0.0000000001
 43
0.0000000001
 40
0.0
 40
0.0
 40
0.0
 40
0.0
 40
1.0
 40
1.0
 40
1.0
 40
2.0
 40
2.0
 40
2.0
 40
3.0
 40
3.0
 40
3.0
 40
4.0
 40
4.0
 40
4.0
 40
4.0
 10
30.25482855902778
 20
-33.14681396484374
 30
0.0
 10
30.54766167534722
 20
-33.14061279296875
 30
0.0
 10
30.60347222222222
 20
-32.88360866970486
 30
0.0
 10
30.71371527777778
 20
-32.58698594835069
 30
0.0
 10
30.80397677951389
 20
-32.19975721571181
 30
0.0
 10
30.36989474826389
 20
-32.00924343532986
 30
0.0
 10
30.27067599826389
 20
-32.06505398220486
 30
0.0
 10
29.7625244140625
 20
-31.98857286241319
 30
0.0
 10
29.70533582899305
 20
-32.3888929578993
 30
0.0
 10
29.65262586805555
 20
-32.55770263671874
 30
0.0
 10
29.5454833984375
 20
-32.95526665581597
 30
0.0
 10
29.90928548177083
 20
-33.05207383897569
 30
0.0
 10
30.25482855902778
 20
-33.14681396484374
 30
0.0
  0
SPLINE
  5
BB
330
22
100
AcDbEntity
  8
LAYER_1
 62
     7
100
AcDbSpline
210
0.0
220
0.0
230
1.0
 70
    11
 71
     3
 72
    17
 73
    13
 74
     0
 42
0.0000000001
 43
0.0000000001
 40
0.0
 40
0.0
 40
0.0
 40
0.0
 40
1.0
 40
1.0
 40
1.0
 40
2.0
 40
2.0
 40
2.0
 40
3.0
 40
3.0
 40
3.0
 40
4.0
 40
4.0
 40
4.0
 40
4.0
 10
32.70635850694444
 20
-30.96365695529514
 30
0.0
 10
32.85863172743056
 20
-31.00086398654513
 30
0.0
 10
33.11184624565972
 20
-30.73731418185764
 30
0.0
 10
33.03054199218749
 20
-30.53543158637153
 30
0.0
 10
33.08221842447917
 20
-30.40624050564236
 30
0.0
 10
32.8507080078125
 20
-30.23949788411458
 30
0.0
 10
32.70704752604166
 20
-30.07344428168403
 30
0.0
 10
32.45142144097222
 20
-30.14234619140625
 30
0.0
 10
32.16892361111111
 20
-30.41554226345486
 30
0.0
 10
32.15652126736111
 20
-30.54680040147569
 30
0.0
 10
32.25642903645833
 20
-30.88441975911458
 30
0.0
 10
32.28605685763888
 20
-30.95607774522569
 30
0.0
 10
32.70635850694444
 20
-30.96365695529514
 30
0.0
  0
SPLINE
  5
BA
330
22
100
AcDbEntity
  8
LAYER_1
 62
     7
100
AcDbSpline
210
0.0
220
0.0
230
1.0
 70
    11
 71
     3
 72
    17
 73
    13
 74
     0
 42
0.0000000001
 43
0.0000000001
 40
0.0
 40
0.0
 40
0.0
 40
0.0
 40
1.0
 40
1.0
 40
1.0
 40
2.0
 40
2.0
 40
2.0
 40
3.0
 40
3.0
 40
3.0
 40
4.0
 40
4.0
 40
4.0
 40
4.0
 10
33.78122829861111
 20
-34.24407687717014
 30
0.0
 10
34.12298177083333
 20
-34.13900146484374
 30
0.0
 10
34.36310492621527
 20
-33.95847846137153
 30
0.0
 10
34.51158854166666
 20
-33.53783230251736
 30
0.0
 10
34.41684841579861
 20
-33.30528835720486
 30
0.0
 10
34.06028103298611
 20
-32.89670003255208
 30
0.0
 10
33.64755859375
 20
-32.9190931532118
 30
0.0
 10
33.36747233072916
 20
-32.92563883463541
 30
0.0
 10
32.9654296875
 20
-33.29598659939236
 30
0.0
 10
32.91547580295138
 20
-33.67804768880208
 30
0.0
 10
32.90479600694444
 20
-33.91644829644097
 30
0.0
 10
33.2599853515625
 20
-34.23029649522569
 30
0.0
 10
33.78122829861111
 20
-34.24407687717014
 30
0.0
  0
SPLINE
  5
B9
330
22
100
AcDbEntity
  8
LAYER_1
 62
     7
100
AcDbSpline
210
0.0
220
0.0
230
1.0
 70
    11
 71
     3
 72
    17
 73
    13
 74
     0
 42
0.0000000001
 43
0.0000000001
 40
0.0
 40
0.0
 40
0.0
 40
0.0
 40
1.0
 40
1.0
 40
1.0
 40
2.0
 40
2.0
 40
2.0
 40
3.0
 40
3.0
 40
3.0
 40
4.0
 40
4.0
 40
4.0
 40
4.0
 10
33.04570041232638
 20
-42.23256429036458
 30
0.0
 10
33.37470703125
 20
-42.24048800998263
 30
0.0
 10
33.61448567708333
 20
-41.89563395182292
 30
0.0
 10
33.57211100260417
 20
-41.81398518880208
 30
0.0
 10
33.62344292534722
 20
-41.34166259765625
 30
0.0
 10
33.34404568142361
 20
-41.24795600043402
 30
0.0
 10
33.04191080729166
 20
-41.30135498046874
 30
0.0
 10
32.78387315538194
 20
-41.23279758029513
 30
0.0
 10
32.67363009982638
 20
-41.32374810112847
 30
0.0
 10
32.69464518229167
 20
-41.67962646484374
 30
0.0
 10
32.65020345052083
 20
-41.92801784939235
 30
0.0
 10
32.74391004774305
 20
-42.17916531032986
 30
0.0
 10
33.04570041232638
 20
-42.23256429036458
 30
0.0
  0
SPLINE
  5
B8
330
22
100
AcDbEntity
  8
LAYER_1
 62
     7
100
AcDbSpline
210
0.0
220
0.0
230
1.0
 70
    11
 71
     3
 72
    17
 73
    13
 74
     0
 42
0.0000000001
 43
0.0000000001
 40
0.0
 40
0.0
 40
0.0
 40
0.0
 40
1.0
 40
1.0
 40
1.0
 40
2.0
 40
2.0
 40
2.0
 40
3.0
 40
3.0
 40
3.0
 40
4.0
 40
4.0
 40
4.0
 40
4.0
 10
34.571533203125
 20
-51.76032036675347
 30
0.0
 10
34.91638726128472
 20
-51.71518961588541
 30
0.0
 10
35.21611056857638
 20
-51.58324245876736
 30
0.0
 10
35.20611979166667
 20
-51.38239339192708
 30
0.0
 10
35.17959255642361
 20
-51.13882514105902
 30
0.0
 10
34.86850043402777
 20
-50.8404798719618
 30
0.0
 10
34.54948459201388
 20
-50.86666259765624
 30
0.0
 10
34.30005967881944
 20
-50.85115966796874
 30
0.0
 10
33.96657443576389
 20
-50.98551839192708
 30
0.0
 10
33.97553168402777
 20
-51.22116292317708
 30
0.0
 10
33.90662977430555
 20
-51.46404215494791
 30
0.0
 10
34.17293565538194
 20
-51.69072943793402
 30
0.0
 10
34.571533203125
 20
-51.76032036675347
 30
0.0
  0
ELLIPSE
  5
B7
330
22
100
AcDbEntity
  8
LAYER_1
 62
     7
100
AcDbEllipse
 10
19.88681369357639
 20
-5.372970920138888
 30
0.0
 11
0.2793972439236111
 21
0.0001722547743055555
 31
0.0
210
0.0
220
0.0
230
1.0
 40
0.7503081188094863
 41
0.0
 42
6.283185307179586
  0
CIRCLE
  5
B6
330
22
100
AcDbEntity
  8
LAYER_1
 62
     7
100
AcDbCircle
 10
21.12153591579861
 20
-4.879116482204861
 30
0.0
 40
0.2094618055555556
  0
CIRCLE
  5
B5
330
22
100
AcDbEntity
  8
LAYER_1
 62
     7
100
AcDbCircle
 10
22.05997992621528
 20
-6.508818901909722
 30
0.0
 40
0.2096340603298611
  0
ELLIPSE
  5
B4
330
22
100
AcDbEntity
  8
LAYER_1
 62
     7
100
AcDbEllipse
 10
7.358723958333333
 20
-9.155341254340277
 30
0.0
 11
0.0
 21
-0.2096340603298611
 31
0.0
210
0.0
220
0.0
230
1.0
 40
0.6672149677595015
 41
0.0
 42
6.283185307179586
  0
ELLIPSE
  5
B3
330
22
100
AcDbEntity
  8
LAYER_1
 62
     7
100
AcDbEllipse
 10
6.469889322916666
 20
-7.426764594184027
 30
0.0
 11
0.0
 21
-0.2094618055555556
 31
0.0
210
0.0
220
0.0
230
1.0
 40
0.6661184210526315
 41
0.0
 42
6.283185307179586
  0
ELLIPSE
  5
B2
330
22
100
AcDbEntity
  8
LAYER_1
 62
     7
100
AcDbEllipse
 10
4.963693576388889
 20
-10.14305013020833
 30
0.0
 11
0.0
 21
-0.2096340603298611
 31
0.0
210
0.0
220
0.0
230
1.0
 40
0.6655715836349346
 41
0.0
 42
6.283185307179586
  0
ELLIPSE
  5
B1
330
22
100
AcDbEntity
  8
LAYER_1
 62
     7
100
AcDbEllipse
 10
12.84090440538194
 20
-11.97050103081597
 30
0.0
 11
0.0
 21
-0.2793972439236111
 31
0.0
210
0.0
220
0.0
230
1.0
 40
0.749691738594328
 41
0.0
 42
6.283185307179586
  0
ELLIPSE
  5
B0
330
22
100
AcDbEntity
  8
LAYER_1
 62
     7
100
AcDbEllipse
 10
11.95172526041667
 20
-9.896209038628472
 30
0.0
 11
0.2793972439236111
 21
0.0
 31
0.0
210
0.0
220
0.0
230
1.0
 40
0.749691738594328
 41
0.0
 42
6.283185307179586
  0
CIRCLE
  5
AF
330
22
100
AcDbEntity
  8
LAYER_1
 62
     7
100
AcDbCircle
 10
11.40877821180555
 20
-10.98279215494792
 30
0.0
 40
0.2094618055555556
  0
CIRCLE
  5
AE
330
22
100
AcDbEntity
  8
LAYER_1
 62
     7
100
AcDbCircle
 10
5.5314453125
 20
-8.217069498697915
 30
0.0
 40
0.2094618055555556
  0
SPLINE
  5
AD
330
22
100
AcDbEntity
  8
LAYER_1
 62
     7
100
AcDbSpline
210
0.0
220
0.0
230
1.0
 70
    11
 71
     3
 72
    17
 73
    13
 74
     0
 42
0.0000000001
 43
0.0000000001
 40
0.0
 40
0.0
 40
0.0
 40
0.0
 40
1.0
 40
1.0
 40
1.0
 40
2.0
 40
2.0
 40
2.0
 40
3.0
 40
3.0
 40
3.0
 40
4.0
 40
4.0
 40
4.0
 40
4.0
 10
18.71169162326389
 20
-5.730744086371527
 30
0.0
 10
19.03105197482639
 20
-5.850977918836805
 30
0.0
 10
19.12062445746528
 20
-5.686646864149305
 30
0.0
 10
19.09719780815972
 20
-5.356262207031249
 30
0.0
 10
19.07204861111111
 20
-5.234994845920139
 30
0.0
 10
19.02381727430555
 20
-4.976612684461805
 30
0.0
 10
18.73580729166666
 20
-4.962143283420138
 30
0.0
 10
18.3957763671875
 20
-5.025877549913194
 30
0.0
 10
18.29276801215278
 20
-5.146800401475694
 30
0.0
 10
18.37992892795139
 20
-5.350750054253472
 30
0.0
 10
18.28966742621528
 20
-5.650817871093749
 30
0.0
 10
18.374072265625
 20
-5.788621690538194
 30
0.0
 10
18.71169162326389
 20
-5.730744086371527
 30
0.0
  0
SPLINE
  5
AC
330
22
100
AcDbEntity
  8
LAYER_1
 62
     7
100
AcDbSpline
210
0.0
220
0.0
230
1.0
 70
    11
 71
     3
 72
    17
 73
    13
 74
     0
 42
0.0000000001
 43
0.0000000001
 40
0.0
 40
0.0
 40
0.0
 40
0.0
 40
1.0
 40
1.0
 40
1.0
 40
2.0
 40
2.0
 40
2.0
 40
3.0
 40
3.0
 40
3.0
 40
4.0
 40
4.0
 40
4.0
 40
4.0
 10
20.49762912326389
 20
-6.55963406032986
 30
0.0
 10
20.70088975694444
 20
-6.645416937934027
 30
0.0
 10
20.95823838975694
 20
-6.515536838107638
 30
0.0
 10
20.80527615017361
 20
-6.254398600260416
 30
0.0
 10
20.95513780381944
 20
-6.123829481336805
 30
0.0
 10
20.79046223958333
 20
-5.98912624782986
 30
0.0
 10
20.50520833333333
 20
-5.952952745225694
 30
0.0
 10
20.22305501302083
 20
-5.947096082899305
 30
0.0
 10
20.02289496527778
 20
-6.14381103515625
 30
0.0
 10
19.97225206163194
 20
-6.220636664496527
 30
0.0
 10
20.04012044270833
 20
-6.405638292100694
 30
0.0
 10
20.29092339409722
 20
-6.634737141927083
 30
0.0
 10
20.49762912326389
 20
-6.55963406032986
 30
0.0
  0
SPLINE
  5
AB
330
22
100
AcDbEntity
  8
LAYER_1
 62
     7
100
AcDbSpline
210
0.0
220
0.0
230
1.0
 70
    11
 71
     3
 72
    17
 73
    13
 74
     0
 42
0.0000000001
 43
0.0000000001
 40
0.0
 40
0.0
 40
0.0
 40
0.0
 40
1.0
 40
1.0
 40
1.0
 40
2.0
 40
2.0
 40
2.0
 40
3.0
 40
3.0
 40
3.0
 40
4.0
 40
4.0
 40
4.0
 40
4.0
 10
12.95941569010417
 20
-11.11370578342014
 30
0.0
 10
13.20987413194444
 20
-11.11405029296875
 30
0.0
 10
13.36731499565972
 20
-10.92560356987847
 30
0.0
 10
13.53302408854167
 20
-10.72372097439236
 30
0.0
 10
13.36214735243055
 20
-10.23968505859375
 30
0.0
 10
13.13339301215278
 20
-10.21694742838542
 30
0.0
 10
12.90050455729167
 20
-10.19972195095486
 30
0.0
 10
12.71274685329861
 20
-10.19145372178819
 30
0.0
 10
12.39683159722222
 20
-10.3933363172743
 30
0.0
 10
12.48261447482639
 20
-10.56593560112847
 30
0.0
 10
12.48778211805555
 20
-10.95213080512153
 30
0.0
 10
12.68587510850694
 20
-11.05066053602431
 30
0.0
 10
12.95941569010417
 20
-11.11370578342014
 30
0.0
  0
SPLINE
  5
AA
330
22
100
AcDbEntity
  8
LAYER_1
 62
     7
100
AcDbSpline
210
0.0
220
0.0
230
1.0
 70
    11
 71
     3
 72
    17
 73
    13
 74
     0
 42
0.0000000001
 43
0.0000000001
 40
0.0
 40
0.0
 40
0.0
 40
0.0
 40
1.0
 40
1.0
 40
1.0
 40
2.0
 40
2.0
 40
2.0
 40
3.0
 40
3.0
 40
3.0
 40
4.0
 40
4.0
 40
4.0
 40
4.0
 10
7.101375325520833
 20
-12.48037516276042
 30
0.0
 10
7.446573893229166
 20
-12.43558892144097
 30
0.0
 10
7.745952690972222
 20
-12.30364176432292
 30
0.0
 10
7.736306423611111
 20
-12.10279269748264
 30
0.0
 10
7.709434678819444
 20
-11.85922444661458
 30
0.0
 10
7.398342556423611
 20
-11.56053466796875
 30
0.0
 10
7.079671223958333
 20
-11.58671739366319
 30
0.0
 10
6.829901801215277
 20
-11.5715589735243
 30
0.0
 10
6.496416558159722
 20
-11.70557318793403
 30
0.0
 10
6.50537380642361
 20
-11.94121771918403
 30
0.0
 10
6.436816406249999
 20
-12.18409695095486
 30
0.0
 10
6.702777777777778
 20
-12.41078423394097
 30
0.0
 10
7.101375325520833
 20
-12.48037516276042
 30
0.0
  0
ELLIPSE
  5
A9
330
22
100
AcDbEntity
  8
LAYER_1
 62
     7
100
AcDbEllipse
 10
-4.188547092013889
 20
-10.39712592230903
 30
0.0
 11
0.2793972439236111
 21
0.0
 31
0.0
210
0.0
220
0.0
230
1.0
 40
0.749691738594328
 41
0.0
 42
6.283185307179586
  0
CIRCLE
  5
A8
330
22
100
AcDbEntity
  8
LAYER_1
 62
     7
100
AcDbCircle
 10
1.688785807291667
 20
-12.37254367404514
 30
0.0
 40
0.2094618055555556
  0
ELLIPSE
  5
A7
330
22
100
AcDbEntity
  8
LAYER_1
 62
     7
100
AcDbEllipse
 10
1.771812608506944
 20
-23.14845784505208
 30
0.0
 11
0.0
 21
-0.2094618055555556
 31
0.0
210
0.0
220
0.0
230
1.0
 40
0.6677631578947368
 41
0.0
 42
6.283185307179586
  0
ELLIPSE
  5
A6
330
22
100
AcDbEntity
  8
LAYER_1
 62
     7
100
AcDbEllipse
 10
-2.385728624131944
 20
-9.681062825520833
 30
0.0
 11
0.0
 21
-0.2096340603298611
 31
0.0
210
0.0
220
0.0
230
1.0
 40
0.6655715836349346
 41
0.0
 42
6.283185307179586
  0
ELLIPSE
  5
A5
330
22
100
AcDbEntity
  8
LAYER_1
 62
     7
100
AcDbEllipse
 10
-2.138715277777778
 20
-12.29847412109375
 30
0.0
 11
0.0
 21
-0.2094618055555556
 31
0.0
210
0.0
220
0.0
230
1.0
 40
0.6661184210526315
 41
0.0
 42
6.283185307179586
  0
ELLIPSE
  5
A4
330
22
100
AcDbEntity
  8
LAYER_1
 62
     7
100
AcDbEllipse
 10
0.8829779730902777
 20
-21.41988118489583
 30
0.0
 11
0.0
 21
-0.2096340603298611
 31
0.0
210
0.0
220
0.0
230
1.0
 40
0.6655715836349346
 41
0.0
 42
6.283185307179586
  0
ELLIPSE
  5
A3
330
22
100
AcDbEntity
  8
LAYER_1
 62
     7
100
AcDbEllipse
 10
-0.6235622829861111
 20
-24.13616672092014
 30
0.0
 11
0.0
 21
-0.2094618055555556
 31
0.0
210
0.0
220
0.0
230
1.0
 40
0.6677631578947368
 41
0.0
 42
6.283185307179586
  0
CIRCLE
  5
A2
330
22
100
AcDbEntity
  8
LAYER_1
 62
     7
100
AcDbCircle
 10
-0.0554660373263889
 20
-22.21001383463542
 30
0.0
 40
0.2094618055555556
  0
SPLINE
  5
A1
330
22
100
AcDbEntity
  8
LAYER_1
 62
     7
100
AcDbSpline
210
0.0
220
0.0
230
1.0
 70
    11
 71
     3
 72
    17
 73
    13
 74
     0
 42
0.0000000001
 43
0.0000000001
 40
0.0
 40
0.0
 40
0.0
 40
0.0
 40
1.0
 40
1.0
 40
1.0
 40
2.0
 40
2.0
 40
2.0
 40
3.0
 40
3.0
 40
3.0
 40
4.0
 40
4.0
 40
4.0
 40
4.0
 10
-3.231844075520833
 20
-14.10267062717014
 30
0.0
 10
-3.028583441840278
 20
-14.18845350477431
 30
0.0
 10
-2.771234809027777
 20
-14.05857340494792
 30
0.0
 10
-2.924197048611111
 20
-13.79743516710069
 30
0.0
 10
-2.774679904513889
 20
-13.66686604817708
 30
0.0
 10
-2.939010959201389
 20
-13.53216281467014
 30
0.0
 10
-3.224609375
 20
-13.49598931206597
 30
0.0
 10
-3.506418185763889
 20
-13.48978814019097
 30
0.0
 10
-3.706578233506944
 20
-13.68684760199653
 30
0.0
 10
-3.757221137152778
 20
-13.76332872178819
 30
0.0
 10
-3.689352756076389
 20
-13.94867485894097
 30
0.0
 10
-3.438894314236111
 20
-14.17777370876736
 30
0.0
 10
-3.231844075520833
 20
-14.10267062717014
 30
0.0
  0
SPLINE
  5
A0
330
22
100
AcDbEntity
  8
LAYER_1
 62
     7
100
AcDbSpline
210
0.0
220
0.0
230
1.0
 70
    11
 71
     3
 72
    17
 73
    13
 74
     0
 42
0.0000000001
 43
0.0000000001
 40
0.0
 40
0.0
 40
0.0
 40
0.0
 40
1.0
 40
1.0
 40
1.0
 40
2.0
 40
2.0
 40
2.0
 40
3.0
 40
3.0
 40
3.0
 40
4.0
 40
4.0
 40
4.0
 40
4.0
 10
-1.699465603298611
 20
-11.13368733723958
 30
0.0
 10
-1.370458984375
 20
-11.14161105685764
 30
0.0
 10
-1.130680338541667
 20
-10.79675699869792
 30
0.0
 10
-1.173055013020833
 20
-10.71510823567708
 30
0.0
 10
-1.121723090277778
 20
-10.24278564453125
 30
0.0
 10
-1.40146484375
 20
-10.14907904730903
 30
0.0
 10
-1.703255208333333
 20
-10.20247802734375
 30
0.0
 10
-1.961292860243055
 20
-10.13357611762153
 30
0.0
 10
-2.071535915798611
 20
-10.22487114800347
 30
0.0
 10
-2.050520833333333
 20
-10.58040500217014
 30
0.0
 10
-2.094962565104166
 20
-10.82914089626736
 30
0.0
 10
-2.001255967881944
 20
-11.08028835720486
 30
0.0
 10
-1.699465603298611
 20
-11.13368733723958
 30
0.0
  0
SPLINE
  5
9F
330
22
100
AcDbEntity
  8
LAYER_1
 62
     7
100
AcDbSpline
210
0.0
220
0.0
230
1.0
 70
    11
 71
     3
 72
    17
 73
    13
 74
     0
 42
0.0000000001
 43
0.0000000001
 40
0.0
 40
0.0
 40
0.0
 40
0.0
 40
1.0
 40
1.0
 40
1.0
 40
2.0
 40
2.0
 40
2.0
 40
3.0
 40
3.0
 40
3.0
 40
4.0
 40
4.0
 40
4.0
 40
4.0
 10
1.514463975694444
 20
-26.47366400824653
 30
0.0
 10
1.859662543402778
 20
-26.42853325737847
 30
0.0
 10
2.159041341145833
 20
-26.29693060980902
 30
0.0
 10
2.149395073784722
 20
-26.09573703342014
 30
0.0
 10
2.122523328993055
 20
-25.85251329210069
 30
0.0
 10
1.811431206597222
 20
-25.55382351345486
 30
0.0
 10
1.492759874131944
 20
-25.5800062391493
 30
0.0
 10
1.242990451388889
 20
-25.5645033094618
 30
0.0
 10
0.9095052083333333
 20
-25.69886203342014
 30
0.0
 10
0.9184624565972221
 20
-25.93450656467014
 30
0.0
 10
0.849905056423611
 20
-26.17738579644097
 30
0.0
 10
1.1162109375
 20
-26.40407307942708
 30
0.0
 10
1.514463975694444
 20
-26.47366400824653
 30
0.0
  0
ELLIPSE
  5
9E
330
22
100
AcDbEntity
  8
LAYER_1
 62
     7
100
AcDbEllipse
 10
-19.91161838107639
 20
-19.52180582682292
 30
0.0
 11
0.2793972439236111
 21
0.0
 31
0.0
210
0.0
220
0.0
230
1.0
 40
0.749691738594328
 41
0.0
 42
6.283185307179586
  0
ELLIPSE
  5
9D
330
22
100
AcDbEntity
  8
LAYER_1
 62
     7
100
AcDbEllipse
 10
-24.56215277777778
 20
-38.90735812717013
 30
0.0
 11
0.0
 21
-0.2094618055555556
 31
0.0
210
0.0
220
0.0
230
1.0
 40
0.6661184210526315
 41
0.0
 42
6.283185307179586
  0
ELLIPSE
  5
9C
330
22
100
AcDbEntity
  8
LAYER_1
 62
     7
100
AcDbEllipse
 10
-23.50037434895833
 20
-37.1047119140625
 30
0.0
 11
0.0
 21
-0.2096340603298611
 31
0.0
210
0.0
220
0.0
230
1.0
 40
0.6655715836349346
 41
0.0
 42
6.283185307179586
  0
ELLIPSE
  5
9B
330
22
100
AcDbEntity
  8
LAYER_1
 62
     7
100
AcDbEllipse
 10
-31.303515625
 20
-22.59448649088542
 30
0.0
 11
0.0
 21
-0.2793972439236111
 31
0.0
210
0.0
220
0.0
230
1.0
 40
0.499383477188656
 41
0.0
 42
6.283185307179586
  0
ELLIPSE
  5
9A
330
22
100
AcDbEntity
  8
LAYER_1
 62
     7
100
AcDbEllipse
 10
-32.14308539496528
 20
-22.14989691840277
 30
0.0
 11
0.0
 21
-0.2096340603298611
 31
0.0
210
0.0
220
0.0
230
1.0
 40
0.6655715836349346
 41
0.0
 42
6.283185307179586
  0
ELLIPSE
  5
99
330
22
100
AcDbEntity
  8
LAYER_1
 62
     7
100
AcDbEllipse
 10
-31.40238986545139
 20
-19.72988959418403
 30
0.0
 11
0.0
 21
-0.2094618055555556
 31
0.0
210
0.0
220
0.0
230
1.0
 40
0.6661184210526315
 41
0.0
 42
6.283185307179586
  0
ELLIPSE
  5
98
330
22
100
AcDbEntity
  8
LAYER_1
 62
     7
100
AcDbEllipse
 10
-27.76436903211805
 20
-32.23937581380208
 30
0.0
 11
0.0
 21
-0.2793972439236111
 31
0.0
210
0.0
220
0.0
230
1.0
 40
0.4993849994648823
 41
0.0
 42
6.283185307179586
  0
ELLIPSE
  5
97
330
22
100
AcDbEntity
  8
LAYER_1
 62
     7
100
AcDbEllipse
 10
-30.57108832465277
 20
-8.566746690538194
 30
0.0
 11
0.0
 21
-0.2793972439236111
 31
0.0
210
0.0
220
0.0
230
1.0
 40
0.499383477188656
 41
0.0
 42
6.283185307179586
  0
CIRCLE
  5
96
330
22
100
AcDbEntity
  8
LAYER_1
 62
     7
100
AcDbCircle
 10
-29.5423828125
 20
-33.27634955512153
 30
0.0
 40
0.2094618055555556
  0
ELLIPSE
  5
95
330
22
100
AcDbEntity
  8
LAYER_1
 62
     7
100
AcDbEllipse
 10
-29.5423828125
 20
-35.02973090277777
 30
0.0
 11
0.2094618055555556
 21
0.0001722547743055555
 31
0.0
210
0.0
220
0.0
230
1.0
 40
0.6669405639511654
 41
0.0
 42
6.283185307179586
  0
CIRCLE
  5
94
330
22
100
AcDbEntity
  8
LAYER_1
 62
     7
100
AcDbCircle
 10
-26.61198459201389
 20
-36.56142035590278
 30
0.0
 40
0.2096340603298611
  0
ELLIPSE
  5
93
330
22
100
AcDbEntity
  8
LAYER_1
 62
     7
100
AcDbEllipse
 10
-30.22554524739583
 20
-15.33274197048611
 30
0.0
 11
0.0
 21
-0.2096340603298611
 31
0.0
210
0.0
220
0.0
230
1.0
 40
0.6672149677595015
 41
0.0
 42
6.283185307179586
  0
ELLIPSE
  5
92
330
22
100
AcDbEntity
  8
LAYER_1
 62
     7
100
AcDbEllipse
 10
-20.25750596788194
 20
-18.9044447157118
 30
0.0
 11
0.0
 21
-0.2094618055555556
 31
0.0
210
0.0
220
0.0
230
1.0
 40
0.6677631578947368
 41
0.0
 42
6.283185307179586
  0
CIRCLE
  5
91
330
22
100
AcDbEntity
  8
LAYER_1
 62
     7
100
AcDbCircle
 10
-33.33681098090278
 20
-14.78962266710069
 30
0.0
 40
0.2094618055555556
  0
CIRCLE
  5
90
330
22
100
AcDbEntity
  8
LAYER_1
 62
     7
100
AcDbCircle
 10
-29.48450520833333
 20
-7.677739800347221
 30
0.0
 40
0.2096340603298611
  0
ELLIPSE
  5
8F
330
22
100
AcDbEntity
  8
LAYER_1
 62
     7
100
AcDbEllipse
 10
-31.303515625
 20
-26.05163981119792
 30
0.0
 11
0.0
 21
-0.2793972439236111
 31
0.0
210
0.0
220
0.0
230
1.0
 40
0.749691738594328
 41
0.0
 42
6.283185307179586
  0
ELLIPSE
  5
8E
330
22
100
AcDbEntity
  8
LAYER_1
 62
     7
100
AcDbEllipse
 10
-21.14634060329861
 20
-20.78133273654514
 30
0.0
 11
0.0
 21
-0.2793972439236111
 31
0.0
210
0.0
220
0.0
230
1.0
 40
0.749691738594328
 41
0.0
 42
6.283185307179586
  0
ELLIPSE
  5
8D
330
22
100
AcDbEntity
  8
LAYER_1
 62
     7
100
AcDbEllipse
 10
-32.19269476996527
 20
-23.97734781901042
 30
0.0
 11
0.2793972439236111
 21
0.0
 31
0.0
210
0.0
220
0.0
230
1.0
 40
0.749691738594328
 41
0.0
 42
6.283185307179586
  0
ELLIPSE
  5
8C
330
22
100
AcDbEntity
  8
LAYER_1
 62
     7
100
AcDbEllipse
 10
-21.44261881510417
 20
-19.05258382161458
 30
0.0
 11
0.0
 21
-0.2094618055555556
 31
0.0
210
0.0
220
0.0
230
1.0
 40
0.6661184210526315
 41
0.0
 42
6.283185307179586
  0
CIRCLE
  5
8B
330
22
100
AcDbEntity
  8
LAYER_1
 62
     7
100
AcDbCircle
 10
-32.73598632812499
 20
-25.06375868055556
 30
0.0
 40
0.2096340603298611
  0
SPLINE
  5
8A
330
22
100
AcDbEntity
  8
LAYER_1
 62
     7
100
AcDbSpline
210
0.0
220
0.0
230
1.0
 70
    11
 71
     3
 72
    17
 73
    13
 74
     0
 42
0.0000000001
 43
0.0000000001
 40
0.0
 40
0.0
 40
0.0
 40
0.0
 40
1.0
 40
1.0
 40
1.0
 40
2.0
 40
2.0
 40
2.0
 40
3.0
 40
3.0
 40
3.0
 40
4.0
 40
4.0
 40
4.0
 40
4.0
 10
-30.62035319010417
 20
-24.89305419921875
 30
0.0
 10
-30.22072211371528
 20
-24.90890163845486
 30
0.0
 10
-30.0043701171875
 20
-24.47550862630208
 30
0.0
 10
-30.07706163194444
 20
-24.15477023654514
 30
0.0
 10
-30.09463161892361
 20
-24.06381971571181
 30
0.0
 10
-30.27549913194444
 20
-23.67796902126736
 30
0.0
 10
-30.59141438802083
 20
-23.80509304470486
 30
0.0
 10
-30.76573621961805
 20
-23.66453314887153
 30
0.0
 10
-31.16364474826388
 20
-23.97149115668402
 30
0.0
 10
-31.11059027777777
 20
-24.32874755859375
 30
0.0
 10
-31.07166069878472
 20
-24.54096544053819
 30
0.0
 10
-30.86254340277777
 20
-24.88444146050347
 30
0.0
 10
-30.62035319010417
 20
-24.89305419921875
 30
0.0
  0
SPLINE
  5
89
330
22
100
AcDbEntity
  8
LAYER_1
 62
     7
100
AcDbSpline
210
0.0
220
0.0
230
1.0
 70
    11
 71
     3
 72
    17
 73
    13
 74
     0
 42
0.0000000001
 43
0.0000000001
 40
0.0
 40
0.0
 40
0.0
 40
0.0
 40
1.0
 40
1.0
 40
1.0
 40
2.0
 40
2.0
 40
2.0
 40
3.0
 40
3.0
 40
3.0
 40
4.0
 40
4.0
 40
4.0
 40
4.0
 10
-32.82108018663194
 20
-12.67915717230903
 30
0.0
 10
-32.28088921440972
 20
-12.50896945529514
 30
0.0
 10
-32.09761013454861
 20
-12.33981526692708
 30
0.0
 10
-32.17305772569444
 20
-11.78618842230903
 30
0.0
 10
-32.14342990451389
 20
-11.43616672092014
 30
0.0
 10
-32.47243652343749
 20
-10.95695393880208
 30
0.0
 10
-32.94923773871528
 20
-11.06099582248264
 30
0.0
 10
-33.31131727430555
 20
-11.02585584852431
 30
0.0
 10
-33.4212158203125
 20
-11.14540066189236
 30
0.0
 10
-33.64755859375
 20
-11.59464111328125
 30
0.0
 10
-33.6258544921875
 20
-12.0676527235243
 30
0.0
 10
-33.17420247395833
 20
-12.48209771050347
 30
0.0
 10
-32.82108018663194
 20
-12.67915717230903
 30
0.0
  0
SPLINE
  5
88
330
22
100
AcDbEntity
  8
LAYER_1
 62
     7
100
AcDbSpline
210
0.0
220
0.0
230
1.0
 70
    11
 71
     3
 72
    17
 73
    13
 74
     0
 42
0.0000000001
 43
0.0000000001
 40
0.0
 40
0.0
 40
0.0
 40
0.0
 40
1.0
 40
1.0
 40
1.0
 40
2.0
 40
2.0
 40
2.0
 40
3.0
 40
3.0
 40
3.0
 40
4.0
 40
4.0
 40
4.0
 40
4.0
 10
-32.97542046440972
 20
-7.83397488064236
 30
0.0
 10
-32.2802001953125
 20
-7.627269151475693
 30
0.0
 10
-31.98426649305555
 20
-7.330990939670138
 30
0.0
 10
-32.13929578993055
 20
-6.944795735677083
 30
0.0
 10
-31.95119357638889
 20
-6.586850314670138
 30
0.0
 10
-32.28123372395833
 20
-6.072497558593749
 30
0.0
 10
-32.86173231336805
 20
-6.182740614149305
 30
0.0
 10
-33.1111572265625
 20
-5.948474121093749
 30
0.0
 10
-33.67925347222222
 20
-6.498311360677083
 30
0.0
 10
-33.5390380859375
 20
-7.137721082899305
 30
0.0
 10
-33.52629123263888
 20
-7.545275878906249
 30
0.0
 10
-33.29030219184028
 20
-7.723042805989583
 30
0.0
 10
-32.97542046440972
 20
-7.83397488064236
 30
0.0
  0
SPLINE
  5
87
330
22
100
AcDbEntity
  8
LAYER_1
 62
     7
100
AcDbSpline
210
0.0
220
0.0
230
1.0
 70
    11
 71
     3
 72
    17
 73
    13
 74
     0
 42
0.0000000001
 43
0.0000000001
 40
0.0
 40
0.0
 40
0.0
 40
0.0
 40
1.0
 40
1.0
 40
1.0
 40
2.0
 40
2.0
 40
2.0
 40
3.0
 40
3.0
 40
3.0
 40
4.0
 40
4.0
 40
4.0
 40
4.0
 10
-28.03412000868055
 20
-29.53118625217014
 30
0.0
 10
-27.87220052083333
 20
-29.55116780598958
 30
0.0
 10
-27.78503960503472
 20
-29.45126003689236
 30
0.0
 10
-27.74817708333333
 20
-29.32654758029514
 30
0.0
 10
-27.69029947916667
 20
-29.11536322699653
 30
0.0
 10
-27.86978895399305
 20
-28.89315456814236
 30
0.0
 10
-28.10302191840277
 20
-29.00822075737847
 30
0.0
 10
-28.25288357204861
 20
-29.03819308810764
 30
0.0
 10
-28.37139485677083
 20
-29.10054931640625
 30
0.0
 10
-28.31834038628472
 20
-29.24662136501736
 30
0.0
 10
-28.37690700954861
 20
-29.50052490234375
 30
0.0
 10
-28.19018283420139
 20
-29.53359781901041
 30
0.0
 10
-28.03412000868055
 20
-29.53118625217014
 30
0.0
  0
SPLINE
  5
86
330
22
100
AcDbEntity
  8
LAYER_1
 62
     7
100
AcDbSpline
210
0.0
220
0.0
230
1.0
 70
    11
 71
     3
 72
    17
 73
    13
 74
     0
 42
0.0000000001
 43
0.0000000001
 40
0.0
 40
0.0
 40
0.0
 40
0.0
 40
1.0
 40
1.0
 40
1.0
 40
2.0
 40
2.0
 40
2.0
 40
3.0
 40
3.0
 40
3.0
 40
4.0
 40
4.0
 40
4.0
 40
4.0
 10
-22.55917426215278
 20
-25.34539523654514
 30
0.0
 10
-22.23016764322917
 20
-25.35297444661458
 30
0.0
 10
-21.99004448784722
 20
-25.00846489800347
 30
0.0
 10
-22.032763671875
 20
-24.92681613498264
 30
0.0
 10
-21.98108723958333
 20
-24.4544935438368
 30
0.0
 10
-22.26082899305555
 20
-24.36078694661458
 30
0.0
 10
-22.5629638671875
 20
-24.4141859266493
 30
0.0
 10
-22.82100151909722
 20
-24.34528401692708
 30
0.0
 10
-22.93090006510417
 20
-24.43657904730902
 30
0.0
 10
-22.9102294921875
 20
-24.79211290147569
 30
0.0
 10
-22.95432671440972
 20
-25.04084879557291
 30
0.0
 10
-22.86096462673611
 20
-25.29199625651042
 30
0.0
 10
-22.55917426215278
 20
-25.34539523654514
 30
0.0
  0
SPLINE
  5
85
330
22
100
AcDbEntity
  8
LAYER_1
 62
     7
100
AcDbSpline
210
0.0
220
0.0
230
1.0
 70
    11
 71
     3
 72
    17
 73
    13
 74
     0
 42
0.0000000001
 43
0.0000000001
 40
0.0
 40
0.0
 40
0.0
 40
0.0
 40
1.0
 40
1.0
 40
1.0
 40
2.0
 40
2.0
 40
2.0
 40
3.0
 40
3.0
 40
3.0
 40
4.0
 40
4.0
 40
4.0
 40
4.0
 10
-26.80112033420139
 20
-12.51310356987847
 30
0.0
 10
-26.45626627604166
 20
-12.46831732855903
 30
0.0
 10
-26.15654296875
 20
-12.33637017144097
 30
0.0
 10
-26.16653374565972
 20
-12.13552110460069
 30
0.0
 10
-26.19306098090278
 20
-11.89195285373264
 30
0.0
 10
-26.50415310329861
 20
-11.59326307508681
 30
0.0
 10
-26.8231689453125
 20
-11.61944580078125
 30
0.0
 10
-27.07293836805555
 20
-11.60428738064236
 30
0.0
 10
-27.40642361111111
 20
-11.73830159505208
 30
0.0
 10
-27.39712185329861
 20
-11.97394612630208
 30
0.0
 10
-27.46602376302083
 20
-12.21682535807292
 30
0.0
 10
-27.19971788194444
 20
-12.44351264105903
 30
0.0
 10
-26.80112033420139
 20
-12.51310356987847
 30
0.0
  0
SPLINE
  5
84
330
22
100
AcDbEntity
  8
LAYER_1
 62
     7
100
AcDbSpline
210
0.0
220
0.0
230
1.0
 70
    11
 71
     3
 72
    17
 73
    13
 74
     0
 42
0.0000000001
 43
0.0000000001
 40
0.0
 40
0.0
 40
0.0
 40
0.0
 40
1.0
 40
1.0
 40
1.0
 40
2.0
 40
2.0
 40
2.0
 40
3.0
 40
3.0
 40
3.0
 40
4.0
 40
4.0
 40
4.0
 40
4.0
 10
-25.02689615885416
 20
-36.75245090060763
 30
0.0
 10
-24.5659423828125
 20
-36.91023627387153
 30
0.0
 10
-24.55112847222222
 20
-36.55091281467013
 30
0.0
 10
-24.43640679253472
 20
-36.37521294487847
 30
0.0
 10
-24.55422905815972
 20
-36.08100179036458
 30
0.0
 10
-24.84086100260416
 20
-35.7437269422743
 30
0.0
 10
-25.14954155815972
 20
-35.81779649522569
 30
0.0
 10
-25.59085828993056
 20
-35.87188449435764
 30
0.0
 10
-25.90436197916667
 20
-35.88910997178819
 30
0.0
 10
-25.83787163628472
 20
-36.17091878255208
 30
0.0
 10
-25.78585069444444
 20
-36.64427490234375
 30
0.0
 10
-25.43927408854167
 20
-36.73005777994791
 30
0.0
 10
-25.02689615885416
 20
-36.75245090060763
 30
0.0
  0
ELLIPSE
  5
83
330
22
100
AcDbEntity
  8
LAYER_1
 62
     7
100
AcDbEllipse
 10
-9.680029296874999
 20
-33.63929036458333
 30
0.0
 11
0.0
 21
-0.2096340603298611
 31
0.0
210
0.0
220
0.0
230
1.0
 40
0.6672149677595015
 41
0.0
 42
6.283185307179586
  0
ELLIPSE
  5
82
330
22
100
AcDbEntity
  8
LAYER_1
 62
     7
100
AcDbEllipse
 10
-8.618250868055554
 20
-31.83664415147569
 30
0.0
 11
0.0
 21
-0.2094618055555556
 31
0.0
210
0.0
220
0.0
230
1.0
 40
0.6677631578947368
 41
0.0
 42
6.283185307179586
  0
CIRCLE
  5
81
330
22
100
AcDbEntity
  8
LAYER_1
 62
     7
100
AcDbCircle
 10
-11.7295166015625
 20
-31.29335259331597
 30
0.0
 40
0.2094618055555556
  0
SPLINE
  5
80
330
22
100
AcDbEntity
  8
LAYER_1
 62
     7
100
AcDbSpline
210
0.0
220
0.0
230
1.0
 70
    11
 71
     3
 72
    17
 73
    13
 74
     0
 42
0.0000000001
 43
0.0000000001
 40
0.0
 40
0.0
 40
0.0
 40
0.0
 40
1.0
 40
1.0
 40
1.0
 40
2.0
 40
2.0
 40
2.0
 40
3.0
 40
3.0
 40
3.0
 40
4.0
 40
4.0
 40
4.0
 40
4.0
 10
-10.14442816840278
 20
-31.48421088324653
 30
0.0
 10
-9.683818901909721
 20
-31.64234076605903
 30
0.0
 10
-9.669004991319444
 20
-31.28267279730903
 30
0.0
 10
-9.554283311631943
 20
-31.10731743706597
 30
0.0
 10
-9.672105577256943
 20
-30.81276177300347
 30
0.0
 10
-9.958737521701387
 20
-30.4758314344618
 30
0.0
 10
-10.26741807725694
 20
-30.54990098741319
 30
0.0
 10
-10.70873480902778
 20
-30.60398898654514
 30
0.0
 10
-11.02223849826389
 20
-30.62121446397569
 30
0.0
 10
-10.95540364583333
 20
-30.90267876519097
 30
0.0
 10
-10.90338270399306
 20
-31.37603488498264
 30
0.0
 10
-10.55715060763889
 20
-31.46216227213541
 30
0.0
 10
-10.14442816840278
 20
-31.48421088324653
 30
0.0
  0
ELLIPSE
  5
7F
330
22
100
AcDbEntity
  8
LAYER_1
 62
     7
100
AcDbEllipse
 10
35.79798719618055
 20
-6.088344997829861
 30
0.0
 11
0.2793972439236111
 21
0.0
 31
0.0
210
0.0
220
0.0
230
1.0
 40
0.749691738594328
 41
0.0
 42
6.283185307179586
  0
ELLIPSE
  5
7E
330
22
100
AcDbEntity
  8
LAYER_1
 62
     7
100
AcDbEllipse
 10
18.54529351128472
 20
-27.99415690104166
 30
0.0
 11
0.0
 21
-0.2096340603298611
 31
0.0
210
0.0
220
0.0
230
1.0
 40
0.6655715836349346
 41
0.0
 42
6.283185307179586
  0
ELLIPSE
  5
7D
330
22
100
AcDbEntity
  8
LAYER_1
 62
     7
100
AcDbEllipse
 10
22.29872504340278
 20
-26.01873914930555
 30
0.0
 11
0.0
 21
-0.2792249891493056
 31
0.0
210
0.0
220
0.0
230
1.0
 40
0.5009257345856344
 41
0.0
 42
6.283185307179586
  0
ELLIPSE
  5
7C
330
22
100
AcDbEntity
  8
LAYER_1
 62
     7
100
AcDbEllipse
 10
21.4591552734375
 20
-25.57414957682292
 30
0.0
 11
0.0
 21
-0.2094618055555556
 31
0.0
210
0.0
220
0.0
230
1.0
 40
0.6661184210526315
 41
0.0
 42
6.283185307179586
  0
ELLIPSE
  5
7B
330
22
100
AcDbEntity
  8
LAYER_1
 62
     7
100
AcDbEllipse
 10
22.19985080295139
 20
-23.15414225260416
 30
0.0
 11
0.0
 21
-0.2096340603298611
 31
0.0
210
0.0
220
0.0
230
1.0
 40
0.6672149677595015
 41
0.0
 42
6.283185307179586
  0
ELLIPSE
  5
7A
330
22
100
AcDbEntity
  8
LAYER_1
 62
     7
100
AcDbEllipse
 10
15.58182237413194
 20
-25.17899712456597
 30
0.0
 11
0.0
 21
-0.2793972439236111
 31
0.0
210
0.0
220
0.0
230
1.0
 40
0.5006165228113441
 41
0.0
 42
6.283185307179586
  0
ELLIPSE
  5
79
330
22
100
AcDbEntity
  8
LAYER_1
 62
     7
100
AcDbEllipse
 10
30.26654188368055
 20
-6.11314968532986
 30
0.0
 11
0.0
 21
-0.2793972439236111
 31
0.0
210
0.0
220
0.0
230
1.0
 40
0.4993849994648823
 41
0.0
 42
6.283185307179586
  0
CIRCLE
  5
78
330
22
100
AcDbEntity
  8
LAYER_1
 62
     7
100
AcDbCircle
 10
13.80380859375
 20
-26.21631537543403
 30
0.0
 40
0.2094618055555556
  0
ELLIPSE
  5
77
330
22
100
AcDbEntity
  8
LAYER_1
 62
     7
100
AcDbEllipse
 10
13.80380859375
 20
-27.96969672309028
 30
0.0
 11
0.2098063151041666
 21
0.0001722547743055555
 31
0.0
210
0.0
220
0.0
230
1.0
 40
0.6658454241908752
 41
0.0
 42
6.283185307179586
  0
CIRCLE
  5
76
330
22
100
AcDbEntity
  8
LAYER_1
 62
     7
100
AcDbCircle
 10
15.43368326822917
 20
-27.45103759765625
 30
0.0
 40
0.2094618055555556
  0
ELLIPSE
  5
75
330
22
100
AcDbEntity
  8
LAYER_1
 62
     7
100
AcDbEllipse
 10
30.6120849609375
 20
-12.87914496527778
 30
0.0
 11
0.0
 21
-0.2096340603298611
 31
0.0
210
0.0
220
0.0
230
1.0
 40
0.6672149677595015
 41
0.0
 42
6.283185307179586
  0
ELLIPSE
  5
74
330
22
100
AcDbEntity
  8
LAYER_1
 62
     7
100
AcDbEllipse
 10
35.452099609375
 20
-5.47098388671875
 30
0.0
 11
0.0
 21
-0.2094618055555556
 31
0.0
210
0.0
220
0.0
230
1.0
 40
0.6677631578947368
 41
0.0
 42
6.283185307179586
  0
CIRCLE
  5
73
330
22
100
AcDbEntity
  8
LAYER_1
 62
     7
100
AcDbCircle
 10
27.50081922743055
 20
-12.33585340711806
 30
0.0
 40
0.2096340603298611
  0
CIRCLE
  5
72
330
22
100
AcDbEntity
  8
LAYER_1
 62
     7
100
AcDbCircle
 10
10.84068196614583
 20
-24.19128824869792
 30
0.0
 40
0.2094618055555556
  0
CIRCLE
  5
71
330
22
100
AcDbEntity
  8
LAYER_1
 62
     7
100
AcDbCircle
 10
31.353125
 20
-5.223970540364583
 30
0.0
 40
0.2094618055555556
  0
ELLIPSE
  5
70
330
22
100
AcDbEntity
  8
LAYER_1
 62
     7
100
AcDbEllipse
 10
34.56326497395833
 20
-7.347871907552083
 30
0.0
 11
0.0
 21
-0.2793972439236111
 31
0.0
210
0.0
220
0.0
230
1.0
 40
0.749692752611424
 41
0.0
 42
6.283185307179586
  0
ELLIPSE
  5
6F
330
22
100
AcDbEntity
  8
LAYER_1
 62
     7
100
AcDbEllipse
 10
21.40989040798611
 20
-27.40160047743055
 30
0.0
 11
0.2793972439236111
 21
0.0001722547743055555
 31
0.0
210
0.0
220
0.0
230
1.0
 40
0.7503081188094863
 41
0.0
 42
6.283185307179586
  0
ELLIPSE
  5
6E
330
22
100
AcDbEntity
  8
LAYER_1
 62
     7
100
AcDbEllipse
 10
34.26698676215278
 20
-5.619122992621527
 30
0.0
 11
0.0
 21
-0.2094618055555556
 31
0.0
210
0.0
220
0.0
230
1.0
 40
0.6661184210526315
 41
0.0
 42
6.283185307179586
  0
CIRCLE
  5
6D
330
22
100
AcDbEntity
  8
LAYER_1
 62
     7
100
AcDbCircle
 10
20.86659884982639
 20
-28.48801133897569
 30
0.0
 40
0.2094618055555556
  0
SPLINE
  5
6C
330
22
100
AcDbEntity
  8
LAYER_1
 62
     7
100
AcDbSpline
210
0.0
220
0.0
230
1.0
 70
    11
 71
     3
 72
    17
 73
    13
 74
     0
 42
0.0000000001
 43
0.0000000001
 40
0.0
 40
0.0
 40
0.0
 40
0.0
 40
1.0
 40
1.0
 40
1.0
 40
2.0
 40
2.0
 40
2.0
 40
3.0
 40
3.0
 40
3.0
 40
4.0
 40
4.0
 40
4.0
 40
4.0
 10
22.98188747829861
 20
-28.31747911241319
 30
0.0
 10
23.38186306423611
 20
-28.3333265516493
 30
0.0
 10
23.59821506076389
 20
-27.89958902994792
 30
0.0
 10
23.52517903645833
 20
-27.57885064019097
 30
0.0
 10
23.50795355902778
 20
-27.48824462890625
 30
0.0
 10
23.32674153645833
 20
-27.10204942491319
 30
0.0
 10
23.01082628038194
 20
-27.22917344835069
 30
0.0
 10
22.83650444878472
 20
-27.08861355251736
 30
0.0
 10
22.4389404296875
 20
-27.39591606987847
 30
0.0
 10
22.49199490017361
 20
-27.75282796223958
 30
0.0
 10
22.53092447916666
 20
-27.96539035373264
 30
0.0
 10
22.739697265625
 20
-28.3085218641493
 30
0.0
 10
22.98188747829861
 20
-28.31747911241319
 30
0.0
  0
SPLINE
  5
6B
330
22
100
AcDbEntity
  8
LAYER_1
 62
     7
100
AcDbSpline
210
0.0
220
0.0
230
1.0
 70
    11
 71
     3
 72
    17
 73
    13
 74
     0
 42
0.0000000001
 43
0.0000000001
 40
0.0
 40
0.0
 40
0.0
 40
0.0
 40
1.0
 40
1.0
 40
1.0
 40
2.0
 40
2.0
 40
2.0
 40
3.0
 40
3.0
 40
3.0
 40
4.0
 40
4.0
 40
4.0
 40
4.0
 10
28.01620551215278
 20
-10.22521565755208
 30
0.0
 10
28.55674099392361
 20
-10.05537245008681
 30
0.0
 10
28.74002007378472
 20
-9.886218261718749
 30
0.0
 10
28.66457248263889
 20
-9.332591417100694
 30
0.0
 10
28.69420030381944
 20
-8.982569715711804
 30
0.0
 10
28.36519368489583
 20
-8.50335693359375
 30
0.0
 10
27.88839246961805
 20
-8.607054307725694
 30
0.0
 10
27.52631293402778
 20
-8.572258843315971
 30
0.0
 10
27.41641438802083
 20
-8.691803656684026
 30
0.0
 10
27.19007161458333
 20
-9.141044108072915
 30
0.0
 10
27.21177571614583
 20
-9.614055718315971
 30
0.0
 10
27.663427734375
 20
-10.02815619574653
 30
0.0
 10
28.01620551215278
 20
-10.22521565755208
 30
0.0
  0
SPLINE
  5
6A
330
22
100
AcDbEntity
  8
LAYER_1
 62
     7
100
AcDbSpline
210
0.0
220
0.0
230
1.0
 70
    11
 71
     3
 72
    17
 73
    13
 74
     0
 42
0.0000000001
 43
0.0000000001
 40
0.0
 40
0.0
 40
0.0
 40
0.0
 40
1.0
 40
1.0
 40
1.0
 40
2.0
 40
2.0
 40
2.0
 40
3.0
 40
3.0
 40
3.0
 40
4.0
 40
4.0
 40
4.0
 40
4.0
 10
27.86220974392361
 20
-5.380377875434028
 30
0.0
 10
28.55708550347222
 20
-5.173672146267361
 30
0.0
 10
28.85336371527778
 20
-4.877393934461805
 30
0.0
 10
28.69798990885417
 20
-4.491198730468749
 30
0.0
 10
28.88643663194444
 20
-4.132908799913194
 30
0.0
 10
28.556396484375
 20
-3.618900553385416
 30
0.0
 10
27.97589789496528
 20
-3.728799099392361
 30
0.0
 10
27.72647298177083
 20
-3.494877115885416
 30
0.0
 10
27.15837673611111
 20
-4.04471435546875
 30
0.0
 10
27.29859212239583
 20
-4.684124077690972
 30
0.0
 10
27.31133897569444
 20
-5.091678873697917
 30
0.0
 10
27.54732801649305
 20
-5.269101291232638
 30
0.0
 10
27.86220974392361
 20
-5.380377875434028
 30
0.0
  0
SPLINE
  5
69
330
22
100
AcDbEntity
  8
LAYER_1
 62
     7
100
AcDbSpline
210
0.0
220
0.0
230
1.0
 70
    11
 71
     3
 72
    17
 73
    13
 74
     0
 42
0.0000000001
 43
0.0000000001
 40
0.0
 40
0.0
 40
0.0
 40
0.0
 40
1.0
 40
1.0
 40
1.0
 40
2.0
 40
2.0
 40
2.0
 40
3.0
 40
3.0
 40
3.0
 40
4.0
 40
4.0
 40
4.0
 40
4.0
 10
15.31207139756944
 20
-22.47115207248264
 30
0.0
 10
15.47433539496528
 20
-22.49113362630208
 30
0.0
 10
15.56115180121528
 20
-22.39122585720486
 30
0.0
 10
15.59835883246528
 20
-22.26651340060764
 30
0.0
 10
15.65589192708333
 20
-22.05532904730903
 30
0.0
 10
15.47640245225694
 20
-21.83312038845486
 30
0.0
 10
15.24316948784722
 20
-21.94818657769097
 30
0.0
 10
15.09330783420139
 20
-21.97815890842014
 30
0.0
 10
14.97479654947917
 20
-22.04051513671875
 30
0.0
 10
15.02819552951389
 20
-22.18658718532986
 30
0.0
 10
14.96928439670139
 20
-22.44049072265625
 30
0.0
 10
15.15600857204861
 20
-22.47356363932292
 30
0.0
 10
15.31207139756944
 20
-22.47115207248264
 30
0.0
  0
SPLINE
  5
68
330
22
100
AcDbEntity
  8
LAYER_1
 62
     7
100
AcDbSpline
210
0.0
220
0.0
230
1.0
 70
    11
 71
     3
 72
    17
 73
    13
 74
     0
 42
0.0000000001
 43
0.0000000001
 40
0.0
 40
0.0
 40
0.0
 40
0.0
 40
1.0
 40
1.0
 40
1.0
 40
2.0
 40
2.0
 40
2.0
 40
3.0
 40
3.0
 40
3.0
 40
4.0
 40
4.0
 40
4.0
 40
4.0
 10
33.15043131510416
 20
-11.91193440755208
 30
0.0
 10
33.47943793402777
 20
-11.91951361762153
 30
0.0
 10
33.71956108940972
 20
-11.57465955946181
 30
0.0
 10
33.67684190538194
 20
-11.49335530598958
 30
0.0
 10
33.72851833767361
 20
-11.02103271484375
 30
0.0
 10
33.44877658420138
 20
-10.92732611762153
 30
0.0
 10
33.14664171006944
 20
-10.98072509765625
 30
0.0
 10
32.88860405815972
 20
-10.91182318793403
 30
0.0
 10
32.77870551215278
 20
-11.00311821831597
 30
0.0
 10
32.79937608506944
 20
-11.35865207248264
 30
0.0
 10
32.75527886284722
 20
-11.60738796657986
 30
0.0
 10
32.84864095052083
 20
-11.85853542751736
 30
0.0
 10
33.15043131510416
 20
-11.91193440755208
 30
0.0
  0
SPLINE
  5
67
330
22
100
AcDbEntity
  8
LAYER_1
 62
     7
100
AcDbSpline
210
0.0
220
0.0
230
1.0
 70
    11
 71
     3
 72
    17
 73
    13
 74
     0
 42
0.0000000001
 43
0.0000000001
 40
0.0
 40
0.0
 40
0.0
 40
0.0
 40
1.0
 40
1.0
 40
1.0
 40
2.0
 40
2.0
 40
2.0
 40
3.0
 40
3.0
 40
3.0
 40
4.0
 40
4.0
 40
4.0
 40
4.0
 10
24.1566650390625
 20
-12.30260823567708
 30
0.0
 10
24.50151909722222
 20
-12.25782199435764
 30
0.0
 10
24.80124240451389
 20
-12.12587483723958
 30
0.0
 10
24.79125162760417
 20
-11.92502577039931
 30
0.0
 10
24.76472439236111
 20
-11.68145751953125
 30
0.0
 10
24.45363226996528
 20
-11.38276774088542
 30
0.0
 10
24.1349609375
 20
-11.40895046657986
 30
0.0
 10
23.88519151475694
 20
-11.39344753689236
 30
0.0
 10
23.55170627170139
 20
-11.52780626085069
 30
0.0
 10
23.56066351996527
 20
-11.76345079210069
 30
0.0
 10
23.49210611979166
 20
-12.00633002387153
 30
0.0
 10
23.75806749131944
 20
-12.23301730685764
 30
0.0
 10
24.1566650390625
 20
-12.30260823567708
 30
0.0
  0
SPLINE
  5
66
330
22
100
AcDbEntity
  8
LAYER_1
 62
     7
100
AcDbSpline
210
0.0
220
0.0
230
1.0
 70
    11
 71
     3
 72
    17
 73
    13
 74
     0
 42
0.0000000001
 43
0.0000000001
 40
0.0
 40
0.0
 40
0.0
 40
0.0
 40
1.0
 40
1.0
 40
1.0
 40
2.0
 40
2.0
 40
2.0
 40
3.0
 40
3.0
 40
3.0
 40
4.0
 40
4.0
 40
4.0
 40
4.0
 10
17.01877170138889
 20
-27.6418958875868
 30
0.0
 10
17.47972547743056
 20
-27.79968126085069
 30
0.0
 10
17.49453938802083
 20
-27.4403578016493
 30
0.0
 10
17.60891655815972
 20
-27.26500244140625
 30
0.0
 10
17.49143880208333
 20
-26.97044677734375
 30
0.0
 10
17.20480685763889
 20
-26.63317192925347
 30
0.0
 10
16.89612630208333
 20
-26.70758599175347
 30
0.0
 10
16.4548095703125
 20
-26.7613294813368
 30
0.0
 10
16.14130588107639
 20
-26.77855495876736
 30
0.0
 10
16.20779622395833
 20
-27.06036376953125
 30
0.0
 10
16.25981716579861
 20
-27.53371988932291
 30
0.0
 10
16.60639377170139
 20
-27.61984727647569
 30
0.0
 10
17.01877170138889
 20
-27.6418958875868
 30
0.0
  0
ELLIPSE
  5
65
330
22
100
AcDbEntity
  8
LAYER_1
 62
     7
100
AcDbEllipse
 10
-13.31873914930555
 20
-43.12174343532985
 30
0.0
 11
0.0
 21
-0.2094618055555556
 31
0.0
210
0.0
220
0.0
230
1.0
 40
0.6661184210526315
 41
0.0
 42
6.283185307179586
  0
ELLIPSE
  5
64
330
22
100
AcDbEntity
  8
LAYER_1
 62
     7
100
AcDbEllipse
 10
-18.65278049045139
 20
-41.73888210720486
 30
0.0
 11
0.0
 21
-0.2094618055555556
 31
0.0
210
0.0
220
0.0
230
1.0
 40
0.6677631578947368
 41
0.0
 42
6.283185307179586
  0
SPLINE
  5
63
330
22
100
AcDbEntity
  8
LAYER_1
 62
     7
100
AcDbSpline
210
0.0
220
0.0
230
1.0
 70
    11
 71
     3
 72
    17
 73
    13
 74
     0
 42
0.0000000001
 43
0.0000000001
 40
0.0
 40
0.0
 40
0.0
 40
0.0
 40
1.0
 40
1.0
 40
1.0
 40
2.0
 40
2.0
 40
2.0
 40
3.0
 40
3.0
 40
3.0
 40
4.0
 40
4.0
 40
4.0
 40
4.0
 10
-20.31848415798611
 20
-43.43180202907985
 30
0.0
 10
-20.02565104166667
 20
-43.42560085720486
 30
0.0
 10
-19.96984049479167
 20
-43.16825222439235
 30
0.0
 10
-19.85959743923611
 20
-42.8719740125868
 30
0.0
 10
-19.76968044704861
 20
-42.4844007703993
 30
0.0
 10
-20.20341796875
 20
-42.29388699001736
 30
0.0
 10
-20.30263671875
 20
-42.35004204644097
 30
0.0
 10
-20.81078830295139
 20
-42.2735609266493
 30
0.0
 10
-20.86797688802083
 20
-42.67388102213541
 30
0.0
 10
-20.92068684895833
 20
-42.84234619140624
 30
0.0
 10
-21.02782931857639
 20
-43.24025472005208
 30
0.0
 10
-20.66402723524305
 20
-43.3370619032118
 30
0.0
 10
-20.31848415798611
 20
-43.43180202907985
 30
0.0
  0
SPLINE
  5
62
330
22
100
AcDbEntity
  8
LAYER_1
 62
     7
100
AcDbSpline
210
0.0
220
0.0
230
1.0
 70
    11
 71
     3
 72
    17
 73
    13
 74
     0
 42
0.0000000001
 43
0.0000000001
 40
0.0
 40
0.0
 40
0.0
 40
0.0
 40
1.0
 40
1.0
 40
1.0
 40
2.0
 40
2.0
 40
2.0
 40
3.0
 40
3.0
 40
3.0
 40
4.0
 40
4.0
 40
4.0
 40
4.0
 10
-17.86695421006944
 20
-41.24864501953125
 30
0.0
 10
-17.71468098958333
 20
-41.28585205078124
 30
0.0
 10
-17.46146647135416
 20
-41.02230224609374
 30
0.0
 10
-17.54277072482639
 20
-40.82041965060763
 30
0.0
 10
-17.49109429253472
 20
-40.69088406032986
 30
0.0
 10
-17.72260470920139
 20
-40.52448594835069
 30
0.0
 10
-17.86626519097222
 20
-40.35843234592014
 30
0.0
 10
-18.12189127604167
 20
-40.42698974609375
 30
0.0
 10
-18.40473361545139
 20
-40.70018581814236
 30
0.0
 10
-18.41679144965278
 20
-40.8317884657118
 30
0.0
 10
-18.31688368055555
 20
-41.16940782335069
 30
0.0
 10
-18.287255859375
 20
-41.2410658094618
 30
0.0
 10
-17.86695421006944
 20
-41.24864501953125
 30
0.0
  0
SPLINE
  5
61
330
22
100
AcDbEntity
  8
LAYER_1
 62
     7
100
AcDbSpline
210
0.0
220
0.0
230
1.0
 70
    11
 71
     3
 72
    17
 73
    13
 74
     0
 42
0.0000000001
 43
0.0000000001
 40
0.0
 40
0.0
 40
0.0
 40
0.0
 40
1.0
 40
1.0
 40
1.0
 40
2.0
 40
2.0
 40
2.0
 40
3.0
 40
3.0
 40
3.0
 40
4.0
 40
4.0
 40
4.0
 40
4.0
 10
-16.79208441840278
 20
-44.52872043185764
 30
0.0
 10
-16.45033094618055
 20
-44.42398952907985
 30
0.0
 10
-16.21055230034722
 20
-44.24346652560764
 30
0.0
 10
-16.06172417534722
 20
-43.82247585720486
 30
0.0
 10
-16.15646430121528
 20
-43.59027642144097
 30
0.0
 10
-16.51303168402778
 20
-43.18134358723958
 30
0.0
 10
-16.92575412326389
 20
-43.20408121744791
 30
0.0
 10
-17.20584038628472
 20
-43.21028238932291
 30
0.0
 10
-17.60788302951389
 20
-43.58097466362847
 30
0.0
 10
-17.6578369140625
 20
-43.96269124348958
 30
0.0
 10
-17.66851671006944
 20
-44.20143636067708
 30
0.0
 10
-17.31332736545139
 20
-44.5152845594618
 30
0.0
 10
-16.79208441840278
 20
-44.52872043185764
 30
0.0
  0
SPLINE
  5
60
330
22
100
AcDbEntity
  8
LAYER_1
 62
     7
100
AcDbSpline
210
0.0
220
0.0
230
1.0
 70
    11
 71
     3
 72
    17
 73
    13
 74
     0
 42
0.0000000001
 43
0.0000000001
 40
0.0
 40
0.0
 40
0.0
 40
0.0
 40
1.0
 40
1.0
 40
1.0
 40
2.0
 40
2.0
 40
2.0
 40
3.0
 40
3.0
 40
3.0
 40
4.0
 40
4.0
 40
4.0
 40
4.0
 10
-11.52384440104167
 20
-45.17502034505208
 30
0.0
 10
-11.25409342447917
 20
-45.00414360894097
 30
0.0
 10
-11.01775987413194
 20
-44.82568766276042
 30
0.0
 10
-11.15074055989583
 20
-44.6238050672743
 30
0.0
 10
-11.1156005859375
 20
-44.27068277994791
 30
0.0
 10
-11.39258626302083
 20
-44.01677924262152
 30
0.0
 10
-11.68438585069444
 20
-43.97922770182291
 30
0.0
 10
-11.77671440972222
 20
-44.17387559678819
 30
0.0
 10
-12.09125162760417
 20
-44.20729302300347
 30
0.0
 10
-12.19253743489583
 20
-44.64171956380208
 30
0.0
 10
-12.00064561631944
 20
-44.75575222439236
 30
0.0
 10
-11.96343858506944
 20
-45.1416029188368
 30
0.0
 10
-11.52384440104167
 20
-45.17502034505208
 30
0.0
  0
ELLIPSE
  5
5F
330
22
100
AcDbEntity
  8
LAYER_1
 62
     7
100
AcDbEllipse
 10
-20.03495279947916
 20
-1.323088921440972
 30
0.0
 11
0.0
 21
-0.2094618055555556
 31
0.0
210
0.0
220
0.0
230
1.0
 40
0.6661184210526315
 41
0.0
 42
6.283185307179586
  0
ELLIPSE
  5
5E
330
22
100
AcDbEntity
  8
LAYER_1
 62
     7
100
AcDbEllipse
 10
-27.21280924479166
 20
5.722820366753472
 30
0.0
 11
0.0
 21
-0.2094618055555556
 31
0.0
210
0.0
220
0.0
230
1.0
 40
0.6677631578947368
 41
0.0
 42
6.283185307179586
  0
CIRCLE
  5
5D
330
22
100
AcDbEntity
  8
LAYER_1
 62
     7
100
AcDbCircle
 10
-18.50395236545139
 20
-4.533401150173611
 30
0.0
 40
0.2096340603298611
  0
ELLIPSE
  5
5C
330
22
100
AcDbEntity
  8
LAYER_1
 62
     7
100
AcDbEllipse
 10
-26.49657389322917
 20
0.9322428385416666
 30
0.0
 11
0.0
 21
-0.2096340603298611
 31
0.0
210
0.0
220
0.0
230
1.0
 40
0.6655715836349346
 41
0.0
 42
6.283185307179586
  0
SPLINE
  5
5B
330
22
100
AcDbEntity
  8
LAYER_1
 62
     7
100
AcDbSpline
210
0.0
220
0.0
230
1.0
 70
    11
 71
     3
 72
    17
 73
    13
 74
     0
 42
0.0000000001
 43
0.0000000001
 40
0.0
 40
0.0
 40
0.0
 40
0.0
 40
1.0
 40
1.0
 40
1.0
 40
2.0
 40
2.0
 40
2.0
 40
3.0
 40
3.0
 40
3.0
 40
4.0
 40
4.0
 40
4.0
 40
4.0
 10
-28.87851291232639
 20
4.029900444878471
 30
0.0
 10
-28.58567979600694
 20
4.036101616753472
 30
0.0
 10
-28.52986924913194
 20
4.293450249565971
 30
0.0
 10
-28.41962619357639
 20
4.589728461371528
 30
0.0
 10
-28.32970920138889
 20
4.977301703559028
 30
0.0
 10
-28.76344672309028
 20
5.167815483940972
 30
0.0
 10
-28.86266547309027
 20
5.111660427517361
 30
0.0
 10
-29.37081705729166
 20
5.188141547309027
 30
0.0
 10
-29.42800564236111
 20
4.787821451822916
 30
0.0
 10
-29.48071560329861
 20
4.619356282552083
 30
0.0
 10
-29.58785807291666
 20
4.22144775390625
 30
0.0
 10
-29.22405598958333
 20
4.124985080295138
 30
0.0
 10
-28.87851291232639
 20
4.029900444878471
 30
0.0
  0
SPLINE
  5
5A
330
22
100
AcDbEntity
  8
LAYER_1
 62
     7
100
AcDbSpline
210
0.0
220
0.0
230
1.0
 70
    11
 71
     3
 72
    17
 73
    13
 74
     0
 42
0.0000000001
 43
0.0000000001
 40
0.0
 40
0.0
 40
0.0
 40
0.0
 40
1.0
 40
1.0
 40
1.0
 40
2.0
 40
2.0
 40
2.0
 40
3.0
 40
3.0
 40
3.0
 40
4.0
 40
4.0
 40
4.0
 40
4.0
 10
-26.42698296440972
 20
6.213057454427083
 30
0.0
 10
-26.27505425347222
 20
6.175850423177083
 30
0.0
 10
-26.02149522569444
 20
6.439744737413194
 30
0.0
 10
-26.10279947916666
 20
6.641282823350694
 30
0.0
 10
-26.051123046875
 20
6.770818413628471
 30
0.0
 10
-26.28263346354166
 20
6.937561035156249
 30
0.0
 10
-26.4262939453125
 20
7.103270128038194
 30
0.0
 10
-26.68192003038194
 20
7.034712727864583
 30
0.0
 10
-26.96476236979166
 20
6.761516655815972
 30
0.0
 10
-26.97682020399305
 20
6.629914008246527
 30
0.0
 10
-26.87691243489583
 20
6.292294650607638
 30
0.0
 10
-26.84728461371527
 20
6.220636664496527
 30
0.0
 10
-26.42698296440972
 20
6.213057454427083
 30
0.0
  0
SPLINE
  5
59
330
22
100
AcDbEntity
  8
LAYER_1
 62
     7
100
AcDbSpline
210
0.0
220
0.0
230
1.0
 70
    11
 71
     3
 72
    17
 73
    13
 74
     0
 42
0.0000000001
 43
0.0000000001
 40
0.0
 40
0.0
 40
0.0
 40
0.0
 40
1.0
 40
1.0
 40
1.0
 40
2.0
 40
2.0
 40
2.0
 40
3.0
 40
3.0
 40
3.0
 40
4.0
 40
4.0
 40
4.0
 40
4.0
 10
-25.35211317274305
 20
2.932982042100694
 30
0.0
 10
-25.01035970052083
 20
3.037712944878472
 30
0.0
 10
-24.7705810546875
 20
3.218580457899305
 30
0.0
 10
-24.6217529296875
 20
3.639226616753472
 30
0.0
 10
-24.71649305555555
 20
3.871426052517361
 30
0.0
 10
-25.07306043836805
 20
4.28035888671875
 30
0.0
 10
-25.48578287760417
 20
4.257621256510416
 30
0.0
 10
-25.765869140625
 20
4.251420084635416
 30
0.0
 10
-26.16791178385417
 20
3.880727810329861
 30
0.0
 10
-26.21786566840278
 20
3.49901123046875
 30
0.0
 10
-26.22854546440972
 20
3.26026611328125
 30
0.0
 10
-25.87335611979167
 20
2.946417914496528
 30
0.0
 10
-25.35211317274305
 20
2.932982042100694
 30
0.0
  0
SPLINE
  5
58
330
22
100
AcDbEntity
  8
LAYER_1
 62
     7
100
AcDbSpline
210
0.0
220
0.0
230
1.0
 70
    11
 71
     3
 72
    17
 73
    13
 74
     0
 42
0.0000000001
 43
0.0000000001
 40
0.0
 40
0.0
 40
0.0
 40
0.0
 40
1.0
 40
1.0
 40
1.0
 40
2.0
 40
2.0
 40
2.0
 40
3.0
 40
3.0
 40
3.0
 40
4.0
 40
4.0
 40
4.0
 40
4.0
 10
-18.24005805121528
 20
-3.376710340711805
 30
0.0
 10
-17.97065158420139
 20
-3.205489095052083
 30
0.0
 10
-17.73397352430555
 20
-3.027033148871527
 30
0.0
 10
-17.86695421006944
 20
-2.825150553385416
 30
0.0
 10
-17.83181423611111
 20
-2.472372775607639
 30
0.0
 10
-18.10914442274305
 20
-2.218124728732639
 30
0.0
 10
-18.40059950086805
 20
-2.180573187934028
 30
0.0
 10
-18.49258355034722
 20
-2.375565592447916
 30
0.0
 10
-18.80746527777778
 20
-2.408638509114583
 30
0.0
 10
-18.90875108506944
 20
-2.843065049913194
 30
0.0
 10
-18.71685926649305
 20
-2.957097710503472
 30
0.0
 10
-18.67965223524305
 20
-3.343292914496527
 30
0.0
 10
-18.24005805121528
 20
-3.376710340711805
 30
0.0
  0
ELLIPSE
  5
57
330
22
100
AcDbEntity
  8
LAYER_1
 62
     7
100
AcDbEllipse
 10
9.728949652777777
 20
-18.09846462673611
 30
0.0
 11
0.0
 21
-0.2096340603298611
 31
0.0
210
0.0
220
0.0
230
1.0
 40
0.6655715836349346
 41
0.0
 42
6.283185307179586
  0
ELLIPSE
  5
56
330
22
100
AcDbEntity
  8
LAYER_1
 62
     7
100
AcDbEllipse
 10
4.394908311631944
 20
-16.71560329861111
 30
0.0
 11
0.0
 21
-0.2096340603298611
 31
0.0
210
0.0
220
0.0
230
1.0
 40
0.6672149677595015
 41
0.0
 42
6.283185307179586
  0
ELLIPSE
  5
55
330
22
100
AcDbEntity
  8
LAYER_1
 62
     7
100
AcDbEllipse
 10
12.42060275607639
 20
-18.78989529079861
 30
0.0
 11
0.2094618055555556
 21
-0.0001722547743055555
 31
0.0
210
0.0
220
0.0
230
1.0
 40
0.6669405639511654
 41
0.0
 42
6.283185307179586
  0
SPLINE
  5
54
330
22
100
AcDbEntity
  8
LAYER_1
 62
     7
100
AcDbSpline
210
0.0
220
0.0
230
1.0
 70
    11
 71
     3
 72
    17
 73
    13
 74
     0
 42
0.0000000001
 43
0.0000000001
 40
0.0
 40
0.0
 40
0.0
 40
0.0
 40
1.0
 40
1.0
 40
1.0
 40
2.0
 40
2.0
 40
2.0
 40
3.0
 40
3.0
 40
3.0
 40
4.0
 40
4.0
 40
4.0
 40
4.0
 10
2.729204644097222
 20
-18.40869547526042
 30
0.0
 10
3.022037760416667
 20
-18.40249430338541
 30
0.0
 10
3.077848307291666
 20
-18.14514567057292
 30
0.0
 10
3.188091362847222
 20
-17.84886745876736
 30
0.0
 10
3.278008355034722
 20
-17.46129421657986
 30
0.0
 10
2.844270833333333
 20
-17.27078043619791
 30
0.0
 10
2.745052083333333
 20
-17.32693549262153
 30
0.0
 10
2.236900499131944
 20
-17.25045437282986
 30
0.0
 10
2.1797119140625
 20
-17.65042995876736
 30
0.0
 10
2.127001953125
 20
-17.8192396375868
 30
0.0
 10
2.019859483506944
 20
-18.21714816623264
 30
0.0
 10
2.383661566840277
 20
-18.31361083984375
 30
0.0
 10
2.729204644097222
 20
-18.40869547526042
 30
0.0
  0
SPLINE
  5
53
330
22
100
AcDbEntity
  8
LAYER_1
 62
     7
100
AcDbSpline
210
0.0
220
0.0
230
1.0
 70
    11
 71
     3
 72
    17
 73
    13
 74
     0
 42
0.0000000001
 43
0.0000000001
 40
0.0
 40
0.0
 40
0.0
 40
0.0
 40
1.0
 40
1.0
 40
1.0
 40
2.0
 40
2.0
 40
2.0
 40
3.0
 40
3.0
 40
3.0
 40
4.0
 40
4.0
 40
4.0
 40
4.0
 10
5.180734592013889
 20
-16.2255384657118
 30
0.0
 10
5.333007812499999
 20
-16.26240098741319
 30
0.0
 10
5.586222330729166
 20
-15.99885118272569
 30
0.0
 10
5.504918077256944
 20
-15.79731309678819
 30
0.0
 10
5.556594509548611
 20
-15.66777750651042
 30
0.0
 10
5.325084092881944
 20
-15.50103488498264
 30
0.0
 10
5.181423611111111
 20
-15.33532579210069
 30
0.0
 10
4.925797526041666
 20
-15.4038831922743
 30
0.0
 10
4.642955186631944
 20
-15.67707926432292
 30
0.0
 10
4.630897352430555
 20
-15.80833740234375
 30
0.0
 10
4.730805121527777
 20
-16.14595675998264
 30
0.0
 10
4.760088433159722
 20
-16.21761474609375
 30
0.0
 10
5.180734592013889
 20
-16.2255384657118
 30
0.0
  0
SPLINE
  5
52
330
22
100
AcDbEntity
  8
LAYER_1
 62
     7
100
AcDbSpline
210
0.0
220
0.0
230
1.0
 70
    11
 71
     3
 72
    17
 73
    13
 74
     0
 42
0.0000000001
 43
0.0000000001
 40
0.0
 40
0.0
 40
0.0
 40
0.0
 40
1.0
 40
1.0
 40
1.0
 40
2.0
 40
2.0
 40
2.0
 40
3.0
 40
3.0
 40
3.0
 40
4.0
 40
4.0
 40
4.0
 40
4.0
 10
6.255604383680555
 20
-19.50561387803819
 30
0.0
 10
6.597357855902777
 20
-19.40088297526042
 30
0.0
 10
6.837136501736111
 20
-19.22001546223958
 30
0.0
 10
6.98596462673611
 20
-18.79936930338542
 30
0.0
 10
6.891224500868055
 20
-18.56682535807292
 30
0.0
 10
6.534657118055555
 20
-18.15823703342014
 30
0.0
 10
6.121934678819444
 20
-18.18063015407986
 30
0.0
 10
5.84184841579861
 20
-18.18717583550347
 30
0.0
 10
5.439805772569444
 20
-18.55786810980903
 30
0.0
 10
5.389851888020833
 20
-18.93958468967014
 30
0.0
 10
5.379172092013889
 20
-19.17832980685764
 30
0.0
 10
5.734361436631944
 20
-19.49217800564236
 30
0.0
 10
6.255604383680555
 20
-19.50561387803819
 30
0.0
  0
SPLINE
  5
51
330
22
100
AcDbEntity
  8
LAYER_1
 62
     7
100
AcDbSpline
210
0.0
220
0.0
230
1.0
 70
    11
 71
     3
 72
    17
 73
    13
 74
     0
 42
0.0000000001
 43
0.0000000001
 40
0.0
 40
0.0
 40
0.0
 40
0.0
 40
1.0
 40
1.0
 40
1.0
 40
2.0
 40
2.0
 40
2.0
 40
3.0
 40
3.0
 40
3.0
 40
4.0
 40
4.0
 40
4.0
 40
4.0
 10
11.52384440104167
 20
-20.15191379123264
 30
0.0
 10
11.79325086805556
 20
-19.98103705512153
 30
0.0
 10
12.02992892795139
 20
-19.80223659939236
 30
0.0
 10
11.8969482421875
 20
-19.60069851345486
 30
0.0
 10
11.93243272569444
 20
-19.24757622612847
 30
0.0
 10
11.65475802951389
 20
-18.99332817925347
 30
0.0
 10
11.36330295138889
 20
-18.95612114800347
 30
0.0
 10
11.27131890190972
 20
-19.15076904296875
 30
0.0
 10
10.95643717447917
 20
-19.18418646918403
 30
0.0
 10
10.8551513671875
 20
-19.61861300998264
 30
0.0
 10
11.04704318576389
 20
-19.73264567057291
 30
0.0
 10
11.08425021701389
 20
-20.11849636501736
 30
0.0
 10
11.52384440104167
 20
-20.15191379123264
 30
0.0
  0
LWPOLYLINE
  5
49
330
22
100
AcDbEntity
  8
LAYER_1
 62
     7
100
AcDbPolyline
 90
        6
 70
     0
 43
0.0
 10
-34.76893717447916
 20
61.8320570203993
 10
-34.76893717447916
 20
6.715007866753472
 10
-32.99126790364583
 20
4.344437662760416
 10
-36.54695095486111
 20
2.369019911024306
 10
-34.76893717447916
 20
0.3936021592881944
 10
-34.76893717447916
 20
-58.67462700737847
  0
LWPOLYLINE
  5
41
330
22
100
AcDbEntity
  8
LAYER_1
 62
     7
100
AcDbPolyline
 90
        6
 70
     0
 43
0.0
 10
4.74114040798611
 20
59.26029324001735
 10
-14.62236328125
 20
59.26029324001735
 10
-16.99293348524305
 20
57.48227945963541
 10
-18.96835123697916
 20
61.0383070203993
 10
-20.94376898871528
 20
59.26029324001735
 10
-37.73240831163194
 20
59.26029324001735
  0
LWPOLYLINE
  5
39
330
22
100
AcDbEntity
  8
LAYER_1
 62
     7
100
AcDbPolyline
 90
        6
 70
     0
 43
0.0
 10
17.55086669921875
 20
-55.31979302300347
 10
3.358279079861111
 20
-55.31979302300347
 10
0.9877088758680555
 20
-57.0974622938368
 10
-0.9877088758680555
 20
-53.54177924262152
 10
-2.963126627604166
 20
-55.31979302300347
 10
-37.73240831163194
 20
-55.31979302300347
  0
LINE
  5
38
330
22
100
AcDbEntity
  8
LAYER_1
 62
     7
100
AcDbLine
 10
37.73240831163194
 20
-55.31979302300347
 30
0.0
 11
24.84137776692708
 21
-55.31979302300347
 31
0.0
  0
SPLINE
  5
37
330
22
100
AcDbEntity
  8
LAYER_1
 62
     7
100
AcDbSpline
210
0.0
220
0.0
230
1.0
 70
    11
 71
     3
 72
    83
 73
    79
 74
     0
 42
0.0000000001
 43
0.0000000001
 40
0.0
 40
0.0
 40
0.0
 40
0.0
 40
1.0
 40
1.0
 40
1.0
 40
2.0
 40
2.0
 40
2.0
 40
3.0
 40
3.0
 40
3.0
 40
4.0
 40
4.0
 40
4.0
 40
5.0
 40
5.0
 40
5.0
 40
6.0
 40
6.0
 40
6.0
 40
7.0
 40
7.0
 40
7.0
 40
8.0
 40
8.0
 40
8.0
 40
9.0
 40
9.0
 40
9.0
 40
10.0
 40
10.0
 40
10.0
 40
11.0
 40
11.0
 40
11.0
 40
12.0
 40
12.0
 40
12.0
 40
13.0
 40
13.0
 40
13.0
 40
14.0
 40
14.0
 40
14.0
 40
15.0
 40
15.0
 40
15.0
 40
16.0
 40
16.0
 40
16.0
 40
17.0
 40
17.0
 40
17.0
 40
18.0
 40
18.0
 40
18.0
 40
19.0
 40
19.0
 40
19.0
 40
20.0
 40
20.0
 40
20.0
 40
21.0
 40
21.0
 40
21.0
 40
22.0
 40
22.0
 40
22.0
 40
23.0
 40
23.0
 40
23.0
 40
24.0
 40
24.0
 40
24.0
 40
25.0
 40
25.0
 40
25.0
 40
26.0
 40
26.0
 40
26.0
 40
26.0
 10
-34.76893717447916
 20
-29.63453911675347
 30
0.0
 10
-34.47265896267361
 20
-29.98008219401041
 30
0.0
 10
-34.37378472222222
 20
-30.17748616536458
 30
0.0
 10
-34.07750651041666
 20
-30.32562527126736
 30
0.0
 10
-33.78122829861111
 20
-30.47410888671875
 30
0.0
 10
-33.28754611545138
 20
-31.21480441623264
 30
0.0
 10
-33.188671875
 20
-31.51108262803819
 30
0.0
 10
-33.08979763454861
 20
-31.80736083984375
 30
0.0
 10
-33.33681098090278
 20
-32.64693060980903
 30
0.0
 10
-33.188671875
 20
-32.89394395616319
 30
0.0
 10
-33.04053276909722
 20
-33.14095730251736
 30
0.0
 10
-32.39836697048611
 20
-32.94320882161458
 30
0.0
 10
-32.34910210503472
 20
-33.19022216796875
 30
0.0
 10
-32.29983723958333
 20
-33.43723551432291
 30
0.0
 10
-32.4972412109375
 20
-33.83238796657986
 30
0.0
 10
-31.90468478732639
 20
-34.02979193793402
 30
0.0
 10
-31.65767144097222
 20
-34.27680528428819
 30
0.0
 10
-31.50953233506944
 20
-34.62269287109375
 30
0.0
 10
-31.26251898871528
 20
-34.9189710828993
 30
0.0
 10
-31.01550564236111
 20
-35.21524929470486
 30
0.0
 10
-29.68225368923611
 20
-37.38841552734375
 30
0.0
 10
-29.18822699652777
 20
-37.73395860460069
 30
0.0
 10
-28.69454481336805
 20
-38.07984619140625
 30
0.0
 10
-28.3486572265625
 20
-38.47465413411458
 30
0.0
 10
-28.39792209201389
 20
-39.01829020182291
 30
0.0
 10
-28.44753146701389
 20
-39.56123725043403
 30
0.0
 10
-28.49679633246528
 20
-39.90712483723958
 30
0.0
 10
-27.90423990885417
 20
-40.00565456814235
 30
0.0
 10
-27.6572265625
 20
-40.10452880859375
 30
0.0
 10
-27.26207411024305
 20
-40.64782036675347
 30
0.0
 10
-27.16319986979167
 20
-40.99370795355902
 30
0.0
 10
-27.06467013888889
 20
-41.33925103081597
 30
0.0
 10
-26.57064344618055
 20
-42.42583414713541
 30
0.0
 10
-26.32363009982639
 20
-42.72211235894097
 30
0.0
 10
-26.07696126302083
 20
-43.01839057074653
 30
0.0
 10
-25.5829345703125
 20
-43.56168212890625
 30
0.0
 10
-25.43479546440972
 20
-44.10497368706597
 30
0.0
 10
-25.28665635850694
 20
-44.64826524522569
 30
0.0
 10
-25.08890787760416
 20
-44.89527859157986
 30
0.0
 10
-24.84223904079861
 20
-45.14229193793403
 30
0.0
 10
-24.59522569444444
 20
-45.38896077473958
 30
0.0
 10
-24.44708658854167
 20
-46.42627902560763
 30
0.0
 10
-24.49635145399305
 20
-46.77182210286458
 30
0.0
 10
-24.54561631944444
 20
-47.11770968967014
 30
0.0
 10
-24.39747721354166
 20
-47.21658393012152
 30
0.0
 10
-24.2000732421875
 20
-47.26584879557291
 30
0.0
 10
-24.00266927083333
 20
-47.3151136610243
 30
0.0
 10
-23.65678168402778
 20
-47.56212700737847
 30
0.0
 10
-23.70604654947917
 20
-47.85840521918402
 30
0.0
 10
-23.75565592447916
 20
-48.15468343098958
 30
0.0
 10
-23.40976833767361
 20
-48.20429280598958
 30
0.0
 10
-23.16275499131944
 20
-48.35243191189236
 30
0.0
 10
-22.91608615451389
 20
-48.50057101779513
 30
0.0
 10
-22.47166883680555
 20
-48.84645860460069
 30
0.0
 10
-22.37279459635417
 20
-49.3894056532118
 30
0.0
 10
-22.27392035590277
 20
-49.93269721137153
 30
0.0
 10
-21.92837727864583
 20
-50.17971055772569
 30
0.0
 10
-21.82950303819444
 20
-50.32784966362847
 30
0.0
 10
-21.73062879774306
 20
-50.47598876953125
 30
0.0
 10
-21.58248969184028
 20
-51.01928032769096
 30
0.0
 10
-21.38508572048611
 20
-51.36516791449652
 30
0.0
 10
-21.18733723958333
 20
-51.71071099175347
 30
0.0
 10
-20.64404568142361
 20
-51.4636976453993
 30
0.0
 10
-20.54517144097222
 20
-51.71071099175347
 30
0.0
 10
-20.44664171006944
 20
-51.95772433810763
 30
0.0
 10
-20.89105902777778
 20
-52.59989013671875
 30
0.0
 10
-20.49590657552083
 20
-52.79729410807291
 30
0.0
 10
-20.10075412326389
 20
-52.99504258897569
 30
0.0
 10
-19.55780707465278
 20
-53.24171142578125
 30
0.0
 10
-19.16265462239583
 20
-53.78500298394097
 30
0.0
 10
-18.76750217013889
 20
-54.32829454210069
 30
0.0
 10
-18.12533637152778
 20
-54.9208509657118
 30
0.0
 10
-18.07607150607639
 20
-55.31600341796874
 30
0.0
 10
-18.07607150607639
 20
-55.31600341796874
 30
0.0
 10
-34.76893717447916
 20
-55.31600341796874
 30
0.0
 10
-34.76893717447916
 20
-55.31600341796874
 30
0.0
 10
-34.76893717447916
 20
-55.31600341796874
 30
0.0
 10
-34.76893717447916
 20
-29.63453911675347
 30
0.0
 10
-34.76893717447916
 20
-29.63453911675347
 30
0.0
  0
SPLINE
  5
36
330
22
100
AcDbEntity
  8
LAYER_1
 62
     7
100
AcDbSpline
210
0.0
220
0.0
230
1.0
 70
    11
 71
     3
 72
    17
 73
    13
 74
     0
 42
0.0000000001
 43
0.0000000001
 40
0.0
 40
0.0
 40
0.0
 40
0.0
 40
1.0
 40
1.0
 40
1.0
 40
2.0
 40
2.0
 40
2.0
 40
3.0
 40
3.0
 40
3.0
 40
4.0
 40
4.0
 40
4.0
 40
4.0
 10
-31.93741319444444
 20
-51.36516791449652
 30
0.0
 10
-31.73415256076389
 20
-51.45060628255208
 30
0.0
 10
-31.47680392795139
 20
-51.32072618272569
 30
0.0
 10
-31.62976616753472
 20
-51.05993245442708
 30
0.0
 10
-31.4802490234375
 20
-50.92936333550347
 30
0.0
 10
-31.64492458767361
 20
-50.79431559244791
 30
0.0
 10
-31.93017849392361
 20
-50.75814208984374
 30
0.0
 10
-32.2119873046875
 20
-50.75228542751736
 30
0.0
 10
-32.41214735243055
 20
-50.9490003797743
 30
0.0
 10
-32.463134765625
 20
-51.02582600911458
 30
0.0
 10
-32.39492187499999
 20
-51.21117214626736
 30
0.0
 10
-32.14446343315972
 20
-51.44027099609374
 30
0.0
 10
-31.93741319444444
 20
-51.36516791449652
 30
0.0
  0
SPLINE
  5
35
330
22
100
AcDbEntity
  8
LAYER_1
 62
     7
100
AcDbSpline
210
0.0
220
0.0
230
1.0
 70
    11
 71
     3
 72
    17
 73
    13
 74
     0
 42
0.0000000001
 43
0.0000000001
 40
0.0
 40
0.0
 40
0.0
 40
0.0
 40
1.0
 40
1.0
 40
1.0
 40
2.0
 40
2.0
 40
2.0
 40
3.0
 40
3.0
 40
3.0
 40
4.0
 40
4.0
 40
4.0
 40
4.0
 10
-28.64493543836805
 20
-46.09692789713542
 30
0.0
 10
-28.4416748046875
 20
-46.18271077473958
 30
0.0
 10
-28.184326171875
 20
-46.05283067491319
 30
0.0
 10
-28.33728841145833
 20
-45.79169243706597
 30
0.0
 10
-28.18777126736111
 20
-45.66112331814236
 30
0.0
 10
-28.35210232204861
 20
-45.52642008463541
 30
0.0
 10
-28.63735622829861
 20
-45.49024658203125
 30
0.0
 10
-28.91950954861111
 20
-45.48438991970486
 30
0.0
 10
-29.11966959635416
 20
-45.6811048719618
 30
0.0
 10
-29.1703125
 20
-45.75793050130208
 30
0.0
 10
-29.10244411892361
 20
-45.94293212890624
 30
0.0
 10
-28.85198567708333
 20
-46.17237548828125
 30
0.0
 10
-28.64493543836805
 20
-46.09692789713542
 30
0.0
  0
SPLINE
  5
34
330
22
100
AcDbEntity
  8
LAYER_1
 62
     7
100
AcDbSpline
210
0.0
220
0.0
230
1.0
 70
    11
 71
     3
 72
    17
 73
    13
 74
     0
 42
0.0000000001
 43
0.0000000001
 40
0.0
 40
0.0
 40
0.0
 40
0.0
 40
1.0
 40
1.0
 40
1.0
 40
2.0
 40
2.0
 40
2.0
 40
3.0
 40
3.0
 40
3.0
 40
4.0
 40
4.0
 40
4.0
 40
4.0
 10
-26.40596788194444
 20
-46.49208034939236
 30
0.0
 10
-26.20270724826389
 20
-46.57786322699652
 30
0.0
 10
-25.945703125
 20
-46.44798312717013
 30
0.0
 10
-26.09832085503472
 20
-46.18684488932291
 30
0.0
 10
-25.9488037109375
 20
-46.0562757703993
 30
0.0
 10
-26.11347927517361
 20
-45.92157253689236
 30
0.0
 10
-26.39873318142361
 20
-45.88539903428819
 30
0.0
 10
-26.68088650173611
 20
-45.87919786241319
 30
0.0
 10
-26.88070203993055
 20
-46.07625732421874
 30
0.0
 10
-26.93134494357639
 20
-46.15308295355902
 30
0.0
 10
-26.8634765625
 20
-46.33808458116319
 30
0.0
 10
-26.61301812065972
 20
-46.56718343098958
 30
0.0
 10
-26.40596788194444
 20
-46.49208034939236
 30
0.0
  0
SPLINE
  5
33
330
22
100
AcDbEntity
  8
LAYER_1
 62
     7
100
AcDbSpline
210
0.0
220
0.0
230
1.0
 70
    11
 71
     3
 72
    17
 73
    13
 74
     0
 42
0.0000000001
 43
0.0000000001
 40
0.0
 40
0.0
 40
0.0
 40
0.0
 40
1.0
 40
1.0
 40
1.0
 40
2.0
 40
2.0
 40
2.0
 40
3.0
 40
3.0
 40
3.0
 40
4.0
 40
4.0
 40
4.0
 40
4.0
 10
-23.64024522569444
 20
-53.73573811848958
 30
0.0
 10
-23.43698459201389
 20
-53.82152099609375
 30
0.0
 10
-23.17963595920139
 20
-53.69164089626736
 30
0.0
 10
-23.33259819878472
 20
-53.43050265842013
 30
0.0
 10
-23.1830810546875
 20
-53.29993353949652
 30
0.0
 10
-23.34775661892361
 20
-53.16523030598958
 30
0.0
 10
-23.63301052517361
 20
-53.1287122938368
 30
0.0
 10
-23.91516384548611
 20
-53.12285563151041
 30
0.0
 10
-24.11497938368055
 20
-53.31957058376736
 30
0.0
 10
-24.16562228732639
 20
-53.39639621310764
 30
0.0
 10
-24.09775390625
 20
-53.58174235026041
 30
0.0
 10
-23.84729546440972
 20
-53.8108412000868
 30
0.0
 10
-23.64024522569444
 20
-53.73573811848958
 30
0.0
  0
SPLINE
  5
32
330
22
100
AcDbEntity
  8
LAYER_1
 62
     7
100
AcDbSpline
210
0.0
220
0.0
230
1.0
 70
    11
 71
     3
 72
    17
 73
    13
 74
     0
 42
0.0000000001
 43
0.0000000001
 40
0.0
 40
0.0
 40
0.0
 40
0.0
 40
1.0
 40
1.0
 40
1.0
 40
2.0
 40
2.0
 40
2.0
 40
3.0
 40
3.0
 40
3.0
 40
4.0
 40
4.0
 40
4.0
 40
4.0
 10
-31.67420789930555
 20
-53.99894341362847
 30
0.0
 10
-31.27423231336805
 20
-54.01479085286458
 30
0.0
 10
-31.05788031684028
 20
-53.5813978407118
 30
0.0
 10
-31.13057183159722
 20
-53.26065945095485
 30
0.0
 10
-31.14814181857638
 20
-53.17005343967013
 30
0.0
 10
-31.32900933159722
 20
-52.78385823567708
 30
0.0
 10
-31.64492458767361
 20
-52.91098225911458
 30
0.0
 10
-31.81959092881944
 20
-52.77042236328125
 30
0.0
 10
-32.21715494791666
 20
-53.07772488064236
 30
0.0
 10
-32.16410047743055
 20
-53.43463677300347
 30
0.0
 10
-32.1251708984375
 20
-53.64685465494791
 30
0.0
 10
-31.91639811197916
 20
-53.99033067491319
 30
0.0
 10
-31.67420789930555
 20
-53.99894341362847
 30
0.0
  0
SPLINE
  5
31
330
22
100
AcDbEntity
  8
LAYER_1
 62
     7
100
AcDbSpline
210
0.0
220
0.0
230
1.0
 70
    11
 71
     3
 72
    17
 73
    13
 74
     0
 42
0.0000000001
 43
0.0000000001
 40
0.0
 40
0.0
 40
0.0
 40
0.0
 40
1.0
 40
1.0
 40
1.0
 40
2.0
 40
2.0
 40
2.0
 40
3.0
 40
3.0
 40
3.0
 40
4.0
 40
4.0
 40
4.0
 40
4.0
 10
-22.05997992621528
 20
-54.65764567057291
 30
0.0
 10
-21.76680230034722
 20
-54.65144449869791
 30
0.0
 10
-21.71099175347222
 20
-54.39409586588541
 30
0.0
 10
-21.60109320746528
 20
-54.09781765407985
 30
0.0
 10
-21.51083170572916
 20
-53.71024441189235
 30
0.0
 10
-21.94491373697916
 20
-53.51973063151041
 30
0.0
 10
-22.04378797743055
 20
-53.57588568793403
 30
0.0
 10
-22.55228407118056
 20
-53.49940456814235
 30
0.0
 10
-22.60912814670139
 20
-53.89972466362847
 30
0.0
 10
-22.66183810763889
 20
-54.0681898328993
 30
0.0
 10
-22.76898057725694
 20
-54.46575385199652
 30
0.0
 10
-22.40552300347222
 20
-54.56256103515624
 30
0.0
 10
-22.05997992621528
 20
-54.65764567057291
 30
0.0
  0
SPLINE
  5
30
330
22
100
AcDbEntity
  8
LAYER_1
 62
     7
100
AcDbSpline
210
0.0
220
0.0
230
1.0
 70
    11
 71
     3
 72
    17
 73
    13
 74
     0
 42
0.0000000001
 43
0.0000000001
 40
0.0
 40
0.0
 40
0.0
 40
0.0
 40
1.0
 40
1.0
 40
1.0
 40
2.0
 40
2.0
 40
2.0
 40
3.0
 40
3.0
 40
3.0
 40
4.0
 40
4.0
 40
4.0
 40
4.0
 10
-23.76185709635416
 20
-51.50331624348958
 30
0.0
 10
-23.49210611979166
 20
-51.33243950737847
 30
0.0
 10
-23.25577256944444
 20
-51.15398356119791
 30
0.0
 10
-23.38875325520833
 20
-50.9521009657118
 30
0.0
 10
-23.35326877170139
 20
-50.59897867838541
 30
0.0
 10
-23.63059895833333
 20
-50.34473063151041
 30
0.0
 10
-23.92239854600694
 20
-50.30752360026041
 30
0.0
 10
-24.01438259548611
 20
-50.50217149522569
 30
0.0
 10
-24.32926432291666
 20
-50.53558892144097
 30
0.0
 10
-24.43055013020833
 20
-50.97001546223958
 30
0.0
 10
-24.23865831163194
 20
-51.08404812282986
 30
0.0
 10
-24.20145128038194
 20
-51.4698988172743
 30
0.0
 10
-23.76185709635416
 20
-51.50331624348958
 30
0.0
  0
SPLINE
  5
2F
330
22
100
AcDbEntity
  8
LAYER_1
 62
     7
100
AcDbSpline
210
0.0
220
0.0
230
1.0
 70
    11
 71
     3
 72
    17
 73
    13
 74
     0
 42
0.0000000001
 43
0.0000000001
 40
0.0
 40
0.0
 40
0.0
 40
0.0
 40
1.0
 40
1.0
 40
1.0
 40
2.0
 40
2.0
 40
2.0
 40
3.0
 40
3.0
 40
3.0
 40
4.0
 40
4.0
 40
4.0
 40
4.0
 10
-29.17169053819444
 20
-51.76032036675347
 30
0.0
 10
-28.90538465711805
 20
-51.69451904296874
 30
0.0
 10
-28.48680555555555
 20
-51.21530626085069
 30
0.0
 10
-28.44339735243055
 20
-50.75125189887152
 30
0.0
 10
-28.43202853732639
 20
-50.46909857855902
 30
0.0
 10
-28.92433268229166
 20
-50.08152533637152
 30
0.0
 10
-29.11002332899305
 20
-50.17316487630208
 30
0.0
 10
-29.44695366753472
 20
-50.01951361762152
 30
0.0
 10
-29.81075575086805
 20
-50.45497368706597
 30
0.0
 10
-29.68569878472222
 20
-50.78260226779513
 30
0.0
 10
-29.84486219618055
 20
-51.16638590494791
 30
0.0
 10
-29.47451443142361
 20
-51.60735812717014
 30
0.0
 10
-29.17169053819444
 20
-51.76032036675347
 30
0.0
  0
SPLINE
  5
2E
330
22
100
AcDbEntity
  8
LAYER_1
 62
     7
100
AcDbSpline
210
0.0
220
0.0
230
1.0
 70
     8
 71
     3
 72
     8
 73
     4
 74
     0
 42
0.0000000001
 43
0.0000000001
 40
0.0
 40
0.0
 40
0.0
 40
0.0
 40
1.0
 40
1.0
 40
1.0
 40
1.0
 10
-33.83083767361111
 20
-33.19022216796875
 30
0.0
 10
-33.8801025390625
 20
-33.38797064887152
 30
0.0
 10
-33.63308919270833
 20
-33.63463948567708
 30
0.0
 10
-33.63308919270833
 20
-33.63463948567708
 30
0.0
  0
SPLINE
  5
2D
330
22
100
AcDbEntity
  8
LAYER_1
 62
     7
100
AcDbSpline
210
0.0
220
0.0
230
1.0
 70
     8
 71
     3
 72
    20
 73
    16
 74
     0
 42
0.0000000001
 43
0.0000000001
 40
0.0
 40
0.0
 40
0.0
 40
0.0
 40
1.0
 40
1.0
 40
1.0
 40
2.0
 40
2.0
 40
2.0
 40
3.0
 40
3.0
 40
3.0
 40
4.0
 40
4.0
 40
4.0
 40
5.0
 40
5.0
 40
5.0
 40
5.0
 10
-33.68269856770833
 20
-35.16598442925347
 30
0.0
 10
-33.58382432725694
 20
-35.51152750651041
 30
0.0
 10
-33.43568522135416
 20
-36.20295817057291
 30
0.0
 10
-33.68269856770833
 20
-36.44997151692708
 30
0.0
 10
-33.92936740451388
 20
-36.69698486328124
 30
0.0
 10
-33.97897677951389
 20
-36.9932630750868
 30
0.0
 10
-33.68269856770833
 20
-37.28954128689236
 30
0.0
 10
-33.38642035590277
 20
-37.58581949869792
 30
0.0
 10
-33.23793674045139
 20
-38.96868082682291
 30
0.0
 10
-33.38642035590277
 20
-39.7093763563368
 30
0.0
 10
-33.53455946180555
 20
-40.4504163953993
 30
0.0
 10
-33.43568522135416
 20
-40.84556884765625
 30
0.0
 10
-33.28754611545138
 20
-41.04297281901042
 30
0.0
 10
-33.13940700954861
 20
-41.24037679036458
 30
0.0
 10
-33.58382432725694
 20
-41.7836683485243
 30
0.0
 10
-33.58382432725694
 20
-42.12955593532985
 30
0.0
  0
SPLINE
  5
2C
330
22
100
AcDbEntity
  8
LAYER_1
 62
     7
100
AcDbSpline
210
0.0
220
0.0
230
1.0
 70
     8
 71
     3
 72
    20
 73
    16
 74
     0
 42
0.0000000001
 43
0.0000000001
 40
0.0
 40
0.0
 40
0.0
 40
0.0
 40
1.0
 40
1.0
 40
1.0
 40
2.0
 40
2.0
 40
2.0
 40
3.0
 40
3.0
 40
3.0
 40
4.0
 40
4.0
 40
4.0
 40
5.0
 40
5.0
 40
5.0
 40
5.0
 10
-27.85463053385416
 20
-42.77172173394097
 30
0.0
 10
-27.75610080295139
 20
-43.11726481119791
 30
0.0
 10
-27.60796169704861
 20
-43.80869547526041
 30
0.0
 10
-27.85463053385416
 20
-44.05570882161458
 30
0.0
 10
-28.10164388020833
 20
-44.30272216796875
 30
0.0
 10
-28.15125325520833
 20
-44.5990003797743
 30
0.0
 10
-27.85463053385416
 20
-44.89527859157986
 30
0.0
 10
-27.55835232204861
 20
-45.19155680338541
 30
0.0
 10
-27.41021321614583
 20
-46.57441813151041
 30
0.0
 10
-27.55835232204861
 20
-47.3151136610243
 30
0.0
 10
-27.70649142795139
 20
-48.0561537000868
 30
0.0
 10
-27.60796169704861
 20
-48.45130615234375
 30
0.0
 10
-27.45982259114583
 20
-48.64871012369791
 30
0.0
 10
-27.31133897569444
 20
-48.84645860460069
 30
0.0
 10
-27.75610080295139
 20
-49.3894056532118
 30
0.0
 10
-27.75610080295139
 20
-49.73529324001736
 30
0.0
  0
SPLINE
  5
2B
330
22
100
AcDbEntity
  8
LAYER_1
 62
     7
100
AcDbSpline
210
0.0
220
0.0
230
1.0
 70
     8
 71
     3
 72
    20
 73
    16
 74
     0
 42
0.0000000001
 43
0.0000000001
 40
0.0
 40
0.0
 40
0.0
 40
0.0
 40
1.0
 40
1.0
 40
1.0
 40
2.0
 40
2.0
 40
2.0
 40
3.0
 40
3.0
 40
3.0
 40
4.0
 40
4.0
 40
4.0
 40
5.0
 40
5.0
 40
5.0
 40
5.0
 10
-33.33681098090278
 20
-46.32740478515625
 30
0.0
 10
-33.188671875
 20
-46.72255723741319
 30
0.0
 10
-33.188671875
 20
-47.61173638237847
 30
0.0
 10
-33.38642035590277
 20
-47.85840521918402
 30
0.0
 10
-33.58382432725694
 20
-48.10541856553819
 30
0.0
 10
-33.97897677951389
 20
-48.54983588324652
 30
0.0
 10
-33.73196343315972
 20
-48.84645860460069
 30
0.0
 10
-33.48495008680555
 20
-49.14273681640625
 30
0.0
 10
-33.38642035590277
 20
-49.98230658637152
 30
0.0
 10
-33.48495008680555
 20
-50.32784966362847
 30
0.0
 10
-33.58382432725694
 20
-50.67373725043402
 30
0.0
 10
-33.73196343315972
 20
-51.76032036675347
 30
0.0
 10
-33.53455946180555
 20
-51.90845947265625
 30
0.0
 10
-33.33681098090278
 20
-52.05659857855903
 30
0.0
 10
-33.58382432725694
 20
-53.34058566623263
 30
0.0
 10
-33.38642035590277
 20
-53.63686387803819
 30
0.0
  0
SPLINE
  5
2A
330
22
100
AcDbEntity
  8
LAYER_1
 62
     7
100
AcDbSpline
210
0.0
220
0.0
230
1.0
 70
     8
 71
     3
 72
    20
 73
    16
 74
     0
 42
0.0000000001
 43
0.0000000001
 40
0.0
 40
0.0
 40
0.0
 40
0.0
 40
1.0
 40
1.0
 40
1.0
 40
2.0
 40
2.0
 40
2.0
 40
3.0
 40
3.0
 40
3.0
 40
4.0
 40
4.0
 40
4.0
 40
5.0
 40
5.0
 40
5.0
 40
5.0
 10
-30.47221408420139
 20
-47.56212700737847
 30
0.0
 10
-30.32407497829861
 20
-47.95727945963542
 30
0.0
 10
-30.32407497829861
 20
-48.84645860460069
 30
0.0
 10
-30.52182345920139
 20
-49.09312744140625
 30
0.0
 10
-30.71922743055555
 20
-49.34014078776041
 30
0.0
 10
-31.1143798828125
 20
-49.78455810546875
 30
0.0
 10
-30.86736653645833
 20
-50.08118082682291
 30
0.0
 10
-30.62035319010417
 20
-50.37745903862847
 30
0.0
 10
-30.52182345920139
 20
-51.21702880859375
 30
0.0
 10
-30.62035319010417
 20
-51.56257188585069
 30
0.0
 10
-30.71922743055555
 20
-51.90845947265625
 30
0.0
 10
-30.86736653645833
 20
-52.99504258897569
 30
0.0
 10
-30.66996256510416
 20
-53.14318169487846
 30
0.0
 10
-30.47221408420139
 20
-53.29132080078124
 30
0.0
 10
-30.71922743055555
 20
-54.57530788845486
 30
0.0
 10
-30.52182345920139
 20
-54.87158610026041
 30
0.0
  0
SPLINE
  5
29
330
22
100
AcDbEntity
  8
LAYER_1
 62
     7
100
AcDbSpline
210
0.0
220
0.0
230
1.0
 70
     8
 71
     3
 72
    20
 73
    16
 74
     0
 42
0.0000000001
 43
0.0000000001
 40
0.0
 40
0.0
 40
0.0
 40
0.0
 40
1.0
 40
1.0
 40
1.0
 40
2.0
 40
2.0
 40
2.0
 40
3.0
 40
3.0
 40
3.0
 40
4.0
 40
4.0
 40
4.0
 40
5.0
 40
5.0
 40
5.0
 40
5.0
 10
-30.57108832465277
 20
-37.43768039279514
 30
0.0
 10
-30.42294921875
 20
-37.83283284505208
 30
0.0
 10
-30.37368435329861
 20
-40.30227728949652
 30
0.0
 10
-30.57108832465277
 20
-40.54894612630208
 30
0.0
 10
-30.76849229600694
 20
-40.79595947265624
 30
0.0
 10
-30.95383843315972
 20
-41.36405571831597
 30
0.0
 10
-30.70682508680555
 20
-41.66033393012152
 30
0.0
 10
-30.46015625
 20
-41.95661214192708
 30
0.0
 10
-30.36128200954861
 20
-42.79618191189235
 30
0.0
 10
-30.46015625
 20
-43.14206949869791
 30
0.0
 10
-30.55868598090278
 20
-43.48761257595486
 30
0.0
 10
-30.70682508680555
 20
-44.5741956922743
 30
0.0
 10
-30.50942111545139
 20
-44.72233479817708
 30
0.0
 10
-30.31201714409722
 20
-44.87047390407986
 30
0.0
 10
-30.55868598090278
 20
-46.15480550130208
 30
0.0
 10
-30.36128200954861
 20
-46.45108371310764
 30
0.0
  0
SPLINE
  5
28
330
22
100
AcDbEntity
  8
LAYER_1
 62
     7
100
AcDbSpline
210
0.0
220
0.0
230
1.0
 70
     8
 71
     3
 72
    14
 73
    10
 74
     0
 42
0.0000000001
 43
0.0000000001
 40
0.0
 40
0.0
 40
0.0
 40
0.0
 40
1.0
 40
1.0
 40
1.0
 40
2.0
 40
2.0
 40
2.0
 40
3.0
 40
3.0
 40
3.0
 40
3.0
 10
-25.63219943576389
 20
-48.89572347005208
 30
0.0
 10
-25.48406032986111
 20
-49.29087592230902
 30
0.0
 10
-25.43479546440972
 20
-51.76032036675347
 30
0.0
 10
-25.63219943576389
 20
-52.00698920355902
 30
0.0
 10
-25.82994791666667
 20
-52.25400254991319
 30
0.0
 10
-25.87921278211805
 20
-53.34058566623263
 30
0.0
 10
-25.63219943576389
 20
-53.63686387803819
 30
0.0
 10
-25.38553059895833
 20
-53.93314208984375
 30
0.0
 10
-25.42239312065972
 20
-54.9208509657118
 30
0.0
 10
-25.52126736111111
 20
-55.26673855251735
 30
0.0
  0
SPLINE
  5
27
330
22
100
AcDbEntity
  8
LAYER_1
 62
     7
100
AcDbSpline
210
0.0
220
0.0
230
1.0
 70
    11
 71
     3
 72
    17
 73
    13
 74
     0
 42
0.0000000001
 43
0.0000000001
 40
0.0
 40
0.0
 40
0.0
 40
0.0
 40
1.0
 40
1.0
 40
1.0
 40
2.0
 40
2.0
 40
2.0
 40
3.0
 40
3.0
 40
3.0
 40
4.0
 40
4.0
 40
4.0
 40
4.0
 10
-32.90445149739583
 20
-43.15516086154513
 30
0.0
 10
-32.74253200954861
 20
-43.17514241536458
 30
0.0
 10
-32.65571560329861
 20
-43.07523464626735
 30
0.0
 10
-32.61850857204861
 20
-42.95017768012153
 30
0.0
 10
-32.56097547743055
 20
-42.73899332682291
 30
0.0
 10
-32.74012044270833
 20
-42.51712917751735
 30
0.0
 10
-32.97335340711805
 20
-42.63219536675347
 30
0.0
 10
-33.12355957031249
 20
-42.66182318793403
 30
0.0
 10
-33.24207085503472
 20
-42.72417941623264
 30
0.0
 10
-33.188671875
 20
-42.87025146484375
 30
0.0
 10
-33.24758300781249
 20
-43.12415500217013
 30
0.0
 10
-33.06085883246527
 20
-43.15757242838541
 30
0.0
 10
-32.90445149739583
 20
-43.15516086154513
 30
0.0
  0
SPLINE
  5
26
330
22
100
AcDbEntity
  8
LAYER_1
 62
     7
100
AcDbSpline
210
0.0
220
0.0
230
1.0
 70
    11
 71
     3
 72
   113
 73
   109
 74
     0
 42
0.0000000001
 43
0.0000000001
 40
0.0
 40
0.0
 40
0.0
 40
0.0
 40
1.0
 40
1.0
 40
1.0
 40
2.0
 40
2.0
 40
2.0
 40
3.0
 40
3.0
 40
3.0
 40
4.0
 40
4.0
 40
4.0
 40
5.0
 40
5.0
 40
5.0
 40
6.0
 40
6.0
 40
6.0
 40
7.0
 40
7.0
 40
7.0
 40
8.0
 40
8.0
 40
8.0
 40
9.0
 40
9.0
 40
9.0
 40
10.0
 40
10.0
 40
10.0
 40
11.0
 40
11.0
 40
11.0
 40
12.0
 40
12.0
 40
12.0
 40
13.0
 40
13.0
 40
13.0
 40
14.0
 40
14.0
 40
14.0
 40
15.0
 40
15.0
 40
15.0
 40
16.0
 40
16.0
 40
16.0
 40
17.0
 40
17.0
 40
17.0
 40
18.0
 40
18.0
 40
18.0
 40
19.0
 40
19.0
 40
19.0
 40
20.0
 40
20.0
 40
20.0
 40
21.0
 40
21.0
 40
21.0
 40
22.0
 40
22.0
 40
22.0
 40
23.0
 40
23.0
 40
23.0
 40
24.0
 40
24.0
 40
24.0
 40
25.0
 40
25.0
 40
25.0
 40
26.0
 40
26.0
 40
26.0
 40
27.0
 40
27.0
 40
27.0
 40
28.0
 40
28.0
 40
28.0
 40
29.0
 40
29.0
 40
29.0
 40
30.0
 40
30.0
 40
30.0
 40
31.0
 40
31.0
 40
31.0
 40
32.0
 40
32.0
 40
32.0
 40
33.0
 40
33.0
 40
33.0
 40
34.0
 40
34.0
 40
34.0
 40
35.0
 40
35.0
 40
35.0
 40
36.0
 40
36.0
 40
36.0
 40
36.0
 10
22.75967881944444
 20
-61.08240424262152
 30
0.0
 10
23.57892252604167
 20
-62.05874430338541
 30
0.0
 10
25.19432779947917
 20
-62.07838134765625
 30
0.0
 10
26.34740125868055
 20
-61.11099853515624
 30
0.0
 10
27.50047471788194
 20
-60.14327121310763
 30
0.0
 10
27.7533447265625
 20
-58.52889946831597
 30
0.0
 10
26.93410101996528
 20
-57.55255940755208
 30
0.0
 10
26.93410101996528
 20
-57.55255940755208
 30
0.0
 10
25.68284233940972
 20
-56.1920912000868
 30
0.0
 10
25.68284233940972
 20
-56.1920912000868
 30
0.0
 10
25.51403266059027
 20
-56.10940890842014
 30
0.0
 10
25.16642252604166
 20
-56.14075927734375
 30
0.0
 10
24.91975368923611
 20
-56.12801242404513
 30
0.0
 10
24.91975368923611
 20
-56.12801242404513
 30
0.0
 10
24.70925835503472
 20
-55.8944349500868
 30
0.0
 10
24.70925835503472
 20
-55.8944349500868
 30
0.0
 10
24.70925835503472
 20
-55.8944349500868
 30
0.0
 10
24.82811414930555
 20
-55.50513916015625
 30
0.0
 10
24.7891845703125
 20
-55.3053236219618
 30
0.0
 10
24.7891845703125
 20
-55.3053236219618
 30
0.0
 10
23.78218315972222
 20
-54.21460639105902
 30
0.0
 10
23.78218315972222
 20
-54.21460639105902
 30
0.0
 10
23.68503146701389
 20
-54.18497856987847
 30
0.0
 10
23.21374240451389
 20
-54.20978325737847
 30
0.0
 10
22.93744574652778
 20
-54.2945326063368
 30
0.0
 10
22.93744574652778
 20
-54.2945326063368
 30
0.0
 10
22.00210232204861
 20
-53.25686984592014
 30
0.0
 10
22.00210232204861
 20
-53.25686984592014
 30
0.0
 10
22.00210232204861
 20
-53.25686984592014
 30
0.0
 10
22.14714084201389
 20
-52.84414740668402
 30
0.0
 10
22.10924479166667
 20
-52.61952718098958
 30
0.0
 10
22.10924479166667
 20
-52.61952718098958
 30
0.0
 10
21.24383680555555
 20
-51.65972357855902
 30
0.0
 10
21.24383680555555
 20
-51.65972357855902
 30
0.0
 10
21.04815538194444
 20
-51.6249281141493
 30
0.0
 10
20.94411349826389
 20
-51.71863471137152
 30
0.0
 10
20.69365505642361
 20
-51.77961290147569
 30
0.0
 10
20.69365505642361
 20
-51.77961290147569
 30
0.0
 10
20.01703830295139
 20
-51.00274386935764
 30
0.0
 10
20.01703830295139
 20
-51.00274386935764
 30
0.0
 10
20.0700927734375
 20
-50.93143039279514
 30
0.0
 10
20.23717990451389
 20
-50.56935085720486
 30
0.0
 10
20.14243977864583
 20
-50.4901136610243
 30
0.0
 10
20.14243977864583
 20
-50.4901136610243
 30
0.0
 10
19.39519856770833
 20
-49.63538547092013
 30
0.0
 10
19.39519856770833
 20
-49.63538547092013
 30
0.0
 10
19.27462022569444
 20
-49.57991943359374
 30
0.0
 10
18.8515625
 20
-49.63194037543402
 30
0.0
 10
18.62694227430555
 20
-49.66983642578125
 30
0.0
 10
18.62694227430555
 20
-49.66983642578125
 30
0.0
 10
17.95273708767361
 20
-48.8437025282118
 30
0.0
 10
17.95273708767361
 20
-48.8437025282118
 30
0.0
 10
17.96031629774305
 20
-48.69556342230902
 30
0.0
 10
18.02232801649305
 20
-48.45165066189236
 30
0.0
 10
17.76256781684028
 20
-48.21566162109374
 30
0.0
 10
17.26647406684028
 20
-47.76952175564236
 30
0.0
 10
16.04932183159722
 20
-47.65583360460069
 30
0.0
 10
14.85628526475694
 20
-48.74172770182291
 30
0.0
 10
13.65566948784722
 20
-49.83416748046874
 30
0.0
 10
13.77934841579861
 20
-51.11815456814236
 30
0.0
 10
14.19896104600694
 20
-51.63664143880208
 30
0.0
 10
14.42116970486111
 20
-51.90845947265625
 30
0.0
 10
14.66818305121528
 20
-51.85885009765624
 30
0.0
 10
14.81632215711806
 20
-51.85885009765624
 30
0.0
 10
14.81632215711806
 20
-51.85885009765624
 30
0.0
 10
15.60662706163194
 20
-52.57508544921875
 30
0.0
 10
15.60662706163194
 20
-52.57508544921875
 30
0.0
 10
15.55736219618055
 20
-52.79729410807291
 30
0.0
 10
15.48329264322917
 20
-53.21725124782986
 30
0.0
 10
15.53255750868055
 20
-53.34058566623263
 30
0.0
 10
15.53255750868055
 20
-53.34058566623263
 30
0.0
 10
16.34732259114583
 20
-54.13089057074652
 30
0.0
 10
16.34732259114583
 20
-54.13089057074652
 30
0.0
 10
16.42139214409722
 20
-54.22976481119791
 30
0.0
 10
16.79173990885417
 20
-54.08128119574652
 30
0.0
 10
16.86580946180555
 20
-54.03201633029514
 30
0.0
 10
16.86580946180555
 20
-54.03201633029514
 30
0.0
 10
17.60684950086806
 20
-54.74825168185763
 30
0.0
 10
17.60684950086806
 20
-54.74825168185763
 30
0.0
 10
17.53277994791667
 20
-54.99492051866319
 30
0.0
 10
17.43390570746528
 20
-55.09379475911458
 30
0.0
 10
17.45871039496528
 20
-55.29154324001735
 30
0.0
 10
17.45871039496528
 20
-55.29154324001735
 30
0.0
 10
18.37234971788194
 20
-56.20518256293402
 30
0.0
 10
18.37234971788194
 20
-56.20518256293402
 30
0.0
 10
18.59455837673611
 20
-56.25444742838541
 30
0.0
 10
19.01451551649305
 20
-56.13111300998263
 30
0.0
 10
19.01451551649305
 20
-56.13111300998263
 30
0.0
 10
19.01451551649305
 20
-56.13111300998263
 30
0.0
 10
20.00222439236111
 20
-57.11882188585069
 30
0.0
 10
20.00222439236111
 20
-57.11882188585069
 30
0.0
 10
19.90335015190972
 20
-57.39029541015624
 30
0.0
 10
19.85408528645833
 20
-57.85951741536458
 30
0.0
 10
19.87854546440972
 20
-57.95839165581597
 30
0.0
 10
19.87854546440972
 20
-57.95839165581597
 30
0.0
 10
20.91586371527778
 20
-59.02017008463541
 30
0.0
 10
20.91586371527778
 20
-59.02017008463541
 30
0.0
 10
21.11326768663194
 20
-59.0694349500868
 30
0.0
 10
21.50842013888889
 20
-58.97090521918403
 30
0.0
 10
21.50842013888889
 20
-58.97090521918403
 30
0.0
 10
21.50842013888889
 20
-58.97090521918403
 30
0.0
 10
21.73062879774306
 20
-59.19311387803819
 30
0.0
 10
21.73062879774306
 20
-59.19311387803819
 30
0.0
 10
21.73062879774306
 20
-59.44012722439236
 30
0.0
 10
21.68136393229166
 20
-59.7856703016493
 30
0.0
 10
21.75543348524305
 20
-59.95861409505208
 30
0.0
 10
21.75543348524305
 20
-59.95861409505208
 30
0.0
 10
22.75967881944444
 20
-61.08240424262152
 30
0.0
 10
22.75967881944444
 20
-61.08240424262152
 30
0.0
  0
ELLIPSE
  5
25
330
22
100
AcDbEntity
  8
LAYER_1
 62
     7
100
AcDbEllipse
 10
24.86411539713541
 20
-59.34332004123263
 30
0.0
 11
2.087900119357639
 21
1.752175564236111
 31
0.0
210
0.0
220
0.0
230
1.0
 40
0.8465925036704584
 41
0.0
 42
6.283185307179586
  0
ENDBLK
  5
1AB
330
22
100
AcDbEntity
  8
LAYER_1
100
AcDbBlockEnd
  0
BLOCK
  5
106
330
104
100
AcDbEntity
  8
LAYER_1
 62
     7
100
AcDbBlockBegin
  2
AI9-BLK2
 70
     0
 10
0.0
 20
0.0
 30
0.0
  3
AI9-BLK2
  1

  4

  0
SPLINE
  5
158
330
104
100
AcDbEntity
  8
LAYER_1
 62
     7
100
AcDbSpline
210
0.0
220
0.0
230
1.0
 70
    11
 71
     3
 72
    32
 73
    28
 74
     0
 42
0.0000000001
 43
0.0000000001
 40
0.0
 40
0.0
 40
0.0
 40
0.0
 40
1.0
 40
1.0
 40
1.0
 40
2.0
 40
2.0
 40
2.0
 40
3.0
 40
3.0
 40
3.0
 40
4.0
 40
4.0
 40
4.0
 40
5.0
 40
5.0
 40
5.0
 40
6.0
 40
6.0
 40
6.0
 40
7.0
 40
7.0
 40
7.0
 40
8.0
 40
8.0
 40
8.0
 40
9.0
 40
9.0
 40
9.0
 40
9.0
 10
8.362969292534721
 20
18.60213758680555
 30
0.0
 10
8.362969292534721
 20
18.60213758680555
 30
0.0
 10
-8.234811740451388
 20
18.6004150390625
 30
0.0
 10
-8.234811740451388
 20
18.6004150390625
 30
0.0
 10
-8.234811740451388
 20
18.6004150390625
 30
0.0
 10
-10.60538194444444
 20
16.82240125868055
 30
0.0
 10
-10.60538194444444
 20
16.82240125868055
 30
0.0
 10
-10.60538194444444
 20
16.82240125868055
 30
0.0
 10
-11.91899685329861
 20
19.19676106770833
 30
0.0
 10
-11.91899685329861
 20
19.19676106770833
 30
0.0
 10
-11.91899685329861
 20
19.19676106770833
 30
0.0
 10
-11.91899685329861
 20
-7.472756618923611
 30
0.0
 10
-11.91899685329861
 20
-7.472756618923611
 30
0.0
 10
-11.91899685329861
 20
-11.16038682725694
 30
0.0
 10
-9.021671549479166
 20
-13.07000325520833
 30
0.0
 10
-8.428770616319444
 20
-13.39935438368056
 30
0.0
 10
-8.428770616319444
 20
-13.39935438368056
 30
0.0
 10
1.119656032986111
 20
-18.14049479166667
 30
0.0
 10
1.119656032986111
 20
-18.14049479166667
 30
0.0
 10
2.634120008680555
 20
-18.79919704861111
 30
0.0
 10
3.424424913194444
 20
-19.12854817708333
 30
0.0
 10
5.26824001736111
 20
-19.12854817708333
 30
0.0
 10
8.758121744791666
 20
-19.12854817708333
 30
0.0
 10
11.91899685329861
 20
-15.76992458767361
 30
0.0
 10
11.91899685329861
 20
-11.48973795572917
 30
0.0
 10
11.91899685329861
 20
-11.48973795572917
 30
0.0
 10
8.362969292534721
 20
18.60213758680555
 30
0.0
 10
8.362969292534721
 20
18.60213758680555
 30
0.0
  0
LWPOLYLINE
  5
14E
330
104
100
AcDbEntity
  8
LAYER_1
 62
     7
100
AcDbPolyline
 90
        8
 70
     0
 43
0.0
 10
-1.909616427951389
 20
-5.727815755208333
 10
-2.798451063368055
 20
-6.254570855034721
 10
-2.304768880208333
 20
-9.975273980034721
 10
-1.283987087673611
 20
-10.50202907986111
 10
2.272040473090278
 20
-10.33321940104167
 10
3.259749348958333
 20
-9.151896158854166
 10
3.259749348958333
 20
-6.583921983506944
 10
1.6464111328125
 20
-5.628941514756944
  0
SPLINE
  5
14D
330
104
100
AcDbEntity
  8
LAYER_1
 62
     7
100
AcDbSpline
210
0.0
220
0.0
230
1.0
 70
     8
 71
     3
 72
    11
 73
     7
 74
     0
 42
0.0000000001
 43
0.0000000001
 40
0.0
 40
0.0
 40
0.0
 40
0.0
 40
1.0
 40
1.0
 40
1.0
 40
2.0
 40
2.0
 40
2.0
 40
2.0
 10
-6.980107964409721
 20
18.60386013454861
 30
0.0
 10
-6.980107964409721
 20
18.60386013454861
 30
0.0
 10
-3.094729275173611
 20
-11.95069173177083
 30
0.0
 10
-3.094729275173611
 20
-11.95069173177083
 30
0.0
 10
-2.897325303819444
 20
-14.71641438802083
 30
0.0
 10
0.0658013237847222
 20
-18.33824327256944
 30
0.0
 10
3.095073784722222
 20
-18.86499837239583
 30
0.0
  0
SPLINE
  5
14C
330
104
100
AcDbEntity
  8
LAYER_1
 62
     7
100
AcDbSpline
210
0.0
220
0.0
230
1.0
 70
     8
 71
     3
 72
    11
 73
     7
 74
     0
 42
0.0000000001
 43
0.0000000001
 40
0.0
 40
0.0
 40
0.0
 40
0.0
 40
1.0
 40
1.0
 40
1.0
 40
2.0
 40
2.0
 40
2.0
 40
2.0
 10
-5.992399088541666
 20
18.60386013454861
 30
0.0
 10
-5.992399088541666
 20
18.60386013454861
 30
0.0
 10
-2.041219075520833
 20
-12.08229437934028
 30
0.0
 10
-2.041219075520833
 20
-12.08229437934028
 30
0.0
 10
-1.646066623263889
 20
-14.97996419270833
 30
0.0
 10
1.6464111328125
 20
-18.206640625
 30
0.0
 10
4.807286241319444
 20
-18.206640625
 30
0.0
  0
SPLINE
  5
14B
330
104
100
AcDbEntity
  8
LAYER_1
 62
     7
100
AcDbSpline
210
0.0
220
0.0
230
1.0
 70
     8
 71
     3
 72
    14
 73
    10
 74
     0
 42
0.0000000001
 43
0.0000000001
 40
0.0
 40
0.0
 40
0.0
 40
0.0
 40
1.0
 40
1.0
 40
1.0
 40
2.0
 40
2.0
 40
2.0
 40
3.0
 40
3.0
 40
3.0
 40
3.0
 10
7.309459092881943
 20
18.60386013454861
 30
0.0
 10
7.309459092881943
 20
18.60386013454861
 30
0.0
 10
10.83241373697917
 20
-11.4566650390625
 30
0.0
 10
10.83241373697917
 20
-11.4566650390625
 30
0.0
 10
11.03016221788194
 20
-13.23467881944444
 30
0.0
 10
9.680029296874999
 20
-17.28473307291667
 30
0.0
 10
5.761922200520833
 20
-18.14049479166667
 30
0.0
 10
4.988153754340277
 20
-18.27244194878472
 30
0.0
 10
4.823478190104166
 20
-18.23936903211805
 30
0.0
 10
4.593001302083333
 20
-18.22283257378472
 30
0.0
  0
SPLINE
  5
14A
330
104
100
AcDbEntity
  8
LAYER_1
 62
     7
100
AcDbSpline
210
0.0
220
0.0
230
1.0
 70
     8
 71
     3
 72
    11
 73
     7
 74
     0
 42
0.0000000001
 43
0.0000000001
 40
0.0
 40
0.0
 40
0.0
 40
0.0
 40
1.0
 40
1.0
 40
1.0
 40
2.0
 40
2.0
 40
2.0
 40
2.0
 10
10.83241373697917
 20
-11.40740017361111
 30
0.0
 10
11.03016221788194
 20
-13.18541395399305
 30
0.0
 10
9.680029296874999
 20
-17.23512369791667
 30
0.0
 10
5.761922200520833
 20
-18.09122992621528
 30
0.0
 10
4.988153754340277
 20
-18.22283257378472
 30
0.0
 10
4.823478190104166
 20
-18.19010416666666
 30
0.0
 10
4.593001302083333
 20
-18.17356770833333
 30
0.0
  0
LINE
  5
149
330
104
100
AcDbEntity
  8
LAYER_1
 62
     7
100
AcDbLine
 10
9.778214518229166
 20
-11.515576171875
 30
0.0
 11
10.3714599609375
 21
-11.4566650390625
 31
0.0
  0
LINE
  5
148
330
104
100
AcDbEntity
  8
LAYER_1
 62
     7
100
AcDbLine
 10
0.0361735026041667
 20
-12.47848036024305
 30
0.0
 11
9.318294270833333
 21
-11.56105143229167
 31
0.0
  0
LINE
  5
147
330
104
100
AcDbEntity
  8
LAYER_1
 62
     7
100
AcDbLine
 10
-1.283987087673611
 20
-12.60904947916667
 30
0.0
 11
-0.6225287543402778
 21
-12.54359266493055
 31
0.0
  0
LINE
  5
146
330
104
100
AcDbEntity
  8
LAYER_1
 62
     7
100
AcDbLine
 10
9.478491210937499
 20
-10.95540364583333
 30
0.0
 11
10.07208116319444
 21
-10.89649251302083
 31
0.0
  0
LINE
  5
145
330
104
100
AcDbEntity
  8
LAYER_1
 62
     7
100
AcDbLine
 10
-0.2632052951388889
 20
-11.91865234375
 30
0.0
 11
9.018915473090276
 21
-11.00087890625
 31
0.0
  0
LINE
  5
144
330
104
100
AcDbEntity
  8
LAYER_1
 62
     7
100
AcDbLine
 10
-1.583710394965278
 20
-12.048876953125
 30
0.0
 11
-0.9219075520833333
 21
-11.98342013888889
 31
0.0
  0
SPLINE
  5
143
330
104
100
AcDbEntity
  8
LAYER_1
 62
     7
100
AcDbSpline
210
0.0
220
0.0
230
1.0
 70
    11
 71
     3
 72
    23
 73
    19
 74
     0
 42
0.0000000001
 43
0.0000000001
 40
0.0
 40
0.0
 40
0.0
 40
0.0
 40
1.0
 40
1.0
 40
1.0
 40
2.0
 40
2.0
 40
2.0
 40
3.0
 40
3.0
 40
3.0
 40
4.0
 40
4.0
 40
4.0
 40
5.0
 40
5.0
 40
5.0
 40
6.0
 40
6.0
 40
6.0
 40
6.0
 10
1.646066623263889
 20
-2.678217230902777
 30
0.0
 10
1.646066623263889
 20
-2.433615451388889
 30
0.0
 10
0.8536946614583333
 20
-2.235866970486111
 30
0.0
 10
-0.1233344184027778
 20
-2.235866970486111
 30
0.0
 10
-1.1007080078125
 20
-2.235866970486111
 30
0.0
 10
-1.892735460069444
 20
-2.433615451388889
 30
0.0
 10
-1.892735460069444
 20
-2.678217230902777
 30
0.0
 10
-1.892735460069444
 20
-2.678217230902777
 30
0.0
 10
-1.892735460069444
 20
-6.659025065104166
 30
0.0
 10
-1.892735460069444
 20
-6.659025065104166
 30
0.0
 10
-1.892735460069444
 20
-6.903282335069444
 30
0.0
 10
-1.1007080078125
 20
-7.110677083333333
 30
0.0
 10
-0.1233344184027778
 20
-7.110677083333333
 30
0.0
 10
0.8536946614583333
 20
-7.110677083333333
 30
0.0
 10
1.646066623263889
 20
-6.912584092881944
 30
0.0
 10
1.646066623263889
 20
-6.668326822916666
 30
0.0
 10
1.646066623263889
 20
-6.668326822916666
 30
0.0
 10
1.646066623263889
 20
-2.678217230902777
 30
0.0
 10
1.646066623263889
 20
-2.678217230902777
 30
0.0
  0
SPLINE
  5
142
330
104
100
AcDbEntity
  8
LAYER_1
 62
     7
100
AcDbSpline
210
0.0
220
0.0
230
1.0
 70
     8
 71
     3
 72
    11
 73
     7
 74
     0
 42
0.0000000001
 43
0.0000000001
 40
0.0
 40
0.0
 40
0.0
 40
0.0
 40
1.0
 40
1.0
 40
1.0
 40
2.0
 40
2.0
 40
2.0
 40
2.0
 10
-1.892735460069444
 20
-3.474378797743055
 30
0.0
 10
-1.892735460069444
 20
-3.718980577256944
 30
0.0
 10
-1.1007080078125
 20
-3.917073567708333
 30
0.0
 10
-0.1233344184027778
 20
-3.917073567708333
 30
0.0
 10
0.8536946614583333
 20
-3.917073567708333
 30
0.0
 10
1.646066623263889
 20
-3.718980577256944
 30
0.0
 10
1.646066623263889
 20
-3.474378797743055
 30
0.0
  0
SPLINE
  5
141
330
104
100
AcDbEntity
  8
LAYER_1
 62
     7
100
AcDbSpline
210
0.0
220
0.0
230
1.0
 70
     8
 71
     3
 72
    11
 73
     7
 74
     0
 42
0.0000000001
 43
0.0000000001
 40
0.0
 40
0.0
 40
0.0
 40
0.0
 40
1.0
 40
1.0
 40
1.0
 40
2.0
 40
2.0
 40
2.0
 40
2.0
 10
-1.892735460069444
 20
-4.306024848090277
 30
0.0
 10
-1.892735460069444
 20
-4.550282118055555
 30
0.0
 10
-1.1007080078125
 20
-4.748375108506944
 30
0.0
 10
-0.1233344184027778
 20
-4.748375108506944
 30
0.0
 10
0.8536946614583333
 20
-4.748375108506944
 30
0.0
 10
1.646066623263889
 20
-4.550282118055555
 30
0.0
 10
1.646066623263889
 20
-4.306024848090277
 30
0.0
  0
SPLINE
  5
140
330
104
100
AcDbEntity
  8
LAYER_1
 62
     7
100
AcDbSpline
210
0.0
220
0.0
230
1.0
 70
     8
 71
     3
 72
    11
 73
     7
 74
     0
 42
0.0000000001
 43
0.0000000001
 40
0.0
 40
0.0
 40
0.0
 40
0.0
 40
1.0
 40
1.0
 40
1.0
 40
2.0
 40
2.0
 40
2.0
 40
2.0
 10
-1.892735460069444
 20
-5.137326388888888
 30
0.0
 10
-1.892735460069444
 20
-5.381583658854166
 30
0.0
 10
-1.1007080078125
 20
-5.579676649305555
 30
0.0
 10
-0.1233344184027778
 20
-5.579676649305555
 30
0.0
 10
0.8536946614583333
 20
-5.579676649305555
 30
0.0
 10
1.646066623263889
 20
-5.381583658854166
 30
0.0
 10
1.646066623263889
 20
-5.137326388888888
 30
0.0
  0
SPLINE
  5
13F
330
104
100
AcDbEntity
  8
LAYER_1
 62
     7
100
AcDbSpline
210
0.0
220
0.0
230
1.0
 70
     8
 71
     3
 72
    11
 73
     7
 74
     0
 42
0.0000000001
 43
0.0000000001
 40
0.0
 40
0.0
 40
0.0
 40
0.0
 40
1.0
 40
1.0
 40
1.0
 40
2.0
 40
2.0
 40
2.0
 40
2.0
 10
-1.892735460069444
 20
-5.968627929687499
 30
0.0
 10
-1.892735460069444
 20
-6.212885199652777
 30
0.0
 10
-1.1007080078125
 20
-6.410978190104166
 30
0.0
 10
-0.1233344184027778
 20
-6.410978190104166
 30
0.0
 10
0.8536946614583333
 20
-6.410978190104166
 30
0.0
 10
1.646066623263889
 20
-6.212885199652777
 30
0.0
 10
1.646066623263889
 20
-5.968627929687499
 30
0.0
  0
LWPOLYLINE
  5
139
330
104
100
AcDbEntity
  8
LAYER_1
 62
     7
100
AcDbPolyline
 90
        4
 70
     0
 43
0.0
 10
3.259749348958333
 20
-6.583921983506944
 10
2.234833441840278
 20
-8.069447157118054
 10
-1.382861328125
 20
-8.2630615234375
 10
-2.76572265625
 20
-7.209551323784722
  0
LINE
  5
138
330
104
100
AcDbEntity
  8
LAYER_1
 62
     7
100
AcDbLine
 10
-1.283987087673611
 20
-10.50202907986111
 30
0.0
 11
-1.283987087673611
 21
-8.2630615234375
 31
0.0
  0
LINE
  5
137
330
104
100
AcDbEntity
  8
LAYER_1
 62
     7
100
AcDbLine
 10
2.243101671006944
 20
-10.23847927517361
 30
0.0
 11
2.243101671006944
 21
-8.069447157118054
 31
0.0
  0
ELLIPSE
  5
136
330
104
100
AcDbEntity
  8
LAYER_1
 62
     7
100
AcDbEllipse
 10
-0.1233344184027778
 20
-2.679939778645833
 30
0.0
 11
1.769401041666667
 21
0.0
 31
0.0
210
0.0
220
0.0
230
1.0
 40
0.25
 41
0.0
 42
6.283185307179586
  0
LINE
  5
135
330
104
100
AcDbEntity
  8
LAYER_1
 62
     7
100
AcDbLine
 10
3.107476128472222
 20
1.943722873263889
 30
0.0
 11
3.107476128472222
 21
-6.419246419270833
 31
0.0
  0
LINE
  5
134
330
104
100
AcDbEntity
  8
LAYER_1
 62
     7
100
AcDbLine
 10
3.107476128472222
 20
11.75535481770833
 30
0.0
 11
3.107476128472222
 21
3.260782877604167
 31
0.0
  0
LINE
  5
133
330
104
100
AcDbEntity
  8
LAYER_1
 62
     7
100
AcDbLine
 10
3.107476128472222
 20
18.60386013454861
 30
0.0
 11
3.107476128472222
 21
12.87501085069444
 31
0.0
  0
LINE
  5
132
330
104
100
AcDbEntity
  8
LAYER_1
 62
     7
100
AcDbLine
 10
2.572452799479167
 20
1.548914930555555
 30
0.0
 11
2.572452799479167
 21
-6.155696614583333
 31
0.0
  0
LINE
  5
131
330
104
100
AcDbEntity
  8
LAYER_1
 62
     7
100
AcDbLine
 10
2.572452799479167
 20
11.360546875
 30
0.0
 11
2.572452799479167
 21
2.865630425347222
 31
0.0
  0
LINE
  5
130
330
104
100
AcDbEntity
  8
LAYER_1
 62
     7
100
AcDbLine
 10
2.572452799479167
 20
18.60386013454861
 30
0.0
 11
2.572452799479167
 21
12.21630859375
 31
0.0
  0
SPLINE
  5
12F
330
104
100
AcDbEntity
  8
LAYER_1
 62
     7
100
AcDbSpline
210
0.0
220
0.0
230
1.0
 70
    11
 71
     3
 72
    23
 73
    19
 74
     0
 42
0.0000000001
 43
0.0000000001
 40
0.0
 40
0.0
 40
0.0
 40
0.0
 40
1.0
 40
1.0
 40
1.0
 40
2.0
 40
2.0
 40
2.0
 40
3.0
 40
3.0
 40
3.0
 40
4.0
 40
4.0
 40
4.0
 40
5.0
 40
5.0
 40
5.0
 40
6.0
 40
6.0
 40
6.0
 40
6.0
 10
-0.0940511067708333
 20
5.980341254340277
 30
0.0
 10
-0.9070936414930555
 20
6.109187825520833
 30
0.0
 10
-1.4417724609375
 20
6.995955403645833
 30
0.0
 10
-1.289154730902778
 20
7.960926649305555
 30
0.0
 10
-1.136192491319444
 20
8.926242404513888
 30
0.0
 10
-0.353466796875
 20
9.604237196180554
 30
0.0
 10
0.4592312282986111
 20
9.475735134548611
 30
0.0
 10
0.4592312282986111
 20
9.475735134548611
 30
0.0
 10
0.7765245225694444
 20
9.425436740451389
 30
0.0
 10
0.7765245225694444
 20
9.425436740451389
 30
0.0
 10
1.589222547743056
 20
9.296590169270832
 30
0.0
 10
2.124245876736111
 20
8.409822591145833
 30
0.0
 10
1.971283637152778
 20
7.444506835937499
 30
0.0
 10
1.818665907118055
 20
6.479535590277777
 30
0.0
 10
1.035595703125
 20
5.801540798611111
 30
0.0
 10
0.2228976779513889
 20
5.930042860243055
 30
0.0
 10
0.2228976779513889
 20
5.930042860243055
 30
0.0
 10
-0.0940511067708333
 20
5.980341254340277
 30
0.0
 10
-0.0940511067708333
 20
5.980341254340277
 30
0.0
  0
ELLIPSE
  5
12E
330
104
100
AcDbEntity
  8
LAYER_1
 62
     7
100
AcDbEllipse
 10
0.4590589735243055
 20
7.684113226996527
 30
0.0
 11
-0.2768134223090278
 21
-1.747524685329861
 31
0.0
210
0.0
220
0.0
230
1.0
 40
0.8420860722827989
 41
0.0
 42
6.283185307179586
  0
LWPOLYLINE
  5
124
330
104
100
AcDbEntity
  8
LAYER_1
 62
     7
100
AcDbPolyline
 90
        8
 70
     1
 43
0.0
 10
0.3620795355902777
 20
6.386862521701389
 10
-0.4988498263888889
 20
7.056589084201388
 10
-0.3083360460069444
 20
8.259960937499999
 10
0.60771484375
 20
8.781548394097221
 10
1.343587239583333
 20
8.665104166666666
 10
1.970250108506944
 20
8.069791666666665
 10
1.920296223958333
 20
6.910861545138888
 10
1.097607421875
 20
6.270418294270833
  0
LWPOLYLINE
  5
11E
330
104
100
AcDbEntity
  8
LAYER_1
 62
     7
100
AcDbPolyline
 90
        4
 70
     0
 43
0.0
 10
1.343587239583333
 20
8.665104166666666
 10
0.4275363498263888
 20
8.143516710069443
 10
0.2370225694444444
 20
6.940144856770833
 10
1.097607421875
 20
6.270418294270833
  0
LINE
  5
11D
330
104
100
AcDbEntity
  8
LAYER_1
 62
     7
100
AcDbLine
 10
0.4275363498263888
 20
8.143516710069443
 30
0.0
 11
-0.3083360460069444
 21
8.259960937499999
 31
0.0
  0
LINE
  5
11C
330
104
100
AcDbEntity
  8
LAYER_1
 62
     7
100
AcDbLine
 10
0.2370225694444444
 20
6.940144856770833
 30
0.0
 11
-0.4988498263888889
 21
7.056589084201388
 31
0.0
  0
SPLINE
  5
11B
330
104
100
AcDbEntity
  8
LAYER_1
 62
     7
100
AcDbSpline
210
0.0
220
0.0
230
1.0
 70
    11
 71
     3
 72
    23
 73
    19
 74
     0
 42
0.0000000001
 43
0.0000000001
 40
0.0
 40
0.0
 40
0.0
 40
0.0
 40
1.0
 40
1.0
 40
1.0
 40
2.0
 40
2.0
 40
2.0
 40
3.0
 40
3.0
 40
3.0
 40
4.0
 40
4.0
 40
4.0
 40
5.0
 40
5.0
 40
5.0
 40
6.0
 40
6.0
 40
6.0
 40
6.0
 10
-0.0940511067708333
 20
12.86157497829861
 30
0.0
 10
-0.9070936414930555
 20
12.99042154947917
 30
0.0
 10
-1.4417724609375
 20
13.87718912760417
 30
0.0
 10
-1.289154730902778
 20
14.8425048828125
 30
0.0
 10
-1.136192491319444
 20
15.80747612847222
 30
0.0
 10
-0.353466796875
 20
16.4858154296875
 30
0.0
 10
0.4592312282986111
 20
16.35696885850694
 30
0.0
 10
0.4592312282986111
 20
16.35696885850694
 30
0.0
 10
0.7765245225694444
 20
16.30667046440972
 30
0.0
 10
0.7765245225694444
 20
16.30667046440972
 30
0.0
 10
1.589222547743056
 20
16.17816840277778
 30
0.0
 10
2.124245876736111
 20
15.29105631510417
 30
0.0
 10
1.971283637152778
 20
14.32608506944444
 30
0.0
 10
1.818665907118055
 20
13.36076931423611
 30
0.0
 10
1.035595703125
 20
12.68277452256944
 30
0.0
 10
0.2228976779513889
 20
12.81162109375
 30
0.0
 10
0.2228976779513889
 20
12.81162109375
 30
0.0
 10
-0.0940511067708333
 20
12.86157497829861
 30
0.0
 10
-0.0940511067708333
 20
12.86157497829861
 30
0.0
  0
ELLIPSE
  5
11A
330
104
100
AcDbEntity
  8
LAYER_1
 62
     7
100
AcDbEllipse
 10
0.4590589735243055
 20
14.56551920572917
 30
0.0
 11
-0.2768134223090278
 21
-1.747696940104167
 31
0.0
210
0.0
220
0.0
230
1.0
 40
0.8419898845254834
 41
0.0
 42
6.283185307179586
  0
LWPOLYLINE
  5
110
330
104
100
AcDbEntity
  8
LAYER_1
 62
     7
100
AcDbPolyline
 90
        8
 70
     1
 43
0.0
 10
0.3620795355902777
 20
13.26844075520833
 10
-0.4988498263888889
 20
13.93816731770833
 10
-0.3083360460069444
 20
15.14119466145833
 10
0.60771484375
 20
15.66278211805556
 10
1.343587239583333
 20
15.546337890625
 10
1.970250108506944
 20
14.95136990017361
 10
1.920296223958333
 20
13.79243977864583
 10
1.097607421875
 20
13.15199652777778
  0
LWPOLYLINE
  5
10A
330
104
100
AcDbEntity
  8
LAYER_1
 62
     7
100
AcDbPolyline
 90
        4
 70
     0
 43
0.0
 10
1.343587239583333
 20
15.546337890625
 10
0.4275363498263888
 20
15.02475043402778
 10
0.2370225694444444
 20
13.82137858072917
 10
1.097607421875
 20
13.15199652777778
  0
LINE
  5
109
330
104
100
AcDbEntity
  8
LAYER_1
 62
     7
100
AcDbLine
 10
0.4275363498263888
 20
15.02475043402778
 30
0.0
 11
-0.3083360460069444
 21
15.14119466145833
 31
0.0
  0
LINE
  5
108
330
104
100
AcDbEntity
  8
LAYER_1
 62
     7
100
AcDbLine
 10
0.2370225694444444
 20
13.82137858072917
 30
0.0
 11
-0.4988498263888889
 21
13.93816731770833
 31
0.0
  0
SPLINE
  5
107
330
104
100
AcDbEntity
  8
LAYER_1
 62
     7
100
AcDbSpline
210
0.0
220
0.0
230
1.0
 70
     8
 71
     3
 72
    11
 73
     7
 74
     0
 42
0.0000000001
 43
0.0000000001
 40
0.0
 40
0.0
 40
0.0
 40
0.0
 40
1.0
 40
1.0
 40
1.0
 40
2.0
 40
2.0
 40
2.0
 40
2.0
 10
3.226676432291666
 20
-7.472756618923611
 30
0.0
 10
3.226676432291666
 20
-7.472756618923611
 30
0.0
 10
9.647300889756943
 20
-10.53475748697917
 30
0.0
 10
9.647300889756943
 20
-10.53475748697917
 30
0.0
 10
10.368359375
 20
-10.79796278211805
 30
0.0
 10
10.83241373697917
 20
-11.42393663194444
 30
0.0
 10
10.83241373697917
 20
-11.91761881510417
 30
0.0
  0
ENDBLK
  5
159
330
104
100
AcDbEntity
  8
LAYER_1
100
AcDbBlockEnd
  0
ENDSEC
  0
SECTION
  2
ENTITIES
  0
INSERT
  5
23
330
A
100
AcDbEntity
  8
LAYER_1
 62
     7
100
AcDbBlockReference
  2
AI9-BLK1
 10
102.39375
 20
140.8198282877604
 30
0.0
  0
ENDSEC
  0
SECTION
  2
OBJECTS
  0
DICTIONARY
  5
19
330
0
100
AcDbDictionary
281
     1
  3
ACAD_COLOR
350
1E2
  3
ACAD_GROUP
350
1A
  3
ACAD_LAYOUT
350
1AF
  3
ACAD_MATERIAL
350
1E4
  3
ACAD_MLINESTYLE
350
1B
  3
ACAD_PLOTSETTINGS
350
1B0
  3
ACAD_PLOTSTYLENAME
350
1AD
  3
ACDBHEADERROUNDTRIPXREC
350
1E1
  0
DICTIONARY
  5
1E2
102
{ACAD_REACTORS
330
19
102
}
330
19
100
AcDbDictionary
281
     1
  0
DICTIONARY
  5
1A
102
{ACAD_REACTORS
330
19
102
}
330
19
100
AcDbDictionary
281
     1
  0
DICTIONARY
  5
1AF
102
{ACAD_REACTORS
330
19
102
}
330
19
100
AcDbDictionary
281
     1
  3
Layout1
350
1B2
  3
Model
350
1B1
  0
DICTIONARY
  5
1E4
102
{ACAD_REACTORS
330
19
102
}
330
19
100
AcDbDictionary
281
     1
  0
DICTIONARY
  5
1B
102
{ACAD_REACTORS
330
19
102
}
330
19
100
AcDbDictionary
281
     1
  3
STANDARD
350
1C
  0
DICTIONARY
  5
1B0
102
{ACAD_REACTORS
330
19
102
}
330
19
100
AcDbDictionary
281
     1
  0
ACDBDICTIONARYWDFLT
  5
1AD
102
{ACAD_REACTORS
330
19
102
}
330
19
100
AcDbDictionary
281
     1
  3
Normal
350
1AE
100
AcDbDictionaryWithDefault
340
1AE
  0
DICTIONARY
  5
1E1
102
{ACAD_REACTORS
330
19
102
}
330
19
100
AcDbDictionary
281
     1
  3
COLORDICT
350
1E3
  3
MATERIALDICT
350
1E5
  0
LAYOUT
  5
1B2
102
{ACAD_REACTORS
330
1AF
102
}
102
{ACAD_XDICTIONARY
360
1E6
102
}
330
1AF
100
AcDbPlotSettings
  1

  2
Support Center HP LaserJet 4
  4

  6

 40
0.0
 41
0.0
 42
0.0
 43
0.0
 44
0.0
 45
0.0
 46
0.0
 47
0.0
 48
0.0
 49
0.0
140
0.0
141
0.0
142
1.0
143
1.0
 70
   688
 72
     0
 73
     0
 74
     5
  7

 75
    16
147
1.0
148
0.0
149
0.0
100
AcDbLayout
  1
Layout1
 70
     0
 71
     1
 10
0.0
 20
0.0
 11
12.0
 21
9.0
 12
0.0
 22
0.0
 32
0.0
 14
1.000000000000000E+20
 24
1.000000000000000E+20
 34
1.000000000000000E+20
 15
-1.000000000000000E+20
 25
-1.000000000000000E+20
 35
-1.000000000000000E+20
146
0.0
 13
0.0
 23
0.0
 33
0.0
 16
1.0
 26
0.0
 36
0.0
 17
0.0
 27
1.0
 37
0.0
 76
     0
330
B
  0
LAYOUT
  5
1B1
102
{ACAD_REACTORS
330
1AF
102
}
102
{ACAD_XDICTIONARY
360
1E8
102
}
330
1AF
100
AcDbPlotSettings
  1

  2
Support Center HP LaserJet 4
  4

  6

 40
0.0
 41
0.0
 42
0.0
 43
0.0
 44
0.0
 45
0.0
 46
0.0
 47
0.0
 48
0.0
 49
0.0
140
0.0
141
0.0
142
1.0
143
1.0
 70
  1712
 72
     0
 73
     0
 74
     0
  7

 75
     0
147
1.0
148
0.0
149
0.0
100
AcDbLayout
  1
Model
 70
     1
 71
     0
 10
0.0
 20
0.0
 11
12.0
 21
9.0
 12
0.0
 22
0.0
 32
0.0
 14
0.0
 24
0.0
 34
0.0
 15
0.0
 25
0.0
 35
0.0
146
0.0
 13
0.0
 23
0.0
 33
0.0
 16
1.0
 26
0.0
 36
0.0
 17
0.0
 27
1.0
 37
0.0
 76
     0
330
A
  0
MLINESTYLE
  5
1C
102
{ACAD_REACTORS
330
1B
102
}
330
1B
100
AcDbMlineStyle
  2
STANDARD
 70
     0
  3

 62
     0
 51
90.0000000000002
 52
90.0000000000002
 71
     2
 49
0.5
 62
   256
  6
BYLAYER
 49
-0.5
 62
   256
  6
BYLAYER
  0
ACDBPLACEHOLDER
  5
1AE
102
{ACAD_REACTORS
330
1AD
102
}
330
1AD
  0
XRECORD
  5
1E3
102
{ACAD_REACTORS
330
1E1
102
}
330
1E1
100
AcDbXrecord
340
1E2
  0
XRECORD
  5
1E5
102
{ACAD_REACTORS
330
1E1
102
}
330
1E1
100
AcDbXrecord
340
1E4
  0
DICTIONARY
  5
1E6
330
1B2
100
AcDbDictionary
280
     1
281
     1
  3
ACAD_XREC_ROUNDTRIP
360
1E7
  0
DICTIONARY
  5
1E8
330
1B1
100
AcDbDictionary
280
     1
281
     1
  3
ACAD_XREC_ROUNDTRIP
360
1E9
  0
XRECORD
  5
1E7
102
{ACAD_REACTORS
330
1E6
102
}
330
1E6
100
AcDbXrecord
102
SHADEPLOT
 70
     0
102
SHADEPLOTRESLEVEL
 70
     0
102
SHADEPLOTCUSTOMDPI
 70
     0
  0
XRECORD
  5
1E9
102
{ACAD_REACTORS
330
1E8
102
}
330
1E8
100
AcDbXrecord
102
SHADEPLOT
 70
     0
102
SHADEPLOTRESLEVEL
 70
     0
102
SHADEPLOTCUSTOMDPI
 70
     0
  0
ENDSEC
  0
EOF
