  0
SECTION
  2
HEADER
  9
$ACADVER
  1
AC1015
  9
$ACADMAINTVER
 70
     6
  9
$DWGCODEPAGE
  3
ASCII
  9
$INSBASE
 10
0.0
 20
0.0
 30
0.0
  9
$EXTMIN
 10
-0.415
 20
1.303500000000001
 30
0.0
  9
$EXTMAX
 10
6.574
 20
7.989
 30
0.0
  9
$LIMMIN
 10
0.0
 20
0.0
  9
$LIMMAX
 10
12.0
 20
9.0
  9
$ORTHOMODE
 70
     0
  9
$REGENMODE
 70
     1
  9
$FILLMODE
 70
     1
  9
$QTEXTMODE
 70
     0
  9
$MIRRTEXT
 70
     1
  9
$LTSCALE
 40
0.25
  9
$ATTMODE
 70
     1
  9
$TEXTSIZE
 40
0.175
  9
$TRACEWID
 40
0.05
  9
$TEXTSTYLE
  7
STANDARD
  9
$CLAYER
  8
0
  9
$CELTYPE
  6
ByLayer
  9
$CECOLOR
 62
   256
  9
$CELTSCALE
 40
1.0
  9
$DISPSILH
 70
     0
  9
$DIMSCALE
 40
1.0
  9
$DIMASZ
 40
0.18
  9
$DIMEXO
 40
0.063
  9
$DIMDLI
 40
0.38
  9
$DIMRND
 40
0.0
  9
$DIMDLE
 40
0.0
  9
$DIMEXE
 40
0.18
  9
$DIMTP
 40
0.0
  9
$DIMTM
 40
0.0
  9
$DIMTXT
 40
0.18
  9
$DIMCEN
 40
0.09
  9
$DIMTSZ
 40
0.0
  9
$DIMTOL
 70
     0
  9
$DIMLIM
 70
     0
  9
$DIMTIH
 70
     1
  9
$DIMTOH
 70
     1
  9
$DIMSE1
 70
     0
  9
$DIMSE2
 70
     0
  9
$DIMTAD
 70
     0
  9
$DIMZIN
 70
     0
  9
$DIMBLK
  1

  9
$DIMASO
 70
     0
  9
$DIMSHO
 70
     1
  9
$DIMPOST
  1

  9
$DIMAPOST
  1

  9
$DIMALT
 70
     0
  9
$DIMALTD
 70
     2
  9
$DIMALTF
 40
25.4
  9
$DIMLFAC
 40
1.0
  9
$DIMTOFL
 70
     0
  9
$DIMTVP
 40
0.0
  9
$DIMTIX
 70
     0
  9
$DIMSOXD
 70
     0
  9
$DIMSAH
 70
     0
  9
$DIMBLK1
  1

  9
$DIMBLK2
  1

  9
$DIMSTYLE
  2
Standard
  9
$DIMCLRD
 70
     0
  9
$DIMCLRE
 70
     0
  9
$DIMCLRT
 70
     0
  9
$DIMTFAC
 40
1.0
  9
$DIMGAP
 40
0.09
  9
$DIMJUST
 70
     0
  9
$DIMSD1
 70
     0
  9
$DIMSD2
 70
     0
  9
$DIMTOLJ
 70
     1
  9
$DIMTZIN
 70
     0
  9
$DIMALTZ
 70
     0
  9
$DIMALTTZ
 70
     0
  9
$DIMUPT
 70
     0
  9
$DIMDEC
 70
     4
  9
$DIMTDEC
 70
     4
  9
$DIMALTU
 70
     2
  9
$DIMALTTD
 70
     2
  9
$DIMTXSTY
  7
STANDARD
  9
$DIMAUNIT
 70
     0
  9
$DIMADEC
 70
     0
  9
$DIMALTRND
 40
0.0
  9
$DIMAZIN
 70
     0
  9
$DIMDSEP
 70
    46
  9
$DIMATFIT
 70
     3
  9
$DIMFRAC
 70
     0
  9
$DIMLDRBLK
  1

  9
$DIMLUNIT
 70
     2
  9
$DIMLWD
 70
    -2
  9
$DIMLWE
 70
    -2
  9
$DIMTMOVE
 70
     0
  9
$LUNITS
 70
     2
  9
$LUPREC
 70
     4
  9
$SKETCHINC
 40
0.1
  9
$FILLETRAD
 40
0.0
  9
$AUNITS
 70
     0
  9
$AUPREC
 70
     0
  9
$MENU
  1
acad
  9
$ELEVATION
 40
0.0
  9
$PELEVATION
 40
0.0
  9
$THICKNESS
 40
0.0
  9
$LIMCHECK
 70
     0
  9
$CHAMFERA
 40
0.0
  9
$CHAMFERB
 40
0.0
  9
$CHAMFERC
 40
1.0
  9
$CHAMFERD
 40
0.0
  9
$SKPOLY
 70
     0
  9
$TDCREATE
 40
2453955.560885926
  9
$TDUCREATE
 40
2453955.894219259
  9
$TDUPDATE
 40
2453955.602552604
  9
$TDUUPDATE
 40
2453955.894219271
  9
$TDINDWG
 40
0.0000000116
  9
$TDUSRTIMER
 40
0.0000000116
  9
$USRTIMER
 70
     1
  9
$ANGBASE
 50
0.0
  9
$ANGDIR
 70
     0
  9
$PDMODE
 70
     0
  9
$PDSIZE
 40
0.0
  9
$PLINEWID
 40
0.0
  9
$SPLFRAME
 70
     0
  9
$SPLINETYPE
 70
     6
  9
$SPLINESEGS
 70
     8
  9
$HANDSEED
  5
3CB
  9
$SURFTAB1
 70
     6
  9
$SURFTAB2
 70
     6
  9
$SURFTYPE
 70
     6
  9
$SURFU
 70
     6
  9
$SURFV
 70
     6
  9
$UCSBASE
  2

  9
$UCSNAME
  2

  9
$UCSORG
 10
0.0
 20
0.0
 30
0.0
  9
$UCSXDIR
 10
1.0
 20
0.0
 30
0.0
  9
$UCSYDIR
 10
0.0
 20
1.0
 30
0.0
  9
$UCSORTHOREF
  2

  9
$UCSORTHOVIEW
 70
     0
  9
$UCSORGTOP
 10
0.0
 20
0.0
 30
0.0
  9
$UCSORGBOTTOM
 10
0.0
 20
0.0
 30
0.0
  9
$UCSORGLEFT
 10
0.0
 20
0.0
 30
0.0
  9
$UCSORGRIGHT
 10
0.0
 20
0.0
 30
0.0
  9
$UCSORGFRONT
 10
0.0
 20
0.0
 30
0.0
  9
$UCSORGBACK
 10
0.0
 20
0.0
 30
0.0
  9
$PUCSBASE
  2

  9
$PUCSNAME
  2

  9
$PUCSORG
 10
0.0
 20
0.0
 30
0.0
  9
$PUCSXDIR
 10
1.0
 20
0.0
 30
0.0
  9
$PUCSYDIR
 10
0.0
 20
1.0
 30
0.0
  9
$PUCSORTHOREF
  2

  9
$PUCSORTHOVIEW
 70
     0
  9
$PUCSORGTOP
 10
0.0
 20
0.0
 30
0.0
  9
$PUCSORGBOTTOM
 10
0.0
 20
0.0
 30
0.0
  9
$PUCSORGLEFT
 10
0.0
 20
0.0
 30
0.0
  9
$PUCSORGRIGHT
 10
0.0
 20
0.0
 30
0.0
  9
$PUCSORGFRONT
 10
0.0
 20
0.0
 30
0.0
  9
$PUCSORGBACK
 10
0.0
 20
0.0
 30
0.0
  9
$USERI1
 70
     0
  9
$USERI2
 70
     0
  9
$USERI3
 70
     0
  9
$USERI4
 70
     0
  9
$USERI5
 70
     0
  9
$USERR1
 40
0.0
  9
$USERR2
 40
0.0
  9
$USERR3
 40
0.0
  9
$USERR4
 40
0.0
  9
$USERR5
 40
0.0
  9
$WORLDVIEW
 70
     1
  9
$SHADEDGE
 70
     3
  9
$SHADEDIF
 70
    70
  9
$TILEMODE
 70
     1
  9
$MAXACTVP
 70
    16
  9
$PINSBASE
 10
0.0
 20
0.0
 30
0.0
  9
$PLIMCHECK
 70
     0
  9
$PEXTMIN
 10
1.000000000000000E+20
 20
1.000000000000000E+20
 30
1.000000000000000E+20
  9
$PEXTMAX
 10
-1.000000000000000E+20
 20
-1.000000000000000E+20
 30
-1.000000000000000E+20
  9
$PLIMMIN
 10
0.0
 20
0.0
  9
$PLIMMAX
 10
12.0
 20
9.0
  9
$UNITMODE
 70
     0
  9
$VISRETAIN
 70
     0
  9
$PLINEGEN
 70
     0
  9
$PSLTSCALE
 70
     1
  9
$TREEDEPTH
 70
  3020
  9
$CMLSTYLE
  2
Standard
  9
$CMLJUST
 70
     0
  9
$CMLSCALE
 40
1.0
  9
$PROXYGRAPHICS
 70
     1
  9
$MEASUREMENT
 70
     0
  9
$CELWEIGHT
370
    -1
  9
$ENDCAPS
280
     0
  9
$JOINSTYLE
280
     0
  9
$LWDISPLAY
290
     0
  9
$INSUNITS
 70
     1
  9
$HYPERLINKBASE
  1

  9
$STYLESHEET
  1

  9
$XEDIT
290
     1
  9
$CEPSNTYPE
380
     0
  9
$PSTYLEMODE
290
     0
  9
$FINGERPRINTGUID
  2
{FAEB1C30-E019-11D5-929B-00C0DF256EC4}
  9
$VERSIONGUID
  2
{FAEB1C32-E019-11D5-929B-00C0DF256EC4}
  9
$EXTNAMES
290
     1
  9
$PSVPSCALE
 40
0.0
  9
$OLESTARTUP
290
     0
  0
ENDSEC
  0
SECTION
  2
CLASSES
  0
CLASS
  1
ACDBDICTIONARYWDFLT
  2
AcDbDictionaryWithDefault
  3
AutoCAD 2000
 90
        0
280
     0
281
     0
  0
CLASS
  1
ACDBPLACEHOLDER
  2
AcDbPlaceHolder
  3
ObjectDBX Classes
 90
        0
280
     0
281
     0
  0
CLASS
  1
LAYOUT
  2
AcDbLayout
  3
ObjectDBX Classes
 90
        0
280
     0
281
     0
  0
ENDSEC
  0
SECTION
  2
TABLES
  0
TABLE
  2
VPORT
  5
8
330
0
100
AcDbSymbolTable
 70
     2
  0
VPORT
  5
1F
330
8
100
AcDbSymbolTableRecord
100
AcDbViewportTableRecord
  2
*ACTIVE
 70
     0
 10
0.0
 20
0.0
 11
1.0
 21
1.0
 12
5.828341404358354
 22
4.5
 13
0.0
 23
0.0
 14
1.0
 24
1.0
 15
0.0
 25
0.0
 16
0.0
 26
0.0
 36
1.0
 17
0.0
 27
0.0
 37
0.0
 40
9.0
 41
0.7207678883071553
 42
50.0
 43
0.0
 44
0.0
 50
0.0
 51
0.0
 71
     0
 72
  2000
 73
     1
 74
     0
 75
     0
 76
     0
 77
     0
 78
     0
281
     0
 65
     1
110
0.0
120
0.0
130
0.0
111
1.0
121
0.0
131
0.0
112
0.0
122
1.0
132
0.0
 79
     0
146
0.0
  0
ENDTAB
  0
TABLE
  2
LTYPE
  5
5
330
0
100
AcDbSymbolTable
 70
     2
  0
LTYPE
  5
10
330
5
100
AcDbSymbolTableRecord
100
AcDbLinetypeTableRecord
  2
ByBlock
 70
     0
  3

 72
    65
 73
     0
 40
0.0
  0
LTYPE
  5
11
330
5
100
AcDbSymbolTableRecord
100
AcDbLinetypeTableRecord
  2
ByLayer
 70
     0
  3

 72
    65
 73
     0
 40
0.0
  0
LTYPE
  5
1B
330
5
100
AcDbSymbolTableRecord
100
AcDbLinetypeTableRecord
  2
CONTINUOUS
 70
     0
  3
Solid line
 72
    65
 73
     0
 40
0.0
  0
LTYPE
  5
1C
330
5
100
AcDbSymbolTableRecord
100
AcDbLinetypeTableRecord
  2
HIDDEN
 70
     0
  3
__ __ __ __ __ __ __ __ __ __ __ __ __ __ __ __
 72
    65
 73
     2
 40
0.375
 49
0.25
 74
     0
 49
-0.125
 74
     0
  0
ENDTAB
  0
TABLE
  2
LAYER
  5
2
330
0
100
AcDbSymbolTable
 70
     1
  0
LAYER
  5
1D
330
2
100
AcDbSymbolTableRecord
100
AcDbLayerTableRecord
  2
0
 70
     0
 62
     7
  6
CONTINUOUS
370
    -3
390
F
  0
ENDTAB
  0
TABLE
  2
STYLE
  5
3
330
0
100
AcDbSymbolTable
 70
     1
  0
STYLE
  5
22
330
3
100
AcDbSymbolTableRecord
100
AcDbTextStyleTableRecord
  2
STANDARD
 70
     0
 40
0.0
 41
1.0
 50
0.0
 71
     0
 42
0.175
  3
ROMANS.shx
  4

  0
ENDTAB
  0
TABLE
  2
VIEW
  5
6
330
0
100
AcDbSymbolTable
 70
     1
  0
VIEW
  5
21
330
6
100
AcDbSymbolTableRecord
100
AcDbViewTableRecord
  2
1
 70
     0
 40
8.01
 10
5.19
 20
3.995
 41
10.38
 11
0.0
 21
0.0
 31
1.0
 12
0.0
 22
0.0
 32
0.0
 42
50.0
 43
0.0
 44
0.0
 50
0.0
 71
     0
281
     0
 72
     0
  0
ENDTAB
  0
TABLE
  2
UCS
  5
7
330
0
100
AcDbSymbolTable
 70
     0
  0
ENDTAB
  0
TABLE
  2
APPID
  5
9
330
0
100
AcDbSymbolTable
 70
     1
  0
APPID
  5
20
330
9
100
AcDbSymbolTableRecord
100
AcDbRegAppTableRecord
  2
ACAD
 70
     0
  0
ENDTAB
  0
TABLE
  2
DIMSTYLE
  5
A
330
0
100
AcDbSymbolTable
 70
     1
100
AcDbDimStyleTable
  0
DIMSTYLE
105
23
330
A
100
AcDbSymbolTableRecord
100
AcDbDimStyleTableRecord
  2
Standard
 70
     0
  3

  4

340
22
  0
ENDTAB
  0
TABLE
  2
BLOCK_RECORD
  5
1
330
0
100
AcDbSymbolTable
 70
     0
  0
BLOCK_RECORD
  5
18
330
1
100
AcDbSymbolTableRecord
100
AcDbBlockTableRecord
  2
*Model_Space
340
19
  0
BLOCK_RECORD
  5
16
330
1
100
AcDbSymbolTableRecord
100
AcDbBlockTableRecord
  2
*Paper_Space
340
17
  0
ENDTAB
  0
ENDSEC
  0
SECTION
  2
BLOCKS
  0
BLOCK
  5
3C0
330
18
100
AcDbEntity
  8
0
100
AcDbBlockBegin
  2
*Model_Space
 70
     0
 10
0.0
 20
0.0
 30
0.0
  3
*Model_Space
  1

  4

  0
ENDBLK
  5
3C1
330
18
100
AcDbEntity
  8
0
100
AcDbBlockEnd
  0
BLOCK
  5
3BE
330
16
100
AcDbEntity
 67
     1
  8
0
100
AcDbBlockBegin
  2
*Paper_Space
 70
     0
 10
0.0
 20
0.0
 30
0.0
  3
*Paper_Space
  1

  4

  0
ENDBLK
  5
3BF
330
16
100
AcDbEntity
 67
     1
  8
0
100
AcDbBlockEnd
  0
ENDSEC
  0
SECTION
  2
ENTITIES
  0
LINE
  5
24
330
18
100
AcDbEntity
  8
0
100
AcDbLine
 10
0.6559999999999999
 20
2.032
 30
0.0
 11
0.6559999999999999
 21
3.294
 31
0.0
  0
LINE
  5
25
330
18
100
AcDbEntity
  8
0
100
AcDbLine
 10
0.6559999999999999
 20
6.893
 30
0.0
 11
0.7
 21
6.893
 31
0.0
  0
LINE
  5
26
330
18
100
AcDbEntity
  8
0
100
AcDbLine
 10
6.574
 20
6.893
 30
0.0
 11
6.574
 21
2.032
 31
0.0
  0
LINE
  5
27
330
18
100
AcDbEntity
  8
0
100
AcDbLine
 10
6.574
 20
2.032
 30
0.0
 11
0.6559999999999999
 21
2.032
 31
0.0
  0
LINE
  5
28
330
18
100
AcDbEntity
  8
0
100
AcDbLine
 10
5.057
 20
2.032
 30
0.0
 11
5.057
 21
3.474
 31
0.0
  0
LINE
  5
29
330
18
100
AcDbEntity
  8
0
100
AcDbLine
 10
4.882
 20
2.032
 30
0.0
 11
4.882
 21
3.162
 31
0.0
  0
LINE
  5
2A
330
18
100
AcDbEntity
  8
0
100
AcDbLine
 10
5.642
 20
2.032
 30
0.0
 11
5.642
 21
2.582
 31
0.0
  0
LINE
  5
2B
330
18
100
AcDbEntity
  8
0
100
AcDbLine
 10
5.579
 20
2.563
 30
0.0
 11
5.579
 21
2.99
 31
0.0
  0
LINE
  5
2C
330
18
100
AcDbEntity
  8
0
100
AcDbLine
 10
5.579
 20
2.99
 30
0.0
 11
5.864
 21
3.117
 31
0.0
  0
LINE
  5
2D
330
18
100
AcDbEntity
  8
0
100
AcDbLine
 10
6.412000000000001
 20
3.363
 30
0.0
 11
6.412000000000001
 21
2.936
 31
0.0
  0
LINE
  5
2E
330
18
100
AcDbEntity
  8
0
100
AcDbLine
 10
5.579
 20
2.563
 30
0.0
 11
5.864
 21
2.69
 31
0.0
  0
LINE
  5
2F
330
18
100
AcDbEntity
  8
0
100
AcDbLine
 10
5.864
 20
2.69
 30
0.0
 11
5.864
 21
3.117
 31
0.0
  0
LINE
  5
30
330
18
100
AcDbEntity
  8
0
100
AcDbLine
 10
6.154
 20
2.82
 30
0.0
 11
6.154
 21
3.247
 31
0.0
  0
LINE
  5
31
330
18
100
AcDbEntity
  8
0
100
AcDbLine
 10
5.912999999999999
 20
2.762
 30
0.0
 11
5.912999999999999
 21
3.19
 31
0.0
  0
LINE
  5
32
330
18
100
AcDbEntity
  8
0
100
AcDbLine
 10
6.085
 20
2.719
 30
0.0
 11
6.085
 21
3.146
 31
0.0
  0
LINE
  5
33
330
18
100
AcDbEntity
  8
0
100
AcDbLine
 10
5.912999999999999
 20
3.19
 30
0.0
 11
6.085
 21
3.146
 31
0.0
  0
LINE
  5
34
330
18
100
AcDbEntity
  8
0
100
AcDbLine
 10
6.085
 20
3.146
 30
0.0
 11
6.154
 21
3.247
 31
0.0
  0
LINE
  5
35
330
18
100
AcDbEntity
  8
0
100
AcDbLine
 10
5.864
 20
3.117
 30
0.0
 11
5.912999999999999
 21
3.19
 31
0.0
  0
LINE
  5
36
330
18
100
AcDbEntity
  8
0
100
AcDbLine
 10
5.864
 20
2.69
 30
0.0
 11
5.912999999999999
 21
2.762
 31
0.0
  0
LINE
  5
37
330
18
100
AcDbEntity
  8
0
100
AcDbLine
 10
5.912999999999999
 20
2.762
 30
0.0
 11
6.085
 21
2.719
 31
0.0
  0
LINE
  5
38
330
18
100
AcDbEntity
  8
0
100
AcDbLine
 10
6.085
 20
2.719
 30
0.0
 11
6.154
 21
2.82
 31
0.0
  0
LINE
  5
39
330
18
100
AcDbEntity
  8
0
100
AcDbLine
 10
6.154
 20
2.82
 30
0.0
 11
6.412000000000001
 21
2.936
 31
0.0
  0
LINE
  5
3A
330
18
100
AcDbEntity
  8
0
100
AcDbLine
 10
6.154
 20
3.247
 30
0.0
 11
6.412000000000001
 21
3.363
 31
0.0
  0
LINE
  5
3B
330
18
100
AcDbEntity
  8
0
100
AcDbLine
 10
5.579
 20
2.99
 30
0.0
 11
4.893
 21
3.626
 31
0.0
  0
LINE
  5
3C
330
18
100
AcDbEntity
  8
0
100
AcDbLine
 10
6.412000000000001
 20
3.363
 30
0.0
 11
5.717000000000001
 21
3.952
 31
0.0
  0
LINE
  5
3D
330
18
100
AcDbEntity
  8
0
100
AcDbLine
 10
5.579
 20
2.563
 30
0.0
 11
5.057
 21
3.047
 31
0.0
  0
LINE
  5
3E
330
18
100
AcDbEntity
  8
0
100
AcDbLine
 10
2.302
 20
2.032
 30
0.0
 11
3.026
 21
2.349
 31
0.0
  0
LINE
  5
3F
330
18
100
AcDbEntity
  8
0
100
AcDbLine
 10
1.763
 20
2.032
 30
0.0
 11
3.026
 21
2.585
 31
0.0
  0
LINE
  5
40
330
18
100
AcDbEntity
  8
0
100
AcDbLine
 10
6.047999999999999
 20
3.672
 30
0.0
 11
6.574
 21
3.902
 31
0.0
  0
LINE
  5
41
330
18
100
AcDbEntity
  8
0
100
AcDbLine
 10
5.864
 20
3.828
 30
0.0
 11
6.574
 21
4.138999999999999
 31
0.0
  0
LINE
  5
42
330
18
100
AcDbEntity
  8
0
100
AcDbLine
 10
3.026
 20
2.349
 30
0.0
 11
3.026
 21
2.585
 31
0.0
  0
LINE
  5
43
330
18
100
AcDbEntity
  8
0
100
AcDbLine
 10
3.376
 20
2.502
 30
0.0
 11
3.376
 21
2.738
 31
0.0
  0
LINE
  5
44
330
18
100
AcDbEntity
  8
0
100
AcDbLine
 10
3.126
 20
2.442
 30
0.0
 11
3.126
 21
2.678
 31
0.0
  0
LINE
  5
45
330
18
100
AcDbEntity
  8
0
100
AcDbLine
 10
3.311
 20
2.392
 30
0.0
 11
3.311
 21
2.628
 31
0.0
  0
LINE
  5
46
330
18
100
AcDbEntity
  8
0
100
AcDbLine
 10
3.026
 20
2.349
 30
0.0
 11
3.126
 21
2.442
 31
0.0
  0
LINE
  5
47
330
18
100
AcDbEntity
  8
0
100
AcDbLine
 10
3.126
 20
2.442
 30
0.0
 11
3.311
 21
2.392
 31
0.0
  0
LINE
  5
48
330
18
100
AcDbEntity
  8
0
100
AcDbLine
 10
3.311
 20
2.392
 30
0.0
 11
3.376
 21
2.502
 31
0.0
  0
LINE
  5
49
330
18
100
AcDbEntity
  8
0
100
AcDbLine
 10
3.026
 20
2.585
 30
0.0
 11
3.126
 21
2.678
 31
0.0
  0
LINE
  5
4A
330
18
100
AcDbEntity
  8
0
100
AcDbLine
 10
3.126
 20
2.678
 30
0.0
 11
3.311
 21
2.628
 31
0.0
  0
LINE
  5
4B
330
18
100
AcDbEntity
  8
0
100
AcDbLine
 10
3.311
 20
2.628
 30
0.0
 11
3.376
 21
2.738
 31
0.0
  0
LINE
  5
4C
330
18
100
AcDbEntity
  8
0
100
AcDbLine
 10
3.376
 20
2.738
 30
0.0
 11
5.057
 21
3.474
 31
0.0
  0
LINE
  5
4D
330
18
100
AcDbEntity
  8
0
100
AcDbLine
 10
3.376
 20
2.502
 30
0.0
 11
5.057
 21
3.238
 31
0.0
  0
LINE
  5
4E
330
18
100
AcDbEntity
  8
0
100
AcDbLine
 10
-0.156
 20
3.345
 30
0.0
 11
-0.156
 21
3.708
 31
0.0
  0
LINE
  5
4F
330
18
100
AcDbEntity
  8
0
100
AcDbLine
 10
-0.156
 20
4.308
 30
0.0
 11
-0.351
 21
4.573
 31
0.0
  0
LINE
  5
50
330
18
100
AcDbEntity
  8
0
100
AcDbLine
 10
-0.351
 20
4.573
 30
0.0
 11
-0.351
 21
4.297
 31
0.0
  0
LINE
  5
51
330
18
100
AcDbEntity
  8
0
100
AcDbLine
 10
-0.156
 20
3.345
 30
0.0
 11
-0.351
 21
3.618
 31
0.0
  0
LINE
  5
52
330
18
100
AcDbEntity
  8
0
100
AcDbLine
 10
-0.156
 20
3.345
 30
0.0
 11
3.918
 21
4.833
 31
0.0
  0
LINE
  5
53
330
18
100
AcDbEntity
  8
0
100
AcDbLine
 10
-0.156
 20
4.308
 30
0.0
 11
1.29
 21
4.786000000000001
 31
0.0
  0
LINE
  5
54
330
18
100
AcDbEntity
  8
0
100
AcDbLine
 10
-0.351
 20
4.573
 30
0.0
 11
1.182
 21
5.062
 31
0.0
  0
LINE
  5
55
330
18
100
AcDbEntity
  8
0
100
AcDbLine
 10
0.6559999999999999
 20
4.894
 30
0.0
 11
0.6559999999999999
 21
6.112
 31
0.0
  0
LINE
  5
56
330
18
100
AcDbEntity
  8
0
100
AcDbLine
 10
-0.156
 20
3.708
 30
0.0
 11
-0.351
 21
3.981
 31
0.0
  0
LINE
  5
57
330
18
100
AcDbEntity
  8
0
100
AcDbLine
 10
-0.156
 20
4.024
 30
0.0
 11
-0.351
 21
4.297
 31
0.0
  0
LINE
  5
58
330
18
100
AcDbEntity
  8
0
100
AcDbLine
 10
-0.219
 20
3.918
 30
0.0
 11
-0.415
 21
4.191
 31
0.0
  0
LINE
  5
59
330
18
100
AcDbEntity
  8
0
100
AcDbLine
 10
-0.156
 20
3.708
 30
0.0
 11
-0.097
 21
3.83
 31
0.0
  0
LINE
  5
5A
330
18
100
AcDbEntity
  8
0
100
AcDbLine
 10
-0.097
 20
3.83
 30
0.0
 11
-0.219
 21
3.918
 31
0.0
  0
LINE
  5
5B
330
18
100
AcDbEntity
  8
0
100
AcDbLine
 10
-0.219
 20
3.918
 30
0.0
 11
-0.156
 21
4.024
 31
0.0
  0
LINE
  5
5C
330
18
100
AcDbEntity
  8
0
100
AcDbLine
 10
-0.351
 20
3.981
 30
0.0
 11
-0.316
 21
4.053999999999999
 31
0.0
  0
LINE
  5
5D
330
18
100
AcDbEntity
  8
0
100
AcDbLine
 10
-0.415
 20
4.191
 30
0.0
 11
-0.351
 21
4.297
 31
0.0
  0
LINE
  5
5E
330
18
100
AcDbEntity
  8
0
100
AcDbLine
 10
-0.351
 20
3.981
 30
0.0
 11
-0.351
 21
3.618
 31
0.0
  0
LINE
  5
5F
330
18
100
AcDbEntity
  8
0
100
AcDbLine
 10
-0.156
 20
4.024
 30
0.0
 11
-0.156
 21
4.308
 31
0.0
  0
LINE
  5
60
330
18
100
AcDbEntity
  8
0
100
AcDbLine
 10
2.842
 20
5.479
 30
0.0
 11
3.986
 21
7.105
 31
0.0
  0
LINE
  5
61
330
18
100
AcDbEntity
  8
0
100
AcDbLine
 10
3.986
 20
7.105
 30
0.0
 11
3.78
 21
7.362
 31
0.0
  0
LINE
  5
62
330
18
100
AcDbEntity
  8
0
100
AcDbLine
 10
3.414
 20
7.819
 30
0.0
 11
2.696
 21
6.776
 31
0.0
  0
LINE
  5
63
330
18
100
AcDbEntity
  8
0
100
AcDbLine
 10
3.414
 20
7.819
 30
0.0
 11
3.135
 21
7.989
 31
0.0
  0
LINE
  5
64
330
18
100
AcDbEntity
  8
0
100
AcDbLine
 10
3.135
 20
7.989
 30
0.0
 11
2.447
 21
6.988
 31
0.0
  0
LINE
  5
65
330
18
100
AcDbEntity
  8
0
100
AcDbLine
 10
2.017
 20
5.901
 30
0.0
 11
1.671
 21
7.422000000000001
 31
0.0
  0
LINE
  5
66
330
18
100
AcDbEntity
  8
0
100
AcDbLine
 10
1.671
 20
7.422000000000001
 30
0.0
 11
1.477
 21
7.556
 31
0.0
  0
LINE
  5
67
330
18
100
AcDbEntity
  8
0
100
AcDbLine
 10
1.477
 20
7.556
 30
0.0
 11
1.149
 21
7.422999999999999
 31
0.0
  0
LINE
  5
68
330
18
100
AcDbEntity
  8
0
100
AcDbLine
 10
0.617
 20
7.207999999999999
 30
0.0
 11
0.917
 21
6.069
 31
0.0
  0
LINE
  5
69
330
18
100
AcDbEntity
  8
0
100
AcDbLine
 10
1.29
 20
4.916
 30
0.0
 11
1.182
 21
5.062
 31
0.0
  0
LINE
  5
6A
330
18
100
AcDbEntity
  8
0
100
AcDbLine
 10
0.8090000000000001
 20
7.077999999999999
 30
0.0
 11
0.615
 21
7.212999999999999
 31
0.0
  0
LINE
  5
6B
330
18
100
AcDbEntity
  8
0
100
AcDbLine
 10
1.671
 20
7.422000000000001
 30
0.0
 11
1.342
 21
7.289
 31
0.0
  0
LINE
  5
6C
330
18
100
AcDbEntity
  8
0
100
AcDbLine
 10
0.8100000000000001
 20
7.074
 30
0.0
 11
1.077
 21
6.004
 31
0.0
  0
LINE
  5
6D
330
18
100
AcDbEntity
  8
0
100
AcDbLine
 10
1.791
 20
6.893
 30
0.0
 11
2.382
 21
6.893
 31
0.0
  0
LINE
  5
6E
330
18
100
AcDbEntity
  8
0
100
AcDbLine
 10
1.158
 20
7.214
 30
0.0
 11
0.965
 21
7.349
 31
0.0
  0
LINE
  5
6F
330
18
100
AcDbEntity
  8
0
100
AcDbLine
 10
1.342
 20
7.289
 30
0.0
 11
1.149
 21
7.422999999999999
 31
0.0
  0
LINE
  5
70
330
18
100
AcDbEntity
  8
0
100
AcDbLine
 10
1.22
 20
7.307
 30
0.0
 11
1.026
 21
7.442
 31
0.0
  0
LINE
  5
71
330
18
100
AcDbEntity
  8
0
100
AcDbLine
 10
1.22
 20
7.307
 30
0.0
 11
1.315
 21
7.215
 31
0.0
  0
LINE
  5
72
330
18
100
AcDbEntity
  8
0
100
AcDbLine
 10
1.315
 20
7.215
 30
0.0
 11
1.342
 21
7.289
 31
0.0
  0
LINE
  5
73
330
18
100
AcDbEntity
  8
0
100
AcDbLine
 10
1.22
 20
7.307
 30
0.0
 11
1.158
 21
7.214
 31
0.0
  0
LINE
  5
74
330
18
100
AcDbEntity
  8
0
100
AcDbLine
 10
1.026
 20
7.442
 30
0.0
 11
0.965
 21
7.349
 31
0.0
  0
LINE
  5
75
330
18
100
AcDbEntity
  8
0
100
AcDbLine
 10
1.129
 20
7.37
 30
0.0
 11
1.149
 21
7.422999999999999
 31
0.0
  0
LINE
  5
76
330
18
100
AcDbEntity
  8
0
100
AcDbLine
 10
1.158
 20
7.214
 30
0.0
 11
0.8100000000000001
 21
7.074
 31
0.0
  0
LINE
  5
77
330
18
100
AcDbEntity
  8
0
100
AcDbLine
 10
0.965
 20
7.349
 30
0.0
 11
0.617
 21
7.207999999999999
 31
0.0
  0
LINE
  5
78
330
18
100
AcDbEntity
  8
0
100
AcDbLine
 10
1.29
 20
4.237
 30
0.0
 11
1.29
 21
5.635
 31
0.0
  0
LINE
  5
79
330
18
100
AcDbEntity
  8
0
100
AcDbLine
 10
1.32
 20
4.196000000000001
 30
0.0
 11
1.29
 21
4.237
 31
0.0
  0
LINE
  5
7A
330
18
100
AcDbEntity
  8
0
100
AcDbLine
 10
1.32
 20
5.593999999999999
 30
0.0
 11
1.29
 21
5.635
 31
0.0
  0
LINE
  5
7B
330
18
100
AcDbEntity
  8
0
100
AcDbLine
 10
1.32
 20
4.196000000000001
 30
0.0
 11
1.32
 21
5.593999999999999
 31
0.0
  0
LINE
  5
7C
330
18
100
AcDbEntity
  8
0
100
AcDbLine
 10
1.32
 20
4.196000000000001
 30
0.0
 11
2.842
 21
4.752
 31
0.0
  0
LINE
  5
7D
330
18
100
AcDbEntity
  8
0
100
AcDbLine
 10
2.842
 20
4.752
 30
0.0
 11
2.842
 21
6.15
 31
0.0
  0
LINE
  5
7E
330
18
100
AcDbEntity
  8
0
100
AcDbLine
 10
1.32
 20
5.593999999999999
 30
0.0
 11
1.547
 21
5.677000000000001
 31
0.0
  0
LINE
  5
7F
330
18
100
AcDbEntity
  8
0
100
AcDbLine
 10
1.29
 20
5.635
 30
0.0
 11
1.5
 21
5.712000000000001
 31
0.0
  0
LINE
  5
80
330
18
100
AcDbEntity
  8
0
100
AcDbLine
 10
2.842
 20
6.15
 30
0.0
 11
2.812
 21
6.191
 31
0.0
  0
LINE
  5
81
330
18
100
AcDbEntity
  8
0
100
AcDbLine
 10
2.944
 20
5.622999999999999
 30
0.0
 11
6.574
 21
6.78
 31
0.0
  0
LINE
  5
82
330
18
100
AcDbEntity
  8
0
100
AcDbLine
 10
2.842
 20
5.3
 30
0.0
 11
6.574
 21
6.535
 31
0.0
  0
LINE
  5
83
330
18
100
AcDbEntity
  8
0
100
AcDbLine
 10
3.837
 20
6.893
 30
0.0
 11
6.574
 21
6.893
 31
0.0
  0
LINE
  5
84
330
18
100
AcDbEntity
  8
0
100
AcDbLine
 10
2.332
 20
6.821000000000001
 30
0.0
 11
2.246
 21
6.893
 31
0.0
  0
LINE
  5
85
330
18
100
AcDbEntity
  8
0
100
AcDbLine
 10
1.988
 20
6.321000000000001
 30
0.0
 11
1.904
 21
6.399
 31
0.0
  0
LINE
  5
86
330
18
100
AcDbEntity
  8
0
100
AcDbLine
 10
3.526
 20
5.809
 30
0.0
 11
3.243
 21
6.049
 31
0.0
  0
LINE
  5
87
330
18
100
AcDbEntity
  8
0
100
AcDbLine
 10
1.396
 20
4.332
 30
0.0
 11
1.396
 21
4.408
 31
0.0
  0
LINE
  5
88
330
18
100
AcDbEntity
  8
0
100
AcDbLine
 10
1.396
 20
4.332
 30
0.0
 11
1.551
 21
4.388999999999999
 31
0.0
  0
LINE
  5
89
330
18
100
AcDbEntity
  8
0
100
AcDbLine
 10
1.396
 20
4.408
 30
0.0
 11
1.551
 21
4.465
 31
0.0
  0
LINE
  5
8A
330
18
100
AcDbEntity
  8
0
100
AcDbLine
 10
1.707
 20
4.522
 30
0.0
 11
1.862
 21
4.579
 31
0.0
  0
LINE
  5
8B
330
18
100
AcDbEntity
  8
0
100
AcDbLine
 10
1.707
 20
4.446000000000001
 30
0.0
 11
1.862
 21
4.503
 31
0.0
  0
LINE
  5
8C
330
18
100
AcDbEntity
  8
0
100
AcDbLine
 10
1.707
 20
4.446000000000001
 30
0.0
 11
1.707
 21
4.522
 31
0.0
  0
LINE
  5
8D
330
18
100
AcDbEntity
  8
0
100
AcDbLine
 10
2.017
 20
4.636
 30
0.0
 11
2.173
 21
4.692
 31
0.0
  0
LINE
  5
8E
330
18
100
AcDbEntity
  8
0
100
AcDbLine
 10
2.017
 20
4.559
 30
0.0
 11
2.173
 21
4.616000000000001
 31
0.0
  0
LINE
  5
8F
330
18
100
AcDbEntity
  8
0
100
AcDbLine
 10
2.017
 20
4.559
 30
0.0
 11
2.017
 21
4.636
 31
0.0
  0
LINE
  5
90
330
18
100
AcDbEntity
  8
0
100
AcDbLine
 10
2.328
 20
4.749
 30
0.0
 11
2.484
 21
4.806
 31
0.0
  0
LINE
  5
91
330
18
100
AcDbEntity
  8
0
100
AcDbLine
 10
2.328
 20
4.673
 30
0.0
 11
2.484
 21
4.73
 31
0.0
  0
LINE
  5
92
330
18
100
AcDbEntity
  8
0
100
AcDbLine
 10
2.328
 20
4.673
 30
0.0
 11
2.328
 21
4.749
 31
0.0
  0
LINE
  5
93
330
18
100
AcDbEntity
  8
0
100
AcDbLine
 10
2.639
 20
4.863
 30
0.0
 11
2.795
 21
4.919
 31
0.0
  0
LINE
  5
94
330
18
100
AcDbEntity
  8
0
100
AcDbLine
 10
2.639
 20
4.787
 30
0.0
 11
2.795
 21
4.843
 31
0.0
  0
LINE
  5
95
330
18
100
AcDbEntity
  8
0
100
AcDbLine
 10
2.639
 20
4.787
 30
0.0
 11
2.639
 21
4.863
 31
0.0
  0
LINE
  5
96
330
18
100
AcDbEntity
  8
0
100
AcDbLine
 10
1.551
 20
4.566
 30
0.0
 11
1.707
 21
4.623
 31
0.0
  0
LINE
  5
97
330
18
100
AcDbEntity
  8
0
100
AcDbLine
 10
1.551
 20
4.49
 30
0.0
 11
1.707
 21
4.547
 31
0.0
  0
LINE
  5
98
330
18
100
AcDbEntity
  8
0
100
AcDbLine
 10
1.551
 20
4.49
 30
0.0
 11
1.551
 21
4.566
 31
0.0
  0
LINE
  5
99
330
18
100
AcDbEntity
  8
0
100
AcDbLine
 10
1.862
 20
4.68
 30
0.0
 11
2.017
 21
4.736000000000001
 31
0.0
  0
LINE
  5
9A
330
18
100
AcDbEntity
  8
0
100
AcDbLine
 10
1.862
 20
4.604
 30
0.0
 11
2.017
 21
4.66
 31
0.0
  0
LINE
  5
9B
330
18
100
AcDbEntity
  8
0
100
AcDbLine
 10
1.862
 20
4.604
 30
0.0
 11
1.862
 21
4.68
 31
0.0
  0
LINE
  5
9C
330
18
100
AcDbEntity
  8
0
100
AcDbLine
 10
2.173
 20
4.793
 30
0.0
 11
2.328
 21
4.85
 31
0.0
  0
LINE
  5
9D
330
18
100
AcDbEntity
  8
0
100
AcDbLine
 10
2.173
 20
4.717
 30
0.0
 11
2.328
 21
4.774
 31
0.0
  0
LINE
  5
9E
330
18
100
AcDbEntity
  8
0
100
AcDbLine
 10
2.173
 20
4.717
 30
0.0
 11
2.173
 21
4.793
 31
0.0
  0
LINE
  5
9F
330
18
100
AcDbEntity
  8
0
100
AcDbLine
 10
2.484
 20
4.907
 30
0.0
 11
2.639
 21
4.963
 31
0.0
  0
LINE
  5
A0
330
18
100
AcDbEntity
  8
0
100
AcDbLine
 10
2.484
 20
4.831
 30
0.0
 11
2.639
 21
4.887
 31
0.0
  0
LINE
  5
A1
330
18
100
AcDbEntity
  8
0
100
AcDbLine
 10
2.484
 20
4.831
 30
0.0
 11
2.484
 21
4.907
 31
0.0
  0
LINE
  5
A2
330
18
100
AcDbEntity
  8
0
100
AcDbLine
 10
2.484
 20
5.04
 30
0.0
 11
2.639
 21
5.097
 31
0.0
  0
LINE
  5
A3
330
18
100
AcDbEntity
  8
0
100
AcDbLine
 10
2.484
 20
5.116000000000001
 30
0.0
 11
2.639
 21
5.172999999999999
 31
0.0
  0
LINE
  5
A4
330
18
100
AcDbEntity
  8
0
100
AcDbLine
 10
1.862
 20
4.888999999999999
 30
0.0
 11
2.017
 21
4.946000000000001
 31
0.0
  0
LINE
  5
A5
330
18
100
AcDbEntity
  8
0
100
AcDbLine
 10
2.328
 20
4.882
 30
0.0
 11
2.328
 21
4.959
 31
0.0
  0
LINE
  5
A6
330
18
100
AcDbEntity
  8
0
100
AcDbLine
 10
2.328
 20
4.882
 30
0.0
 11
2.484
 21
4.939
 31
0.0
  0
LINE
  5
A7
330
18
100
AcDbEntity
  8
0
100
AcDbLine
 10
1.551
 20
4.699
 30
0.0
 11
1.707
 21
4.756
 31
0.0
  0
LINE
  5
A8
330
18
100
AcDbEntity
  8
0
100
AcDbLine
 10
1.551
 20
4.776
 30
0.0
 11
1.707
 21
4.832
 31
0.0
  0
LINE
  5
A9
330
18
100
AcDbEntity
  8
0
100
AcDbLine
 10
1.396
 20
4.618
 30
0.0
 11
1.551
 21
4.675
 31
0.0
  0
LINE
  5
AA
330
18
100
AcDbEntity
  8
0
100
AcDbLine
 10
1.396
 20
4.542
 30
0.0
 11
1.551
 21
4.599
 31
0.0
  0
LINE
  5
AB
330
18
100
AcDbEntity
  8
0
100
AcDbLine
 10
1.396
 20
4.542
 30
0.0
 11
1.396
 21
4.618
 31
0.0
  0
LINE
  5
AC
330
18
100
AcDbEntity
  8
0
100
AcDbLine
 10
1.551
 20
4.699
 30
0.0
 11
1.551
 21
4.776
 31
0.0
  0
LINE
  5
AD
330
18
100
AcDbEntity
  8
0
100
AcDbLine
 10
2.017
 20
4.769
 30
0.0
 11
2.173
 21
4.826000000000001
 31
0.0
  0
LINE
  5
AE
330
18
100
AcDbEntity
  8
0
100
AcDbLine
 10
2.017
 20
4.845
 30
0.0
 11
2.173
 21
4.902
 31
0.0
  0
LINE
  5
AF
330
18
100
AcDbEntity
  8
0
100
AcDbLine
 10
1.862
 20
4.813
 30
0.0
 11
2.017
 21
4.87
 31
0.0
  0
LINE
  5
B0
330
18
100
AcDbEntity
  8
0
100
AcDbLine
 10
1.862
 20
4.813
 30
0.0
 11
1.862
 21
4.888999999999999
 31
0.0
  0
LINE
  5
B1
330
18
100
AcDbEntity
  8
0
100
AcDbLine
 10
1.707
 20
4.655
 30
0.0
 11
1.707
 21
4.731
 31
0.0
  0
LINE
  5
B2
330
18
100
AcDbEntity
  8
0
100
AcDbLine
 10
1.707
 20
4.655
 30
0.0
 11
1.862
 21
4.712
 31
0.0
  0
LINE
  5
B3
330
18
100
AcDbEntity
  8
0
100
AcDbLine
 10
1.707
 20
4.731
 30
0.0
 11
1.862
 21
4.788
 31
0.0
  0
LINE
  5
B4
330
18
100
AcDbEntity
  8
0
100
AcDbLine
 10
2.017
 20
4.769
 30
0.0
 11
2.017
 21
4.845
 31
0.0
  0
LINE
  5
B5
330
18
100
AcDbEntity
  8
0
100
AcDbLine
 10
2.328
 20
4.959
 30
0.0
 11
2.484
 21
5.015
 31
0.0
  0
LINE
  5
B6
330
18
100
AcDbEntity
  8
0
100
AcDbLine
 10
2.173
 20
4.927
 30
0.0
 11
2.173
 21
5.003
 31
0.0
  0
LINE
  5
B7
330
18
100
AcDbEntity
  8
0
100
AcDbLine
 10
2.173
 20
4.927
 30
0.0
 11
2.328
 21
4.983000000000001
 31
0.0
  0
LINE
  5
B8
330
18
100
AcDbEntity
  8
0
100
AcDbLine
 10
2.173
 20
5.003
 30
0.0
 11
2.328
 21
5.059
 31
0.0
  0
LINE
  5
B9
330
18
100
AcDbEntity
  8
0
100
AcDbLine
 10
2.484
 20
5.04
 30
0.0
 11
2.484
 21
5.116000000000001
 31
0.0
  0
LINE
  5
BA
330
18
100
AcDbEntity
  8
0
100
AcDbLine
 10
2.639
 20
4.996
 30
0.0
 11
2.795
 21
5.053
 31
0.0
  0
LINE
  5
BB
330
18
100
AcDbEntity
  8
0
100
AcDbLine
 10
2.639
 20
5.072
 30
0.0
 11
2.795
 21
5.129
 31
0.0
  0
LINE
  5
BC
330
18
100
AcDbEntity
  8
0
100
AcDbLine
 10
2.639
 20
4.996
 30
0.0
 11
2.639
 21
5.072
 31
0.0
  0
LINE
  5
BD
330
18
100
AcDbEntity
  8
0
100
AcDbLine
 10
1.396
 20
4.751
 30
0.0
 11
1.551
 21
4.808
 31
0.0
  0
LINE
  5
BE
330
18
100
AcDbEntity
  8
0
100
AcDbLine
 10
1.396
 20
4.827
 30
0.0
 11
1.551
 21
4.884
 31
0.0
  0
LINE
  5
BF
330
18
100
AcDbEntity
  8
0
100
AcDbLine
 10
1.396
 20
4.751
 30
0.0
 11
1.396
 21
4.827
 31
0.0
  0
LINE
  5
C0
330
18
100
AcDbEntity
  8
0
100
AcDbLine
 10
1.551
 20
4.906000000000001
 30
0.0
 11
1.551
 21
4.982
 31
0.0
  0
LINE
  5
C1
330
18
100
AcDbEntity
  8
0
100
AcDbLine
 10
1.551
 20
4.906000000000001
 30
0.0
 11
1.707
 21
4.962
 31
0.0
  0
LINE
  5
C2
330
18
100
AcDbEntity
  8
0
100
AcDbLine
 10
1.551
 20
4.982
 30
0.0
 11
1.707
 21
5.038
 31
0.0
  0
LINE
  5
C3
330
18
100
AcDbEntity
  8
0
100
AcDbLine
 10
1.396
 20
5.037
 30
0.0
 11
1.551
 21
5.093999999999999
 31
0.0
  0
LINE
  5
C4
330
18
100
AcDbEntity
  8
0
100
AcDbLine
 10
1.396
 20
4.961
 30
0.0
 11
1.551
 21
5.018
 31
0.0
  0
LINE
  5
C5
330
18
100
AcDbEntity
  8
0
100
AcDbLine
 10
1.396
 20
4.961
 30
0.0
 11
1.396
 21
5.037
 31
0.0
  0
LINE
  5
C6
330
18
100
AcDbEntity
  8
0
100
AcDbLine
 10
1.551
 20
5.115
 30
0.0
 11
1.707
 21
5.172000000000001
 31
0.0
  0
LINE
  5
C7
330
18
100
AcDbEntity
  8
0
100
AcDbLine
 10
1.551
 20
5.191
 30
0.0
 11
1.707
 21
5.247999999999999
 31
0.0
  0
LINE
  5
C8
330
18
100
AcDbEntity
  8
0
100
AcDbLine
 10
1.551
 20
5.115
 30
0.0
 11
1.551
 21
5.191
 31
0.0
  0
LINE
  5
C9
330
18
100
AcDbEntity
  8
0
100
AcDbLine
 10
1.396
 20
5.17
 30
0.0
 11
1.396
 21
5.246
 31
0.0
  0
LINE
  5
CA
330
18
100
AcDbEntity
  8
0
100
AcDbLine
 10
1.396
 20
5.17
 30
0.0
 11
1.551
 21
5.227
 31
0.0
  0
LINE
  5
CB
330
18
100
AcDbEntity
  8
0
100
AcDbLine
 10
1.396
 20
5.246
 30
0.0
 11
1.551
 21
5.303
 31
0.0
  0
LINE
  5
CC
330
18
100
AcDbEntity
  8
0
100
AcDbLine
 10
1.551
 20
5.325
 30
0.0
 11
1.707
 21
5.381
 31
0.0
  0
LINE
  5
CD
330
18
100
AcDbEntity
  8
0
100
AcDbLine
 10
1.551
 20
5.401
 30
0.0
 11
1.707
 21
5.457000000000001
 31
0.0
  0
LINE
  5
CE
330
18
100
AcDbEntity
  8
0
100
AcDbLine
 10
1.551
 20
5.325
 30
0.0
 11
1.551
 21
5.401
 31
0.0
  0
LINE
  5
CF
330
18
100
AcDbEntity
  8
0
100
AcDbLine
 10
1.396
 20
5.456
 30
0.0
 11
1.551
 21
5.513
 31
0.0
  0
LINE
  5
D0
330
18
100
AcDbEntity
  8
0
100
AcDbLine
 10
1.396
 20
5.38
 30
0.0
 11
1.551
 21
5.437
 31
0.0
  0
LINE
  5
D1
330
18
100
AcDbEntity
  8
0
100
AcDbLine
 10
1.396
 20
5.38
 30
0.0
 11
1.396
 21
5.456
 31
0.0
  0
LINE
  5
D2
330
18
100
AcDbEntity
  8
0
100
AcDbLine
 10
1.551
 20
5.437
 30
0.0
 11
1.507
 21
5.497000000000001
 31
0.0
  0
LINE
  5
D3
330
18
100
AcDbEntity
  8
0
100
AcDbLine
 10
1.707
 20
5.36
 30
0.0
 11
1.862
 21
5.417000000000001
 31
0.0
  0
LINE
  5
D4
330
18
100
AcDbEntity
  8
0
100
AcDbLine
 10
1.707
 20
5.074
 30
0.0
 11
1.707
 21
5.15
 31
0.0
  0
LINE
  5
D5
330
18
100
AcDbEntity
  8
0
100
AcDbLine
 10
1.707
 20
5.074
 30
0.0
 11
1.862
 21
5.131
 31
0.0
  0
LINE
  5
D6
330
18
100
AcDbEntity
  8
0
100
AcDbLine
 10
1.707
 20
4.941
 30
0.0
 11
1.862
 21
4.998
 31
0.0
  0
LINE
  5
D7
330
18
100
AcDbEntity
  8
0
100
AcDbLine
 10
1.707
 20
4.865
 30
0.0
 11
1.862
 21
4.922
 31
0.0
  0
LINE
  5
D8
330
18
100
AcDbEntity
  8
0
100
AcDbLine
 10
1.707
 20
4.865
 30
0.0
 11
1.707
 21
4.941
 31
0.0
  0
LINE
  5
D9
330
18
100
AcDbEntity
  8
0
100
AcDbLine
 10
1.862
 20
5.019
 30
0.0
 11
1.862
 21
5.095
 31
0.0
  0
LINE
  5
DA
330
18
100
AcDbEntity
  8
0
100
AcDbLine
 10
1.707
 20
5.284
 30
0.0
 11
1.862
 21
5.341
 31
0.0
  0
LINE
  5
DB
330
18
100
AcDbEntity
  8
0
100
AcDbLine
 10
1.707
 20
5.15
 30
0.0
 11
1.862
 21
5.207000000000001
 31
0.0
  0
LINE
  5
DC
330
18
100
AcDbEntity
  8
0
100
AcDbLine
 10
1.707
 20
5.284
 30
0.0
 11
1.707
 21
5.36
 31
0.0
  0
LINE
  5
DD
330
18
100
AcDbEntity
  8
0
100
AcDbLine
 10
1.862
 20
5.229
 30
0.0
 11
1.862
 21
5.305
 31
0.0
  0
LINE
  5
DE
330
18
100
AcDbEntity
  8
0
100
AcDbLine
 10
1.707
 20
5.492999999999999
 30
0.0
 11
1.862
 21
5.55
 31
0.0
  0
LINE
  5
DF
330
18
100
AcDbEntity
  8
0
100
AcDbLine
 10
1.707
 20
5.569
 30
0.0
 11
1.862
 21
5.626
 31
0.0
  0
LINE
  5
E0
330
18
100
AcDbEntity
  8
0
100
AcDbLine
 10
1.707
 20
5.492999999999999
 30
0.0
 11
1.707
 21
5.569
 31
0.0
  0
LINE
  5
E1
330
18
100
AcDbEntity
  8
0
100
AcDbLine
 10
1.862
 20
5.55
 30
0.0
 11
1.818
 21
5.61
 31
0.0
  0
LINE
  5
E2
330
18
100
AcDbEntity
  8
0
100
AcDbLine
 10
1.862
 20
5.438
 30
0.0
 11
1.862
 21
5.513999999999999
 31
0.0
  0
LINE
  5
E3
330
18
100
AcDbEntity
  8
0
100
AcDbLine
 10
1.862
 20
5.513999999999999
 30
0.0
 11
2.017
 21
5.571000000000001
 31
0.0
  0
LINE
  5
E4
330
18
100
AcDbEntity
  8
0
100
AcDbLine
 10
1.862
 20
5.438
 30
0.0
 11
2.017
 21
5.495
 31
0.0
  0
LINE
  5
E5
330
18
100
AcDbEntity
  8
0
100
AcDbLine
 10
1.862
 20
5.229
 30
0.0
 11
2.017
 21
5.285
 31
0.0
  0
LINE
  5
E6
330
18
100
AcDbEntity
  8
0
100
AcDbLine
 10
1.862
 20
5.305
 30
0.0
 11
2.017
 21
5.362
 31
0.0
  0
LINE
  5
E7
330
18
100
AcDbEntity
  8
0
100
AcDbLine
 10
1.862
 20
5.095
 30
0.0
 11
2.017
 21
5.152
 31
0.0
  0
LINE
  5
E8
330
18
100
AcDbEntity
  8
0
100
AcDbLine
 10
1.862
 20
5.019
 30
0.0
 11
2.017
 21
5.076000000000001
 31
0.0
  0
LINE
  5
E9
330
18
100
AcDbEntity
  8
0
100
AcDbLine
 10
2.017
 20
5.474
 30
0.0
 11
2.173
 21
5.53
 31
0.0
  0
LINE
  5
EA
330
18
100
AcDbEntity
  8
0
100
AcDbLine
 10
2.017
 20
5.188
 30
0.0
 11
2.017
 21
5.263999999999999
 31
0.0
  0
LINE
  5
EB
330
18
100
AcDbEntity
  8
0
100
AcDbLine
 10
2.017
 20
5.188
 30
0.0
 11
2.173
 21
5.245
 31
0.0
  0
LINE
  5
EC
330
18
100
AcDbEntity
  8
0
100
AcDbLine
 10
2.017
 20
5.055
 30
0.0
 11
2.173
 21
5.111000000000001
 31
0.0
  0
LINE
  5
ED
330
18
100
AcDbEntity
  8
0
100
AcDbLine
 10
2.017
 20
4.978
 30
0.0
 11
2.173
 21
5.035
 31
0.0
  0
LINE
  5
EE
330
18
100
AcDbEntity
  8
0
100
AcDbLine
 10
2.017
 20
4.978
 30
0.0
 11
2.017
 21
5.055
 31
0.0
  0
LINE
  5
EF
330
18
100
AcDbEntity
  8
0
100
AcDbLine
 10
2.173
 20
5.132999999999999
 30
0.0
 11
2.173
 21
5.209
 31
0.0
  0
LINE
  5
F0
330
18
100
AcDbEntity
  8
0
100
AcDbLine
 10
2.017
 20
5.397
 30
0.0
 11
2.173
 21
5.454
 31
0.0
  0
LINE
  5
F1
330
18
100
AcDbEntity
  8
0
100
AcDbLine
 10
2.017
 20
5.263999999999999
 30
0.0
 11
2.173
 21
5.321000000000001
 31
0.0
  0
LINE
  5
F2
330
18
100
AcDbEntity
  8
0
100
AcDbLine
 10
2.017
 20
5.397
 30
0.0
 11
2.017
 21
5.474
 31
0.0
  0
LINE
  5
F3
330
18
100
AcDbEntity
  8
0
100
AcDbLine
 10
2.173
 20
5.342000000000001
 30
0.0
 11
2.173
 21
5.417999999999999
 31
0.0
  0
LINE
  5
F4
330
18
100
AcDbEntity
  8
0
100
AcDbLine
 10
2.017
 20
5.607
 30
0.0
 11
2.173
 21
5.664
 31
0.0
  0
LINE
  5
F5
330
18
100
AcDbEntity
  8
0
100
AcDbLine
 10
2.017
 20
5.683
 30
0.0
 11
2.173
 21
5.74
 31
0.0
  0
LINE
  5
F6
330
18
100
AcDbEntity
  8
0
100
AcDbLine
 10
2.017
 20
5.607
 30
0.0
 11
2.017
 21
5.683
 31
0.0
  0
LINE
  5
F7
330
18
100
AcDbEntity
  8
0
100
AcDbLine
 10
2.173
 20
5.664
 30
0.0
 11
2.129
 21
5.724
 31
0.0
  0
LINE
  5
F8
330
18
100
AcDbEntity
  8
0
100
AcDbLine
 10
2.173
 20
5.552000000000001
 30
0.0
 11
2.173
 21
5.627999999999999
 31
0.0
  0
LINE
  5
F9
330
18
100
AcDbEntity
  8
0
100
AcDbLine
 10
2.173
 20
5.627999999999999
 30
0.0
 11
2.328
 21
5.685
 31
0.0
  0
LINE
  5
FA
330
18
100
AcDbEntity
  8
0
100
AcDbLine
 10
2.173
 20
5.552000000000001
 30
0.0
 11
2.328
 21
5.608
 31
0.0
  0
LINE
  5
FB
330
18
100
AcDbEntity
  8
0
100
AcDbLine
 10
2.173
 20
5.342000000000001
 30
0.0
 11
2.328
 21
5.399
 31
0.0
  0
LINE
  5
FC
330
18
100
AcDbEntity
  8
0
100
AcDbLine
 10
2.173
 20
5.417999999999999
 30
0.0
 11
2.328
 21
5.475
 31
0.0
  0
LINE
  5
FD
330
18
100
AcDbEntity
  8
0
100
AcDbLine
 10
2.173
 20
5.209
 30
0.0
 11
2.328
 21
5.266
 31
0.0
  0
LINE
  5
FE
330
18
100
AcDbEntity
  8
0
100
AcDbLine
 10
2.173
 20
5.132999999999999
 30
0.0
 11
2.328
 21
5.189
 31
0.0
  0
LINE
  5
FF
330
18
100
AcDbEntity
  8
0
100
AcDbLine
 10
2.328
 20
5.587000000000001
 30
0.0
 11
2.484
 21
5.644
 31
0.0
  0
LINE
  5
100
330
18
100
AcDbEntity
  8
0
100
AcDbLine
 10
2.328
 20
5.301
 30
0.0
 11
2.328
 21
5.377999999999999
 31
0.0
  0
LINE
  5
101
330
18
100
AcDbEntity
  8
0
100
AcDbLine
 10
2.328
 20
5.301
 30
0.0
 11
2.484
 21
5.358
 31
0.0
  0
LINE
  5
102
330
18
100
AcDbEntity
  8
0
100
AcDbLine
 10
2.328
 20
5.167999999999999
 30
0.0
 11
2.484
 21
5.225
 31
0.0
  0
LINE
  5
103
330
18
100
AcDbEntity
  8
0
100
AcDbLine
 10
2.328
 20
5.092
 30
0.0
 11
2.484
 21
5.149
 31
0.0
  0
LINE
  5
104
330
18
100
AcDbEntity
  8
0
100
AcDbLine
 10
2.328
 20
5.092
 30
0.0
 11
2.328
 21
5.167999999999999
 31
0.0
  0
LINE
  5
105
330
18
100
AcDbEntity
  8
0
100
AcDbLine
 10
2.484
 20
5.246
 30
0.0
 11
2.484
 21
5.322
 31
0.0
  0
LINE
  5
106
330
18
100
AcDbEntity
  8
0
100
AcDbLine
 10
2.328
 20
5.511
 30
0.0
 11
2.484
 21
5.568
 31
0.0
  0
LINE
  5
107
330
18
100
AcDbEntity
  8
0
100
AcDbLine
 10
2.328
 20
5.377999999999999
 30
0.0
 11
2.484
 21
5.434
 31
0.0
  0
LINE
  5
108
330
18
100
AcDbEntity
  8
0
100
AcDbLine
 10
2.328
 20
5.511
 30
0.0
 11
2.328
 21
5.587000000000001
 31
0.0
  0
LINE
  5
109
330
18
100
AcDbEntity
  8
0
100
AcDbLine
 10
2.484
 20
5.456
 30
0.0
 11
2.484
 21
5.532
 31
0.0
  0
LINE
  5
10A
330
18
100
AcDbEntity
  8
0
100
AcDbLine
 10
2.328
 20
5.72
 30
0.0
 11
2.484
 21
5.777
 31
0.0
  0
LINE
  5
10B
330
18
100
AcDbEntity
  8
0
100
AcDbLine
 10
2.328
 20
5.797000000000001
 30
0.0
 11
2.484
 21
5.853
 31
0.0
  0
LINE
  5
10C
330
18
100
AcDbEntity
  8
0
100
AcDbLine
 10
2.328
 20
5.72
 30
0.0
 11
2.328
 21
5.797000000000001
 31
0.0
  0
LINE
  5
10D
330
18
100
AcDbEntity
  8
0
100
AcDbLine
 10
2.484
 20
5.777
 30
0.0
 11
2.44
 21
5.837000000000001
 31
0.0
  0
LINE
  5
10E
330
18
100
AcDbEntity
  8
0
100
AcDbLine
 10
2.484
 20
5.665
 30
0.0
 11
2.484
 21
5.741000000000001
 31
0.0
  0
LINE
  5
10F
330
18
100
AcDbEntity
  8
0
100
AcDbLine
 10
2.484
 20
5.741000000000001
 30
0.0
 11
2.639
 21
5.797999999999999
 31
0.0
  0
LINE
  5
110
330
18
100
AcDbEntity
  8
0
100
AcDbLine
 10
2.484
 20
5.665
 30
0.0
 11
2.639
 21
5.722
 31
0.0
  0
LINE
  5
111
330
18
100
AcDbEntity
  8
0
100
AcDbLine
 10
2.484
 20
5.456
 30
0.0
 11
2.639
 21
5.513
 31
0.0
  0
LINE
  5
112
330
18
100
AcDbEntity
  8
0
100
AcDbLine
 10
2.484
 20
5.532
 30
0.0
 11
2.639
 21
5.589
 31
0.0
  0
LINE
  5
113
330
18
100
AcDbEntity
  8
0
100
AcDbLine
 10
2.484
 20
5.322
 30
0.0
 11
2.639
 21
5.379
 31
0.0
  0
LINE
  5
114
330
18
100
AcDbEntity
  8
0
100
AcDbLine
 10
2.484
 20
5.246
 30
0.0
 11
2.639
 21
5.303
 31
0.0
  0
LINE
  5
115
330
18
100
AcDbEntity
  8
0
100
AcDbLine
 10
2.639
 20
5.206
 30
0.0
 11
2.639
 21
5.282
 31
0.0
  0
LINE
  5
116
330
18
100
AcDbEntity
  8
0
100
AcDbLine
 10
2.639
 20
5.206
 30
0.0
 11
2.795
 21
5.262000000000001
 31
0.0
  0
LINE
  5
117
330
18
100
AcDbEntity
  8
0
100
AcDbLine
 10
2.639
 20
5.282
 30
0.0
 11
2.795
 21
5.337999999999999
 31
0.0
  0
LINE
  5
118
330
18
100
AcDbEntity
  8
0
100
AcDbLine
 10
2.639
 20
5.412000000000001
 30
0.0
 11
2.639
 21
5.488
 31
0.0
  0
LINE
  5
119
330
18
100
AcDbEntity
  8
0
100
AcDbLine
 10
2.639
 20
5.412000000000001
 30
0.0
 11
2.795
 21
5.468
 31
0.0
  0
LINE
  5
11A
330
18
100
AcDbEntity
  8
0
100
AcDbLine
 10
2.639
 20
5.488
 30
0.0
 11
2.795
 21
5.545
 31
0.0
  0
LINE
  5
11B
330
18
100
AcDbEntity
  8
0
100
AcDbLine
 10
2.639
 20
5.621
 30
0.0
 11
2.639
 21
5.697
 31
0.0
  0
LINE
  5
11C
330
18
100
AcDbEntity
  8
0
100
AcDbLine
 10
2.639
 20
5.621
 30
0.0
 11
2.795
 21
5.678
 31
0.0
  0
LINE
  5
11D
330
18
100
AcDbEntity
  8
0
100
AcDbLine
 10
2.639
 20
5.697
 30
0.0
 11
2.795
 21
5.754
 31
0.0
  0
LINE
  5
11E
330
18
100
AcDbEntity
  8
0
100
AcDbLine
 10
2.639
 20
5.831
 30
0.0
 11
2.639
 21
5.907
 31
0.0
  0
LINE
  5
11F
330
18
100
AcDbEntity
  8
0
100
AcDbLine
 10
2.639
 20
5.831
 30
0.0
 11
2.795
 21
5.887000000000001
 31
0.0
  0
LINE
  5
120
330
18
100
AcDbEntity
  8
0
100
AcDbLine
 10
2.639
 20
5.907
 30
0.0
 11
2.795
 21
5.964
 31
0.0
  0
LINE
  5
121
330
18
100
AcDbEntity
  8
0
100
AcDbLine
 10
2.795
 20
5.887000000000001
 30
0.0
 11
2.751
 21
5.947
 31
0.0
  0
LINE
  5
122
330
18
100
AcDbEntity
  8
0
100
AcDbLine
 10
1.052
 20
5.021
 30
0.0
 11
1.052
 21
5.557
 31
0.0
  0
LINE
  5
123
330
18
100
AcDbEntity
  8
0
100
AcDbLine
 10
1.082
 20
5.03
 30
0.0
 11
1.082
 21
5.442
 31
0.0
  0
LINE
  5
124
330
18
100
AcDbEntity
  8
0
100
AcDbLine
 10
3.625
 20
7.555
 30
0.0
 11
3.73
 21
7.562
 31
0.0
  0
LINE
  5
125
330
18
100
AcDbEntity
  8
0
100
AcDbLine
 10
3.73
 20
7.562
 30
0.0
 11
3.679
 21
7.357
 31
0.0
  0
LINE
  5
126
330
18
100
AcDbEntity
  8
0
100
AcDbLine
 10
3.679
 20
7.357
 30
0.0
 11
3.78
 21
7.362
 31
0.0
  0
LINE
  5
127
330
18
100
AcDbEntity
  8
0
100
AcDbLine
 10
3.73
 20
7.562
 30
0.0
 11
3.516
 21
7.692
 31
0.0
  0
LINE
  5
128
330
18
100
AcDbEntity
  8
0
100
AcDbLine
 10
3.78
 20
7.362
 30
0.0
 11
3.693
 21
7.415
 31
0.0
  0
LINE
  5
129
330
18
100
AcDbEntity
  8
0
100
AcDbLine
 10
3.625
 20
7.555
 30
0.0
 11
3.414
 21
7.819
 31
0.0
  0
LWPOLYLINE
  5
12A
330
18
100
AcDbEntity
  8
0
100
AcDbPolyline
 90
        3
 70
     0
 43
0.0
 10
0.657
 20
7.184
 10
0.7120000000000001
 20
7.224
 10
0.767
 20
7.269
  0
LWPOLYLINE
  5
130
330
18
100
AcDbEntity
  8
0
100
AcDbPolyline
 90
        3
 70
     0
 43
0.0
 10
0.695
 20
7.157
 10
0.779
 20
7.218999999999999
 10
0.897
 20
7.322
  0
LWPOLYLINE
  5
136
330
18
100
AcDbEntity
  8
0
100
AcDbPolyline
 90
        7
 70
     0
 43
0.0
 10
0.733
 20
7.131
 10
0.831
 20
7.202999999999999
 10
0.898
 20
7.28
 10
0.9370000000000001
 20
7.303999999999999
 10
0.982
 20
7.337000000000001
 10
1.022
 20
7.399
 10
1.044
 20
7.43
  0
LWPOLYLINE
  5
140
330
18
100
AcDbEntity
  8
0
100
AcDbPolyline
 90
        7
 70
     0
 43
0.0
 10
0.7609999999999999
 20
7.111000000000001
 10
0.852
 20
7.175
 10
0.9159999999999999
 20
7.224
 10
0.955
 20
7.252000000000001
 10
1.019
 20
7.311
 10
1.048
 20
7.366000000000001
 10
1.072
 20
7.41
  0
LWPOLYLINE
  5
14A
330
18
100
AcDbEntity
  8
0
100
AcDbPolyline
 90
        6
 70
     0
 43
0.0
 10
0.797
 20
7.086
 10
0.9290000000000001
 20
7.172000000000001
 10
0.9990000000000001
 20
7.229
 10
1.057
 20
7.285
 10
1.086
 20
7.342000000000001
 10
1.108
 20
7.385
  0
LWPOLYLINE
  5
153
330
18
100
AcDbEntity
  8
0
100
AcDbPolyline
 90
        5
 70
     0
 43
0.0
 10
0.9370000000000001
 20
7.125
 10
1.024
 20
7.193
 10
1.098
 20
7.256
 10
1.128
 20
7.311
 10
1.151
 20
7.355
  0
LWPOLYLINE
  5
15B
330
18
100
AcDbEntity
  8
0
100
AcDbPolyline
 90
        4
 70
     0
 43
0.0
 10
1.09
 20
7.187
 10
1.137
 20
7.229
 10
1.166
 20
7.286000000000001
 10
1.188
 20
7.329
  0
LWPOLYLINE
  5
162
330
18
100
AcDbEntity
  8
0
100
AcDbPolyline
 90
        4
 70
     0
 43
0.0
 10
1.148
 20
7.357
 10
1.167
 20
7.411000000000001
 10
1.244
 20
7.44
 10
1.361
 20
7.509
  0
LWPOLYLINE
  5
169
330
18
100
AcDbEntity
  8
0
100
AcDbPolyline
 90
        6
 70
     0
 43
0.0
 10
1.178
 20
7.336
 10
1.202
 20
7.387000000000001
 10
1.277
 20
7.42
 10
1.367
 20
7.482
 10
1.419
 20
7.512000000000001
 10
1.471
 20
7.553999999999999
  0
LWPOLYLINE
  5
172
330
18
100
AcDbEntity
  8
0
100
AcDbPolyline
 90
        6
 70
     0
 43
0.0
 10
1.217
 20
7.309
 10
1.238
 20
7.361000000000001
 10
1.331
 20
7.409
 10
1.419
 20
7.461
 10
1.468
 20
7.502000000000001
 10
1.507
 20
7.535
  0
LWPOLYLINE
  5
17B
330
18
100
AcDbEntity
  8
0
100
AcDbPolyline
 90
        5
 70
     0
 43
0.0
 10
1.256
 20
7.272
 10
1.277
 20
7.335
 10
1.383
 20
7.391
 10
1.471
 20
7.445
 10
1.546
 20
7.509
  0
LWPOLYLINE
  5
183
330
18
100
AcDbEntity
  8
0
100
AcDbPolyline
 90
        6
 70
     0
 43
0.0
 10
1.289
 20
7.24
 10
1.314
 20
7.309
 10
1.427
 20
7.366000000000001
 10
1.52
 20
7.417000000000001
 10
1.556
 20
7.44
 10
1.599
 20
7.472
  0
LWPOLYLINE
  5
18C
330
18
100
AcDbEntity
  8
0
100
AcDbPolyline
 90
        3
 70
     0
 43
0.0
 10
1.49
 20
7.349
 10
1.587
 20
7.412000000000001
 10
1.641
 20
7.442
  0
LWPOLYLINE
  5
192
330
18
100
AcDbEntity
  8
0
100
AcDbPolyline
 90
        2
 70
     0
 43
0.0
 10
3.65
 20
7.61
 10
3.581
 20
7.611000000000001
  0
LWPOLYLINE
  5
197
330
18
100
AcDbEntity
  8
0
100
AcDbPolyline
 90
        2
 70
     0
 43
0.0
 10
3.693
 20
7.584
 10
3.606
 20
7.579
  0
LWPOLYLINE
  5
19C
330
18
100
AcDbEntity
  8
0
100
AcDbPolyline
 90
        2
 70
     0
 43
0.0
 10
3.684
 20
7.38
 10
3.739
 20
7.387000000000001
  0
LWPOLYLINE
  5
1A1
330
18
100
AcDbEntity
  8
0
100
AcDbPolyline
 90
        9
 70
     0
 43
0.0
 10
5.79
 20
3.084
 10
5.864
 20
3.07
 10
5.912999999999999
 20
3.135
 10
5.997000000000001
 20
3.12
 10
6.085
 20
3.127
 10
6.154
 20
3.215
 10
6.274
 20
3.207
 10
6.35
 20
3.196
 10
6.412000000000001
 20
3.196
  0
LWPOLYLINE
  5
1AD
330
18
100
AcDbEntity
  8
0
100
AcDbPolyline
 90
        3
 70
     0
 43
0.0
 10
6.226
 20
3.279
 10
6.316
 20
3.256
 10
6.412000000000001
 20
3.253
  0
LWPOLYLINE
  5
1B3
330
18
100
AcDbEntity
  8
0
100
AcDbPolyline
 90
        2
 70
     0
 43
0.0
 10
6.321000000000001
 20
3.322
 10
6.412000000000001
 20
3.313
  0
LWPOLYLINE
  5
1B8
330
18
100
AcDbEntity
  8
0
100
AcDbPolyline
 90
       12
 70
     0
 43
0.0
 10
5.738
 20
3.061
 10
5.823
 20
3.036
 10
5.864
 20
3.029
 10
5.912999999999999
 20
3.07
 10
5.982
 20
3.074
 10
6.085
 20
3.078
 10
6.126
 20
3.112
 10
6.154
 20
3.165
 10
6.244
 20
3.158
 10
6.297000000000001
 20
3.154
 10
6.347
 20
3.158
 10
6.412000000000001
 20
3.154
  0
LWPOLYLINE
  5
1C7
330
18
100
AcDbEntity
  8
0
100
AcDbPolyline
 90
       12
 70
     0
 43
0.0
 10
6.412000000000001
 20
3.089
 10
6.263
 20
3.097
 10
6.154
 20
3.086
 10
6.122999999999999
 20
3.048
 10
6.085
 20
3.021
 10
5.992999999999999
 20
3.021
 10
5.912999999999999
 20
3.021
 10
5.864
 20
2.979
 10
5.807
 20
2.987
 10
5.757999999999999
 20
2.995
 10
5.724
 20
2.998
 10
5.638
 20
3.016
  0
LWPOLYLINE
  5
1D6
330
18
100
AcDbEntity
  8
0
100
AcDbPolyline
 90
       11
 70
     0
 43
0.0
 10
5.579
 20
2.926
 10
5.659
 20
2.926
 10
5.751
 20
2.922
 10
5.864
 20
2.915
 10
5.912999999999999
 20
2.972
 10
5.99
 20
2.972
 10
6.085
 20
2.957
 10
6.154
 20
3.014
 10
6.24
 20
3.025
 10
6.324
 20
3.025
 10
6.412000000000001
 20
3.032
  0
LWPOLYLINE
  5
1E4
330
18
100
AcDbEntity
  8
0
100
AcDbPolyline
 90
        9
 70
     0
 43
0.0
 10
5.579
 20
2.85
 10
5.728
 20
2.869
 10
5.864
 20
2.858
 10
5.912999999999999
 20
2.907
 10
6.001
 20
2.9
 10
6.085
 20
2.896
 10
6.154
 20
2.964
 10
6.286000000000001
 20
2.957
 10
6.412000000000001
 20
2.957
  0
LWPOLYLINE
  5
1F0
330
18
100
AcDbEntity
  8
0
100
AcDbPolyline
 90
        9
 70
     0
 43
0.0
 10
5.579
 20
2.767
 10
5.735
 20
2.778
 10
5.864
 20
2.797
 10
5.912999999999999
 20
2.847
 10
6.001
 20
2.835
 10
6.085
 20
2.824
 10
6.154
 20
2.896
 10
6.236000000000001
 20
2.903
 10
6.292000000000001
 20
2.882
  0
LWPOLYLINE
  5
1FC
330
18
100
AcDbEntity
  8
0
100
AcDbPolyline
 90
       10
 70
     0
 43
0.0
 10
6.212999999999999
 20
2.847
 10
6.154
 20
2.858
 10
6.085
 20
2.767
 10
6.005
 20
2.782
 10
5.912999999999999
 20
2.797
 10
5.864
 20
2.752
 10
5.781000000000001
 20
2.748
 10
5.728
 20
2.74
 10
5.686
 20
2.737
 10
5.579
 20
2.733
  0
LWPOLYLINE
  5
209
330
18
100
AcDbEntity
  8
0
100
AcDbPolyline
 90
        3
 70
     0
 43
0.0
 10
5.579
 20
2.68
 10
5.705
 20
2.687
 10
5.832000000000001
 20
2.676
  0
LWPOLYLINE
  5
20F
330
18
100
AcDbEntity
  8
0
100
AcDbPolyline
 90
        3
 70
     0
 43
0.0
 10
5.579
 20
2.626
 10
5.652
 20
2.638
 10
5.736000000000001
 20
2.633
  0
LINE
  5
215
330
18
100
AcDbEntity
  8
0
100
AcDbLine
 10
4.329
 20
3.921
 30
0.0
 11
4.635
 21
4.041
 31
0.0
  0
LINE
  5
216
330
18
100
AcDbEntity
  8
0
100
AcDbLine
 10
4.689
 20
3.587
 30
0.0
 11
4.611000000000001
 21
3.659
 31
0.0
  0
LINE
  5
217
330
18
100
AcDbEntity
  8
0
100
AcDbLine
 10
4.329
 20
3.921
 30
0.0
 11
4.329
 21
3.88
 31
0.0
  0
LINE
  5
218
330
18
100
AcDbEntity
  8
0
100
AcDbLine
 10
4.689
 20
3.546
 30
0.0
 11
4.611000000000001
 21
3.619
 31
0.0
  0
LINE
  5
219
330
18
100
AcDbEntity
  8
0
100
AcDbLine
 10
4.419
 20
3.837
 30
0.0
 11
4.541
 21
3.829
 31
0.0
  0
LINE
  5
21A
330
18
100
AcDbEntity
  8
0
100
AcDbLine
 10
4.624
 20
3.752
 30
0.0
 11
4.541
 21
3.829
 31
0.0
  0
LINE
  5
21B
330
18
100
AcDbEntity
  8
0
100
AcDbLine
 10
4.624
 20
3.752
 30
0.0
 11
4.611000000000001
 21
3.659
 31
0.0
  0
LINE
  5
21C
330
18
100
AcDbEntity
  8
0
100
AcDbLine
 10
4.419
 20
3.837
 30
0.0
 11
4.419
 21
3.797
 31
0.0
  0
LINE
  5
21D
330
18
100
AcDbEntity
  8
0
100
AcDbLine
 10
4.541
 20
3.829
 30
0.0
 11
4.541
 21
3.788
 31
0.0
  0
LINE
  5
21E
330
18
100
AcDbEntity
  8
0
100
AcDbLine
 10
4.611000000000001
 20
3.659
 30
0.0
 11
4.611000000000001
 21
3.619
 31
0.0
  0
LINE
  5
21F
330
18
100
AcDbEntity
  8
0
100
AcDbLine
 10
4.689
 20
3.587
 30
0.0
 11
4.995
 21
3.707
 31
0.0
  0
LINE
  5
220
330
18
100
AcDbEntity
  8
0
100
AcDbLine
 10
4.689
 20
3.587
 30
0.0
 11
4.689
 21
3.546
 31
0.0
  0
LINE
  5
221
330
18
100
AcDbEntity
  8
0
100
AcDbLine
 10
4.614
 20
3.885
 30
0.0
 11
4.747
 21
3.937
 31
0.0
  0
LINE
  5
222
330
18
100
AcDbEntity
  8
0
100
AcDbLine
 10
4.75
 20
3.759
 30
0.0
 11
4.882
 21
3.812
 31
0.0
  0
LINE
  5
223
330
18
100
AcDbEntity
  8
0
100
AcDbLine
 10
4.747
 20
3.937
 30
0.0
 11
4.635
 21
4.041
 31
0.0
  0
LINE
  5
224
330
18
100
AcDbEntity
  8
0
100
AcDbLine
 10
4.747
 20
3.937
 30
0.0
 11
4.747
 21
3.896
 31
0.0
  0
LINE
  5
225
330
18
100
AcDbEntity
  8
0
100
AcDbLine
 10
4.645
 20
3.856
 30
0.0
 11
4.747
 21
3.896
 31
0.0
  0
LINE
  5
226
330
18
100
AcDbEntity
  8
0
100
AcDbLine
 10
4.502
 20
3.989
 30
0.0
 11
3.684
 21
4.748
 31
0.0
  0
LINE
  5
227
330
18
100
AcDbEntity
  8
0
100
AcDbLine
 10
4.419
 20
3.797
 30
0.0
 11
4.541
 21
3.788
 31
0.0
  0
LINE
  5
228
330
18
100
AcDbEntity
  8
0
100
AcDbLine
 10
4.541
 20
3.788
 30
0.0
 11
4.619
 21
3.716
 31
0.0
  0
LINE
  5
229
330
18
100
AcDbEntity
  8
0
100
AcDbLine
 10
4.419
 20
3.837
 30
0.0
 11
4.329
 21
3.921
 31
0.0
  0
LINE
  5
22A
330
18
100
AcDbEntity
  8
0
100
AcDbLine
 10
4.419
 20
3.797
 30
0.0
 11
4.329
 21
3.88
 31
0.0
  0
LINE
  5
22B
330
18
100
AcDbEntity
  8
0
100
AcDbLine
 10
4.689
 20
3.546
 30
0.0
 11
4.995
 21
3.666
 31
0.0
  0
LINE
  5
22C
330
18
100
AcDbEntity
  8
0
100
AcDbLine
 10
4.995
 20
3.707
 30
0.0
 11
4.995
 21
3.666
 31
0.0
  0
LINE
  5
22D
330
18
100
AcDbEntity
  8
0
100
AcDbLine
 10
4.75
 20
3.759
 30
0.0
 11
4.614
 21
3.885
 31
0.0
  0
LINE
  5
22E
330
18
100
AcDbEntity
  8
0
100
AcDbLine
 10
4.443000000000001
 20
3.949
 30
0.0
 11
4.615
 21
4.016
 31
0.0
  0
LWPOLYLINE
  5
22F
330
18
100
AcDbEntity
  8
0
  6
HIDDEN
100
AcDbPolyline
 90
        4
 70
     0
 43
0.0
 10
4.443000000000001
 20
3.949
 42
0.8090000000000001
 10
4.479
 20
3.857
 10
4.651
 20
3.925
 42
0.8090000000000001
 10
4.615
 20
4.016
  0
LINE
  5
236
330
18
100
AcDbEntity
  8
0
100
AcDbLine
 10
4.995
 20
3.707
 30
0.0
 11
4.882
 21
3.812
 31
0.0
  0
LWPOLYLINE
  5
237
330
18
100
AcDbEntity
  8
0
  6
HIDDEN
100
AcDbPolyline
 90
        4
 70
     0
 43
0.0
 10
4.691
 20
3.719
 42
0.8090000000000001
 10
4.727
 20
3.627
 10
4.899
 20
3.695
 42
0.8090000000000001
 10
4.863
 20
3.786
  0
LINE
  5
23E
330
18
100
AcDbEntity
  8
0
100
AcDbLine
 10
4.691
 20
3.719
 30
0.0
 11
4.863
 21
3.786
 31
0.0
  0
LINE
  5
23F
330
18
100
AcDbEntity
  8
0
100
AcDbLine
 10
5.561
 20
3.891
 30
0.0
 11
5.561
 21
3.93
 31
0.0
  0
LINE
  5
240
330
18
100
AcDbEntity
  8
0
100
AcDbLine
 10
5.561
 20
3.93
 30
0.0
 11
5.441
 21
4.031000000000001
 31
0.0
  0
LINE
  5
241
330
18
100
AcDbEntity
  8
0
100
AcDbLine
 10
5.494
 20
4.052
 30
0.0
 11
5.382999999999999
 21
4.147
 31
0.0
  0
LINE
  5
242
330
18
100
AcDbEntity
  8
0
100
AcDbLine
 10
5.526
 20
4.065
 30
0.0
 11
5.382999999999999
 21
4.186
 31
0.0
  0
LINE
  5
243
330
18
100
AcDbEntity
  8
0
100
AcDbLine
 10
5.382999999999999
 20
4.147
 30
0.0
 11
5.382999999999999
 21
4.186
 31
0.0
  0
LINE
  5
244
330
18
100
AcDbEntity
  8
0
100
AcDbLine
 10
5.441
 20
4.031000000000001
 30
0.0
 11
5.526
 21
4.065
 31
0.0
  0
LINE
  5
245
330
18
100
AcDbEntity
  8
0
100
AcDbLine
 10
5.297999999999999
 20
4.152
 30
0.0
 11
5.382999999999999
 21
4.186
 31
0.0
  0
LINE
  5
246
330
18
100
AcDbEntity
  8
0
100
AcDbLine
 10
5.297999999999999
 20
4.113
 30
0.0
 11
5.382999999999999
 21
4.147
 31
0.0
  0
LINE
  5
247
330
18
100
AcDbEntity
  8
0
100
AcDbLine
 10
5.297999999999999
 20
4.152
 30
0.0
 11
5.297999999999999
 21
4.113
 31
0.0
  0
LINE
  5
248
330
18
100
AcDbEntity
  8
0
100
AcDbLine
 10
5.297999999999999
 20
4.152
 30
0.0
 11
5.177000000000001
 21
4.255
 31
0.0
  0
LINE
  5
249
330
18
100
AcDbEntity
  8
0
100
AcDbLine
 10
5.297999999999999
 20
4.113
 30
0.0
 11
5.177000000000001
 21
4.216
 31
0.0
  0
LINE
  5
24A
330
18
100
AcDbEntity
  8
0
100
AcDbLine
 10
5.177000000000001
 20
4.255
 30
0.0
 11
5.177000000000001
 21
4.216
 31
0.0
  0
LINE
  5
24B
330
18
100
AcDbEntity
  8
0
100
AcDbLine
 10
5.177000000000001
 20
4.255
 30
0.0
 11
5.507999999999999
 21
4.385
 31
0.0
  0
LINE
  5
24C
330
18
100
AcDbEntity
  8
0
100
AcDbLine
 10
5.561
 20
3.93
 30
0.0
 11
5.892
 21
4.06
 31
0.0
  0
LINE
  5
24D
330
18
100
AcDbEntity
  8
0
100
AcDbLine
 10
5.561
 20
3.891
 30
0.0
 11
5.441
 21
3.992
 31
0.0
  0
LINE
  5
24E
330
18
100
AcDbEntity
  8
0
100
AcDbLine
 10
5.441
 20
3.992
 30
0.0
 11
5.441
 21
4.031000000000001
 31
0.0
  0
LINE
  5
24F
330
18
100
AcDbEntity
  8
0
100
AcDbLine
 10
5.561
 20
3.891
 30
0.0
 11
5.892
 21
4.021
 31
0.0
  0
LINE
  5
250
330
18
100
AcDbEntity
  8
0
100
AcDbLine
 10
5.892
 20
4.06
 30
0.0
 11
5.809
 21
4.13
 31
0.0
  0
LINE
  5
251
330
18
100
AcDbEntity
  8
0
100
AcDbLine
 10
5.892
 20
4.06
 30
0.0
 11
5.892
 21
4.021
 31
0.0
  0
LINE
  5
252
330
18
100
AcDbEntity
  8
0
100
AcDbLine
 10
5.605
 20
4.303
 30
0.0
 11
5.55
 21
4.226
 31
0.0
  0
LINE
  5
253
330
18
100
AcDbEntity
  8
0
100
AcDbLine
 10
5.638999999999999
 20
4.151
 30
0.0
 11
5.55
 21
4.226
 31
0.0
  0
LINE
  5
254
330
18
100
AcDbEntity
  8
0
100
AcDbLine
 10
5.638999999999999
 20
4.151
 30
0.0
 11
5.809
 21
4.13
 31
0.0
  0
LINE
  5
255
330
18
100
AcDbEntity
  8
0
100
AcDbLine
 10
5.605
 20
4.263999999999999
 30
0.0
 11
5.605
 21
4.303
 31
0.0
  0
LINE
  5
256
330
18
100
AcDbEntity
  8
0
100
AcDbLine
 10
5.605
 20
4.303
 30
0.0
 11
5.507999999999999
 21
4.385
 31
0.0
  0
LINE
  5
257
330
18
100
AcDbEntity
  8
0
100
AcDbLine
 10
5.568
 20
4.211
 30
0.0
 11
5.605
 21
4.263999999999999
 31
0.0
  0
LINE
  5
258
330
18
100
AcDbEntity
  8
0
100
AcDbLine
 10
5.302000000000001
 20
4.303999999999999
 30
0.0
 11
4.449
 21
5.027
 31
0.0
  0
LINE
  5
259
330
18
100
AcDbEntity
  8
0
100
AcDbLine
 10
5.565
 20
4.062
 30
0.0
 11
5.736000000000001
 21
4.13
 31
0.0
  0
LWPOLYLINE
  5
25A
330
18
100
AcDbEntity
  8
0
  6
HIDDEN
100
AcDbPolyline
 90
        4
 70
     0
 43
0.0
 10
5.565
 20
4.062
 42
0.8090000000000001
 10
5.601
 20
3.971
 10
5.772
 20
4.038
 42
0.8090000000000001
 10
5.736000000000001
 20
4.13
  0
LWPOLYLINE
  5
261
330
18
100
AcDbEntity
  8
0
  6
HIDDEN
100
AcDbPolyline
 90
        4
 70
     0
 43
0.0
 10
5.317
 20
4.292
 42
0.8090000000000001
 10
5.353
 20
4.201000000000001
 10
5.525
 20
4.268
 42
0.8090000000000001
 10
5.489
 20
4.36
  0
LINE
  5
268
330
18
100
AcDbEntity
  8
0
100
AcDbLine
 10
5.317
 20
4.292
 30
0.0
 11
5.489
 21
4.36
 31
0.0
  0
LINE
  5
269
330
18
100
AcDbEntity
  8
0
100
AcDbLine
 10
3.913
 20
4.861000000000001
 30
0.0
 11
3.913
 21
5.516
 31
0.0
  0
LINE
  5
26A
330
18
100
AcDbEntity
  8
0
100
AcDbLine
 10
4.24
 20
4.563
 30
0.0
 11
4.24
 21
4.522
 31
0.0
  0
LINE
  5
26B
330
18
100
AcDbEntity
  8
0
100
AcDbLine
 10
4.24
 20
4.522
 30
0.0
 11
4.539
 21
4.631
 31
0.0
  0
LINE
  5
26C
330
18
100
AcDbEntity
  8
0
100
AcDbLine
 10
4.539
 20
4.672
 30
0.0
 11
4.539
 21
4.631
 31
0.0
  0
LINE
  5
26D
330
18
100
AcDbEntity
  8
0
100
AcDbLine
 10
4.24
 20
4.563
 30
0.0
 11
4.539
 21
4.672
 31
0.0
  0
LINE
  5
26E
330
18
100
AcDbEntity
  8
0
100
AcDbLine
 10
4.24
 20
4.522
 30
0.0
 11
3.938
 21
4.802
 31
0.0
  0
LINE
  5
26F
330
18
100
AcDbEntity
  8
0
100
AcDbLine
 10
4.24
 20
4.563
 30
0.0
 11
3.954
 21
4.828
 31
0.0
  0
ARC
  5
270
330
18
100
AcDbEntity
  8
0
100
AcDbCircle
 10
3.992
 20
4.861000000000001
 30
0.0
 40
0.08
100
AcDbArc
 50
180.0
 51
227.152
  0
LINE
  5
271
330
18
100
AcDbEntity
  8
0
100
AcDbLine
 10
3.941
 20
5.49
 30
0.0
 11
3.941
 21
4.857
 31
0.0
  0
ARC
  5
272
330
18
100
AcDbEntity
  8
0
100
AcDbCircle
 10
3.98
 20
4.857
 30
0.0
 40
0.039
100
AcDbArc
 50
180.0
 51
227.152
  0
LINE
  5
273
330
18
100
AcDbEntity
  8
0
100
AcDbLine
 10
4.24
 20
5.589
 30
0.0
 11
4.24
 21
4.966
 31
0.0
  0
ARC
  5
274
330
18
100
AcDbEntity
  8
0
100
AcDbCircle
 10
4.279
 20
4.966
 30
0.0
 40
0.039
100
AcDbArc
 50
180.0
 51
227.152
  0
LINE
  5
275
330
18
100
AcDbEntity
  8
0
100
AcDbLine
 10
4.539
 20
4.672
 30
0.0
 11
4.253
 21
4.938
 31
0.0
  0
LINE
  5
276
330
18
100
AcDbEntity
  8
0
100
AcDbLine
 10
3.941
 20
5.49
 30
0.0
 11
3.913
 21
5.516
 31
0.0
  0
LINE
  5
277
330
18
100
AcDbEntity
  8
0
100
AcDbLine
 10
3.913
 20
5.516
 30
0.0
 11
4.211
 21
5.615
 31
0.0
  0
LINE
  5
278
330
18
100
AcDbEntity
  8
0
100
AcDbLine
 10
3.941
 20
5.49
 30
0.0
 11
4.24
 21
5.589
 31
0.0
  0
LINE
  5
279
330
18
100
AcDbEntity
  8
0
100
AcDbLine
 10
4.24
 20
5.589
 30
0.0
 11
4.211
 21
5.615
 31
0.0
  0
LINE
  5
27A
330
18
100
AcDbEntity
  8
0
100
AcDbLine
 10
4.243
 20
4.952
 30
0.0
 11
6.574
 21
5.803
 31
0.0
  0
LINE
  5
27B
330
18
100
AcDbEntity
  8
0
100
AcDbLine
 10
4.035
 20
5.202000000000001
 30
0.0
 11
4.035
 21
4.891
 31
0.0
  0
ARC
  5
27C
330
18
100
AcDbEntity
  8
0
100
AcDbCircle
 10
4.074
 20
4.891
 30
0.0
 40
0.039
100
AcDbArc
 50
180.0
 51
227.152
  0
LINE
  5
27D
330
18
100
AcDbEntity
  8
0
100
AcDbLine
 10
4.087
 20
4.826000000000001
 30
0.0
 11
4.047
 21
4.863
 31
0.0
  0
ARC
  5
27E
330
18
100
AcDbEntity
  8
0
100
AcDbCircle
 10
4.062
 20
4.808
 30
0.0
 40
0.03
100
AcDbArc
 50
237.4
 51
36.904
  0
ARC
  5
27F
330
18
100
AcDbEntity
  8
0
100
AcDbCircle
 10
4.005
 20
5.442
 30
0.0
 40
0.031
100
AcDbArc
 50
14.869
 51
165.131
  0
LINE
  5
280
330
18
100
AcDbEntity
  8
0
100
AcDbLine
 10
4.414
 20
4.761
 30
0.0
 11
4.237
 21
4.925
 31
0.0
  0
ARC
  5
281
330
18
100
AcDbEntity
  8
0
100
AcDbCircle
 10
4.39
 20
4.742
 30
0.0
 40
0.03
100
AcDbArc
 50
237.4
 51
36.904
  0
ARC
  5
282
330
18
100
AcDbEntity
  8
0
100
AcDbCircle
 10
4.263999999999999
 20
4.954
 30
0.0
 40
0.039
100
AcDbArc
 50
180.0
 51
227.152
  0
LINE
  5
283
330
18
100
AcDbEntity
  8
0
100
AcDbLine
 10
4.224
 20
5.512000000000001
 30
0.0
 11
4.224
 21
4.954
 31
0.0
  0
ARC
  5
284
330
18
100
AcDbEntity
  8
0
100
AcDbCircle
 10
4.194
 20
5.504
 30
0.0
 40
0.031
100
AcDbArc
 50
14.869
 51
165.131
  0
LWPOLYLINE
  5
285
330
18
100
AcDbEntity
  8
0
100
AcDbPolyline
 90
        2
 70
     0
 43
0.0
 10
4.405
 20
4.659
 42
0.012
 10
4.405
 20
4.659
 42
0.158
  0
LWPOLYLINE
  5
28A
330
18
100
AcDbEntity
  8
0
100
AcDbPolyline
 90
        2
 70
     0
 43
0.0
 10
4.091
 20
4.736000000000001
 42
0.012
 10
4.092
 20
4.735
 42
0.158
  0
LINE
  5
28F
330
18
100
AcDbEntity
  8
0
100
AcDbLine
 10
4.11
 20
5.027
 30
0.0
 11
4.11
 21
5.194
 31
0.0
  0
ARC
  5
290
330
18
100
AcDbEntity
  8
0
100
AcDbCircle
 10
4.073
 20
5.392
 30
0.0
 40
0.038
100
AcDbArc
 50
4.228
 51
175.772
  0
ARC
  5
291
330
18
100
AcDbEntity
  8
0
100
AcDbCircle
 10
4.073
 20
5.029
 30
0.0
 40
0.038
100
AcDbArc
 50
184.228
 51
355.772
  0
ARC
  5
292
330
18
100
AcDbEntity
  8
0
100
AcDbCircle
 10
4.053
 20
5.05
 30
0.0
 40
0.038
100
AcDbArc
 50
241.688
 51
355.772
  0
LINE
  5
293
330
18
100
AcDbEntity
  8
0
100
AcDbLine
 10
4.091
 20
5.048
 30
0.0
 11
4.091
 21
5.178999999999999
 31
0.0
  0
LWPOLYLINE
  5
294
330
18
100
AcDbEntity
  8
0
100
AcDbPolyline
 90
       16
 70
     1
 43
0.0
 10
4.07
 20
5.254
 42
0.093
 10
4.053999999999999
 20
5.249
 42
0.096
 10
4.042
 20
5.239
 42
0.101
 10
4.034
 20
5.225
 42
0.105
 10
4.033
 20
5.21
 42
0.105
 10
4.038
 20
5.195
 42
0.101
 10
4.049
 20
5.184
 42
0.096
 10
4.064
 20
5.177000000000001
 42
0.093
 10
4.08
 20
5.176
 42
0.093
 10
4.096
 20
5.181
 42
0.096
 10
4.108000000000001
 20
5.191
 42
0.101
 10
4.116000000000001
 20
5.205
 42
0.105
 10
4.117
 20
5.221
 42
0.105
 10
4.112
 20
5.235
 42
0.101
 10
4.101
 20
5.247000000000001
 42
0.096
 10
4.086
 20
5.252999999999999
 42
0.093
  0
LINE
  5
2A7
330
18
100
AcDbEntity
  8
0
100
AcDbLine
 10
4.091
 20
5.252000000000001
 30
0.0
 11
4.091
 21
5.425
 31
0.0
  0
LINE
  5
2A8
330
18
100
AcDbEntity
  8
0
100
AcDbLine
 10
4.11
 20
5.237
 30
0.0
 11
4.11
 21
5.395
 31
0.0
  0
LINE
  5
2A9
330
18
100
AcDbEntity
  8
0
100
AcDbLine
 10
4.035
 20
5.45
 30
0.0
 11
4.035
 21
5.227
 31
0.0
  0
LINE
  5
2AA
330
18
100
AcDbEntity
  8
0
100
AcDbLine
 10
4.072
 20
4.888999999999999
 30
0.0
 11
4.134
 21
4.912
 31
0.0
  0
LWPOLYLINE
  5
2AB
330
18
100
AcDbEntity
  8
0
100
AcDbPolyline
 90
        2
 70
     0
 43
0.0
 10
-0.191
 20
3.395
 10
-0.156
 20
3.475
  0
LWPOLYLINE
  5
2B0
330
18
100
AcDbEntity
  8
0
100
AcDbPolyline
 90
        3
 70
     0
 43
0.0
 10
-0.226
 20
3.444
 10
-0.198
 20
3.528
 10
-0.156
 20
3.649
  0
LWPOLYLINE
  5
2B6
330
18
100
AcDbEntity
  8
0
100
AcDbPolyline
 90
        5
 70
     0
 43
0.0
 10
-0.265
 20
3.498
 10
-0.23
 20
3.657
 10
-0.197
 20
3.766
 10
-0.157
 20
3.807
 10
-0.129
 20
3.854
  0
LWPOLYLINE
  5
2BE
330
18
100
AcDbEntity
  8
0
100
AcDbPolyline
 90
        4
 70
     0
 43
0.0
 10
-0.301
 20
3.548
 10
-0.275
 20
3.69
 10
-0.238
 20
3.823
 10
-0.167
 20
3.881
  0
LWPOLYLINE
  5
2C5
330
18
100
AcDbEntity
  8
0
100
AcDbPolyline
 90
        4
 70
     0
 43
0.0
 10
-0.336
 20
3.597
 10
-0.311
 20
3.742
 10
-0.284
 20
3.887
 10
-0.216
 20
3.922
  0
LWPOLYLINE
  5
2CC
330
18
100
AcDbEntity
  8
0
100
AcDbPolyline
 90
        3
 70
     0
 43
0.0
 10
-0.351
 20
3.872
 10
-0.323
 20
3.942
 10
-0.258
 20
3.973
  0
LWPOLYLINE
  5
2D2
330
18
100
AcDbEntity
  8
0
100
AcDbPolyline
 90
        2
 70
     0
 43
0.0
 10
-0.347
 20
3.991
 10
-0.288
 20
4.013999999999999
  0
LWPOLYLINE
  5
2D7
330
18
100
AcDbEntity
  8
0
100
AcDbPolyline
 90
        2
 70
     0
 43
0.0
 10
-0.306
 20
4.511
 10
-0.351
 20
4.37
  0
LWPOLYLINE
  5
2DC
330
18
100
AcDbEntity
  8
0
100
AcDbPolyline
 90
        5
 70
     0
 43
0.0
 10
-0.398
 20
4.167
 10
-0.356
 20
4.22
 10
-0.326
 20
4.261
 10
-0.307
 20
4.342
 10
-0.257
 20
4.446000000000001
  0
LWPOLYLINE
  5
2E4
330
18
100
AcDbEntity
  8
0
100
AcDbPolyline
 90
        5
 70
     0
 43
0.0
 10
-0.368
 20
4.126
 10
-0.327
 20
4.168
 10
-0.295
 20
4.218999999999999
 10
-0.262
 20
4.305
 10
-0.211
 20
4.383
  0
LWPOLYLINE
  5
2EC
330
18
100
AcDbEntity
  8
0
100
AcDbPolyline
 90
        5
 70
     0
 43
0.0
 10
-0.34
 20
4.087
 10
-0.291
 20
4.138999999999999
 10
-0.267
 20
4.178999999999999
 10
-0.226
 20
4.261
 10
-0.177
 20
4.336
  0
LWPOLYLINE
  5
2F4
330
18
100
AcDbEntity
  8
0
100
AcDbPolyline
 90
        5
 70
     0
 43
0.0
 10
-0.307
 20
4.041
 10
-0.254
 20
4.103
 10
-0.23
 20
4.127
 10
-0.198
 20
4.204
 10
-0.156
 20
4.273
  0
LWPOLYLINE
  5
2FC
330
18
100
AcDbEntity
  8
0
100
AcDbPolyline
 90
        4
 70
     0
 43
0.0
 10
-0.278
 20
4.0
 10
-0.226
 20
4.058
 10
-0.2
 20
4.085
 10
-0.156
 20
4.159
  0
LWPOLYLINE
  5
303
330
18
100
AcDbEntity
  8
0
100
AcDbPolyline
 90
        2
 70
     0
 43
0.0
 10
-0.246
 20
3.956
 10
-0.174
 20
4.049
  0
LWPOLYLINE
  5
308
330
18
100
AcDbEntity
  8
0
  6
HIDDEN
100
AcDbPolyline
 90
        4
 70
     0
 43
0.0
 10
4.374
 20
4.717
 10
4.19
 20
4.888
 42
-0.209
 10
4.164
 20
4.946000000000001
 10
4.164
 20
5.512000000000001
  0
LWPOLYLINE
  5
30F
330
18
100
AcDbEntity
  8
0
  6
HIDDEN
100
AcDbPolyline
 90
        4
 70
     0
 43
0.0
 10
4.046
 20
4.782
 10
4.0
 20
4.825
 42
-0.209
 10
3.975
 20
4.883
 10
3.975
 20
5.45
  0
TEXT
  5
316
330
18
100
AcDbEntity
  8
0
100
AcDbText
 10
-0.338
 20
6.07
 30
0.0
 40
0.175
  1
PLATE
 41
0.85
100
AcDbText
  0
TEXT
  5
317
330
18
100
AcDbEntity
  8
0
100
AcDbText
 10
-0.338
 20
5.786000000000001
 30
0.0
 40
0.175
  1
NOT BY
 41
0.85
100
AcDbText
  0
TEXT
  5
318
330
18
100
AcDbEntity
  8
0
100
AcDbText
 10
-0.338
 20
5.502999999999999
 30
0.0
 40
0.175
  1
SIMPSON
 41
0.85
100
AcDbText
  0
LINE
  5
319
330
18
100
AcDbEntity
  8
0
100
AcDbLine
 10
0.6559999999999999
 20
6.142
 30
0.0
 11
0.6559999999999999
 21
6.893
 31
0.0
  0
LINE
  5
31A
330
18
100
AcDbEntity
  8
0
100
AcDbLine
 10
0.9259999999999999
 20
6.034
 30
0.0
 11
1.182
 21
5.062
 31
0.0
  0
LINE
  5
31B
330
18
100
AcDbEntity
  8
0
100
AcDbLine
 10
1.086
 20
5.967000000000001
 30
0.0
 11
1.29
 21
5.151
 31
0.0
  0
LINE
  5
31C
330
18
100
AcDbEntity
  8
0
100
AcDbLine
 10
1.581
 20
5.689
 30
0.0
 11
2.842
 21
6.15
 31
0.0
  0
LINE
  5
31D
330
18
100
AcDbEntity
  8
0
100
AcDbLine
 10
1.534
 20
5.724
 30
0.0
 11
2.812
 21
6.191
 31
0.0
  0
LINE
  5
31E
330
18
100
AcDbEntity
  8
0
100
AcDbLine
 10
0.359
 20
3.083
 30
0.0
 11
0.163
 21
3.356
 31
0.0
  0
SOLID
  5
31F
330
18
100
AcDbEntity
  8
0
100
AcDbTrace
 10
0.461
 20
3.223
 30
0.0
 11
0.441
 21
3.28
 31
0.0
 12
0.282
 22
3.19
 32
0.0
 13
0.282
 23
3.19
 33
0.0
  0
SOLID
  5
320
330
18
100
AcDbEntity
  8
0
100
AcDbTrace
 10
3.749
 20
4.488
 30
0.0
 11
3.769
 21
4.431
 31
0.0
 12
3.928
 22
4.521
 32
0.0
 13
3.928
 23
4.521
 33
0.0
  0
LINE
  5
321
330
18
100
AcDbEntity
  8
0
100
AcDbLine
 10
3.759
 20
4.46
 30
0.0
 11
2.603
 21
4.037
 31
0.0
  0
LINE
  5
322
330
18
100
AcDbEntity
  8
0
100
AcDbLine
 10
0.6559999999999999
 20
3.326
 30
0.0
 11
0.6559999999999999
 21
3.642
 31
0.0
  0
TEXT
  5
323
330
18
100
AcDbEntity
  8
0
100
AcDbText
 10
1.860221718589504
 20
3.673461046111904
 30
0.0
 40
0.175
  1
16" TO
 50
20.061
 41
0.85
 72
     1
 11
2.105
 21
3.856
 31
0.0
100
AcDbText
 73
     2
  0
TEXT
  5
324
330
18
100
AcDbEntity
  8
0
100
AcDbText
 10
1.538046618107042
 20
3.253388195359367
 30
0.0
 40
0.175
  1
FIRST SHEETROCK
 50
20.061
 41
0.85
 72
     1
 11
2.202
 21
3.589
 31
0.0
100
AcDbText
 73
     2
  0
TEXT
  5
325
330
18
100
AcDbEntity
  8
0
100
AcDbText
 10
1.961071696260068
 20
3.106444857055784
 30
0.0
 40
0.175
  1
FASTENER
 50
20.061
 41
0.85
 72
     1
 11
2.299
 21
3.323
 31
0.0
100
AcDbText
 73
     2
  0
LINE
  5
326
330
18
100
AcDbEntity
  8
0
100
AcDbLine
 10
1.597
 20
3.67
 30
0.0
 11
0.451
 21
3.252
 31
0.0
  0
TEXT
  5
327
330
18
100
AcDbEntity
  8
0
100
AcDbText
 10
5.831905435975538
 20
4.601790710176512
 30
0.0
 40
0.175
  1
DS
 50
20.061
 72
     1
 11
5.906000000000001
 21
4.722
 31
0.0
100
AcDbText
 73
     2
  0
LWPOLYLINE
  5
328
330
18
100
AcDbEntity
  8
0
100
AcDbPolyline
 90
        3
 70
     0
 43
0.0
 10
5.879
 20
4.123
 10
5.991000000000001
 20
4.263999999999999
 42
0.354
 10
5.987
 20
4.605
 42
-0.5560000000000001
  0
LINE
  5
32E
330
18
100
AcDbEntity
  8
0
100
AcDbLine
 10
3.783
 20
6.235
 30
0.0
 11
5.002
 21
6.603
 31
0.0
  0
LINE
  5
32F
330
18
100
AcDbEntity
  8
0
100
AcDbLine
 10
5.002
 20
6.686
 30
0.0
 11
5.178999999999999
 21
6.629
 31
0.0
  0
LINE
  5
330
330
18
100
AcDbEntity
  8
0
100
AcDbLine
 10
5.002
 20
6.686
 30
0.0
 11
5.002
 21
6.464
 31
0.0
  0
LINE
  5
331
330
18
100
AcDbEntity
  8
0
100
AcDbLine
 10
5.002
 20
6.464
 30
0.0
 11
5.178999999999999
 21
6.629
 31
0.0
  0
LINE
  5
332
330
18
100
AcDbEntity
  8
0
100
AcDbLine
 10
3.583
 20
6.147
 30
0.0
 11
3.783
 21
6.286000000000001
 31
0.0
  0
LINE
  5
333
330
18
100
AcDbEntity
  8
0
100
AcDbLine
 10
3.783
 20
6.127999999999999
 30
0.0
 11
3.783
 21
6.286000000000001
 31
0.0
  0
LINE
  5
334
330
18
100
AcDbEntity
  8
0
100
AcDbLine
 10
3.583
 20
6.147
 30
0.0
 11
3.783
 21
6.127999999999999
 31
0.0
  0
LINE
  5
335
330
18
100
AcDbEntity
  8
0
100
AcDbLine
 10
3.783
 20
6.178999999999999
 30
0.0
 11
5.002
 21
6.547000000000001
 31
0.0
  0
SOLID
  5
336
330
18
100
AcDbEntity
  8
0
100
AcDbTrace
 10
3.583
 20
6.147
 30
0.0
 11
3.783
 21
6.286000000000001
 31
0.0
 12
3.583
 22
6.147
 32
0.0
 13
3.783
 23
6.127999999999999
 33
0.0
  0
SOLID
  5
337
330
18
100
AcDbEntity
  8
0
100
AcDbTrace
 10
5.002
 20
6.686
 30
0.0
 11
5.178999999999999
 21
6.629
 31
0.0
 12
5.178999999999999
 22
6.629
 32
0.0
 13
5.002
 23
6.464
 33
0.0
  0
SOLID
  5
338
330
18
100
AcDbEntity
  8
0
100
AcDbTrace
 10
5.002
 20
6.464
 30
0.0
 11
5.178999999999999
 21
6.629
 31
0.0
 12
5.002
 22
6.686
 32
0.0
 13
5.178999999999999
 23
6.629
 33
0.0
  0
SOLID
  5
339
330
18
100
AcDbEntity
  8
0
100
AcDbTrace
 10
3.783
 20
6.235
 30
0.0
 11
5.002
 21
6.603
 31
0.0
 12
3.783
 22
6.178999999999999
 32
0.0
 13
5.002
 23
6.547000000000001
 33
0.0
  0
TEXT
  5
33A
330
18
100
AcDbEntity
  8
0
100
AcDbText
 10
4.25419703918731
 20
6.508064002060689
 30
0.0
 40
0.175
  1
F
 50
17.675
 51
16.0
 72
     1
 11
4.311
 21
6.617999999999999
 31
0.0
100
AcDbText
 73
     2
  0
TEXT
  5
33B
330
18
100
AcDbEntity
  8
0
100
AcDbText
 10
4.367769242872024
 20
6.451088779507745
 30
0.0
 40
0.125
  1
1
 50
17.675
 51
16.0
 72
     1
 11
4.397
 21
6.526
 31
0.0
100
AcDbText
 73
     2
  0
SOLID
  5
33C
330
18
100
AcDbEntity
  8
0
100
AcDbTrace
 10
2.127
 20
7.329
 30
0.0
 11
3.098
 21
6.506
 31
0.0
 12
2.08
 22
7.299
 32
0.0
 13
3.051
 23
6.475
 33
0.0
  0
LINE
  5
33D
330
18
100
AcDbEntity
  8
0
100
AcDbLine
 10
2.08
 20
7.299
 30
0.0
 11
3.051
 21
6.475
 31
0.0
  0
LINE
  5
33E
330
18
100
AcDbEntity
  8
0
100
AcDbLine
 10
2.127
 20
7.329
 30
0.0
 11
3.098
 21
6.506
 31
0.0
  0
SOLID
  5
33F
330
18
100
AcDbEntity
  8
0
100
AcDbTrace
 10
2.981
 20
6.43
 30
0.0
 11
3.216
 21
6.371
 31
0.0
 12
3.168
 22
6.551
 32
0.0
 13
3.216
 23
6.371
 33
0.0
  0
SOLID
  5
340
330
18
100
AcDbEntity
  8
0
100
AcDbTrace
 10
3.168
 20
6.551
 30
0.0
 11
3.216
 21
6.371
 31
0.0
 12
3.216
 22
6.371
 32
0.0
 13
2.981
 23
6.43
 33
0.0
  0
LINE
  5
341
330
18
100
AcDbEntity
  8
0
100
AcDbLine
 10
3.168
 20
6.551
 30
0.0
 11
3.216
 21
6.371
 31
0.0
  0
LINE
  5
342
330
18
100
AcDbEntity
  8
0
100
AcDbLine
 10
2.981
 20
6.43
 30
0.0
 11
3.216
 21
6.371
 31
0.0
  0
LINE
  5
343
330
18
100
AcDbEntity
  8
0
100
AcDbLine
 10
3.168
 20
6.551
 30
0.0
 11
2.981
 21
6.43
 31
0.0
  0
LINE
  5
344
330
18
100
AcDbEntity
  8
0
100
AcDbLine
 10
2.408
 20
6.931
 30
0.0
 11
1.938
 21
6.247999999999999
 31
0.0
  0
LINE
  5
345
330
18
100
AcDbEntity
  8
0
100
AcDbLine
 10
2.658
 20
6.72
 30
0.0
 11
2.121
 21
5.938
 31
0.0
  0
TEXT
  5
346
330
18
100
AcDbEntity
  8
0
100
AcDbText
 10
2.270218972306678
 20
7.403293195766578
 30
0.0
 40
0.175
  1
F
 50
319.723
 72
     1
 11
2.36684
 21
7.436109
 31
0.0
100
AcDbText
 73
     2
  0
TEXT
  5
347
330
18
100
AcDbEntity
  8
0
100
AcDbText
 10
2.350984980219056
 20
7.26056013983327
 30
0.0
 40
0.125
  1
2
 50
319.723
 72
     1
 11
2.42
 21
7.284
 31
0.0
100
AcDbText
 73
     2
  0
TEXT
  5
348
330
18
100
AcDbEntity
  8
0
100
AcDbText
 10
2.0535
 20
1.3035
 30
0.0
 40
0.175
  1
STC
 72
     1
 11
2.291
 21
1.391
 31
0.0
100
AcDbText
 73
     2
  0
LWPOLYLINE
  5
349
330
18
100
AcDbEntity
  8
0
100
AcDbPolyline
 90
        3
 70
     0
 43
0.0
 10
1.581
 20
5.689
 10
1.436
 20
5.795
 42
0.14
 10
0.387
 20
6.181
 42
-1.441
  0
LINE
  5
34F
330
18
100
AcDbEntity
  8
0
100
AcDbLine
 10
1.551
 20
5.227
 30
0.0
 11
1.507
 21
5.287000000000001
 31
0.0
  0
LINE
  5
350
330
18
100
AcDbEntity
  8
0
100
AcDbLine
 10
1.551
 20
4.808
 30
0.0
 11
1.507
 21
4.868
 31
0.0
  0
LINE
  5
351
330
18
100
AcDbEntity
  8
0
100
AcDbLine
 10
1.551
 20
4.599
 30
0.0
 11
1.507
 21
4.659
 31
0.0
  0
LINE
  5
352
330
18
100
AcDbEntity
  8
0
100
AcDbLine
 10
1.551
 20
4.388999999999999
 30
0.0
 11
1.507
 21
4.449
 31
0.0
  0
LINE
  5
353
330
18
100
AcDbEntity
  8
0
100
AcDbLine
 10
1.707
 20
4.547
 30
0.0
 11
1.662
 21
4.607
 31
0.0
  0
LINE
  5
354
330
18
100
AcDbEntity
  8
0
100
AcDbLine
 10
1.707
 20
4.756
 30
0.0
 11
1.662
 21
4.816
 31
0.0
  0
LINE
  5
355
330
18
100
AcDbEntity
  8
0
100
AcDbLine
 10
1.707
 20
4.962
 30
0.0
 11
1.662
 21
5.022
 31
0.0
  0
LINE
  5
356
330
18
100
AcDbEntity
  8
0
100
AcDbLine
 10
1.707
 20
5.172000000000001
 30
0.0
 11
1.662
 21
5.232
 31
0.0
  0
LINE
  5
357
330
18
100
AcDbEntity
  8
0
100
AcDbLine
 10
1.707
 20
5.381
 30
0.0
 11
1.662
 21
5.441
 31
0.0
  0
LINE
  5
358
330
18
100
AcDbEntity
  8
0
100
AcDbLine
 10
2.017
 20
5.495
 30
0.0
 11
1.973
 21
5.555
 31
0.0
  0
LINE
  5
359
330
18
100
AcDbEntity
  8
0
100
AcDbLine
 10
2.328
 20
5.608
 30
0.0
 11
2.284
 21
5.667999999999999
 31
0.0
  0
LINE
  5
35A
330
18
100
AcDbEntity
  8
0
100
AcDbLine
 10
2.639
 20
5.722
 30
0.0
 11
2.595
 21
5.782
 31
0.0
  0
LINE
  5
35B
330
18
100
AcDbEntity
  8
0
100
AcDbLine
 10
2.795
 20
5.678
 30
0.0
 11
2.751
 21
5.738
 31
0.0
  0
LINE
  5
35C
330
18
100
AcDbEntity
  8
0
100
AcDbLine
 10
2.484
 20
5.568
 30
0.0
 11
2.44
 21
5.627999999999999
 31
0.0
  0
LINE
  5
35D
330
18
100
AcDbEntity
  8
0
100
AcDbLine
 10
1.862
 20
5.341
 30
0.0
 11
1.818
 21
5.401
 31
0.0
  0
LINE
  5
35E
330
18
100
AcDbEntity
  8
0
100
AcDbLine
 10
2.017
 20
5.285
 30
0.0
 11
1.973
 21
5.345
 31
0.0
  0
LINE
  5
35F
330
18
100
AcDbEntity
  8
0
100
AcDbLine
 10
2.328
 20
5.399
 30
0.0
 11
2.284
 21
5.459
 31
0.0
  0
LINE
  5
360
330
18
100
AcDbEntity
  8
0
100
AcDbLine
 10
2.639
 20
5.513
 30
0.0
 11
2.595
 21
5.572
 31
0.0
  0
LINE
  5
361
330
18
100
AcDbEntity
  8
0
100
AcDbLine
 10
2.795
 20
5.468
 30
0.0
 11
2.751
 21
5.528
 31
0.0
  0
LINE
  5
362
330
18
100
AcDbEntity
  8
0
100
AcDbLine
 10
2.484
 20
5.358
 30
0.0
 11
2.44
 21
5.417999999999999
 31
0.0
  0
LINE
  5
363
330
18
100
AcDbEntity
  8
0
100
AcDbLine
 10
2.173
 20
5.245
 30
0.0
 11
2.129
 21
5.305
 31
0.0
  0
LINE
  5
364
330
18
100
AcDbEntity
  8
0
100
AcDbLine
 10
1.862
 20
5.131
 30
0.0
 11
1.818
 21
5.191
 31
0.0
  0
LINE
  5
365
330
18
100
AcDbEntity
  8
0
100
AcDbLine
 10
2.017
 20
5.076000000000001
 30
0.0
 11
1.973
 21
5.136
 31
0.0
  0
LINE
  5
366
330
18
100
AcDbEntity
  8
0
100
AcDbLine
 10
2.328
 20
5.189
 30
0.0
 11
2.284
 21
5.249
 31
0.0
  0
LINE
  5
367
330
18
100
AcDbEntity
  8
0
100
AcDbLine
 10
2.639
 20
5.303
 30
0.0
 11
2.595
 21
5.363
 31
0.0
  0
LINE
  5
368
330
18
100
AcDbEntity
  8
0
100
AcDbLine
 10
2.795
 20
5.262000000000001
 30
0.0
 11
2.751
 21
5.322
 31
0.0
  0
LINE
  5
369
330
18
100
AcDbEntity
  8
0
100
AcDbLine
 10
2.484
 20
5.149
 30
0.0
 11
2.44
 21
5.209
 31
0.0
  0
LINE
  5
36A
330
18
100
AcDbEntity
  8
0
100
AcDbLine
 10
2.173
 20
5.035
 30
0.0
 11
2.129
 21
5.095
 31
0.0
  0
LINE
  5
36B
330
18
100
AcDbEntity
  8
0
100
AcDbLine
 10
1.862
 20
4.922
 30
0.0
 11
1.818
 21
4.982
 31
0.0
  0
LINE
  5
36C
330
18
100
AcDbEntity
  8
0
100
AcDbLine
 10
2.017
 20
4.87
 30
0.0
 11
1.973
 21
4.93
 31
0.0
  0
LINE
  5
36D
330
18
100
AcDbEntity
  8
0
100
AcDbLine
 10
2.328
 20
4.983000000000001
 30
0.0
 11
2.284
 21
5.043
 31
0.0
  0
LINE
  5
36E
330
18
100
AcDbEntity
  8
0
100
AcDbLine
 10
2.639
 20
5.097
 30
0.0
 11
2.595
 21
5.157
 31
0.0
  0
LINE
  5
36F
330
18
100
AcDbEntity
  8
0
100
AcDbLine
 10
2.795
 20
5.053
 30
0.0
 11
2.751
 21
5.113
 31
0.0
  0
LINE
  5
370
330
18
100
AcDbEntity
  8
0
100
AcDbLine
 10
2.484
 20
4.939
 30
0.0
 11
2.44
 21
4.999
 31
0.0
  0
LINE
  5
371
330
18
100
AcDbEntity
  8
0
100
AcDbLine
 10
2.173
 20
4.826000000000001
 30
0.0
 11
2.129
 21
4.886
 31
0.0
  0
LINE
  5
372
330
18
100
AcDbEntity
  8
0
100
AcDbLine
 10
1.862
 20
4.712
 30
0.0
 11
1.818
 21
4.772
 31
0.0
  0
LINE
  5
373
330
18
100
AcDbEntity
  8
0
100
AcDbLine
 10
2.017
 20
4.66
 30
0.0
 11
1.973
 21
4.72
 31
0.0
  0
LINE
  5
374
330
18
100
AcDbEntity
  8
0
100
AcDbLine
 10
2.328
 20
4.774
 30
0.0
 11
2.284
 21
4.834
 31
0.0
  0
LINE
  5
375
330
18
100
AcDbEntity
  8
0
100
AcDbLine
 10
2.639
 20
4.887
 30
0.0
 11
2.595
 21
4.947
 31
0.0
  0
LINE
  5
376
330
18
100
AcDbEntity
  8
0
100
AcDbLine
 10
2.795
 20
4.843
 30
0.0
 11
2.751
 21
4.903000000000001
 31
0.0
  0
LINE
  5
377
330
18
100
AcDbEntity
  8
0
100
AcDbLine
 10
2.484
 20
4.73
 30
0.0
 11
2.44
 21
4.79
 31
0.0
  0
LINE
  5
378
330
18
100
AcDbEntity
  8
0
100
AcDbLine
 10
2.173
 20
4.616000000000001
 30
0.0
 11
2.129
 21
4.676
 31
0.0
  0
LINE
  5
379
330
18
100
AcDbEntity
  8
0
100
AcDbLine
 10
1.862
 20
4.503
 30
0.0
 11
1.818
 21
4.563
 31
0.0
  0
LINE
  5
37A
330
18
100
AcDbEntity
  8
0
100
AcDbLine
 10
1.104
 20
5.183
 30
0.0
 11
1.146
 21
5.199
 31
0.0
  0
LINE
  5
37B
330
18
100
AcDbEntity
  8
0
100
AcDbLine
 10
1.104
 20
5.107
 30
0.0
 11
1.165
 21
5.129
 31
0.0
  0
LINE
  5
37C
330
18
100
AcDbEntity
  8
0
100
AcDbLine
 10
1.104
 20
5.107
 30
0.0
 11
1.104
 21
5.183
 31
0.0
  0
LWPOLYLINE
  5
37D
330
18
100
AcDbEntity
  8
0
100
AcDbPolyline
 90
       16
 70
     1
 43
0.0
 10
4.085
 20
4.741000000000001
 42
0.131
 10
4.093
 20
4.732
 42
0.107
 10
4.106
 20
4.725
 42
0.084
 10
4.122
 20
4.724
 42
0.073
 10
4.138999999999999
 20
4.728
 42
0.073
 10
4.155
 20
4.737
 42
0.084
 10
4.165
 20
4.749
 42
0.107
 10
4.17
 20
4.763
 42
0.131
 10
4.169
 20
4.775
 42
0.131
 10
4.161000000000001
 20
4.785
 42
0.107
 10
4.148
 20
4.791
 42
0.084
 10
4.132
 20
4.792
 42
0.073
 10
4.115
 20
4.788
 42
0.073
 10
4.099
 20
4.779
 42
0.084
 10
4.089
 20
4.768
 42
0.107
 10
4.084
 20
4.753
 42
0.131
  0
LWPOLYLINE
  5
390
330
18
100
AcDbEntity
  8
0
100
AcDbPolyline
 90
       10
 70
     0
 43
0.0
 10
4.092
 20
4.732
 42
0.127
 10
4.099
 20
4.723
 42
0.107
 10
4.113
 20
4.716
 42
0.084
 10
4.128
 20
4.715
 42
0.073
 10
4.146
 20
4.718999999999999
 42
0.073
 10
4.161000000000001
 20
4.728
 42
0.084
 10
4.172
 20
4.74
 42
0.107
 10
4.177
 20
4.754
 42
0.131
 10
4.175
 20
4.766
 42
0.123
 10
4.168
 20
4.775
 42
0.107
  0
LWPOLYLINE
  5
39D
330
18
100
AcDbEntity
  8
0
100
AcDbPolyline
 90
       16
 70
     1
 43
0.0
 10
4.391
 20
4.668
 42
0.131
 10
4.398
 20
4.658
 42
0.107
 10
4.412
 20
4.651
 42
0.084
 10
4.427
 20
4.65
 42
0.073
 10
4.445
 20
4.655
 42
0.073
 10
4.46
 20
4.664
 42
0.084
 10
4.471
 20
4.675
 42
0.107
 10
4.476
 20
4.689
 42
0.131
 10
4.474
 20
4.701000000000001
 42
0.131
 10
4.467
 20
4.711
 42
0.107
 10
4.454
 20
4.718
 42
0.084
 10
4.438
 20
4.718999999999999
 42
0.073
 10
4.421
 20
4.715
 42
0.073
 10
4.405
 20
4.706
 42
0.084
 10
4.395
 20
4.694
 42
0.107
 10
4.39
 20
4.68
 42
0.131
  0
LWPOLYLINE
  5
3B0
330
18
100
AcDbEntity
  8
0
100
AcDbPolyline
 90
       10
 70
     0
 43
0.0
 10
4.398
 20
4.659
 42
0.127
 10
4.405
 20
4.649
 42
0.107
 10
4.418
 20
4.642
 42
0.084
 10
4.434
 20
4.641
 42
0.073
 10
4.451000000000001
 20
4.646
 42
0.073
 10
4.467
 20
4.655
 42
0.084
 10
4.477
 20
4.666
 42
0.107
 10
4.483000000000001
 20
4.68
 42
0.131
 10
4.481
 20
4.692
 42
0.123
 10
4.474
 20
4.702
 42
0.107
  0
TEXT
  5
3BD
330
18
100
AcDbEntity
  8
0
100
AcDbText
 10
2.062
 20
1.57
 30
0.0
 40
0.175
  1
Simpson Strong-Tie
100
AcDbText
  0
ENDSEC
  0
SECTION
  2
OBJECTS
  0
DICTIONARY
  5
C
330
0
100
AcDbDictionary
281
     1
  3
ACAD_COLOR
350
3C3
  3
ACAD_GROUP
350
D
  3
ACAD_LAYOUT
350
15
  3
ACAD_MATERIAL
350
3C5
  3
ACAD_MLINESTYLE
350
12
  3
ACAD_PLOTSETTINGS
350
14
  3
ACAD_PLOTSTYLENAME
350
E
  3
ACDBHEADERROUNDTRIPXREC
350
3C2
  0
DICTIONARY
  5
3C3
102
{ACAD_REACTORS
330
C
102
}
330
C
100
AcDbDictionary
281
     1
  0
DICTIONARY
  5
D
102
{ACAD_REACTORS
330
C
102
}
330
C
100
AcDbDictionary
281
     1
  0
DICTIONARY
  5
15
102
{ACAD_REACTORS
330
C
102
}
330
C
100
AcDbDictionary
281
     1
  3
Layout1
350
17
  3
Model
350
19
  0
DICTIONARY
  5
3C5
102
{ACAD_REACTORS
330
C
102
}
330
C
100
AcDbDictionary
281
     1
  0
DICTIONARY
  5
12
102
{ACAD_REACTORS
330
C
102
}
330
C
100
AcDbDictionary
281
     1
  3
Standard
350
13
  0
DICTIONARY
  5
14
102
{ACAD_REACTORS
330
C
102
}
330
C
100
AcDbDictionary
281
     1
  0
ACDBDICTIONARYWDFLT
  5
E
102
{ACAD_REACTORS
330
C
102
}
330
C
100
AcDbDictionary
281
     1
  3
Normal
350
F
100
AcDbDictionaryWithDefault
340
F
  0
DICTIONARY
  5
3C2
102
{ACAD_REACTORS
330
C
102
}
330
C
100
AcDbDictionary
281
     1
  3
COLORDICT
350
3C4
  3
MATERIALDICT
350
3C6
  0
LAYOUT
  5
17
102
{ACAD_REACTORS
330
15
102
}
102
{ACAD_XDICTIONARY
360
3C7
102
}
330
15
100
AcDbPlotSettings
  1

  2

  4

  6

 40
0.0
 41
0.0
 42
0.0
 43
0.0
 44
0.0
 45
0.0
 46
0.0
 47
0.0
 48
0.0
 49
0.0
140
0.0
141
0.0
142
1.0
143
1.0
 70
   688
 72
     0
 73
     0
 74
     5
  7

 75
    16
147
1.0
148
0.0
149
0.0
100
AcDbLayout
  1
Layout1
 70
     1
 71
     1
 10
0.0
 20
0.0
 11
12.0
 21
9.0
 12
0.0
 22
0.0
 32
0.0
 14
1.000000000000000E+20
 24
1.000000000000000E+20
 34
1.000000000000000E+20
 15
-1.000000000000000E+20
 25
-1.000000000000000E+20
 35
-1.000000000000000E+20
146
0.0
 13
0.0
 23
0.0
 33
0.0
 16
1.0
 26
0.0
 36
0.0
 17
0.0
 27
1.0
 37
0.0
 76
     0
330
16
  0
LAYOUT
  5
19
102
{ACAD_REACTORS
330
15
102
}
102
{ACAD_XDICTIONARY
360
3C9
102
}
330
15
100
AcDbPlotSettings
  1

  2

  4

  6

 40
0.0
 41
0.0
 42
0.0
 43
0.0
 44
0.0
 45
0.0
 46
0.0
 47
0.0
 48
0.0
 49
0.0
140
0.0
141
0.0
142
1.0
143
1.0
 70
  1712
 72
     0
 73
     0
 74
     0
  7

 75
     0
147
1.0
148
0.0
149
0.0
100
AcDbLayout
  1
Model
 70
     1
 71
     0
 10
0.0
 20
0.0
 11
0.0
 21
0.0
 12
0.0
 22
0.0
 32
0.0
 14
0.0
 24
0.0
 34
0.0
 15
0.0
 25
0.0
 35
0.0
146
0.0
 13
0.0
 23
0.0
 33
0.0
 16
1.0
 26
0.0
 36
0.0
 17
0.0
 27
1.0
 37
0.0
 76
     0
330
18
  0
MLINESTYLE
  5
13
102
{ACAD_REACTORS
330
12
102
}
330
12
100
AcDbMlineStyle
  2
Standard
 70
     0
  3

 62
   256
 51
90.0
 52
90.0
 71
     2
 49
0.5
 62
   256
  6
BYLAYER
 49
-0.5
 62
   256
  6
BYLAYER
  0
ACDBPLACEHOLDER
  5
F
102
{ACAD_REACTORS
330
E
102
}
330
E
  0
XRECORD
  5
3C4
102
{ACAD_REACTORS
330
3C2
102
}
330
3C2
100
AcDbXrecord
340
3C3
  0
XRECORD
  5
3C6
102
{ACAD_REACTORS
330
3C2
102
}
330
3C2
100
AcDbXrecord
340
3C5
  0
DICTIONARY
  5
3C7
330
17
100
AcDbDictionary
280
     1
281
     1
  3
ACAD_XREC_ROUNDTRIP
360
3C8
  0
DICTIONARY
  5
3C9
330
19
100
AcDbDictionary
280
     1
281
     1
  3
ACAD_XREC_ROUNDTRIP
360
3CA
  0
XRECORD
  5
3C8
102
{ACAD_REACTORS
330
3C7
102
}
330
3C7
100
AcDbXrecord
102
SHADEPLOT
 70
     0
102
SHADEPLOTRESLEVEL
 70
     0
102
SHADEPLOTCUSTOMDPI
 70
     0
  0
XRECORD
  5
3CA
102
{ACAD_REACTORS
330
3C9
102
}
330
3C9
100
AcDbXrecord
102
SHADEPLOT
 70
 -8216
102
SHADEPLOTRESLEVEL
 70
 -8160
102
SHADEPLOTCUSTOMDPI
 70
 -8104
  0
ENDSEC
  0
EOF
