  0
SECTION
  2
HEADER
  9
$ACADVER
  1
AC1015
  9
$ACADMAINTVER
 70
     6
  9
$DWGCODEPAGE
  3
ASCII
  9
$INSBASE
 10
0.0
 20
0.0
 30
0.0
  9
$EXTMIN
 10
0.0
 20
0.448603
 30
0.0
  9
$EXTMAX
 10
6.231084047619045
 20
7.812
 30
0.0
  9
$LIMMIN
 10
0.0
 20
0.0
  9
$LIMMAX
 10
12.0
 20
9.0
  9
$ORTHOMODE
 70
     1
  9
$REGENMODE
 70
     1
  9
$FILLMODE
 70
     1
  9
$QTEXTMODE
 70
     0
  9
$MIRRTEXT
 70
     1
  9
$LTSCALE
 40
1.0
  9
$ATTMODE
 70
     1
  9
$TEXTSIZE
 40
0.2
  9
$TRACEWID
 40
0.05
  9
$TEXTSTYLE
  7
STANDARD
  9
$CLAYER
  8
0
  9
$CELTYPE
  6
ByLayer
  9
$CECOLOR
 62
   256
  9
$CELTSCALE
 40
1.0
  9
$DISPSILH
 70
     0
  9
$DIMSCALE
 40
1.0
  9
$DIMASZ
 40
0.18
  9
$DIMEXO
 40
0.063
  9
$DIMDLI
 40
0.38
  9
$DIMRND
 40
0.0
  9
$DIMDLE
 40
0.0
  9
$DIMEXE
 40
0.18
  9
$DIMTP
 40
0.0
  9
$DIMTM
 40
0.0
  9
$DIMTXT
 40
0.18
  9
$DIMCEN
 40
0.09
  9
$DIMTSZ
 40
0.0
  9
$DIMTOL
 70
     0
  9
$DIMLIM
 70
     0
  9
$DIMTIH
 70
     1
  9
$DIMTOH
 70
     1
  9
$DIMSE1
 70
     0
  9
$DIMSE2
 70
     0
  9
$DIMTAD
 70
     0
  9
$DIMZIN
 70
     0
  9
$DIMBLK
  1

  9
$DIMASO
 70
     0
  9
$DIMSHO
 70
     1
  9
$DIMPOST
  1

  9
$DIMAPOST
  1

  9
$DIMALT
 70
     0
  9
$DIMALTD
 70
     2
  9
$DIMALTF
 40
25.4
  9
$DIMLFAC
 40
1.0
  9
$DIMTOFL
 70
     0
  9
$DIMTVP
 40
0.0
  9
$DIMTIX
 70
     0
  9
$DIMSOXD
 70
     0
  9
$DIMSAH
 70
     0
  9
$DIMBLK1
  1

  9
$DIMBLK2
  1

  9
$DIMSTYLE
  2
Standard
  9
$DIMCLRD
 70
     0
  9
$DIMCLRE
 70
     0
  9
$DIMCLRT
 70
     0
  9
$DIMTFAC
 40
1.0
  9
$DIMGAP
 40
0.09
  9
$DIMJUST
 70
     0
  9
$DIMSD1
 70
     0
  9
$DIMSD2
 70
     0
  9
$DIMTOLJ
 70
     1
  9
$DIMTZIN
 70
     0
  9
$DIMALTZ
 70
     0
  9
$DIMALTTZ
 70
     0
  9
$DIMUPT
 70
     0
  9
$DIMDEC
 70
     4
  9
$DIMTDEC
 70
     4
  9
$DIMALTU
 70
     2
  9
$DIMALTTD
 70
     2
  9
$DIMTXSTY
  7
STANDARD
  9
$DIMAUNIT
 70
     0
  9
$DIMADEC
 70
     0
  9
$DIMALTRND
 40
0.0
  9
$DIMAZIN
 70
     0
  9
$DIMDSEP
 70
    46
  9
$DIMATFIT
 70
     3
  9
$DIMFRAC
 70
     0
  9
$DIMLDRBLK
  1

  9
$DIMLUNIT
 70
     2
  9
$DIMLWD
 70
    -2
  9
$DIMLWE
 70
    -2
  9
$DIMTMOVE
 70
     0
  9
$LUNITS
 70
     2
  9
$LUPREC
 70
     4
  9
$SKETCHINC
 40
0.1
  9
$FILLETRAD
 40
0.125
  9
$AUNITS
 70
     0
  9
$AUPREC
 70
     0
  9
$MENU
  1
acad
  9
$ELEVATION
 40
0.0
  9
$PELEVATION
 40
0.0
  9
$THICKNESS
 40
0.0
  9
$LIMCHECK
 70
     0
  9
$CHAMFERA
 40
0.0
  9
$CHAMFERB
 40
0.0
  9
$CHAMFERC
 40
1.0
  9
$CHAMFERD
 40
0.0
  9
$SKPOLY
 70
     0
  9
$TDCREATE
 40
2453955.561079248
  9
$TDUCREATE
 40
2453955.894412581
  9
$TDUPDATE
 40
2453955.602745926
  9
$TDUUPDATE
 40
2453955.894412593
  9
$TDINDWG
 40
0.0000000116
  9
$TDUSRTIMER
 40
0.0000000116
  9
$USRTIMER
 70
     1
  9
$ANGBASE
 50
0.0
  9
$ANGDIR
 70
     0
  9
$PDMODE
 70
     0
  9
$PDSIZE
 40
0.0
  9
$PLINEWID
 40
0.0
  9
$SPLFRAME
 70
     0
  9
$SPLINETYPE
 70
     6
  9
$SPLINESEGS
 70
     8
  9
$HANDSEED
  5
1BE
  9
$SURFTAB1
 70
     6
  9
$SURFTAB2
 70
     6
  9
$SURFTYPE
 70
     6
  9
$SURFU
 70
     6
  9
$SURFV
 70
     6
  9
$UCSBASE
  2

  9
$UCSNAME
  2

  9
$UCSORG
 10
0.0
 20
0.0
 30
0.0
  9
$UCSXDIR
 10
1.0
 20
0.0
 30
0.0
  9
$UCSYDIR
 10
0.0
 20
1.0
 30
0.0
  9
$UCSORTHOREF
  2

  9
$UCSORTHOVIEW
 70
     0
  9
$UCSORGTOP
 10
0.0
 20
0.0
 30
0.0
  9
$UCSORGBOTTOM
 10
0.0
 20
0.0
 30
0.0
  9
$UCSORGLEFT
 10
0.0
 20
0.0
 30
0.0
  9
$UCSORGRIGHT
 10
0.0
 20
0.0
 30
0.0
  9
$UCSORGFRONT
 10
0.0
 20
0.0
 30
0.0
  9
$UCSORGBACK
 10
0.0
 20
0.0
 30
0.0
  9
$PUCSBASE
  2

  9
$PUCSNAME
  2

  9
$PUCSORG
 10
0.0
 20
0.0
 30
0.0
  9
$PUCSXDIR
 10
1.0
 20
0.0
 30
0.0
  9
$PUCSYDIR
 10
0.0
 20
1.0
 30
0.0
  9
$PUCSORTHOREF
  2

  9
$PUCSORTHOVIEW
 70
     0
  9
$PUCSORGTOP
 10
0.0
 20
0.0
 30
0.0
  9
$PUCSORGBOTTOM
 10
0.0
 20
0.0
 30
0.0
  9
$PUCSORGLEFT
 10
0.0
 20
0.0
 30
0.0
  9
$PUCSORGRIGHT
 10
0.0
 20
0.0
 30
0.0
  9
$PUCSORGFRONT
 10
0.0
 20
0.0
 30
0.0
  9
$PUCSORGBACK
 10
0.0
 20
0.0
 30
0.0
  9
$USERI1
 70
     0
  9
$USERI2
 70
     0
  9
$USERI3
 70
     0
  9
$USERI4
 70
     0
  9
$USERI5
 70
     0
  9
$USERR1
 40
0.0
  9
$USERR2
 40
0.0
  9
$USERR3
 40
0.0
  9
$USERR4
 40
0.0
  9
$USERR5
 40
0.0
  9
$WORLDVIEW
 70
     1
  9
$SHADEDGE
 70
     3
  9
$SHADEDIF
 70
    70
  9
$TILEMODE
 70
     1
  9
$MAXACTVP
 70
    16
  9
$PINSBASE
 10
0.0
 20
0.0
 30
0.0
  9
$PLIMCHECK
 70
     0
  9
$PEXTMIN
 10
1.000000000000000E+20
 20
1.000000000000000E+20
 30
1.000000000000000E+20
  9
$PEXTMAX
 10
-1.000000000000000E+20
 20
-1.000000000000000E+20
 30
-1.000000000000000E+20
  9
$PLIMMIN
 10
0.0
 20
0.0
  9
$PLIMMAX
 10
12.0
 20
9.0
  9
$UNITMODE
 70
     0
  9
$VISRETAIN
 70
     0
  9
$PLINEGEN
 70
     0
  9
$PSLTSCALE
 70
     1
  9
$TREEDEPTH
 70
  3020
  9
$CMLSTYLE
  2
Standard
  9
$CMLJUST
 70
     0
  9
$CMLSCALE
 40
1.0
  9
$PROXYGRAPHICS
 70
     1
  9
$MEASUREMENT
 70
     0
  9
$CELWEIGHT
370
    -1
  9
$ENDCAPS
280
     0
  9
$JOINSTYLE
280
     0
  9
$LWDISPLAY
290
     0
  9
$INSUNITS
 70
     1
  9
$HYPERLINKBASE
  1

  9
$STYLESHEET
  1

  9
$XEDIT
290
     1
  9
$CEPSNTYPE
380
     0
  9
$PSTYLEMODE
290
     0
  9
$FINGERPRINTGUID
  2
{FAEB1C30-E019-11D5-929B-00C0DF256EC4}
  9
$VERSIONGUID
  2
{FAEB1C32-E019-11D5-929B-00C0DF256EC4}
  9
$EXTNAMES
290
     1
  9
$PSVPSCALE
 40
0.0
  9
$OLESTARTUP
290
     0
  0
ENDSEC
  0
SECTION
  2
CLASSES
  0
CLASS
  1
ACDBDICTIONARYWDFLT
  2
AcDbDictionaryWithDefault
  3
AutoCAD 2000
 90
        0
280
     0
281
     0
  0
CLASS
  1
ACDBPLACEHOLDER
  2
AcDbPlaceHolder
  3
ObjectDBX Classes
 90
        0
280
     0
281
     0
  0
CLASS
  1
LAYOUT
  2
AcDbLayout
  3
ObjectDBX Classes
 90
        0
280
     0
281
     0
  0
ENDSEC
  0
SECTION
  2
TABLES
  0
TABLE
  2
VPORT
  5
8
330
0
100
AcDbSymbolTable
 70
     2
  0
VPORT
  5
1E
330
8
100
AcDbSymbolTableRecord
100
AcDbViewportTableRecord
  2
*ACTIVE
 70
     0
 10
0.0
 20
0.0
 11
1.0
 21
1.0
 12
6.243341404358354
 22
4.5
 13
0.0
 23
0.0
 14
1.0
 24
1.0
 15
0.0
 25
0.0
 16
0.0
 26
0.0
 36
1.0
 17
0.0
 27
0.0
 37
0.0
 40
9.0
 41
0.7207678883071553
 42
50.0
 43
0.0
 44
0.0
 50
0.0
 51
0.0
 71
     0
 72
  2000
 73
     1
 74
     0
 75
     0
 76
     0
 77
     0
 78
     0
281
     0
 65
     1
110
0.0
120
0.0
130
0.0
111
1.0
121
0.0
131
0.0
112
0.0
122
1.0
132
0.0
 79
     0
146
0.0
  0
ENDTAB
  0
TABLE
  2
LTYPE
  5
5
330
0
100
AcDbSymbolTable
 70
     1
  0
LTYPE
  5
10
330
5
100
AcDbSymbolTableRecord
100
AcDbLinetypeTableRecord
  2
ByBlock
 70
     0
  3

 72
    65
 73
     0
 40
0.0
  0
LTYPE
  5
11
330
5
100
AcDbSymbolTableRecord
100
AcDbLinetypeTableRecord
  2
ByLayer
 70
     0
  3

 72
    65
 73
     0
 40
0.0
  0
LTYPE
  5
1B
330
5
100
AcDbSymbolTableRecord
100
AcDbLinetypeTableRecord
  2
CONTINUOUS
 70
     0
  3
Solid line
 72
    65
 73
     0
 40
0.0
  0
ENDTAB
  0
TABLE
  2
LAYER
  5
2
330
0
100
AcDbSymbolTable
 70
     1
  0
LAYER
  5
1C
330
2
100
AcDbSymbolTableRecord
100
AcDbLayerTableRecord
  2
0
 70
     0
 62
     7
  6
CONTINUOUS
370
    -3
390
F
  0
ENDTAB
  0
TABLE
  2
STYLE
  5
3
330
0
100
AcDbSymbolTable
 70
     1
  0
STYLE
  5
21
330
3
100
AcDbSymbolTableRecord
100
AcDbTextStyleTableRecord
  2
STANDARD
 70
     0
 40
0.0
 41
1.0
 50
0.0
 71
     0
 42
0.2
  3
romans
  4

  0
ENDTAB
  0
TABLE
  2
VIEW
  5
6
330
0
100
AcDbSymbolTable
 70
     1
  0
VIEW
  5
20
330
6
100
AcDbSymbolTableRecord
100
AcDbViewTableRecord
  2
1
 70
     0
 40
7.647
 10
4.883
 20
3.988
 41
9.766
 11
0.0
 21
0.0
 31
1.0
 12
0.0
 22
0.0
 32
0.0
 42
50.0
 43
0.0
 44
0.0
 50
0.0
 71
     0
281
     0
 72
     0
  0
ENDTAB
  0
TABLE
  2
UCS
  5
7
330
0
100
AcDbSymbolTable
 70
     0
  0
ENDTAB
  0
TABLE
  2
APPID
  5
9
330
0
100
AcDbSymbolTable
 70
     1
  0
APPID
  5
1F
330
9
100
AcDbSymbolTableRecord
100
AcDbRegAppTableRecord
  2
ACAD
 70
     0
  0
ENDTAB
  0
TABLE
  2
DIMSTYLE
  5
A
330
0
100
AcDbSymbolTable
 70
     1
100
AcDbDimStyleTable
  0
DIMSTYLE
105
22
330
A
100
AcDbSymbolTableRecord
100
AcDbDimStyleTableRecord
  2
Standard
 70
     0
  3

  4

340
21
  0
ENDTAB
  0
TABLE
  2
BLOCK_RECORD
  5
1
330
0
100
AcDbSymbolTable
 70
     0
  0
BLOCK_RECORD
  5
18
330
1
100
AcDbSymbolTableRecord
100
AcDbBlockTableRecord
  2
*Model_Space
340
19
  0
BLOCK_RECORD
  5
16
330
1
100
AcDbSymbolTableRecord
100
AcDbBlockTableRecord
  2
*Paper_Space
340
17
  0
ENDTAB
  0
ENDSEC
  0
SECTION
  2
BLOCKS
  0
BLOCK
  5
1B3
330
18
100
AcDbEntity
  8
0
100
AcDbBlockBegin
  2
*Model_Space
 70
     0
 10
0.0
 20
0.0
 30
0.0
  3
*Model_Space
  1

  4

  0
ENDBLK
  5
1B4
330
18
100
AcDbEntity
  8
0
100
AcDbBlockEnd
  0
BLOCK
  5
1B1
330
16
100
AcDbEntity
 67
     1
  8
0
100
AcDbBlockBegin
  2
*Paper_Space
 70
     0
 10
0.0
 20
0.0
 30
0.0
  3
*Paper_Space
  1

  4

  0
ENDBLK
  5
1B2
330
16
100
AcDbEntity
 67
     1
  8
0
100
AcDbBlockEnd
  0
ENDSEC
  0
SECTION
  2
ENTITIES
  0
LINE
  5
23
330
18
100
AcDbEntity
  8
0
100
AcDbLine
 10
1.336
 20
1.357
 30
0.0
 11
4.133
 21
4.233000000000001
 31
0.0
  0
LINE
  5
24
330
18
100
AcDbEntity
  8
0
100
AcDbLine
 10
0.194
 20
6.457000000000001
 30
0.0
 11
0.194
 21
7.59
 31
0.0
  0
LINE
  5
25
330
18
100
AcDbEntity
  8
0
100
AcDbLine
 10
0.194
 20
6.018
 30
0.0
 11
0.328
 21
6.152
 31
0.0
  0
LINE
  5
26
330
18
100
AcDbEntity
  8
0
100
AcDbLine
 10
0.328
 20
6.152
 30
0.0
 11
0.078
 21
6.34
 31
0.0
  0
LINE
  5
27
330
18
100
AcDbEntity
  8
0
100
AcDbLine
 10
0.078
 20
6.34
 30
0.0
 11
0.194
 21
6.457000000000001
 31
0.0
  0
LINE
  5
28
330
18
100
AcDbEntity
  8
0
100
AcDbLine
 10
1.837
 20
4.36
 30
0.0
 11
1.781
 21
4.356
 31
0.0
  0
LINE
  5
29
330
18
100
AcDbEntity
  8
0
100
AcDbLine
 10
1.862
 20
4.398
 30
0.0
 11
1.837
 21
4.36
 31
0.0
  0
LINE
  5
2A
330
18
100
AcDbEntity
  8
0
100
AcDbLine
 10
1.832
 20
4.441
 30
0.0
 11
1.862
 21
4.398
 31
0.0
  0
LINE
  5
2B
330
18
100
AcDbEntity
  8
0
100
AcDbLine
 10
1.776
 20
4.438
 30
0.0
 11
1.832
 21
4.441
 31
0.0
  0
LINE
  5
2C
330
18
100
AcDbEntity
  8
0
100
AcDbLine
 10
1.75
 20
4.391
 30
0.0
 11
1.776
 21
4.438
 31
0.0
  0
LINE
  5
2D
330
18
100
AcDbEntity
  8
0
100
AcDbLine
 10
1.781
 20
4.356
 30
0.0
 11
1.75
 21
4.391
 31
0.0
  0
LWPOLYLINE
  5
2E
330
18
100
AcDbEntity
  8
0
100
AcDbPolyline
 90
        3
 70
     0
 43
0.0
 10
1.889
 20
4.372
 42
0.117
 10
1.883
 20
4.396
 42
0.209
 10
1.84
 20
4.43
 42
0.09
  0
LWPOLYLINE
  5
34
330
18
100
AcDbEntity
  8
0
100
AcDbPolyline
 90
       11
 70
     0
 43
0.0
 10
1.77
 20
4.426
 42
0.184
 10
1.735
 20
4.392
 42
0.117
 10
1.73
 20
4.368
 42
0.117
 10
1.736
 20
4.343
 42
0.104
 10
1.754
 20
4.322
 42
0.09
 10
1.78
 20
4.308
 42
0.083
 10
1.811
 20
4.303999999999999
 42
0.083
 10
1.842
 20
4.31
 42
0.09
 10
1.867
 20
4.324
 42
0.104
 10
1.884
 20
4.347
 42
0.117
 10
1.889
 20
4.372
 42
0.117
  0
LWPOLYLINE
  5
42
330
18
100
AcDbEntity
  8
0
100
AcDbPolyline
 90
        2
 70
     0
 43
0.0
 10
1.781
 20
4.33
 10
1.751
 20
4.365
  0
LWPOLYLINE
  5
47
330
18
100
AcDbEntity
  8
0
100
AcDbPolyline
 90
        3
 70
     0
 43
0.0
 10
1.862
 20
4.372
 10
1.837
 20
4.333
 10
1.781
 20
4.33
  0
LINE
  5
4D
330
18
100
AcDbEntity
  8
0
100
AcDbLine
 10
1.75
 20
4.391
 30
0.0
 11
1.751
 21
4.365
 31
0.0
  0
LINE
  5
4E
330
18
100
AcDbEntity
  8
0
100
AcDbLine
 10
1.862
 20
4.398
 30
0.0
 11
1.862
 21
4.372
 31
0.0
  0
LINE
  5
4F
330
18
100
AcDbEntity
  8
0
100
AcDbLine
 10
1.837
 20
4.36
 30
0.0
 11
1.837
 21
4.333
 31
0.0
  0
LINE
  5
50
330
18
100
AcDbEntity
  8
0
100
AcDbLine
 10
1.781
 20
4.356
 30
0.0
 11
1.781
 21
4.33
 31
0.0
  0
LWPOLYLINE
  5
51
330
18
100
AcDbEntity
  8
0
100
AcDbPolyline
 90
       16
 70
     1
 43
0.0
 10
2.604
 20
4.939
 42
0.11
 10
2.596
 20
4.931
 42
0.102
 10
2.591
 20
4.919
 42
0.094
 10
2.592
 20
4.907
 42
0.088
 10
2.597
 20
4.894
 42
0.088
 10
2.606
 20
4.884
 42
0.094
 10
2.617
 20
4.878
 42
0.102
 10
2.629
 20
4.877
 42
0.11
 10
2.641
 20
4.881
 42
0.11
 10
2.649
 20
4.888999999999999
 42
0.102
 10
2.653
 20
4.901
 42
0.094
 10
2.653
 20
4.914
 42
0.088
 10
2.648
 20
4.926
 42
0.088
 10
2.639
 20
4.936
 42
0.094
 10
2.628
 20
4.942
 42
0.102
 10
2.615
 20
4.943000000000001
 42
0.11
  0
LWPOLYLINE
  5
64
330
18
100
AcDbEntity
  8
0
100
AcDbPolyline
 90
       16
 70
     1
 43
0.0
 10
2.332
 20
5.232
 42
0.11
 10
2.323
 20
5.224
 42
0.102
 10
2.319
 20
5.212000000000001
 42
0.094
 10
2.319
 20
5.2
 42
0.088
 10
2.324
 20
5.187
 42
0.088
 10
2.333
 20
5.177000000000001
 42
0.094
 10
2.344
 20
5.171
 42
0.102
 10
2.357
 20
5.17
 42
0.11
 10
2.368
 20
5.174
 42
0.11
 10
2.376
 20
5.182
 42
0.102
 10
2.381
 20
5.194
 42
0.094
 10
2.381
 20
5.207000000000001
 42
0.088
 10
2.376
 20
5.218999999999999
 42
0.088
 10
2.367
 20
5.229
 42
0.094
 10
2.355
 20
5.235
 42
0.102
 10
2.343
 20
5.236000000000001
 42
0.11
  0
LINE
  5
77
330
18
100
AcDbEntity
  8
0
100
AcDbLine
 10
1.391
 20
1.251
 30
0.0
 11
4.266
 21
4.206
 31
0.0
  0
ARC
  5
78
330
18
100
AcDbEntity
  8
0
100
AcDbCircle
 10
1.275
 20
2.931
 30
0.0
 40
0.125
100
AcDbArc
 50
79.637
 51
180.0
  0
LINE
  5
79
330
18
100
AcDbEntity
  8
0
100
AcDbLine
 10
0.69
 20
2.108
 30
0.0
 11
0.9359999999999999
 21
2.045
 31
0.0
  0
LINE
  5
7A
330
18
100
AcDbEntity
  8
0
100
AcDbLine
 10
0.904
 20
1.809
 30
0.0
 11
1.065
 21
2.046
 31
0.0
  0
ARC
  5
7B
330
18
100
AcDbEntity
  8
0
100
AcDbCircle
 10
0.8040000000000001
 20
1.247
 30
0.0
 40
0.1
100
AcDbArc
 50
261.9
 51
0.0
  0
LINE
  5
7C
330
18
100
AcDbEntity
  8
0
100
AcDbLine
 10
0.194
 20
5.068000000000001
 30
0.0
 11
0.194
 21
6.018
 31
0.0
  0
LINE
  5
7D
330
18
100
AcDbEntity
  8
0
100
AcDbLine
 10
0.251
 20
7.669
 30
0.0
 11
0.662
 21
7.811
 31
0.0
  0
ARC
  5
7E
330
18
100
AcDbEntity
  8
0
100
AcDbCircle
 10
0.278
 20
7.59
 30
0.0
 40
0.084
100
AcDbArc
 50
109.009
 51
180.0
  0
LINE
  5
7F
330
18
100
AcDbEntity
  8
0
100
AcDbLine
 10
0.674
 20
7.812
 30
0.0
 11
5.547000000000001
 21
7.191
 31
0.0
  0
LINE
  5
80
330
18
100
AcDbEntity
  8
0
100
AcDbLine
 10
5.251
 20
6.955
 30
0.0
 11
5.251
 21
5.866000000000001
 31
0.0
  0
ARC
  5
81
330
18
100
AcDbEntity
  8
0
100
AcDbCircle
 10
5.303
 20
4.045
 30
0.0
 40
0.051
100
AcDbArc
 50
180.0
 51
289.009
  0
LINE
  5
82
330
18
100
AcDbEntity
  8
0
100
AcDbLine
 10
5.273
 20
4.004
 30
0.0
 11
3.348
 21
4.391
 31
0.0
  0
ARC
  5
83
330
18
100
AcDbEntity
  8
0
100
AcDbCircle
 10
0.246
 20
5.068000000000001
 30
0.0
 40
0.051
100
AcDbArc
 50
180.0
 51
258.616
  0
LINE
  5
84
330
18
100
AcDbEntity
  8
0
100
AcDbLine
 10
5.319
 20
3.997
 30
0.0
 11
5.562
 21
4.292
 31
0.0
  0
LINE
  5
85
330
18
100
AcDbEntity
  8
0
100
AcDbLine
 10
5.271
 20
6.996
 30
0.0
 11
5.518
 21
7.188
 31
0.0
  0
ARC
  5
86
330
18
100
AcDbEntity
  8
0
100
AcDbCircle
 10
5.303
 20
6.955
 30
0.0
 40
0.051
100
AcDbArc
 50
127.855
 51
180.0
  0
LINE
  5
87
330
18
100
AcDbEntity
  8
0
100
AcDbLine
 10
0.21
 20
7.638
 30
0.0
 11
5.257000000000001
 21
6.978
 31
0.0
  0
LINE
  5
88
330
18
100
AcDbEntity
  8
0
100
AcDbLine
 10
5.562
 20
7.019
 30
0.0
 11
5.562
 21
7.166
 31
0.0
  0
LINE
  5
89
330
18
100
AcDbEntity
  8
0
100
AcDbLine
 10
5.314
 20
6.938
 30
0.0
 11
5.314
 21
5.928999999999999
 31
0.0
  0
LINE
  5
8A
330
18
100
AcDbEntity
  8
0
100
AcDbLine
 10
5.324
 20
6.957000000000001
 30
0.0
 11
5.497000000000001
 21
7.092000000000001
 31
0.0
  0
ARC
  5
8B
330
18
100
AcDbEntity
  8
0
100
AcDbCircle
 10
5.339
 20
6.938
 30
0.0
 40
0.025
100
AcDbArc
 50
127.855
 51
180.0
  0
LINE
  5
8C
330
18
100
AcDbEntity
  8
0
100
AcDbLine
 10
5.499
 20
6.97
 30
0.0
 11
5.499
 21
7.091
 31
0.0
  0
ARC
  5
8D
330
18
100
AcDbEntity
  8
0
100
AcDbCircle
 10
5.497999999999999
 20
7.091
 30
0.0
 40
0.001
100
AcDbArc
 50
0.0
 51
127.855
  0
ARC
  5
8E
330
18
100
AcDbEntity
  8
0
100
AcDbCircle
 10
5.535
 20
7.166
 30
0.0
 40
0.027
100
AcDbArc
 50
0.0
 51
127.855
  0
ARC
  5
8F
330
18
100
AcDbEntity
  8
0
100
AcDbCircle
 10
0.6709999999999999
 20
7.785
 30
0.0
 40
0.027
100
AcDbArc
 50
82.738
 51
109.009
  0
LINE
  5
90
330
18
100
AcDbEntity
  8
0
100
AcDbLine
 10
5.499
 20
6.97
 30
0.0
 11
5.562
 21
7.019
 31
0.0
  0
LINE
  5
91
330
18
100
AcDbEntity
  8
0
100
AcDbLine
 10
5.499
 20
4.468999999999999
 30
0.0
 11
5.499
 21
4.315
 31
0.0
  0
LINE
  5
92
330
18
100
AcDbEntity
  8
0
100
AcDbLine
 10
5.562
 20
4.545
 30
0.0
 11
5.562
 21
4.292
 31
0.0
  0
LINE
  5
93
330
18
100
AcDbEntity
  8
0
100
AcDbLine
 10
5.499
 20
4.468999999999999
 30
0.0
 11
5.562
 21
4.545
 31
0.0
  0
LINE
  5
94
330
18
100
AcDbEntity
  8
0
100
AcDbLine
 10
5.316
 20
4.092
 30
0.0
 11
5.499
 21
4.314
 31
0.0
  0
ARC
  5
95
330
18
100
AcDbEntity
  8
0
100
AcDbCircle
 10
5.315
 20
4.093
 30
0.0
 40
0.001
100
AcDbArc
 50
180.0
 51
320.57
  0
ARC
  5
96
330
18
100
AcDbEntity
  8
0
100
AcDbCircle
 10
5.497999999999999
 20
4.315
 30
0.0
 40
0.001
100
AcDbArc
 50
320.57
 51
0.0
  0
LINE
  5
97
330
18
100
AcDbEntity
  8
0
100
AcDbLine
 10
5.499
 20
4.314
 30
0.0
 11
5.314
 21
4.352
 31
0.0
  0
LINE
  5
98
330
18
100
AcDbEntity
  8
0
100
AcDbLine
 10
5.499
 20
4.468999999999999
 30
0.0
 11
5.314
 21
4.506
 31
0.0
  0
LINE
  5
99
330
18
100
AcDbEntity
  8
0
100
AcDbLine
 10
5.562
 20
4.545
 30
0.0
 11
5.314
 21
4.595
 31
0.0
  0
LINE
  5
9A
330
18
100
AcDbEntity
  8
0
100
AcDbLine
 10
5.363
 20
6.988
 30
0.0
 11
5.499
 21
6.97
 31
0.0
  0
LINE
  5
9B
330
18
100
AcDbEntity
  8
0
100
AcDbLine
 10
0.099
 20
3.557
 30
0.0
 11
2.106
 21
3.046
 31
0.0
  0
LINE
  5
9C
330
18
100
AcDbEntity
  8
0
100
AcDbLine
 10
0.099
 20
3.557
 30
0.0
 11
1.381
 21
4.487
 31
0.0
  0
LINE
  5
9D
330
18
100
AcDbEntity
  8
0
100
AcDbLine
 10
2.106
 20
3.046
 30
0.0
 11
3.546
 21
4.351
 31
0.0
  0
LINE
  5
9E
330
18
100
AcDbEntity
  8
0
100
AcDbLine
 10
2.106
 20
3.046
 30
0.0
 11
2.106
 21
2.906
 31
0.0
  0
LINE
  5
9F
330
18
100
AcDbEntity
  8
0
100
AcDbLine
 10
2.106
 20
2.906
 30
0.0
 11
3.672
 21
4.326000000000001
 31
0.0
  0
LINE
  5
A0
330
18
100
AcDbEntity
  8
0
100
AcDbLine
 10
0.099
 20
3.557
 30
0.0
 11
0.099
 21
3.417
 31
0.0
  0
LINE
  5
A1
330
18
100
AcDbEntity
  8
0
100
AcDbLine
 10
0.904
 20
2.424
 30
0.0
 11
0.904
 21
3.024
 31
0.0
  0
LINE
  5
A2
330
18
100
AcDbEntity
  8
0
100
AcDbLine
 10
1.15
 20
2.361
 30
0.0
 11
1.15
 21
2.931
 31
0.0
  0
LINE
  5
A3
330
18
100
AcDbEntity
  8
0
100
AcDbLine
 10
2.106
 20
2.906
 30
0.0
 11
1.297
 21
3.054
 31
0.0
  0
LINE
  5
A4
330
18
100
AcDbEntity
  8
0
100
AcDbLine
 10
0.904
 20
2.424
 30
0.0
 11
1.15
 21
2.361
 31
0.0
  0
LINE
  5
A5
330
18
100
AcDbEntity
  8
0
100
AcDbLine
 10
0.79
 20
3.183
 30
0.0
 11
0.099
 21
3.417
 31
0.0
  0
ARC
  5
A6
330
18
100
AcDbEntity
  8
0
100
AcDbCircle
 10
0.737
 20
3.024
 30
0.0
 40
0.168
100
AcDbArc
 50
0.0
 51
71.292
  0
LINE
  5
A7
330
18
100
AcDbEntity
  8
0
100
AcDbLine
 10
0.904
 20
2.424
 30
0.0
 11
0.69
 21
2.108
 31
0.0
  0
LINE
  5
A8
330
18
100
AcDbEntity
  8
0
100
AcDbLine
 10
0.9359999999999999
 20
2.045
 30
0.0
 11
1.15
 21
2.361
 31
0.0
  0
LINE
  5
A9
330
18
100
AcDbEntity
  8
0
100
AcDbLine
 10
0.9359999999999999
 20
2.045
 30
0.0
 11
1.354
 21
2.049
 31
0.0
  0
LINE
  5
AA
330
18
100
AcDbEntity
  8
0
100
AcDbLine
 10
1.15
 20
1.747
 30
0.0
 11
1.354
 21
2.049
 31
0.0
  0
LINE
  5
AB
330
18
100
AcDbEntity
  8
0
100
AcDbLine
 10
1.15
 20
1.747
 30
0.0
 11
1.15
 21
1.19
 31
0.0
  0
LINE
  5
AC
330
18
100
AcDbEntity
  8
0
100
AcDbLine
 10
0.904
 20
1.809
 30
0.0
 11
0.904
 21
1.247
 31
0.0
  0
LINE
  5
AD
330
18
100
AcDbEntity
  8
0
100
AcDbLine
 10
0.904
 20
1.809
 30
0.0
 11
1.15
 21
1.747
 31
0.0
  0
LINE
  5
AE
330
18
100
AcDbEntity
  8
0
100
AcDbLine
 10
0.099
 20
1.106
 30
0.0
 11
2.106
 21
0.594
 31
0.0
  0
LINE
  5
AF
330
18
100
AcDbEntity
  8
0
100
AcDbLine
 10
2.106
 20
0.7340000000000001
 30
0.0
 11
2.106
 21
0.594
 31
0.0
  0
LINE
  5
B0
330
18
100
AcDbEntity
  8
0
100
AcDbLine
 10
0.099
 20
1.246
 30
0.0
 11
0.099
 21
1.106
 31
0.0
  0
LINE
  5
B1
330
18
100
AcDbEntity
  8
0
100
AcDbLine
 10
2.106
 20
0.7340000000000001
 30
0.0
 11
1.262
 21
1.031
 31
0.0
  0
LINE
  5
B2
330
18
100
AcDbEntity
  8
0
100
AcDbLine
 10
0.099
 20
1.246
 30
0.0
 11
0.79
 21
1.148
 31
0.0
  0
ARC
  5
B3
330
18
100
AcDbEntity
  8
0
100
AcDbCircle
 10
1.317
 20
1.19
 30
0.0
 40
0.168
100
AcDbArc
 50
180.0
 51
250.627
  0
LINE
  5
B4
330
18
100
AcDbEntity
  8
0
100
AcDbLine
 10
0.099
 20
1.246
 30
0.0
 11
0.8129999999999999
 21
2.078
 31
0.0
  0
LINE
  5
B5
330
18
100
AcDbEntity
  8
0
100
AcDbLine
 10
2.106
 20
0.7340000000000001
 30
0.0
 11
4.996
 21
4.059
 31
0.0
  0
LINE
  5
B6
330
18
100
AcDbEntity
  8
0
100
AcDbLine
 10
2.106
 20
0.594
 30
0.0
 11
5.1
 21
4.038
 31
0.0
  0
LINE
  5
B7
330
18
100
AcDbEntity
  8
0
100
AcDbLine
 10
1.299
 20
1.156
 30
0.0
 11
1.35
 21
1.208
 31
0.0
  0
LINE
  5
B8
330
18
100
AcDbEntity
  8
0
100
AcDbLine
 10
1.231
 20
1.25
 30
0.0
 11
1.296
 21
1.317
 31
0.0
  0
LINE
  5
B9
330
18
100
AcDbEntity
  8
0
100
AcDbLine
 10
6.189
 20
5.432
 30
0.0
 11
5.593
 21
5.641
 31
0.0
  0
LINE
  5
BA
330
18
100
AcDbEntity
  8
0
100
AcDbLine
 10
6.189
 20
5.432
 30
0.0
 11
6.189
 21
5.292000000000001
 31
0.0
  0
LINE
  5
BB
330
18
100
AcDbEntity
  8
0
100
AcDbLine
 10
5.537000000000001
 20
6.017
 30
0.0
 11
5.537000000000001
 21
5.72
 31
0.0
  0
ARC
  5
BC
330
18
100
AcDbEntity
  8
0
100
AcDbCircle
 10
5.621
 20
5.72
 30
0.0
 40
0.084
100
AcDbArc
 50
180.0
 51
250.627
  0
LINE
  5
BD
330
18
100
AcDbEntity
  8
0
100
AcDbLine
 10
5.542999999999999
 20
4.549
 30
0.0
 11
6.189
 21
5.292000000000001
 31
0.0
  0
LINE
  5
BE
330
18
100
AcDbEntity
  8
0
100
AcDbLine
 10
5.44
 20
4.57
 30
0.0
 11
6.189
 21
5.432
 31
0.0
  0
LINE
  5
BF
330
18
100
AcDbEntity
  8
0
100
AcDbLine
 10
5.314
 20
5.955
 30
0.0
 11
6.189
 21
6.747999999999999
 31
0.0
  0
LINE
  5
C0
330
18
100
AcDbEntity
  8
0
100
AcDbLine
 10
5.207999999999999
 20
5.718
 30
0.0
 11
6.189
 21
6.608
 31
0.0
  0
LINE
  5
C1
330
18
100
AcDbEntity
  8
0
100
AcDbLine
 10
5.314
 20
6.859
 30
0.0
 11
5.343999999999999
 21
6.855
 31
0.0
  0
LINE
  5
C2
330
18
100
AcDbEntity
  8
0
100
AcDbLine
 10
5.727
 20
6.807
 30
0.0
 11
5.677000000000001
 21
6.928999999999999
 31
0.0
  0
LINE
  5
C3
330
18
100
AcDbEntity
  8
0
100
AcDbLine
 10
5.677000000000001
 20
6.928999999999999
 30
0.0
 11
5.386
 21
6.752999999999999
 31
0.0
  0
LINE
  5
C4
330
18
100
AcDbEntity
  8
0
100
AcDbLine
 10
5.386
 20
6.752999999999999
 30
0.0
 11
5.343999999999999
 21
6.855
 31
0.0
  0
LINE
  5
C5
330
18
100
AcDbEntity
  8
0
100
AcDbLine
 10
5.727
 20
6.807
 30
0.0
 11
6.189
 21
6.747999999999999
 31
0.0
  0
LINE
  5
C6
330
18
100
AcDbEntity
  8
0
100
AcDbLine
 10
5.314
 20
5.284
 30
0.0
 11
5.569
 21
5.545
 31
0.0
  0
LINE
  5
C7
330
18
100
AcDbEntity
  8
0
100
AcDbLine
 10
5.314
 20
5.448
 30
0.0
 11
5.492000000000001
 21
5.63
 31
0.0
  0
LINE
  5
C8
330
18
100
AcDbEntity
  8
0
100
AcDbLine
 10
5.251
 20
5.427000000000001
 30
0.0
 11
5.354
 21
5.53
 31
0.0
  0
LINE
  5
C9
330
18
100
AcDbEntity
  8
0
100
AcDbLine
 10
5.354
 20
5.53
 30
0.0
 11
5.104
 21
5.718
 31
0.0
  0
LINE
  5
CA
330
18
100
AcDbEntity
  8
0
100
AcDbLine
 10
5.104
 20
5.718
 30
0.0
 11
5.314
 21
5.928999999999999
 31
0.0
  0
LINE
  5
CB
330
18
100
AcDbEntity
  8
0
100
AcDbLine
 10
5.354
 20
5.53
 30
0.0
 11
5.394
 21
5.579
 31
0.0
  0
LINE
  5
CC
330
18
100
AcDbEntity
  8
0
100
AcDbLine
 10
5.394
 20
5.579
 30
0.0
 11
5.149
 21
5.763
 31
0.0
  0
LINE
  5
CD
330
18
100
AcDbEntity
  8
0
100
AcDbLine
 10
5.251
 20
5.427000000000001
 30
0.0
 11
5.251
 21
4.045
 31
0.0
  0
LINE
  5
CE
330
18
100
AcDbEntity
  8
0
100
AcDbLine
 10
5.314
 20
5.49
 30
0.0
 11
5.314
 21
4.093
 31
0.0
  0
LINE
  5
CF
330
18
100
AcDbEntity
  8
0
100
AcDbLine
 10
6.189
 20
6.608
 30
0.0
 11
6.189
 21
6.747999999999999
 31
0.0
  0
LINE
  5
D0
330
18
100
AcDbEntity
  8
0
100
AcDbLine
 10
3.404
 20
4.443000000000001
 30
0.0
 11
3.404
 21
7.125
 31
0.0
  0
LINE
  5
D1
330
18
100
AcDbEntity
  8
0
100
AcDbLine
 10
1.38
 20
4.483000000000001
 30
0.0
 11
1.38
 21
7.093999999999999
 31
0.0
  0
LINE
  5
D2
330
18
100
AcDbEntity
  8
0
100
AcDbLine
 10
1.834
 20
7.332999999999999
 30
0.0
 11
3.401
 21
7.127999999999999
 31
0.0
  0
LINE
  5
D3
330
18
100
AcDbEntity
  8
0
100
AcDbLine
 10
1.382
 20
7.099
 30
0.0
 11
1.832
 21
7.332999999999999
 31
0.0
  0
LINE
  5
D4
330
18
100
AcDbEntity
  8
0
100
AcDbLine
 10
3.402
 20
7.122000000000001
 30
0.0
 11
3.048
 21
6.88
 31
0.0
  0
LINE
  5
D5
330
18
100
AcDbEntity
  8
0
100
AcDbLine
 10
1.384
 20
7.09
 30
0.0
 11
1.569
 21
7.066
 31
0.0
  0
LINE
  5
D6
330
18
100
AcDbEntity
  8
0
100
AcDbLine
 10
3.038
 20
6.876
 30
0.0
 11
3.038
 21
4.119
 31
0.0
  0
LINE
  5
D7
330
18
100
AcDbEntity
  8
0
100
AcDbLine
 10
3.056
 20
4.127
 30
0.0
 11
3.403
 21
4.441
 31
0.0
  0
LINE
  5
D8
330
18
100
AcDbEntity
  8
0
100
AcDbLine
 10
1.382
 20
4.481
 30
0.0
 11
1.569
 21
4.44
 31
0.0
  0
LINE
  5
D9
330
18
100
AcDbEntity
  8
0
100
AcDbLine
 10
1.569
 20
7.066
 30
0.0
 11
1.569
 21
4.44
 31
0.0
  0
LINE
  5
DA
330
18
100
AcDbEntity
  8
0
100
AcDbLine
 10
2.83
 20
4.163
 30
0.0
 11
2.83
 21
6.901
 31
0.0
  0
LINE
  5
DB
330
18
100
AcDbEntity
  8
0
100
AcDbLine
 10
1.843
 20
7.279
 30
0.0
 11
3.258
 21
7.093999999999999
 31
0.0
  0
LINE
  5
DC
330
18
100
AcDbEntity
  8
0
100
AcDbLine
 10
1.549
 20
7.127000000000001
 30
0.0
 11
1.841
 21
7.278
 31
0.0
  0
LINE
  5
DD
330
18
100
AcDbEntity
  8
0
100
AcDbLine
 10
1.55
 20
7.121
 30
0.0
 11
1.65
 21
7.108
 31
0.0
  0
LINE
  5
DE
330
18
100
AcDbEntity
  8
0
100
AcDbLine
 10
3.259
 20
7.087999999999999
 30
0.0
 11
3.026
 21
6.928999999999999
 31
0.0
  0
LINE
  5
DF
330
18
100
AcDbEntity
  8
0
100
AcDbLine
 10
1.569
 20
7.066
 30
0.0
 11
1.65
 21
7.108
 31
0.0
  0
LINE
  5
E0
330
18
100
AcDbEntity
  8
0
100
AcDbLine
 10
2.895
 20
6.945
 30
0.0
 11
2.83
 21
6.901
 31
0.0
  0
LINE
  5
E1
330
18
100
AcDbEntity
  8
0
100
AcDbLine
 10
2.895
 20
6.945
 30
0.0
 11
3.024
 21
6.928
 31
0.0
  0
ARC
  5
E2
330
18
100
AcDbEntity
  8
0
100
AcDbCircle
 10
1.833
 20
7.33
 30
0.0
 40
0.003
100
AcDbArc
 50
82.545
 51
117.418
  0
ARC
  5
E3
330
18
100
AcDbEntity
  8
0
100
AcDbCircle
 10
1.551
 20
7.124
 30
0.0
 40
0.003
100
AcDbArc
 50
117.418
 51
262.545
  0
ARC
  5
E4
330
18
100
AcDbEntity
  8
0
100
AcDbCircle
 10
1.843
 20
7.276
 30
0.0
 40
0.003
100
AcDbArc
 50
82.545
 51
117.418
  0
ARC
  5
E5
330
18
100
AcDbEntity
  8
0
100
AcDbCircle
 10
3.024
 20
6.931
 30
0.0
 40
0.003
100
AcDbArc
 50
262.545
 51
304.343
  0
ARC
  5
E6
330
18
100
AcDbEntity
  8
0
100
AcDbCircle
 10
3.258
 20
7.091
 30
0.0
 40
0.003
100
AcDbArc
 50
304.343
 51
82.545
  0
ARC
  5
E7
330
18
100
AcDbEntity
  8
0
100
AcDbCircle
 10
3.4
 20
7.125
 30
0.0
 40
0.003
100
AcDbArc
 50
304.343
 51
82.545
  0
LINE
  5
E8
330
18
100
AcDbEntity
  8
0
100
AcDbLine
 10
2.83
 20
6.901
 30
0.0
 11
3.026
 21
6.875
 31
0.0
  0
ARC
  5
E9
330
18
100
AcDbEntity
  8
0
100
AcDbCircle
 10
3.4
 20
4.443000000000001
 30
0.0
 40
0.003
100
AcDbArc
 50
312.202
 51
0.0
  0
ARC
  5
EA
330
18
100
AcDbEntity
  8
0
100
AcDbCircle
 10
3.03
 20
6.906000000000001
 30
0.0
 40
0.031
100
AcDbArc
 50
262.545
 51
304.343
  0
ARC
  5
EB
330
18
100
AcDbEntity
  8
0
100
AcDbCircle
 10
3.035
 20
4.15
 30
0.0
 40
0.031
100
AcDbArc
 50
257.623
 51
312.202
  0
LINE
  5
EC
330
18
100
AcDbEntity
  8
0
100
AcDbLine
 10
2.83
 20
4.163
 30
0.0
 11
3.029
 21
4.12
 31
0.0
  0
LINE
  5
ED
330
18
100
AcDbEntity
  8
0
100
AcDbLine
 10
1.65
 20
7.108
 30
0.0
 11
1.65
 21
4.482
 31
0.0
  0
LINE
  5
EE
330
18
100
AcDbEntity
  8
0
100
AcDbLine
 10
1.569
 20
4.44
 30
0.0
 11
1.65
 21
4.482
 31
0.0
  0
LINE
  5
EF
330
18
100
AcDbEntity
  8
0
100
AcDbLine
 10
1.97
 20
4.669
 30
0.0
 11
1.706
 21
4.722
 31
0.0
  0
ARC
  5
F0
330
18
100
AcDbEntity
  8
0
100
AcDbCircle
 10
1.383
 20
4.484
 30
0.0
 40
0.003
100
AcDbArc
 50
125.939
 51
257.623
  0
LINE
  5
F1
330
18
100
AcDbEntity
  8
0
100
AcDbLine
 10
1.65
 20
4.682
 30
0.0
 11
1.84
 21
4.819
 31
0.0
  0
ARC
  5
F2
330
18
100
AcDbEntity
  8
0
100
AcDbCircle
 10
1.385
 20
7.095
 30
0.0
 40
0.005
100
AcDbArc
 50
117.418
 51
262.545
  0
LINE
  5
F3
330
18
100
AcDbEntity
  8
0
100
AcDbLine
 10
2.554
 20
4.069
 30
0.0
 11
1.632
 21
4.255
 31
0.0
  0
LINE
  5
F4
330
18
100
AcDbEntity
  8
0
100
AcDbLine
 10
1.632
 20
4.255
 30
0.0
 11
1.6
 21
4.431
 31
0.0
  0
LINE
  5
F5
330
18
100
AcDbEntity
  8
0
100
AcDbLine
 10
1.842
 20
7.279
 30
0.0
 11
1.842
 21
4.824
 31
0.0
  0
ARC
  5
F6
330
18
100
AcDbEntity
  8
0
100
AcDbCircle
 10
1.837
 20
4.824
 30
0.0
 40
0.005
100
AcDbArc
 50
305.939
 51
0.0
  0
LINE
  5
F7
330
18
100
AcDbEntity
  8
0
100
AcDbLine
 10
1.973
 20
4.793
 30
0.0
 11
1.84
 21
4.819
 31
0.0
  0
LINE
  5
F8
330
18
100
AcDbEntity
  8
0
100
AcDbLine
 10
1.973
 20
4.678999999999999
 30
0.0
 11
1.973
 21
5.412000000000001
 31
0.0
  0
LINE
  5
F9
330
18
100
AcDbEntity
  8
0
100
AcDbLine
 10
1.973
 20
5.412000000000001
 30
0.0
 11
2.083
 21
5.481
 31
0.0
  0
LINE
  5
FA
330
18
100
AcDbEntity
  8
0
100
AcDbLine
 10
2.83
 20
5.33
 30
0.0
 11
2.083
 21
5.481
 31
0.0
  0
LINE
  5
FB
330
18
100
AcDbEntity
  8
0
100
AcDbLine
 10
2.83
 20
5.287000000000001
 30
0.0
 11
2.031
 21
5.448
 31
0.0
  0
ARC
  5
FC
330
18
100
AcDbEntity
  8
0
100
AcDbCircle
 10
1.952
 20
4.678999999999999
 30
0.0
 40
0.021
100
AcDbArc
 50
305.939
 51
0.0
  0
LINE
  5
FD
330
18
100
AcDbEntity
  8
0
100
AcDbLine
 10
2.554
 20
4.026
 30
0.0
 11
1.632
 21
4.212
 31
0.0
  0
LINE
  5
FE
330
18
100
AcDbEntity
  8
0
100
AcDbLine
 10
1.632
 20
4.255
 30
0.0
 11
1.632
 21
4.212
 31
0.0
  0
LINE
  5
FF
330
18
100
AcDbEntity
  8
0
100
AcDbLine
 10
1.632
 20
4.212
 30
0.0
 11
1.6
 21
4.388999999999999
 31
0.0
  0
LINE
  5
100
330
18
100
AcDbEntity
  8
0
100
AcDbLine
 10
2.554
 20
4.069
 30
0.0
 11
2.554
 21
4.026
 31
0.0
  0
LINE
  5
101
330
18
100
AcDbEntity
  8
0
100
AcDbLine
 10
2.554
 20
4.069
 30
0.0
 11
2.733
 21
4.136
 31
0.0
  0
LINE
  5
102
330
18
100
AcDbEntity
  8
0
100
AcDbLine
 10
2.733
 20
4.136
 30
0.0
 11
2.83
 21
4.206
 31
0.0
  0
LINE
  5
103
330
18
100
AcDbEntity
  8
0
100
AcDbLine
 10
2.554
 20
4.026
 30
0.0
 11
2.733
 21
4.093
 31
0.0
  0
LINE
  5
104
330
18
100
AcDbEntity
  8
0
100
AcDbLine
 10
2.733
 20
4.136
 30
0.0
 11
2.733
 21
4.093
 31
0.0
  0
LINE
  5
105
330
18
100
AcDbEntity
  8
0
100
AcDbLine
 10
2.733
 20
4.093
 30
0.0
 11
2.83
 21
4.163
 31
0.0
  0
LINE
  5
106
330
18
100
AcDbEntity
  8
0
100
AcDbLine
 10
1.6
 20
4.431
 30
0.0
 11
1.6
 21
4.388999999999999
 31
0.0
  0
LINE
  5
107
330
18
100
AcDbEntity
  8
0
100
AcDbLine
 10
1.6
 20
4.431
 30
0.0
 11
1.964
 21
4.662
 31
0.0
  0
LINE
  5
108
330
18
100
AcDbEntity
  8
0
100
AcDbLine
 10
2.83
 20
4.517
 30
0.0
 11
2.009
 21
4.682
 31
0.0
  0
LINE
  5
109
330
18
100
AcDbEntity
  8
0
100
AcDbLine
 10
2.83
 20
4.474
 30
0.0
 11
1.987
 21
4.644
 31
0.0
  0
LINE
  5
10A
330
18
100
AcDbEntity
  8
0
100
AcDbLine
 10
1.38
 20
4.787
 30
0.0
 11
0.236
 21
5.018
 31
0.0
  0
LWPOLYLINE
  5
10B
330
18
100
AcDbEntity
  8
0
100
AcDbPolyline
 90
        6
 70
     1
 43
0.0
 10
2.137
 20
5.181
 10
2.174
 20
5.223
 10
2.156
 20
5.275
 10
2.101
 20
5.286000000000001
 10
2.065
 20
5.245
 10
2.082
 20
5.192
  0
LINE
  5
114
330
18
100
AcDbEntity
  8
0
100
AcDbLine
 10
2.137
 20
5.181
 30
0.0
 11
2.164
 21
5.195
 31
0.0
  0
LINE
  5
115
330
18
100
AcDbEntity
  8
0
100
AcDbLine
 10
2.174
 20
5.223
 30
0.0
 11
2.201
 21
5.237
 31
0.0
  0
LINE
  5
116
330
18
100
AcDbEntity
  8
0
100
AcDbLine
 10
2.156
 20
5.275
 30
0.0
 11
2.183
 21
5.29
 31
0.0
  0
LINE
  5
117
330
18
100
AcDbEntity
  8
0
100
AcDbLine
 10
2.101
 20
5.286000000000001
 30
0.0
 11
2.129
 21
5.301
 31
0.0
  0
LINE
  5
118
330
18
100
AcDbEntity
  8
0
100
AcDbLine
 10
2.129
 20
5.301
 30
0.0
 11
2.183
 21
5.29
 31
0.0
  0
LINE
  5
119
330
18
100
AcDbEntity
  8
0
100
AcDbLine
 10
2.183
 20
5.29
 30
0.0
 11
2.201
 21
5.237
 31
0.0
  0
LINE
  5
11A
330
18
100
AcDbEntity
  8
0
100
AcDbLine
 10
2.201
 20
5.237
 30
0.0
 11
2.164
 21
5.195
 31
0.0
  0
LWPOLYLINE
  5
11B
330
18
100
AcDbEntity
  8
0
100
AcDbPolyline
 90
       11
 70
     0
 43
0.0
 10
2.108
 20
5.188
 42
0.102
 10
2.129
 20
5.171
 42
0.117
 10
2.154
 20
5.165
 42
0.117
 10
2.178
 20
5.171
 42
0.104
 10
2.2
 20
5.189
 42
0.09
 10
2.215
 20
5.214
 42
0.083
 10
2.22
 20
5.245
 42
0.083
 10
2.215
 20
5.276
 42
0.09
 10
2.2
 20
5.301
 42
0.104
 10
2.178
 20
5.319
 42
0.117
 10
2.154
 20
5.325
 42
0.117
  0
LWPOLYLINE
  5
129
330
18
100
AcDbEntity
  8
0
100
AcDbPolyline
 90
        3
 70
     0
 43
0.0
 10
2.154
 20
5.325
 42
0.117
 10
2.129
 20
5.319
 42
0.198
 10
2.095
 20
5.28
 42
0.09
  0
LINE
  5
12F
330
18
100
AcDbEntity
  8
0
100
AcDbLine
 10
2.765
 20
4.385
 30
0.0
 11
2.765
 21
4.415
 31
0.0
  0
LINE
  5
130
330
18
100
AcDbEntity
  8
0
100
AcDbLine
 10
2.827
 20
4.311
 30
0.0
 11
2.83
 21
4.314
 31
0.0
  0
LINE
  5
131
330
18
100
AcDbEntity
  8
0
100
AcDbLine
 10
2.775
 20
4.33
 30
0.0
 11
2.827
 21
4.311
 31
0.0
  0
LINE
  5
132
330
18
100
AcDbEntity
  8
0
100
AcDbLine
 10
2.765
 20
4.385
 30
0.0
 11
2.775
 21
4.33
 31
0.0
  0
LINE
  5
133
330
18
100
AcDbEntity
  8
0
100
AcDbLine
 10
2.775
 20
4.33
 30
0.0
 11
2.775
 21
4.361000000000001
 31
0.0
  0
LINE
  5
134
330
18
100
AcDbEntity
  8
0
100
AcDbLine
 10
2.827
 20
4.311
 30
0.0
 11
2.827
 21
4.342
 31
0.0
  0
LWPOLYLINE
  5
135
330
18
100
AcDbEntity
  8
0
100
AcDbPolyline
 90
        2
 70
     0
 43
0.0
 10
2.827
 20
4.342
 10
2.83
 20
4.343999999999999
  0
LWPOLYLINE
  5
13A
330
18
100
AcDbEntity
  8
0
100
AcDbPolyline
 90
        5
 70
     0
 43
0.0
 10
2.83
 20
4.443000000000001
 10
2.807
 20
4.452
 10
2.765
 20
4.415
 10
2.775
 20
4.361000000000001
 10
2.827
 20
4.342
  0
LWPOLYLINE
  5
142
330
18
100
AcDbEntity
  8
0
100
AcDbPolyline
 90
        8
 70
     0
 43
0.0
 10
2.772
 20
4.422
 42
0.148
 10
2.745
 20
4.392
 42
0.117
 10
2.74
 20
4.368
 42
0.117
 10
2.747
 20
4.343
 42
0.104
 10
2.765
 20
4.322
 42
0.09
 10
2.79
 20
4.308
 42
0.083
 10
2.822
 20
4.303999999999999
 42
0.022
 10
2.83
 20
4.303999999999999
 42
0.09
  0
LWPOLYLINE
  5
14D
330
18
100
AcDbEntity
  8
0
100
AcDbPolyline
 90
       16
 70
     1
 43
0.0
 10
2.159
 20
4.412
 42
0.152
 10
2.161
 20
4.403000000000001
 42
0.107
 10
2.169
 20
4.393
 42
0.075
 10
2.18
 20
4.386
 42
0.061
 10
2.196
 20
4.382
 42
0.061
 10
2.212
 20
4.382
 42
0.075
 10
2.225
 20
4.386
 42
0.107
 10
2.235
 20
4.393
 42
0.152
 10
2.239
 20
4.401
 42
0.152
 10
2.238
 20
4.41
 42
0.107
 10
2.23
 20
4.42
 42
0.075
 10
2.218
 20
4.426
 42
0.061
 10
2.202
 20
4.43
 42
0.061
 10
2.186
 20
4.43
 42
0.075
 10
2.173
 20
4.427
 42
0.107
 10
2.163
 20
4.42
 42
0.152
  0
LWPOLYLINE
  5
160
330
18
100
AcDbEntity
  8
0
100
AcDbPolyline
 90
        7
 70
     0
 43
0.0
 10
2.236
 20
4.394
 42
0.068
 10
2.226
 20
4.4
 42
0.061
 10
2.21
 20
4.404
 42
0.061
 10
2.194
 20
4.404
 42
0.075
 10
2.181
 20
4.4
 42
0.107
 10
2.171
 20
4.393
 42
0.019
 10
2.17
 20
4.392
 42
0.152
  0
LWPOLYLINE
  5
16A
330
18
100
AcDbEntity
  8
0
100
AcDbPolyline
 90
       16
 70
     1
 43
0.0
 10
2.331
 20
4.293
 42
0.152
 10
2.332
 20
4.285
 42
0.107
 10
2.34
 20
4.275
 42
0.075
 10
2.352
 20
4.268
 42
0.061
 10
2.367
 20
4.263999999999999
 42
0.061
 10
2.384
 20
4.263999999999999
 42
0.075
 10
2.397
 20
4.267
 42
0.107
 10
2.407
 20
4.275
 42
0.152
 10
2.411
 20
4.283
 42
0.152
 10
2.409
 20
4.292
 42
0.107
 10
2.401
 20
4.301
 42
0.075
 10
2.39
 20
4.308
 42
0.061
 10
2.374
 20
4.312
 42
0.061
 10
2.358
 20
4.312
 42
0.075
 10
2.345
 20
4.309
 42
0.107
 10
2.335
 20
4.302
 42
0.152
  0
LWPOLYLINE
  5
17D
330
18
100
AcDbEntity
  8
0
100
AcDbPolyline
 90
        7
 70
     0
 43
0.0
 10
2.407
 20
4.276
 42
0.068
 10
2.397
 20
4.282
 42
0.061
 10
2.381
 20
4.286000000000001
 42
0.061
 10
2.365
 20
4.286000000000001
 42
0.075
 10
2.352
 20
4.282
 42
0.107
 10
2.342
 20
4.275
 42
0.019
 10
2.341
 20
4.274
 42
0.152
  0
LINE
  5
187
330
18
100
AcDbEntity
  8
0
100
AcDbLine
 10
2.829
 20
5.048
 30
0.0
 11
2.83
 21
5.048
 31
0.0
  0
LINE
  5
188
330
18
100
AcDbEntity
  8
0
100
AcDbLine
 10
2.821
 20
5.167999999999999
 30
0.0
 11
2.83
 21
5.166
 31
0.0
  0
LINE
  5
189
330
18
100
AcDbEntity
  8
0
100
AcDbLine
 10
2.794
 20
5.154
 30
0.0
 11
2.821
 21
5.167999999999999
 31
0.0
  0
LWPOLYLINE
  5
18A
330
18
100
AcDbEntity
  8
0
100
AcDbPolyline
 90
        2
 70
     0
 43
0.0
 10
2.829
 20
5.048
 10
2.83
 20
5.049
  0
LWPOLYLINE
  5
18F
330
18
100
AcDbEntity
  8
0
100
AcDbPolyline
 90
        5
 70
     0
 43
0.0
 10
2.83
 20
5.147
 10
2.794
 20
5.154
 10
2.757
 20
5.112
 10
2.775
 20
5.059
 10
2.829
 20
5.048
  0
LWPOLYLINE
  5
197
330
18
100
AcDbEntity
  8
0
100
AcDbPolyline
 90
        3
 70
     0
 43
0.0
 10
2.8
 20
5.055
 42
0.102
 10
2.822
 20
5.038
 42
0.04
 10
2.83
 20
5.035
 42
0.117
  0
LWPOLYLINE
  5
19D
330
18
100
AcDbEntity
  8
0
100
AcDbPolyline
 90
        3
 70
     0
 43
0.0
 10
2.83
 20
5.189
 42
0.04
 10
2.822
 20
5.186
 42
0.198
 10
2.788
 20
5.147
 42
0.09
  0
SOLID
  5
1A3
330
18
100
AcDbEntity
  8
0
100
AcDbTrace
 10
3.705
 20
5.035
 30
0.0
 11
3.665
 21
5.079
 31
0.0
 12
3.551
 22
4.936
 32
0.0
 13
3.551
 23
4.936
 33
0.0
  0
SOLID
  5
1A4
330
18
100
AcDbEntity
  8
0
100
AcDbTrace
 10
4.695
 20
6.013
 30
0.0
 11
4.735
 21
5.968999999999999
 31
0.0
 12
4.848
 22
6.112
 32
0.0
 13
4.848
 23
6.112
 33
0.0
  0
LINE
  5
1A5
330
18
100
AcDbEntity
  8
0
100
AcDbLine
 10
4.715
 20
5.991000000000001
 30
0.0
 11
4.364
 21
5.672999999999999
 31
0.0
  0
TEXT
  5
1A6
330
18
100
AcDbEntity
  8
0
100
AcDbText
 10
4.135959463707022
 20
5.348403835329355
 30
0.0
 40
0.175
  1
F
 50
42.202
 51
42.0
 72
     1
 11
4.142
 21
5.472
 31
0.0
100
AcDbText
 73
     2
  0
TEXT
  5
1A7
330
18
100
AcDbEntity
  8
0
100
AcDbText
 10
4.282890037018004
 20
5.356716270615826
 30
0.0
 40
0.125
  1
2
 50
42.202
 51
42.0
 72
     1
 11
4.285
 21
5.443
 31
0.0
100
AcDbText
 73
     2
  0
LINE
  5
1A8
330
18
100
AcDbEntity
  8
0
100
AcDbLine
 10
4.117
 20
5.449
 30
0.0
 11
3.685
 21
5.057
 31
0.0
  0
SOLID
  5
1A9
330
18
100
AcDbEntity
  8
0
100
AcDbTrace
 10
0.171
 20
4.616000000000001
 30
0.0
 11
0.182
 21
4.675
 31
0.0
 12
0.0
 22
4.681
 32
0.0
 13
0.0
 23
4.681
 33
0.0
  0
SOLID
  5
1AA
330
18
100
AcDbEntity
  8
0
100
AcDbTrace
 10
1.029
 20
4.505
 30
0.0
 11
1.017
 21
4.446000000000001
 31
0.0
 12
1.199
 22
4.44
 32
0.0
 13
1.199
 23
4.44
 33
0.0
  0
LINE
  5
1AB
330
18
100
AcDbEntity
  8
0
100
AcDbLine
 10
1.023
 20
4.475
 30
0.0
 11
0.69
 21
4.542
 31
0.0
  0
TEXT
  5
1AC
330
18
100
AcDbEntity
  8
0
100
AcDbText
 10
0.5312618034653304
 20
4.484584084324585
 30
0.0
 40
0.175
  1
F
 50
348.616
 72
     1
 11
0.6
 21
4.56
 31
0.0
100
AcDbText
 73
     2
  0
TEXT
  5
1AD
330
18
100
AcDbEntity
  8
0
100
AcDbText
 10
0.5589012881895217
 20
4.392131488803276
 30
0.0
 40
0.125
  1
1
 50
348.616
 72
     1
 11
0.608
 21
4.446000000000001
 31
0.0
100
AcDbText
 73
     2
  0
LINE
  5
1AE
330
18
100
AcDbEntity
  8
0
100
AcDbLine
 10
0.486
 20
4.583
 30
0.0
 11
0.176
 21
4.646
 31
0.0
  0
TEXT
  5
1AF
330
18
100
AcDbEntity
  8
0
100
AcDbText
 10
3.183465
 20
0.772412
 30
0.0
 40
0.2
  1
Simpson Strong-Tie
100
AcDbText
  0
TEXT
  5
1B0
330
18
100
AcDbEntity
  8
0
100
AcDbText
 10
3.183465
 20
0.448603
 30
0.0
 40
0.2
  1
A23
100
AcDbText
  0
ENDSEC
  0
SECTION
  2
OBJECTS
  0
DICTIONARY
  5
C
330
0
100
AcDbDictionary
281
     1
  3
ACAD_COLOR
350
1B6
  3
ACAD_GROUP
350
D
  3
ACAD_LAYOUT
350
15
  3
ACAD_MATERIAL
350
1B8
  3
ACAD_MLINESTYLE
350
12
  3
ACAD_PLOTSETTINGS
350
14
  3
ACAD_PLOTSTYLENAME
350
E
  3
ACDBHEADERROUNDTRIPXREC
350
1B5
  0
DICTIONARY
  5
1B6
102
{ACAD_REACTORS
330
C
102
}
330
C
100
AcDbDictionary
281
     1
  0
DICTIONARY
  5
D
102
{ACAD_REACTORS
330
C
102
}
330
C
100
AcDbDictionary
281
     1
  0
DICTIONARY
  5
15
102
{ACAD_REACTORS
330
C
102
}
330
C
100
AcDbDictionary
281
     1
  3
Layout1
350
17
  3
Model
350
19
  0
DICTIONARY
  5
1B8
102
{ACAD_REACTORS
330
C
102
}
330
C
100
AcDbDictionary
281
     1
  0
DICTIONARY
  5
12
102
{ACAD_REACTORS
330
C
102
}
330
C
100
AcDbDictionary
281
     1
  3
Standard
350
13
  0
DICTIONARY
  5
14
102
{ACAD_REACTORS
330
C
102
}
330
C
100
AcDbDictionary
281
     1
  0
ACDBDICTIONARYWDFLT
  5
E
102
{ACAD_REACTORS
330
C
102
}
330
C
100
AcDbDictionary
281
     1
  3
Normal
350
F
100
AcDbDictionaryWithDefault
340
F
  0
DICTIONARY
  5
1B5
102
{ACAD_REACTORS
330
C
102
}
330
C
100
AcDbDictionary
281
     1
  3
COLORDICT
350
1B7
  3
MATERIALDICT
350
1B9
  0
LAYOUT
  5
17
102
{ACAD_REACTORS
330
15
102
}
102
{ACAD_XDICTIONARY
360
1BA
102
}
330
15
100
AcDbPlotSettings
  1

  2

  4

  6

 40
0.0
 41
0.0
 42
0.0
 43
0.0
 44
0.0
 45
0.0
 46
0.0
 47
0.0
 48
0.0
 49
0.0
140
0.0
141
0.0
142
1.0
143
1.0
 70
   688
 72
     0
 73
     0
 74
     5
  7

 75
    16
147
1.0
148
0.0
149
0.0
100
AcDbLayout
  1
Layout1
 70
     1
 71
     1
 10
0.0
 20
0.0
 11
12.0
 21
9.0
 12
0.0
 22
0.0
 32
0.0
 14
1.000000000000000E+20
 24
1.000000000000000E+20
 34
1.000000000000000E+20
 15
-1.000000000000000E+20
 25
-1.000000000000000E+20
 35
-1.000000000000000E+20
146
0.0
 13
0.0
 23
0.0
 33
0.0
 16
1.0
 26
0.0
 36
0.0
 17
0.0
 27
1.0
 37
0.0
 76
     0
330
16
  0
LAYOUT
  5
19
102
{ACAD_REACTORS
330
15
102
}
102
{ACAD_XDICTIONARY
360
1BC
102
}
330
15
100
AcDbPlotSettings
  1

  2

  4

  6

 40
0.0
 41
0.0
 42
0.0
 43
0.0
 44
0.0
 45
0.0
 46
0.0
 47
0.0
 48
0.0
 49
0.0
140
0.0
141
0.0
142
1.0
143
1.0
 70
  1712
 72
     0
 73
     0
 74
     0
  7

 75
     0
147
1.0
148
0.0
149
0.0
100
AcDbLayout
  1
Model
 70
     1
 71
     0
 10
0.0
 20
0.0
 11
0.0
 21
0.0
 12
0.0
 22
0.0
 32
0.0
 14
0.0
 24
0.0
 34
0.0
 15
0.0
 25
0.0
 35
0.0
146
0.0
 13
0.0
 23
0.0
 33
0.0
 16
1.0
 26
0.0
 36
0.0
 17
0.0
 27
1.0
 37
0.0
 76
     0
330
18
  0
MLINESTYLE
  5
13
102
{ACAD_REACTORS
330
12
102
}
330
12
100
AcDbMlineStyle
  2
Standard
 70
     0
  3

 62
   256
 51
90.0
 52
90.0
 71
     2
 49
0.5
 62
   256
  6
BYLAYER
 49
-0.5
 62
   256
  6
BYLAYER
  0
ACDBPLACEHOLDER
  5
F
102
{ACAD_REACTORS
330
E
102
}
330
E
  0
XRECORD
  5
1B7
102
{ACAD_REACTORS
330
1B5
102
}
330
1B5
100
AcDbXrecord
340
1B6
  0
XRECORD
  5
1B9
102
{ACAD_REACTORS
330
1B5
102
}
330
1B5
100
AcDbXrecord
340
1B8
  0
DICTIONARY
  5
1BA
330
17
100
AcDbDictionary
280
     1
281
     1
  3
ACAD_XREC_ROUNDTRIP
360
1BB
  0
DICTIONARY
  5
1BC
330
19
100
AcDbDictionary
280
     1
281
     1
  3
ACAD_XREC_ROUNDTRIP
360
1BD
  0
XRECORD
  5
1BB
102
{ACAD_REACTORS
330
1BA
102
}
330
1BA
100
AcDbXrecord
102
SHADEPLOT
 70
 -5928
102
SHADEPLOTRESLEVEL
 70
 -5872
102
SHADEPLOTCUSTOMDPI
 70
 -5816
  0
XRECORD
  5
1BD
102
{ACAD_REACTORS
330
1BC
102
}
330
1BC
100
AcDbXrecord
102
SHADEPLOT
 70
 30248
102
SHADEPLOTRESLEVEL
 70
 31688
102
SHADEPLOTCUSTOMDPI
 70
-28568
  0
ENDSEC
  0
EOF
