  0
SECTION
  2
HEADER
  9
$ACADVER
  1
AC1015
  9
$ACADMAINTVER
 70
     6
  9
$DWGCODEPAGE
  3
ASCII
  9
$INSBASE
 10
0.0
 20
0.0
 30
0.0
  9
$EXTMIN
 10
-0.024
 20
0.2958673333333332
 30
0.0
  9
$EXTMAX
 10
6.22
 20
7.854
 30
0.0
  9
$LIMMIN
 10
0.0
 20
0.0
  9
$LIMMAX
 10
12.0
 20
9.0
  9
$ORTHOMODE
 70
     0
  9
$REGENMODE
 70
     1
  9
$FILLMODE
 70
     1
  9
$QTEXTMODE
 70
     0
  9
$MIRRTEXT
 70
     1
  9
$LTSCALE
 40
1.0
  9
$ATTMODE
 70
     1
  9
$TEXTSIZE
 40
0.2
  9
$TRACEWID
 40
0.05
  9
$TEXTSTYLE
  7
STANDARD
  9
$CLAYER
  8
0
  9
$CELTYPE
  6
ByLayer
  9
$CECOLOR
 62
   256
  9
$CELTSCALE
 40
1.0
  9
$DISPSILH
 70
     0
  9
$DIMSCALE
 40
1.0
  9
$DIMASZ
 40
0.18
  9
$DIMEXO
 40
0.063
  9
$DIMDLI
 40
0.38
  9
$DIMRND
 40
0.0
  9
$DIMDLE
 40
0.0
  9
$DIMEXE
 40
0.18
  9
$DIMTP
 40
0.0
  9
$DIMTM
 40
0.0
  9
$DIMTXT
 40
0.18
  9
$DIMCEN
 40
0.09
  9
$DIMTSZ
 40
0.0
  9
$DIMTOL
 70
     0
  9
$DIMLIM
 70
     0
  9
$DIMTIH
 70
     1
  9
$DIMTOH
 70
     1
  9
$DIMSE1
 70
     0
  9
$DIMSE2
 70
     0
  9
$DIMTAD
 70
     0
  9
$DIMZIN
 70
     0
  9
$DIMBLK
  1

  9
$DIMASO
 70
     0
  9
$DIMSHO
 70
     1
  9
$DIMPOST
  1

  9
$DIMAPOST
  1

  9
$DIMALT
 70
     0
  9
$DIMALTD
 70
     2
  9
$DIMALTF
 40
25.4
  9
$DIMLFAC
 40
1.0
  9
$DIMTOFL
 70
     0
  9
$DIMTVP
 40
0.0
  9
$DIMTIX
 70
     0
  9
$DIMSOXD
 70
     0
  9
$DIMSAH
 70
     0
  9
$DIMBLK1
  1

  9
$DIMBLK2
  1

  9
$DIMSTYLE
  2
Standard
  9
$DIMCLRD
 70
     0
  9
$DIMCLRE
 70
     0
  9
$DIMCLRT
 70
     0
  9
$DIMTFAC
 40
1.0
  9
$DIMGAP
 40
0.09
  9
$DIMJUST
 70
     0
  9
$DIMSD1
 70
     0
  9
$DIMSD2
 70
     0
  9
$DIMTOLJ
 70
     1
  9
$DIMTZIN
 70
     0
  9
$DIMALTZ
 70
     0
  9
$DIMALTTZ
 70
     0
  9
$DIMUPT
 70
     0
  9
$DIMDEC
 70
     4
  9
$DIMTDEC
 70
     4
  9
$DIMALTU
 70
     2
  9
$DIMALTTD
 70
     2
  9
$DIMTXSTY
  7
STANDARD
  9
$DIMAUNIT
 70
     0
  9
$DIMADEC
 70
     0
  9
$DIMALTRND
 40
0.0
  9
$DIMAZIN
 70
     0
  9
$DIMDSEP
 70
    46
  9
$DIMATFIT
 70
     3
  9
$DIMFRAC
 70
     0
  9
$DIMLDRBLK
  1

  9
$DIMLUNIT
 70
     2
  9
$DIMLWD
 70
    -2
  9
$DIMLWE
 70
    -2
  9
$DIMTMOVE
 70
     0
  9
$LUNITS
 70
     2
  9
$LUPREC
 70
     4
  9
$SKETCHINC
 40
0.1
  9
$FILLETRAD
 40
0.0
  9
$AUNITS
 70
     0
  9
$AUPREC
 70
     0
  9
$MENU
  1
acad
  9
$ELEVATION
 40
0.0
  9
$PELEVATION
 40
0.0
  9
$THICKNESS
 40
0.0
  9
$LIMCHECK
 70
     0
  9
$CHAMFERA
 40
0.0
  9
$CHAMFERB
 40
0.0
  9
$CHAMFERC
 40
1.0
  9
$CHAMFERD
 40
0.0
  9
$SKPOLY
 70
     0
  9
$TDCREATE
 40
2453955.561048866
  9
$TDUCREATE
 40
2453955.894382199
  9
$TDUPDATE
 40
2453955.602715544
  9
$TDUUPDATE
 40
2453955.89438221
  9
$TDINDWG
 40
0.0000000116
  9
$TDUSRTIMER
 40
0.0000000116
  9
$USRTIMER
 70
     1
  9
$ANGBASE
 50
0.0
  9
$ANGDIR
 70
     0
  9
$PDMODE
 70
     0
  9
$PDSIZE
 40
0.0
  9
$PLINEWID
 40
0.0
  9
$SPLFRAME
 70
     0
  9
$SPLINETYPE
 70
     6
  9
$SPLINESEGS
 70
     8
  9
$HANDSEED
  5
190
  9
$SURFTAB1
 70
     6
  9
$SURFTAB2
 70
     6
  9
$SURFTYPE
 70
     6
  9
$SURFU
 70
     6
  9
$SURFV
 70
     6
  9
$UCSBASE
  2

  9
$UCSNAME
  2

  9
$UCSORG
 10
0.0
 20
0.0
 30
0.0
  9
$UCSXDIR
 10
1.0
 20
0.0
 30
0.0
  9
$UCSYDIR
 10
0.0
 20
1.0
 30
0.0
  9
$UCSORTHOREF
  2

  9
$UCSORTHOVIEW
 70
     0
  9
$UCSORGTOP
 10
0.0
 20
0.0
 30
0.0
  9
$UCSORGBOTTOM
 10
0.0
 20
0.0
 30
0.0
  9
$UCSORGLEFT
 10
0.0
 20
0.0
 30
0.0
  9
$UCSORGRIGHT
 10
0.0
 20
0.0
 30
0.0
  9
$UCSORGFRONT
 10
0.0
 20
0.0
 30
0.0
  9
$UCSORGBACK
 10
0.0
 20
0.0
 30
0.0
  9
$PUCSBASE
  2

  9
$PUCSNAME
  2

  9
$PUCSORG
 10
0.0
 20
0.0
 30
0.0
  9
$PUCSXDIR
 10
1.0
 20
0.0
 30
0.0
  9
$PUCSYDIR
 10
0.0
 20
1.0
 30
0.0
  9
$PUCSORTHOREF
  2

  9
$PUCSORTHOVIEW
 70
     0
  9
$PUCSORGTOP
 10
0.0
 20
0.0
 30
0.0
  9
$PUCSORGBOTTOM
 10
0.0
 20
0.0
 30
0.0
  9
$PUCSORGLEFT
 10
0.0
 20
0.0
 30
0.0
  9
$PUCSORGRIGHT
 10
0.0
 20
0.0
 30
0.0
  9
$PUCSORGFRONT
 10
0.0
 20
0.0
 30
0.0
  9
$PUCSORGBACK
 10
0.0
 20
0.0
 30
0.0
  9
$USERI1
 70
     0
  9
$USERI2
 70
     0
  9
$USERI3
 70
     0
  9
$USERI4
 70
     0
  9
$USERI5
 70
     0
  9
$USERR1
 40
0.0
  9
$USERR2
 40
0.0
  9
$USERR3
 40
0.0
  9
$USERR4
 40
0.0
  9
$USERR5
 40
0.0
  9
$WORLDVIEW
 70
     1
  9
$SHADEDGE
 70
     3
  9
$SHADEDIF
 70
    70
  9
$TILEMODE
 70
     1
  9
$MAXACTVP
 70
    16
  9
$PINSBASE
 10
0.0
 20
0.0
 30
0.0
  9
$PLIMCHECK
 70
     0
  9
$PEXTMIN
 10
1.000000000000000E+20
 20
1.000000000000000E+20
 30
1.000000000000000E+20
  9
$PEXTMAX
 10
-1.000000000000000E+20
 20
-1.000000000000000E+20
 30
-1.000000000000000E+20
  9
$PLIMMIN
 10
0.0
 20
0.0
  9
$PLIMMAX
 10
12.0
 20
9.0
  9
$UNITMODE
 70
     0
  9
$VISRETAIN
 70
     0
  9
$PLINEGEN
 70
     0
  9
$PSLTSCALE
 70
     1
  9
$TREEDEPTH
 70
  3020
  9
$CMLSTYLE
  2
Standard
  9
$CMLJUST
 70
     0
  9
$CMLSCALE
 40
1.0
  9
$PROXYGRAPHICS
 70
     1
  9
$MEASUREMENT
 70
     0
  9
$CELWEIGHT
370
    -1
  9
$ENDCAPS
280
     0
  9
$JOINSTYLE
280
     0
  9
$LWDISPLAY
290
     0
  9
$INSUNITS
 70
     1
  9
$HYPERLINKBASE
  1

  9
$STYLESHEET
  1

  9
$XEDIT
290
     1
  9
$CEPSNTYPE
380
     0
  9
$PSTYLEMODE
290
     0
  9
$FINGERPRINTGUID
  2
{FAEB1C30-E019-11D5-929B-00C0DF256EC4}
  9
$VERSIONGUID
  2
{FAEB1C32-E019-11D5-929B-00C0DF256EC4}
  9
$EXTNAMES
290
     1
  9
$PSVPSCALE
 40
0.0
  9
$OLESTARTUP
290
     0
  0
ENDSEC
  0
SECTION
  2
CLASSES
  0
CLASS
  1
ACDBDICTIONARYWDFLT
  2
AcDbDictionaryWithDefault
  3
AutoCAD 2000
 90
        0
280
     0
281
     0
  0
CLASS
  1
ACDBPLACEHOLDER
  2
AcDbPlaceHolder
  3
ObjectDBX Classes
 90
        0
280
     0
281
     0
  0
CLASS
  1
LAYOUT
  2
AcDbLayout
  3
ObjectDBX Classes
 90
        0
280
     0
281
     0
  0
ENDSEC
  0
SECTION
  2
TABLES
  0
TABLE
  2
VPORT
  5
8
330
0
100
AcDbSymbolTable
 70
     2
  0
VPORT
  5
1E
330
8
100
AcDbSymbolTableRecord
100
AcDbViewportTableRecord
  2
*ACTIVE
 70
     0
 10
0.0
 20
0.0
 11
1.0
 21
1.0
 12
6.213695404358353
 22
4.5
 13
0.0
 23
0.0
 14
1.0
 24
1.0
 15
0.0
 25
0.0
 16
0.0
 26
0.0
 36
1.0
 17
0.0
 27
0.0
 37
0.0
 40
9.0
 41
0.7207678883071553
 42
50.0
 43
0.0
 44
0.0
 50
0.0
 51
0.0
 71
     0
 72
  2000
 73
     1
 74
     0
 75
     0
 76
     0
 77
     0
 78
     0
281
     0
 65
     1
110
0.0
120
0.0
130
0.0
111
1.0
121
0.0
131
0.0
112
0.0
122
1.0
132
0.0
 79
     0
146
0.0
  0
ENDTAB
  0
TABLE
  2
LTYPE
  5
5
330
0
100
AcDbSymbolTable
 70
     1
  0
LTYPE
  5
10
330
5
100
AcDbSymbolTableRecord
100
AcDbLinetypeTableRecord
  2
ByBlock
 70
     0
  3

 72
    65
 73
     0
 40
0.0
  0
LTYPE
  5
11
330
5
100
AcDbSymbolTableRecord
100
AcDbLinetypeTableRecord
  2
ByLayer
 70
     0
  3

 72
    65
 73
     0
 40
0.0
  0
LTYPE
  5
1B
330
5
100
AcDbSymbolTableRecord
100
AcDbLinetypeTableRecord
  2
CONTINUOUS
 70
     0
  3
Solid line
 72
    65
 73
     0
 40
0.0
  0
ENDTAB
  0
TABLE
  2
LAYER
  5
2
330
0
100
AcDbSymbolTable
 70
     1
  0
LAYER
  5
1C
330
2
100
AcDbSymbolTableRecord
100
AcDbLayerTableRecord
  2
0
 70
     0
 62
     7
  6
CONTINUOUS
370
    -3
390
F
  0
ENDTAB
  0
TABLE
  2
STYLE
  5
3
330
0
100
AcDbSymbolTable
 70
     1
  0
STYLE
  5
21
330
3
100
AcDbSymbolTableRecord
100
AcDbTextStyleTableRecord
  2
STANDARD
 70
     0
 40
0.0
 41
1.0
 50
0.0
 71
     0
 42
0.2
  3
romans
  4

  0
ENDTAB
  0
TABLE
  2
VIEW
  5
6
330
0
100
AcDbSymbolTable
 70
     1
  0
VIEW
  5
20
330
6
100
AcDbSymbolTableRecord
100
AcDbViewTableRecord
  2
1
 70
     0
 40
7.707000000000001
 10
4.897
 20
4.001
 41
9.842000000000001
 11
0.0
 21
0.0
 31
1.0
 12
0.0
 22
0.0
 32
0.0
 42
50.0
 43
0.0
 44
0.0
 50
0.0
 71
     0
281
     0
 72
     0
  0
ENDTAB
  0
TABLE
  2
UCS
  5
7
330
0
100
AcDbSymbolTable
 70
     0
  0
ENDTAB
  0
TABLE
  2
APPID
  5
9
330
0
100
AcDbSymbolTable
 70
     1
  0
APPID
  5
1F
330
9
100
AcDbSymbolTableRecord
100
AcDbRegAppTableRecord
  2
ACAD
 70
     0
  0
ENDTAB
  0
TABLE
  2
DIMSTYLE
  5
A
330
0
100
AcDbSymbolTable
 70
     1
100
AcDbDimStyleTable
  0
DIMSTYLE
105
22
330
A
100
AcDbSymbolTableRecord
100
AcDbDimStyleTableRecord
  2
Standard
 70
     0
  3

  4

340
21
  0
ENDTAB
  0
TABLE
  2
BLOCK_RECORD
  5
1
330
0
100
AcDbSymbolTable
 70
     0
  0
BLOCK_RECORD
  5
18
330
1
100
AcDbSymbolTableRecord
100
AcDbBlockTableRecord
  2
*Model_Space
340
19
  0
BLOCK_RECORD
  5
16
330
1
100
AcDbSymbolTableRecord
100
AcDbBlockTableRecord
  2
*Paper_Space
340
17
  0
ENDTAB
  0
ENDSEC
  0
SECTION
  2
BLOCKS
  0
BLOCK
  5
185
330
18
100
AcDbEntity
  8
0
100
AcDbBlockBegin
  2
*Model_Space
 70
     0
 10
0.0
 20
0.0
 30
0.0
  3
*Model_Space
  1

  4

  0
ENDBLK
  5
186
330
18
100
AcDbEntity
  8
0
100
AcDbBlockEnd
  0
BLOCK
  5
183
330
16
100
AcDbEntity
 67
     1
  8
0
100
AcDbBlockBegin
  2
*Paper_Space
 70
     0
 10
0.0
 20
0.0
 30
0.0
  3
*Paper_Space
  1

  4

  0
ENDBLK
  5
184
330
16
100
AcDbEntity
 67
     1
  8
0
100
AcDbBlockEnd
  0
ENDSEC
  0
SECTION
  2
ENTITIES
  0
LINE
  5
23
330
18
100
AcDbEntity
  8
0
100
AcDbLine
 10
3.393
 20
3.184
 30
0.0
 11
3.393
 21
3.644
 31
0.0
  0
LINE
  5
24
330
18
100
AcDbEntity
  8
0
100
AcDbLine
 10
3.751
 20
2.633
 30
0.0
 11
3.751
 21
2.615
 31
0.0
  0
LWPOLYLINE
  5
25
330
18
100
AcDbEntity
  8
0
100
AcDbPolyline
 90
        7
 70
     0
 43
0.0
 10
3.716
 20
2.674
 42
-0.079
 10
3.718
 20
2.672
 42
-0.086
 10
3.721
 20
2.666
 42
-0.076
 10
3.723
 20
2.655
 42
-0.076
 10
3.721
 20
2.644
 42
-0.086
 10
3.718
 20
2.638
 42
-0.079
 10
3.716
 20
2.635
 42
-0.079
  0
LWPOLYLINE
  5
2F
330
18
100
AcDbEntity
  8
0
100
AcDbPolyline
 90
       16
 70
     1
 43
0.0
 10
3.716
 20
2.707
 42
0.126
 10
3.701
 20
2.703
 42
0.106
 10
3.688
 20
2.691
 42
0.086
 10
3.68
 20
2.675
 42
0.076
 10
3.677
 20
2.655
 42
0.076
 10
3.68
 20
2.634
 42
0.086
 10
3.688
 20
2.618
 42
0.106
 10
3.701
 20
2.607
 42
0.126
 10
3.716
 20
2.603
 42
0.126
 10
3.73
 20
2.607
 42
0.106
 10
3.743
 20
2.618
 42
0.086
 10
3.752
 20
2.634
 42
0.076
 10
3.755
 20
2.655
 42
0.076
 10
3.752
 20
2.675
 42
0.086
 10
3.743
 20
2.691
 42
0.106
 10
3.73
 20
2.703
 42
0.126
  0
LWPOLYLINE
  5
42
330
18
100
AcDbEntity
  8
0
100
AcDbPolyline
 90
       16
 70
     1
 43
0.0
 10
3.686
 20
2.887
 42
0.126
 10
3.672
 20
2.884
 42
0.106
 10
3.658
 20
2.872
 42
0.086
 10
3.65
 20
2.856
 42
0.076
 10
3.647
 20
2.836
 42
0.076
 10
3.65
 20
2.815
 42
0.086
 10
3.658
 20
2.799
 42
0.106
 10
3.672
 20
2.788
 42
0.126
 10
3.686
 20
2.784
 42
0.126
 10
3.701
 20
2.788
 42
0.106
 10
3.714
 20
2.799
 42
0.086
 10
3.722
 20
2.815
 42
0.076
 10
3.725
 20
2.836
 42
0.076
 10
3.722
 20
2.856
 42
0.086
 10
3.714
 20
2.872
 42
0.106
 10
3.701
 20
2.884
 42
0.126
  0
LWPOLYLINE
  5
55
330
18
100
AcDbEntity
  8
0
100
AcDbPolyline
 90
        7
 70
     0
 43
0.0
 10
3.686
 20
2.855
 42
-0.079
 10
3.688
 20
2.853
 42
-0.086
 10
3.692
 20
2.847
 42
-0.076
 10
3.693
 20
2.836
 42
-0.076
 10
3.692
 20
2.825
 42
-0.086
 10
3.688
 20
2.818
 42
-0.079
 10
3.686
 20
2.816
 42
-0.079
  0
LWPOLYLINE
  5
5F
330
18
100
AcDbEntity
  8
0
100
AcDbPolyline
 90
       12
 70
     0
 43
0.0
 10
3.588
 20
2.646
 42
0.019
 10
3.59
 20
2.642
 42
0.106
 10
3.604
 20
2.631
 42
0.126
 10
3.618
 20
2.627
 42
0.126
 10
3.633
 20
2.631
 42
0.106
 10
3.646
 20
2.642
 42
0.086
 10
3.654
 20
2.659
 42
0.076
 10
3.657
 20
2.679
 42
0.076
 10
3.654
 20
2.699
 42
0.086
 10
3.646
 20
2.716
 42
0.106
 10
3.633
 20
2.727
 42
0.126
 10
3.618
 20
2.731
 42
0.126
  0
LWPOLYLINE
  5
6E
330
18
100
AcDbEntity
  8
0
100
AcDbPolyline
 90
        4
 70
     0
 43
0.0
 10
3.618
 20
2.731
 42
0.126
 10
3.604
 20
2.727
 42
0.106
 10
3.59
 20
2.716
 42
0.054
 10
3.584
 20
2.706
 42
0.076
  0
LWPOLYLINE
  5
75
330
18
100
AcDbEntity
  8
0
100
AcDbPolyline
 90
        8
 70
     0
 43
0.0
 10
3.605
 20
2.728
 42
-0.087
 10
3.616
 20
2.718
 42
-0.086
 10
3.624
 20
2.702
 42
-0.076
 10
3.627
 20
2.681
 42
-0.076
 10
3.624
 20
2.661
 42
-0.086
 10
3.616
 20
2.645
 42
-0.106
 10
3.602
 20
2.633
 42
-0.012
 10
3.601
 20
2.632
 42
-0.126
  0
LWPOLYLINE
  5
80
330
18
100
AcDbEntity
  8
0
100
AcDbPolyline
 90
       16
 70
     1
 43
0.0
 10
3.554
 20
2.724
 42
0.126
 10
3.54
 20
2.72
 42
0.106
 10
3.527
 20
2.709
 42
0.086
 10
3.518
 20
2.693
 42
0.076
 10
3.515
 20
2.672
 42
0.076
 10
3.518
 20
2.652
 42
0.086
 10
3.527
 20
2.636
 42
0.106
 10
3.54
 20
2.624
 42
0.126
 10
3.554
 20
2.621
 42
0.126
 10
3.569
 20
2.624
 42
0.106
 10
3.582
 20
2.636
 42
0.086
 10
3.591
 20
2.652
 42
0.076
 10
3.594
 20
2.672
 42
0.076
 10
3.591
 20
2.693
 42
0.086
 10
3.582
 20
2.709
 42
0.106
 10
3.569
 20
2.72
 42
0.126
  0
LWPOLYLINE
  5
93
330
18
100
AcDbEntity
  8
0
100
AcDbPolyline
 90
        7
 70
     0
 43
0.0
 10
3.554
 20
2.692
 42
-0.079
 10
3.557
 20
2.69
 42
-0.086
 10
3.56
 20
2.683
 42
-0.076
 10
3.562
 20
2.672
 42
-0.076
 10
3.56
 20
2.661
 42
-0.086
 10
3.557
 20
2.655
 42
-0.079
 10
3.554
 20
2.653
 42
-0.079
  0
LWPOLYLINE
  5
9D
330
18
100
AcDbEntity
  8
0
100
AcDbPolyline
 90
        8
 70
     0
 43
0.0
 10
3.687
 20
4.623
 42
0.087
 10
3.676
 20
4.613
 42
0.086
 10
3.667
 20
4.597
 42
0.076
 10
3.664
 20
4.577
 42
0.076
 10
3.667
 20
4.556
 42
0.086
 10
3.676
 20
4.54
 42
0.106
 10
3.689
 20
4.529
 42
0.012
 10
3.69
 20
4.528000000000001
 42
0.126
  0
LWPOLYLINE
  5
A8
330
18
100
AcDbEntity
  8
0
100
AcDbPolyline
 90
       16
 70
     1
 43
0.0
 10
3.673
 20
4.626
 42
0.126
 10
3.659
 20
4.623
 42
0.106
 10
3.646
 20
4.611000000000001
 42
0.086
 10
3.637
 20
4.595
 42
0.076
 10
3.634
 20
4.575
 42
0.076
 10
3.637
 20
4.553999999999999
 42
0.086
 10
3.646
 20
4.538
 42
0.106
 10
3.659
 20
4.527
 42
0.126
 10
3.673
 20
4.523
 42
0.126
 10
3.688
 20
4.527
 42
0.106
 10
3.701
 20
4.538
 42
0.086
 10
3.71
 20
4.553999999999999
 42
0.076
 10
3.713
 20
4.575
 42
0.076
 10
3.71
 20
4.595
 42
0.086
 10
3.701
 20
4.611000000000001
 42
0.106
 10
3.688
 20
4.623
 42
0.126
  0
LWPOLYLINE
  5
BB
330
18
100
AcDbEntity
  8
0
100
AcDbPolyline
 90
        7
 70
     0
 43
0.0
 10
3.744
 20
4.64
 42
0.079
 10
3.741
 20
4.638
 42
0.086
 10
3.738
 20
4.632
 42
0.076
 10
3.736
 20
4.621
 42
0.076
 10
3.738
 20
4.61
 42
0.086
 10
3.741
 20
4.604
 42
0.079
 10
3.744
 20
4.602
 42
0.079
  0
LWPOLYLINE
  5
C5
330
18
100
AcDbEntity
  8
0
100
AcDbPolyline
 90
       16
 70
     1
 43
0.0
 10
3.744
 20
4.673
 42
0.126
 10
3.729
 20
4.669
 42
0.106
 10
3.716
 20
4.658
 42
0.086
 10
3.707
 20
4.641
 42
0.076
 10
3.704
 20
4.621
 42
0.076
 10
3.707
 20
4.601
 42
0.086
 10
3.716
 20
4.584
 42
0.106
 10
3.729
 20
4.573
 42
0.126
 10
3.744
 20
4.569
 42
0.126
 10
3.758
 20
4.573
 42
0.106
 10
3.771
 20
4.584
 42
0.086
 10
3.78
 20
4.601
 42
0.076
 10
3.783
 20
4.621
 42
0.076
 10
3.78
 20
4.641
 42
0.086
 10
3.771
 20
4.658
 42
0.106
 10
3.758
 20
4.669
 42
0.126
  0
LWPOLYLINE
  5
D8
330
18
100
AcDbEntity
  8
0
100
AcDbPolyline
 90
       16
 70
     1
 43
0.0
 10
3.554
 20
4.712
 42
0.126
 10
3.539
 20
4.708
 42
0.106
 10
3.526
 20
4.696000000000001
 42
0.086
 10
3.517
 20
4.68
 42
0.076
 10
3.514
 20
4.66
 42
0.076
 10
3.517
 20
4.638999999999999
 42
0.086
 10
3.526
 20
4.623
 42
0.106
 10
3.539
 20
4.612
 42
0.126
 10
3.554
 20
4.608000000000001
 42
0.126
 10
3.568
 20
4.612
 42
0.106
 10
3.581
 20
4.623
 42
0.086
 10
3.59
 20
4.638999999999999
 42
0.076
 10
3.593
 20
4.66
 42
0.076
 10
3.59
 20
4.68
 42
0.086
 10
3.581
 20
4.696000000000001
 42
0.106
 10
3.568
 20
4.708
 42
0.126
  0
LWPOLYLINE
  5
EB
330
18
100
AcDbEntity
  8
0
100
AcDbPolyline
 90
        7
 70
     0
 43
0.0
 10
3.554
 20
4.678999999999999
 42
0.079
 10
3.551
 20
4.677
 42
0.086
 10
3.548
 20
4.671
 42
0.076
 10
3.546
 20
4.66
 42
0.076
 10
3.548
 20
4.649
 42
0.086
 10
3.551
 20
4.642
 42
0.079
 10
3.554
 20
4.64
 42
0.079
  0
LWPOLYLINE
  5
F5
330
18
100
AcDbEntity
  8
0
100
AcDbPolyline
 90
        7
 70
     0
 43
0.0
 10
3.576
 20
4.438
 42
0.079
 10
3.574
 20
4.436
 42
0.086
 10
3.571
 20
4.43
 42
0.076
 10
3.569
 20
4.419
 42
0.076
 10
3.571
 20
4.408
 42
0.086
 10
3.574
 20
4.402
 42
0.079
 10
3.576
 20
4.4
 42
0.079
  0
LWPOLYLINE
  5
FF
330
18
100
AcDbEntity
  8
0
100
AcDbPolyline
 90
       16
 70
     1
 43
0.0
 10
3.576
 20
4.471
 42
0.126
 10
3.562
 20
4.467
 42
0.106
 10
3.549
 20
4.456
 42
0.086
 10
3.54
 20
4.439
 42
0.076
 10
3.537
 20
4.419
 42
0.076
 10
3.54
 20
4.399
 42
0.086
 10
3.549
 20
4.382
 42
0.106
 10
3.562
 20
4.371
 42
0.126
 10
3.576
 20
4.367
 42
0.126
 10
3.591
 20
4.371
 42
0.106
 10
3.604
 20
4.382
 42
0.086
 10
3.613
 20
4.399
 42
0.076
 10
3.616
 20
4.419
 42
0.076
 10
3.613
 20
4.439
 42
0.086
 10
3.604
 20
4.456
 42
0.106
 10
3.591
 20
4.467
 42
0.126
  0
LINE
  5
112
330
18
100
AcDbEntity
  8
0
100
AcDbLine
 10
3.837
 20
4.758
 30
0.0
 11
3.591
 21
4.813
 31
0.0
  0
LINE
  5
113
330
18
100
AcDbEntity
  8
0
100
AcDbLine
 10
3.895
 20
4.675
 30
0.0
 11
3.837
 21
4.758
 31
0.0
  0
LINE
  5
114
330
18
100
AcDbEntity
  8
0
100
AcDbLine
 10
3.895
 20
3.758
 30
0.0
 11
3.895
 21
4.675
 31
0.0
  0
LINE
  5
115
330
18
100
AcDbEntity
  8
0
100
AcDbLine
 10
3.393
 20
3.184
 30
0.0
 11
3.895
 21
3.758
 31
0.0
  0
LINE
  5
116
330
18
100
AcDbEntity
  8
0
100
AcDbLine
 10
3.861
 20
4.65
 30
0.0
 11
3.895
 21
4.675
 31
0.0
  0
LINE
  5
117
330
18
100
AcDbEntity
  8
0
100
AcDbLine
 10
3.804
 20
4.732
 30
0.0
 11
3.837
 21
4.758
 31
0.0
  0
LINE
  5
118
330
18
100
AcDbEntity
  8
0
100
AcDbLine
 10
3.558
 20
4.788
 30
0.0
 11
3.591
 21
4.813
 31
0.0
  0
LINE
  5
119
330
18
100
AcDbEntity
  8
0
100
AcDbLine
 10
3.735
 20
3.384
 30
0.0
 11
3.735
 21
3.421
 31
0.0
  0
LINE
  5
11A
330
18
100
AcDbEntity
  8
0
100
AcDbLine
 10
3.558
 20
4.788
 30
0.0
 11
3.471
 21
4.713
 31
0.0
  0
LINE
  5
11B
330
18
100
AcDbEntity
  8
0
100
AcDbLine
 10
3.804
 20
4.732
 30
0.0
 11
3.558
 21
4.788
 31
0.0
  0
LINE
  5
11C
330
18
100
AcDbEntity
  8
0
100
AcDbLine
 10
3.861
 20
4.65
 30
0.0
 11
3.804
 21
4.732
 31
0.0
  0
LINE
  5
11D
330
18
100
AcDbEntity
  8
0
100
AcDbLine
 10
3.861
 20
3.72
 30
0.0
 11
3.861
 21
4.65
 31
0.0
  0
LINE
  5
11E
330
18
100
AcDbEntity
  8
0
100
AcDbLine
 10
3.456
 20
2.394
 30
0.0
 11
3.456
 21
3.112
 31
0.0
  0
LINE
  5
11F
330
18
100
AcDbEntity
  8
0
100
AcDbLine
 10
3.644
 20
3.471
 30
0.0
 11
3.751
 21
3.368
 31
0.0
  0
LINE
  5
120
330
18
100
AcDbEntity
  8
0
100
AcDbLine
 10
3.456
 20
3.112
 30
0.0
 11
3.393
 21
3.184
 31
0.0
  0
LINE
  5
121
330
18
100
AcDbEntity
  8
0
100
AcDbLine
 10
3.751
 20
3.368
 30
0.0
 11
3.751
 21
2.677
 31
0.0
  0
LINE
  5
122
330
18
100
AcDbEntity
  8
0
100
AcDbLine
 10
3.456
 20
2.394
 30
0.0
 11
3.751
 21
2.615
 31
0.0
  0
LINE
  5
123
330
18
100
AcDbEntity
  8
0
100
AcDbLine
 10
3.408
 20
2.405
 30
0.0
 11
3.408
 21
3.166
 31
0.0
  0
LINE
  5
124
330
18
100
AcDbEntity
  8
0
100
AcDbLine
 10
3.456
 20
2.394
 30
0.0
 11
3.408
 21
2.405
 31
0.0
  0
ARC
  5
125
330
18
100
AcDbEntity
  8
0
100
AcDbCircle
 10
3.449
 20
3.713
 30
0.0
 40
0.022
100
AcDbArc
 50
306.842
 51
0.0
  0
ARC
  5
126
330
18
100
AcDbEntity
  8
0
100
AcDbCircle
 10
3.7
 20
1.393
 30
0.0
 40
0.035
100
AcDbArc
 50
306.842
 51
0.0
  0
ARC
  5
127
330
18
100
AcDbEntity
  8
0
100
AcDbCircle
 10
2.586
 20
1.372
 30
0.0
 40
0.035
100
AcDbArc
 50
180.0
 51
257.313
  0
ARC
  5
128
330
18
100
AcDbEntity
  8
0
100
AcDbCircle
 10
3.42
 20
1.184
 30
0.0
 40
0.035
100
AcDbArc
 50
257.313
 51
306.842
  0
ARC
  5
129
330
18
100
AcDbEntity
  8
0
100
AcDbCircle
 10
5.577999999999999
 20
5.279
 30
0.0
 40
0.035
100
AcDbArc
 50
0.0
 51
77.313
  0
LINE
  5
12A
330
18
100
AcDbEntity
  8
0
100
AcDbLine
 10
3.661
 20
3.491
 30
0.0
 11
5.126
 21
2.092
 31
0.0
  0
LINE
  5
12B
330
18
100
AcDbEntity
  8
0
100
AcDbLine
 10
3.373
 20
3.735
 30
0.0
 11
0.258
 21
4.437
 31
0.0
  0
LINE
  5
12C
330
18
100
AcDbEntity
  8
0
100
AcDbLine
 10
-0.024
 20
4.405
 30
0.0
 11
-0.024
 21
4.299
 31
0.0
  0
LINE
  5
12D
330
18
100
AcDbEntity
  8
0
100
AcDbLine
 10
-0.024
 20
4.405
 30
0.0
 11
0.015
 21
4.428999999999999
 31
0.0
  0
LINE
  5
12E
330
18
100
AcDbEntity
  8
0
100
AcDbLine
 10
3.254
 20
3.7
 30
0.0
 11
0.015
 21
4.428999999999999
 31
0.0
  0
LINE
  5
12F
330
18
100
AcDbEntity
  8
0
100
AcDbLine
 10
3.221
 20
3.675
 30
0.0
 11
-0.024
 21
4.405
 31
0.0
  0
LINE
  5
130
330
18
100
AcDbEntity
  8
0
100
AcDbLine
 10
0.176
 20
4.393
 30
0.0
 11
0.232
 21
4.428
 31
0.0
  0
LINE
  5
131
330
18
100
AcDbEntity
  8
0
100
AcDbLine
 10
0.248
 20
5.388999999999999
 30
0.0
 11
0.248
 21
5.891
 31
0.0
  0
LINE
  5
132
330
18
100
AcDbEntity
  8
0
100
AcDbLine
 10
0.248
 20
5.388999999999999
 30
0.0
 11
0.439
 21
5.347
 31
0.0
  0
LINE
  5
133
330
18
100
AcDbEntity
  8
0
100
AcDbLine
 10
0.058
 20
5.172000000000001
 30
0.0
 11
0.439
 21
5.347
 31
0.0
  0
LINE
  5
134
330
18
100
AcDbEntity
  8
0
100
AcDbLine
 10
0.248
 20
5.064
 30
0.0
 11
0.058
 21
5.172000000000001
 31
0.0
  0
ARC
  5
135
330
18
100
AcDbEntity
  8
0
100
AcDbCircle
 10
0.044
 20
6.032
 30
0.0
 40
0.035
100
AcDbArc
 50
121.755
 51
180.0
  0
ARC
  5
136
330
18
100
AcDbEntity
  8
0
100
AcDbCircle
 10
3.465
 20
5.513
 30
0.0
 40
0.006
100
AcDbArc
 50
0.0
 51
126.842
  0
LINE
  5
137
330
18
100
AcDbEntity
  8
0
100
AcDbLine
 10
3.171
 20
5.34
 30
0.0
 11
0.037
 21
6.045
 31
0.0
  0
LINE
  5
138
330
18
100
AcDbEntity
  8
0
100
AcDbLine
 10
3.467
 20
5.519
 30
0.0
 11
0.299
 21
6.232
 31
0.0
  0
LINE
  5
139
330
18
100
AcDbEntity
  8
0
100
AcDbLine
 10
0.025
 20
6.062
 30
0.0
 11
0.299
 21
6.232
 31
0.0
  0
LINE
  5
13A
330
18
100
AcDbEntity
  8
0
100
AcDbLine
 10
0.008
 20
5.945
 30
0.0
 11
0.008
 21
6.032
 31
0.0
  0
LINE
  5
13B
330
18
100
AcDbEntity
  8
0
100
AcDbLine
 10
3.439
 20
3.728
 30
0.0
 11
3.439
 21
5.462000000000001
 31
0.0
  0
LINE
  5
13C
330
18
100
AcDbEntity
  8
0
100
AcDbLine
 10
3.254
 20
5.324
 30
0.0
 11
3.439
 21
5.462000000000001
 31
0.0
  0
ARC
  5
13D
330
18
100
AcDbEntity
  8
0
100
AcDbCircle
 10
3.245
 20
5.326000000000001
 30
0.0
 40
0.024
100
AcDbArc
 50
126.842
 51
180.0
  0
LINE
  5
13E
330
18
100
AcDbEntity
  8
0
100
AcDbLine
 10
3.23
 20
5.346
 30
0.0
 11
3.461
 21
5.518
 31
0.0
  0
LINE
  5
13F
330
18
100
AcDbEntity
  8
0
100
AcDbLine
 10
3.221
 20
5.222
 30
0.0
 11
3.221
 21
5.326000000000001
 31
0.0
  0
LINE
  5
140
330
18
100
AcDbEntity
  8
0
100
AcDbLine
 10
3.254
 20
5.247000000000001
 30
0.0
 11
3.254
 21
5.324
 31
0.0
  0
LINE
  5
141
330
18
100
AcDbEntity
  8
0
100
AcDbLine
 10
3.221
 20
5.222
 30
0.0
 11
3.254
 21
5.247000000000001
 31
0.0
  0
LINE
  5
142
330
18
100
AcDbEntity
  8
0
100
AcDbLine
 10
3.221
 20
5.222
 30
0.0
 11
0.008
 21
5.945
 31
0.0
  0
LINE
  5
143
330
18
100
AcDbEntity
  8
0
100
AcDbLine
 10
0.248
 20
4.456
 30
0.0
 11
0.248
 21
5.064
 31
0.0
  0
LINE
  5
144
330
18
100
AcDbEntity
  8
0
100
AcDbLine
 10
4.277
 20
5.196000000000001
 30
0.0
 11
4.766
 21
5.497999999999999
 31
0.0
  0
LINE
  5
145
330
18
100
AcDbEntity
  8
0
100
AcDbLine
 10
4.799
 20
4.697
 30
0.0
 11
5.53
 21
5.245
 31
0.0
  0
LINE
  5
146
330
18
100
AcDbEntity
  8
0
100
AcDbLine
 10
4.938
 20
4.564
 30
0.0
 11
5.613
 21
5.07
 31
0.0
  0
LINE
  5
147
330
18
100
AcDbEntity
  8
0
100
AcDbLine
 10
0.6890000000000001
 20
7.316
 30
0.0
 11
0.54
 21
7.296
 31
0.0
  0
LINE
  5
148
330
18
100
AcDbEntity
  8
0
100
AcDbLine
 10
0.6890000000000001
 20
7.316
 30
0.0
 11
0.866
 21
7.301
 31
0.0
  0
LINE
  5
149
330
18
100
AcDbEntity
  8
0
100
AcDbLine
 10
0.594
 20
7.15
 30
0.0
 11
0.245
 21
6.752000000000001
 31
0.0
  0
LINE
  5
14A
330
18
100
AcDbEntity
  8
0
100
AcDbLine
 10
0.878
 20
7.268
 30
0.0
 11
0.8240000000000001
 21
7.414
 31
0.0
  0
LINE
  5
14B
330
18
100
AcDbEntity
  8
0
100
AcDbLine
 10
0.54
 20
7.296
 30
0.0
 11
0.878
 21
7.268
 31
0.0
  0
LINE
  5
14C
330
18
100
AcDbEntity
  8
0
100
AcDbLine
 10
0.594
 20
7.15
 30
0.0
 11
0.54
 21
7.296
 31
0.0
  0
LINE
  5
14D
330
18
100
AcDbEntity
  8
0
100
AcDbLine
 10
1.173
 20
7.811
 30
0.0
 11
0.8240000000000001
 21
7.414
 31
0.0
  0
LINE
  5
14E
330
18
100
AcDbEntity
  8
0
100
AcDbLine
 10
1.313
 20
7.678
 30
0.0
 11
5.9
 21
3.298
 31
0.0
  0
LINE
  5
14F
330
18
100
AcDbEntity
  8
0
100
AcDbLine
 10
0.245
 20
6.752000000000001
 30
0.0
 11
0.9420000000000001
 21
6.087000000000001
 31
0.0
  0
LINE
  5
150
330
18
100
AcDbEntity
  8
0
100
AcDbLine
 10
6.22
 20
3.341
 30
0.0
 11
5.126
 21
2.092
 31
0.0
  0
LINE
  5
151
330
18
100
AcDbEntity
  8
0
100
AcDbLine
 10
1.493
 20
7.854
 30
0.0
 11
1.173
 21
7.811
 31
0.0
  0
LINE
  5
152
330
18
100
AcDbEntity
  8
0
100
AcDbLine
 10
1.493
 20
7.854
 30
0.0
 11
6.22
 21
3.341
 31
0.0
  0
LINE
  5
153
330
18
100
AcDbEntity
  8
0
100
AcDbLine
 10
2.836
 20
1.279
 30
0.0
 11
2.579
 21
1.337
 31
0.0
  0
LINE
  5
154
330
18
100
AcDbEntity
  8
0
100
AcDbLine
 10
3.104
 20
1.349
 30
0.0
 11
3.144
 21
1.21
 31
0.0
  0
LINE
  5
155
330
18
100
AcDbEntity
  8
0
100
AcDbLine
 10
2.876
 20
1.141
 30
0.0
 11
3.104
 21
1.349
 31
0.0
  0
LINE
  5
156
330
18
100
AcDbEntity
  8
0
100
AcDbLine
 10
2.836
 20
1.279
 30
0.0
 11
2.876
 21
1.141
 31
0.0
  0
LINE
  5
157
330
18
100
AcDbEntity
  8
0
100
AcDbLine
 10
3.429
 20
1.213
 30
0.0
 11
3.429
 21
2.4
 31
0.0
  0
LINE
  5
158
330
18
100
AcDbEntity
  8
0
100
AcDbLine
 10
3.442
 20
1.156
 30
0.0
 11
3.721
 21
1.365
 31
0.0
  0
LINE
  5
159
330
18
100
AcDbEntity
  8
0
100
AcDbLine
 10
3.413
 20
1.15
 30
0.0
 11
3.144
 21
1.21
 31
0.0
  0
LINE
  5
15A
330
18
100
AcDbEntity
  8
0
100
AcDbLine
 10
3.735
 20
1.393
 30
0.0
 11
3.735
 21
2.603
 31
0.0
  0
LINE
  5
15B
330
18
100
AcDbEntity
  8
0
100
AcDbLine
 10
2.551
 20
2.776
 30
0.0
 11
2.551
 21
1.372
 31
0.0
  0
LINE
  5
15C
330
18
100
AcDbEntity
  8
0
100
AcDbLine
 10
0.7190000000000001
 20
2.727
 30
0.0
 11
0.6709999999999999
 21
2.738
 31
0.0
  0
LINE
  5
15D
330
18
100
AcDbEntity
  8
0
100
AcDbLine
 10
2.078
 20
2.421
 30
0.0
 11
2.03
 21
2.432
 31
0.0
  0
LINE
  5
15E
330
18
100
AcDbEntity
  8
0
100
AcDbLine
 10
0.6770000000000001
 20
2.967
 30
0.0
 11
2.037
 21
3.809
 31
0.0
  0
LINE
  5
15F
330
18
100
AcDbEntity
  8
0
100
AcDbLine
 10
0.6709999999999999
 20
2.955
 30
0.0
 11
0.6709999999999999
 21
2.738
 31
0.0
  0
ARC
  5
160
330
18
100
AcDbEntity
  8
0
100
AcDbCircle
 10
0.6879999999999999
 20
2.954
 30
0.0
 40
0.017
100
AcDbArc
 50
84.973
 51
178.169
  0
ARC
  5
161
330
18
100
AcDbEntity
  8
0
100
AcDbCircle
 10
2.043
 20
2.63
 30
0.0
 40
0.035
100
AcDbArc
 50
0.0
 51
77.313
  0
LINE
  5
162
330
18
100
AcDbEntity
  8
0
100
AcDbLine
 10
1.2
 20
2.761
 30
0.0
 11
1.2
 21
2.72
 31
0.0
  0
LINE
  5
163
330
18
100
AcDbEntity
  8
0
100
AcDbLine
 10
1.2
 20
2.72
 30
0.0
 11
1.526
 21
2.797
 31
0.0
  0
LINE
  5
164
330
18
100
AcDbEntity
  8
0
100
AcDbLine
 10
2.05
 20
2.665
 30
0.0
 11
1.524
 21
2.783
 31
0.0
  0
LINE
  5
165
330
18
100
AcDbEntity
  8
0
100
AcDbLine
 10
1.206
 20
2.806
 30
0.0
 11
0.7190000000000001
 21
2.915
 31
0.0
  0
LINE
  5
166
330
18
100
AcDbEntity
  8
0
100
AcDbLine
 10
1.532
 20
2.839
 30
0.0
 11
1.517
 21
2.736
 31
0.0
  0
LINE
  5
167
330
18
100
AcDbEntity
  8
0
100
AcDbLine
 10
1.2
 20
2.761
 30
0.0
 11
1.532
 21
2.839
 31
0.0
  0
LINE
  5
168
330
18
100
AcDbEntity
  8
0
100
AcDbLine
 10
1.213
 20
2.853
 30
0.0
 11
1.2
 21
2.761
 31
0.0
  0
LINE
  5
169
330
18
100
AcDbEntity
  8
0
100
AcDbLine
 10
2.03
 20
2.62
 30
0.0
 11
1.517
 21
2.736
 31
0.0
  0
LINE
  5
16A
330
18
100
AcDbEntity
  8
0
100
AcDbLine
 10
0.7190000000000001
 20
2.727
 30
0.0
 11
0.7190000000000001
 21
2.915
 31
0.0
  0
LINE
  5
16B
330
18
100
AcDbEntity
  8
0
100
AcDbLine
 10
1.213
 20
2.853
 30
0.0
 11
0.6890000000000001
 21
2.971
 31
0.0
  0
LINE
  5
16C
330
18
100
AcDbEntity
  8
0
100
AcDbLine
 10
2.03
 20
2.432
 30
0.0
 11
2.03
 21
2.62
 31
0.0
  0
LINE
  5
16D
330
18
100
AcDbEntity
  8
0
100
AcDbLine
 10
5.031000000000001
 20
5.439
 30
0.0
 11
4.766
 21
5.497999999999999
 31
0.0
  0
LINE
  5
16E
330
18
100
AcDbEntity
  8
0
100
AcDbLine
 10
5.372000000000001
 20
5.438
 30
0.0
 11
5.381
 21
5.359
 31
0.0
  0
LINE
  5
16F
330
18
100
AcDbEntity
  8
0
100
AcDbLine
 10
5.04
 20
5.36
 30
0.0
 11
5.372000000000001
 21
5.438
 31
0.0
  0
LINE
  5
170
330
18
100
AcDbEntity
  8
0
100
AcDbLine
 10
5.031000000000001
 20
5.439
 30
0.0
 11
5.04
 21
5.36
 31
0.0
  0
LINE
  5
171
330
18
100
AcDbEntity
  8
0
100
AcDbLine
 10
2.148
 20
2.711
 30
0.0
 11
3.256
 21
3.542
 31
0.0
  0
LINE
  5
172
330
18
100
AcDbEntity
  8
0
100
AcDbLine
 10
2.078
 20
2.421
 30
0.0
 11
2.078
 21
2.63
 31
0.0
  0
LINE
  5
173
330
18
100
AcDbEntity
  8
0
100
AcDbLine
 10
5.586
 20
5.314
 30
0.0
 11
5.381
 21
5.36
 31
0.0
  0
LINE
  5
174
330
18
100
AcDbEntity
  8
0
100
AcDbLine
 10
5.613
 20
5.07
 30
0.0
 11
5.613
 21
5.279
 31
0.0
  0
LINE
  5
175
330
18
100
AcDbEntity
  8
0
100
AcDbLine
 10
2.078
 20
2.421
 30
0.0
 11
3.393
 21
3.407
 31
0.0
  0
LINE
  5
176
330
18
100
AcDbEntity
  8
0
100
AcDbLine
 10
3.221
 20
3.675
 30
0.0
 11
3.221
 21
3.56
 31
0.0
  0
LINE
  5
177
330
18
100
AcDbEntity
  8
0
100
AcDbLine
 10
3.256
 20
3.542
 30
0.0
 11
3.462
 21
3.696
 31
0.0
  0
ARC
  5
178
330
18
100
AcDbEntity
  8
0
100
AcDbCircle
 10
3.243
 20
3.56
 30
0.0
 40
0.022
100
AcDbArc
 50
180.0
 51
306.842
  0
LINE
  5
179
330
18
100
AcDbEntity
  8
0
100
AcDbLine
 10
3.254
 20
3.578
 30
0.0
 11
3.43
 21
3.71
 31
0.0
  0
ARC
  5
17A
330
18
100
AcDbEntity
  8
0
100
AcDbCircle
 10
3.417
 20
3.728
 30
0.0
 40
0.022
100
AcDbArc
 50
306.842
 51
0.0
  0
LINE
  5
17B
330
18
100
AcDbEntity
  8
0
100
AcDbLine
 10
3.221
 20
3.675
 30
0.0
 11
3.254
 21
3.7
 31
0.0
  0
LINE
  5
17C
330
18
100
AcDbEntity
  8
0
100
AcDbLine
 10
3.254
 20
3.7
 30
0.0
 11
3.254
 21
3.578
 31
0.0
  0
LINE
  5
17D
330
18
100
AcDbEntity
  8
0
100
AcDbLine
 10
3.233
 20
3.54
 30
0.0
 11
0.002
 21
4.267
 31
0.0
  0
ARC
  5
17E
330
18
100
AcDbEntity
  8
0
100
AcDbCircle
 10
0.009
 20
4.299
 30
0.0
 40
0.033
100
AcDbArc
 50
180.0
 51
257.313
  0
ARC
  5
17F
330
18
100
AcDbEntity
  8
0
100
AcDbCircle
 10
0.215
 20
4.456
 30
0.0
 40
0.033
100
AcDbArc
 50
301.755
 51
0.0
  0
LINE
  5
180
330
18
100
AcDbEntity
  8
0
100
AcDbLine
 10
3.471
 20
3.713
 30
0.0
 11
3.471
 21
5.513
 31
0.0
  0
TEXT
  5
181
330
18
100
AcDbEntity
  8
0
100
AcDbText
 10
0.219847
 20
0.686343
 30
0.0
 40
0.2
  1
Simpson Strong-Tie
100
AcDbText
  0
TEXT
  5
182
330
18
100
AcDbEntity
  8
0
100
AcDbText
 10
0.219847
 20
0.362534
 30
0.0
 40
0.2
  1
S/LTS
100
AcDbText
  0
ENDSEC
  0
SECTION
  2
OBJECTS
  0
DICTIONARY
  5
C
330
0
100
AcDbDictionary
281
     1
  3
ACAD_COLOR
350
188
  3
ACAD_GROUP
350
D
  3
ACAD_LAYOUT
350
15
  3
ACAD_MATERIAL
350
18A
  3
ACAD_MLINESTYLE
350
12
  3
ACAD_PLOTSETTINGS
350
14
  3
ACAD_PLOTSTYLENAME
350
E
  3
ACDBHEADERROUNDTRIPXREC
350
187
  0
DICTIONARY
  5
188
102
{ACAD_REACTORS
330
C
102
}
330
C
100
AcDbDictionary
281
     1
  0
DICTIONARY
  5
D
102
{ACAD_REACTORS
330
C
102
}
330
C
100
AcDbDictionary
281
     1
  0
DICTIONARY
  5
15
102
{ACAD_REACTORS
330
C
102
}
330
C
100
AcDbDictionary
281
     1
  3
Layout1
350
17
  3
Model
350
19
  0
DICTIONARY
  5
18A
102
{ACAD_REACTORS
330
C
102
}
330
C
100
AcDbDictionary
281
     1
  0
DICTIONARY
  5
12
102
{ACAD_REACTORS
330
C
102
}
330
C
100
AcDbDictionary
281
     1
  3
Standard
350
13
  0
DICTIONARY
  5
14
102
{ACAD_REACTORS
330
C
102
}
330
C
100
AcDbDictionary
281
     1
  0
ACDBDICTIONARYWDFLT
  5
E
102
{ACAD_REACTORS
330
C
102
}
330
C
100
AcDbDictionary
281
     1
  3
Normal
350
F
100
AcDbDictionaryWithDefault
340
F
  0
DICTIONARY
  5
187
102
{ACAD_REACTORS
330
C
102
}
330
C
100
AcDbDictionary
281
     1
  3
COLORDICT
350
189
  3
MATERIALDICT
350
18B
  0
LAYOUT
  5
17
102
{ACAD_REACTORS
330
15
102
}
102
{ACAD_XDICTIONARY
360
18C
102
}
330
15
100
AcDbPlotSettings
  1

  2

  4

  6

 40
0.0
 41
0.0
 42
0.0
 43
0.0
 44
0.0
 45
0.0
 46
0.0
 47
0.0
 48
0.0
 49
0.0
140
0.0
141
0.0
142
1.0
143
1.0
 70
   688
 72
     0
 73
     0
 74
     5
  7

 75
    16
147
1.0
148
0.0
149
0.0
100
AcDbLayout
  1
Layout1
 70
     1
 71
     1
 10
0.0
 20
0.0
 11
12.0
 21
9.0
 12
0.0
 22
0.0
 32
0.0
 14
1.000000000000000E+20
 24
1.000000000000000E+20
 34
1.000000000000000E+20
 15
-1.000000000000000E+20
 25
-1.000000000000000E+20
 35
-1.000000000000000E+20
146
0.0
 13
0.0
 23
0.0
 33
0.0
 16
1.0
 26
0.0
 36
0.0
 17
0.0
 27
1.0
 37
0.0
 76
     0
330
16
  0
LAYOUT
  5
19
102
{ACAD_REACTORS
330
15
102
}
102
{ACAD_XDICTIONARY
360
18E
102
}
330
15
100
AcDbPlotSettings
  1

  2

  4

  6

 40
0.0
 41
0.0
 42
0.0
 43
0.0
 44
0.0
 45
0.0
 46
0.0
 47
0.0
 48
0.0
 49
0.0
140
0.0
141
0.0
142
1.0
143
1.0
 70
  1712
 72
     0
 73
     0
 74
     0
  7

 75
     0
147
1.0
148
0.0
149
0.0
100
AcDbLayout
  1
Model
 70
     1
 71
     0
 10
0.0
 20
0.0
 11
0.0
 21
0.0
 12
0.0
 22
0.0
 32
0.0
 14
0.0
 24
0.0
 34
0.0
 15
0.0
 25
0.0
 35
0.0
146
0.0
 13
0.0
 23
0.0
 33
0.0
 16
1.0
 26
0.0
 36
0.0
 17
0.0
 27
1.0
 37
0.0
 76
     0
330
18
  0
MLINESTYLE
  5
13
102
{ACAD_REACTORS
330
12
102
}
330
12
100
AcDbMlineStyle
  2
Standard
 70
     0
  3

 62
   256
 51
90.0
 52
90.0
 71
     2
 49
0.5
 62
   256
  6
BYLAYER
 49
-0.5
 62
   256
  6
BYLAYER
  0
ACDBPLACEHOLDER
  5
F
102
{ACAD_REACTORS
330
E
102
}
330
E
  0
XRECORD
  5
189
102
{ACAD_REACTORS
330
187
102
}
330
187
100
AcDbXrecord
340
188
  0
XRECORD
  5
18B
102
{ACAD_REACTORS
330
187
102
}
330
187
100
AcDbXrecord
340
18A
  0
DICTIONARY
  5
18C
330
17
100
AcDbDictionary
280
     1
281
     1
  3
ACAD_XREC_ROUNDTRIP
360
18D
  0
DICTIONARY
  5
18E
330
19
100
AcDbDictionary
280
     1
281
     1
  3
ACAD_XREC_ROUNDTRIP
360
18F
  0
XRECORD
  5
18D
102
{ACAD_REACTORS
330
18C
102
}
330
18C
100
AcDbXrecord
102
SHADEPLOT
 70
 -5928
102
SHADEPLOTRESLEVEL
 70
 -5872
102
SHADEPLOTCUSTOMDPI
 70
 -5816
  0
XRECORD
  5
18F
102
{ACAD_REACTORS
330
18E
102
}
330
18E
100
AcDbXrecord
102
SHADEPLOT
 70
     0
102
SHADEPLOTRESLEVEL
 70
     0
102
SHADEPLOTCUSTOMDPI
 70
     0
  0
ENDSEC
  0
EOF
