  0
SECTION
  2
HEADER
  9
$ACADVER
  1
AC1015
  9
$ACADMAINTVER
 70
     6
  9
$DWGCODEPAGE
  3
ANSI_1252
  9
$INSBASE
 10
0.0
 20
0.0
 30
0.0
  9
$EXTMIN
 10
35.28363198084185
 20
87.62028192231115
 30
-0.0015258207003612
  9
$EXTMAX
 10
177.809667387314
 20
197.0732800578473
 30
0.0000000349246008
  9
$LIMMIN
 10
35.33152126736111
 20
87.48130967881944
  9
$LIMMAX
 10
177.9903415256076
 20
197.2122517903646
  9
$ORTHOMODE
 70
     0
  9
$REGENMODE
 70
     1
  9
$FILLMODE
 70
     1
  9
$QTEXTMODE
 70
     0
  9
$MIRRTEXT
 70
     1
  9
$LTSCALE
 40
1.0
  9
$ATTMODE
 70
     1
  9
$TEXTSIZE
 40
0.2
  9
$TRACEWID
 40
0.05
  9
$TEXTSTYLE
  7
STANDARD
  9
$CLAYER
  8
0
  9
$CELTYPE
  6
CONTINUOUS
  9
$CECOLOR
 62
   256
  9
$CELTSCALE
 40
1.0
  9
$DISPSILH
 70
     0
  9
$DIMSCALE
 40
1.0
  9
$DIMASZ
 40
0.18
  9
$DIMEXO
 40
0.0625
  9
$DIMDLI
 40
0.38
  9
$DIMRND
 40
0.0
  9
$DIMDLE
 40
0.0
  9
$DIMEXE
 40
0.18
  9
$DIMTP
 40
0.0
  9
$DIMTM
 40
0.0
  9
$DIMTXT
 40
0.18
  9
$DIMCEN
 40
0.09
  9
$DIMTSZ
 40
0.0
  9
$DIMTOL
 70
     0
  9
$DIMLIM
 70
     0
  9
$DIMTIH
 70
     1
  9
$DIMTOH
 70
     1
  9
$DIMSE1
 70
     0
  9
$DIMSE2
 70
     0
  9
$DIMTAD
 70
     0
  9
$DIMZIN
 70
     0
  9
$DIMBLK
  1

  9
$DIMASO
 70
     1
  9
$DIMSHO
 70
     1
  9
$DIMPOST
  1

  9
$DIMAPOST
  1

  9
$DIMALT
 70
     0
  9
$DIMALTD
 70
     2
  9
$DIMALTF
 40
25.4
  9
$DIMLFAC
 40
1.0
  9
$DIMTOFL
 70
     0
  9
$DIMTVP
 40
0.0
  9
$DIMTIX
 70
     0
  9
$DIMSOXD
 70
     0
  9
$DIMSAH
 70
     0
  9
$DIMBLK1
  1

  9
$DIMBLK2
  1

  9
$DIMSTYLE
  2
STANDARD
  9
$DIMCLRD
 70
     0
  9
$DIMCLRE
 70
     0
  9
$DIMCLRT
 70
     0
  9
$DIMTFAC
 40
1.0
  9
$DIMGAP
 40
0.09
  9
$DIMJUST
 70
     0
  9
$DIMSD1
 70
     0
  9
$DIMSD2
 70
     0
  9
$DIMTOLJ
 70
     1
  9
$DIMTZIN
 70
     0
  9
$DIMALTZ
 70
     0
  9
$DIMALTTZ
 70
     0
  9
$DIMUPT
 70
     0
  9
$DIMDEC
 70
     4
  9
$DIMTDEC
 70
     4
  9
$DIMALTU
 70
     2
  9
$DIMALTTD
 70
     2
  9
$DIMTXSTY
  7
STANDARD
  9
$DIMAUNIT
 70
     0
  9
$DIMADEC
 70
     0
  9
$DIMALTRND
 40
0.0
  9
$DIMAZIN
 70
     0
  9
$DIMDSEP
 70
    46
  9
$DIMATFIT
 70
     3
  9
$DIMFRAC
 70
     0
  9
$DIMLDRBLK
  1

  9
$DIMLUNIT
 70
     2
  9
$DIMLWD
 70
    -2
  9
$DIMLWE
 70
    -2
  9
$DIMTMOVE
 70
     0
  9
$LUNITS
 70
     2
  9
$LUPREC
 70
     4
  9
$SKETCHINC
 40
0.1
  9
$FILLETRAD
 40
0.0
  9
$AUNITS
 70
     0
  9
$AUPREC
 70
     0
  9
$MENU
  1
acad
  9
$ELEVATION
 40
0.0
  9
$PELEVATION
 40
0.0
  9
$THICKNESS
 40
0.0
  9
$LIMCHECK
 70
     0
  9
$CHAMFERA
 40
0.0
  9
$CHAMFERB
 40
0.0
  9
$CHAMFERC
 40
0.0
  9
$CHAMFERD
 40
0.0
  9
$SKPOLY
 70
     0
  9
$TDCREATE
 40
2444971.666666667
  9
$TDUCREATE
 40
2444972.0
  9
$TDUPDATE
 40
2452219.435231713
  9
$TDUUPDATE
 40
2452219.768565046
  9
$TDINDWG
 40
0.0004030093
  9
$TDUSRTIMER
 40
0.0004030093
  9
$USRTIMER
 70
     1
  9
$ANGBASE
 50
0.0
  9
$ANGDIR
 70
     0
  9
$PDMODE
 70
     0
  9
$PDSIZE
 40
0.0
  9
$PLINEWID
 40
0.0
  9
$SPLFRAME
 70
     0
  9
$SPLINETYPE
 70
     6
  9
$SPLINESEGS
 70
     8
  9
$HANDSEED
  5
154
  9
$SURFTAB1
 70
     6
  9
$SURFTAB2
 70
     6
  9
$SURFTYPE
 70
     6
  9
$SURFU
 70
     6
  9
$SURFV
 70
     6
  9
$UCSBASE
  2

  9
$UCSNAME
  2

  9
$UCSORG
 10
0.0
 20
0.0
 30
0.0
  9
$UCSXDIR
 10
1.0
 20
0.0
 30
0.0
  9
$UCSYDIR
 10
0.0
 20
1.0
 30
0.0
  9
$UCSORTHOREF
  2

  9
$UCSORTHOVIEW
 70
     0
  9
$UCSORGTOP
 10
0.0
 20
0.0
 30
0.0
  9
$UCSORGBOTTOM
 10
0.0
 20
0.0
 30
0.0
  9
$UCSORGLEFT
 10
0.0
 20
0.0
 30
0.0
  9
$UCSORGRIGHT
 10
0.0
 20
0.0
 30
0.0
  9
$UCSORGFRONT
 10
0.0
 20
0.0
 30
0.0
  9
$UCSORGBACK
 10
0.0
 20
0.0
 30
0.0
  9
$PUCSBASE
  2

  9
$PUCSNAME
  2

  9
$PUCSORG
 10
0.0
 20
0.0
 30
0.0
  9
$PUCSXDIR
 10
1.0
 20
0.0
 30
0.0
  9
$PUCSYDIR
 10
0.0
 20
1.0
 30
0.0
  9
$PUCSORTHOREF
  2

  9
$PUCSORTHOVIEW
 70
     0
  9
$PUCSORGTOP
 10
0.0
 20
0.0
 30
0.0
  9
$PUCSORGBOTTOM
 10
0.0
 20
0.0
 30
0.0
  9
$PUCSORGLEFT
 10
0.0
 20
0.0
 30
0.0
  9
$PUCSORGRIGHT
 10
0.0
 20
0.0
 30
0.0
  9
$PUCSORGFRONT
 10
0.0
 20
0.0
 30
0.0
  9
$PUCSORGBACK
 10
0.0
 20
0.0
 30
0.0
  9
$USERI1
 70
     0
  9
$USERI2
 70
     0
  9
$USERI3
 70
     0
  9
$USERI4
 70
     0
  9
$USERI5
 70
     0
  9
$USERR1
 40
0.0
  9
$USERR2
 40
0.0
  9
$USERR3
 40
0.0
  9
$USERR4
 40
0.0
  9
$USERR5
 40
0.0
  9
$WORLDVIEW
 70
     1
  9
$SHADEDGE
 70
     3
  9
$SHADEDIF
 70
    70
  9
$TILEMODE
 70
     1
  9
$MAXACTVP
 70
    16
  9
$PINSBASE
 10
0.0
 20
0.0
 30
0.0
  9
$PLIMCHECK
 70
     0
  9
$PEXTMIN
 10
1.000000000000000E+20
 20
1.000000000000000E+20
 30
1.000000000000000E+20
  9
$PEXTMAX
 10
-1.000000000000000E+20
 20
-1.000000000000000E+20
 30
-1.000000000000000E+20
  9
$PLIMMIN
 10
0.0
 20
0.0
  9
$PLIMMAX
 10
12.0
 20
9.0
  9
$UNITMODE
 70
     0
  9
$VISRETAIN
 70
     0
  9
$PLINEGEN
 70
     1
  9
$PSLTSCALE
 70
     0
  9
$TREEDEPTH
 70
  3020
  9
$CMLSTYLE
  2
STANDARD
  9
$CMLJUST
 70
     0
  9
$CMLSCALE
 40
1.0
  9
$PROXYGRAPHICS
 70
     0
  9
$MEASUREMENT
 70
     0
  9
$CELWEIGHT
370
    -1
  9
$ENDCAPS
280
     0
  9
$JOINSTYLE
280
     0
  9
$LWDISPLAY
290
     0
  9
$INSUNITS
 70
     0
  9
$HYPERLINKBASE
  1

  9
$STYLESHEET
  1

  9
$XEDIT
290
     1
  9
$CEPSNTYPE
380
     0
  9
$PSTYLEMODE
290
     1
  9
$FINGERPRINTGUID
  2
{0AE0D01D-D1C7-11D5-923F-00805F198AD5}
  9
$VERSIONGUID
  2
{0AE0D01F-D1C7-11D5-923F-00805F198AD5}
  9
$EXTNAMES
290
     1
  9
$PSVPSCALE
 40
0.0
  9
$OLESTARTUP
290
     0
  0
ENDSEC
  0
SECTION
  2
CLASSES
  0
CLASS
  1
LWPOLYLINE
  2
AcDbPolyline
  3
AutoCAD 2000
 90
        0
280
     0
281
     1
  0
CLASS
  1
IMAGE
  2
AcDbRasterImage
  3
ISM
 90
      127
280
     0
281
     1
  0
CLASS
  1
OLE2FRAME
  2
AcDbOle2Frame
  3
AutoCAD 2000
 90
        0
280
     0
281
     1
  0
CLASS
  1
HATCH
  2
AcDbHatch
  3
AutoCAD 2000
 90
        0
280
     0
281
     1
  0
CLASS
  1
DICTIONARYVAR
  2
AcDbDictionaryVar
  3
AutoCAD 2000
 90
        0
280
     0
281
     0
  0
CLASS
  1
RASTERVARIABLES
  2
AcDbRasterVariables
  3
ISM
 90
        0
280
     0
281
     0
  0
CLASS
  1
IMAGEDEF
  2
AcDbRasterImageDef
  3
ISM
 90
        0
280
     0
281
     0
  0
CLASS
  1
IMAGEDEF_REACTOR
  2
AcDbRasterImageDefReactor
  3
ISM
 90
        1
280
     0
281
     0
  0
CLASS
  1
IDBUFFER
  2
AcDbIdBuffer
  3
AutoCAD 2000
 90
        0
280
     0
281
     0
  0
CLASS
  1
SPATIAL_FILTER
  2
AcDbSpatialFilter
  3
AutoCAD 2000
 90
        0
280
     0
281
     0
  0
CLASS
  1
XRECORD
  2
AcDbXrecord
  3
AutoCAD 2000
 90
        0
280
     0
281
     0
  0
CLASS
  1
SORTENTSTABLE
  2
AcDbSortentsTable
  3
AutoCAD 2000
 90
        0
280
     0
281
     0
  0
CLASS
  1
LAYER_INDEX
  2
AcDbLayerIndex
  3
AutoCAD 2000
 90
        0
280
     0
281
     0
  0
CLASS
  1
SPATIAL_INDEX
  2
AcDbSpatialIndex
  3
AutoCAD 2000
 90
        0
280
     0
281
     0
  0
CLASS
  1
OBJECT_PTR
  2
CAseDLPNTableRecord
  3
ASE-LPNTableRecord
 90
        1
280
     1
281
     0
  0
CLASS
  1
LAYOUT
  2
AcDbLayout
  3
ObjectDBX Classes
 90
        0
280
     0
281
     0
  0
CLASS
  1
PLOTSETTINGS
  2
AcDbPlotSettings
  3
AutoCAD 2000
 90
        0
280
     0
281
     0
  0
CLASS
  1
ACDBDICTIONARYWDFLT
  2
AcDbDictionaryWithDefault
  3
AutoCAD 2000
 90
        0
280
     0
281
     0
  0
CLASS
  1
ACDBPLACEHOLDER
  2
AcDbPlaceHolder
  3
ObjectDBX Classes
 90
        0
280
     0
281
     0
  0
CLASS
  1
VBAPROJECT
  2
AcDbVbaProject
  3
ObjectDBX Classes
 90
        0
280
     0
281
     0
  0
CLASS
  1
WIPEOUT
  2
AcDbWipeout
  3
WipeOut|AutoCAD Express Tool|expresstools@autodesk.com
 90
      127
280
     0
281
     1
  0
CLASS
  1
WIPEOUTVARIABLES
  2
AcDbWipeoutVariables
  3
WipeOut|AutoCAD Express Tool|expresstools@autodesk.com
 90
        0
280
     0
281
     0
  0
CLASS
  1
RTEXT
  2
RText
  3
RText|AutoCAD Express Tool|expresstools@autodesk.com
 90
        0
280
     0
281
     1
  0
CLASS
  1
ARCALIGNEDTEXT
  2
AcDbArcAlignedText
  3
ATEXT|AutoCAD Express Tool|expresstools@autodesk.com
 90
        0
280
     0
281
     1
  0
CLASS
  1
LONG_TRANSACTION
  2
AcDbLongTransaction
  3
AutoCAD 2000
 90
        0
280
     1
281
     0
  0
CLASS
  1
LWPOLYLINE
  2
AcDbPolyline
  3
AutoCAD 2000
 90
        0
280
     0
281
     1
  0
CLASS
  1
HATCH
  2
AcDbHatch
  3
AutoCAD 2000
 90
        0
280
     0
281
     1
  0
CLASS
  1
XRECORD
  2
AcDbXrecord
  3
AutoCAD 2000
 90
        0
280
     0
281
     0
  0
ENDSEC
  0
SECTION
  2
TABLES
  0
TABLE
  2
VPORT
  5
7
330
0
100
AcDbSymbolTable
 70
     2
  0
VPORT
  5
120
330
7
100
AcDbSymbolTableRecord
100
AcDbViewportTableRecord
  2
*Active
 70
     0
 10
0.0
 20
0.0
 11
1.0
 21
1.0
 12
106.5466496840779
 22
142.3467809900793
 13
0.0
 23
0.0
 14
1.0
 24
1.0
 15
0.0
 25
0.0
 16
0.0
 26
0.0
 36
1.0
 17
0.0
 27
0.0
 37
0.0
 40
111.1766673975131
 41
1.836842105263158
 42
50.0
 43
0.0
 44
0.0
 50
0.0
 51
0.0
 71
     0
 72
   100
 73
     1
 74
     1
 75
     0
 76
     0
 77
     0
 78
     0
281
     0
 65
     1
110
0.0
120
0.0
130
0.0
111
1.0
121
0.0
131
0.0
112
0.0
122
1.0
132
0.0
 79
     0
146
0.0
  0
ENDTAB
  0
TABLE
  2
LTYPE
  5
4
330
0
100
AcDbSymbolTable
 70
     1
  0
LTYPE
  5
11
330
4
100
AcDbSymbolTableRecord
100
AcDbLinetypeTableRecord
  2
BYBLOCK
 70
     0
  3

 72
    65
 73
     0
 40
0.0
  0
LTYPE
  5
12
330
4
100
AcDbSymbolTableRecord
100
AcDbLinetypeTableRecord
  2
BYLAYER
 70
     0
  3

 72
    65
 73
     0
 40
0.0
  0
LTYPE
  5
13
330
4
100
AcDbSymbolTableRecord
100
AcDbLinetypeTableRecord
  2
CONTINUOUS
 70
     0
  3
Solid line
 72
    65
 73
     0
 40
0.0
  0
ENDTAB
  0
TABLE
  2
LAYER
  5
2
330
0
100
AcDbSymbolTable
 70
     2
  0
LAYER
  5
14
330
2
100
AcDbSymbolTableRecord
100
AcDbLayerTableRecord
  2
0
 70
     0
 62
     7
  6
CONTINUOUS
370
    -3
390
0
  0
LAYER
  5
21
330
2
100
AcDbSymbolTableRecord
100
AcDbLayerTableRecord
  2
LAYER_1
 70
     0
 62
     5
  6
CONTINUOUS
370
    -3
390
0
  0
ENDTAB
  0
TABLE
  2
STYLE
  5
3
330
0
100
AcDbSymbolTable
 70
     5
  0
STYLE
  5
17
330
3
100
AcDbSymbolTableRecord
100
AcDbTextStyleTableRecord
  2
STANDARD
 70
     0
 40
0.0
 41
1.0
 50
0.0
 71
     0
 42
0.2
  3
txt
  4

  0
STYLE
  5
1D
330
3
100
AcDbSymbolTableRecord
100
AcDbTextStyleTableRecord
  2
STD
 70
     0
 40
0.0
 41
1.0
 50
0.0
 71
     0
 42
0.2
  3
txt
  4

  0
STYLE
  5
1E
330
3
100
AcDbSymbolTableRecord
100
AcDbTextStyleTableRecord
  2
TATESTD
 70
     4
 40
0.0
 41
1.0
 50
0.0
 71
     0
 42
0.2
  3
txt
  4

  0
STYLE
  5
1F
330
3
100
AcDbSymbolTableRecord
100
AcDbTextStyleTableRecord
  2
KANJISTD
 70
     0
 40
0.0
 41
1.0
 50
0.0
 71
     0
 42
0.2
  3
txt
  4
extfont
  0
STYLE
  5
20
330
3
100
AcDbSymbolTableRecord
100
AcDbTextStyleTableRecord
  2
KANJITATE
 70
     4
 40
0.0
 41
1.0
 50
0.0
 71
     0
 42
0.2
  3
txt
  4
extfont
  0
ENDTAB
  0
TABLE
  2
VIEW
  5
5
330
0
100
AcDbSymbolTable
 70
     0
  0
ENDTAB
  0
TABLE
  2
UCS
  5
6
330
0
100
AcDbSymbolTable
 70
     0
  0
ENDTAB
  0
TABLE
  2
APPID
  5
8
330
0
100
AcDbSymbolTable
 70
     1
  0
APPID
  5
16
330
8
100
AcDbSymbolTableRecord
100
AcDbRegAppTableRecord
  2
ACAD
 70
     0
  0
ENDTAB
  0
TABLE
  2
DIMSTYLE
  5
9
330
0
100
AcDbSymbolTable
 70
     1
100
AcDbDimStyleTable
  0
DIMSTYLE
105
18
330
9
100
AcDbSymbolTableRecord
100
AcDbDimStyleTableRecord
  2
STANDARD
 70
     0
  3

  4

289
     0
340
17
  0
ENDTAB
  0
TABLE
  2
BLOCK_RECORD
  5
1
330
0
100
AcDbSymbolTable
 70
     1
  0
BLOCK_RECORD
  5
A
330
1
100
AcDbSymbolTableRecord
100
AcDbBlockTableRecord
  2
*MODEL_SPACE
340
11B
  0
BLOCK_RECORD
  5
B
330
1
100
AcDbSymbolTableRecord
100
AcDbBlockTableRecord
  2
*PAPER_SPACE
340
11C
  0
BLOCK_RECORD
  5
22
330
1
100
AcDbSymbolTableRecord
100
AcDbBlockTableRecord
  2
AI9-BLK1
340
0
102
{BLKREFS
331
23
102
}
  0
ENDTAB
  0
ENDSEC
  0
SECTION
  2
BLOCKS
  0
BLOCK
  5
D
330
A
100
AcDbEntity
  8
0
100
AcDbBlockBegin
  2
*MODEL_SPACE
 70
     0
 10
0.0
 20
0.0
 30
0.0
  3
*MODEL_SPACE
  1

  4

  0
ENDBLK
  5
E
330
A
100
AcDbEntity
  8
0
100
AcDbBlockEnd
  0
BLOCK
  5
F
330
B
100
AcDbEntity
 67
     1
  8
0
100
AcDbBlockBegin
  2
*PAPER_SPACE
 70
     0
 10
0.0
 20
0.0
 30
0.0
  3
*PAPER_SPACE
  1

  4

  0
ENDBLK
  5
10
330
B
100
AcDbEntity
 67
     1
  8
0
100
AcDbBlockEnd
  0
BLOCK
  5
24
330
22
100
AcDbEntity
  8
LAYER_1
 62
     7
100
AcDbBlockBegin
  2
AI9-BLK1
 70
     0
 10
0.0
 20
0.0
 30
0.0
  3
AI9-BLK1
  1

  4

  0
LWPOLYLINE
  5
F2
330
22
100
AcDbEntity
  8
LAYER_1
 62
     7
100
AcDbPolyline
 90
       33
 70
     0
 43
0.0
 10
5.638157145182291
 20
-17.34717542860243
 10
16.1680914984809
 20
-37.12047322591145
 10
33.57719251844618
 20
-43.50147908528646
 10
36.37805514865451
 20
-42.69842732747396
 10
40.28961656358506
 20
-49.0001959906684
 10
44.3462164984809
 20
-47.91361287434896
 10
44.67522311740451
 20
-47.56875881618923
 10
64.19410061306424
 20
-54.72284410264756
 10
71.14802585177951
 20
-51.63948364257812
 10
20.51407945421007
 20
47.63128729926215
 10
0.9114861382378472
 20
50.52516750759548
 10
-0.9454203287760415
 20
50.1844475640191
 10
-2.873984781901041
 20
54.7209493001302
 10
-11.4519280327691
 20
53.57166544596354
 10
-12.38554890950521
 20
52.49335055881076
 10
-23.60002373589409
 20
54.1504414876302
 10
-31.85791761610243
 20
53.06385837131076
 10
-21.67352634006076
 20
33.93909979926215
 10
-71.19160630967882
 20
27.42097913953993
 10
-71.19160630967882
 20
20.25001288519965
 10
-66.5682881673177
 20
18.93708699544271
 10
-66.57138875325521
 20
17.28895331488715
 10
-59.03558688693576
 20
18.22601928710937
 10
-59.02594061957465
 20
16.79527113172743
 10
-53.5892354329427
 20
15.25152384440104
 10
-47.72189331054687
 20
16.5554924858941
 10
-42.67792900933159
 20
15.21879543728299
 10
-42.72374877929687
 20
13.18722262912326
 10
-35.16486477322049
 20
14.04057278103299
 10
-35.1559075249566
 20
13.2006585015191
 10
-29.68475138346354
 20
11.77473347981771
 10
-11.5728508843316
 20
14.97212660047743
 10
4.07666761610243
 20
-14.41522691514757
  0
SPLINE
  5
F1
330
22
100
AcDbEntity
  8
LAYER_1
 62
     7
100
AcDbSpline
210
0.0
220
0.0
230
1.0
 70
    11
 71
     3
 72
    38
 73
    34
 74
     0
 42
0.0000000001
 43
0.0000000001
 40
0.0
 40
0.0
 40
0.0
 40
0.0
 40
1.0
 40
1.0
 40
1.0
 40
2.0
 40
2.0
 40
2.0
 40
3.0
 40
3.0
 40
3.0
 40
4.0
 40
4.0
 40
4.0
 40
5.0
 40
5.0
 40
5.0
 40
6.0
 40
6.0
 40
6.0
 40
7.0
 40
7.0
 40
7.0
 40
8.0
 40
8.0
 40
8.0
 40
9.0
 40
9.0
 40
9.0
 40
10.0
 40
10.0
 40
10.0
 40
11.0
 40
11.0
 40
11.0
 40
11.0
 10
22.81023559570312
 20
20.49427015516493
 30
0.0
 10
22.81023559570312
 20
20.49427015516493
 30
0.0
 10
22.81023559570312
 20
17.68238321940104
 30
0.0
 10
22.81023559570312
 20
17.68238321940104
 30
0.0
 10
22.81023559570312
 20
17.68238321940104
 30
0.0
 10
21.87248060438368
 20
16.71844550238715
 30
0.0
 10
21.87248060438368
 20
16.71844550238715
 30
0.0
 10
21.87248060438368
 20
16.71844550238715
 30
0.0
 10
20.97434421115451
 20
16.56031561957465
 30
0.0
 10
20.97434421115451
 20
16.56031561957465
 30
0.0
 10
20.97434421115451
 20
16.56031561957465
 30
0.0
 10
19.65900675455729
 20
16.66435750325521
 30
0.0
 10
19.65900675455729
 20
16.66435750325521
 30
0.0
 10
19.65900675455729
 20
16.66435750325521
 30
0.0
 10
18.84424167209201
 20
15.68629489474826
 30
0.0
 10
18.84424167209201
 20
15.68629489474826
 30
0.0
 10
18.84424167209201
 20
15.68629489474826
 30
0.0
 10
17.68910115559896
 20
15.46890936957465
 30
0.0
 10
17.68910115559896
 20
15.46890936957465
 30
0.0
 10
17.68910115559896
 20
15.46890936957465
 30
0.0
 10
11.83588392469618
 20
16.77287801106771
 30
0.0
 10
11.83588392469618
 20
16.77287801106771
 30
0.0
 10
11.83588392469618
 20
16.77287801106771
 30
0.0
 10
11.07520684136285
 20
18.67422620985243
 30
0.0
 10
11.07520684136285
 20
18.67422620985243
 30
0.0
 10
11.07520684136285
 20
18.67422620985243
 30
0.0
 10
8.928223334418401
 20
18.71281127929687
 30
0.0
 10
8.928223334418401
 20
18.71281127929687
 30
0.0
 10
8.928223334418401
 20
18.71281127929687
 30
0.0
 10
22.08952162000868
 20
21.06477796766493
 30
0.0
 10
22.08952162000868
 20
21.06477796766493
 30
0.0
 10
22.66002943250868
 20
21.17329847547743
 30
0.0
 10
22.81023559570312
 20
21.01034545898437
 30
0.0
 10
22.81023559570312
 20
20.49427015516493
 30
0.0
  0
LINE
  5
F0
330
22
100
AcDbEntity
  8
LAYER_1
 62
     7
100
AcDbLine
 10
-14.39162801106771
 20
50.32052883572048
 30
0.0
 11
-31.77247924804687
 21
52.98289862738715
 31
0.0
  0
LWPOLYLINE
  5
E9
330
22
100
AcDbEntity
  8
LAYER_1
 62
     7
100
AcDbPolyline
 90
        5
 70
     0
 43
0.0
 10
-11.46777547200521
 20
53.55616251627604
 10
-7.301966010199652
 20
45.56664157443576
 10
-5.61765882703993
 20
49.15229695638021
 10
13.34276869032118
 20
46.25497165256076
 10
64.19410061306424
 20
-54.72284410264756
  0
LINE
  5
E8
330
22
100
AcDbEntity
  8
LAYER_1
 62
     7
100
AcDbLine
 10
-11.43056844075521
 20
53.55306193033854
 30
0.0
 11
-14.39162801106771
 21
50.32052883572048
 31
0.0
  0
LINE
  5
E7
330
22
100
AcDbEntity
  8
LAYER_1
 62
     7
100
AcDbLine
 10
-5.61765882703993
 20
49.15229695638021
 30
0.0
 11
0.9114861382378472
 21
50.52516750759548
 31
0.0
  0
LINE
  5
E6
330
22
100
AcDbEntity
  8
LAYER_1
 62
     7
100
AcDbLine
 10
36.37805514865451
 20
-42.69842732747396
 30
0.0
 11
35.04273613823784
 21
-40.5914069281684
 31
0.0
  0
LINE
  5
E5
330
22
100
AcDbEntity
  8
LAYER_1
 62
     7
100
AcDbLine
 10
33.57099134657118
 20
-43.42258639865451
 30
0.0
 11
35.07649807400173
 21
-40.63378160264757
 31
0.0
  0
LINE
  5
E4
330
22
100
AcDbEntity
  8
LAYER_1
 62
     7
100
AcDbLine
 10
40.28961656358506
 20
-48.96850111219618
 30
0.0
 11
41.69969414605034
 21
-46.36331990559896
 31
0.0
  0
LINE
  5
E3
330
22
100
AcDbEntity
  8
LAYER_1
 62
     7
100
AcDbLine
 10
44.71277465820312
 20
-47.57633802625868
 30
0.0
 11
41.68384670681423
 21
-46.41051771375868
 31
0.0
  0
SPLINE
  5
E2
330
22
100
AcDbEntity
  8
LAYER_1
 62
     7
100
AcDbSpline
210
0.0
220
0.0
230
1.0
 70
    11
 71
     3
 72
    83
 73
    79
 74
     0
 42
0.0000000001
 43
0.0000000001
 40
0.0
 40
0.0
 40
0.0
 40
0.0
 40
1.0
 40
1.0
 40
1.0
 40
2.0
 40
2.0
 40
2.0
 40
3.0
 40
3.0
 40
3.0
 40
4.0
 40
4.0
 40
4.0
 40
5.0
 40
5.0
 40
5.0
 40
6.0
 40
6.0
 40
6.0
 40
7.0
 40
7.0
 40
7.0
 40
8.0
 40
8.0
 40
8.0
 40
9.0
 40
9.0
 40
9.0
 40
10.0
 40
10.0
 40
10.0
 40
11.0
 40
11.0
 40
11.0
 40
12.0
 40
12.0
 40
12.0
 40
13.0
 40
13.0
 40
13.0
 40
14.0
 40
14.0
 40
14.0
 40
15.0
 40
15.0
 40
15.0
 40
16.0
 40
16.0
 40
16.0
 40
17.0
 40
17.0
 40
17.0
 40
18.0
 40
18.0
 40
18.0
 40
19.0
 40
19.0
 40
19.0
 40
20.0
 40
20.0
 40
20.0
 40
21.0
 40
21.0
 40
21.0
 40
22.0
 40
22.0
 40
22.0
 40
23.0
 40
23.0
 40
23.0
 40
24.0
 40
24.0
 40
24.0
 40
25.0
 40
25.0
 40
25.0
 40
26.0
 40
26.0
 40
26.0
 40
26.0
 10
5.84555189344618
 20
-17.26156480577257
 30
0.0
 10
5.84555189344618
 20
-17.26156480577257
 30
0.0
 10
2.89069349500868
 20
-17.19369642469618
 30
0.0
 10
2.89069349500868
 20
-17.19369642469618
 30
0.0
 10
2.89069349500868
 20
-17.19369642469618
 30
0.0
 10
1.499563937717014
 20
-16.74755655924479
 30
0.0
 10
1.499563937717014
 20
-16.74755655924479
 30
0.0
 10
1.499563937717014
 20
-16.74755655924479
 30
0.0
 10
1.499563937717014
 20
-15.11768188476562
 30
0.0
 10
1.499563937717014
 20
-15.11768188476562
 30
0.0
 10
1.499563937717014
 20
-15.11768188476562
 30
0.0
 10
5.519645860460069
 20
-14.13961927625868
 30
0.0
 10
5.519645860460069
 20
-14.13961927625868
 30
0.0
 10
6.008504909939235
 20
-14.08553127712674
 30
0.0
 10
6.55868665907118
 20
-13.98148939344618
 30
0.0
 10
7.264931233723957
 20
-14.19887491861979
 30
0.0
 10
7.264931233723957
 20
-14.19887491861979
 30
0.0
 10
45.77662014431423
 20
-26.20055406358507
 30
0.0
 10
45.77662014431423
 20
-26.20055406358507
 30
0.0
 10
46.53729722764756
 20
-26.47237209743923
 30
0.0
 10
46.42877671983506
 20
-26.68941311306423
 30
0.0
 10
46.42877671983506
 20
-27.55895521375868
 30
0.0
 10
46.42877671983506
 20
-27.55895521375868
 30
0.0
 10
46.42877671983506
 20
-30.16964857313368
 30
0.0
 10
46.42877671983506
 20
-30.16964857313368
 30
0.0
 10
46.42877671983506
 20
-30.16964857313368
 30
0.0
 10
45.72253214518229
 20
-30.87589314778646
 30
0.0
 10
45.72253214518229
 20
-30.87589314778646
 30
0.0
 10
45.72253214518229
 20
-30.87589314778646
 30
0.0
 10
43.94796346028645
 20
-30.30159573025173
 30
0.0
 10
43.94796346028645
 20
-30.30159573025173
 30
0.0
 10
43.94796346028645
 20
-30.30159573025173
 30
0.0
 10
42.89720933702257
 20
-31.44330037434895
 30
0.0
 10
42.89720933702257
 20
-31.44330037434895
 30
0.0
 10
42.89720933702257
 20
-31.44330037434895
 30
0.0
 10
41.86505872938368
 20
-31.7578375922309
 30
0.0
 10
41.86505872938368
 20
-31.7578375922309
 30
0.0
 10
41.86505872938368
 20
-31.7578375922309
 30
0.0
 10
36.45935940212673
 20
-30.05802747938368
 30
0.0
 10
36.45935940212673
 20
-30.05802747938368
 30
0.0
 10
36.45935940212673
 20
-30.05802747938368
 30
0.0
 10
35.42720879448785
 20
-27.61304321289062
 30
0.0
 10
35.42720879448785
 20
-27.61304321289062
 30
0.0
 10
35.42720879448785
 20
-27.61304321289062
 30
0.0
 10
30.57789238823785
 20
-26.0775641547309
 30
0.0
 10
30.57789238823785
 20
-26.0775641547309
 30
0.0
 10
30.57789238823785
 20
-26.0775641547309
 30
0.0
 10
29.4510016547309
 20
-27.31435343424479
 30
0.0
 10
29.4510016547309
 20
-27.31435343424479
 30
0.0
 10
29.4510016547309
 20
-27.31435343424479
 30
0.0
 10
28.46914944118923
 20
-27.43596530490451
 30
0.0
 10
28.46914944118923
 20
-27.43596530490451
 30
0.0
 10
28.46914944118923
 20
-27.43596530490451
 30
0.0
 10
21.88798353407118
 20
-25.3520270453559
 30
0.0
 10
21.88798353407118
 20
-25.3520270453559
 30
0.0
 10
21.88798353407118
 20
-25.3520270453559
 30
0.0
 10
21.38913370768229
 20
-23.16749199761285
 30
0.0
 10
21.38913370768229
 20
-23.16749199761285
 30
0.0
 10
21.38913370768229
 20
-23.16749199761285
 30
0.0
 10
16.54843004014757
 20
-21.62994588216146
 30
0.0
 10
16.54843004014757
 20
-21.62994588216146
 30
0.0
 10
16.54843004014757
 20
-21.62994588216146
 30
0.0
 10
15.16281263563368
 20
-22.72376369900173
 30
0.0
 10
15.16281263563368
 20
-22.72376369900173
 30
0.0
 10
15.16281263563368
 20
-22.72376369900173
 30
0.0
 10
14.04970228407118
 20
-22.69895901150174
 30
0.0
 10
14.04970228407118
 20
-22.69895901150174
 30
0.0
 10
14.04970228407118
 20
-22.69895901150174
 30
0.0
 10
9.02365247938368
 20
-21.03945651584201
 30
0.0
 10
9.02365247938368
 20
-21.03945651584201
 30
0.0
 10
9.02365247938368
 20
-21.03945651584201
 30
0.0
 10
7.882981363932291
 20
-18.86629028320312
 30
0.0
 10
7.882981363932291
 20
-18.86629028320312
 30
0.0
 10
7.882981363932291
 20
-18.86629028320312
 30
0.0
 10
6.551796468098957
 20
-18.48595174153646
 30
0.0
 10
6.551796468098957
 20
-18.48595174153646
 30
0.0
 10
6.551796468098957
 20
-18.48595174153646
 30
0.0
 10
5.84555189344618
 20
-17.26156480577257
 30
0.0
 10
5.84555189344618
 20
-17.26156480577257
 30
0.0
  0
LWPOLYLINE
  5
D2
330
22
100
AcDbEntity
  8
LAYER_1
 62
     7
100
AcDbPolyline
 90
       14
 70
     0
 43
0.0
 10
5.84555189344618
 20
-17.26156480577257
 10
10.83026055230035
 20
-18.78843112521701
 10
11.52927042643229
 20
-19.96286417643229
 10
15.12836168077257
 20
-21.1166266547309
 10
18.10940280490451
 20
-21.11697116427951
 10
23.7738288031684
 20
-22.88671671549479
 10
24.74844631618923
 20
-24.20033162434896
 10
29.10029093424479
 20
-25.59559529622396
 10
32.08408813476562
 20
-25.52979397243923
 10
37.22038099500868
 20
-27.19205254448784
 10
37.64068264431423
 20
-28.33341267903646
 10
39.8007575141059
 20
-29.02553236219618
 10
42.02801174587673
 20
-28.69962632921007
 10
45.14272257486979
 20
-27.6495612250434
  0
LINE
  5
D1
330
22
100
AcDbEntity
  8
LAYER_1
 62
     7
100
AcDbLine
 10
2.991290283203125
 20
-16.17498168945312
 30
0.0
 11
2.991290283203125
 21
-17.19369642469618
 31
0.0
  0
LINE
  5
D0
330
22
100
AcDbEntity
  8
LAYER_1
 62
     7
100
AcDbLine
 10
6.142174614800346
 20
-16.2518073187934
 30
0.0
 11
6.142174614800346
 21
-17.27052205403646
 31
0.0
  0
LINE
  5
CF
330
22
100
AcDbEntity
  8
LAYER_1
 62
     7
100
AcDbLine
 10
10.86436699761285
 20
-17.77764010959201
 30
0.0
 11
10.86436699761285
 21
-18.79635484483507
 31
0.0
  0
LINE
  5
CE
330
22
100
AcDbEntity
  8
LAYER_1
 62
     7
100
AcDbLine
 10
11.60644056532118
 20
-18.96137491861979
 30
0.0
 11
11.60644056532118
 21
-19.99593709309896
 31
0.0
  0
LINE
  5
CD
330
22
100
AcDbEntity
  8
LAYER_1
 62
     7
100
AcDbLine
 10
15.20139770507812
 20
-20.12512817382812
 30
0.0
 11
15.20139770507812
 21
-21.15934583875868
 31
0.0
  0
LINE
  5
CC
330
22
100
AcDbEntity
  8
LAYER_1
 62
     7
100
AcDbLine
 10
18.22102389865451
 20
-20.0934332953559
 30
0.0
 11
18.22102389865451
 21
-21.12765096028646
 31
0.0
  0
LINE
  5
CB
330
22
100
AcDbEntity
  8
LAYER_1
 62
     7
100
AcDbLine
 10
23.82137112087673
 20
-21.8545661078559
 30
0.0
 11
23.82137112087673
 21
-22.88878377278646
 31
0.0
  0
LINE
  5
CA
330
22
100
AcDbEntity
  8
LAYER_1
 62
     7
100
AcDbLine
 10
24.81045803493923
 20
-23.1630133734809
 30
0.0
 11
24.81045803493923
 21
-24.19723103841146
 31
0.0
  0
LINE
  5
C9
330
22
100
AcDbEntity
  8
LAYER_1
 62
     7
100
AcDbLine
 10
29.17229342990451
 20
-24.5799811469184
 30
0.0
 11
29.17229342990451
 21
-25.61454332139757
 31
0.0
  0
LINE
  5
C8
330
22
100
AcDbEntity
  8
LAYER_1
 62
     7
100
AcDbLine
 10
32.16056925455729
 20
-24.51211276584201
 30
0.0
 11
32.16056925455729
 21
-25.54633043077257
 31
0.0
  0
LINE
  5
C7
330
22
100
AcDbEntity
  8
LAYER_1
 62
     7
100
AcDbLine
 10
37.27860310872396
 20
-26.2139899359809
 30
0.0
 11
37.27860310872396
 21
-27.24855211046007
 31
0.0
  0
LINE
  5
C6
330
22
100
AcDbEntity
  8
LAYER_1
 62
     7
100
AcDbLine
 10
37.6861579047309
 20
-27.2216803656684
 30
0.0
 11
37.6861579047309
 21
-28.30344034830729
 31
0.0
  0
LINE
  5
C5
330
22
100
AcDbEntity
  8
LAYER_1
 62
     7
100
AcDbLine
 10
39.86828138563368
 20
-27.9689215766059
 30
0.0
 11
39.86828138563368
 21
-29.05033704969618
 31
0.0
  0
LINE
  5
C4
330
22
100
AcDbEntity
  8
LAYER_1
 62
     7
100
AcDbLine
 10
41.97771335177951
 20
-27.66540866427951
 30
0.0
 11
41.97771335177951
 21
-28.7471686469184
 31
0.0
  0
SPLINE
  5
C3
330
22
100
AcDbEntity
  8
LAYER_1
 62
     7
100
AcDbSpline
210
0.0
220
0.0
230
1.0
 70
     8
 71
     3
 72
    53
 73
    49
 74
     0
 42
0.0000000001
 43
0.0000000001
 40
0.0
 40
0.0
 40
0.0
 40
0.0
 40
1.0
 40
1.0
 40
1.0
 40
2.0
 40
2.0
 40
2.0
 40
3.0
 40
3.0
 40
3.0
 40
4.0
 40
4.0
 40
4.0
 40
5.0
 40
5.0
 40
5.0
 40
6.0
 40
6.0
 40
6.0
 40
7.0
 40
7.0
 40
7.0
 40
8.0
 40
8.0
 40
8.0
 40
9.0
 40
9.0
 40
9.0
 40
10.0
 40
10.0
 40
10.0
 40
11.0
 40
11.0
 40
11.0
 40
12.0
 40
12.0
 40
12.0
 40
13.0
 40
13.0
 40
13.0
 40
14.0
 40
14.0
 40
14.0
 40
15.0
 40
15.0
 40
15.0
 40
16.0
 40
16.0
 40
16.0
 40
16.0
 10
1.499563937717014
 20
-15.69473537868923
 30
0.0
 10
1.499563937717014
 20
-15.69473537868923
 30
0.0
 10
2.991290283203125
 20
-16.17498168945312
 30
0.0
 10
2.991290283203125
 20
-16.17498168945312
 30
0.0
 10
2.991290283203125
 20
-16.17498168945312
 30
0.0
 10
6.184893798828124
 20
-16.24836222330729
 30
0.0
 10
6.184893798828124
 20
-16.24836222330729
 30
0.0
 10
6.184893798828124
 20
-16.24836222330729
 30
0.0
 10
10.93085734049479
 20
-17.76971638997396
 30
0.0
 10
10.93085734049479
 20
-17.76971638997396
 30
0.0
 10
10.93085734049479
 20
-17.76971638997396
 30
0.0
 10
11.61401977539062
 20
-18.94414944118924
 30
0.0
 10
11.61401977539062
 20
-18.94414944118924
 30
0.0
 10
11.61401977539062
 20
-18.94414944118924
 30
0.0
 10
15.22895846896701
 20
-20.09791191948785
 30
0.0
 10
15.22895846896701
 20
-20.09791191948785
 30
0.0
 10
15.22895846896701
 20
-20.09791191948785
 30
0.0
 10
18.20999959309896
 20
-20.09825642903646
 30
0.0
 10
18.20999959309896
 20
-20.09825642903646
 30
0.0
 10
18.20999959309896
 20
-20.09825642903646
 30
0.0
 10
23.87442559136284
 20
-21.86800198025173
 30
0.0
 10
23.87442559136284
 20
-21.86800198025173
 30
0.0
 10
23.87442559136284
 20
-21.86800198025173
 30
0.0
 10
24.84904310438368
 20
-23.18196139865451
 30
0.0
 10
24.84904310438368
 20
-23.18196139865451
 30
0.0
 10
24.84904310438368
 20
-23.18196139865451
 30
0.0
 10
29.20088772243923
 20
-24.5768805609809
 30
0.0
 10
29.20088772243923
 20
-24.5768805609809
 30
0.0
 10
29.20088772243923
 20
-24.5768805609809
 30
0.0
 10
32.18468492296007
 20
-24.51107923719618
 30
0.0
 10
32.18468492296007
 20
-24.51107923719618
 30
0.0
 10
32.18468492296007
 20
-24.51107923719618
 30
0.0
 10
37.32097778320312
 20
-26.17333780924479
 30
0.0
 10
37.32097778320312
 20
-26.17333780924479
 30
0.0
 10
37.32097778320312
 20
-26.17333780924479
 30
0.0
 10
37.74127943250868
 20
-27.3146979437934
 30
0.0
 10
37.74127943250868
 20
-27.3146979437934
 30
0.0
 10
37.74127943250868
 20
-27.3146979437934
 30
0.0
 10
39.90135430230034
 20
-28.00716213650173
 30
0.0
 10
39.90135430230034
 20
-28.00716213650173
 30
0.0
 10
39.90135430230034
 20
-28.00716213650173
 30
0.0
 10
41.91949123806423
 20
-27.69021335177951
 30
0.0
 10
41.91949123806423
 20
-27.69021335177951
 30
0.0
 10
41.91949123806423
 20
-27.69021335177951
 30
0.0
 10
45.7042731391059
 20
-26.54471910264757
 30
0.0
 10
45.7042731391059
 20
-26.54471910264757
 30
0.0
 10
46.0484381781684
 20
-26.43619859483507
 30
0.0
 10
46.35608520507812
 20
-26.43619859483507
 30
0.0
 10
46.41051771375868
 20
-26.72593112521701
 30
0.0
  0
SPLINE
  5
C2
330
22
100
AcDbEntity
  8
LAYER_1
 62
     7
100
AcDbSpline
210
0.0
220
0.0
230
1.0
 70
     8
 71
     3
 72
    17
 73
    13
 74
     0
 42
0.0000000001
 43
0.0000000001
 40
0.0
 40
0.0
 40
0.0
 40
0.0
 40
1.0
 40
1.0
 40
1.0
 40
2.0
 40
2.0
 40
2.0
 40
3.0
 40
3.0
 40
3.0
 40
4.0
 40
4.0
 40
4.0
 40
4.0
 10
45.70668470594617
 20
-27.88486124674479
 30
0.0
 10
45.70668470594617
 20
-27.36878594292535
 30
0.0
 10
45.51858249240451
 20
-27.49315388997396
 30
0.0
 10
45.07037556966145
 20
-27.64232652452257
 30
0.0
 10
45.07037556966145
 20
-27.64232652452257
 30
0.0
 10
45.0841559516059
 20
-27.69469197591146
 30
0.0
 10
45.0841559516059
 20
-27.69469197591146
 30
0.0
 10
45.51858249240451
 20
-27.54517483181423
 30
0.0
 10
45.70668470594617
 20
-27.40943806966146
 30
0.0
 10
45.70668470594617
 20
-27.88486124674479
 30
0.0
 10
45.70668470594617
 20
-27.88486124674479
 30
0.0
 10
45.70668470594617
 20
-30.87589314778646
 30
0.0
 10
45.70668470594617
 20
-30.87589314778646
 30
0.0
  0
LINE
  5
C1
330
22
100
AcDbEntity
  8
LAYER_1
 62
     7
100
AcDbLine
 10
45.64088338216146
 20
-30.84557630750868
 30
0.0
 11
43.35919664171006
 21
-30.08076510959201
 31
0.0
  0
LINE
  5
C0
330
22
100
AcDbEntity
  8
LAYER_1
 62
     7
100
AcDbLine
 10
41.92052476671007
 20
-31.71167331271701
 30
0.0
 11
43.38641289605035
 21
-30.05802747938368
 31
0.0
  0
LINE
  5
BF
330
22
100
AcDbEntity
  8
LAYER_1
 62
     7
100
AcDbLine
 10
32.16745944552951
 20
-26.58089260525173
 30
0.0
 11
29.90162014431423
 21
-25.84743177625868
 31
0.0
  0
LINE
  5
BE
330
22
100
AcDbEntity
  8
LAYER_1
 62
     7
100
AcDbLine
 10
28.53460625542535
 20
-27.38876749674479
 30
0.0
 11
29.92883639865451
 21
-25.82469414605034
 31
0.0
  0
LINE
  5
BD
330
22
100
AcDbEntity
  8
LAYER_1
 62
     7
100
AcDbLine
 10
17.90648668077257
 20
-22.05093655056423
 30
0.0
 11
15.68784518771701
 21
-21.33332316080729
 31
0.0
  0
LINE
  5
BC
330
22
100
AcDbEntity
  8
LAYER_1
 62
     7
100
AcDbLine
 10
14.04970228407118
 20
-22.69895901150174
 30
0.0
 11
15.71471693250868
 21
-21.31058553059896
 31
0.0
  0
ELLIPSE
  5
BB
330
22
100
AcDbEntity
  8
LAYER_1
 62
     7
100
AcDbEllipse
 10
3.74955579969618
 20
-15.45547349717882
 30
0.0
 11
0.7334608289930554
 21
-0.07699788411458335
 31
0.0
210
0.0
220
0.0
230
1.0
 40
0.2778253374471709
 41
0.0
 42
6.283185307179586
  0
ELLIPSE
  5
BA
330
22
100
AcDbEntity
  8
LAYER_1
 62
     7
100
AcDbEllipse
 10
14.68325534396701
 20
-18.84648098415799
 30
0.0
 11
0.7282931857638888
 21
-0.1152384440104167
 31
0.0
210
0.0
220
0.0
230
1.0
 40
0.2779120530927742
 41
0.0
 42
6.283185307179586
  0
ELLIPSE
  5
B9
330
22
100
AcDbEntity
  8
LAYER_1
 62
     7
100
AcDbEllipse
 10
28.00716213650173
 20
-22.97404988606771
 30
0.0
 11
0.7286376953124999
 21
-0.1152384440104167
 31
0.0
210
0.0
220
0.0
230
1.0
 40
0.2777838598920053
 41
0.0
 42
6.283185307179586
  0
ELLIPSE
  5
B8
330
22
100
AcDbEntity
  8
LAYER_1
 62
     7
100
AcDbEllipse
 10
39.96853366427951
 20
-26.76331041124132
 30
0.0
 11
0.7286376953125
 21
-0.1155829535590278
 31
0.0
210
0.0
220
0.0
230
1.0
 40
0.2777635665317075
 41
0.0
 42
6.283185307179586
  0
LWPOLYLINE
  5
B0
330
22
100
AcDbEntity
  8
LAYER_1
 62
     7
100
AcDbPolyline
 90
        6
 70
     0
 43
0.0
 10
37.46463826497396
 20
-27.95720825195312
 10
37.46463826497396
 20
-28.8990973578559
 10
38.73208889431423
 20
-29.9129889594184
 10
39.33429158528646
 20
-30.07146335177951
 10
40.81912773980034
 20
-29.40862698025173
 10
40.81912773980034
 20
-28.8990973578559
  0
LWPOLYLINE
  5
A9
330
22
100
AcDbEntity
  8
LAYER_1
 62
     7
100
AcDbPolyline
 90
        5
 70
     0
 43
0.0
 10
37.46463826497396
 20
-27.9255133734809
 10
37.46463826497396
 20
-28.86740247938368
 10
38.73208889431423
 20
-29.88129408094618
 10
40.21726955837674
 20
-29.26565551757812
 10
40.21726955837674
 20
-28.93974948459201
  0
LINE
  5
A8
330
22
100
AcDbEntity
  8
LAYER_1
 62
     7
100
AcDbLine
 10
40.27376912434895
 20
-29.22018025716146
 30
0.0
 11
40.81912773980034
 21
-29.40862698025173
 31
0.0
  0
LWPOLYLINE
  5
A0
330
22
100
AcDbEntity
  8
LAYER_1
 62
     7
100
AcDbPolyline
 90
        6
 70
     0
 43
0.0
 10
23.53129408094618
 20
-22.92874688042534
 10
23.53129408094618
 20
-24.4900641547309
 10
24.73569946289062
 20
-25.45331285264757
 10
25.30758531358507
 20
-25.60386352539062
 10
26.71835191514757
 20
-24.97410007052951
 10
26.71835191514757
 20
-24.82527194552951
  0
LWPOLYLINE
  5
99
330
22
100
AcDbEntity
  8
LAYER_1
 62
     7
100
AcDbPolyline
 90
        5
 70
     0
 43
0.0
 10
23.53129408094618
 20
-22.89843004014757
 10
23.53129408094618
 20
-24.45974731445312
 10
24.73569946289062
 20
-25.4233405219184
 10
26.14646606445312
 20
-24.83836330837674
 10
26.14646606445312
 20
-24.70813869900173
  0
LINE
  5
98
330
22
100
AcDbEntity
  8
LAYER_1
 62
     7
100
AcDbLine
 10
26.19400838216146
 20
-24.77428453233507
 30
0.0
 11
26.73936699761284
 21
-24.96273125542535
 31
0.0
  0
LWPOLYLINE
  5
90
330
22
100
AcDbEntity
  8
LAYER_1
 62
     7
100
AcDbPolyline
 90
        6
 70
     0
 43
0.0
 10
13.27696736653646
 20
19.46211954752604
 10
13.27696736653646
 20
18.59671156141493
 10
14.28017917209201
 20
17.46568671332465
 10
15.05325859917535
 20
17.48291219075521
 10
16.46402520073785
 20
18.11267564561632
 10
16.46402520073785
 20
19.74737345377604
  0
LWPOLYLINE
  5
8A
330
22
100
AcDbEntity
  8
LAYER_1
 62
     7
100
AcDbPolyline
 90
        4
 70
     0
 43
0.0
 10
13.27696736653646
 20
18.6266838921441
 10
14.28017917209201
 20
17.49565904405382
 10
15.89179484049479
 20
18.2484124077691
 10
15.89179484049479
 20
19.78802558051215
  0
LINE
  5
89
330
22
100
AcDbEntity
  8
LAYER_1
 62
     7
100
AcDbLine
 10
15.89179484049479
 20
18.2484124077691
 30
0.0
 11
16.48469577365451
 21
18.12404446072048
 31
0.0
  0
LWPOLYLINE
  5
80
330
22
100
AcDbEntity
  8
LAYER_1
 62
     7
100
AcDbPolyline
 90
        7
 70
     0
 43
0.0
 10
12.89421725802951
 20
-20.45275675455729
 10
12.89421725802951
 20
-20.59400566948785
 10
11.55373060438368
 20
-21.19241875542534
 10
11.01043904622396
 20
-21.04944729275173
 10
9.976565890842013
 20
-20.35457153320312
 10
9.976565890842013
 20
-19.06024915907118
 10
10.4816168891059
 20
-18.72159627278646
  0
LWPOLYLINE
  5
79
330
22
100
AcDbEntity
  8
LAYER_1
 62
     7
100
AcDbPolyline
 90
        5
 70
     0
 43
0.0
 10
9.976565890842013
 20
-19.44575534396701
 10
9.976565890842013
 20
-20.3259772406684
 10
11.01043904622396
 20
-21.02085300021701
 10
12.35058119032118
 20
-20.46515909830729
 10
12.35058119032118
 20
-20.3414801703559
  0
LINE
  5
78
330
22
100
AcDbEntity
  8
LAYER_1
 62
     7
100
AcDbLine
 10
12.40191311306424
 20
-20.42416246202257
 30
0.0
 11
12.89421725802951
 21
-20.59400566948785
 31
0.0
  0
LINE
  5
77
330
22
100
AcDbEntity
  8
LAYER_1
 62
     7
100
AcDbLine
 10
-53.4807149251302
 20
22.53169962565104
 30
0.0
 11
3.020573594835069
 21
31.22402004665798
 31
0.0
  0
LINE
  5
76
330
22
100
AcDbEntity
  8
LAYER_1
 62
     7
100
AcDbLine
 10
-11.64795396592882
 20
14.9617913140191
 30
0.0
 11
22.75718112521701
 21
21.18914591471354
 31
0.0
  0
LWPOLYLINE
  5
6B
330
22
100
AcDbEntity
  8
LAYER_1
 62
     7
100
AcDbPolyline
 90
        9
 70
     0
 43
0.0
 10
-47.72189331054687
 20
16.5554924858941
 10
-47.72189331054687
 20
23.38367173936632
 10
-41.47421264648437
 20
21.82545505099826
 10
-42.72374877929687
 20
20.08671535915799
 10
-34.30290188259549
 20
21.11197577582465
 10
-35.17382202148437
 20
20.29652167426215
 10
-29.68475138346354
 20
18.9460442437066
 10
22.79576619466146
 20
27.36689114040798
 10
22.79576619466146
 20
21.13643595377604
  0
LWPOLYLINE
  5
66
330
22
100
AcDbEntity
  8
LAYER_1
 62
     7
100
AcDbPolyline
 90
        3
 70
     0
 43
0.0
 10
22.79576619466146
 20
27.52984415690104
 10
-15.54607950846354
 20
34.76902330186632
 10
-22.51378512912326
 20
33.81817694769965
  0
LINE
  5
65
330
22
100
AcDbEntity
  8
LAYER_1
 62
     7
100
AcDbLine
 10
-21.73484903971354
 20
33.92221883138021
 30
0.0
 11
-15.61394788953993
 21
34.76902330186632
 31
0.0
  0
LINE
  5
64
330
22
100
AcDbEntity
  8
LAYER_1
 62
     7
100
AcDbLine
 10
-42.72374877929687
 20
13.18722262912326
 30
0.0
 11
-42.72374877929687
 21
20.08671535915799
 31
0.0
  0
LINE
  5
63
330
22
100
AcDbEntity
  8
LAYER_1
 62
     7
100
AcDbLine
 10
-35.17209947374132
 20
13.20134752061632
 30
0.0
 11
-35.17209947374132
 21
20.24277818467882
 31
0.0
  0
LINE
  5
62
330
22
100
AcDbEntity
  8
LAYER_1
 62
     7
100
AcDbLine
 10
-29.73918389214409
 20
11.93768649631076
 30
0.0
 11
-29.73918389214409
 21
18.88472154405382
 31
0.0
  0
LINE
  5
61
330
22
100
AcDbEntity
  8
LAYER_1
 62
     7
100
AcDbLine
 10
13.34276869032118
 20
46.25497165256076
 30
0.0
 11
20.51407945421007
 21
47.63128729926215
 31
0.0
  0
SPLINE
  5
60
330
22
100
AcDbEntity
  8
LAYER_1
 62
     7
100
AcDbSpline
210
0.0
220
0.0
230
1.0
 70
     8
 71
     3
 72
    11
 73
     7
 74
     0
 42
0.0000000001
 43
0.0000000001
 40
0.0
 40
0.0
 40
0.0
 40
0.0
 40
1.0
 40
1.0
 40
1.0
 40
2.0
 40
2.0
 40
2.0
 40
2.0
 10
-9.692173258463541
 20
53.87896796332465
 30
0.0
 10
-9.637740749782985
 20
53.00977037217881
 30
0.0
 10
-9.148881700303818
 20
51.6513692220052
 30
0.0
 10
-8.442637125651041
 20
50.99955715603299
 30
0.0
 10
-7.736392550998263
 20
50.34774509006076
 30
0.0
 10
-6.885109456380207
 20
48.73406236436632
 30
0.0
 10
-6.704241943359374
 20
46.86888766818576
 30
0.0
  0
SPLINE
  5
5F
330
22
100
AcDbEntity
  8
LAYER_1
 62
     7
100
AcDbSpline
210
0.0
220
0.0
230
1.0
 70
     8
 71
     3
 72
    11
 73
     7
 74
     0
 42
0.0000000001
 43
0.0000000001
 40
0.0
 40
0.0
 40
0.0
 40
0.0
 40
1.0
 40
1.0
 40
1.0
 40
2.0
 40
2.0
 40
2.0
 40
2.0
 10
-8.388204616970485
 20
53.87896796332465
 30
0.0
 10
-7.926561821831596
 20
52.84681735568576
 30
0.0
 10
-6.704241943359374
 20
52.46647881401909
 30
0.0
 10
-6.649809434678819
 20
50.67365112304687
 30
0.0
 10
-6.632239447699652
 20
50.08970743815104
 30
0.0
 10
-6.138212754991319
 20
49.66837226019965
 30
0.0
 10
-5.835044352213541
 20
48.77195841471354
 30
0.0
  0
SPLINE
  5
5E
330
22
100
AcDbEntity
  8
LAYER_1
 62
     7
100
AcDbSpline
210
0.0
220
0.0
230
1.0
 70
     8
 71
     3
 72
    11
 73
     7
 74
     0
 42
0.0000000001
 43
0.0000000001
 40
0.0
 40
0.0
 40
0.0
 40
0.0
 40
1.0
 40
1.0
 40
1.0
 40
2.0
 40
2.0
 40
2.0
 40
2.0
 10
-7.016367594401041
 20
54.1504414876302
 30
0.0
 10
-6.554724799262152
 20
53.11829087999131
 30
0.0
 10
-5.33240492078993
 20
52.73795233832465
 30
0.0
 10
-5.277972412109374
 20
50.94512464735243
 30
0.0
 10
-5.260402425130208
 20
50.36152547200521
 30
0.0
 10
-5.10606214735243
 20
50.26609632703993
 30
0.0
 10
-4.802549235026041
 20
49.36968248155382
 30
0.0
  0
SPLINE
  5
5D
330
22
100
AcDbEntity
  8
LAYER_1
 62
     7
100
AcDbSpline
210
0.0
220
0.0
230
1.0
 70
     8
 71
     3
 72
     8
 73
     4
 74
     0
 42
0.0000000001
 43
0.0000000001
 40
0.0
 40
0.0
 40
0.0
 40
0.0
 40
1.0
 40
1.0
 40
1.0
 40
1.0
 10
-5.590442572699653
 20
54.31339450412326
 30
0.0
 10
-5.038193766276041
 20
53.64332343207465
 30
0.0
 10
-3.661878119574653
 20
51.47050170898437
 30
0.0
 10
-3.607445610894097
 20
49.67732950846354
 30
0.0
  0
SPLINE
  5
5C
330
22
100
AcDbEntity
  8
LAYER_1
 62
     7
100
AcDbSpline
210
0.0
220
0.0
230
1.0
 70
     8
 71
     3
 72
     8
 73
     4
 74
     0
 42
0.0000000001
 43
0.0000000001
 40
0.0
 40
0.0
 40
0.0
 40
0.0
 40
1.0
 40
1.0
 40
1.0
 40
1.0
 10
-4.232385932074652
 20
54.52630140516492
 30
0.0
 10
-3.67979261610243
 20
53.85623033311632
 30
0.0
 10
-2.303476969401042
 20
51.68306410047742
 30
0.0
 10
-2.249388970269097
 20
49.89023640950521
 30
0.0
  0
SPLINE
  5
5B
330
22
100
AcDbEntity
  8
LAYER_1
 62
     7
100
AcDbSpline
210
0.0
220
0.0
230
1.0
 70
     8
 71
     3
 72
    11
 73
     7
 74
     0
 42
0.0000000001
 43
0.0000000001
 40
0.0
 40
0.0
 40
0.0
 40
0.0
 40
1.0
 40
1.0
 40
1.0
 40
2.0
 40
2.0
 40
2.0
 40
2.0
 10
-24.86781887478298
 20
54.00574747721354
 30
0.0
 10
-22.94821166992187
 20
53.82453545464409
 30
0.0
 10
-19.76080932617187
 20
53.38976440429687
 30
0.0
 10
-18.81926472981771
 20
52.99151136610242
 30
0.0
 10
-17.87772013346354
 20
52.59325832790798
 30
0.0
 10
-13.85729370117187
 20
52.2308342827691
 30
0.0
 10
-12.84305759006076
 20
52.08614027235242
 30
0.0
  0
SPLINE
  5
5A
330
22
100
AcDbEntity
  8
LAYER_1
 62
     7
100
AcDbSpline
210
0.0
220
0.0
230
1.0
 70
     8
 71
     3
 72
    11
 73
     7
 74
     0
 42
0.0000000001
 43
0.0000000001
 40
0.0
 40
0.0
 40
0.0
 40
0.0
 40
1.0
 40
1.0
 40
1.0
 40
2.0
 40
2.0
 40
2.0
 40
2.0
 10
-26.56108330620659
 20
53.80662095811631
 30
0.0
 10
-24.64147610134548
 20
53.62540893554687
 30
0.0
 10
-21.4544182671441
 20
53.19063788519965
 30
0.0
 10
-20.51252916124132
 20
52.7923848470052
 30
0.0
 10
-19.57098456488715
 20
52.39413180881076
 30
0.0
 10
-14.2920647515191
 20
51.79640774197048
 30
0.0
 10
-13.27782864040799
 20
51.6513692220052
 30
0.0
  0
SPLINE
  5
59
330
22
100
AcDbEntity
  8
LAYER_1
 62
     7
100
AcDbSpline
210
0.0
220
0.0
230
1.0
 70
     8
 71
     3
 72
    11
 73
     7
 74
     0
 42
0.0000000001
 43
0.0000000001
 40
0.0
 40
0.0
 40
0.0
 40
0.0
 40
1.0
 40
1.0
 40
1.0
 40
2.0
 40
2.0
 40
2.0
 40
2.0
 10
-27.85575018988715
 20
53.56649780273437
 30
0.0
 10
-25.93614298502604
 20
53.38528578016493
 30
0.0
 10
-22.74908515082465
 20
52.95085923936632
 30
0.0
 10
-21.80719604492187
 20
52.55260620117187
 30
0.0
 10
-20.86565144856771
 20
52.15400865342882
 30
0.0
 10
-14.54562377929687
 20
51.39781019422743
 30
0.0
 10
-13.53138766818576
 20
51.25311618381076
 30
0.0
  0
SPLINE
  5
58
330
22
100
AcDbEntity
  8
LAYER_1
 62
     7
100
AcDbSpline
210
0.0
220
0.0
230
1.0
 70
     8
 71
     3
 72
    11
 73
     7
 74
     0
 42
0.0000000001
 43
0.0000000001
 40
0.0
 40
0.0
 40
0.0
 40
0.0
 40
1.0
 40
1.0
 40
1.0
 40
2.0
 40
2.0
 40
2.0
 40
2.0
 10
-29.69405314127604
 20
53.29502427842881
 30
0.0
 10
-27.77444593641493
 20
53.11381225585937
 30
0.0
 10
-25.44728393554687
 20
52.81029934353298
 30
0.0
 10
-23.64549899631076
 20
52.2807881673177
 30
0.0
 10
-22.66433580186632
 20
51.9924336751302
 30
0.0
 10
-15.05274183485243
 20
50.89069213867187
 30
0.0
 10
-14.03850572374132
 20
50.7459981282552
 30
0.0
  0
SPLINE
  5
57
330
22
100
AcDbEntity
  8
LAYER_1
 62
     7
100
AcDbSpline
210
0.0
220
0.0
230
1.0
 70
     8
 71
     3
 72
    14
 73
    10
 74
     0
 42
0.0000000001
 43
0.0000000001
 40
0.0
 40
0.0
 40
0.0
 40
0.0
 40
1.0
 40
1.0
 40
1.0
 40
2.0
 40
2.0
 40
2.0
 40
3.0
 40
3.0
 40
3.0
 40
3.0
 10
-4.802549235026041
 20
49.36968248155382
 30
0.0
 10
-3.788657633463541
 20
49.29733547634548
 30
0.0
 10
-1.506626383463542
 20
48.89873792860243
 30
0.0
 10
-0.673602294921875
 20
48.82639092339409
 30
0.0
 10
0.1594217936197916
 20
48.75404391818576
 30
0.0
 10
6.859788004557291
 20
47.88450181749131
 30
0.0
 10
7.692812093098958
 20
47.59511379665798
 30
0.0
 10
8.525836181640624
 20
47.30503675672743
 30
0.0
 10
13.71414998372396
 20
46.62152981228298
 30
0.0
 10
14.76455959743923
 20
46.51300930447048
 30
0.0
  0
SPLINE
  5
56
330
22
100
AcDbEntity
  8
LAYER_1
 62
     7
100
AcDbSpline
210
0.0
220
0.0
230
1.0
 70
     8
 71
     3
 72
    14
 73
    10
 74
     0
 42
0.0000000001
 43
0.0000000001
 40
0.0
 40
0.0
 40
0.0
 40
0.0
 40
1.0
 40
1.0
 40
1.0
 40
2.0
 40
2.0
 40
2.0
 40
3.0
 40
3.0
 40
3.0
 40
3.0
 10
-3.154760064019097
 20
49.69110989040798
 30
0.0
 10
-2.140523952907986
 20
49.61876288519965
 30
0.0
 10
-0.220916748046875
 20
49.3290303548177
 30
0.0
 10
0.6121073404947917
 20
49.25633884006076
 30
0.0
 10
1.445131429036458
 20
49.18399183485243
 30
0.0
 10
8.634356689453124
 20
48.17457885742187
 30
0.0
 10
9.467380777994791
 20
47.88450181749131
 30
0.0
 10
10.30040486653646
 20
47.59511379665798
 30
0.0
 10
15.06324937608507
 20
46.9384785970052
 30
0.0
 10
16.11365898980035
 20
46.8299580891927
 30
0.0
  0
SPLINE
  5
55
330
22
100
AcDbEntity
  8
LAYER_1
 62
     7
100
AcDbSpline
210
0.0
220
0.0
230
1.0
 70
     8
 71
     3
 72
    14
 73
    10
 74
     0
 42
0.0000000001
 43
0.0000000001
 40
0.0
 40
0.0
 40
0.0
 40
0.0
 40
1.0
 40
1.0
 40
1.0
 40
2.0
 40
2.0
 40
2.0
 40
3.0
 40
3.0
 40
3.0
 40
3.0
 10
-1.144546847873264
 20
50.05801255967882
 30
0.0
 10
-0.1303107367621528
 20
49.98532104492187
 30
0.0
 10
1.164356146918403
 20
49.61876288519965
 30
0.0
 10
1.997380235460069
 20
49.54641587999132
 30
0.0
 10
2.830404324001736
 20
49.47372436523437
 30
0.0
 10
10.39996812608507
 20
48.49600626627604
 30
0.0
 10
11.23333672417535
 20
48.20627373589409
 30
0.0
 10
12.0660163031684
 20
47.91619669596354
 30
0.0
 10
16.60251803927951
 20
47.19651624891493
 30
0.0
 10
17.65292765299479
 20
47.08799574110243
 30
0.0
  0
SPLINE
  5
54
330
22
100
AcDbEntity
  8
LAYER_1
 62
     7
100
AcDbSpline
210
0.0
220
0.0
230
1.0
 70
     8
 71
     3
 72
    14
 73
    10
 74
     0
 42
0.0000000001
 43
0.0000000001
 40
0.0
 40
0.0
 40
0.0
 40
0.0
 40
1.0
 40
1.0
 40
1.0
 40
2.0
 40
2.0
 40
2.0
 40
3.0
 40
3.0
 40
3.0
 40
3.0
 10
-0.1575269911024305
 20
50.31122707790798
 30
0.0
 10
0.8563646104600694
 20
50.23888007269965
 30
0.0
 10
2.151376003689236
 20
49.87232191297743
 30
0.0
 10
2.984400092230902
 20
49.79963039822048
 30
0.0
 10
3.817424180772569
 20
49.72728339301215
 30
0.0
 10
11.3869879828559
 20
48.74956529405382
 30
0.0
 10
12.22001207139757
 20
48.45983276367187
 30
0.0
 10
13.05303615993924
 20
48.17010023328993
 30
0.0
 10
18.34091322157118
 20
47.5585957845052
 30
0.0
 10
19.39132283528646
 20
47.4500752766927
 30
0.0
  0
LWPOLYLINE
  5
4B
330
22
100
AcDbEntity
  8
LAYER_1
 62
     7
100
AcDbPolyline
 90
        7
 70
     0
 43
0.0
 10
-71.18161553276909
 20
27.39135131835937
 10
-65.2970479329427
 20
25.79110446506076
 10
-66.56725463867187
 20
24.47094387478298
 10
-57.79948662651909
 20
25.39250691731771
 10
-59.0493672688802
 20
24.0434075249566
 10
-53.52067803276909
 20
22.53135511610243
 10
-53.52067803276909
 20
15.25152384440104
  0
LINE
  5
4A
330
22
100
AcDbEntity
  8
LAYER_1
 62
     7
100
AcDbLine
 10
-66.57138875325521
 20
17.28895331488715
 30
0.0
 11
-66.57138875325521
 21
24.48748033311632
 31
0.0
  0
LINE
  5
49
330
22
100
AcDbEntity
  8
LAYER_1
 62
     7
100
AcDbLine
 10
-59.01560533311631
 20
16.82731051974826
 30
0.0
 11
-59.01560533311631
 21
24.02549302842882
 31
0.0
  0
SPLINE
  5
48
330
22
100
AcDbEntity
  8
LAYER_1
 62
     7
100
AcDbSpline
210
0.0
220
0.0
230
1.0
 70
     8
 71
     3
 72
    11
 73
     7
 74
     0
 42
0.0000000001
 43
0.0000000001
 40
0.0
 40
0.0
 40
0.0
 40
0.0
 40
1.0
 40
1.0
 40
1.0
 40
2.0
 40
2.0
 40
2.0
 40
2.0
 10
-71.16439005533853
 20
26.63343031141493
 30
0.0
 10
-70.62109849717881
 20
26.17144300672743
 30
0.0
 10
-68.77383829752604
 20
25.62815144856771
 30
0.0
 10
-67.93185696072048
 20
25.51963094075521
 30
0.0
 10
-67.08987562391492
 20
25.41111043294271
 30
0.0
 10
-66.41084730360242
 20
25.22094116210937
 30
0.0
 10
-66.05738050672743
 20
25.03077189127604
 30
0.0
  0
SPLINE
  5
47
330
22
100
AcDbEntity
  8
LAYER_1
 62
     7
100
AcDbSpline
210
0.0
220
0.0
230
1.0
 70
     8
 71
     3
 72
    11
 73
     7
 74
     0
 42
0.0000000001
 43
0.0000000001
 40
0.0
 40
0.0
 40
0.0
 40
0.0
 40
1.0
 40
1.0
 40
1.0
 40
2.0
 40
2.0
 40
2.0
 40
2.0
 10
-71.15853339301215
 20
25.39250691731771
 30
0.0
 10
-70.56666598849826
 20
24.69969821506076
 30
0.0
 10
-68.76798163519965
 20
24.32452731662326
 30
0.0
 10
-67.92600029839409
 20
24.21566229926215
 30
0.0
 10
-67.08401896158854
 20
24.10714179144965
 30
0.0
 10
-66.92692260742187
 20
24.12057766384548
 30
0.0
 10
-66.57380032009549
 20
23.93075290256076
 30
0.0
  0
SPLINE
  5
46
330
22
100
AcDbEntity
  8
LAYER_1
 62
     7
100
AcDbSpline
210
0.0
220
0.0
230
1.0
 70
     8
 71
     3
 72
     8
 73
     4
 74
     0
 42
0.0000000001
 43
0.0000000001
 40
0.0
 40
0.0
 40
0.0
 40
0.0
 40
1.0
 40
1.0
 40
1.0
 40
1.0
 10
-71.23983764648438
 20
24.10783081054687
 30
0.0
 10
-70.6483147515191
 20
23.41502210828993
 30
0.0
 10
-67.41578165690103
 20
22.78973727756076
 30
0.0
 10
-66.57380032009549
 20
22.68087226019965
 30
0.0
  0
SPLINE
  5
45
330
22
100
AcDbEntity
  8
LAYER_1
 62
     7
100
AcDbSpline
210
0.0
220
0.0
230
1.0
 70
     8
 71
     3
 72
    11
 73
     7
 74
     0
 42
0.0000000001
 43
0.0000000001
 40
0.0
 40
0.0
 40
0.0
 40
0.0
 40
1.0
 40
1.0
 40
1.0
 40
2.0
 40
2.0
 40
2.0
 40
2.0
 10
-71.19160630967882
 20
22.70808851453993
 30
0.0
 10
-70.51257798936631
 20
22.32774997287326
 30
0.0
 10
-70.26797620985242
 20
22.13792521158854
 30
0.0
 10
-69.48008287217881
 20
22.11070895724826
 30
0.0
 10
-68.69253404405382
 20
22.08349270290799
 30
0.0
 10
-67.0082268608941
 20
21.8388909233941
 30
0.0
 10
-66.57380032009549
 20
21.7303704155816
 30
0.0
  0
SPLINE
  5
44
330
22
100
AcDbEntity
  8
LAYER_1
 62
     7
100
AcDbSpline
210
0.0
220
0.0
230
1.0
 70
     8
 71
     3
 72
    11
 73
     7
 74
     0
 42
0.0000000001
 43
0.0000000001
 40
0.0
 40
0.0
 40
0.0
 40
0.0
 40
1.0
 40
1.0
 40
1.0
 40
2.0
 40
2.0
 40
2.0
 40
2.0
 10
-71.19160630967882
 20
21.37724812825521
 30
0.0
 10
-70.51257798936631
 20
20.99690958658854
 30
0.0
 10
-70.26797620985242
 20
20.80674031575521
 30
0.0
 10
-69.48008287217881
 20
20.77952406141493
 30
0.0
 10
-68.69253404405382
 20
20.75230780707465
 30
0.0
 10
-67.0082268608941
 20
20.50805053710937
 30
0.0
 10
-66.57380032009549
 20
20.39918551974826
 30
0.0
  0
SPLINE
  5
43
330
22
100
AcDbEntity
  8
LAYER_1
 62
     7
100
AcDbSpline
210
0.0
220
0.0
230
1.0
 70
     8
 71
     3
 72
     8
 73
     4
 74
     0
 42
0.0000000001
 43
0.0000000001
 40
0.0
 40
0.0
 40
0.0
 40
0.0
 40
1.0
 40
1.0
 40
1.0
 40
1.0
 10
-66.5465840657552
 20
23.12907918294271
 30
0.0
 10
-65.70460272894965
 20
23.59106648763021
 30
0.0
 10
-60.40742390950521
 20
24.89469061957465
 30
0.0
 10
-58.12573716905381
 20
25.35667792426215
 30
0.0
  0
SPLINE
  5
42
330
22
100
AcDbEntity
  8
LAYER_1
 62
     7
100
AcDbSpline
210
0.0
220
0.0
230
1.0
 70
     8
 71
     3
 72
     8
 73
     4
 74
     0
 42
0.0000000001
 43
0.0000000001
 40
0.0
 40
0.0
 40
0.0
 40
0.0
 40
1.0
 40
1.0
 40
1.0
 40
1.0
 10
-66.5465840657552
 20
21.52642076280382
 30
0.0
 10
-63.72160576714409
 20
23.12907918294271
 30
0.0
 10
-61.30383775499131
 20
23.42811347113715
 30
0.0
 10
-59.02215101453992
 20
23.88975626627604
 30
0.0
  0
SPLINE
  5
41
330
22
100
AcDbEntity
  8
LAYER_1
 62
     7
100
AcDbSpline
210
0.0
220
0.0
230
1.0
 70
     8
 71
     3
 72
     8
 73
     4
 74
     0
 42
0.0000000001
 43
0.0000000001
 40
0.0
 40
0.0
 40
0.0
 40
0.0
 40
1.0
 40
1.0
 40
1.0
 40
1.0
 10
-66.57380032009549
 20
20.1955803765191
 30
0.0
 10
-65.16131117078993
 20
21.29559936523437
 30
0.0
 10
-61.3310540093316
 20
21.87954305013021
 30
0.0
 10
-59.02215101453992
 20
22.62678426106771
 30
0.0
  0
SPLINE
  5
40
330
22
100
AcDbEntity
  8
LAYER_1
 62
     7
100
AcDbSpline
210
0.0
220
0.0
230
1.0
 70
     8
 71
     3
 72
     8
 73
     4
 74
     0
 42
0.0000000001
 43
0.0000000001
 40
0.0
 40
0.0
 40
0.0
 40
0.0
 40
1.0
 40
1.0
 40
1.0
 40
1.0
 10
-66.5465840657552
 20
19.13621351453993
 30
0.0
 10
-65.70460272894965
 20
19.59785630967882
 30
0.0
 10
-61.30383775499131
 20
20.60279066297743
 30
0.0
 10
-59.02215101453992
 20
21.06477796766493
 30
0.0
  0
SPLINE
  5
3F
330
22
100
AcDbEntity
  8
LAYER_1
 62
     7
100
AcDbSpline
210
0.0
220
0.0
230
1.0
 70
     8
 71
     3
 72
     8
 73
     4
 74
     0
 42
0.0000000001
 43
0.0000000001
 40
0.0
 40
0.0
 40
0.0
 40
0.0
 40
1.0
 40
1.0
 40
1.0
 40
1.0
 10
-66.5465840657552
 20
17.81846449110243
 30
0.0
 10
-65.70460272894965
 20
18.28045179578993
 30
0.0
 10
-61.30383775499131
 20
19.16342976888021
 30
0.0
 10
-59.02215101453992
 20
19.6250725640191
 30
0.0
  0
SPLINE
  5
3E
330
22
100
AcDbEntity
  8
LAYER_1
 62
     7
100
AcDbSpline
210
0.0
220
0.0
230
1.0
 70
     8
 71
     3
 72
    11
 73
     7
 74
     0
 42
0.0000000001
 43
0.0000000001
 40
0.0
 40
0.0
 40
0.0
 40
0.0
 40
1.0
 40
1.0
 40
1.0
 40
2.0
 40
2.0
 40
2.0
 40
2.0
 10
-58.99493476019965
 20
23.12907918294271
 30
0.0
 10
-58.23425767686631
 20
22.93890991210937
 30
0.0
 10
-57.60966186523437
 20
22.6946526421441
 30
0.0
 10
-56.79455227322048
 20
22.58578762478298
 30
0.0
 10
-55.9797871907552
 20
22.47726711697048
 30
0.0
 10
-54.10531073676215
 20
22.06971232096354
 30
0.0
 10
-53.50793117947048
 20
21.85267130533854
 30
0.0
  0
SPLINE
  5
3D
330
22
100
AcDbEntity
  8
LAYER_1
 62
     7
100
AcDbSpline
210
0.0
220
0.0
230
1.0
 70
     8
 71
     3
 72
    11
 73
     7
 74
     0
 42
0.0000000001
 43
0.0000000001
 40
0.0
 40
0.0
 40
0.0
 40
0.0
 40
1.0
 40
1.0
 40
1.0
 40
2.0
 40
2.0
 40
2.0
 40
2.0
 10
-58.99493476019965
 20
21.85267130533854
 30
0.0
 10
-58.23425767686631
 20
21.66250203450521
 30
0.0
 10
-57.60966186523437
 20
21.41790025499132
 30
0.0
 10
-56.79455227322048
 20
21.30937974717882
 30
0.0
 10
-55.9797871907552
 20
21.20051472981771
 30
0.0
 10
-54.13252699110242
 20
20.95625745985243
 30
0.0
 10
-53.53480292426215
 20
20.73887193467882
 30
0.0
  0
SPLINE
  5
3C
330
22
100
AcDbEntity
  8
LAYER_1
 62
     7
100
AcDbSpline
210
0.0
220
0.0
230
1.0
 70
     8
 71
     3
 72
    11
 73
     7
 74
     0
 42
0.0000000001
 43
0.0000000001
 40
0.0
 40
0.0
 40
0.0
 40
0.0
 40
1.0
 40
1.0
 40
1.0
 40
2.0
 40
2.0
 40
2.0
 40
2.0
 10
-58.99493476019965
 20
20.52148640950521
 30
0.0
 10
-58.23425767686631
 20
20.33131713867187
 30
0.0
 10
-57.60966186523437
 20
20.08671535915799
 30
0.0
 10
-56.79455227322048
 20
19.97819485134549
 30
0.0
 10
-55.9797871907552
 20
19.86967434353299
 30
0.0
 10
-54.13252699110242
 20
19.6250725640191
 30
0.0
 10
-53.53480292426215
 20
19.40768703884548
 30
0.0
  0
SPLINE
  5
3B
330
22
100
AcDbEntity
  8
LAYER_1
 62
     7
100
AcDbSpline
210
0.0
220
0.0
230
1.0
 70
     8
 71
     3
 72
    11
 73
     7
 74
     0
 42
0.0000000001
 43
0.0000000001
 40
0.0
 40
0.0
 40
0.0
 40
0.0
 40
1.0
 40
1.0
 40
1.0
 40
2.0
 40
2.0
 40
2.0
 40
2.0
 10
-58.99493476019965
 20
19.00013224283854
 30
0.0
 10
-58.23425767686631
 20
18.81030748155382
 30
0.0
 10
-57.60966186523437
 20
18.72865871853298
 30
0.0
 10
-56.79455227322048
 20
18.62013821072048
 30
0.0
 10
-55.9797871907552
 20
18.51127319335937
 30
0.0
 10
-54.13252699110242
 20
18.26701592339409
 30
0.0
 10
-53.53480292426215
 20
18.04963039822048
 30
0.0
  0
SPLINE
  5
3A
330
22
100
AcDbEntity
  8
LAYER_1
 62
     7
100
AcDbSpline
210
0.0
220
0.0
230
1.0
 70
     8
 71
     3
 72
    11
 73
     7
 74
     0
 42
0.0000000001
 43
0.0000000001
 40
0.0
 40
0.0
 40
0.0
 40
0.0
 40
1.0
 40
1.0
 40
1.0
 40
2.0
 40
2.0
 40
2.0
 40
2.0
 10
-58.99493476019965
 20
17.6965081108941
 30
0.0
 10
-58.23425767686631
 20
17.50633884006076
 30
0.0
 10
-57.60966186523437
 20
17.46568671332465
 30
0.0
 10
-56.79455227322048
 20
17.35682169596354
 30
0.0
 10
-55.9797871907552
 20
17.24830118815104
 30
0.0
 10
-54.13252699110242
 20
17.00369940863715
 30
0.0
 10
-53.53480292426215
 20
16.78631388346354
 30
0.0
  0
SPLINE
  5
39
330
22
100
AcDbEntity
  8
LAYER_1
 62
     7
100
AcDbSpline
210
0.0
220
0.0
230
1.0
 70
     8
 71
     3
 72
    11
 73
     7
 74
     0
 42
0.0000000001
 43
0.0000000001
 40
0.0
 40
0.0
 40
0.0
 40
0.0
 40
1.0
 40
1.0
 40
1.0
 40
2.0
 40
2.0
 40
2.0
 40
2.0
 10
-47.72189331054687
 20
22.09692857530382
 30
0.0
 10
-47.07008124457465
 20
22.0156243218316
 30
0.0
 10
-45.35855780707465
 20
21.58085327148437
 30
0.0
 10
-44.67952948676215
 20
21.20051472981771
 30
0.0
 10
-44.00050116644965
 20
20.82017618815104
 30
0.0
 10
-42.94078979492187
 20
20.38574964735243
 30
0.0
 10
-42.64210001627604
 20
20.3041008843316
 30
0.0
  0
SPLINE
  5
38
330
22
100
AcDbEntity
  8
LAYER_1
 62
     7
100
AcDbSpline
210
0.0
220
0.0
230
1.0
 70
     8
 71
     3
 72
     8
 73
     4
 74
     0
 42
0.0000000001
 43
0.0000000001
 40
0.0
 40
0.0
 40
0.0
 40
0.0
 40
1.0
 40
1.0
 40
1.0
 40
1.0
 10
-43.91885240342882
 20
22.42283460828993
 30
0.0
 10
-43.23982408311632
 20
22.04249606662326
 30
0.0
 10
-42.12602471245659
 20
21.47233276367187
 30
0.0
 10
-41.82733493381076
 20
21.39068400065104
 30
0.0
  0
SPLINE
  5
37
330
22
100
AcDbEntity
  8
LAYER_1
 62
     7
100
AcDbSpline
210
0.0
220
0.0
230
1.0
 70
     8
 71
     3
 72
    11
 73
     7
 74
     0
 42
0.0000000001
 43
0.0000000001
 40
0.0
 40
0.0
 40
0.0
 40
0.0
 40
1.0
 40
1.0
 40
1.0
 40
2.0
 40
2.0
 40
2.0
 40
2.0
 10
-47.72189331054687
 20
20.50805053710937
 30
0.0
 10
-47.07008124457465
 20
20.42640177408854
 30
0.0
 10
-45.35855780707465
 20
19.99163072374132
 30
0.0
 10
-44.67952948676215
 20
19.61129218207465
 30
0.0
 10
-44.00050116644965
 20
19.2312981499566
 30
0.0
 10
-43.0038350423177
 20
18.79652709960937
 30
0.0
 10
-42.70514526367187
 20
18.71522284613715
 30
0.0
  0
SPLINE
  5
36
330
22
100
AcDbEntity
  8
LAYER_1
 62
     7
100
AcDbSpline
210
0.0
220
0.0
230
1.0
 70
     8
 71
     3
 72
    11
 73
     7
 74
     0
 42
0.0000000001
 43
0.0000000001
 40
0.0
 40
0.0
 40
0.0
 40
0.0
 40
1.0
 40
1.0
 40
1.0
 40
2.0
 40
2.0
 40
2.0
 40
2.0
 10
-47.72189331054687
 20
18.91882798936632
 30
0.0
 10
-47.07008124457465
 20
18.83717922634548
 30
0.0
 10
-45.35855780707465
 20
18.40275268554687
 30
0.0
 10
-44.67952948676215
 20
18.02241414388021
 30
0.0
 10
-44.00050116644965
 20
17.64207560221354
 30
0.0
 10
-43.01968248155382
 20
17.20730455186632
 30
0.0
 10
-42.72099270290799
 20
17.1260002983941
 30
0.0
  0
SPLINE
  5
35
330
22
100
AcDbEntity
  8
LAYER_1
 62
     7
100
AcDbSpline
210
0.0
220
0.0
230
1.0
 70
     8
 71
     3
 72
    11
 73
     7
 74
     0
 42
0.0000000001
 43
0.0000000001
 40
0.0
 40
0.0
 40
0.0
 40
0.0
 40
1.0
 40
1.0
 40
1.0
 40
2.0
 40
2.0
 40
2.0
 40
2.0
 10
-47.72189331054687
 20
17.32960544162326
 30
0.0
 10
-47.07008124457465
 20
17.24830118815104
 30
0.0
 10
-45.35855780707465
 20
16.81353013780382
 30
0.0
 10
-44.67952948676215
 20
16.43319159613715
 30
0.0
 10
-44.00050116644965
 20
16.05285305447049
 30
0.0
 10
-43.01968248155382
 20
15.61842651367187
 30
0.0
 10
-42.72099270290799
 20
15.53677775065104
 30
0.0
  0
SPLINE
  5
34
330
22
100
AcDbEntity
  8
LAYER_1
 62
     7
100
AcDbSpline
210
0.0
220
0.0
230
1.0
 70
     8
 71
     3
 72
    11
 73
     7
 74
     0
 42
0.0000000001
 43
0.0000000001
 40
0.0
 40
0.0
 40
0.0
 40
0.0
 40
1.0
 40
1.0
 40
1.0
 40
2.0
 40
2.0
 40
2.0
 40
2.0
 10
-42.72374877929687
 20
19.38047078450521
 30
0.0
 10
-41.60994940863715
 20
19.24473402235243
 30
0.0
 10
-38.29576755099826
 20
19.35359903971354
 30
0.0
 10
-37.56265123155382
 20
19.43490329318576
 30
0.0
 10
-36.82919040256076
 20
19.5165520562066
 30
0.0
 10
-35.52522176106771
 20
19.86967434353299
 30
0.0
 10
-35.25340372721354
 20
19.84245808919271
 30
0.0
  0
SPLINE
  5
33
330
22
100
AcDbEntity
  8
LAYER_1
 62
     7
100
AcDbSpline
210
0.0
220
0.0
230
1.0
 70
     8
 71
     3
 72
    11
 73
     7
 74
     0
 42
0.0000000001
 43
0.0000000001
 40
0.0
 40
0.0
 40
0.0
 40
0.0
 40
1.0
 40
1.0
 40
1.0
 40
2.0
 40
2.0
 40
2.0
 40
2.0
 10
-42.72374877929687
 20
17.92732950846354
 30
0.0
 10
-41.60994940863715
 20
17.79159274631076
 30
0.0
 10
-38.29576755099826
 20
17.90011325412326
 30
0.0
 10
-37.56265123155382
 20
17.9817620171441
 30
0.0
 10
-36.82919040256076
 20
18.06306627061632
 30
0.0
 10
-35.52522176106771
 20
18.41618855794271
 30
0.0
 10
-35.25340372721354
 20
18.38897230360243
 30
0.0
  0
SPLINE
  5
32
330
22
100
AcDbEntity
  8
LAYER_1
 62
     7
100
AcDbSpline
210
0.0
220
0.0
230
1.0
 70
     8
 71
     3
 72
    11
 73
     7
 74
     0
 42
0.0000000001
 43
0.0000000001
 40
0.0
 40
0.0
 40
0.0
 40
0.0
 40
1.0
 40
1.0
 40
1.0
 40
2.0
 40
2.0
 40
2.0
 40
2.0
 10
-42.72374877929687
 20
16.47418823242187
 30
0.0
 10
-41.60994940863715
 20
16.33810696072048
 30
0.0
 10
-39.02922837999132
 20
16.28401896158854
 30
0.0
 10
-38.29576755099826
 20
16.36532321506076
 30
0.0
 10
-37.56265123155382
 20
16.4469719780816
 30
0.0
 10
-35.52522176106771
 20
16.96304728190104
 30
0.0
 10
-35.25340372721354
 20
16.93583102756076
 30
0.0
  0
SPLINE
  5
31
330
22
100
AcDbEntity
  8
LAYER_1
 62
     7
100
AcDbSpline
210
0.0
220
0.0
230
1.0
 70
     8
 71
     3
 72
    11
 73
     7
 74
     0
 42
0.0000000001
 43
0.0000000001
 40
0.0
 40
0.0
 40
0.0
 40
0.0
 40
1.0
 40
1.0
 40
1.0
 40
2.0
 40
2.0
 40
2.0
 40
2.0
 10
-42.72374877929687
 20
15.0207024468316
 30
0.0
 10
-41.60994940863715
 20
14.88496568467882
 30
0.0
 10
-38.78497111002604
 20
14.87152981228299
 30
0.0
 10
-38.05151028103298
 20
14.95283406575521
 30
0.0
 10
-37.31804945203993
 20
15.03448282877604
 30
0.0
 10
-36.17703382703993
 20
15.1974358452691
 30
0.0
 10
-35.17209947374132
 20
15.55055813259549
 30
0.0
  0
SPLINE
  5
30
330
22
100
AcDbEntity
  8
LAYER_1
 62
     7
100
AcDbSpline
210
0.0
220
0.0
230
1.0
 70
     8
 71
     3
 72
     8
 73
     4
 74
     0
 42
0.0000000001
 43
0.0000000001
 40
0.0
 40
0.0
 40
0.0
 40
0.0
 40
1.0
 40
1.0
 40
1.0
 40
1.0
 10
-42.72374877929687
 20
13.75773044162326
 30
0.0
 10
-41.60994940863715
 20
13.62199367947049
 30
0.0
 10
-38.29576755099826
 20
13.73051418728299
 30
0.0
 10
-37.56265123155382
 20
13.81181844075521
 30
0.0
  0
SPLINE
  5
2F
330
22
100
AcDbEntity
  8
LAYER_1
 62
     7
100
AcDbSpline
210
0.0
220
0.0
230
1.0
 70
     8
 71
     3
 72
    11
 73
     7
 74
     0
 42
0.0000000001
 43
0.0000000001
 40
0.0
 40
0.0
 40
0.0
 40
0.0
 40
1.0
 40
1.0
 40
1.0
 40
2.0
 40
2.0
 40
2.0
 40
2.0
 10
-35.17209947374132
 20
18.79652709960937
 30
0.0
 10
-33.94977959526909
 20
18.11749877929687
 30
0.0
 10
-32.75433146158854
 20
17.75094061957465
 30
0.0
 10
-31.93956637912326
 20
17.58764309353299
 30
0.0
 10
-31.12480129665799
 20
17.42469007703993
 30
0.0
 10
-30.3096917046441
 20
16.84074639214409
 30
0.0
 10
-29.76640014648437
 20
16.37910359700521
 30
0.0
  0
SPLINE
  5
2E
330
22
100
AcDbEntity
  8
LAYER_1
 62
     7
100
AcDbSpline
210
0.0
220
0.0
230
1.0
 70
     8
 71
     3
 72
    11
 73
     7
 74
     0
 42
0.0000000001
 43
0.0000000001
 40
0.0
 40
0.0
 40
0.0
 40
0.0
 40
1.0
 40
1.0
 40
1.0
 40
2.0
 40
2.0
 40
2.0
 40
2.0
 10
-34.35698988172743
 20
20.05984361436632
 30
0.0
 10
-33.1346700032552
 20
19.38047078450521
 30
0.0
 10
-32.31990492078993
 20
19.06834513346354
 30
0.0
 10
-31.50479532877604
 20
18.90539211697049
 30
0.0
 10
-30.69003024631076
 20
18.74209459092882
 30
0.0
 10
-30.63559773763021
 20
18.51127319335937
 30
0.0
 10
-29.76640014648437
 20
18.06306627061632
 30
0.0
  0
SPLINE
  5
2D
330
22
100
AcDbEntity
  8
LAYER_1
 62
     7
100
AcDbSpline
210
0.0
220
0.0
230
1.0
 70
     8
 71
     3
 72
    11
 73
     7
 74
     0
 42
0.0000000001
 43
0.0000000001
 40
0.0
 40
0.0
 40
0.0
 40
0.0
 40
1.0
 40
1.0
 40
1.0
 40
2.0
 40
2.0
 40
2.0
 40
2.0
 10
-35.17209947374132
 20
17.43847045898437
 30
0.0
 10
-33.94977959526909
 20
16.75909762912326
 30
0.0
 10
-32.31990492078993
 20
16.02563680013021
 30
0.0
 10
-31.50479532877604
 20
15.86268378363715
 30
0.0
 10
-30.69003024631076
 20
15.6997307671441
 30
0.0
 10
-30.3096917046441
 20
15.4826897515191
 30
0.0
 10
-29.76640014648437
 20
15.0207024468316
 30
0.0
  0
SPLINE
  5
2C
330
22
100
AcDbEntity
  8
LAYER_1
 62
     7
100
AcDbSpline
210
0.0
220
0.0
230
1.0
 70
     8
 71
     3
 72
    11
 73
     7
 74
     0
 42
0.0000000001
 43
0.0000000001
 40
0.0
 40
0.0
 40
0.0
 40
0.0
 40
1.0
 40
1.0
 40
1.0
 40
2.0
 40
2.0
 40
2.0
 40
2.0
 10
-35.17209947374132
 20
15.88990003797743
 30
0.0
 10
-33.94977959526909
 20
15.21087171766493
 30
0.0
 10
-32.31990492078993
 20
14.66758015950521
 30
0.0
 10
-31.50479532877604
 20
14.50462714301215
 30
0.0
 10
-30.69003024631076
 20
14.3416741265191
 30
0.0
 10
-30.3096917046441
 20
14.12428860134549
 30
0.0
 10
-29.76640014648437
 20
13.6626458062066
 30
0.0
  0
SPLINE
  5
2B
330
22
100
AcDbEntity
  8
LAYER_1
 62
     7
100
AcDbSpline
210
0.0
220
0.0
230
1.0
 70
     8
 71
     3
 72
    11
 73
     7
 74
     0
 42
0.0000000001
 43
0.0000000001
 40
0.0
 40
0.0
 40
0.0
 40
0.0
 40
1.0
 40
1.0
 40
1.0
 40
2.0
 40
2.0
 40
2.0
 40
2.0
 10
-35.17209947374132
 20
14.42297837999132
 30
0.0
 10
-33.94977959526909
 20
13.74395005967882
 30
0.0
 10
-32.31990492078993
 20
13.30952351888021
 30
0.0
 10
-31.50479532877604
 20
13.14657050238715
 30
0.0
 10
-30.69003024631076
 20
12.9836174858941
 30
0.0
 10
-30.3096917046441
 20
12.76623196072049
 30
0.0
 10
-29.76640014648437
 20
12.30424465603299
 30
0.0
  0
SPLINE
  5
2A
330
22
100
AcDbEntity
  8
LAYER_1
 62
     7
100
AcDbSpline
210
0.0
220
0.0
230
1.0
 70
     8
 71
     3
 72
    26
 73
    22
 74
     0
 42
0.0000000001
 43
0.0000000001
 40
0.0
 40
0.0
 40
0.0
 40
0.0
 40
1.0
 40
1.0
 40
1.0
 40
2.0
 40
2.0
 40
2.0
 40
3.0
 40
3.0
 40
3.0
 40
4.0
 40
4.0
 40
4.0
 40
5.0
 40
5.0
 40
5.0
 40
6.0
 40
6.0
 40
6.0
 40
7.0
 40
7.0
 40
7.0
 40
7.0
 10
17.68910115559896
 20
15.46890936957465
 30
0.0
 10
17.68910115559896
 20
15.46890936957465
 30
0.0
 10
18.79290974934896
 20
16.73119235568576
 30
0.0
 10
18.79290974934896
 20
16.73119235568576
 30
0.0
 10
18.79290974934896
 20
16.73119235568576
 30
0.0
 10
20.86720174153646
 20
16.57823011610243
 30
0.0
 10
20.86720174153646
 20
16.57823011610243
 30
0.0
 10
20.86720174153646
 20
16.57823011610243
 30
0.0
 10
21.92656860351562
 20
17.58764309353299
 30
0.0
 10
21.92656860351562
 20
17.58764309353299
 30
0.0
 10
21.92656860351562
 20
17.58764309353299
 30
0.0
 10
21.92656860351562
 20
19.64505411783854
 30
0.0
 10
21.92656860351562
 20
19.64505411783854
 30
0.0
 10
21.92656860351562
 20
20.02539265950521
 30
0.0
 10
21.81804809570312
 20
20.05260891384549
 30
0.0
 10
21.3832770453559
 20
19.97096015082465
 30
0.0
 10
21.3832770453559
 20
19.97096015082465
 30
0.0
 10
18.63994750976562
 20
19.5165520562066
 30
0.0
 10
18.63994750976562
 20
19.5165520562066
 30
0.0
 10
18.63994750976562
 20
19.5165520562066
 30
0.0
 10
15.40741441514757
 20
19.86967434353299
 30
0.0
 10
15.40741441514757
 20
19.86967434353299
 30
0.0
  0
LINE
  5
29
330
22
100
AcDbEntity
  8
LAYER_1
 62
     7
100
AcDbLine
 10
21.92656860351562
 20
17.58764309353299
 30
0.0
 11
22.81023559570312
 21
17.68238321940104
 31
0.0
  0
LINE
  5
28
330
22
100
AcDbEntity
  8
LAYER_1
 62
     7
100
AcDbLine
 10
18.63994750976562
 20
19.54790242513021
 30
0.0
 11
18.63994750976562
 21
20.43983764648437
 31
0.0
  0
SPLINE
  5
27
330
22
100
AcDbEntity
  8
LAYER_1
 62
     7
100
AcDbSpline
210
0.0
220
0.0
230
1.0
 70
     8
 71
     3
 72
     8
 73
     4
 74
     0
 42
0.0000000001
 43
0.0000000001
 40
0.0
 40
0.0
 40
0.0
 40
0.0
 40
1.0
 40
1.0
 40
1.0
 40
1.0
 10
34.38610093858507
 20
-43.27789238823785
 30
0.0
 10
34.9111334906684
 20
-42.86138034396701
 30
0.0
 10
35.5994635687934
 20
-41.90157674153645
 30
0.0
 10
35.65355156792534
 20
-41.53915269639757
 30
0.0
  0
SPLINE
  5
26
330
22
100
AcDbEntity
  8
LAYER_1
 62
     7
100
AcDbSpline
210
0.0
220
0.0
230
1.0
 70
     8
 71
     3
 72
     8
 73
     4
 74
     0
 42
0.0000000001
 43
0.0000000001
 40
0.0
 40
0.0
 40
0.0
 40
0.0
 40
1.0
 40
1.0
 40
1.0
 40
1.0
 10
40.90973375108506
 20
-48.84654473198784
 30
0.0
 10
41.43511081271701
 20
-48.43003268771701
 30
0.0
 10
42.17305026584201
 20
-47.82335137261284
 30
0.0
 10
42.46278279622396
 20
-46.70025024414062
 30
0.0
  0
SPLINE
  5
25
330
22
100
AcDbEntity
  8
LAYER_1
 62
     7
100
AcDbSpline
210
0.0
220
0.0
230
1.0
 70
     8
 71
     3
 72
     8
 73
     4
 74
     0
 42
0.0000000001
 43
0.0000000001
 40
0.0
 40
0.0
 40
0.0
 40
0.0
 40
1.0
 40
1.0
 40
1.0
 40
1.0
 10
42.53512980143229
 20
-48.38903605143229
 30
0.0
 10
42.88790757921007
 20
-48.10929429796006
 30
0.0
 10
43.33714803059895
 20
-47.74342515733507
 30
0.0
 10
43.68165757921007
 20
-47.19289889865451
 30
0.0
  0
ENDBLK
  5
115
330
22
100
AcDbEntity
  8
LAYER_1
100
AcDbBlockEnd
  0
ENDSEC
  0
SECTION
  2
ENTITIES
  0
INSERT
  5
23
330
A
100
AcDbEntity
  8
LAYER_1
 62
     7
100
AcDbBlockReference
  2
AI9-BLK1
 10
106.6609313964844
 20
142.346780734592
 30
0.0
  0
ENDSEC
  0
SECTION
  2
OBJECTS
  0
DICTIONARY
  5
19
330
0
100
AcDbDictionary
281
     1
  3
ACAD_COLOR
350
14C
  3
ACAD_GROUP
350
1A
  3
ACAD_LAYOUT
350
119
  3
ACAD_MATERIAL
350
14E
  3
ACAD_MLINESTYLE
350
1B
  3
ACAD_PLOTSETTINGS
350
11A
  3
ACAD_PLOTSTYLENAME
350
117
  3
ACDBHEADERROUNDTRIPXREC
350
14B
  0
DICTIONARY
  5
14C
102
{ACAD_REACTORS
330
19
102
}
330
19
100
AcDbDictionary
281
     1
  0
DICTIONARY
  5
1A
102
{ACAD_REACTORS
330
19
102
}
330
19
100
AcDbDictionary
281
     1
  0
DICTIONARY
  5
119
102
{ACAD_REACTORS
330
19
102
}
330
19
100
AcDbDictionary
281
     1
  3
Layout1
350
11C
  3
Model
350
11B
  0
DICTIONARY
  5
14E
102
{ACAD_REACTORS
330
19
102
}
330
19
100
AcDbDictionary
281
     1
  0
DICTIONARY
  5
1B
102
{ACAD_REACTORS
330
19
102
}
330
19
100
AcDbDictionary
281
     1
  3
STANDARD
350
1C
  0
DICTIONARY
  5
11A
102
{ACAD_REACTORS
330
19
102
}
330
19
100
AcDbDictionary
281
     1
  0
ACDBDICTIONARYWDFLT
  5
117
102
{ACAD_REACTORS
330
19
102
}
330
19
100
AcDbDictionary
281
     1
  3
Normal
350
118
100
AcDbDictionaryWithDefault
340
118
  0
DICTIONARY
  5
14B
102
{ACAD_REACTORS
330
19
102
}
330
19
100
AcDbDictionary
281
     1
  3
COLORDICT
350
14D
  3
MATERIALDICT
350
14F
  0
LAYOUT
  5
11C
102
{ACAD_REACTORS
330
119
102
}
102
{ACAD_XDICTIONARY
360
150
102
}
330
119
100
AcDbPlotSettings
  1

  2
Support Center HP LaserJet 4
  4

  6

 40
0.0
 41
0.0
 42
0.0
 43
0.0
 44
0.0
 45
0.0
 46
0.0
 47
0.0
 48
0.0
 49
0.0
140
0.0
141
0.0
142
1.0
143
1.0
 70
   688
 72
     0
 73
     0
 74
     5
  7

 75
    16
147
1.0
148
0.0
149
0.0
100
AcDbLayout
  1
Layout1
 70
     0
 71
     1
 10
0.0
 20
0.0
 11
12.0
 21
9.0
 12
0.0
 22
0.0
 32
0.0
 14
1.000000000000000E+20
 24
1.000000000000000E+20
 34
1.000000000000000E+20
 15
-1.000000000000000E+20
 25
-1.000000000000000E+20
 35
-1.000000000000000E+20
146
0.0
 13
0.0
 23
0.0
 33
0.0
 16
1.0
 26
0.0
 36
0.0
 17
0.0
 27
1.0
 37
0.0
 76
     0
330
B
  0
LAYOUT
  5
11B
102
{ACAD_REACTORS
330
119
102
}
102
{ACAD_XDICTIONARY
360
152
102
}
330
119
100
AcDbPlotSettings
  1

  2
Support Center HP LaserJet 4
  4

  6

 40
0.0
 41
0.0
 42
0.0
 43
0.0
 44
0.0
 45
0.0
 46
0.0
 47
0.0
 48
0.0
 49
0.0
140
0.0
141
0.0
142
1.0
143
1.0
 70
  1712
 72
     0
 73
     0
 74
     0
  7

 75
     0
147
1.0
148
0.0
149
0.0
100
AcDbLayout
  1
Model
 70
     1
 71
     0
 10
0.0
 20
0.0
 11
12.0
 21
9.0
 12
0.0
 22
0.0
 32
0.0
 14
0.0
 24
0.0
 34
0.0
 15
0.0
 25
0.0
 35
0.0
146
0.0
 13
0.0
 23
0.0
 33
0.0
 16
1.0
 26
0.0
 36
0.0
 17
0.0
 27
1.0
 37
0.0
 76
     0
330
A
  0
MLINESTYLE
  5
1C
102
{ACAD_REACTORS
330
1B
102
}
330
1B
100
AcDbMlineStyle
  2
STANDARD
 70
     0
  3

 62
     0
 51
90.0000000000002
 52
90.0000000000002
 71
     2
 49
0.5
 62
   256
  6
BYLAYER
 49
-0.5
 62
   256
  6
BYLAYER
  0
ACDBPLACEHOLDER
  5
118
102
{ACAD_REACTORS
330
117
102
}
330
117
  0
XRECORD
  5
14D
102
{ACAD_REACTORS
330
14B
102
}
330
14B
100
AcDbXrecord
340
14C
  0
XRECORD
  5
14F
102
{ACAD_REACTORS
330
14B
102
}
330
14B
100
AcDbXrecord
340
14E
  0
DICTIONARY
  5
150
330
11C
100
AcDbDictionary
280
     1
281
     1
  3
ACAD_XREC_ROUNDTRIP
360
151
  0
DICTIONARY
  5
152
330
11B
100
AcDbDictionary
280
     1
281
     1
  3
ACAD_XREC_ROUNDTRIP
360
153
  0
XRECORD
  5
151
102
{ACAD_REACTORS
330
150
102
}
330
150
100
AcDbXrecord
102
SHADEPLOT
 70
     0
102
SHADEPLOTRESLEVEL
 70
     0
102
SHADEPLOTCUSTOMDPI
 70
     0
  0
XRECORD
  5
153
102
{ACAD_REACTORS
330
152
102
}
330
152
100
AcDbXrecord
102
SHADEPLOT
 70
     0
102
SHADEPLOTRESLEVEL
 70
     0
102
SHADEPLOTCUSTOMDPI
 70
     0
  0
ENDSEC
  0
EOF
