  0
SECTION
  2
HEADER
  9
$ACADVER
  1
AC1015
  9
$ACADMAINTVER
 70
     6
  9
$DWGCODEPAGE
  3
ISO8859-1
  9
$INSBASE
 10
0.0
 20
0.0
 30
0.0
  9
$EXTMIN
 10
1.434558
 20
1.411497333333333
 30
0.0
  9
$EXTMAX
 10
9.162759424043461
 20
7.877503
 30
0.0
  9
$LIMMIN
 10
0.0
 20
0.0
  9
$LIMMAX
 10
8.5
 20
11.0
  9
$ORTHOMODE
 70
     1
  9
$REGENMODE
 70
     0
  9
$FILLMODE
 70
     1
  9
$QTEXTMODE
 70
     0
  9
$MIRRTEXT
 70
     1
  9
$LTSCALE
 40
0.2
  9
$ATTMODE
 70
     1
  9
$TEXTSIZE
 40
0.2
  9
$TRACEWID
 40
0.05
  9
$TEXTSTYLE
  7
STANDARD
  9
$CLAYER
  8
0
  9
$CELTYPE
  6
ByLayer
  9
$CECOLOR
 62
   256
  9
$CELTSCALE
 40
1.0
  9
$DISPSILH
 70
     0
  9
$DIMSCALE
 40
1.0
  9
$DIMASZ
 40
0.2
  9
$DIMEXO
 40
0.0625
  9
$DIMDLI
 40
0.38
  9
$DIMRND
 40
0.0
  9
$DIMDLE
 40
0.0
  9
$DIMEXE
 40
0.075
  9
$DIMTP
 40
0.0
  9
$DIMTM
 40
0.0
  9
$DIMTXT
 40
0.1
  9
$DIMCEN
 40
0.09
  9
$DIMTSZ
 40
0.0
  9
$DIMTOL
 70
     0
  9
$DIMLIM
 70
     0
  9
$DIMTIH
 70
     0
  9
$DIMTOH
 70
     0
  9
$DIMSE1
 70
     0
  9
$DIMSE2
 70
     0
  9
$DIMTAD
 70
     1
  9
$DIMZIN
 70
     0
  9
$DIMBLK
  1

  9
$DIMASO
 70
     0
  9
$DIMSHO
 70
     1
  9
$DIMPOST
  1

  9
$DIMAPOST
  1

  9
$DIMALT
 70
     0
  9
$DIMALTD
 70
     2
  9
$DIMALTF
 40
25.4
  9
$DIMLFAC
 40
1.0
  9
$DIMTOFL
 70
     0
  9
$DIMTVP
 40
0.0
  9
$DIMTIX
 70
     0
  9
$DIMSOXD
 70
     0
  9
$DIMSAH
 70
     0
  9
$DIMBLK1
  1

  9
$DIMBLK2
  1

  9
$DIMSTYLE
  2
Standard
  9
$DIMCLRD
 70
     0
  9
$DIMCLRE
 70
     0
  9
$DIMCLRT
 70
     0
  9
$DIMTFAC
 40
1.0
  9
$DIMGAP
 40
0.09
  9
$DIMJUST
 70
     0
  9
$DIMSD1
 70
     0
  9
$DIMSD2
 70
     0
  9
$DIMTOLJ
 70
     1
  9
$DIMTZIN
 70
     0
  9
$DIMALTZ
 70
     0
  9
$DIMALTTZ
 70
     0
  9
$DIMUPT
 70
     0
  9
$DIMDEC
 70
     4
  9
$DIMTDEC
 70
     4
  9
$DIMALTU
 70
     2
  9
$DIMALTTD
 70
     2
  9
$DIMTXSTY
  7
STANDARD
  9
$DIMAUNIT
 70
     0
  9
$DIMADEC
 70
     0
  9
$DIMALTRND
 40
0.0
  9
$DIMAZIN
 70
     0
  9
$DIMDSEP
 70
    46
  9
$DIMATFIT
 70
     3
  9
$DIMFRAC
 70
     0
  9
$DIMLDRBLK
  1

  9
$DIMLUNIT
 70
     2
  9
$DIMLWD
 70
    -2
  9
$DIMLWE
 70
    -2
  9
$DIMTMOVE
 70
     0
  9
$LUNITS
 70
     2
  9
$LUPREC
 70
     4
  9
$SKETCHINC
 40
0.1
  9
$FILLETRAD
 40
0.0
  9
$AUNITS
 70
     0
  9
$AUPREC
 70
     0
  9
$MENU
  1
acad
  9
$ELEVATION
 40
0.0
  9
$PELEVATION
 40
0.0
  9
$THICKNESS
 40
0.0
  9
$LIMCHECK
 70
     0
  9
$CHAMFERA
 40
0.0
  9
$CHAMFERB
 40
0.0
  9
$CHAMFERC
 40
1.0
  9
$CHAMFERD
 40
0.0
  9
$SKPOLY
 70
     0
  9
$TDCREATE
 40
2453955.560375035
  9
$TDUCREATE
 40
2453955.893708368
  9
$TDUPDATE
 40
2453955.602041713
  9
$TDUUPDATE
 40
2453955.89370838
  9
$TDINDWG
 40
0.0000000116
  9
$TDUSRTIMER
 40
0.0000000116
  9
$USRTIMER
 70
     1
  9
$ANGBASE
 50
0.0
  9
$ANGDIR
 70
     0
  9
$PDMODE
 70
     0
  9
$PDSIZE
 40
0.0
  9
$PLINEWID
 40
0.0
  9
$SPLFRAME
 70
     0
  9
$SPLINETYPE
 70
     6
  9
$SPLINESEGS
 70
     8
  9
$HANDSEED
  5
77C
  9
$SURFTAB1
 70
     6
  9
$SURFTAB2
 70
     6
  9
$SURFTYPE
 70
     6
  9
$SURFU
 70
     6
  9
$SURFV
 70
     6
  9
$UCSBASE
  2

  9
$UCSNAME
  2

  9
$UCSORG
 10
0.0
 20
0.0
 30
0.0
  9
$UCSXDIR
 10
1.0
 20
0.0
 30
0.0
  9
$UCSYDIR
 10
0.0
 20
1.0
 30
0.0
  9
$UCSORTHOREF
  2

  9
$UCSORTHOVIEW
 70
     0
  9
$UCSORGTOP
 10
0.0
 20
0.0
 30
0.0
  9
$UCSORGBOTTOM
 10
0.0
 20
0.0
 30
0.0
  9
$UCSORGLEFT
 10
0.0
 20
0.0
 30
0.0
  9
$UCSORGRIGHT
 10
0.0
 20
0.0
 30
0.0
  9
$UCSORGFRONT
 10
0.0
 20
0.0
 30
0.0
  9
$UCSORGBACK
 10
0.0
 20
0.0
 30
0.0
  9
$PUCSBASE
  2

  9
$PUCSNAME
  2

  9
$PUCSORG
 10
0.0
 20
0.0
 30
0.0
  9
$PUCSXDIR
 10
1.0
 20
0.0
 30
0.0
  9
$PUCSYDIR
 10
0.0
 20
1.0
 30
0.0
  9
$PUCSORTHOREF
  2

  9
$PUCSORTHOVIEW
 70
     0
  9
$PUCSORGTOP
 10
0.0
 20
0.0
 30
0.0
  9
$PUCSORGBOTTOM
 10
0.0
 20
0.0
 30
0.0
  9
$PUCSORGLEFT
 10
0.0
 20
0.0
 30
0.0
  9
$PUCSORGRIGHT
 10
0.0
 20
0.0
 30
0.0
  9
$PUCSORGFRONT
 10
0.0
 20
0.0
 30
0.0
  9
$PUCSORGBACK
 10
0.0
 20
0.0
 30
0.0
  9
$USERI1
 70
     0
  9
$USERI2
 70
     0
  9
$USERI3
 70
     0
  9
$USERI4
 70
     0
  9
$USERI5
 70
     0
  9
$USERR1
 40
0.0
  9
$USERR2
 40
0.0
  9
$USERR3
 40
0.0
  9
$USERR4
 40
0.0
  9
$USERR5
 40
0.0
  9
$WORLDVIEW
 70
     1
  9
$SHADEDGE
 70
     3
  9
$SHADEDIF
 70
    70
  9
$TILEMODE
 70
     1
  9
$MAXACTVP
 70
    16
  9
$PINSBASE
 10
0.0
 20
0.0
 30
0.0
  9
$PLIMCHECK
 70
     0
  9
$PEXTMIN
 10
1.000000000000000E+20
 20
1.000000000000000E+20
 30
1.000000000000000E+20
  9
$PEXTMAX
 10
-1.000000000000000E+20
 20
-1.000000000000000E+20
 30
-1.000000000000000E+20
  9
$PLIMMIN
 10
0.0
 20
0.0
  9
$PLIMMAX
 10
12.0
 20
9.0
  9
$UNITMODE
 70
     0
  9
$VISRETAIN
 70
     0
  9
$PLINEGEN
 70
     0
  9
$PSLTSCALE
 70
     1
  9
$TREEDEPTH
 70
  3020
  9
$CMLSTYLE
  2
Standard
  9
$CMLJUST
 70
     0
  9
$CMLSCALE
 40
1.0
  9
$PROXYGRAPHICS
 70
     1
  9
$MEASUREMENT
 70
     0
  9
$CELWEIGHT
370
    -1
  9
$ENDCAPS
280
     0
  9
$JOINSTYLE
280
     0
  9
$LWDISPLAY
290
     0
  9
$INSUNITS
 70
     1
  9
$HYPERLINKBASE
  1

  9
$STYLESHEET
  1

  9
$XEDIT
290
     1
  9
$CEPSNTYPE
380
     0
  9
$PSTYLEMODE
290
     0
  9
$FINGERPRINTGUID
  2
{FAEB1C30-E019-11D5-929B-00C0DF256EC4}
  9
$VERSIONGUID
  2
{FAEB1C32-E019-11D5-929B-00C0DF256EC4}
  9
$EXTNAMES
290
     1
  9
$PSVPSCALE
 40
0.0
  9
$OLESTARTUP
290
     0
  0
ENDSEC
  0
SECTION
  2
CLASSES
  0
CLASS
  1
ACDBDICTIONARYWDFLT
  2
AcDbDictionaryWithDefault
  3
AutoCAD 2000
 90
        0
280
     0
281
     0
  0
CLASS
  1
ACDBPLACEHOLDER
  2
AcDbPlaceHolder
  3
ObjectDBX Classes
 90
        0
280
     0
281
     0
  0
CLASS
  1
LAYOUT
  2
AcDbLayout
  3
ObjectDBX Classes
 90
        0
280
     0
281
     0
  0
ENDSEC
  0
SECTION
  2
TABLES
  0
TABLE
  2
VPORT
  5
8
330
0
100
AcDbSymbolTable
 70
     2
  0
VPORT
  5
22
330
8
100
AcDbSymbolTableRecord
100
AcDbViewportTableRecord
  2
*ACTIVE
 70
     0
 10
0.0
 20
0.0
 11
1.0
 21
1.0
 12
4.955790623216067
 22
4.672445820433424
 13
0.0
 23
0.0
 14
1.0
 24
1.0
 15
0.0
 25
0.0
 16
0.0
 26
0.0
 36
1.0
 17
0.0
 27
0.0
 37
0.0
 40
7.29472513871278
 41
0.689102564102564
 42
50.0
 43
0.0
 44
0.0
 50
0.0
 51
0.0
 71
     0
 72
  2000
 73
     1
 74
     0
 75
     0
 76
     0
 77
     0
 78
     0
281
     0
 65
     1
110
0.0
120
0.0
130
0.0
111
1.0
121
0.0
131
0.0
112
0.0
122
1.0
132
0.0
 79
     0
146
0.0
  0
ENDTAB
  0
TABLE
  2
LTYPE
  5
5
330
0
100
AcDbSymbolTable
 70
     2
  0
LTYPE
  5
10
330
5
100
AcDbSymbolTableRecord
100
AcDbLinetypeTableRecord
  2
ByBlock
 70
     0
  3

 72
    65
 73
     0
 40
0.0
  0
LTYPE
  5
11
330
5
100
AcDbSymbolTableRecord
100
AcDbLinetypeTableRecord
  2
ByLayer
 70
     0
  3

 72
    65
 73
     0
 40
0.0
  0
LTYPE
  5
1E
330
5
100
AcDbSymbolTableRecord
100
AcDbLinetypeTableRecord
  2
CONTINUOUS
 70
     0
  3
Solid line
 72
    65
 73
     0
 40
0.0
  0
LTYPE
  5
1F
330
5
100
AcDbSymbolTableRecord
100
AcDbLinetypeTableRecord
  2
DASHED2
 70
     0
  3
_ _ _ _ _ _ _ _ _ _ _ _ _ _ _ _ _ _ _ _ _ _ _ _
 72
    65
 73
     2
 40
0.375
 49
0.25
 74
     0
 49
-0.125
 74
     0
  0
ENDTAB
  0
TABLE
  2
LAYER
  5
2
330
0
100
AcDbSymbolTable
 70
     1
  0
LAYER
  5
20
330
2
100
AcDbSymbolTableRecord
100
AcDbLayerTableRecord
  2
0
 70
     0
 62
     7
  6
CONTINUOUS
370
    -3
390
F
  0
ENDTAB
  0
TABLE
  2
STYLE
  5
3
330
0
100
AcDbSymbolTable
 70
     1
  0
STYLE
  5
25
330
3
100
AcDbSymbolTableRecord
100
AcDbTextStyleTableRecord
  2
STANDARD
 70
     0
 40
0.0
 41
1.0
 50
0.0
 71
     0
 42
0.2
  3
ROMANS.SHX
  4

  0
ENDTAB
  0
TABLE
  2
VIEW
  5
6
330
0
100
AcDbSymbolTable
 70
     1
  0
VIEW
  5
24
330
6
100
AcDbSymbolTableRecord
100
AcDbViewTableRecord
  2
1
 70
     0
 40
11.0
 10
7.225941000000001
 20
5.5
 41
14.451883
 11
0.0
 21
0.0
 31
1.0
 12
0.0
 22
0.0
 32
0.0
 42
50.0
 43
0.0
 44
0.0
 50
0.0
 71
     0
281
     0
 72
     0
  0
ENDTAB
  0
TABLE
  2
UCS
  5
7
330
0
100
AcDbSymbolTable
 70
     0
  0
ENDTAB
  0
TABLE
  2
APPID
  5
9
330
0
100
AcDbSymbolTable
 70
     1
  0
APPID
  5
23
330
9
100
AcDbSymbolTableRecord
100
AcDbRegAppTableRecord
  2
ACAD
 70
     0
  0
ENDTAB
  0
TABLE
  2
DIMSTYLE
  5
A
330
0
100
AcDbSymbolTable
 70
     1
100
AcDbDimStyleTable
  0
DIMSTYLE
105
26
330
A
100
AcDbSymbolTableRecord
100
AcDbDimStyleTableRecord
  2
Standard
 70
     0
  3

  4

340
25
  0
ENDTAB
  0
TABLE
  2
BLOCK_RECORD
  5
1
330
0
100
AcDbSymbolTable
 70
     3
  0
BLOCK_RECORD
  5
18
330
1
100
AcDbSymbolTableRecord
100
AcDbBlockTableRecord
  2
*Model_Space
340
19
  0
BLOCK_RECORD
  5
16
330
1
100
AcDbSymbolTableRecord
100
AcDbBlockTableRecord
  2
*Paper_Space
340
17
  0
BLOCK_RECORD
  5
1B
330
1
100
AcDbSymbolTableRecord
100
AcDbBlockTableRecord
  2
ACAD0F5B
340
0
  0
BLOCK_RECORD
  5
1C
330
1
100
AcDbSymbolTableRecord
100
AcDbBlockTableRecord
  2
ACAD0D31
340
0
  0
BLOCK_RECORD
  5
1D
330
1
100
AcDbSymbolTableRecord
100
AcDbBlockTableRecord
  2
ACAD3503
340
0
  0
ENDTAB
  0
ENDSEC
  0
SECTION
  2
BLOCKS
  0
BLOCK
  5
771
330
18
100
AcDbEntity
  8
0
100
AcDbBlockBegin
  2
*Model_Space
 70
     0
 10
0.0
 20
0.0
 30
0.0
  3
*Model_Space
  1

  4

  0
ENDBLK
  5
772
330
18
100
AcDbEntity
  8
0
100
AcDbBlockEnd
  0
BLOCK
  5
76F
330
16
100
AcDbEntity
 67
     1
  8
0
100
AcDbBlockBegin
  2
*Paper_Space
 70
     0
 10
0.0
 20
0.0
 30
0.0
  3
*Paper_Space
  1

  4

  0
ENDBLK
  5
770
330
16
100
AcDbEntity
 67
     1
  8
0
100
AcDbBlockEnd
  0
BLOCK
  5
4C
330
1B
100
AcDbEntity
  8
0
100
AcDbBlockBegin
  2
ACAD0F5B
 70
     0
 10
0.0
 20
0.0
 30
0.0
  3
ACAD0F5B
  1

  4

  0
LINE
  5
28
330
1B
100
AcDbEntity
  8
0
100
AcDbLine
 10
4.719965136749616
 20
6.37063195028242
 30
0.0
 11
4.670233481932984
 21
6.341672222537923
 31
0.0
  0
LINE
  5
29
330
1B
100
AcDbEntity
  8
0
100
AcDbLine
 10
4.670233481932985
 20
6.382582137607479
 30
0.0
 11
4.620501827116352
 21
6.353622409862981
 31
0.0
  0
LINE
  5
2A
330
1B
100
AcDbEntity
  8
0
100
AcDbLine
 10
4.471306862666458
 20
6.373108998377085
 30
0.0
 11
4.421575207849826
 21
6.344149270632588
 31
0.0
  0
LINE
  5
2B
330
1B
100
AcDbEntity
  8
0
100
AcDbLine
 10
4.357111058702815
 20
6.484568633428192
 30
0.0
 11
4.357111058702815
 21
6.144606649673254
 31
0.0
  0
LINE
  5
2C
330
1B
100
AcDbEntity
  8
0
100
AcDbLine
 10
4.620501827116352
 20
6.312712494793426
 30
0.0
 11
4.570770172299722
 21
6.283752767048931
 31
0.0
  0
LINE
  5
2D
330
1B
100
AcDbEntity
  8
0
100
AcDbLine
 10
4.421575207849826
 20
6.196873583815441
 30
0.0
 11
4.378599108418485
 21
6.171847749794012
 31
0.0
  0
LINE
  5
2E
330
1B
100
AcDbEntity
  8
0
100
AcDbLine
 10
4.421575207849826
 20
6.287898160640867
 30
0.0
 11
4.378599108418485
 21
6.262872326619438
 31
0.0
  0
LINE
  5
2F
330
1B
100
AcDbEntity
  8
0
100
AcDbLine
 10
4.378599108418485
 20
6.212757664863568
 30
0.0
 11
4.357111058702815
 21
6.200244747852853
 31
0.0
  0
LINE
  5
30
330
1B
100
AcDbEntity
  8
0
100
AcDbLine
 10
4.378599108418485
 20
6.319123436611159
 30
0.0
 11
4.357111058702815
 21
6.306610519600445
 31
0.0
  0
LINE
  5
31
330
1B
100
AcDbEntity
  8
0
100
AcDbLine
 10
4.521038517483089
 20
6.254793039304434
 30
0.0
 11
4.471306862666458
 21
6.225833311559938
 31
0.0
  0
LINE
  5
32
330
1B
100
AcDbEntity
  8
0
100
AcDbLine
 10
4.521038517483089
 20
6.345817616129859
 30
0.0
 11
4.471306862666458
 21
6.316857888385363
 31
0.0
  0
LINE
  5
33
330
1B
100
AcDbEntity
  8
0
100
AcDbLine
 10
4.471306862666458
 20
6.266743226629493
 30
0.0
 11
4.421575207849826
 21
6.237783498884997
 31
0.0
  0
LINE
  5
34
330
1B
100
AcDbEntity
  8
0
100
AcDbLine
 10
4.570770172299721
 20
6.324662682118485
 30
0.0
 11
4.521038517483089
 21
6.295702954373989
 31
0.0
  0
LINE
  5
35
330
1B
100
AcDbEntity
  8
0
100
AcDbLine
 10
4.620501827116352
 20
6.403737071618852
 30
0.0
 11
4.570770172299722
 21
6.374777343874357
 31
0.0
  0
LINE
  5
36
330
1B
100
AcDbEntity
  8
0
100
AcDbLine
 10
4.620501827116352
 20
6.520330294259132
 30
0.0
 11
4.570770172299722
 21
6.491370566514636
 31
0.0
  0
LINE
  5
37
330
1B
100
AcDbEntity
  8
0
100
AcDbLine
 10
4.421575207849826
 20
6.404491383281147
 30
0.0
 11
4.378599108418485
 21
6.379465549259717
 31
0.0
  0
LINE
  5
38
330
1B
100
AcDbEntity
  8
0
100
AcDbLine
 10
4.421575207849826
 20
6.502675186881334
 30
0.0
 11
4.378599108418485
 21
6.477649352859904
 31
0.0
  0
LINE
  5
39
330
1B
100
AcDbEntity
  8
0
100
AcDbLine
 10
4.378599108418485
 20
6.432648435133513
 30
0.0
 11
4.357111058702815
 21
6.420135518122798
 31
0.0
  0
LINE
  5
3A
330
1B
100
AcDbEntity
  8
0
100
AcDbLine
 10
4.521038517483089
 20
6.462410838770139
 30
0.0
 11
4.471306862666458
 21
6.433451111025643
 31
0.0
  0
LINE
  5
3B
330
1B
100
AcDbEntity
  8
0
100
AcDbLine
 10
4.521038517483089
 20
6.560594642370326
 30
0.0
 11
4.471306862666458
 21
6.53163491462583
 31
0.0
  0
LINE
  5
3C
330
1B
100
AcDbEntity
  8
0
100
AcDbLine
 10
4.471306862666458
 20
6.486633996899438
 30
0.0
 11
4.421575207849826
 21
6.457674269154942
 31
0.0
  0
LINE
  5
3D
330
1B
100
AcDbEntity
  8
0
100
AcDbLine
 10
4.570770172299721
 20
6.431028453866078
 30
0.0
 11
4.521038517483089
 21
6.402068726121581
 31
0.0
  0
LINE
  5
3E
330
1B
100
AcDbEntity
  8
0
100
AcDbLine
 10
4.570770172299722
 20
6.54455345238843
 30
0.0
 11
4.521038517483089
 21
6.515593724643933
 31
0.0
  0
LINE
  5
3F
330
1B
100
AcDbEntity
  8
0
100
AcDbLine
 10
4.719965136749616
 20
6.578249749748125
 30
0.0
 11
4.670233481932984
 21
6.549290022003628
 31
0.0
  0
LINE
  5
40
330
1B
100
AcDbEntity
  8
0
100
AcDbLine
 10
4.670233481932985
 20
6.488947909355071
 30
0.0
 11
4.620501827116352
 21
6.459988181610575
 31
0.0
  0
LINE
  5
41
330
1B
100
AcDbEntity
  8
0
100
AcDbLine
 10
4.719965136749616
 20
6.461656527107846
 30
0.0
 11
4.670233481932984
 21
6.432696799363349
 31
0.0
  0
LINE
  5
42
330
1B
100
AcDbEntity
  8
0
100
AcDbLine
 10
4.775973290381088
 20
6.388518424509234
 30
0.0
 11
4.357111058702815
 21
6.144606649673254
 31
0.0
  0
LINE
  5
43
330
1B
100
AcDbEntity
  8
0
100
AcDbLine
 10
4.620501827116352
 20
6.618514097859319
 30
0.0
 11
4.570770172299722
 21
6.589554370114823
 31
0.0
  0
LINE
  5
44
330
1B
100
AcDbEntity
  8
0
100
AcDbLine
 10
4.775973290381088
 20
6.728480408264172
 30
0.0
 11
4.357111058702815
 21
6.484568633428192
 31
0.0
  0
LINE
  5
45
330
1B
100
AcDbEntity
  8
0
100
AcDbLine
 10
4.775973290381088
 20
6.444156522688833
 30
0.0
 11
4.719965136749615
 21
6.411541865351975
 31
0.0
  0
LINE
  5
46
330
1B
100
AcDbEntity
  8
0
100
AcDbLine
 10
4.775973290381088
 20
6.550522294436425
 30
0.0
 11
4.719965136749615
 21
6.517907637099567
 31
0.0
  0
LINE
  5
47
330
1B
100
AcDbEntity
  8
0
100
AcDbLine
 10
4.775973290381088
 20
6.664047292958778
 30
0.0
 11
4.719965136749615
 21
6.63143263562192
 31
0.0
  0
LINE
  5
48
330
1B
100
AcDbEntity
  8
0
100
AcDbLine
 10
4.670233481932985
 20
6.602472907877424
 30
0.0
 11
4.620501827116352
 21
6.573513180132927
 31
0.0
  0
LINE
  5
49
330
1B
100
AcDbEntity
  8
0
100
AcDbLine
 10
4.719965136749616
 20
6.676433553348312
 30
0.0
 11
4.670233481932984
 21
6.647473825603815
 31
0.0
  0
LINE
  5
4A
330
1B
100
AcDbEntity
  8
0
100
AcDbLine
 10
4.775973290381087
 20
6.728480408264172
 30
0.0
 11
4.775973290381088
 21
6.388518424509234
 31
0.0
  0
ENDBLK
  5
4D
330
1B
100
AcDbEntity
  8
0
100
AcDbBlockEnd
  0
BLOCK
  5
73
330
1C
100
AcDbEntity
  8
0
100
AcDbBlockBegin
  2
ACAD0D31
 70
     0
 10
0.0
 20
0.0
 30
0.0
  3
ACAD0D31
  1

  4

  0
LINE
  5
4F
330
1C
100
AcDbEntity
  8
0
100
AcDbLine
 10
4.719965136749616
 20
6.37063195028242
 30
0.0
 11
4.670233481932984
 21
6.341672222537923
 31
0.0
  0
LINE
  5
50
330
1C
100
AcDbEntity
  8
0
100
AcDbLine
 10
4.670233481932985
 20
6.382582137607479
 30
0.0
 11
4.620501827116352
 21
6.353622409862981
 31
0.0
  0
LINE
  5
51
330
1C
100
AcDbEntity
  8
0
100
AcDbLine
 10
4.471306862666458
 20
6.373108998377085
 30
0.0
 11
4.421575207849826
 21
6.344149270632588
 31
0.0
  0
LINE
  5
52
330
1C
100
AcDbEntity
  8
0
100
AcDbLine
 10
4.357111058702815
 20
6.484568633428192
 30
0.0
 11
4.357111058702815
 21
6.144606649673254
 31
0.0
  0
LINE
  5
53
330
1C
100
AcDbEntity
  8
0
100
AcDbLine
 10
4.620501827116352
 20
6.312712494793426
 30
0.0
 11
4.570770172299722
 21
6.283752767048931
 31
0.0
  0
LINE
  5
54
330
1C
100
AcDbEntity
  8
0
100
AcDbLine
 10
4.421575207849826
 20
6.196873583815441
 30
0.0
 11
4.378599108418485
 21
6.171847749794012
 31
0.0
  0
LINE
  5
55
330
1C
100
AcDbEntity
  8
0
100
AcDbLine
 10
4.421575207849826
 20
6.287898160640867
 30
0.0
 11
4.378599108418485
 21
6.262872326619438
 31
0.0
  0
LINE
  5
56
330
1C
100
AcDbEntity
  8
0
100
AcDbLine
 10
4.378599108418485
 20
6.212757664863568
 30
0.0
 11
4.357111058702815
 21
6.200244747852853
 31
0.0
  0
LINE
  5
57
330
1C
100
AcDbEntity
  8
0
100
AcDbLine
 10
4.378599108418485
 20
6.319123436611159
 30
0.0
 11
4.357111058702815
 21
6.306610519600445
 31
0.0
  0
LINE
  5
58
330
1C
100
AcDbEntity
  8
0
100
AcDbLine
 10
4.521038517483089
 20
6.254793039304434
 30
0.0
 11
4.471306862666458
 21
6.225833311559938
 31
0.0
  0
LINE
  5
59
330
1C
100
AcDbEntity
  8
0
100
AcDbLine
 10
4.521038517483089
 20
6.345817616129859
 30
0.0
 11
4.471306862666458
 21
6.316857888385363
 31
0.0
  0
LINE
  5
5A
330
1C
100
AcDbEntity
  8
0
100
AcDbLine
 10
4.471306862666458
 20
6.266743226629493
 30
0.0
 11
4.421575207849826
 21
6.237783498884997
 31
0.0
  0
LINE
  5
5B
330
1C
100
AcDbEntity
  8
0
100
AcDbLine
 10
4.570770172299721
 20
6.324662682118485
 30
0.0
 11
4.521038517483089
 21
6.295702954373989
 31
0.0
  0
LINE
  5
5C
330
1C
100
AcDbEntity
  8
0
100
AcDbLine
 10
4.620501827116352
 20
6.403737071618852
 30
0.0
 11
4.570770172299722
 21
6.374777343874357
 31
0.0
  0
LINE
  5
5D
330
1C
100
AcDbEntity
  8
0
100
AcDbLine
 10
4.620501827116352
 20
6.520330294259132
 30
0.0
 11
4.570770172299722
 21
6.491370566514636
 31
0.0
  0
LINE
  5
5E
330
1C
100
AcDbEntity
  8
0
100
AcDbLine
 10
4.421575207849826
 20
6.404491383281147
 30
0.0
 11
4.378599108418485
 21
6.379465549259717
 31
0.0
  0
LINE
  5
5F
330
1C
100
AcDbEntity
  8
0
100
AcDbLine
 10
4.421575207849826
 20
6.502675186881334
 30
0.0
 11
4.378599108418485
 21
6.477649352859904
 31
0.0
  0
LINE
  5
60
330
1C
100
AcDbEntity
  8
0
100
AcDbLine
 10
4.378599108418485
 20
6.432648435133513
 30
0.0
 11
4.357111058702815
 21
6.420135518122798
 31
0.0
  0
LINE
  5
61
330
1C
100
AcDbEntity
  8
0
100
AcDbLine
 10
4.521038517483089
 20
6.462410838770139
 30
0.0
 11
4.471306862666458
 21
6.433451111025643
 31
0.0
  0
LINE
  5
62
330
1C
100
AcDbEntity
  8
0
100
AcDbLine
 10
4.521038517483089
 20
6.560594642370326
 30
0.0
 11
4.471306862666458
 21
6.53163491462583
 31
0.0
  0
LINE
  5
63
330
1C
100
AcDbEntity
  8
0
100
AcDbLine
 10
4.471306862666458
 20
6.486633996899438
 30
0.0
 11
4.421575207849826
 21
6.457674269154942
 31
0.0
  0
LINE
  5
64
330
1C
100
AcDbEntity
  8
0
100
AcDbLine
 10
4.570770172299721
 20
6.431028453866078
 30
0.0
 11
4.521038517483089
 21
6.402068726121581
 31
0.0
  0
LINE
  5
65
330
1C
100
AcDbEntity
  8
0
100
AcDbLine
 10
4.570770172299722
 20
6.54455345238843
 30
0.0
 11
4.521038517483089
 21
6.515593724643933
 31
0.0
  0
LINE
  5
66
330
1C
100
AcDbEntity
  8
0
100
AcDbLine
 10
4.719965136749616
 20
6.578249749748125
 30
0.0
 11
4.670233481932984
 21
6.549290022003628
 31
0.0
  0
LINE
  5
67
330
1C
100
AcDbEntity
  8
0
100
AcDbLine
 10
4.670233481932985
 20
6.488947909355071
 30
0.0
 11
4.620501827116352
 21
6.459988181610575
 31
0.0
  0
LINE
  5
68
330
1C
100
AcDbEntity
  8
0
100
AcDbLine
 10
4.719965136749616
 20
6.461656527107846
 30
0.0
 11
4.670233481932984
 21
6.432696799363349
 31
0.0
  0
LINE
  5
69
330
1C
100
AcDbEntity
  8
0
100
AcDbLine
 10
4.775973290381088
 20
6.388518424509234
 30
0.0
 11
4.357111058702815
 21
6.144606649673254
 31
0.0
  0
LINE
  5
6A
330
1C
100
AcDbEntity
  8
0
100
AcDbLine
 10
4.620501827116352
 20
6.618514097859319
 30
0.0
 11
4.570770172299722
 21
6.589554370114823
 31
0.0
  0
LINE
  5
6B
330
1C
100
AcDbEntity
  8
0
100
AcDbLine
 10
4.775973290381088
 20
6.728480408264172
 30
0.0
 11
4.357111058702815
 21
6.484568633428192
 31
0.0
  0
LINE
  5
6C
330
1C
100
AcDbEntity
  8
0
100
AcDbLine
 10
4.775973290381088
 20
6.444156522688833
 30
0.0
 11
4.719965136749615
 21
6.411541865351975
 31
0.0
  0
LINE
  5
6D
330
1C
100
AcDbEntity
  8
0
100
AcDbLine
 10
4.775973290381088
 20
6.550522294436425
 30
0.0
 11
4.719965136749615
 21
6.517907637099567
 31
0.0
  0
LINE
  5
6E
330
1C
100
AcDbEntity
  8
0
100
AcDbLine
 10
4.775973290381088
 20
6.664047292958778
 30
0.0
 11
4.719965136749615
 21
6.63143263562192
 31
0.0
  0
LINE
  5
6F
330
1C
100
AcDbEntity
  8
0
100
AcDbLine
 10
4.670233481932985
 20
6.602472907877424
 30
0.0
 11
4.620501827116352
 21
6.573513180132927
 31
0.0
  0
LINE
  5
70
330
1C
100
AcDbEntity
  8
0
100
AcDbLine
 10
4.719965136749616
 20
6.676433553348312
 30
0.0
 11
4.670233481932984
 21
6.647473825603815
 31
0.0
  0
LINE
  5
71
330
1C
100
AcDbEntity
  8
0
100
AcDbLine
 10
4.775973290381087
 20
6.728480408264172
 30
0.0
 11
4.775973290381088
 21
6.388518424509234
 31
0.0
  0
ENDBLK
  5
74
330
1C
100
AcDbEntity
  8
0
100
AcDbBlockEnd
  0
BLOCK
  5
9A
330
1D
100
AcDbEntity
  8
0
100
AcDbBlockBegin
  2
ACAD3503
 70
     0
 10
0.0
 20
0.0
 30
0.0
  3
ACAD3503
  1

  4

  0
LINE
  5
76
330
1D
100
AcDbEntity
  8
0
100
AcDbLine
 10
4.719965136749616
 20
6.37063195028242
 30
0.0
 11
4.670233481932984
 21
6.341672222537923
 31
0.0
  0
LINE
  5
77
330
1D
100
AcDbEntity
  8
0
100
AcDbLine
 10
4.670233481932985
 20
6.382582137607479
 30
0.0
 11
4.620501827116352
 21
6.353622409862981
 31
0.0
  0
LINE
  5
78
330
1D
100
AcDbEntity
  8
0
100
AcDbLine
 10
4.471306862666458
 20
6.373108998377085
 30
0.0
 11
4.421575207849826
 21
6.344149270632588
 31
0.0
  0
LINE
  5
79
330
1D
100
AcDbEntity
  8
0
100
AcDbLine
 10
4.357111058702815
 20
6.484568633428192
 30
0.0
 11
4.357111058702815
 21
6.144606649673254
 31
0.0
  0
LINE
  5
7A
330
1D
100
AcDbEntity
  8
0
100
AcDbLine
 10
4.620501827116352
 20
6.312712494793426
 30
0.0
 11
4.570770172299722
 21
6.283752767048931
 31
0.0
  0
LINE
  5
7B
330
1D
100
AcDbEntity
  8
0
100
AcDbLine
 10
4.421575207849826
 20
6.196873583815441
 30
0.0
 11
4.378599108418485
 21
6.171847749794012
 31
0.0
  0
LINE
  5
7C
330
1D
100
AcDbEntity
  8
0
100
AcDbLine
 10
4.421575207849826
 20
6.287898160640867
 30
0.0
 11
4.378599108418485
 21
6.262872326619438
 31
0.0
  0
LINE
  5
7D
330
1D
100
AcDbEntity
  8
0
100
AcDbLine
 10
4.378599108418485
 20
6.212757664863568
 30
0.0
 11
4.357111058702815
 21
6.200244747852853
 31
0.0
  0
LINE
  5
7E
330
1D
100
AcDbEntity
  8
0
100
AcDbLine
 10
4.378599108418485
 20
6.319123436611159
 30
0.0
 11
4.357111058702815
 21
6.306610519600445
 31
0.0
  0
LINE
  5
7F
330
1D
100
AcDbEntity
  8
0
100
AcDbLine
 10
4.521038517483089
 20
6.254793039304434
 30
0.0
 11
4.471306862666458
 21
6.225833311559938
 31
0.0
  0
LINE
  5
80
330
1D
100
AcDbEntity
  8
0
100
AcDbLine
 10
4.521038517483089
 20
6.345817616129859
 30
0.0
 11
4.471306862666458
 21
6.316857888385363
 31
0.0
  0
LINE
  5
81
330
1D
100
AcDbEntity
  8
0
100
AcDbLine
 10
4.471306862666458
 20
6.266743226629493
 30
0.0
 11
4.421575207849826
 21
6.237783498884997
 31
0.0
  0
LINE
  5
82
330
1D
100
AcDbEntity
  8
0
100
AcDbLine
 10
4.570770172299721
 20
6.324662682118485
 30
0.0
 11
4.521038517483089
 21
6.295702954373989
 31
0.0
  0
LINE
  5
83
330
1D
100
AcDbEntity
  8
0
100
AcDbLine
 10
4.620501827116352
 20
6.403737071618852
 30
0.0
 11
4.570770172299722
 21
6.374777343874357
 31
0.0
  0
LINE
  5
84
330
1D
100
AcDbEntity
  8
0
100
AcDbLine
 10
4.620501827116352
 20
6.520330294259132
 30
0.0
 11
4.570770172299722
 21
6.491370566514636
 31
0.0
  0
LINE
  5
85
330
1D
100
AcDbEntity
  8
0
100
AcDbLine
 10
4.421575207849826
 20
6.404491383281147
 30
0.0
 11
4.378599108418485
 21
6.379465549259717
 31
0.0
  0
LINE
  5
86
330
1D
100
AcDbEntity
  8
0
100
AcDbLine
 10
4.421575207849826
 20
6.502675186881334
 30
0.0
 11
4.378599108418485
 21
6.477649352859904
 31
0.0
  0
LINE
  5
87
330
1D
100
AcDbEntity
  8
0
100
AcDbLine
 10
4.378599108418485
 20
6.432648435133513
 30
0.0
 11
4.357111058702815
 21
6.420135518122798
 31
0.0
  0
LINE
  5
88
330
1D
100
AcDbEntity
  8
0
100
AcDbLine
 10
4.521038517483089
 20
6.462410838770139
 30
0.0
 11
4.471306862666458
 21
6.433451111025643
 31
0.0
  0
LINE
  5
89
330
1D
100
AcDbEntity
  8
0
100
AcDbLine
 10
4.521038517483089
 20
6.560594642370326
 30
0.0
 11
4.471306862666458
 21
6.53163491462583
 31
0.0
  0
LINE
  5
8A
330
1D
100
AcDbEntity
  8
0
100
AcDbLine
 10
4.471306862666458
 20
6.486633996899438
 30
0.0
 11
4.421575207849826
 21
6.457674269154942
 31
0.0
  0
LINE
  5
8B
330
1D
100
AcDbEntity
  8
0
100
AcDbLine
 10
4.570770172299721
 20
6.431028453866078
 30
0.0
 11
4.521038517483089
 21
6.402068726121581
 31
0.0
  0
LINE
  5
8C
330
1D
100
AcDbEntity
  8
0
100
AcDbLine
 10
4.570770172299722
 20
6.54455345238843
 30
0.0
 11
4.521038517483089
 21
6.515593724643933
 31
0.0
  0
LINE
  5
8D
330
1D
100
AcDbEntity
  8
0
100
AcDbLine
 10
4.719965136749616
 20
6.578249749748125
 30
0.0
 11
4.670233481932984
 21
6.549290022003628
 31
0.0
  0
LINE
  5
8E
330
1D
100
AcDbEntity
  8
0
100
AcDbLine
 10
4.670233481932985
 20
6.488947909355071
 30
0.0
 11
4.620501827116352
 21
6.459988181610575
 31
0.0
  0
LINE
  5
8F
330
1D
100
AcDbEntity
  8
0
100
AcDbLine
 10
4.719965136749616
 20
6.461656527107846
 30
0.0
 11
4.670233481932984
 21
6.432696799363349
 31
0.0
  0
LINE
  5
90
330
1D
100
AcDbEntity
  8
0
100
AcDbLine
 10
4.775973290381088
 20
6.388518424509234
 30
0.0
 11
4.357111058702815
 21
6.144606649673254
 31
0.0
  0
LINE
  5
91
330
1D
100
AcDbEntity
  8
0
100
AcDbLine
 10
4.620501827116352
 20
6.618514097859319
 30
0.0
 11
4.570770172299722
 21
6.589554370114823
 31
0.0
  0
LINE
  5
92
330
1D
100
AcDbEntity
  8
0
100
AcDbLine
 10
4.775973290381088
 20
6.728480408264172
 30
0.0
 11
4.357111058702815
 21
6.484568633428192
 31
0.0
  0
LINE
  5
93
330
1D
100
AcDbEntity
  8
0
100
AcDbLine
 10
4.775973290381088
 20
6.444156522688833
 30
0.0
 11
4.719965136749615
 21
6.411541865351975
 31
0.0
  0
LINE
  5
94
330
1D
100
AcDbEntity
  8
0
100
AcDbLine
 10
4.775973290381088
 20
6.550522294436425
 30
0.0
 11
4.719965136749615
 21
6.517907637099567
 31
0.0
  0
LINE
  5
95
330
1D
100
AcDbEntity
  8
0
100
AcDbLine
 10
4.775973290381088
 20
6.664047292958778
 30
0.0
 11
4.719965136749615
 21
6.63143263562192
 31
0.0
  0
LINE
  5
96
330
1D
100
AcDbEntity
  8
0
100
AcDbLine
 10
4.670233481932985
 20
6.602472907877424
 30
0.0
 11
4.620501827116352
 21
6.573513180132927
 31
0.0
  0
LINE
  5
97
330
1D
100
AcDbEntity
  8
0
100
AcDbLine
 10
4.719965136749616
 20
6.676433553348312
 30
0.0
 11
4.670233481932984
 21
6.647473825603815
 31
0.0
  0
LINE
  5
98
330
1D
100
AcDbEntity
  8
0
100
AcDbLine
 10
4.775973290381087
 20
6.728480408264172
 30
0.0
 11
4.775973290381088
 21
6.388518424509234
 31
0.0
  0
ENDBLK
  5
9B
330
1D
100
AcDbEntity
  8
0
100
AcDbBlockEnd
  0
ENDSEC
  0
SECTION
  2
ENTITIES
  0
LINE
  5
9C
330
18
100
AcDbEntity
  8
0
100
AcDbLine
 10
2.317905
 20
5.619457
 30
0.0
 11
2.317905
 21
3.453424
 31
0.0
  0
LINE
  5
9D
330
18
100
AcDbEntity
  8
0
100
AcDbLine
 10
2.483944
 20
5.588523
 30
0.0
 11
2.483944
 21
3.406883
 31
0.0
  0
LINE
  5
9E
330
18
100
AcDbEntity
  8
0
100
AcDbLine
 10
2.738819
 20
4.788256
 30
0.0
 11
2.738819
 21
3.565545
 31
0.0
  0
LINE
  5
9F
330
18
100
AcDbEntity
  8
0
100
AcDbLine
 10
3.828485
 20
5.253458
 30
0.0
 11
3.828485
 21
3.030002
 31
0.0
  0
LINE
  5
A0
330
18
100
AcDbEntity
  8
0
100
AcDbLine
 10
3.99032
 20
5.307874
 30
0.0
 11
3.99032
 21
5.222664
 31
0.0
  0
LINE
  5
A1
330
18
100
AcDbEntity
  8
0
100
AcDbLine
 10
4.216427
 20
5.265748
 30
0.0
 11
4.216427
 21
3.168123
 31
0.0
  0
LINE
  5
A2
330
18
100
AcDbEntity
  8
0
100
AcDbLine
 10
5.401357
 20
4.884755999999999
 30
0.0
 11
5.401357
 21
2.588527
 31
0.0
  0
LINE
  5
A3
330
18
100
AcDbEntity
  8
0
100
AcDbLine
 10
5.603496
 20
5.310392
 30
0.0
 11
5.603496
 21
2.532458
 31
0.0
  0
LINE
  5
A4
330
18
100
AcDbEntity
  8
0
100
AcDbLine
 10
5.817479000000001
 20
4.96746
 30
0.0
 11
5.817479000000001
 21
2.744058
 31
0.0
  0
LINE
  5
A5
330
18
100
AcDbEntity
  8
0
100
AcDbLine
 10
1.877775
 20
5.773623000000001
 30
0.0
 11
1.877775
 21
5.267946
 31
0.0
  0
LINE
  5
A6
330
18
100
AcDbEntity
  8
0
100
AcDbLine
 10
2.023767
 20
5.742429
 30
0.0
 11
2.023767
 21
5.230843
 31
0.0
  0
LINE
  5
A7
330
18
100
AcDbEntity
  8
0
100
AcDbLine
 10
3.41092
 20
5.496848
 30
0.0
 11
3.41092
 21
4.942519
 31
0.0
  0
LINE
  5
A8
330
18
100
AcDbEntity
  8
0
100
AcDbLine
 10
3.585942
 20
5.473948
 30
0.0
 11
3.585942
 21
4.919619
 31
0.0
  0
LINE
  5
A9
330
18
100
AcDbEntity
  8
0
100
AcDbLine
 10
5.065106
 20
5.215708
 30
0.0
 11
5.065106
 21
4.613902
 31
0.0
  0
LINE
  5
AA
330
18
100
AcDbEntity
  8
0
100
AcDbLine
 10
5.25713
 20
5.193559
 30
0.0
 11
5.25713
 21
4.581062
 31
0.0
  0
LINE
  5
AB
330
18
100
AcDbEntity
  8
0
100
AcDbLine
 10
7.200028
 20
5.314369
 30
0.0
 11
5.850168
 21
5.532343
 31
0.0
  0
LINE
  5
AC
330
18
100
AcDbEntity
  8
0
100
AcDbLine
 10
7.006132000000001
 20
5.137073
 30
0.0
 11
5.76308
 21
5.351716000000001
 31
0.0
  0
LINE
  5
AD
330
18
100
AcDbEntity
  8
0
100
AcDbLine
 10
7.006132000000001
 20
4.956871
 30
0.0
 11
5.762123
 21
5.17874
 31
0.0
  0
LINE
  5
AE
330
18
100
AcDbEntity
  8
0
100
AcDbLine
 10
7.006132000000001
 20
4.746006
 30
0.0
 11
5.761012
 21
4.977981
 31
0.0
  0
LINE
  5
AF
330
18
100
AcDbEntity
  8
0
100
AcDbLine
 10
1.434558
 20
6.09914
 30
0.0
 11
1.434558
 21
5.784031
 31
0.0
  0
LINE
  5
B0
330
18
100
AcDbEntity
  8
0
100
AcDbLine
 10
7.006132000000001
 20
5.137073
 30
0.0
 11
7.006132000000001
 21
4.968218
 31
0.0
  0
LINE
  5
B1
330
18
100
AcDbEntity
  8
0
100
AcDbLine
 10
3.4792
 20
7.877503
 30
0.0
 11
2.481577
 21
6.566871000000001
 31
0.0
  0
LINE
  5
B2
330
18
100
AcDbEntity
  8
0
100
AcDbLine
 10
3.612586
 20
7.862350999999999
 30
0.0
 11
2.611672
 21
6.526856
 31
0.0
  0
LINE
  5
B3
330
18
100
AcDbEntity
  8
0
100
AcDbLine
 10
3.734603
 20
7.598549
 30
0.0
 11
3.139851233194318
 21
6.775444199405591
 31
0.0
  0
LINE
  5
B4
330
18
100
AcDbEntity
  8
0
100
AcDbLine
 10
4.860134
 20
7.767669000000001
 30
0.0
 11
4.004616
 21
6.427129
 31
0.0
  0
LINE
  5
B5
330
18
100
AcDbEntity
  8
0
100
AcDbLine
 10
4.985337
 20
7.752396000000001
 30
0.0
 11
4.195528
 21
6.466456
 31
0.0
  0
LINE
  5
B6
330
18
100
AcDbEntity
  8
0
100
AcDbLine
 10
5.113991
 20
7.444501
 30
0.0
 11
4.522158549936082
 21
6.466582687051733
 31
0.0
  0
LINE
  5
B7
330
18
100
AcDbEntity
  8
0
100
AcDbLine
 10
6.294046
 20
7.640950999999999
 30
0.0
 11
5.065106
 21
5.215708
 31
0.0
  0
LINE
  5
B8
330
18
100
AcDbEntity
  8
0
100
AcDbLine
 10
6.464079
 20
7.627153999999999
 30
0.0
 11
5.25713
 21
5.193559
 31
0.0
  0
LINE
  5
B9
330
18
100
AcDbEntity
  8
0
100
AcDbLine
 10
6.555811
 20
7.31565
 30
0.0
 11
6.049248310117499
 21
6.248997930725647
 31
0.0
  0
LINE
  5
BA
330
18
100
AcDbEntity
  8
0
100
AcDbLine
 10
4.301591999999999
 20
7.041869
 30
0.0
 11
3.220239698504653
 21
6.639705505475454
 31
0.0
  0
LINE
  5
BB
330
18
100
AcDbEntity
  8
0
100
AcDbLine
 10
4.369002
 20
6.998097000000001
 30
0.0
 11
3.213632322217342
 21
6.565348375913458
 31
0.0
  0
LINE
  5
BC
330
18
100
AcDbEntity
  8
0
100
AcDbLine
 10
4.09742
 20
6.572546000000001
 30
0.0
 11
2.921861
 21
6.102583999999999
 31
0.0
  0
LINE
  5
BD
330
18
100
AcDbEntity
  8
0
100
AcDbLine
 10
5.570471
 20
6.899872
 30
0.0
 11
4.636108486842008
 21
6.465337638410658
 31
0.0
  0
LINE
  5
BE
330
18
100
AcDbEntity
  8
0
100
AcDbLine
 10
5.717088
 20
6.870636999999999
 30
0.0
 11
4.636108486842008
 21
6.360417276284185
 31
0.0
  0
LINE
  5
BF
330
18
100
AcDbEntity
  8
0
100
AcDbLine
 10
5.717088
 20
6.534673000000001
 30
0.0
 11
4.028692
 21
5.6512
 31
0.0
  0
LINE
  5
C0
330
18
100
AcDbEntity
  8
0
100
AcDbLine
 10
6.931192
 20
6.741306
 30
0.0
 11
6.171026226206025
 21
6.293732185851177
 31
0.0
  0
LINE
  5
C1
330
18
100
AcDbEntity
  8
0
100
AcDbLine
 10
7.057182000000001
 20
6.715607
 30
0.0
 11
6.171026226206024
 21
6.172191600489675
 31
0.0
  0
LINE
  5
C2
330
18
100
AcDbEntity
  8
0
100
AcDbLine
 10
7.057182000000001
 20
6.355308
 30
0.0
 11
5.705521
 21
5.43372
 31
0.0
  0
LINE
  5
C3
330
18
100
AcDbEntity
  8
0
100
AcDbLine
 10
1.715419
 20
6.200016000000001
 30
0.0
 11
1.653591
 21
6.17781
 31
0.0
  0
LINE
  5
C4
330
18
100
AcDbEntity
  8
0
100
AcDbLine
 10
7.200028
 20
5.314369
 30
0.0
 11
7.164992
 21
5.282333
 31
0.0
  0
LINE
  5
C5
330
18
100
AcDbEntity
  8
0
100
AcDbLine
 10
7.200028
 20
5.314369
 30
0.0
 11
7.200028
 21
5.136371
 31
0.0
  0
LINE
  5
C6
330
18
100
AcDbEntity
  8
0
100
AcDbLine
 10
2.738819
 20
3.565545
 30
0.0
 11
2.648026
 21
3.508416
 31
0.0
  0
LINE
  5
C7
330
18
100
AcDbEntity
  8
0
100
AcDbLine
 10
5.603496
 20
2.532458
 30
0.0
 11
5.401357
 21
2.589118
 31
0.0
  0
LINE
  5
C8
330
18
100
AcDbEntity
  8
0
100
AcDbLine
 10
4.216427
 20
3.168123
 30
0.0
 11
4.150029
 21
3.114242
 31
0.0
  0
LINE
  5
C9
330
18
100
AcDbEntity
  8
0
100
AcDbLine
 10
5.817479000000001
 20
2.744058
 30
0.0
 11
5.762843
 21
2.690029
 31
0.0
  0
LINE
  5
CA
330
18
100
AcDbEntity
  8
0
100
AcDbLine
 10
2.483944
 20
3.406883
 30
0.0
 11
2.317905
 21
3.453424
 31
0.0
  0
LINE
  5
CB
330
18
100
AcDbEntity
  8
0
100
AcDbLine
 10
3.99032
 20
2.984638
 30
0.0
 11
3.828485
 21
3.030002
 31
0.0
  0
LINE
  5
CC
330
18
100
AcDbEntity
  8
0
100
AcDbLine
 10
2.023767
 20
5.230843
 30
0.0
 11
1.877775
 21
5.267946
 31
0.0
  0
LINE
  5
CD
330
18
100
AcDbEntity
  8
0
100
AcDbLine
 10
2.023767
 20
5.742429
 30
0.0
 11
1.877775
 21
5.773623000000001
 31
0.0
  0
LINE
  5
CE
330
18
100
AcDbEntity
  8
0
100
AcDbLine
 10
1.877775
 20
5.701457
 30
0.0
 11
1.434558
 21
5.784031
 31
0.0
  0
LINE
  5
CF
330
18
100
AcDbEntity
  8
0
100
AcDbLine
 10
1.939574
 20
5.860492
 30
0.0
 11
1.434558
 21
5.950561
 31
0.0
  0
LINE
  5
D0
330
18
100
AcDbEntity
  8
0
100
AcDbLine
 10
2.041712
 20
5.9943
 30
0.0
 11
1.434558
 21
6.09914
 31
0.0
  0
LINE
  5
D1
330
18
100
AcDbEntity
  8
0
100
AcDbLine
 10
2.145703
 20
6.130535
 30
0.0
 11
1.715419
 21
6.200016000000001
 31
0.0
  0
LINE
  5
D2
330
18
100
AcDbEntity
  8
0
100
AcDbLine
 10
5.717088
 20
6.870636999999999
 30
0.0
 11
5.717088
 21
6.800250999999999
 31
0.0
  0
LINE
  5
D3
330
18
100
AcDbEntity
  8
0
100
AcDbLine
 10
7.057182000000001
 20
6.715607
 30
0.0
 11
7.057182000000001
 21
6.643874
 31
0.0
  0
LINE
  5
D4
330
18
100
AcDbEntity
  8
0
100
AcDbLine
 10
3.585942
 20
5.473948
 30
0.0
 11
3.41092
 21
5.496848
 31
0.0
  0
LINE
  5
D5
330
18
100
AcDbEntity
  8
0
100
AcDbLine
 10
3.453448
 20
5.590492
 30
0.0
 11
2.417183
 21
5.77531
 31
0.0
  0
LINE
  5
D6
330
18
100
AcDbEntity
  8
0
100
AcDbLine
 10
3.546519
 20
5.734458
 30
0.0
 11
2.516216
 21
5.912365
 31
0.0
  0
LINE
  5
D7
330
18
100
AcDbEntity
  8
0
100
AcDbLine
 10
3.645959
 20
5.888275
 30
0.0
 11
2.742491
 21
6.034166
 31
0.0
  0
LINE
  5
D8
330
18
100
AcDbEntity
  8
0
100
AcDbLine
 10
3.41092
 20
5.41582
 30
0.0
 11
2.306151
 21
5.621647
 31
0.0
  0
LINE
  5
D9
330
18
100
AcDbEntity
  8
0
100
AcDbLine
 10
3.585942
 20
4.919619
 30
0.0
 11
3.41092
 21
4.942519
 31
0.0
  0
LINE
  5
DA
330
18
100
AcDbEntity
  8
0
100
AcDbLine
 10
5.25713
 20
4.581062
 30
0.0
 11
5.065106
 21
4.613902
 31
0.0
  0
LINE
  5
DB
330
18
100
AcDbEntity
  8
0
100
AcDbLine
 10
5.25713
 20
5.193559
 30
0.0
 11
5.065106
 21
5.215708
 31
0.0
  0
LINE
  5
DC
330
18
100
AcDbEntity
  8
0
100
AcDbLine
 10
5.184639
 20
5.451598000000001
 30
0.0
 11
4.028692
 21
5.6512
 31
0.0
  0
LINE
  5
DD
330
18
100
AcDbEntity
  8
0
100
AcDbLine
 10
5.272798000000001
 20
5.625576000000001
 30
0.0
 11
4.284661
 21
5.785139
 31
0.0
  0
LINE
  5
DE
330
18
100
AcDbEntity
  8
0
100
AcDbLine
 10
5.105698
 20
5.295813
 30
0.0
 11
3.93949
 21
5.503807
 31
0.0
  0
LINE
  5
DF
330
18
100
AcDbEntity
  8
0
100
AcDbLine
 10
5.065106
 20
5.107633
 30
0.0
 11
3.923354
 21
5.32035
 31
0.0
  0
LINE
  5
E0
330
18
100
AcDbEntity
  8
0
100
AcDbLine
 10
2.616171
 20
3.555497
 30
0.0
 11
2.576578
 21
3.429227
 31
0.0
  0
LINE
  5
E1
330
18
100
AcDbEntity
  8
0
100
AcDbLine
 10
2.576578
 20
3.429227
 30
0.0
 11
2.555269
 21
3.451319
 31
0.0
  0
LINE
  5
E2
330
18
100
AcDbEntity
  8
0
100
AcDbLine
 10
2.616171
 20
3.555497
 30
0.0
 11
2.648026
 21
3.508416
 31
0.0
  0
LINE
  5
E3
330
18
100
AcDbEntity
  8
0
100
AcDbLine
 10
2.555269
 20
3.451319
 30
0.0
 11
2.483944
 21
3.406883
 31
0.0
  0
LINE
  5
E4
330
18
100
AcDbEntity
  8
0
100
AcDbLine
 10
4.122985
 20
3.158343
 30
0.0
 11
4.088271
 21
3.001013
 31
0.0
  0
LINE
  5
E5
330
18
100
AcDbEntity
  8
0
100
AcDbLine
 10
4.088271
 20
3.001013
 30
0.0
 11
4.052404
 21
3.035019
 31
0.0
  0
LINE
  5
E6
330
18
100
AcDbEntity
  8
0
100
AcDbLine
 10
4.122985
 20
3.158343
 30
0.0
 11
4.150029
 21
3.114242
 31
0.0
  0
LINE
  5
E7
330
18
100
AcDbEntity
  8
0
100
AcDbLine
 10
4.052404
 20
3.035019
 30
0.0
 11
3.99032
 21
2.984638
 31
0.0
  0
LINE
  5
E8
330
18
100
AcDbEntity
  8
0
100
AcDbLine
 10
5.725307
 20
2.736467
 30
0.0
 11
5.717064
 21
2.550804
 31
0.0
  0
LINE
  5
E9
330
18
100
AcDbEntity
  8
0
100
AcDbLine
 10
5.717064
 20
2.550804
 30
0.0
 11
5.660368
 21
2.588697
 31
0.0
  0
LINE
  5
EA
330
18
100
AcDbEntity
  8
0
100
AcDbLine
 10
5.725307
 20
2.736467
 30
0.0
 11
5.762843
 21
2.690029
 31
0.0
  0
LINE
  5
EB
330
18
100
AcDbEntity
  8
0
100
AcDbLine
 10
5.660368
 20
2.588697
 30
0.0
 11
5.603496
 21
2.532458
 31
0.0
  0
LINE
  5
EC
330
18
100
AcDbEntity
  8
0
100
AcDbLine
 10
1.668655
 20
6.161884
 30
0.0
 11
1.486799
 21
6.172701999999999
 31
0.0
  0
LINE
  5
ED
330
18
100
AcDbEntity
  8
0
100
AcDbLine
 10
1.486799
 20
6.172701999999999
 30
0.0
 11
1.526995
 21
6.13234
 31
0.0
  0
LINE
  5
EE
330
18
100
AcDbEntity
  8
0
100
AcDbLine
 10
1.653591
 20
6.17781
 30
0.0
 11
1.668655
 21
6.161884
 31
0.0
  0
LINE
  5
EF
330
18
100
AcDbEntity
  8
0
100
AcDbLine
 10
1.526995
 20
6.13234
 30
0.0
 11
1.434558
 21
6.09914
 31
0.0
  0
LINE
  5
F0
330
18
100
AcDbEntity
  8
0
100
AcDbLine
 10
1.486799
 20
6.172701999999999
 30
0.0
 11
1.486799
 21
6.117903
 31
0.0
  0
LINE
  5
F1
330
18
100
AcDbEntity
  8
0
100
AcDbLine
 10
1.653591
 20
6.17781
 30
0.0
 11
1.653591
 21
6.162780000000001
 31
0.0
  0
LINE
  5
F2
330
18
100
AcDbEntity
  8
0
100
AcDbLine
 10
7.170714
 20
5.262833000000001
 30
0.0
 11
7.170714
 21
4.871979000000001
 31
0.0
  0
LINE
  5
F3
330
18
100
AcDbEntity
  8
0
100
AcDbLine
 10
7.057987
 20
5.274791000000001
 30
0.0
 11
7.095083
 21
5.218408999999999
 31
0.0
  0
LINE
  5
F4
330
18
100
AcDbEntity
  8
0
100
AcDbLine
 10
7.170714
 20
5.262833000000001
 30
0.0
 11
7.057987
 21
5.274791000000001
 31
0.0
  0
LINE
  5
F5
330
18
100
AcDbEntity
  8
0
100
AcDbLine
 10
7.164992
 20
5.282333
 30
0.0
 11
7.170714
 21
5.262833000000001
 31
0.0
  0
LINE
  5
F6
330
18
100
AcDbEntity
  8
0
100
AcDbLine
 10
7.095083
 20
5.218408999999999
 30
0.0
 11
7.006132000000001
 21
5.137073
 31
0.0
  0
LINE
  5
F7
330
18
100
AcDbEntity
  8
0
100
AcDbLine
 10
7.170714
 20
4.871979000000001
 30
0.0
 11
7.095083
 21
4.887311
 31
0.0
  0
LINE
  5
F8
330
18
100
AcDbEntity
  8
0
100
AcDbLine
 10
7.200028
 20
4.923302
 30
0.0
 11
7.170714
 21
4.896498
 31
0.0
  0
LINE
  5
F9
330
18
100
AcDbEntity
  8
0
100
AcDbLine
 10
7.095083
 20
4.827342
 30
0.0
 11
7.006132000000001
 21
4.746006
 31
0.0
  0
LINE
  5
FA
330
18
100
AcDbEntity
  8
0
100
AcDbLine
 10
3.612586
 20
7.862350999999999
 30
0.0
 11
3.642082
 21
7.79858
 31
0.0
  0
LINE
  5
FB
330
18
100
AcDbEntity
  8
0
100
AcDbLine
 10
4.985337
 20
7.752396000000001
 30
0.0
 11
5.013405000000001
 21
7.685225
 31
0.0
  0
LINE
  5
FC
330
18
100
AcDbEntity
  8
0
100
AcDbLine
 10
6.464079
 20
7.627153999999999
 30
0.0
 11
6.487331
 21
7.548195
 31
0.0
  0
LINE
  5
FD
330
18
100
AcDbEntity
  8
0
100
AcDbLine
 10
3.612586
 20
7.862350999999999
 30
0.0
 11
3.4792
 21
7.877503
 31
0.0
  0
LINE
  5
FE
330
18
100
AcDbEntity
  8
0
100
AcDbLine
 10
4.985337
 20
7.752396000000001
 30
0.0
 11
4.860134
 21
7.767669000000001
 31
0.0
  0
LINE
  5
FF
330
18
100
AcDbEntity
  8
0
100
AcDbLine
 10
6.464079
 20
7.627153999999999
 30
0.0
 11
6.294046
 21
7.640950999999999
 31
0.0
  0
LINE
  5
100
330
18
100
AcDbEntity
  8
0
100
AcDbLine
 10
3.693126
 20
7.790742
 30
0.0
 11
3.655438
 21
7.684133
 31
0.0
  0
LINE
  5
101
330
18
100
AcDbEntity
  8
0
100
AcDbLine
 10
3.693126
 20
7.790742
 30
0.0
 11
3.642082
 21
7.79858
 31
0.0
  0
LINE
  5
102
330
18
100
AcDbEntity
  8
0
100
AcDbLine
 10
3.697886
 20
7.677934
 30
0.0
 11
3.655438
 21
7.684133
 31
0.0
  0
LINE
  5
103
330
18
100
AcDbEntity
  8
0
100
AcDbLine
 10
3.697886
 20
7.677934
 30
0.0
 11
3.734603
 21
7.598549
 31
0.0
  0
LINE
  5
104
330
18
100
AcDbEntity
  8
0
100
AcDbLine
 10
5.071353
 20
7.680647
 30
0.0
 11
5.001961
 21
7.560572000000001
 31
0.0
  0
LINE
  5
105
330
18
100
AcDbEntity
  8
0
100
AcDbLine
 10
5.071353
 20
7.680647
 30
0.0
 11
5.013405000000001
 21
7.685225
 31
0.0
  0
LINE
  5
106
330
18
100
AcDbEntity
  8
0
100
AcDbLine
 10
5.066813
 20
7.557409
 30
0.0
 11
5.001961
 21
7.560572000000001
 31
0.0
  0
LINE
  5
107
330
18
100
AcDbEntity
  8
0
100
AcDbLine
 10
5.066813
 20
7.557409
 30
0.0
 11
5.113991
 21
7.444501
 31
0.0
  0
LINE
  5
108
330
18
100
AcDbEntity
  8
0
100
AcDbLine
 10
6.547295
 20
7.554599000000001
 30
0.0
 11
6.477678
 21
7.40015
 31
0.0
  0
LINE
  5
109
330
18
100
AcDbEntity
  8
0
100
AcDbLine
 10
6.547295
 20
7.554599000000001
 30
0.0
 11
6.487331
 21
7.548195
 31
0.0
  0
LINE
  5
10A
330
18
100
AcDbEntity
  8
0
100
AcDbLine
 10
6.532682
 20
7.394189999999999
 30
0.0
 11
6.477678
 21
7.40015
 31
0.0
  0
LINE
  5
10B
330
18
100
AcDbEntity
  8
0
100
AcDbLine
 10
6.532682
 20
7.394189999999999
 30
0.0
 11
6.555811
 21
7.31565
 31
0.0
  0
LINE
  5
10C
330
18
100
AcDbEntity
  8
0
100
AcDbLine
 10
5.769564
 20
6.762084
 30
0.0
 11
5.667051
 21
6.656898
 31
0.0
  0
LINE
  5
10D
330
18
100
AcDbEntity
  8
0
100
AcDbLine
 10
5.717088
 20
6.614349000000001
 30
0.0
 11
5.667051
 21
6.656898
 31
0.0
  0
LINE
  5
10E
330
18
100
AcDbEntity
  8
0
100
AcDbLine
 10
5.769564
 20
6.762084
 30
0.0
 11
5.717088
 21
6.800250999999999
 31
0.0
  0
LINE
  5
10F
330
18
100
AcDbEntity
  8
0
100
AcDbLine
 10
5.717088
 20
6.870636999999999
 30
0.0
 11
5.570471
 21
6.899872
 31
0.0
  0
LINE
  5
110
330
18
100
AcDbEntity
  8
0
100
AcDbLine
 10
5.717088
 20
6.614349000000001
 30
0.0
 11
5.717088
 21
6.534673000000001
 31
0.0
  0
LINE
  5
111
330
18
100
AcDbEntity
  8
0
100
AcDbLine
 10
7.110669000000001
 20
6.62
 30
0.0
 11
7.013418
 21
6.517779
 31
0.0
  0
LINE
  5
112
330
18
100
AcDbEntity
  8
0
100
AcDbLine
 10
7.110669000000001
 20
6.62
 30
0.0
 11
7.057182000000001
 21
6.643874
 31
0.0
  0
LINE
  5
113
330
18
100
AcDbEntity
  8
0
100
AcDbLine
 10
7.057182000000001
 20
6.484987
 30
0.0
 11
7.013418
 21
6.517779
 31
0.0
  0
LINE
  5
114
330
18
100
AcDbEntity
  8
0
100
AcDbLine
 10
7.057182000000001
 20
6.484987
 30
0.0
 11
7.057182000000001
 21
6.355308
 31
0.0
  0
LINE
  5
115
330
18
100
AcDbEntity
  8
0
100
AcDbLine
 10
7.057182000000001
 20
6.715607
 30
0.0
 11
6.931192
 21
6.741306
 31
0.0
  0
LWPOLYLINE
  5
116
330
18
100
AcDbEntity
  8
0
100
AcDbPolyline
 90
       18
 70
     0
 43
0.0
 10
5.065106
 20
5.138632
 10
5.068751
 20
5.125684
 10
5.07852
 20
5.06657
 10
5.086383000000001
 20
5.030501
 10
5.093289
 20
5.005454
 10
5.100204
 20
4.98241
 10
5.110091000000001
 20
4.951352
 10
5.111051
 20
4.941333
 10
5.10999
 20
4.927304
 10
5.104949
 20
4.919286000000001
 10
5.098889
 20
4.907259
 10
5.093813
 20
4.891225
 10
5.085725
 20
4.873184999999999
 10
5.078625
 20
4.85214
 10
5.071496
 20
4.824081
 10
5.067406
 20
4.804039
 10
5.067393
 20
4.801033
 10
5.065106
 20
4.789463
  0
LWPOLYLINE
  5
12B
330
18
100
AcDbEntity
  8
0
100
AcDbPolyline
 90
       22
 70
     0
 43
0.0
 10
5.121606
 20
5.209191000000001
 10
5.123091000000001
 20
5.185827
 10
5.129939
 20
5.146751999999999
 10
5.133812
 20
5.114689
 10
5.139696
 20
5.084632
 10
5.143577
 20
5.054573
 10
5.146397
 20
5.010486
 10
5.150253
 20
4.974416000000001
 10
5.159025
 20
4.916303
 10
5.161871
 20
4.878228
 10
5.162692
 20
4.835141999999999
 10
5.164607
 20
4.814101
 10
5.16159
 20
4.811093
 10
5.152529
 20
4.800068
 10
5.142445
 20
4.784031
 10
5.136390000000001
 20
4.773006
 10
5.129282
 20
4.749957
 10
5.123208999999999
 20
4.734925
 10
5.116072
 20
4.704861
 10
5.111985
 20
4.685822
 10
5.100695
 20
4.620686
 10
5.0991
 20
4.608089
  0
LWPOLYLINE
  5
144
330
18
100
AcDbEntity
  8
0
100
AcDbPolyline
 90
       22
 70
     0
 43
0.0
 10
5.17499
 20
5.203033000000001
 10
5.174117
 20
5.171821
 10
5.175969
 20
5.13575
 10
5.176853
 20
5.107694
 10
5.179703
 20
5.070621
 10
5.181551
 20
5.033547
 10
5.184431
 20
5.003488
 10
5.186266000000001
 20
4.963409
 10
5.189099
 20
4.922328
 10
5.191945
 20
4.884253
 10
5.196798
 20
4.847181
 10
5.204644
 20
4.807104
 10
5.211525
 20
4.776045
 10
5.218378
 20
4.737971
 10
5.222292
 20
4.715929
 10
5.223202
 20
4.693885
 10
5.221182
 20
4.689876
 10
5.214116000000001
 20
4.676847
 10
5.208068
 20
4.667826
 10
5.19899
 20
4.652792
 10
5.18687
 20
4.628739
 10
5.179298999999999
 20
4.594373
  0
LWPOLYLINE
  5
15D
330
18
100
AcDbEntity
  8
0
100
AcDbPolyline
 90
       13
 70
     0
 43
0.0
 10
5.212564
 20
5.1987
 10
5.210176000000001
 20
5.171836
 10
5.211982
 20
5.124743
 10
5.21282
 20
5.085665000000001
 10
5.215603
 20
5.03256
 10
5.219437999999999
 20
4.991479
 10
5.222254
 20
4.94639
 10
5.223105
 20
4.910318
 10
5.229899
 20
4.858217
 10
5.234748000000001
 20
4.820143
 10
5.240594000000001
 20
4.781067
 10
5.251373
 20
4.723957
 10
5.25713
 20
4.702516
  0
LWPOLYLINE
  5
16D
330
18
100
AcDbEntity
  8
0
100
AcDbPolyline
 90
        8
 70
     0
 43
0.0
 10
3.524248000000001
 20
5.482019999999999
 10
3.528618
 20
5.459697
 10
3.535508
 20
5.430642
 10
3.547373
 20
5.393573
 10
3.553295
 20
5.372533
 10
3.562192
 20
5.344481
 10
3.573043
 20
5.304405
 10
3.585942
 20
5.251027
  0
LWPOLYLINE
  5
178
330
18
100
AcDbEntity
  8
0
100
AcDbPolyline
 90
        7
 70
     0
 43
0.0
 10
3.443302
 20
4.938282
 10
3.438475
 20
4.981701999999999
 10
3.437586
 20
5.008756
 10
3.433693
 20
5.035808
 10
3.428777
 20
5.05785
 10
3.420847
 20
5.077887000000001
 10
3.41092
 20
5.094245
  0
LWPOLYLINE
  5
182
330
18
100
AcDbEntity
  8
0
100
AcDbPolyline
 90
       16
 70
     0
 43
0.0
 10
3.486348
 20
4.93265
 10
3.486436
 20
4.953666
 10
3.484563
 20
4.984728
 10
3.482673
 20
5.011781
 10
3.480808
 20
5.044847
 10
3.477882
 20
5.063883000000001
 10
3.474961
 20
5.083922
 10
3.472002
 20
5.094943
 10
3.463076
 20
5.115981
 10
3.456119
 20
5.129005
 10
3.446169
 20
5.145032
 10
3.437226
 20
5.162063
 10
3.428303
 20
5.184103
 10
3.421379
 20
5.205142
 10
3.414481
 20
5.232193
 10
3.41092
 20
5.248528
  0
LWPOLYLINE
  5
195
330
18
100
AcDbEntity
  8
0
100
AcDbPolyline
 90
       18
 70
     0
 43
0.0
 10
3.510599
 20
4.929476999999999
 10
3.504965
 20
5.072913
 10
3.503121
 20
5.110988
 10
3.499223
 20
5.137039
 10
3.492295
 20
5.157076
 10
3.486357
 20
5.174108
 10
3.480435
 20
5.195147
 10
3.471499
 20
5.214182
 10
3.461575
 20
5.236222
 10
3.450712
 20
5.273291
 10
3.44684
 20
5.305354
 10
3.442946
 20
5.332406
 10
3.439103
 20
5.371483000000001
 10
3.436274
 20
5.413566
 10
3.432389
 20
5.442622
 10
3.428483
 20
5.466669
 10
3.427536
 20
5.479695
 10
3.426283
 20
5.494838
  0
LWPOLYLINE
  5
1AA
330
18
100
AcDbEntity
  8
0
100
AcDbPolyline
 90
       18
 70
     0
 43
0.0
 10
3.546708999999999
 20
4.924752
 10
3.534071
 20
5.086954
 10
3.531292
 20
5.141061
 10
3.532445
 20
5.177133
 10
3.531577
 20
5.209197000000001
 10
3.531678
 20
5.233245
 10
3.528811
 20
5.26631
 10
3.526875
 20
5.282342
 10
3.521946
 20
5.301378
 10
3.513011
 20
5.320412
 10
3.508041
 20
5.329428
 10
3.4981
 20
5.34746
 10
3.490166
 20
5.366495
 10
3.486252
 20
5.388537
 10
3.483368
 20
5.417594
 10
3.484483
 20
5.444649
 10
3.483578
 20
5.467694
 10
3.480199
 20
5.487783
  0
LWPOLYLINE
  5
1BF
330
18
100
AcDbEntity
  8
0
100
AcDbPolyline
 90
       23
 70
     0
 43
0.0
 10
1.93742
 20
5.760879
 10
1.937255
 20
5.758619
 10
1.936031
 20
5.705512000000001
 10
1.936903
 20
5.67445
 10
1.939816
 20
5.652408
 10
1.942699
 20
5.623351
 10
1.946584
 20
5.594294000000001
 10
1.948474
 20
5.567241
 10
1.947393
 20
5.548202
 10
1.946299
 20
5.526158000000001
 10
1.948219
 20
5.506118
 10
1.948034
 20
5.46203
 10
1.945004
 20
5.456017
 10
1.936958
 20
5.447997
 10
1.93394
 20
5.44499
 10
1.925881
 20
5.433964
 10
1.917801
 20
5.417929
 10
1.913744
 20
5.405903
 10
1.905638
 20
5.383855000000001
 10
1.902579
 20
5.370828
 10
1.897512
 20
5.356798
 10
1.886406
 20
5.335751
 10
1.877775
 20
5.324095
  0
LWPOLYLINE
  5
1D9
330
18
100
AcDbEntity
  8
0
100
AcDbPolyline
 90
       14
 70
     0
 43
0.0
 10
1.903867
 20
5.768048
 10
1.904184
 20
5.754597
 10
1.903006
 20
5.712512
 10
1.902914
 20
5.690468
 10
1.90682
 20
5.666422
 10
1.908714
 20
5.64037
 10
1.904586
 20
5.61131
 10
1.901489
 20
5.589265
 10
1.903375
 20
5.561209
 10
1.903291
 20
5.541169
 10
1.898187
 20
5.518121
 10
1.8911
 20
5.500082
 10
1.880949
 20
5.468013
 10
1.877775
 20
5.460376999999999
  0
LWPOLYLINE
  5
1EA
330
18
100
AcDbEntity
  8
0
100
AcDbPolyline
 90
       26
 70
     0
 43
0.0
 10
1.97684
 20
5.752456
 10
1.978154
 20
5.748078
 10
1.982509
 20
5.73502
 10
1.986242
 20
5.716988
 10
1.988108
 20
5.693359
 10
1.988108
 20
5.693359
 10
1.991086
 20
5.661071
 10
1.98897
 20
5.634016
 10
1.987834
 20
5.601951000000001
 10
1.989708
 20
5.57089
 10
1.992629
 20
5.550851000000001
 10
1.995579
 20
5.537826
 10
1.995579
 20
5.537826
 10
1.98848
 20
5.516781
 10
1.985842
 20
5.498157
 10
1.984523
 20
5.482346
 10
1.982227
 20
5.458662
 10
1.985156
 20
5.440627
 10
1.983019
 20
5.408562
 10
1.979913
 20
5.384513
 10
1.975856
 20
5.372487000000001
 10
1.97177
 20
5.353447
 10
1.965668
 20
5.3314
 10
1.959579
 20
5.31236
 10
1.948443
 20
5.284299
 10
1.93748
 20
5.252772
  0
LINE
  5
207
330
18
100
AcDbEntity
  8
0
100
AcDbLine
 10
7.095083
 20
5.218408999999999
 30
0.0
 11
7.095083
 21
4.827342
 31
0.0
  0
LWPOLYLINE
  5
208
330
18
100
AcDbEntity
  8
0
100
AcDbPolyline
 90
        7
 70
     0
 43
0.0
 10
7.006132000000001
 20
5.078229
 10
7.010837
 20
5.082607
 10
7.033988000000001
 20
5.109671
 10
7.0511
 20
5.129718
 10
7.068215
 20
5.150768
 10
7.083328
 20
5.171816000000001
 10
7.095083
 20
5.187414
  0
LWPOLYLINE
  5
212
330
18
100
AcDbEntity
  8
0
100
AcDbPolyline
 90
        6
 70
     0
 43
0.0
 10
7.006132000000001
 20
5.017302
 10
7.012610000000001
 20
5.027497
 10
7.030730999999999
 20
5.049549
 10
7.048841
 20
5.068594999999999
 10
7.073002000000001
 20
5.097663
 10
7.095083
 20
5.126962000000001
  0
LWPOLYLINE
  5
21B
330
18
100
AcDbEntity
  8
0
100
AcDbPolyline
 90
        5
 70
     0
 43
0.0
 10
7.095083
 20
4.955315000000001
 10
7.066489
 20
4.959822
 10
7.042445
 20
4.95881
 10
7.024407000000001
 20
4.956798
 10
7.006132000000001
 20
4.956791
  0
LWPOLYLINE
  5
223
330
18
100
AcDbEntity
  8
0
100
AcDbPolyline
 90
        8
 70
     0
 43
0.0
 10
7.095083
 20
4.911224
 10
7.087200999999999
 20
4.909073
 10
7.069159
 20
4.906059
 10
7.055127000000001
 20
4.904049
 10
7.045107000000001
 20
4.903043
 10
7.032077
 20
4.901033
 10
7.018028999999999
 20
4.895015
 10
7.006132000000001
 20
4.894267
  0
LWPOLYLINE
  5
22E
330
18
100
AcDbEntity
  8
0
100
AcDbPolyline
 90
        7
 70
     0
 43
0.0
 10
7.095083
 20
4.936605
 10
7.085344
 20
4.936601000000001
 10
7.064301
 20
4.934588
 10
7.050278
 20
4.934582
 10
7.028242
 20
4.934572
 10
7.009223
 20
4.93757
 10
7.006132000000001
 20
4.937751
  0
LWPOLYLINE
  5
238
330
18
100
AcDbEntity
  8
0
100
AcDbPolyline
 90
        6
 70
     0
 43
0.0
 10
7.095083
 20
4.896102
 10
7.082159
 20
4.893513
 10
7.064104
 20
4.887493
 10
7.047060000000001
 20
4.883478
 10
7.018967
 20
4.872444000000001
 10
7.006132000000001
 20
4.866671
  0
LWPOLYLINE
  5
241
330
18
100
AcDbEntity
  8
0
100
AcDbPolyline
 90
        5
 70
     0
 43
0.0
 10
7.082165
 20
4.81553
 10
7.0598
 20
4.816349
 10
7.033745
 20
4.813332
 10
7.01072
 20
4.816328
 10
7.006132000000001
 20
4.816818
  0
LWPOLYLINE
  5
249
330
18
100
AcDbEntity
  8
0
100
AcDbPolyline
 90
        4
 70
     0
 43
0.0
 10
7.170714
 20
5.228739
 10
7.150321000000001
 20
5.227983999999999
 10
7.115108
 20
5.229241
 10
7.086956
 20
5.230762
  0
LWPOLYLINE
  5
250
330
18
100
AcDbEntity
  8
0
100
AcDbPolyline
 90
        6
 70
     0
 43
0.0
 10
7.170714
 20
4.909317
 10
7.157328999999999
 20
4.907081
 10
7.145313000000001
 20
4.908078
 10
7.130292999999999
 20
4.909074
 10
7.111282000000001
 20
4.914075
 10
7.095083
 20
4.919686
  0
LWPOLYLINE
  5
259
330
18
100
AcDbEntity
  8
0
100
AcDbPolyline
 90
        6
 70
     0
 43
0.0
 10
7.170714
 20
4.935633
 10
7.156609
 20
4.937624
 10
7.139002000000001
 20
4.938880999999999
 10
7.121396000000001
 20
4.937624
 10
7.097364
 20
4.93912
 10
7.095083
 20
4.938691
  0
LWPOLYLINE
  5
262
330
18
100
AcDbEntity
  8
0
100
AcDbPolyline
 90
        5
 70
     0
 43
0.0
 10
7.170714
 20
4.979231
 10
7.152622
 20
4.979223999999999
 10
7.129605000000001
 20
4.984224
 10
7.104589
 20
4.990225
 10
7.095083
 20
4.9919
  0
LWPOLYLINE
  5
26A
330
18
100
AcDbEntity
  8
0
100
AcDbPolyline
 90
        6
 70
     0
 43
0.0
 10
7.170714
 20
5.00927
 10
7.167768
 20
5.008287999999999
 10
7.146738
 20
5.009281
 10
7.121705
 20
5.011275
 10
7.102691
 20
5.015274
 10
7.095083
 20
5.019378
  0
LWPOLYLINE
  5
273
330
18
100
AcDbEntity
  8
0
100
AcDbPolyline
 90
        6
 70
     0
 43
0.0
 10
7.170714
 20
5.058562
 10
7.154961
 20
5.059385
 10
7.14095
 20
5.062385
 10
7.124932
 20
5.064382
 10
7.100897
 20
5.065373999999999
 10
7.095083
 20
5.065008
  0
LWPOLYLINE
  5
27C
330
18
100
AcDbEntity
  8
0
100
AcDbPolyline
 90
        6
 70
     0
 43
0.0
 10
7.170714
 20
5.096455000000001
 10
7.161109
 20
5.092454
 10
7.138042
 20
5.085430000000001
 10
7.112988000000001
 20
5.082413
 10
7.097967
 20
5.083409
 10
7.095083
 20
5.083614
  0
LWPOLYLINE
  5
285
330
18
100
AcDbEntity
  8
0
100
AcDbPolyline
 90
        6
 70
     0
 43
0.0
 10
7.1703
 20
5.134542
 10
7.160710000000001
 20
5.13375
 10
7.141239
 20
5.131524
 10
7.12119
 20
5.127507
 10
7.103152000000001
 20
5.125495
 10
7.095083
 20
5.125492
  0
LWPOLYLINE
  5
28E
330
18
100
AcDbEntity
  8
0
100
AcDbPolyline
 90
        5
 70
     0
 43
0.0
 10
7.170714
 20
5.174167
 10
7.144382000000001
 20
5.164591000000001
 10
7.128344
 20
5.161578
 10
7.111303
 20
5.158565
 10
7.095083
 20
5.155316
  0
LWPOLYLINE
  5
296
330
18
100
AcDbEntity
  8
0
100
AcDbPolyline
 90
        5
 70
     0
 43
0.0
 10
7.170714
 20
5.198257
 10
7.149528999999999
 20
5.19766
 10
7.123474000000001
 20
5.194642
 10
7.10544
 20
5.193633
 10
7.095083
 20
5.192386
  0
LINE
  5
29E
330
18
100
AcDbEntity
  8
0
100
AcDbLine
 10
7.095083
 20
5.038207
 30
0.0
 11
7.170714
 21
5.033526
 31
0.0
  0
LINE
  5
29F
330
18
100
AcDbEntity
  8
0
100
AcDbLine
 10
7.198402000000001
 20
5.132681
 30
0.0
 11
7.170714
 21
5.107364
 31
0.0
  0
LWPOLYLINE
  5
2A0
330
18
100
AcDbEntity
  8
0
100
AcDbPolyline
 90
        2
 70
     0
 43
0.0
 10
7.170714
 20
5.160189
 10
7.200028
 20
5.18125
  0
LWPOLYLINE
  5
2A5
330
18
100
AcDbEntity
  8
0
100
AcDbPolyline
 90
        4
 70
     0
 43
0.0
 10
7.170714
 20
5.249722
 10
7.188049
 20
5.260665
 10
7.198110000000001
 20
5.269464
 10
7.200028
 20
5.270496
  0
LWPOLYLINE
  5
2AC
330
18
100
AcDbEntity
  8
0
100
AcDbPolyline
 90
        3
 70
     0
 43
0.0
 10
7.170714
 20
5.220095
 10
7.190564
 20
5.235526
 10
7.200028
 20
5.241674
  0
LWPOLYLINE
  5
2B2
330
18
100
AcDbEntity
  8
0
100
AcDbPolyline
 90
        3
 70
     0
 43
0.0
 10
7.170714
 20
5.128026999999999
 10
7.198110000000001
 20
5.146281
 10
7.200028
 20
5.147479
  0
LWPOLYLINE
  5
2B8
330
18
100
AcDbEntity
  8
0
100
AcDbPolyline
 90
        4
 70
     0
 43
0.0
 10
7.170714
 20
5.077984
 10
7.180503
 20
5.080919000000001
 10
7.193078999999999
 20
5.08469
 10
7.200028
 20
5.088429
  0
LWPOLYLINE
  5
2BF
330
18
100
AcDbEntity
  8
0
100
AcDbPolyline
 90
        3
 70
     0
 43
0.0
 10
7.170714
 20
5.027732
 10
7.184276
 20
5.033154
 10
7.200028
 20
5.042842
  0
LWPOLYLINE
  5
2C5
330
18
100
AcDbEntity
  8
0
100
AcDbPolyline
 90
        3
 70
     0
 43
0.0
 10
7.170714
 20
4.99152
 10
7.194336999999999
 20
4.997959
 10
7.200028
 20
5.001208999999999
  0
LWPOLYLINE
  5
2CB
330
18
100
AcDbEntity
  8
0
100
AcDbPolyline
 90
        5
 70
     0
 43
0.0
 10
7.170714
 20
4.964021
 10
7.174214999999999
 20
4.964021
 10
7.180503
 20
4.962764
 10
7.190564
 20
4.966535
 10
7.200028
 20
4.967717
  0
LWPOLYLINE
  5
2D3
330
18
100
AcDbEntity
  8
0
100
AcDbPolyline
 90
        4
 70
     0
 43
0.0
 10
7.170714
 20
4.92707
 10
7.184276
 20
4.930083
 10
7.194336999999999
 20
4.933854
 10
7.200028
 20
4.935604
  0
LINE
  5
2DA
330
18
100
AcDbEntity
  8
0
100
AcDbLine
 10
7.095083
 20
5.038207
 30
0.0
 11
7.007758
 21
4.958358000000001
 31
0.0
  0
LINE
  5
2DB
330
18
100
AcDbEntity
  8
0
100
AcDbLine
 10
7.200028
 20
5.12282
 30
0.0
 11
7.200028
 21
4.923302
 31
0.0
  0
ARC
  5
2DC
330
18
100
AcDbEntity
  8
0
100
AcDbCircle
 10
7.195028
 20
5.12282
 30
0.0
 40
0.005
100
AcDbArc
 50
0.0
 51
132.439474
  0
ARC
  5
2DD
330
18
100
AcDbEntity
  8
0
100
AcDbCircle
 10
7.195028
 20
5.136371
 30
0.0
 40
0.005
100
AcDbArc
 50
312.439474
 51
0.0
  0
LINE
  5
2DE
330
18
100
AcDbEntity
  8
0
100
AcDbLine
 10
7.006132000000001
 20
4.954668
 30
0.0
 11
7.006132000000001
 21
4.746006
 31
0.0
  0
ARC
  5
2DF
330
18
100
AcDbEntity
  8
0
100
AcDbCircle
 10
7.011132000000001
 20
4.968218
 30
0.0
 40
0.005
100
AcDbArc
 50
180.0
 51
312.439474
  0
ARC
  5
2E0
330
18
100
AcDbEntity
  8
0
100
AcDbCircle
 10
7.011132000000001
 20
4.954668
 30
0.0
 40
0.005
100
AcDbArc
 50
132.439474
 51
180.0
  0
LINE
  5
2E1
330
18
100
AcDbEntity
  8
0
100
AcDbLine
 10
4.390962
 20
7.032506
 30
0.0
 11
4.303885
 21
7.042153
 31
0.0
  0
ARC
  5
2E2
330
18
100
AcDbEntity
  8
0
100
AcDbCircle
 10
4.303335
 20
7.037183
 30
0.0
 40
0.005
100
AcDbArc
 50
83.67874000000001
 51
110.400591
  0
LINE
  5
2E3
330
18
100
AcDbEntity
  8
0
100
AcDbLine
 10
5.607846
 20
5.487033
 30
0.0
 11
5.607846
 21
4.841967
 31
0.0
  0
LINE
  5
2E4
330
18
100
AcDbEntity
  8
0
100
AcDbLine
 10
5.734665000000001
 20
5.379826
 30
0.0
 11
5.734665000000001
 21
4.943581
 31
0.0
  0
LINE
  5
2E5
330
18
100
AcDbEntity
  8
0
100
AcDbLine
 10
5.759981
 20
5.38267
 30
0.0
 11
5.760932
 21
4.963637
 31
0.0
  0
LINE
  5
2E6
330
18
100
AcDbEntity
  8
0
100
AcDbLine
 10
5.629383
 20
4.842635
 30
0.0
 11
5.629383
 21
4.647225
 31
0.0
  0
LINE
  5
2E7
330
18
100
AcDbEntity
  8
0
100
AcDbLine
 10
5.751886
 20
4.891506
 30
0.0
 11
5.751886
 21
4.74533
 31
0.0
  0
LINE
  5
2E8
330
18
100
AcDbEntity
  8
0
100
AcDbLine
 10
5.751412
 20
5.752634
 30
0.0
 11
5.751412
 21
5.566547
 31
0.0
  0
LINE
  5
2E9
330
18
100
AcDbEntity
  8
0
100
AcDbLine
 10
5.751412
 20
5.752634
 30
0.0
 11
5.629383
 21
5.676965
 31
0.0
  0
LINE
  5
2EA
330
18
100
AcDbEntity
  8
0
100
AcDbLine
 10
5.751412
 20
5.566547
 30
0.0
 11
5.683580999999999
 21
5.453122000000001
 31
0.0
  0
LINE
  5
2EB
330
18
100
AcDbEntity
  8
0
100
AcDbLine
 10
5.751886
 20
4.891506
 30
0.0
 11
5.713334
 21
4.921578
 31
0.0
  0
LINE
  5
2EC
330
18
100
AcDbEntity
  8
0
100
AcDbLine
 10
5.751886
 20
4.74533
 30
0.0
 11
5.629383
 21
4.647225
 31
0.0
  0
LINE
  5
2ED
330
18
100
AcDbEntity
  8
0
100
AcDbLine
 10
5.734665000000001
 20
4.943581
 30
0.0
 11
5.629383
 21
4.842635
 31
0.0
  0
LINE
  5
2EE
330
18
100
AcDbEntity
  8
0
100
AcDbLine
 10
5.614815
 20
5.685073
 30
0.0
 11
5.614815
 21
5.515299
 31
0.0
  0
LINE
  5
2EF
330
18
100
AcDbEntity
  8
0
100
AcDbLine
 10
5.730569
 20
5.75683
 30
0.0
 11
5.614815
 21
5.685073
 31
0.0
  0
LINE
  5
2F0
330
18
100
AcDbEntity
  8
0
100
AcDbLine
 10
5.623183999999999
 20
5.478413
 30
0.0
 11
5.734665000000001
 21
5.379826
 31
0.0
  0
LINE
  5
2F1
330
18
100
AcDbEntity
  8
0
100
AcDbLine
 10
5.63951
 20
5.492096
 30
0.0
 11
5.759981
 21
5.38267
 31
0.0
  0
LINE
  5
2F2
330
18
100
AcDbEntity
  8
0
100
AcDbLine
 10
5.614815
 20
4.834967
 30
0.0
 11
5.614815
 21
4.655333000000001
 31
0.0
  0
LINE
  5
2F3
330
18
100
AcDbEntity
  8
0
100
AcDbLine
 10
5.607846
 20
5.319552
 30
0.0
 11
5.25713
 21
4.581062
 31
0.0
  0
LINE
  5
2F4
330
18
100
AcDbEntity
  8
0
100
AcDbLine
 10
5.629383
 20
5.676965
 30
0.0
 11
5.629383
 21
5.514569
 31
0.0
  0
LINE
  5
2F5
330
18
100
AcDbEntity
  8
0
100
AcDbLine
 10
5.734665000000001
 20
5.379826
 30
0.0
 11
5.759981
 21
5.38267
 31
0.0
  0
LINE
  5
2F6
330
18
100
AcDbEntity
  8
0
100
AcDbLine
 10
5.614815
 20
5.685073
 30
0.0
 11
5.629383
 21
5.676965
 31
0.0
  0
LINE
  5
2F7
330
18
100
AcDbEntity
  8
0
100
AcDbLine
 10
5.730569
 20
5.75683
 30
0.0
 11
5.751412
 21
5.752634
 31
0.0
  0
LINE
  5
2F8
330
18
100
AcDbEntity
  8
0
100
AcDbLine
 10
5.614815
 20
4.655333000000001
 30
0.0
 11
5.629383
 21
4.647225
 31
0.0
  0
LINE
  5
2F9
330
18
100
AcDbEntity
  8
0
100
AcDbLine
 10
5.734665000000001
 20
4.943581
 30
0.0
 11
5.760932
 21
4.963637
 31
0.0
  0
LINE
  5
2FA
330
18
100
AcDbEntity
  8
0
100
AcDbLine
 10
5.760932
 20
4.963637
 30
0.0
 11
5.692729
 21
4.903372
 31
0.0
  0
LINE
  5
2FB
330
18
100
AcDbEntity
  8
0
100
AcDbLine
 10
5.613455999999999
 20
5.505751999999999
 30
0.0
 11
5.610626
 21
5.499646
 31
0.0
  0
ARC
  5
2FC
330
18
100
AcDbEntity
  8
0
100
AcDbCircle
 10
5.637846
 20
5.487033
 30
0.0
 40
0.03
100
AcDbArc
 50
155.137724
 51
180.0
  0
ARC
  5
2FD
330
18
100
AcDbEntity
  8
0
100
AcDbCircle
 10
5.659383
 20
5.514569
 30
0.0
 40
0.03
100
AcDbArc
 50
180.0
 51
228.512353
  0
ARC
  5
2FE
330
18
100
AcDbEntity
  8
0
100
AcDbCircle
 10
5.584815
 20
5.515299
 30
0.0
 40
0.03
100
AcDbArc
 50
346.099989
 51
0.0
  0
ARC
  5
2FF
330
18
100
AcDbEntity
  8
0
100
AcDbCircle
 10
5.643058
 20
5.500886
 30
0.0
 40
0.03
100
AcDbArc
 50
166.099989
 51
228.512353
  0
LINE
  5
300
330
18
100
AcDbEntity
  8
0
100
AcDbLine
 10
2.748264
 20
4.793169
 30
0.0
 11
2.577982
 21
4.704598000000001
 31
0.0
  0
LINE
  5
301
330
18
100
AcDbEntity
  8
0
100
AcDbLine
 10
2.746687
 20
5.382849
 30
0.0
 11
2.577982
 21
4.983601999999999
 31
0.0
  0
LINE
  5
302
330
18
100
AcDbEntity
  8
0
100
AcDbLine
 10
2.746687
 20
5.422778
 30
0.0
 11
2.560979
 21
4.983294
 31
0.0
  0
LINE
  5
303
330
18
100
AcDbEntity
  8
0
100
AcDbLine
 10
2.945111
 20
5.369392
 30
0.0
 11
2.753559
 21
5.161603
 31
0.0
  0
LINE
  5
304
330
18
100
AcDbEntity
  8
0
100
AcDbLine
 10
2.577982
 20
4.983601999999999
 30
0.0
 11
2.577982
 21
4.704598000000001
 31
0.0
  0
LINE
  5
305
330
18
100
AcDbEntity
  8
0
100
AcDbLine
 10
2.560979
 20
4.983294
 30
0.0
 11
2.577982
 21
4.983601999999999
 31
0.0
  0
LINE
  5
306
330
18
100
AcDbEntity
  8
0
100
AcDbLine
 10
2.560979
 20
4.712259
 30
0.0
 11
2.577982
 21
4.704598000000001
 31
0.0
  0
LINE
  5
307
330
18
100
AcDbEntity
  8
0
100
AcDbLine
 10
2.612603
 20
6.524308
 30
0.0
 11
2.639435
 21
6.431814
 31
0.0
  0
LINE
  5
308
330
18
100
AcDbEntity
  8
0
100
AcDbLine
 10
2.560979
 20
4.983294
 30
0.0
 11
2.560979
 21
4.712259
 31
0.0
  0
LINE
  5
309
330
18
100
AcDbEntity
  8
0
100
AcDbLine
 10
2.505454
 20
6.403745
 30
0.0
 11
2.359637
 21
6.439655999999999
 31
0.0
  0
LINE
  5
30A
330
18
100
AcDbEntity
  8
0
100
AcDbLine
 10
2.442095
 20
6.570444999999999
 30
0.0
 11
2.338424
 21
6.434246
 31
0.0
  0
LINE
  5
30B
330
18
100
AcDbEntity
  8
0
100
AcDbLine
 10
2.520103
 20
6.389062
 30
0.0
 11
2.554084
 21
6.249647
 31
0.0
  0
LINE
  5
30C
330
18
100
AcDbEntity
  8
0
100
AcDbLine
 10
2.369237
 20
6.419283999999999
 30
0.0
 11
1.877775
 21
5.773623000000001
 31
0.0
  0
LINE
  5
30D
330
18
100
AcDbEntity
  8
0
100
AcDbLine
 10
3.853985
 20
6.257678
 30
0.0
 11
3.853985
 21
6.246957
 31
0.0
  0
LINE
  5
30E
330
18
100
AcDbEntity
  8
0
  6
DASHED2
100
AcDbLine
 10
3.972619
 20
6.274971
 30
0.0
 11
3.972619
 21
5.895406
 31
0.0
  0
LINE
  5
30F
330
18
100
AcDbEntity
  8
0
  6
DASHED2
100
AcDbLine
 10
3.706819
 20
5.484035
 30
0.0
 11
3.811113
 21
5.291682
 31
0.0
  0
LINE
  5
310
330
18
100
AcDbEntity
  8
0
  6
DASHED2
100
AcDbLine
 10
3.853985
 20
6.083069999999999
 30
0.0
 11
3.706819
 21
5.741551
 31
0.0
  0
LINE
  5
311
330
18
100
AcDbEntity
  8
0
  6
DASHED2
100
AcDbLine
 10
3.972619
 20
5.895406
 30
0.0
 11
3.864103
 21
5.741202
 31
0.0
  0
LINE
  5
312
330
18
100
AcDbEntity
  8
0
  6
DASHED2
100
AcDbLine
 10
3.706819
 20
5.741551
 30
0.0
 11
3.706819
 21
5.484035
 31
0.0
  0
LINE
  5
313
330
18
100
AcDbEntity
  8
0
  6
DASHED2
100
AcDbLine
 10
3.853985
 20
5.516561
 30
0.0
 11
3.895217
 21
5.430651
 31
0.0
  0
LINE
  5
314
330
18
100
AcDbEntity
  8
0
100
AcDbLine
 10
2.86924
 20
6.226988
 30
0.0
 11
2.927885
 21
6.004229000000001
 31
0.0
  0
LINE
  5
315
330
18
100
AcDbEntity
  8
0
100
AcDbLine
 10
2.886305
 20
6.237639
 30
0.0
 11
2.948637
 21
6.000878
 31
0.0
  0
LINE
  5
316
330
18
100
AcDbEntity
  8
0
100
AcDbLine
 10
2.648641
 20
6.417466
 30
0.0
 11
2.86924
 21
6.226988
 31
0.0
  0
LINE
  5
317
330
18
100
AcDbEntity
  8
0
100
AcDbLine
 10
2.632086
 20
6.457146
 30
0.0
 11
2.886305
 21
6.237639
 31
0.0
  0
LINE
  5
318
330
18
100
AcDbEntity
  8
0
100
AcDbLine
 10
2.86924
 20
6.226988
 30
0.0
 11
2.86924
 21
6.226988
 31
0.0
  0
LINE
  5
319
330
18
100
AcDbEntity
  8
0
100
AcDbLine
 10
2.86924
 20
6.226988
 30
0.0
 11
2.886305
 21
6.237639
 31
0.0
  0
ARC
  5
31A
330
18
100
AcDbEntity
  8
0
100
AcDbCircle
 10
2.668248
 20
6.440173000000001
 30
0.0
 40
0.03
100
AcDbArc
 50
196.1775870000001
 51
229.19075
  0
LINE
  5
31B
330
18
100
AcDbEntity
  8
0
100
AcDbLine
 10
2.656841
 20
6.371818
 30
0.0
 11
2.687374
 21
6.253883
 31
0.0
  0
ARC
  5
31C
330
18
100
AcDbEntity
  8
0
100
AcDbCircle
 10
2.450053
 20
6.564388
 30
0.0
 40
0.01
100
AcDbArc
 50
81.980687
 51
142.722441
  0
LINE
  5
31D
330
18
100
AcDbEntity
  8
0
100
AcDbLine
 10
2.33504
 20
6.416879
 30
0.0
 11
2.343566
 21
6.385559
 31
0.0
  0
LINE
  5
31E
330
18
100
AcDbEntity
  8
0
100
AcDbLine
 10
2.49036
 20
6.388687
 30
0.0
 11
2.365115
 21
6.419532
 31
0.0
  0
LINE
  5
31F
330
18
100
AcDbEntity
  8
0
100
AcDbLine
 10
2.505009
 20
6.374004
 30
0.0
 11
2.531393
 21
6.26576
 31
0.0
  0
ARC
  5
320
330
18
100
AcDbEntity
  8
0
100
AcDbCircle
 10
2.485578
 20
6.369268
 30
0.0
 40
0.02
100
AcDbArc
 50
13.6984
 51
76.16506200000001
  0
ARC
  5
321
330
18
100
AcDbEntity
  8
0
100
AcDbCircle
 10
2.500672
 20
6.384326000000001
 30
0.0
 40
0.02
100
AcDbArc
 50
13.6984
 51
76.16506200000001
  0
ARC
  5
322
330
18
100
AcDbEntity
  8
0
100
AcDbCircle
 10
2.360332
 20
6.400112
 30
0.0
 40
0.02
100
AcDbArc
 50
76.16506200000001
 51
195.228096
  0
ARC
  5
323
330
18
100
AcDbEntity
  8
0
100
AcDbCircle
 10
2.354854
 20
6.420236
 30
0.0
 40
0.02
100
AcDbArc
 50
76.16506200000001
 51
195.228096
  0
ARC
  5
324
330
18
100
AcDbEntity
  8
0
100
AcDbCircle
 10
2.354338
 20
6.422132
 30
0.0
 40
0.02
100
AcDbArc
 50
142.722441
 51
195.228096
  0
LINE
  5
325
330
18
100
AcDbEntity
  8
0
100
AcDbLine
 10
2.598177
 20
6.538156
 30
0.0
 11
2.451448
 21
6.574291000000001
 31
0.0
  0
ARC
  5
326
330
18
100
AcDbEntity
  8
0
100
AcDbCircle
 10
2.593395
 20
6.518736
 30
0.0
 40
0.02
100
AcDbArc
 50
16.177587
 51
76.16506200000001
  0
LINE
  5
327
330
18
100
AcDbEntity
  8
0
100
AcDbLine
 10
2.742491
 20
6.034166
 30
0.0
 11
2.516216
 21
5.912365
 31
0.0
  0
LINE
  5
328
330
18
100
AcDbEntity
  8
0
  6
DASHED2
100
AcDbLine
 10
2.748264
 20
6.033233999999999
 30
0.0
 11
2.748264
 21
5.390634
 31
0.0
  0
LINE
  5
329
330
18
100
AcDbEntity
  8
0
100
AcDbLine
 10
2.748264
 20
5.148047
 30
0.0
 11
2.748264
 21
4.793169
 31
0.0
  0
LINE
  5
32A
330
18
100
AcDbEntity
  8
0
100
AcDbLine
 10
2.691324
 20
6.223661
 30
0.0
 11
2.742491
 21
6.034166
 31
0.0
  0
LINE
  5
32B
330
18
100
AcDbEntity
  8
0
100
AcDbLine
 10
2.698206
 20
6.213204
 30
0.0
 11
2.748264
 21
6.033233999999999
 31
0.0
  0
LINE
  5
32C
330
18
100
AcDbEntity
  8
0
100
AcDbLine
 10
2.682272
 20
6.227703
 30
0.0
 11
2.547449
 21
6.250783
 31
0.0
  0
ARC
  5
32D
330
18
100
AcDbEntity
  8
0
100
AcDbCircle
 10
2.678897
 20
6.207990000000001
 30
0.0
 40
0.02
100
AcDbArc
 50
15.110558
 51
80.28585699999999
  0
ARC
  5
32E
330
18
100
AcDbEntity
  8
0
100
AcDbCircle
 10
2.550824
 20
6.270497
 30
0.0
 40
0.02
100
AcDbArc
 50
193.6984
 51
260.285857
  0
LINE
  5
32F
330
18
100
AcDbEntity
  8
0
100
AcDbLine
 10
2.700418
 20
6.167291000000001
 30
0.0
 11
2.023767
 21
5.230843
 31
0.0
  0
ARC
  5
330
330
18
100
AcDbEntity
  8
0
100
AcDbCircle
 10
2.768264
 20
5.148047
 30
0.0
 40
0.02
100
AcDbArc
 50
137.328391
 51
180.0
  0
LINE
  5
331
330
18
100
AcDbEntity
  8
0
100
AcDbLine
 10
2.952831
 20
5.497528
 30
0.0
 11
2.950402
 21
5.382526
 31
0.0
  0
LINE
  5
332
330
18
100
AcDbEntity
  8
0
100
AcDbLine
 10
2.933621
 20
5.497934
 30
0.0
 11
2.930573
 21
5.353621
 31
0.0
  0
ARC
  5
333
330
18
100
AcDbEntity
  8
0
100
AcDbCircle
 10
2.930406
 20
5.382948000000001
 30
0.0
 40
0.02
100
AcDbArc
 50
317.328391
 51
358.789814
  0
LINE
  5
334
330
18
100
AcDbEntity
  8
0
100
AcDbLine
 10
2.748264
 20
5.358376
 30
0.0
 11
2.748264
 21
5.34923
 31
0.0
  0
ARC
  5
335
330
18
100
AcDbEntity
  8
0
100
AcDbCircle
 10
2.728264
 20
5.430562999999999
 30
0.0
 40
0.02
100
AcDbArc
 50
337.093033
 51
0.0
  0
ARC
  5
336
330
18
100
AcDbEntity
  8
0
100
AcDbCircle
 10
2.728264
 20
5.390634
 30
0.0
 40
0.02
100
AcDbArc
 50
337.093033
 51
0.0
  0
LINE
  5
337
330
18
100
AcDbEntity
  8
0
100
AcDbLine
 10
2.748264
 20
5.19936
 30
0.0
 11
2.748264
 21
5.185817
 31
0.0
  0
LINE
  5
338
330
18
100
AcDbEntity
  8
0
100
AcDbLine
 10
2.748264
 20
5.326313
 30
0.0
 11
2.748264
 21
5.217219999999999
 31
0.0
  0
LINE
  5
339
330
18
100
AcDbEntity
  8
0
100
AcDbLine
 10
2.502057
 20
6.3806
 30
0.0
 11
2.023767
 21
5.742429
 31
0.0
  0
LINE
  5
33A
330
18
100
AcDbEntity
  8
0
100
AcDbLine
 10
2.527309
 20
6.414293
 30
0.0
 11
2.520425
 21
6.405106
 31
0.0
  0
LINE
  5
33B
330
18
100
AcDbEntity
  8
0
100
AcDbLine
 10
2.603242
 20
6.515832
 30
0.0
 11
2.532093
 21
6.420026999999999
 31
0.0
  0
LINE
  5
33C
330
18
100
AcDbEntity
  8
0
100
AcDbLine
 10
2.609274
 20
6.523656
 30
0.0
 11
2.60643
 21
6.519862
 31
0.0
  0
LWPOLYLINE
  5
33D
330
18
100
AcDbEntity
  8
0
  6
DASHED2
100
AcDbPolyline
 90
        4
 70
     0
 43
0.0
 10
2.347242
 20
6.312903
 10
2.402815
 20
6.06229
 10
2.402815
 20
5.453246
 10
2.53163
 20
5.274941
  0
LWPOLYLINE
  5
344
330
18
100
AcDbEntity
  8
0
  6
DASHED2
100
AcDbPolyline
 90
        4
 70
     0
 43
0.0
 10
2.589347
 20
5.425351
 10
2.449
 20
5.059606
 10
2.449
 20
4.746474
 10
2.560979
 20
4.804719
  0
LWPOLYLINE
  5
34B
330
18
100
AcDbEntity
  8
0
  6
DASHED2
100
AcDbPolyline
 90
        3
 70
     0
 43
0.0
 10
2.556388
 20
6.238341
 10
2.591975
 20
6.063683999999999
 10
2.591975
 20
5.056647
  0
LWPOLYLINE
  5
351
330
18
100
AcDbEntity
  8
0
  6
DASHED2
100
AcDbPolyline
 90
        4
 70
   128
 43
0.0
 10
2.368745
 20
6.418638
 10
2.41398
 20
6.280278
 42
0.288704
 10
2.430386
 20
6.266662999999999
 10
2.543798
 20
6.251771
  0
LINE
  5
358
330
18
100
AcDbEntity
  8
0
100
AcDbLine
 10
3.99032
 20
5.192036
 30
0.0
 11
3.99032
 21
5.019719
 31
0.0
  0
LINE
  5
359
330
18
100
AcDbEntity
  8
0
100
AcDbLine
 10
3.811487
 20
5.2923
 30
0.0
 11
3.834204
 21
5.240387999999999
 31
0.0
  0
LINE
  5
35A
330
18
100
AcDbEntity
  8
0
100
AcDbLine
 10
3.834204
 20
5.240387999999999
 30
0.0
 11
3.857229
 21
5.237392
 31
0.0
  0
LINE
  5
35B
330
18
100
AcDbEntity
  8
0
100
AcDbLine
 10
3.857229
 20
5.237392
 30
0.0
 11
3.876093
 21
5.19732
 31
0.0
  0
LINE
  5
35C
330
18
100
AcDbEntity
  8
0
100
AcDbLine
 10
3.876093
 20
5.19732
 30
0.0
 11
3.859945
 21
5.168255
 31
0.0
  0
LINE
  5
35D
330
18
100
AcDbEntity
  8
0
100
AcDbLine
 10
3.859945
 20
5.168255
 30
0.0
 11
3.873834
 21
5.136197
 31
0.0
  0
LINE
  5
35E
330
18
100
AcDbEntity
  8
0
100
AcDbLine
 10
3.873834
 20
5.136197
 30
0.0
 11
3.903837
 21
5.125187
 31
0.0
  0
LINE
  5
35F
330
18
100
AcDbEntity
  8
0
100
AcDbLine
 10
3.903837
 20
5.125187
 30
0.0
 11
3.938677
 21
5.073098
 31
0.0
  0
LINE
  5
360
330
18
100
AcDbEntity
  8
0
100
AcDbLine
 10
3.938677
 20
5.073098
 30
0.0
 11
3.92351
 21
5.039023
 31
0.0
  0
LINE
  5
361
330
18
100
AcDbEntity
  8
0
100
AcDbLine
 10
3.92351
 20
5.039023
 30
0.0
 11
3.937407
 21
5.008969
 31
0.0
  0
LINE
  5
362
330
18
100
AcDbEntity
  8
0
100
AcDbLine
 10
3.937407
 20
5.008969
 30
0.0
 11
3.978403
 21
4.991952
 31
0.0
  0
LINE
  5
363
330
18
100
AcDbEntity
  8
0
100
AcDbLine
 10
3.978403
 20
4.991952
 30
0.0
 11
4.029207
 21
4.924840000000001
 31
0.0
  0
LINE
  5
364
330
18
100
AcDbEntity
  8
0
100
AcDbLine
 10
4.029207
 20
4.924840000000001
 30
0.0
 11
4.037044
 21
4.882759
 31
0.0
  0
LINE
  5
365
330
18
100
AcDbEntity
  8
0
100
AcDbLine
 10
4.037044
 20
4.882759
 30
0.0
 11
4.068925
 21
4.84169
 31
0.0
  0
LINE
  5
366
330
18
100
AcDbEntity
  8
0
100
AcDbLine
 10
4.068925
 20
4.84169
 30
0.0
 11
4.094963
 21
4.840699
 31
0.0
  0
LINE
  5
367
330
18
100
AcDbEntity
  8
0
100
AcDbLine
 10
4.094963
 20
4.840699
 30
0.0
 11
4.121567
 21
4.789937
 31
0.0
  0
LINE
  5
368
330
18
100
AcDbEntity
  8
0
100
AcDbLine
 10
4.121567
 20
4.789937
 30
0.0
 11
4.216427
 21
4.83553
 31
0.0
  0
LINE
  5
369
330
18
100
AcDbEntity
  8
0
100
AcDbLine
 10
3.895217
 20
5.430651
 30
0.0
 11
3.923853
 21
5.360666999999999
 31
0.0
  0
LINE
  5
36A
330
18
100
AcDbEntity
  8
0
100
AcDbLine
 10
3.923853
 20
5.360666999999999
 30
0.0
 11
3.915727
 21
5.33361
 31
0.0
  0
LINE
  5
36B
330
18
100
AcDbEntity
  8
0
100
AcDbLine
 10
3.915727
 20
5.33361
 30
0.0
 11
3.977381
 21
5.226421
 31
0.0
  0
LINE
  5
36C
330
18
100
AcDbEntity
  8
0
100
AcDbLine
 10
3.977381
 20
5.226421
 30
0.0
 11
4.008394
 21
5.217416
 31
0.0
  0
LINE
  5
36D
330
18
100
AcDbEntity
  8
0
100
AcDbLine
 10
4.008394
 20
5.217416
 30
0.0
 11
4.040233
 21
5.166328
 31
0.0
  0
LINE
  5
36E
330
18
100
AcDbEntity
  8
0
100
AcDbLine
 10
4.040233
 20
5.166328
 30
0.0
 11
4.030108
 21
5.140271
 31
0.0
  0
LINE
  5
36F
330
18
100
AcDbEntity
  8
0
100
AcDbLine
 10
4.030108
 20
5.140271
 30
0.0
 11
4.053024
 21
5.111223000000001
 31
0.0
  0
LINE
  5
370
330
18
100
AcDbEntity
  8
0
100
AcDbLine
 10
4.053024
 20
5.111223000000001
 30
0.0
 11
4.084046
 21
5.104222
 31
0.0
  0
LINE
  5
371
330
18
100
AcDbEntity
  8
0
100
AcDbLine
 10
4.084046
 20
5.104222
 30
0.0
 11
4.111899
 21
5.058142
 31
0.0
  0
LINE
  5
372
330
18
100
AcDbEntity
  8
0
100
AcDbLine
 10
4.111899
 20
5.058142
 30
0.0
 11
4.104753
 21
5.026074
 31
0.0
  0
LINE
  5
373
330
18
100
AcDbEntity
  8
0
100
AcDbLine
 10
4.104753
 20
5.026074
 30
0.0
 11
4.123667
 21
4.998026
 31
0.0
  0
LINE
  5
374
330
18
100
AcDbEntity
  8
0
100
AcDbLine
 10
4.123667
 20
4.998026
 30
0.0
 11
4.152694
 21
4.993029
 31
0.0
  0
LINE
  5
375
330
18
100
AcDbEntity
  8
0
100
AcDbLine
 10
4.152694
 20
4.993029
 30
0.0
 11
4.183555999999999
 21
4.947951
 31
0.0
  0
LINE
  5
376
330
18
100
AcDbEntity
  8
0
100
AcDbLine
 10
4.183555999999999
 20
4.947951
 30
0.0
 11
4.176407
 21
4.914882
 31
0.0
  0
LINE
  5
377
330
18
100
AcDbEntity
  8
0
100
AcDbLine
 10
4.176407
 20
4.914882
 30
0.0
 11
4.216427
 21
4.865267
 31
0.0
  0
LINE
  5
378
330
18
100
AcDbEntity
  8
0
100
AcDbLine
 10
3.945952
 20
6.416905
 30
0.0
 11
4.014462
 21
6.428845
 31
0.0
  0
LINE
  5
379
330
18
100
AcDbEntity
  8
0
100
AcDbLine
 10
4.014462
 20
6.428845
 30
0.0
 11
4.031586
 21
6.451898
 31
0.0
  0
LINE
  5
37A
330
18
100
AcDbEntity
  8
0
100
AcDbLine
 10
4.031586
 20
6.451898
 30
0.0
 11
4.089728
 21
6.462945
 31
0.0
  0
LINE
  5
37B
330
18
100
AcDbEntity
  8
0
100
AcDbLine
 10
4.089728
 20
6.462945
 30
0.0
 11
4.104702
 21
6.450927
 31
0.0
  0
LINE
  5
37C
330
18
100
AcDbEntity
  8
0
100
AcDbLine
 10
4.104702
 20
6.450927
 30
0.0
 11
4.146483
 21
6.463879
 31
0.0
  0
LINE
  5
37D
330
18
100
AcDbEntity
  8
0
100
AcDbLine
 10
4.205371
 20
6.463981
 30
0.0
 11
4.224929
 21
6.457992
 31
0.0
  0
LINE
  5
37E
330
18
100
AcDbEntity
  8
0
100
AcDbLine
 10
4.224929
 20
6.457992
 30
0.0
 11
4.236027
 21
6.477035
 31
0.0
  0
LINE
  5
37F
330
18
100
AcDbEntity
  8
0
100
AcDbLine
 10
4.236027
 20
6.477035
 30
0.0
 11
4.314142
 21
6.474063
 31
0.0
  0
LINE
  5
380
330
18
100
AcDbEntity
  8
0
100
AcDbLine
 10
4.314142
 20
6.474063
 30
0.0
 11
4.321078
 21
6.456029
 31
0.0
  0
LINE
  5
381
330
18
100
AcDbEntity
  8
0
100
AcDbLine
 10
4.321078
 20
6.456029
 30
0.0
 11
4.357129000000001
 21
6.454041
 31
0.0
  0
LINE
  5
382
330
18
100
AcDbEntity
  8
0
100
AcDbLine
 10
4.357129000000001
 20
6.454041
 30
0.0
 11
4.365261
 21
6.466433
 31
0.0
  0
LINE
  5
383
330
18
100
AcDbEntity
  8
0
100
AcDbLine
 10
4.365261
 20
6.466433
 30
0.0
 11
4.398243
 21
6.46508
 31
0.0
  0
LINE
  5
384
330
18
100
AcDbEntity
  8
0
100
AcDbLine
 10
4.398243
 20
6.46508
 30
0.0
 11
4.417606
 21
6.329533000000001
 31
0.0
  0
LINE
  5
385
330
18
100
AcDbEntity
  8
0
100
AcDbLine
 10
4.417606
 20
6.329533000000001
 30
0.0
 11
4.36461
 21
6.326789
 31
0.0
  0
LINE
  5
386
330
18
100
AcDbEntity
  8
0
100
AcDbLine
 10
4.36461
 20
6.326789
 30
0.0
 11
4.350499
 21
6.305741
 31
0.0
  0
LINE
  5
387
330
18
100
AcDbEntity
  8
0
100
AcDbLine
 10
4.350499
 20
6.305741
 30
0.0
 11
4.289399
 21
6.305715
 31
0.0
  0
LINE
  5
388
330
18
100
AcDbEntity
  8
0
100
AcDbLine
 10
4.289399
 20
6.305715
 30
0.0
 11
4.271453
 21
6.325747
 31
0.0
  0
LINE
  5
389
330
18
100
AcDbEntity
  8
0
100
AcDbLine
 10
4.271453
 20
6.325747
 30
0.0
 11
4.202327
 21
6.322712
 31
0.0
  0
LINE
  5
38A
330
18
100
AcDbEntity
  8
0
100
AcDbLine
 10
4.202327
 20
6.322712
 30
0.0
 11
4.193395
 21
6.307733
 31
0.0
  0
LINE
  5
38B
330
18
100
AcDbEntity
  8
0
100
AcDbLine
 10
4.193395
 20
6.307733
 30
0.0
 11
4.124136
 21
6.307649
 31
0.0
  0
LINE
  5
38C
330
18
100
AcDbEntity
  8
0
100
AcDbLine
 10
4.124136
 20
6.307649
 30
0.0
 11
4.107187000000001
 21
6.326679
 31
0.0
  0
LINE
  5
38D
330
18
100
AcDbEntity
  8
0
100
AcDbLine
 10
4.107187000000001
 20
6.326679
 30
0.0
 11
4.000946
 21
6.310601999999999
 31
0.0
  0
LINE
  5
38E
330
18
100
AcDbEntity
  8
0
100
AcDbLine
 10
4.000946
 20
6.310601999999999
 30
0.0
 11
3.996843
 21
6.287554
 31
0.0
  0
LINE
  5
38F
330
18
100
AcDbEntity
  8
0
100
AcDbLine
 10
3.996843
 20
6.287554
 30
0.0
 11
3.859391000000001
 21
6.264085
 31
0.0
  0
ARC
  5
390
330
18
100
AcDbEntity
  8
0
100
AcDbCircle
 10
4.176093
 20
6.368363
 30
0.0
 40
0.1
100
AcDbArc
 50
72.975454
 51
107.223209
  0
LINE
  5
391
330
18
100
AcDbEntity
  8
0
100
AcDbLine
 10
4.113163
 20
6.31997
 30
0.0
 11
4.009716
 21
6.304315
 31
0.0
  0
LINE
  5
392
330
18
100
AcDbEntity
  8
0
100
AcDbLine
 10
4.005612999999999
 20
6.281267
 30
0.0
 11
3.859266
 21
6.253341000000001
 31
0.0
  0
LINE
  5
393
330
18
100
AcDbEntity
  8
0
100
AcDbLine
 10
4.009716
 20
6.304315
 30
0.0
 11
4.005612999999999
 21
6.281267
 31
0.0
  0
LINE
  5
394
330
18
100
AcDbEntity
  8
0
100
AcDbLine
 10
3.945952
 20
6.416905
 30
0.0
 11
3.854543
 21
6.260314
 31
0.0
  0
LINE
  5
395
330
18
100
AcDbEntity
  8
0
100
AcDbLine
 10
3.853985
 20
6.246957
 30
0.0
 11
3.853985
 21
6.21698
 31
0.0
  0
ARC
  5
396
330
18
100
AcDbEntity
  8
0
100
AcDbCircle
 10
3.860485
 20
6.246957
 30
0.0
 40
0.0065
100
AcDbArc
 50
100.803265
 51
180.0
  0
ARC
  5
397
330
18
100
AcDbEntity
  8
0
100
AcDbCircle
 10
3.860485
 20
6.257678
 30
0.0
 40
0.0065
100
AcDbArc
 50
99.68935699999999
 51
180.0
  0
LINE
  5
398
330
18
100
AcDbEntity
  8
0
100
AcDbLine
 10
3.853985
 20
6.21698
 30
0.0
 11
3.41092
 21
5.496848
 31
0.0
  0
LINE
  5
399
330
18
100
AcDbEntity
  8
0
  6
DASHED2
100
AcDbLine
 10
3.853985
 20
5.726824
 30
0.0
 11
3.853985
 21
5.516561
 31
0.0
  0
LINE
  5
39A
330
18
100
AcDbEntity
  8
0
100
AcDbLine
 10
4.104779
 20
6.318701
 30
0.0
 11
3.585942
 21
5.473948
 31
0.0
  0
LINE
  5
39B
330
18
100
AcDbEntity
  8
0
100
AcDbLine
 10
4.175566000000001
 20
6.448594
 30
0.0
 11
4.107517
 21
6.337446
 31
0.0
  0
LINE
  5
39C
330
18
100
AcDbEntity
  8
0
  6
DASHED2
100
AcDbLine
 10
3.853985
 20
6.187576
 30
0.0
 11
3.853985
 21
6.083069999999999
 31
0.0
  0
LINE
  5
39D
330
18
100
AcDbEntity
  8
0
  6
DASHED2
100
AcDbLine
 10
3.853985
 20
6.060064
 30
0.0
 11
3.853985
 21
5.726824
 31
0.0
  0
LINE
  5
39E
330
18
100
AcDbEntity
  8
0
100
AcDbLine
 10
5.629383
 20
4.842635
 30
0.0
 11
5.618491000000001
 21
4.835991
 31
0.0
  0
ARC
  5
39F
330
18
100
AcDbEntity
  8
0
100
AcDbCircle
 10
5.614846
 20
4.841967
 30
0.0
 40
0.007
100
AcDbArc
 50
180.0
 51
301.380502
  0
LWPOLYLINE
  5
3A0
330
18
100
AcDbEntity
  8
0
100
AcDbPolyline
 90
       16
 70
     1
 43
0.0
 10
5.719003
 20
4.848178846793428
 42
0.11154
 10
5.715775
 20
4.848162846793428
 42
0.102973
 10
5.712606
 20
4.846700846793429
 42
0.092796
 10
5.710186
 20
4.844094846793428
 42
0.086692
 10
5.708739
 20
4.840577846793428
 42
0.086692
 10
5.708571
 20
4.836778846793428
 42
0.092796
 10
5.709668
 20
4.833395846793428
 42
0.102973
 10
5.711926999999999
 20
4.830734846793428
 42
0.11154
 10
5.714848
 20
4.829361846793428
 42
0.11154
 10
5.718075
 20
4.829377846793427
 42
0.102973
 10
5.721245
 20
4.830839846793428
 42
0.092796
 10
5.723664
 20
4.833445846793428
 42
0.086692
 10
5.725111
 20
4.836962846793428
 42
0.086692
 10
5.725280000000001
 20
4.840761846793428
 42
0.092796
 10
5.724183
 20
4.844144846793427
 42
0.102973
 10
5.721924
 20
4.846804846793428
 42
0.11154
  0
LWPOLYLINE
  5
3B3
330
18
100
AcDbEntity
  8
0
100
AcDbPolyline
 90
       16
 70
     1
 43
0.0
 10
5.719034
 20
4.770558
 42
0.11154
 10
5.715806
 20
4.770542
 42
0.102973
 10
5.712637
 20
4.769080000000001
 42
0.092796
 10
5.710217
 20
4.766474
 42
0.086692
 10
5.70877
 20
4.762957
 42
0.086692
 10
5.708602
 20
4.759158
 42
0.092796
 10
5.709699
 20
4.755775
 42
0.102973
 10
5.711958
 20
4.753114
 42
0.11154
 10
5.714879
 20
4.751741
 42
0.11154
 10
5.718106
 20
4.751755999999999
 42
0.102973
 10
5.721275
 20
4.753218
 42
0.092796
 10
5.723694999999999
 20
4.755825
 42
0.086692
 10
5.725142
 20
4.759342
 42
0.086692
 10
5.725311000000001
 20
4.763141
 42
0.092796
 10
5.724214
 20
4.766524
 42
0.102973
 10
5.721955
 20
4.769184
 42
0.11154
  0
LWPOLYLINE
  5
3C6
330
18
100
AcDbEntity
  8
0
100
AcDbPolyline
 90
       16
 70
     1
 43
0.0
 10
5.670847
 20
4.816355846793428
 42
0.11154
 10
5.667619
 20
4.816339846793428
 42
0.102973
 10
5.66445
 20
4.814877846793428
 42
0.092796
 10
5.662030000000001
 20
4.812271846793428
 42
0.086692
 10
5.660583
 20
4.808754846793428
 42
0.086692
 10
5.660415
 20
4.804955846793428
 42
0.092796
 10
5.661512
 20
4.801572846793428
 42
0.102973
 10
5.663771
 20
4.798911846793428
 42
0.11154
 10
5.666691999999999
 20
4.797538846793428
 42
0.11154
 10
5.669919999999999
 20
4.797554846793428
 42
0.102973
 10
5.673089
 20
4.799016846793427
 42
0.092796
 10
5.675508
 20
4.801622846793428
 42
0.086692
 10
5.676955
 20
4.805139846793428
 42
0.086692
 10
5.677124
 20
4.808938846793428
 42
0.092796
 10
5.676027
 20
4.812321846793428
 42
0.102973
 10
5.673768
 20
4.814982846793428
 42
0.11154
  0
LWPOLYLINE
  5
3D9
330
18
100
AcDbEntity
  8
0
100
AcDbPolyline
 90
       16
 70
     1
 43
0.0
 10
5.670816
 20
4.740948
 42
0.11154
 10
5.667587999999999
 20
4.740932
 42
0.102973
 10
5.664419000000001
 20
4.73947
 42
0.092796
 10
5.661999
 20
4.736864
 42
0.086692
 10
5.660552
 20
4.733347
 42
0.086692
 10
5.660384
 20
4.729548
 42
0.092796
 10
5.661481
 20
4.726165
 42
0.102973
 10
5.66374
 20
4.723504
 42
0.11154
 10
5.666661
 20
4.722131
 42
0.11154
 10
5.669889
 20
4.722146
 42
0.102973
 10
5.673058
 20
4.723608000000001
 42
0.092796
 10
5.675477
 20
4.726215
 42
0.086692
 10
5.676924
 20
4.729732
 42
0.086692
 10
5.677093
 20
4.733531
 42
0.092796
 10
5.675996
 20
4.736914
 42
0.102973
 10
5.673737
 20
4.739574
 42
0.11154
  0
LWPOLYLINE
  5
3EC
330
18
100
AcDbEntity
  8
0
100
AcDbPolyline
 90
       16
 70
     1
 43
0.0
 10
5.718845
 20
5.596768986364955
 42
0.11154
 10
5.71594
 20
5.596754986364955
 42
0.102973
 10
5.713088
 20
5.595438986364955
 42
0.092796
 10
5.71091
 20
5.593093986364956
 42
0.086692
 10
5.709608
 20
5.589927986364955
 42
0.086692
 10
5.709455999999999
 20
5.586508986364955
 42
0.092796
 10
5.710443
 20
5.583463986364955
 42
0.102973
 10
5.712476000000001
 20
5.581069986364955
 42
0.11154
 10
5.715105
 20
5.579833986364955
 42
0.11154
 10
5.71801
 20
5.579847986364955
 42
0.102973
 10
5.720862
 20
5.581163986364955
 42
0.092796
 10
5.72304
 20
5.583509986364954
 42
0.086692
 10
5.724342
 20
5.586674986364955
 42
0.086692
 10
5.724494
 20
5.590093986364956
 42
0.092796
 10
5.723507
 20
5.593138986364955
 42
0.102973
 10
5.721474
 20
5.595532986364955
 42
0.11154
  0
LWPOLYLINE
  5
3FF
330
18
100
AcDbEntity
  8
0
100
AcDbPolyline
 90
       16
 70
     1
 43
0.0
 10
5.718744999999999
 20
5.677454
 42
0.11154
 10
5.71584
 20
5.67744
 42
0.102973
 10
5.712988
 20
5.676124
 42
0.092796
 10
5.71081
 20
5.673779
 42
0.086692
 10
5.709508000000001
 20
5.670613
 42
0.086692
 10
5.709356
 20
5.667194
 42
0.092796
 10
5.710344
 20
5.664149
 42
0.102973
 10
5.712377
 20
5.661755
 42
0.11154
 10
5.715006
 20
5.660519
 42
0.11154
 10
5.717911
 20
5.660533
 42
0.102973
 10
5.720763
 20
5.661849
 42
0.092796
 10
5.722941000000001
 20
5.664194
 42
0.086692
 10
5.724243
 20
5.66736
 42
0.086692
 10
5.724395
 20
5.670779000000001
 42
0.092796
 10
5.723407
 20
5.673824
 42
0.102973
 10
5.721374
 20
5.676218
 42
0.11154
  0
LWPOLYLINE
  5
412
330
18
100
AcDbEntity
  8
0
100
AcDbPolyline
 90
       16
 70
     1
 43
0.0
 10
5.670496
 20
5.563438986364955
 42
0.11154
 10
5.667591000000001
 20
5.563424986364955
 42
0.102973
 10
5.664739
 20
5.562108986364955
 42
0.092796
 10
5.662561
 20
5.559763986364955
 42
0.086692
 10
5.661258999999999
 20
5.556597986364955
 42
0.086692
 10
5.661107
 20
5.553178986364955
 42
0.092796
 10
5.662094000000001
 20
5.550133986364956
 42
0.102973
 10
5.664127
 20
5.547739986364955
 42
0.11154
 10
5.666756
 20
5.546503986364955
 42
0.11154
 10
5.669661
 20
5.546517986364955
 42
0.102973
 10
5.672513
 20
5.547833986364956
 42
0.092796
 10
5.674691
 20
5.550178986364955
 42
0.086692
 10
5.675993
 20
5.553344986364955
 42
0.086692
 10
5.676145
 20
5.556763986364955
 42
0.092796
 10
5.675158000000001
 20
5.559808986364955
 42
0.102973
 10
5.673125
 20
5.562202986364955
 42
0.11154
  0
LWPOLYLINE
  5
425
330
18
100
AcDbEntity
  8
0
100
AcDbPolyline
 90
       16
 70
     1
 43
0.0
 10
5.670561
 20
5.642572
 42
0.11154
 10
5.667656
 20
5.642558
 42
0.102973
 10
5.664804
 20
5.641243
 42
0.092796
 10
5.662626
 20
5.638897
 42
0.086692
 10
5.661324
 20
5.635732
 42
0.086692
 10
5.661172000000001
 20
5.632312000000001
 42
0.092796
 10
5.66216
 20
5.629268
 42
0.102973
 10
5.664193
 20
5.626873000000001
 42
0.11154
 10
5.666822
 20
5.625637
 42
0.11154
 10
5.669727
 20
5.625651
 42
0.102973
 10
5.672579
 20
5.626967
 42
0.092796
 10
5.674757
 20
5.629313
 42
0.086692
 10
5.676059
 20
5.632478
 42
0.086692
 10
5.676211
 20
5.635897
 42
0.092796
 10
5.675223
 20
5.638942
 42
0.102973
 10
5.67319
 20
5.641336
 42
0.11154
  0
LWPOLYLINE
  5
438
330
18
100
AcDbEntity
  8
0
100
AcDbPolyline
 90
        2
 70
     1
 43
0.0
 10
5.689853
 20
5.336371
 42
1.0
 10
5.693453
 20
5.336371
 42
1.0
  0
LWPOLYLINE
  5
43D
330
18
100
AcDbEntity
  8
0
100
AcDbPolyline
 90
        2
 70
     1
 43
0.0
 10
5.689853
 20
4.989678
 42
1.0
 10
5.693453
 20
4.989678
 42
1.0
  0
LWPOLYLINE
  5
442
330
18
100
AcDbEntity
  8
0
100
AcDbPolyline
 90
       16
 70
     1
 43
0.0
 10
2.654166
 20
4.977868
 42
0.114769
 10
2.655965
 20
4.980138
 42
0.103811
 10
2.656707
 20
4.983244
 42
0.091328
 10
2.656205
 20
4.986475
 42
0.084112
 10
2.654492
 20
4.989579
 42
0.084112
 10
2.651851
 20
4.991944999999999
 42
0.091328
 10
2.648816
 20
4.99316
 42
0.103811
 10
2.645622
 20
4.993134
 42
0.114769
 10
2.643006
 20
4.991891000000001
 42
0.114769
 10
2.641208
 20
4.989621
 42
0.103811
 10
2.640465
 20
4.986514
 42
0.091328
 10
2.640968
 20
4.983283999999999
 42
0.084112
 10
2.642681
 20
4.980180000000001
 42
0.084112
 10
2.645321
 20
4.977814
 42
0.091328
 10
2.648356
 20
4.976598
 42
0.103811
 10
2.65155
 20
4.976625
 42
0.114769
  0
LWPOLYLINE
  5
455
330
18
100
AcDbEntity
  8
0
100
AcDbPolyline
 90
       16
 70
     1
 43
0.0
 10
2.718095
 20
4.932286
 42
0.114769
 10
2.719893
 20
4.934556
 42
0.103811
 10
2.720636
 20
4.937663
 42
0.091328
 10
2.720133
 20
4.940894
 42
0.084112
 10
2.71842
 20
4.943998000000001
 42
0.084112
 10
2.71578
 20
4.946364
 42
0.091328
 10
2.712745
 20
4.947579
 42
0.103811
 10
2.709551
 20
4.947553
 42
0.114769
 10
2.706935
 20
4.94631
 42
0.114769
 10
2.705136
 20
4.94404
 42
0.103811
 10
2.704393
 20
4.940933
 42
0.091328
 10
2.704896
 20
4.937703
 42
0.084112
 10
2.706609
 20
4.934599
 42
0.084112
 10
2.709249
 20
4.932232
 42
0.091328
 10
2.712285
 20
4.931017
 42
0.103811
 10
2.715479
 20
4.931043
 42
0.114769
  0
LWPOLYLINE
  5
468
330
18
100
AcDbEntity
  8
0
100
AcDbPolyline
 90
       16
 70
     1
 43
0.0
 10
2.621811
 20
4.902185
 42
0.114769
 10
2.62361
 20
4.904455000000001
 42
0.103811
 10
2.624352
 20
4.907562
 42
0.091328
 10
2.62385
 20
4.910792
 42
0.084112
 10
2.622136
 20
4.913896
 42
0.084112
 10
2.619496
 20
4.916263
 42
0.091328
 10
2.616461
 20
4.917478
 42
0.103811
 10
2.613267
 20
4.917452
 42
0.114769
 10
2.610651
 20
4.916208
 42
0.114769
 10
2.608852
 20
4.913939
 42
0.103811
 10
2.60811
 20
4.910832
 42
0.091328
 10
2.608612
 20
4.907601000000001
 42
0.084112
 10
2.610326
 20
4.904497
 42
0.084112
 10
2.612966
 20
4.902131
 42
0.091328
 10
2.616001
 20
4.900916000000001
 42
0.103811
 10
2.619195
 20
4.900942
 42
0.114769
  0
LWPOLYLINE
  5
47B
330
18
100
AcDbEntity
  8
0
100
AcDbPolyline
 90
       16
 70
     1
 43
0.0
 10
2.665909
 20
4.861125
 42
0.114769
 10
2.667708
 20
4.863395
 42
0.103811
 10
2.66845
 20
4.866502
 42
0.091328
 10
2.667948
 20
4.869732
 42
0.084112
 10
2.666234
 20
4.872836
 42
0.084112
 10
2.663594
 20
4.875203
 42
0.091328
 10
2.660559
 20
4.876418
 42
0.103811
 10
2.657365
 20
4.876392
 42
0.114769
 10
2.654749
 20
4.875149
 42
0.114769
 10
2.652951
 20
4.872879
 42
0.103811
 10
2.652208
 20
4.869772
 42
0.091328
 10
2.652711
 20
4.866541000000001
 42
0.084112
 10
2.654424
 20
4.863437
 42
0.084112
 10
2.657064
 20
4.861071
 42
0.091328
 10
2.660099
 20
4.859856
 42
0.103811
 10
2.663293
 20
4.859882
 42
0.114769
  0
LWPOLYLINE
  5
48E
330
18
100
AcDbEntity
  8
0
100
AcDbPolyline
 90
       16
 70
     1
 43
0.0
 10
2.712842
 20
4.808703
 42
0.114769
 10
2.714641
 20
4.810973000000001
 42
0.103811
 10
2.715384
 20
4.814080000000001
 42
0.091328
 10
2.714881
 20
4.81731
 42
0.084112
 10
2.713168
 20
4.820414
 42
0.084112
 10
2.710528
 20
4.822780000000001
 42
0.091328
 10
2.707493
 20
4.823996
 42
0.103811
 10
2.704298
 20
4.823969
 42
0.114769
 10
2.701683
 20
4.822726
 42
0.114769
 10
2.699884
 20
4.820456
 42
0.103811
 10
2.699141
 20
4.817349
 42
0.091328
 10
2.699644
 20
4.814119
 42
0.084112
 10
2.701357
 20
4.811015
 42
0.084112
 10
2.703997
 20
4.808649
 42
0.091328
 10
2.707032
 20
4.807433000000001
 42
0.103811
 10
2.710226
 20
4.80746
 42
0.114769
  0
LWPOLYLINE
  5
4A1
330
18
100
AcDbEntity
  8
0
100
AcDbPolyline
 90
       16
 70
     1
 43
0.0
 10
2.621011
 20
4.780943
 42
0.114769
 10
2.62281
 20
4.783213
 42
0.103811
 10
2.623552
 20
4.786319000000001
 42
0.091328
 10
2.62305
 20
4.78955
 42
0.084112
 10
2.621336
 20
4.792654
 42
0.084112
 10
2.618696
 20
4.79502
 42
0.091328
 10
2.615661
 20
4.796235
 42
0.103811
 10
2.612467
 20
4.796208999999999
 42
0.114769
 10
2.609851
 20
4.794966000000001
 42
0.114769
 10
2.608053
 20
4.792696
 42
0.103811
 10
2.60731
 20
4.789589
 42
0.091328
 10
2.607812
 20
4.786359
 42
0.084112
 10
2.609526
 20
4.783255000000001
 42
0.084112
 10
2.612166
 20
4.780889
 42
0.091328
 10
2.615201
 20
4.779673000000001
 42
0.103811
 10
2.618395
 20
4.7797
 42
0.114769
  0
LWPOLYLINE
  5
4B4
330
18
100
AcDbEntity
  8
0
100
AcDbPolyline
 90
       16
 70
     1
 43
0.0
 10
2.588275
 20
6.327536
 42
0.129307
 10
2.584436
 20
6.327988
 42
0.106376
 10
2.580049
 20
6.326376
 42
0.084639
 10
2.57643
 20
6.323119
 42
0.073824
 10
2.573652
 20
6.318288
 42
0.073824
 10
2.572398
 20
6.312858
 42
0.084639
 10
2.572833
 20
6.308008
 42
0.106376
 10
2.57495
 20
6.303842
 42
0.129307
 10
2.57807
 20
6.30156
 42
0.129307
 10
2.581909
 20
6.301108
 42
0.106376
 10
2.586296
 20
6.302719000000001
 42
0.084639
 10
2.589915
 20
6.305976
 42
0.073824
 10
2.592692
 20
6.310808
 42
0.073824
 10
2.593946
 20
6.316237999999999
 42
0.084639
 10
2.593512
 20
6.321087
 42
0.106376
 10
2.591395
 20
6.325254
 42
0.129307
  0
LWPOLYLINE
  5
4C7
330
18
100
AcDbEntity
  8
0
100
AcDbPolyline
 90
       16
 70
     1
 43
0.0
 10
2.61197
 20
6.423992
 42
0.129307
 10
2.608131
 20
6.424444
 42
0.106376
 10
2.603744
 20
6.422833
 42
0.084639
 10
2.600125
 20
6.419575
 42
0.073824
 10
2.597348
 20
6.414744000000001
 42
0.073824
 10
2.596094
 20
6.409314
 42
0.084639
 10
2.596528
 20
6.404465
 42
0.106376
 10
2.598645
 20
6.400298
 42
0.129307
 10
2.601765
 20
6.398016
 42
0.129307
 10
2.605604
 20
6.397564
 42
0.106376
 10
2.609991
 20
6.399175
 42
0.084639
 10
2.61361
 20
6.402433
 42
0.073824
 10
2.616388
 20
6.407264
 42
0.073824
 10
2.617641
 20
6.412694
 42
0.084639
 10
2.617207
 20
6.417543
 42
0.106376
 10
2.61509
 20
6.42171
 42
0.129307
  0
LINE
  5
4DA
330
18
100
AcDbEntity
  8
0
100
AcDbLine
 10
2.895088
 20
5.417046
 30
0.0
 11
2.90606
 21
5.386657
 31
0.0
  0
LINE
  5
4DB
330
18
100
AcDbEntity
  8
0
100
AcDbLine
 10
2.90606
 20
5.386657
 30
0.0
 11
2.883557
 21
5.394762999999999
 31
0.0
  0
LINE
  5
4DC
330
18
100
AcDbEntity
  8
0
100
AcDbLine
 10
2.883557
 20
5.394762999999999
 30
0.0
 11
2.895088
 21
5.417046
 31
0.0
  0
LINE
  5
4DD
330
18
100
AcDbEntity
  8
0
100
AcDbLine
 10
2.787879
 20
5.472382
 30
0.0
 11
2.79995
 21
5.451052
 31
0.0
  0
LINE
  5
4DE
330
18
100
AcDbEntity
  8
0
100
AcDbLine
 10
2.777682
 20
5.459074
 30
0.0
 11
2.787879
 21
5.472382
 31
0.0
  0
LINE
  5
4DF
330
18
100
AcDbEntity
  8
0
100
AcDbLine
 10
2.837793
 20
5.512933
 30
0.0
 11
2.848635
 21
5.491472
 31
0.0
  0
LINE
  5
4E0
330
18
100
AcDbEntity
  8
0
100
AcDbLine
 10
2.829461
 20
5.498379
 30
0.0
 11
2.837793
 21
5.512933
 31
0.0
  0
LINE
  5
4E1
330
18
100
AcDbEntity
  8
0
100
AcDbLine
 10
2.79995
 20
5.451052
 30
0.0
 11
2.777682
 21
5.459074
 31
0.0
  0
LINE
  5
4E2
330
18
100
AcDbEntity
  8
0
100
AcDbLine
 10
2.848635
 20
5.491472
 30
0.0
 11
2.829461
 21
5.498379
 31
0.0
  0
LINE
  5
4E3
330
18
100
AcDbEntity
  8
0
100
AcDbLine
 10
2.746814
 20
6.202684
 30
0.0
 11
2.744786
 21
6.173159
 31
0.0
  0
LINE
  5
4E4
330
18
100
AcDbEntity
  8
0
100
AcDbLine
 10
2.744786
 20
6.173159
 30
0.0
 11
2.771216
 21
6.169964
 31
0.0
  0
LINE
  5
4E5
330
18
100
AcDbEntity
  8
0
100
AcDbLine
 10
2.771216
 20
6.169964
 30
0.0
 11
2.746814
 21
6.202684
 31
0.0
  0
LINE
  5
4E6
330
18
100
AcDbEntity
  8
0
100
AcDbLine
 10
2.825698
 20
6.090529
 30
0.0
 11
2.806176
 21
6.116706
 31
0.0
  0
LINE
  5
4E7
330
18
100
AcDbEntity
  8
0
100
AcDbLine
 10
2.804554
 20
6.093084999999999
 30
0.0
 11
2.825698
 21
6.090529
 31
0.0
  0
LINE
  5
4E8
330
18
100
AcDbEntity
  8
0
100
AcDbLine
 10
2.806176
 20
6.116706
 30
0.0
 11
2.804554
 21
6.093084999999999
 31
0.0
  0
LINE
  5
4E9
330
18
100
AcDbEntity
  8
0
100
AcDbLine
 10
2.847398
 20
6.153797
 30
0.0
 11
2.845776
 21
6.130177
 31
0.0
  0
LINE
  5
4EA
330
18
100
AcDbEntity
  8
0
100
AcDbLine
 10
2.845776
 20
6.130177
 30
0.0
 11
2.86692
 21
6.127621
 31
0.0
  0
LINE
  5
4EB
330
18
100
AcDbEntity
  8
0
100
AcDbLine
 10
2.86692
 20
6.127621
 30
0.0
 11
2.847398
 21
6.153797
 31
0.0
  0
LINE
  5
4EC
330
18
100
AcDbEntity
  8
0
100
AcDbLine
 10
2.78166
 20
6.059333000000001
 30
0.0
 11
2.780038
 21
6.035712999999999
 31
0.0
  0
LINE
  5
4ED
330
18
100
AcDbEntity
  8
0
100
AcDbLine
 10
2.780038
 20
6.035712999999999
 30
0.0
 11
2.798708
 21
6.032037
 31
0.0
  0
LINE
  5
4EE
330
18
100
AcDbEntity
  8
0
100
AcDbLine
 10
2.798708
 20
6.032037
 30
0.0
 11
2.78166
 21
6.059333000000001
 31
0.0
  0
LINE
  5
4EF
330
18
100
AcDbEntity
  8
0
100
AcDbLine
 10
3.99032
 20
4.976209
 30
0.0
 11
3.99032
 21
2.984638
 31
0.0
  0
LWPOLYLINE
  5
4F0
330
18
100
AcDbEntity
  8
0
100
AcDbPolyline
 90
       16
 70
     1
 43
0.0
 10
3.92656
 20
5.200508
 42
0.121393
 10
3.923568
 20
5.198544
 42
0.105216
 10
3.921457
 20
5.195011
 42
0.088286
 10
3.92081
 20
5.190813
 42
0.079174
 10
3.921662
 20
5.186162
 42
0.079174
 10
3.923918
 20
5.182005
 42
0.088286
 10
3.927056
 20
5.179143
 42
0.105216
 10
3.930917
 20
5.177718
 42
0.121393
 10
3.93448
 20
5.178067
 42
0.121393
 10
3.937472
 20
5.180031
 42
0.105216
 10
3.939584
 20
5.183563
 42
0.088286
 10
3.940231
 20
5.187761
 42
0.079174
 10
3.939378
 20
5.192413
 42
0.079174
 10
3.937122
 20
5.19657
 42
0.088286
 10
3.933984
 20
5.199432
 42
0.105216
 10
3.930123000000001
 20
5.200857
 42
0.121393
  0
LWPOLYLINE
  5
503
330
18
100
AcDbEntity
  8
0
100
AcDbPolyline
 90
       16
 70
     1
 43
0.0
 10
4.063486
 20
5.066276
 42
0.121393
 10
4.061616000000001
 20
5.065049
 42
0.105216
 10
4.060296
 20
5.062841000000001
 42
0.088286
 10
4.059892
 20
5.060217
 42
0.079174
 10
4.060425
 20
5.05731
 42
0.079174
 10
4.061834999999999
 20
5.054712
 42
0.088286
 10
4.063796
 20
5.052923000000001
 42
0.105216
 10
4.066209
 20
5.052032
 42
0.121393
 10
4.068436
 20
5.05225
 42
0.121393
 10
4.070306
 20
5.053478
 42
0.105216
 10
4.071626
 20
5.055686
 42
0.088286
 10
4.072030000000001
 20
5.05831
 42
0.079174
 10
4.071497
 20
5.061217
 42
0.079174
 10
4.070087
 20
5.063815
 42
0.088286
 10
4.068126
 20
5.065604
 42
0.105216
 10
4.065713
 20
5.066494000000001
 42
0.121393
  0
LWPOLYLINE
  5
516
330
18
100
AcDbEntity
  8
0
100
AcDbPolyline
 90
       16
 70
     1
 43
0.0
 10
4.080611
 20
4.989642
 42
0.121393
 10
4.07874
 20
4.988414
 42
0.105216
 10
4.077421
 20
4.986207
 42
0.088286
 10
4.077017
 20
4.983583
 42
0.079174
 10
4.077548999999999
 20
4.980675
 42
0.079174
 10
4.078958999999999
 20
4.978078
 42
0.088286
 10
4.080921
 20
4.976289
 42
0.105216
 10
4.083334
 20
4.975398
 42
0.121393
 10
4.08556
 20
4.975616000000001
 42
0.121393
 10
4.087431
 20
4.976844
 42
0.105216
 10
4.08875
 20
4.979051999999999
 42
0.088286
 10
4.089155
 20
4.981675
 42
0.079174
 10
4.088622
 20
4.984583
 42
0.079174
 10
4.087212
 20
4.987181
 42
0.088286
 10
4.08525
 20
4.988969
 42
0.105216
 10
4.082838
 20
4.98986
 42
0.121393
  0
LWPOLYLINE
  5
529
330
18
100
AcDbEntity
  8
0
100
AcDbPolyline
 90
       16
 70
     1
 43
0.0
 10
4.066818
 20
4.937551
 42
0.121393
 10
4.065134
 20
4.936446
 42
0.105216
 10
4.063947
 20
4.934459
 42
0.088286
 10
4.063583
 20
4.932097
 42
0.079174
 10
4.064062
 20
4.929481
 42
0.079174
 10
4.065331
 20
4.927143
 42
0.088286
 10
4.067097
 20
4.925533000000001
 42
0.105216
 10
4.069268
 20
4.924731
 42
0.121393
 10
4.071272
 20
4.924926999999999
 42
0.121393
 10
4.072956
 20
4.926032
 42
0.105216
 10
4.074143
 20
4.928019
 42
0.088286
 10
4.074507
 20
4.930381
 42
0.079174
 10
4.074028
 20
4.932997
 42
0.079174
 10
4.072759
 20
4.935335
 42
0.088286
 10
4.070993
 20
4.936945
 42
0.105216
 10
4.068822
 20
4.937747
 42
0.121393
  0
LWPOLYLINE
  5
53C
330
18
100
AcDbEntity
  8
0
100
AcDbPolyline
 90
       16
 70
     1
 43
0.0
 10
4.070562000000001
 20
4.884908
 42
0.121393
 10
4.069047
 20
4.883913
 42
0.105216
 10
4.067978
 20
4.882125
 42
0.088286
 10
4.067651000000001
 20
4.88
 42
0.079174
 10
4.068082
 20
4.877644999999999
 42
0.079174
 10
4.069224
 20
4.875541
 42
0.088286
 10
4.070812999999999
 20
4.874092
 42
0.105216
 10
4.072768
 20
4.87337
 42
0.121393
 10
4.074571
 20
4.873547
 42
0.121393
 10
4.076086
 20
4.874541000000001
 42
0.105216
 10
4.077155
 20
4.87633
 42
0.088286
 10
4.077483
 20
4.878455000000001
 42
0.079174
 10
4.077051
 20
4.880809999999999
 42
0.079174
 10
4.075908999999999
 20
4.882914
 42
0.088286
 10
4.074319999999999
 20
4.884363
 42
0.105216
 10
4.072366000000001
 20
4.885085
 42
0.121393
  0
LWPOLYLINE
  5
54F
330
18
100
AcDbEntity
  8
0
100
AcDbPolyline
 90
       16
 70
     1
 43
0.0
 10
4.122443
 20
4.896083
 42
0.121393
 10
4.11975
 20
4.894315
 42
0.105216
 10
4.117849
 20
4.891136
 42
0.088286
 10
4.117267
 20
4.887358
 42
0.079174
 10
4.118034
 20
4.883171
 42
0.079174
 10
4.120065
 20
4.87943
 42
0.088286
 10
4.122889
 20
4.876854
 42
0.105216
 10
4.126364
 20
4.875572
 42
0.121393
 10
4.129569999999999
 20
4.875886
 42
0.121393
 10
4.132264
 20
4.877654
 42
0.105216
 10
4.134164
 20
4.880833
 42
0.088286
 10
4.134746
 20
4.884611000000001
 42
0.079174
 10
4.133979
 20
4.888798
 42
0.079174
 10
4.131949
 20
4.892539
 42
0.088286
 10
4.129124
 20
4.895115000000001
 42
0.105216
 10
4.125649
 20
4.896397
 42
0.121393
  0
LWPOLYLINE
  5
562
330
18
100
AcDbEntity
  8
0
100
AcDbPolyline
 90
       16
 70
     1
 43
0.0
 10
4.131269000000001
 20
4.941856
 42
0.121393
 10
4.129754
 20
4.940862
 42
0.105216
 10
4.128685
 20
4.939074
 42
0.088286
 10
4.128357
 20
4.936948
 42
0.079174
 10
4.128789
 20
4.934593000000001
 42
0.079174
 10
4.129931
 20
4.932489
 42
0.088286
 10
4.13152
 20
4.93104
 42
0.105216
 10
4.133474
 20
4.930319
 42
0.121393
 10
4.135278
 20
4.930495
 42
0.121393
 10
4.136793
 20
4.93149
 42
0.105216
 10
4.137862
 20
4.933278
 42
0.088286
 10
4.138189
 20
4.935403
 42
0.079174
 10
4.137758
 20
4.937758000000001
 42
0.079174
 10
4.136616
 20
4.939863
 42
0.088286
 10
4.135027
 20
4.941312
 42
0.105216
 10
4.133072
 20
4.942033
 42
0.121393
  0
LWPOLYLINE
  5
575
330
18
100
AcDbEntity
  8
0
100
AcDbPolyline
 90
       16
 70
     1
 43
0.0
 10
4.176794999999999
 20
4.855036
 42
0.121393
 10
4.17528
 20
4.854042
 42
0.105216
 10
4.174211
 20
4.852253
 42
0.088286
 10
4.173883999999999
 20
4.850128
 42
0.079174
 10
4.174315
 20
4.847773
 42
0.079174
 10
4.175457
 20
4.845669
 42
0.088286
 10
4.177046
 20
4.84422
 42
0.105216
 10
4.179001
 20
4.843498
 42
0.121393
 10
4.180804
 20
4.843675
 42
0.121393
 10
4.182319000000001
 20
4.844669000000001
 42
0.105216
 10
4.183388
 20
4.846458
 42
0.088286
 10
4.183716
 20
4.848583000000001
 42
0.079174
 10
4.183284
 20
4.850937999999999
 42
0.079174
 10
4.182142
 20
4.853041999999999
 42
0.088286
 10
4.180553
 20
4.854491
 42
0.105216
 10
4.178599
 20
4.855213
 42
0.121393
  0
LWPOLYLINE
  5
588
330
18
100
AcDbEntity
  8
0
100
AcDbPolyline
 90
       16
 70
     1
 43
0.0
 10
4.129184
 20
4.829437
 42
0.121393
 10
4.127669
 20
4.828443
 42
0.105216
 10
4.1266
 20
4.826654
 42
0.088286
 10
4.126273
 20
4.824529
 42
0.079174
 10
4.126704
 20
4.822174
 42
0.079174
 10
4.127846
 20
4.820069999999999
 42
0.088286
 10
4.129435
 20
4.818621
 42
0.105216
 10
4.131390000000001
 20
4.817899
 42
0.121393
 10
4.133193
 20
4.818076000000001
 42
0.121393
 10
4.134708
 20
4.81907
 42
0.105216
 10
4.135777
 20
4.820859
 42
0.088286
 10
4.136105000000001
 20
4.822984
 42
0.079174
 10
4.135673000000001
 20
4.825339
 42
0.079174
 10
4.134531
 20
4.827443
 42
0.088286
 10
4.132942
 20
4.828892
 42
0.105216
 10
4.130987999999999
 20
4.829614
 42
0.121393
  0
LWPOLYLINE
  5
59B
330
18
100
AcDbEntity
  8
0
100
AcDbPolyline
 90
       16
 70
     1
 43
0.0
 10
3.986577
 20
6.327363
 42
0.17213
 10
3.98555
 20
6.329621
 42
0.104656
 10
3.982231
 20
6.331865000000001
 42
0.065982
 10
3.978042
 20
6.332953
 42
0.052124
 10
3.972573
 20
6.333053
 42
0.052124
 10
3.967201
 20
6.332019
 42
0.065982
 10
3.96326
 20
6.33023
 42
0.104656
 10
3.960373
 20
6.327452
 42
0.17213
 10
3.959748
 20
6.325051
 42
0.17213
 10
3.960775
 20
6.322793
 42
0.104656
 10
3.964094
 20
6.320549
 42
0.065982
 10
3.968283
 20
6.319461
 42
0.052124
 10
3.973752
 20
6.319361
 42
0.052124
 10
3.979124
 20
6.320395
 42
0.065982
 10
3.983065
 20
6.322184
 42
0.104656
 10
3.985951
 20
6.324962
 42
0.17213
  0
LWPOLYLINE
  5
5AE
330
18
100
AcDbEntity
  8
0
100
AcDbPolyline
 90
       16
 70
     1
 43
0.0
 10
4.069936
 20
6.414612
 42
0.17213
 10
4.068909
 20
6.416871
 42
0.104656
 10
4.06559
 20
6.419114
 42
0.065982
 10
4.0614
 20
6.420203
 42
0.052124
 10
4.055931
 20
6.420302
 42
0.052124
 10
4.05056
 20
6.419269
 42
0.065982
 10
4.046618
 20
6.41748
 42
0.104656
 10
4.043732
 20
6.414701999999999
 42
0.17213
 10
4.043106
 20
6.412301
 42
0.17213
 10
4.044133
 20
6.410043
 42
0.104656
 10
4.047452
 20
6.407799
 42
0.065982
 10
4.051641
 20
6.406711000000001
 42
0.052124
 10
4.057111
 20
6.406611
 42
0.052124
 10
4.062482
 20
6.407645
 42
0.065982
 10
4.066423
 20
6.409433
 42
0.104656
 10
4.06931
 20
6.412212
 42
0.17213
  0
CIRCLE
  5
5C1
330
18
100
AcDbEntity
  8
0
100
AcDbCircle
 10
4.259614
 20
6.368829
 30
0.0
 40
0.005409
  0
CIRCLE
  5
5C2
330
18
100
AcDbEntity
  8
0
100
AcDbCircle
 10
4.170371
 20
6.345744
 30
0.0
 40
0.005409
  0
CIRCLE
  5
5C3
330
18
100
AcDbEntity
  8
0
100
AcDbCircle
 10
4.185638
 20
6.403867
 30
0.0
 40
0.005409
  0
CIRCLE
  5
5C4
330
18
100
AcDbEntity
  8
0
100
AcDbCircle
 10
4.272865
 20
6.423945
 30
0.0
 40
0.005409
  0
CIRCLE
  5
5C5
330
18
100
AcDbEntity
  8
0
100
AcDbCircle
 10
4.332780000000001
 20
6.379882
 30
0.0
 40
0.008438
  0
CIRCLE
  5
5C6
330
18
100
AcDbEntity
  8
0
100
AcDbCircle
 10
4.386358
 20
6.422329
 30
0.0
 40
0.004327
  0
CIRCLE
  5
5C7
330
18
100
AcDbEntity
  8
0
100
AcDbCircle
 10
4.395796
 20
6.356193
 30
0.0
 40
0.004327
  0
TEXT
  5
5C8
330
18
100
AcDbEntity
  8
0
100
AcDbText
 10
2.352774
 20
2.881803
 30
0.0
 40
0.2
  1
H15
 72
     1
 11
2.652774
 21
2.881803
 31
0.0
100
AcDbText
  0
TEXT
  5
5C9
330
18
100
AcDbEntity
  8
0
100
AcDbText
 10
3.763312095238095
 20
2.444281
 30
0.0
 40
0.2
  1
H7
 72
     1
 11
3.968074
 21
2.444281
 31
0.0
100
AcDbText
  0
TEXT
  5
5CA
330
18
100
AcDbEntity
  8
0
100
AcDbText
 10
5.476264095238095
 20
1.997606
 30
0.0
 40
0.2
  1
H2
 72
     1
 11
5.681026
 21
1.997606
 31
0.0
100
AcDbText
  0
TEXT
  5
5CB
330
18
100
AcDbEntity
  8
0
100
AcDbText
 10
1.648915
 20
1.801973
 30
0.0
 40
0.2
  1
Simpson Strong-Tie
100
AcDbText
  0
TEXT
  5
5CC
330
18
100
AcDbEntity
  8
0
100
AcDbText
 10
1.648915
 20
1.478164
 30
0.0
 40
0.2
  1
Top Plate to Stud
100
AcDbText
  0
LINE
  5
5CD
330
18
100
AcDbEntity
  8
0
 62
     0
100
AcDbLine
 10
5.665682
 20
5.626
 30
0.0
 11
5.670843
 21
5.626
 31
0.0
  0
LINE
  5
5CE
330
18
100
AcDbEntity
  8
0
 62
     0
100
AcDbLine
 10
5.664034
 20
5.627000000000001
 30
0.0
 11
5.672623000000001
 21
5.627000000000001
 31
0.0
  0
LINE
  5
5CF
330
18
100
AcDbEntity
  8
0
 62
     0
100
AcDbLine
 10
5.663024
 20
5.627999999999999
 30
0.0
 11
5.673741000000001
 21
5.627999999999999
 31
0.0
  0
LINE
  5
5D0
330
18
100
AcDbEntity
  8
0
 62
     0
100
AcDbLine
 10
5.662313
 20
5.629
 30
0.0
 11
5.67455
 21
5.629
 31
0.0
  0
LINE
  5
5D1
330
18
100
AcDbEntity
  8
0
 62
     0
100
AcDbLine
 10
5.661805
 20
5.63
 30
0.0
 11
5.675153
 21
5.63
 31
0.0
  0
LINE
  5
5D2
330
18
100
AcDbEntity
  8
0
 62
     0
100
AcDbLine
 10
5.661446
 20
5.631
 30
0.0
 11
5.67561
 21
5.631
 31
0.0
  0
LINE
  5
5D3
330
18
100
AcDbEntity
  8
0
 62
     0
100
AcDbLine
 10
5.661219
 20
5.632000000000001
 30
0.0
 11
5.675941000000001
 21
5.632000000000001
 31
0.0
  0
LINE
  5
5D4
330
18
100
AcDbEntity
  8
0
 62
     0
100
AcDbLine
 10
5.661108000000001
 20
5.632999999999999
 30
0.0
 11
5.676159999999999
 21
5.632999999999999
 31
0.0
  0
LINE
  5
5D5
330
18
100
AcDbEntity
  8
0
 62
     0
100
AcDbLine
 10
5.661099
 20
5.634
 30
0.0
 11
5.676273
 21
5.634
 31
0.0
  0
LINE
  5
5D6
330
18
100
AcDbEntity
  8
0
 62
     0
100
AcDbLine
 10
5.661191000000001
 20
5.635
 30
0.0
 11
5.676286
 21
5.635
 31
0.0
  0
LINE
  5
5D7
330
18
100
AcDbEntity
  8
0
 62
     0
100
AcDbLine
 10
5.661388
 20
5.636
 30
0.0
 11
5.676197
 21
5.636
 31
0.0
  0
LINE
  5
5D8
330
18
100
AcDbEntity
  8
0
 62
     0
100
AcDbLine
 10
5.661694000000001
 20
5.637000000000001
 30
0.0
 11
5.675995
 21
5.637000000000001
 31
0.0
  0
LINE
  5
5D9
330
18
100
AcDbEntity
  8
0
 62
     0
100
AcDbLine
 10
5.662123
 20
5.638
 30
0.0
 11
5.675665
 21
5.638
 31
0.0
  0
LINE
  5
5DA
330
18
100
AcDbEntity
  8
0
 62
     0
100
AcDbLine
 10
5.662693
 20
5.638999999999999
 30
0.0
 11
5.675191000000001
 21
5.638999999999999
 31
0.0
  0
LINE
  5
5DB
330
18
100
AcDbEntity
  8
0
 62
     0
100
AcDbLine
 10
5.663452
 20
5.64
 30
0.0
 11
5.674529
 21
5.64
 31
0.0
  0
LINE
  5
5DC
330
18
100
AcDbEntity
  8
0
 62
     0
100
AcDbLine
 10
5.664492
 20
5.641
 30
0.0
 11
5.673593
 21
5.641
 31
0.0
  0
LINE
  5
5DD
330
18
100
AcDbEntity
  8
0
 62
     0
100
AcDbLine
 10
5.666062
 20
5.642
 30
0.0
 11
5.67215
 21
5.642
 31
0.0
  0
LINE
  5
5DE
330
18
100
AcDbEntity
  8
0
 62
     0
100
AcDbLine
 10
5.713602
 20
5.661000000000001
 30
0.0
 11
5.719308
 21
5.661000000000001
 31
0.0
  0
LINE
  5
5DF
330
18
100
AcDbEntity
  8
0
 62
     0
100
AcDbLine
 10
5.712078
 20
5.662000000000001
 30
0.0
 11
5.720961
 21
5.662000000000001
 31
0.0
  0
LINE
  5
5E0
330
18
100
AcDbEntity
  8
0
 62
     0
100
AcDbLine
 10
5.711111
 20
5.662999999999999
 30
0.0
 11
5.722033000000001
 21
5.662999999999999
 31
0.0
  0
LINE
  5
5E1
330
18
100
AcDbEntity
  8
0
 62
     0
100
AcDbLine
 10
5.710426999999999
 20
5.664
 30
0.0
 11
5.722814
 21
5.664
 31
0.0
  0
LINE
  5
5E2
330
18
100
AcDbEntity
  8
0
 62
     0
100
AcDbLine
 10
5.709939
 20
5.665
 30
0.0
 11
5.723398
 21
5.665
 31
0.0
  0
LINE
  5
5E3
330
18
100
AcDbEntity
  8
0
 62
     0
100
AcDbLine
 10
5.709597000000001
 20
5.666
 30
0.0
 11
5.723839
 21
5.666
 31
0.0
  0
LINE
  5
5E4
330
18
100
AcDbEntity
  8
0
 62
     0
100
AcDbLine
 10
5.709384
 20
5.667000000000001
 30
0.0
 11
5.724156
 21
5.667000000000001
 31
0.0
  0
LINE
  5
5E5
330
18
100
AcDbEntity
  8
0
 62
     0
100
AcDbLine
 10
5.709285
 20
5.667999999999999
 30
0.0
 11
5.724362
 21
5.667999999999999
 31
0.0
  0
LINE
  5
5E6
330
18
100
AcDbEntity
  8
0
 62
     0
100
AcDbLine
 10
5.709288
 20
5.669
 30
0.0
 11
5.724464
 21
5.669
 31
0.0
  0
LINE
  5
5E7
330
18
100
AcDbEntity
  8
0
 62
     0
100
AcDbLine
 10
5.709393
 20
5.67
 30
0.0
 11
5.724464
 21
5.67
 31
0.0
  0
LINE
  5
5E8
330
18
100
AcDbEntity
  8
0
 62
     0
100
AcDbLine
 10
5.709601999999999
 20
5.671
 30
0.0
 11
5.724362999999999
 21
5.671
 31
0.0
  0
LINE
  5
5E9
330
18
100
AcDbEntity
  8
0
 62
     0
100
AcDbLine
 10
5.709922
 20
5.672000000000001
 30
0.0
 11
5.724147
 21
5.672000000000001
 31
0.0
  0
LINE
  5
5EA
330
18
100
AcDbEntity
  8
0
 62
     0
100
AcDbLine
 10
5.710366000000001
 20
5.672999999999999
 30
0.0
 11
5.723801
 21
5.672999999999999
 31
0.0
  0
LINE
  5
5EB
330
18
100
AcDbEntity
  8
0
 62
     0
100
AcDbLine
 10
5.710955
 20
5.674
 30
0.0
 11
5.723308
 21
5.674
 31
0.0
  0
LINE
  5
5EC
330
18
100
AcDbEntity
  8
0
 62
     0
100
AcDbLine
 10
5.711742
 20
5.675
 30
0.0
 11
5.722618
 21
5.675
 31
0.0
  0
LINE
  5
5ED
330
18
100
AcDbEntity
  8
0
 62
     0
100
AcDbLine
 10
5.712824
 20
5.676
 30
0.0
 11
5.721642
 21
5.676
 31
0.0
  0
LINE
  5
5EE
330
18
100
AcDbEntity
  8
0
 62
     0
100
AcDbLine
 10
5.714505
 20
5.677000000000001
 30
0.0
 11
5.720091
 21
5.677000000000001
 31
0.0
  0
LINE
  5
5EF
330
18
100
AcDbEntity
  8
0
 62
     0
100
AcDbLine
 10
5.714939
 20
5.596450986364955
 30
0.0
 11
5.719876
 21
5.596450986364955
 31
0.0
  0
LINE
  5
5F0
330
18
100
AcDbEntity
  8
0
 62
     0
100
AcDbLine
 10
5.713103
 20
5.595450986364955
 30
0.0
 11
5.721577
 21
5.595450986364955
 31
0.0
  0
LINE
  5
5F1
330
18
100
AcDbEntity
  8
0
 62
     0
100
AcDbLine
 10
5.711968
 20
5.594450986364954
 30
0.0
 11
5.722605000000001
 21
5.594450986364954
 31
0.0
  0
LINE
  5
5F2
330
18
100
AcDbEntity
  8
0
 62
     0
100
AcDbLine
 10
5.711148000000001
 20
5.593450986364956
 30
0.0
 11
5.723326999999999
 21
5.593450986364956
 31
0.0
  0
LINE
  5
5F3
330
18
100
AcDbEntity
  8
0
 62
     0
100
AcDbLine
 10
5.710537
 20
5.592450986364955
 30
0.0
 11
5.723843000000001
 21
5.592450986364955
 31
0.0
  0
LINE
  5
5F4
330
18
100
AcDbEntity
  8
0
 62
     0
100
AcDbLine
 10
5.710075
 20
5.591450986364955
 30
0.0
 11
5.724207
 21
5.591450986364955
 31
0.0
  0
LINE
  5
5F5
330
18
100
AcDbEntity
  8
0
 62
     0
100
AcDbLine
 10
5.709738
 20
5.590450986364955
 30
0.0
 11
5.724441000000001
 21
5.590450986364955
 31
0.0
  0
LINE
  5
5F6
330
18
100
AcDbEntity
  8
0
 62
     0
100
AcDbLine
 10
5.709515000000001
 20
5.589450986364954
 30
0.0
 11
5.724556
 21
5.589450986364954
 31
0.0
  0
LINE
  5
5F7
330
18
100
AcDbEntity
  8
0
 62
     0
100
AcDbLine
 10
5.709396
 20
5.588450986364956
 30
0.0
 11
5.72457
 21
5.588450986364956
 31
0.0
  0
LINE
  5
5F8
330
18
100
AcDbEntity
  8
0
 62
     0
100
AcDbLine
 10
5.709379
 20
5.587450986364956
 30
0.0
 11
5.724482
 21
5.587450986364956
 31
0.0
  0
LINE
  5
5F9
330
18
100
AcDbEntity
  8
0
 62
     0
100
AcDbLine
 10
5.709464
 20
5.586450986364955
 30
0.0
 11
5.72429
 21
5.586450986364955
 31
0.0
  0
LINE
  5
5FA
330
18
100
AcDbEntity
  8
0
 62
     0
100
AcDbLine
 10
5.70966
 20
5.585450986364955
 30
0.0
 11
5.723989
 21
5.585450986364955
 31
0.0
  0
LINE
  5
5FB
330
18
100
AcDbEntity
  8
0
 62
     0
100
AcDbLine
 10
5.709984
 20
5.584450986364955
 30
0.0
 11
5.723566
 21
5.584450986364955
 31
0.0
  0
LINE
  5
5FC
330
18
100
AcDbEntity
  8
0
 62
     0
100
AcDbLine
 10
5.710451
 20
5.583450986364956
 30
0.0
 11
5.723003
 21
5.583450986364956
 31
0.0
  0
LINE
  5
5FD
330
18
100
AcDbEntity
  8
0
 62
     0
100
AcDbLine
 10
5.711103
 20
5.582450986364956
 30
0.0
 11
5.722254
 21
5.582450986364956
 31
0.0
  0
LINE
  5
5FE
330
18
100
AcDbEntity
  8
0
 62
     0
100
AcDbLine
 10
5.712024
 20
5.581450986364955
 30
0.0
 11
5.721229
 21
5.581450986364955
 31
0.0
  0
LINE
  5
5FF
330
18
100
AcDbEntity
  8
0
 62
     0
100
AcDbLine
 10
5.713431
 20
5.580450986364955
 30
0.0
 11
5.719696
 21
5.580450986364955
 31
0.0
  0
LINE
  5
600
330
18
100
AcDbEntity
  8
0
 62
     0
100
AcDbLine
 10
5.667708
 20
5.563450986364956
 30
0.0
 11
5.670441
 21
5.563450986364956
 31
0.0
  0
LINE
  5
601
330
18
100
AcDbEntity
  8
0
 62
     0
100
AcDbLine
 10
5.66524
 20
5.562450986364955
 30
0.0
 11
5.672785
 21
5.562450986364955
 31
0.0
  0
LINE
  5
602
330
18
100
AcDbEntity
  8
0
 62
     0
100
AcDbLine
 10
5.663952
 20
5.561450986364955
 30
0.0
 11
5.673958
 21
5.561450986364955
 31
0.0
  0
LINE
  5
603
330
18
100
AcDbEntity
  8
0
 62
     0
100
AcDbLine
 10
5.663043
 20
5.560450986364955
 30
0.0
 11
5.674766
 21
5.560450986364955
 31
0.0
  0
LINE
  5
604
330
18
100
AcDbEntity
  8
0
 62
     0
100
AcDbLine
 10
5.662371
 20
5.559450986364955
 30
0.0
 11
5.675342
 21
5.559450986364955
 31
0.0
  0
LINE
  5
605
330
18
100
AcDbEntity
  8
0
 62
     0
100
AcDbLine
 10
5.661862999999999
 20
5.558450986364956
 30
0.0
 11
5.675753
 21
5.558450986364956
 31
0.0
  0
LINE
  5
606
330
18
100
AcDbEntity
  8
0
 62
     0
100
AcDbLine
 10
5.661487
 20
5.557450986364955
 30
0.0
 11
5.676028
 21
5.557450986364955
 31
0.0
  0
LINE
  5
607
330
18
100
AcDbEntity
  8
0
 62
     0
100
AcDbLine
 10
5.661226999999999
 20
5.556450986364955
 30
0.0
 11
5.676181
 21
5.556450986364955
 31
0.0
  0
LINE
  5
608
330
18
100
AcDbEntity
  8
0
 62
     0
100
AcDbLine
 10
5.661075
 20
5.555450986364955
 30
0.0
 11
5.676227
 21
5.555450986364955
 31
0.0
  0
LINE
  5
609
330
18
100
AcDbEntity
  8
0
 62
     0
100
AcDbLine
 10
5.661025
 20
5.554450986364954
 30
0.0
 11
5.676173
 21
5.554450986364954
 31
0.0
  0
LINE
  5
60A
330
18
100
AcDbEntity
  8
0
 62
     0
100
AcDbLine
 10
5.661076
 20
5.553450986364956
 30
0.0
 11
5.676016000000001
 21
5.553450986364956
 31
0.0
  0
LINE
  5
60B
330
18
100
AcDbEntity
  8
0
 62
     0
100
AcDbLine
 10
5.661233
 20
5.552450986364955
 30
0.0
 11
5.675751999999999
 21
5.552450986364955
 31
0.0
  0
LINE
  5
60C
330
18
100
AcDbEntity
  8
0
 62
     0
100
AcDbLine
 10
5.661512999999999
 20
5.551450986364955
 30
0.0
 11
5.675371
 21
5.551450986364955
 31
0.0
  0
LINE
  5
60D
330
18
100
AcDbEntity
  8
0
 62
     0
100
AcDbLine
 10
5.66193
 20
5.550450986364955
 30
0.0
 11
5.674857
 21
5.550450986364955
 31
0.0
  0
LINE
  5
60E
330
18
100
AcDbEntity
  8
0
 62
     0
100
AcDbLine
 10
5.662514
 20
5.549450986364954
 30
0.0
 11
5.674176999999999
 21
5.549450986364954
 31
0.0
  0
LINE
  5
60F
330
18
100
AcDbEntity
  8
0
 62
     0
100
AcDbLine
 10
5.663334
 20
5.548450986364956
 30
0.0
 11
5.673257
 21
5.548450986364956
 31
0.0
  0
LINE
  5
610
330
18
100
AcDbEntity
  8
0
 62
     0
100
AcDbLine
 10
5.664529
 20
5.547450986364956
 30
0.0
 11
5.671946
 21
5.547450986364956
 31
0.0
  0
LINE
  5
611
330
18
100
AcDbEntity
  8
0
 62
     0
100
AcDbLine
 10
5.667022
 20
5.546450986364955
 30
0.0
 11
5.669333999999999
 21
5.546450986364955
 31
0.0
  0
LINE
  5
612
330
18
100
AcDbEntity
  8
0
 62
     0
100
AcDbLine
 10
5.666757
 20
4.797524846793428
 30
0.0
 11
5.669785
 21
4.797524846793428
 31
0.0
  0
LINE
  5
613
330
18
100
AcDbEntity
  8
0
 62
     0
100
AcDbLine
 10
5.664318
 20
4.798524846793428
 30
0.0
 11
5.672347
 21
4.798524846793428
 31
0.0
  0
LINE
  5
614
330
18
100
AcDbEntity
  8
0
 62
     0
100
AcDbLine
 10
5.663067
 20
4.799524846793427
 30
0.0
 11
5.673718
 21
4.799524846793427
 31
0.0
  0
LINE
  5
615
330
18
100
AcDbEntity
  8
0
 62
     0
100
AcDbLine
 10
5.662186
 20
4.800524846793428
 30
0.0
 11
5.674701
 21
4.800524846793428
 31
0.0
  0
LINE
  5
616
330
18
100
AcDbEntity
  8
0
 62
     0
100
AcDbLine
 10
5.661538
 20
4.801524846793428
 30
0.0
 11
5.675446
 21
4.801524846793428
 31
0.0
  0
LINE
  5
617
330
18
100
AcDbEntity
  8
0
 62
     0
100
AcDbLine
 10
5.661059
 20
4.802524846793427
 30
0.0
 11
5.676019999999999
 21
4.802524846793427
 31
0.0
  0
LINE
  5
618
330
18
100
AcDbEntity
  8
0
 62
     0
100
AcDbLine
 10
5.660711
 20
4.803524846793428
 30
0.0
 11
5.676467
 21
4.803524846793428
 31
0.0
  0
LINE
  5
619
330
18
100
AcDbEntity
  8
0
 62
     0
100
AcDbLine
 10
5.660480000000001
 20
4.804524846793428
 30
0.0
 11
5.676801
 21
4.804524846793428
 31
0.0
  0
LINE
  5
61A
330
18
100
AcDbEntity
  8
0
 62
     0
100
AcDbLine
 10
5.660356
 20
4.805524846793428
 30
0.0
 11
5.677033
 21
4.805524846793428
 31
0.0
  0
LINE
  5
61B
330
18
100
AcDbEntity
  8
0
 62
     0
100
AcDbLine
 10
5.660325
 20
4.806524846793428
 30
0.0
 11
5.677169999999999
 21
4.806524846793428
 31
0.0
  0
LINE
  5
61C
330
18
100
AcDbEntity
  8
0
 62
     0
100
AcDbLine
 10
5.660384
 20
4.807524846793428
 30
0.0
 11
5.677215
 21
4.807524846793428
 31
0.0
  0
LINE
  5
61D
330
18
100
AcDbEntity
  8
0
 62
     0
100
AcDbLine
 10
5.660534999999999
 20
4.808524846793428
 30
0.0
 11
5.677169999999999
 21
4.808524846793428
 31
0.0
  0
LINE
  5
61E
330
18
100
AcDbEntity
  8
0
 62
     0
100
AcDbLine
 10
5.660783
 20
4.809524846793428
 30
0.0
 11
5.67703
 21
4.809524846793428
 31
0.0
  0
LINE
  5
61F
330
18
100
AcDbEntity
  8
0
 62
     0
100
AcDbLine
 10
5.661133
 20
4.810524846793428
 30
0.0
 11
5.676782
 21
4.810524846793428
 31
0.0
  0
LINE
  5
620
330
18
100
AcDbEntity
  8
0
 62
     0
100
AcDbLine
 10
5.661598000000001
 20
4.811524846793428
 30
0.0
 11
5.676414
 21
4.811524846793428
 31
0.0
  0
LINE
  5
621
330
18
100
AcDbEntity
  8
0
 62
     0
100
AcDbLine
 10
5.662196
 20
4.812524846793428
 30
0.0
 11
5.675913
 21
4.812524846793428
 31
0.0
  0
LINE
  5
622
330
18
100
AcDbEntity
  8
0
 62
     0
100
AcDbLine
 10
5.662972
 20
4.813524846793428
 30
0.0
 11
5.675234
 21
4.813524846793428
 31
0.0
  0
LINE
  5
623
330
18
100
AcDbEntity
  8
0
 62
     0
100
AcDbLine
 10
5.664001
 20
4.814524846793428
 30
0.0
 11
5.674308
 21
4.814524846793428
 31
0.0
  0
LINE
  5
624
330
18
100
AcDbEntity
  8
0
 62
     0
100
AcDbLine
 10
5.665465
 20
4.815524846793428
 30
0.0
 11
5.672967
 21
4.815524846793428
 31
0.0
  0
LINE
  5
625
330
18
100
AcDbEntity
  8
0
 62
     0
100
AcDbLine
 10
5.669051000000001
 20
4.816524846793429
 30
0.0
 11
5.669484
 21
4.816524846793429
 31
0.0
  0
LINE
  5
626
330
18
100
AcDbEntity
  8
0
 62
     0
100
AcDbLine
 10
5.714236
 20
4.829524846793428
 30
0.0
 11
5.718629
 21
4.829524846793428
 31
0.0
  0
LINE
  5
627
330
18
100
AcDbEntity
  8
0
 62
     0
100
AcDbLine
 10
5.712211
 20
4.830524846793428
 30
0.0
 11
5.72079
 21
4.830524846793428
 31
0.0
  0
LINE
  5
628
330
18
100
AcDbEntity
  8
0
 62
     0
100
AcDbLine
 10
5.711046
 20
4.831524846793428
 30
0.0
 11
5.72207
 21
4.831524846793428
 31
0.0
  0
LINE
  5
629
330
18
100
AcDbEntity
  8
0
 62
     0
100
AcDbLine
 10
5.710212
 20
4.832524846793428
 30
0.0
 11
5.723004
 21
4.832524846793428
 31
0.0
  0
LINE
  5
62A
330
18
100
AcDbEntity
  8
0
 62
     0
100
AcDbLine
 10
5.709599
 20
4.833524846793428
 30
0.0
 11
5.723714
 21
4.833524846793428
 31
0.0
  0
LINE
  5
62B
330
18
100
AcDbEntity
  8
0
 62
     0
100
AcDbLine
 10
5.709144
 20
4.834524846793427
 30
0.0
 11
5.724264
 21
4.834524846793427
 31
0.0
  0
LINE
  5
62C
330
18
100
AcDbEntity
  8
0
 62
     0
100
AcDbLine
 10
5.708818
 20
4.835524846793428
 30
0.0
 11
5.72469
 21
4.835524846793428
 31
0.0
  0
LINE
  5
62D
330
18
100
AcDbEntity
  8
0
 62
     0
100
AcDbLine
 10
5.708607
 20
4.836524846793428
 30
0.0
 11
5.725005
 21
4.836524846793428
 31
0.0
  0
LINE
  5
62E
330
18
100
AcDbEntity
  8
0
 62
     0
100
AcDbLine
 10
5.7085
 20
4.837524846793428
 30
0.0
 11
5.725219999999999
 21
4.837524846793428
 31
0.0
  0
LINE
  5
62F
330
18
100
AcDbEntity
  8
0
 62
     0
100
AcDbLine
 10
5.708483999999999
 20
4.838524846793428
 30
0.0
 11
5.725341
 21
4.838524846793428
 31
0.0
  0
LINE
  5
630
330
18
100
AcDbEntity
  8
0
 62
     0
100
AcDbLine
 10
5.708559999999999
 20
4.839524846793427
 30
0.0
 11
5.72537
 21
4.839524846793427
 31
0.0
  0
LINE
  5
631
330
18
100
AcDbEntity
  8
0
 62
     0
100
AcDbLine
 10
5.708728
 20
4.840524846793428
 30
0.0
 11
5.725308
 21
4.840524846793428
 31
0.0
  0
LINE
  5
632
330
18
100
AcDbEntity
  8
0
 62
     0
100
AcDbLine
 10
5.708993
 20
4.841524846793428
 30
0.0
 11
5.72515
 21
4.841524846793428
 31
0.0
  0
LINE
  5
633
330
18
100
AcDbEntity
  8
0
 62
     0
100
AcDbLine
 10
5.709363
 20
4.842524846793427
 30
0.0
 11
5.724882
 21
4.842524846793427
 31
0.0
  0
LINE
  5
634
330
18
100
AcDbEntity
  8
0
 62
     0
100
AcDbLine
 10
5.70985
 20
4.843524846793428
 30
0.0
 11
5.724492
 21
4.843524846793428
 31
0.0
  0
LINE
  5
635
330
18
100
AcDbEntity
  8
0
 62
     0
100
AcDbLine
 10
5.710474
 20
4.844524846793428
 30
0.0
 11
5.723963
 21
4.844524846793428
 31
0.0
  0
LINE
  5
636
330
18
100
AcDbEntity
  8
0
 62
     0
100
AcDbLine
 10
5.711289
 20
4.845524846793428
 30
0.0
 11
5.723246
 21
4.845524846793428
 31
0.0
  0
LINE
  5
637
330
18
100
AcDbEntity
  8
0
 62
     0
100
AcDbLine
 10
5.712375
 20
4.846524846793428
 30
0.0
 11
5.722265
 21
4.846524846793428
 31
0.0
  0
LINE
  5
638
330
18
100
AcDbEntity
  8
0
 62
     0
100
AcDbLine
 10
5.713966
 20
4.847524846793428
 30
0.0
 11
5.720803
 21
4.847524846793428
 31
0.0
  0
LINE
  5
639
330
18
100
AcDbEntity
  8
0
 62
     0
100
AcDbLine
 10
5.714203
 20
4.77
 30
0.0
 11
5.720642
 21
4.77
 31
0.0
  0
LINE
  5
63A
330
18
100
AcDbEntity
  8
0
 62
     0
100
AcDbLine
 10
5.71253
 20
4.769
 30
0.0
 11
5.722183
 21
4.769
 31
0.0
  0
LINE
  5
63B
330
18
100
AcDbEntity
  8
0
 62
     0
100
AcDbLine
 10
5.711411
 20
4.768
 30
0.0
 11
5.723196
 21
4.768
 31
0.0
  0
LINE
  5
63C
330
18
100
AcDbEntity
  8
0
 62
     0
100
AcDbLine
 10
5.710573999999999
 20
4.767
 30
0.0
 11
5.723934
 21
4.767
 31
0.0
  0
LINE
  5
63D
330
18
100
AcDbEntity
  8
0
 62
     0
100
AcDbLine
 10
5.709934
 20
4.766
 30
0.0
 11
5.724479
 21
4.766
 31
0.0
  0
LINE
  5
63E
330
18
100
AcDbEntity
  8
0
 62
     0
100
AcDbLine
 10
5.709436
 20
4.765
 30
0.0
 11
5.724880000000001
 21
4.765
 31
0.0
  0
LINE
  5
63F
330
18
100
AcDbEntity
  8
0
 62
     0
100
AcDbLine
 10
5.709055
 20
4.763999999999999
 30
0.0
 11
5.72516
 21
4.763999999999999
 31
0.0
  0
LINE
  5
640
330
18
100
AcDbEntity
  8
0
 62
     0
100
AcDbLine
 10
5.70878
 20
4.763
 30
0.0
 11
5.725328
 21
4.763
 31
0.0
  0
LINE
  5
641
330
18
100
AcDbEntity
  8
0
 62
     0
100
AcDbLine
 10
5.708603
 20
4.762
 30
0.0
 11
5.725399
 21
4.762
 31
0.0
  0
LINE
  5
642
330
18
100
AcDbEntity
  8
0
 62
     0
100
AcDbLine
 10
5.708519
 20
4.761
 30
0.0
 11
5.725378
 21
4.761
 31
0.0
  0
LINE
  5
643
330
18
100
AcDbEntity
  8
0
 62
     0
100
AcDbLine
 10
5.708525
 20
4.76
 30
0.0
 11
5.725267
 21
4.76
 31
0.0
  0
LINE
  5
644
330
18
100
AcDbEntity
  8
0
 62
     0
100
AcDbLine
 10
5.708623
 20
4.759
 30
0.0
 11
5.725061
 21
4.759
 31
0.0
  0
LINE
  5
645
330
18
100
AcDbEntity
  8
0
 62
     0
100
AcDbLine
 10
5.708824
 20
4.758
 30
0.0
 11
5.724756
 21
4.758
 31
0.0
  0
LINE
  5
646
330
18
100
AcDbEntity
  8
0
 62
     0
100
AcDbLine
 10
5.709137999999999
 20
4.757
 30
0.0
 11
5.724341000000001
 21
4.757
 31
0.0
  0
LINE
  5
647
330
18
100
AcDbEntity
  8
0
 62
     0
100
AcDbLine
 10
5.70958
 20
4.756
 30
0.0
 11
5.723804
 21
4.756
 31
0.0
  0
LINE
  5
648
330
18
100
AcDbEntity
  8
0
 62
     0
100
AcDbLine
 10
5.710176000000001
 20
4.755
 30
0.0
 11
5.723112
 21
4.755
 31
0.0
  0
LINE
  5
649
330
18
100
AcDbEntity
  8
0
 62
     0
100
AcDbLine
 10
5.710985
 20
4.754
 30
0.0
 11
5.722203
 21
4.754
 31
0.0
  0
LINE
  5
64A
330
18
100
AcDbEntity
  8
0
 62
     0
100
AcDbLine
 10
5.712108
 20
4.753
 30
0.0
 11
5.720967
 21
4.753
 31
0.0
  0
LINE
  5
64B
330
18
100
AcDbEntity
  8
0
 62
     0
100
AcDbLine
 10
5.713981
 20
4.752
 30
0.0
 11
5.718958
 21
4.752
 31
0.0
  0
LINE
  5
64C
330
18
100
AcDbEntity
  8
0
 62
     0
100
AcDbLine
 10
5.667916
 20
4.741000000000001
 30
0.0
 11
5.670557
 21
4.741000000000001
 31
0.0
  0
LINE
  5
64D
330
18
100
AcDbEntity
  8
0
 62
     0
100
AcDbLine
 10
5.665226000000001
 20
4.74
 30
0.0
 11
5.673129
 21
4.74
 31
0.0
  0
LINE
  5
64E
330
18
100
AcDbEntity
  8
0
 62
     0
100
AcDbLine
 10
5.663833
 20
4.739
 30
0.0
 11
5.674401000000001
 21
4.739
 31
0.0
  0
LINE
  5
64F
330
18
100
AcDbEntity
  8
0
 62
     0
100
AcDbLine
 10
5.662839
 20
4.738
 30
0.0
 11
5.675293
 21
4.738
 31
0.0
  0
LINE
  5
650
330
18
100
AcDbEntity
  8
0
 62
     0
100
AcDbLine
 10
5.662087000000001
 20
4.737
 30
0.0
 11
5.675948
 21
4.737
 31
0.0
  0
LINE
  5
651
330
18
100
AcDbEntity
  8
0
 62
     0
100
AcDbLine
 10
5.661507
 20
4.736000000000001
 30
0.0
 11
5.676433
 21
4.736000000000001
 31
0.0
  0
LINE
  5
652
330
18
100
AcDbEntity
  8
0
 62
     0
100
AcDbLine
 10
5.661055999999999
 20
4.735
 30
0.0
 11
5.676785
 21
4.735
 31
0.0
  0
LINE
  5
653
330
18
100
AcDbEntity
  8
0
 62
     0
100
AcDbLine
 10
5.660718
 20
4.734
 30
0.0
 11
5.677021
 21
4.734
 31
0.0
  0
LINE
  5
654
330
18
100
AcDbEntity
  8
0
 62
     0
100
AcDbLine
 10
5.660482
 20
4.733000000000001
 30
0.0
 11
5.677149
 21
4.733000000000001
 31
0.0
  0
LINE
  5
655
330
18
100
AcDbEntity
  8
0
 62
     0
100
AcDbLine
 10
5.660341000000001
 20
4.732
 30
0.0
 11
5.677184
 21
4.732
 31
0.0
  0
LINE
  5
656
330
18
100
AcDbEntity
  8
0
 62
     0
100
AcDbLine
 10
5.660293
 20
4.731
 30
0.0
 11
5.677128
 21
4.731
 31
0.0
  0
LINE
  5
657
330
18
100
AcDbEntity
  8
0
 62
     0
100
AcDbLine
 10
5.660335
 20
4.73
 30
0.0
 11
5.67698
 21
4.73
 31
0.0
  0
LINE
  5
658
330
18
100
AcDbEntity
  8
0
 62
     0
100
AcDbLine
 10
5.660471
 20
4.729
 30
0.0
 11
5.676736
 21
4.729
 31
0.0
  0
LINE
  5
659
330
18
100
AcDbEntity
  8
0
 62
     0
100
AcDbLine
 10
5.660715
 20
4.728
 30
0.0
 11
5.676390000000001
 21
4.728
 31
0.0
  0
LINE
  5
65A
330
18
100
AcDbEntity
  8
0
 62
     0
100
AcDbLine
 10
5.661077
 20
4.727
 30
0.0
 11
5.675929
 21
4.727
 31
0.0
  0
LINE
  5
65B
330
18
100
AcDbEntity
  8
0
 62
     0
100
AcDbLine
 10
5.661573000000001
 20
4.726
 30
0.0
 11
5.675338
 21
4.726
 31
0.0
  0
LINE
  5
65C
330
18
100
AcDbEntity
  8
0
 62
     0
100
AcDbLine
 10
5.662244
 20
4.725
 30
0.0
 11
5.67457
 21
4.725
 31
0.0
  0
LINE
  5
65D
330
18
100
AcDbEntity
  8
0
 62
     0
100
AcDbLine
 10
5.663158999999999
 20
4.724
 30
0.0
 11
5.673552
 21
4.724
 31
0.0
  0
LINE
  5
65E
330
18
100
AcDbEntity
  8
0
 62
     0
100
AcDbLine
 10
5.664476000000001
 20
4.723
 30
0.0
 11
5.672112
 21
4.723
 31
0.0
  0
LINE
  5
65F
330
18
100
AcDbEntity
  8
0
 62
     0
100
AcDbLine
 10
5.667462
 20
4.722
 30
0.0
 11
5.669019000000001
 21
4.722
 31
0.0
  0
LINE
  5
660
330
18
100
AcDbEntity
  8
0
 62
     0
100
AcDbLine
 10
4.131793
 20
4.942
 30
0.0
 11
4.133272
 21
4.942
 31
0.0
  0
LINE
  5
661
330
18
100
AcDbEntity
  8
0
 62
     0
100
AcDbLine
 10
4.08143
 20
4.976
 30
0.0
 11
4.086383000000001
 21
4.976
 31
0.0
  0
LINE
  5
662
330
18
100
AcDbEntity
  8
0
 62
     0
100
AcDbLine
 10
4.079969
 20
4.977
 30
0.0
 11
4.087571
 21
4.977
 31
0.0
  0
LINE
  5
663
330
18
100
AcDbEntity
  8
0
 62
     0
100
AcDbLine
 10
4.07902
 20
4.978
 30
0.0
 11
4.088278
 21
4.978
 31
0.0
  0
LINE
  5
664
330
18
100
AcDbEntity
  8
0
 62
     0
100
AcDbLine
 10
4.078334
 20
4.979
 30
0.0
 11
4.088732
 21
4.979
 31
0.0
  0
LINE
  5
665
330
18
100
AcDbEntity
  8
0
 62
     0
100
AcDbLine
 10
4.077817
 20
4.98
 30
0.0
 11
4.089007
 21
4.98
 31
0.0
  0
LINE
  5
666
330
18
100
AcDbEntity
  8
0
 62
     0
100
AcDbLine
 10
4.077441
 20
4.981
 30
0.0
 11
4.08914
 21
4.981
 31
0.0
  0
LINE
  5
667
330
18
100
AcDbEntity
  8
0
 62
     0
100
AcDbLine
 10
4.077188
 20
4.982
 30
0.0
 11
4.089142
 21
4.982
 31
0.0
  0
LINE
  5
668
330
18
100
AcDbEntity
  8
0
 62
     0
100
AcDbLine
 10
4.077048
 20
4.983000000000001
 30
0.0
 11
4.08903
 21
4.983000000000001
 31
0.0
  0
LINE
  5
669
330
18
100
AcDbEntity
  8
0
 62
     0
100
AcDbLine
 10
4.077018
 20
4.984
 30
0.0
 11
4.088806
 21
4.984
 31
0.0
  0
LINE
  5
66A
330
18
100
AcDbEntity
  8
0
 62
     0
100
AcDbLine
 10
4.077116999999999
 20
4.985
 30
0.0
 11
4.088463
 21
4.985
 31
0.0
  0
LINE
  5
66B
330
18
100
AcDbEntity
  8
0
 62
     0
100
AcDbLine
 10
4.077354
 20
4.986000000000001
 30
0.0
 11
4.087986
 21
4.986000000000001
 31
0.0
  0
LINE
  5
66C
330
18
100
AcDbEntity
  8
0
 62
     0
100
AcDbLine
 10
4.077755000000001
 20
4.987
 30
0.0
 11
4.087347
 21
4.987
 31
0.0
  0
LINE
  5
66D
330
18
100
AcDbEntity
  8
0
 62
     0
100
AcDbLine
 10
4.078388
 20
4.988
 30
0.0
 11
4.086482
 21
4.988
 31
0.0
  0
LINE
  5
66E
330
18
100
AcDbEntity
  8
0
 62
     0
100
AcDbLine
 10
4.079397
 20
4.989
 30
0.0
 11
4.085202
 21
4.989
 31
0.0
  0
LINE
  5
66F
330
18
100
AcDbEntity
  8
0
 62
     0
100
AcDbLine
 10
4.066491
 20
5.052
 30
0.0
 11
4.067269000000001
 21
5.052
 31
0.0
  0
LINE
  5
670
330
18
100
AcDbEntity
  8
0
 62
     0
100
AcDbLine
 10
4.063676999999999
 20
5.053
 30
0.0
 11
4.06979
 21
5.053
 31
0.0
  0
LINE
  5
671
330
18
100
AcDbEntity
  8
0
 62
     0
100
AcDbLine
 10
4.062456
 20
5.053999999999999
 30
0.0
 11
4.07074
 21
5.053999999999999
 31
0.0
  0
LINE
  5
672
330
18
100
AcDbEntity
  8
0
 62
     0
100
AcDbLine
 10
4.061622
 20
5.055
 30
0.0
 11
4.071345
 21
5.055
 31
0.0
  0
LINE
  5
673
330
18
100
AcDbEntity
  8
0
 62
     0
100
AcDbLine
 10
4.061003
 20
5.056
 30
0.0
 11
4.071725
 21
5.056
 31
0.0
  0
LINE
  5
674
330
18
100
AcDbEntity
  8
0
 62
     0
100
AcDbLine
 10
4.060540000000001
 20
5.057
 30
0.0
 11
4.071947
 21
5.057
 31
0.0
  0
LINE
  5
675
330
18
100
AcDbEntity
  8
0
 62
     0
100
AcDbLine
 10
4.060211
 20
5.058
 30
0.0
 11
4.072031
 21
5.058
 31
0.0
  0
LINE
  5
676
330
18
100
AcDbEntity
  8
0
 62
     0
100
AcDbLine
 10
4.06
 20
5.059
 30
0.0
 11
4.071989
 21
5.059
 31
0.0
  0
LINE
  5
677
330
18
100
AcDbEntity
  8
0
 62
     0
100
AcDbLine
 10
4.0599
 20
5.06
 30
0.0
 11
4.071837
 21
5.06
 31
0.0
  0
LINE
  5
678
330
18
100
AcDbEntity
  8
0
 62
     0
100
AcDbLine
 10
4.059914
 20
5.061
 30
0.0
 11
4.071571
 21
5.061
 31
0.0
  0
LINE
  5
679
330
18
100
AcDbEntity
  8
0
 62
     0
100
AcDbLine
 10
4.060062
 20
5.062
 30
0.0
 11
4.071181
 21
5.062
 31
0.0
  0
LINE
  5
67A
330
18
100
AcDbEntity
  8
0
 62
     0
100
AcDbLine
 10
4.060353
 20
5.063
 30
0.0
 11
4.070648
 21
5.063
 31
0.0
  0
LINE
  5
67B
330
18
100
AcDbEntity
  8
0
 62
     0
100
AcDbLine
 10
4.060832
 20
5.064
 30
0.0
 11
4.06994
 21
5.064
 31
0.0
  0
LINE
  5
67C
330
18
100
AcDbEntity
  8
0
 62
     0
100
AcDbLine
 10
4.061571
 20
5.065
 30
0.0
 11
4.068952
 21
5.065
 31
0.0
  0
LINE
  5
67D
330
18
100
AcDbEntity
  8
0
 62
     0
100
AcDbLine
 10
4.062856
 20
5.066
 30
0.0
 11
4.067393
 21
5.066
 31
0.0
  0
LINE
  5
67E
330
18
100
AcDbEntity
  8
0
 62
     0
100
AcDbLine
 10
4.129889
 20
4.941
 30
0.0
 11
4.135475
 21
4.941
 31
0.0
  0
LINE
  5
67F
330
18
100
AcDbEntity
  8
0
 62
     0
100
AcDbLine
 10
4.129111
 20
4.94
 30
0.0
 11
4.136507
 21
4.94
 31
0.0
  0
LINE
  5
680
330
18
100
AcDbEntity
  8
0
 62
     0
100
AcDbLine
 10
4.12866
 20
4.939
 30
0.0
 11
4.13719
 21
4.939
 31
0.0
  0
LINE
  5
681
330
18
100
AcDbEntity
  8
0
 62
     0
100
AcDbLine
 10
4.128424
 20
4.938
 30
0.0
 11
4.137668
 21
4.938
 31
0.0
  0
LINE
  5
682
330
18
100
AcDbEntity
  8
0
 62
     0
100
AcDbLine
 10
4.065763
 20
4.937
 30
0.0
 11
4.070905000000001
 21
4.937
 31
0.0
  0
LINE
  5
683
330
18
100
AcDbEntity
  8
0
 62
     0
100
AcDbLine
 10
4.128357
 20
4.937
 30
0.0
 11
4.137982
 21
4.937
 31
0.0
  0
LINE
  5
684
330
18
100
AcDbEntity
  8
0
 62
     0
100
AcDbLine
 10
4.064762
 20
4.936
 30
0.0
 11
4.072176
 21
4.936
 31
0.0
  0
LINE
  5
685
330
18
100
AcDbEntity
  8
0
 62
     0
100
AcDbLine
 10
4.128439
 20
4.936
 30
0.0
 11
4.138152
 21
4.936
 31
0.0
  0
LINE
  5
686
330
18
100
AcDbEntity
  8
0
 62
     0
100
AcDbLine
 10
4.064164
 20
4.935
 30
0.0
 11
4.073004
 21
4.935
 31
0.0
  0
LINE
  5
687
330
18
100
AcDbEntity
  8
0
 62
     0
100
AcDbLine
 10
4.128658000000001
 20
4.935
 30
0.0
 11
4.138185
 21
4.935
 31
0.0
  0
LINE
  5
688
330
18
100
AcDbEntity
  8
0
 62
     0
100
AcDbLine
 10
4.063808
 20
4.934
 30
0.0
 11
4.073599
 21
4.934
 31
0.0
  0
LINE
  5
689
330
18
100
AcDbEntity
  8
0
 62
     0
100
AcDbLine
 10
4.129027
 20
4.934
 30
0.0
 11
4.13806
 21
4.934
 31
0.0
  0
LINE
  5
68A
330
18
100
AcDbEntity
  8
0
 62
     0
100
AcDbLine
 10
4.063622000000001
 20
4.933
 30
0.0
 11
4.074027
 21
4.933
 31
0.0
  0
LINE
  5
68B
330
18
100
AcDbEntity
  8
0
 62
     0
100
AcDbLine
 10
4.129571
 20
4.933
 30
0.0
 11
4.137758
 21
4.933
 31
0.0
  0
LINE
  5
68C
330
18
100
AcDbEntity
  8
0
 62
     0
100
AcDbLine
 10
4.063586
 20
4.932
 30
0.0
 11
4.074312
 21
4.932
 31
0.0
  0
LINE
  5
68D
330
18
100
AcDbEntity
  8
0
 62
     0
100
AcDbLine
 10
4.13035
 20
4.932
 30
0.0
 11
4.137208
 21
4.932
 31
0.0
  0
LINE
  5
68E
330
18
100
AcDbEntity
  8
0
 62
     0
100
AcDbLine
 10
4.063680000000001
 20
4.931
 30
0.0
 11
4.07447
 21
4.931
 31
0.0
  0
LINE
  5
68F
330
18
100
AcDbEntity
  8
0
 62
     0
100
AcDbLine
 10
4.131583999999999
 20
4.931
 30
0.0
 11
4.13624
 21
4.931
 31
0.0
  0
LINE
  5
690
330
18
100
AcDbEntity
  8
0
 62
     0
100
AcDbLine
 10
4.063898
 20
4.93
 30
0.0
 11
4.074505
 21
4.93
 31
0.0
  0
LINE
  5
691
330
18
100
AcDbEntity
  8
0
 62
     0
100
AcDbLine
 10
4.064249
 20
4.928999999999999
 30
0.0
 11
4.074399
 21
4.928999999999999
 31
0.0
  0
LINE
  5
692
330
18
100
AcDbEntity
  8
0
 62
     0
100
AcDbLine
 10
4.064752
 20
4.928
 30
0.0
 11
4.074137
 21
4.928
 31
0.0
  0
LINE
  5
693
330
18
100
AcDbEntity
  8
0
 62
     0
100
AcDbLine
 10
4.065444
 20
4.927
 30
0.0
 11
4.073676
 21
4.927
 31
0.0
  0
LINE
  5
694
330
18
100
AcDbEntity
  8
0
 62
     0
100
AcDbLine
 10
4.066445
 20
4.926
 30
0.0
 11
4.072926
 21
4.926
 31
0.0
  0
LINE
  5
695
330
18
100
AcDbEntity
  8
0
 62
     0
100
AcDbLine
 10
4.068188
 20
4.925
 30
0.0
 11
4.071464
 21
4.925
 31
0.0
  0
LINE
  5
696
330
18
100
AcDbEntity
  8
0
 62
     0
100
AcDbLine
 10
4.070862
 20
4.885
 30
0.0
 11
4.072808
 21
4.885
 31
0.0
  0
LINE
  5
697
330
18
100
AcDbEntity
  8
0
 62
     0
100
AcDbLine
 10
4.06913
 20
4.884
 30
0.0
 11
4.074835
 21
4.884
 31
0.0
  0
LINE
  5
698
330
18
100
AcDbEntity
  8
0
 62
     0
100
AcDbLine
 10
4.068374
 20
4.883
 30
0.0
 11
4.075842
 21
4.883
 31
0.0
  0
LINE
  5
699
330
18
100
AcDbEntity
  8
0
 62
     0
100
AcDbLine
 10
4.067937000000001
 20
4.882
 30
0.0
 11
4.076512
 21
4.882
 31
0.0
  0
LINE
  5
69A
330
18
100
AcDbEntity
  8
0
 62
     0
100
AcDbLine
 10
4.067709
 20
4.881
 30
0.0
 11
4.076981
 21
4.881
 31
0.0
  0
LINE
  5
69B
330
18
100
AcDbEntity
  8
0
 62
     0
100
AcDbLine
 10
4.067651000000001
 20
4.88
 30
0.0
 11
4.077287
 21
4.88
 31
0.0
  0
LINE
  5
69C
330
18
100
AcDbEntity
  8
0
 62
     0
100
AcDbLine
 10
4.067740000000001
 20
4.879
 30
0.0
 11
4.07745
 21
4.879
 31
0.0
  0
LINE
  5
69D
330
18
100
AcDbEntity
  8
0
 62
     0
100
AcDbLine
 10
4.067966999999999
 20
4.878
 30
0.0
 11
4.077476
 21
4.878
 31
0.0
  0
LINE
  5
69E
330
18
100
AcDbEntity
  8
0
 62
     0
100
AcDbLine
 10
4.068344000000001
 20
4.877
 30
0.0
 11
4.077342
 21
4.877
 31
0.0
  0
LINE
  5
69F
330
18
100
AcDbEntity
  8
0
 62
     0
100
AcDbLine
 10
4.068898
 20
4.876
 30
0.0
 11
4.077029000000001
 21
4.876
 31
0.0
  0
LINE
  5
6A0
330
18
100
AcDbEntity
  8
0
 62
     0
100
AcDbLine
 10
4.069692
 20
4.875
 30
0.0
 11
4.076464
 21
4.875
 31
0.0
  0
LINE
  5
6A1
330
18
100
AcDbEntity
  8
0
 62
     0
100
AcDbLine
 10
4.070964
 20
4.874
 30
0.0
 11
4.07546
 21
4.874
 31
0.0
  0
LINE
  5
6A2
330
18
100
AcDbEntity
  8
0
 62
     0
100
AcDbLine
 10
4.176697
 20
4.855
 30
0.0
 11
4.179486
 21
4.855
 31
0.0
  0
LINE
  5
6A3
330
18
100
AcDbEntity
  8
0
 62
     0
100
AcDbLine
 10
4.175242
 20
4.854
 30
0.0
 11
4.181225
 21
4.854
 31
0.0
  0
LINE
  5
6A4
330
18
100
AcDbEntity
  8
0
 62
     0
100
AcDbLine
 10
4.174536
 20
4.853
 30
0.0
 11
4.182174
 21
4.853
 31
0.0
  0
LINE
  5
6A5
330
18
100
AcDbEntity
  8
0
 62
     0
100
AcDbLine
 10
4.174131
 20
4.852
 30
0.0
 11
4.182815
 21
4.852
 31
0.0
  0
LINE
  5
6A6
330
18
100
AcDbEntity
  8
0
 62
     0
100
AcDbLine
 10
4.173926
 20
4.851
 30
0.0
 11
4.183262
 21
4.851
 31
0.0
  0
LINE
  5
6A7
330
18
100
AcDbEntity
  8
0
 62
     0
100
AcDbLine
 10
4.173888
 20
4.85
 30
0.0
 11
4.183549
 21
4.85
 31
0.0
  0
LINE
  5
6A8
330
18
100
AcDbEntity
  8
0
 62
     0
100
AcDbLine
 10
4.173994
 20
4.849
 30
0.0
 11
4.183694999999999
 21
4.849
 31
0.0
  0
LINE
  5
6A9
330
18
100
AcDbEntity
  8
0
 62
     0
100
AcDbLine
 10
4.174239
 20
4.848
 30
0.0
 11
4.183701
 21
4.848
 31
0.0
  0
LINE
  5
6AA
330
18
100
AcDbEntity
  8
0
 62
     0
100
AcDbLine
 10
4.174637000000001
 20
4.847
 30
0.0
 11
4.183546
 21
4.847
 31
0.0
  0
LINE
  5
6AB
330
18
100
AcDbEntity
  8
0
 62
     0
100
AcDbLine
 10
4.175217
 20
4.846
 30
0.0
 11
4.183206
 21
4.846
 31
0.0
  0
LINE
  5
6AC
330
18
100
AcDbEntity
  8
0
 62
     0
100
AcDbLine
 10
4.176054
 20
4.845
 30
0.0
 11
4.182601
 21
4.845
 31
0.0
  0
LINE
  5
6AD
330
18
100
AcDbEntity
  8
0
 62
     0
100
AcDbLine
 10
4.177431
 20
4.843999999999999
 30
0.0
 11
4.181494
 21
4.843999999999999
 31
0.0
  0
LINE
  5
6AE
330
18
100
AcDbEntity
  8
0
 62
     0
100
AcDbLine
 10
4.128319
 20
4.829
 30
0.0
 11
4.132763
 21
4.829
 31
0.0
  0
LINE
  5
6AF
330
18
100
AcDbEntity
  8
0
 62
     0
100
AcDbLine
 10
4.127303
 20
4.828
 30
0.0
 11
4.134047
 21
4.828
 31
0.0
  0
LINE
  5
6B0
330
18
100
AcDbEntity
  8
0
 62
     0
100
AcDbLine
 10
4.126733
 20
4.827
 30
0.0
 11
4.134847
 21
4.827
 31
0.0
  0
LINE
  5
6B1
330
18
100
AcDbEntity
  8
0
 62
     0
100
AcDbLine
 10
4.126417
 20
4.826000000000001
 30
0.0
 11
4.135404
 21
4.826000000000001
 31
0.0
  0
LINE
  5
6B2
330
18
100
AcDbEntity
  8
0
 62
     0
100
AcDbLine
 10
4.12628
 20
4.825
 30
0.0
 11
4.135783999999999
 21
4.825
 31
0.0
  0
LINE
  5
6B3
330
18
100
AcDbEntity
  8
0
 62
     0
100
AcDbLine
 10
4.126304
 20
4.824
 30
0.0
 11
4.136013
 21
4.824
 31
0.0
  0
LINE
  5
6B4
330
18
100
AcDbEntity
  8
0
 62
     0
100
AcDbLine
 10
4.126464
 20
4.823
 30
0.0
 11
4.136104
 21
4.823
 31
0.0
  0
LINE
  5
6B5
330
18
100
AcDbEntity
  8
0
 62
     0
100
AcDbLine
 10
4.126768
 20
4.822
 30
0.0
 11
4.136048000000001
 21
4.822
 31
0.0
  0
LINE
  5
6B6
330
18
100
AcDbEntity
  8
0
 62
     0
100
AcDbLine
 10
4.127234
 20
4.821000000000001
 30
0.0
 11
4.135823
 21
4.821000000000001
 31
0.0
  0
LINE
  5
6B7
330
18
100
AcDbEntity
  8
0
 62
     0
100
AcDbLine
 10
4.127901000000001
 20
4.82
 30
0.0
 11
4.13539
 21
4.82
 31
0.0
  0
LINE
  5
6B8
330
18
100
AcDbEntity
  8
0
 62
     0
100
AcDbLine
 10
4.1289
 20
4.819
 30
0.0
 11
4.134641
 21
4.819
 31
0.0
  0
LINE
  5
6B9
330
18
100
AcDbEntity
  8
0
 62
     0
100
AcDbLine
 10
4.130882
 20
4.818000000000001
 30
0.0
 11
4.132953
 21
4.818000000000001
 31
0.0
  0
LINE
  5
6BA
330
18
100
AcDbEntity
  8
0
 62
     0
100
AcDbLine
 10
5.686892396162739
 20
5.516895359797275
 30
0.0
 11
5.70183239616274
 21
5.516895359797275
 31
0.0
  0
LINE
  5
6BB
330
18
100
AcDbEntity
  8
0
 62
     0
100
AcDbLine
 10
5.686841396162739
 20
5.517895359797273
 30
0.0
 11
5.701989396162739
 21
5.517895359797273
 31
0.0
  0
LINE
  5
6BC
330
18
100
AcDbEntity
  8
0
 62
     0
100
AcDbLine
 10
5.686891396162739
 20
5.518895359797273
 30
0.0
 11
5.702043396162739
 21
5.518895359797273
 31
0.0
  0
LWPOLYLINE
  5
6BD
330
18
100
AcDbEntity
  8
0
100
AcDbPolyline
 90
       16
 70
     1
 43
0.0
 10
5.696312396162739
 20
5.526883359797274
 42
0.11154
 10
5.69340739616274
 20
5.526869359797273
 42
0.102973
 10
5.690555396162739
 20
5.525553359797274
 42
0.092796
 10
5.688377396162739
 20
5.523208359797274
 42
0.086692
 10
5.687075396162738
 20
5.520042359797274
 42
0.086692
 10
5.686923396162739
 20
5.516623359797274
 42
0.092796
 10
5.68791039616274
 20
5.513578359797275
 42
0.102973
 10
5.689943396162739
 20
5.511184359797274
 42
0.11154
 10
5.692572396162738
 20
5.509948359797273
 42
0.11154
 10
5.695477396162739
 20
5.509962359797274
 42
0.102973
 10
5.698329396162738
 20
5.511278359797275
 42
0.092796
 10
5.700507396162739
 20
5.513623359797274
 42
0.086692
 10
5.701809396162739
 20
5.516789359797274
 42
0.086692
 10
5.701961396162739
 20
5.520208359797274
 42
0.092796
 10
5.70097439616274
 20
5.523253359797274
 42
0.102973
 10
5.698941396162739
 20
5.525647359797274
 42
0.11154
  0
LINE
  5
6D0
330
18
100
AcDbEntity
  8
0
 62
     0
100
AcDbLine
 10
5.692838396162739
 20
5.509895359797274
 30
0.0
 11
5.695150396162738
 21
5.509895359797274
 31
0.0
  0
LINE
  5
6D1
330
18
100
AcDbEntity
  8
0
 62
     0
100
AcDbLine
 10
5.690345396162739
 20
5.510895359797274
 30
0.0
 11
5.697762396162739
 21
5.510895359797274
 31
0.0
  0
LINE
  5
6D2
330
18
100
AcDbEntity
  8
0
 62
     0
100
AcDbLine
 10
5.689150396162739
 20
5.511895359797275
 30
0.0
 11
5.699073396162738
 21
5.511895359797275
 31
0.0
  0
LINE
  5
6D3
330
18
100
AcDbEntity
  8
0
 62
     0
100
AcDbLine
 10
5.688330396162739
 20
5.512895359797273
 30
0.0
 11
5.699993396162738
 21
5.512895359797273
 31
0.0
  0
LINE
  5
6D4
330
18
100
AcDbEntity
  8
0
 62
     0
100
AcDbLine
 10
5.687746396162739
 20
5.513895359797274
 30
0.0
 11
5.700673396162739
 21
5.513895359797274
 31
0.0
  0
LINE
  5
6D5
330
18
100
AcDbEntity
  8
0
 62
     0
100
AcDbLine
 10
5.687329396162738
 20
5.514895359797274
 30
0.0
 11
5.701187396162739
 21
5.514895359797274
 31
0.0
  0
LINE
  5
6D6
330
18
100
AcDbEntity
  8
0
 62
     0
100
AcDbLine
 10
5.687049396162739
 20
5.515895359797274
 30
0.0
 11
5.701568396162738
 21
5.515895359797274
 31
0.0
  0
LINE
  5
6D7
330
18
100
AcDbEntity
  8
0
 62
     0
100
AcDbLine
 10
5.687043396162738
 20
5.519895359797274
 30
0.0
 11
5.701997396162739
 21
5.519895359797274
 31
0.0
  0
LINE
  5
6D8
330
18
100
AcDbEntity
  8
0
 62
     0
100
AcDbLine
 10
5.687303396162739
 20
5.520895359797274
 30
0.0
 11
5.701844396162739
 21
5.520895359797274
 31
0.0
  0
LINE
  5
6D9
330
18
100
AcDbEntity
  8
0
 62
     0
100
AcDbLine
 10
5.687679396162738
 20
5.521895359797274
 30
0.0
 11
5.701569396162739
 21
5.521895359797274
 31
0.0
  0
LINE
  5
6DA
330
18
100
AcDbEntity
  8
0
 62
     0
100
AcDbLine
 10
5.688187396162739
 20
5.522895359797274
 30
0.0
 11
5.701158396162739
 21
5.522895359797274
 31
0.0
  0
LINE
  5
6DB
330
18
100
AcDbEntity
  8
0
 62
     0
100
AcDbLine
 10
5.688859396162739
 20
5.523895359797273
 30
0.0
 11
5.700582396162739
 21
5.523895359797273
 31
0.0
  0
LINE
  5
6DC
330
18
100
AcDbEntity
  8
0
 62
     0
100
AcDbLine
 10
5.689768396162739
 20
5.524895359797274
 30
0.0
 11
5.699774396162739
 21
5.524895359797274
 31
0.0
  0
LINE
  5
6DD
330
18
100
AcDbEntity
  8
0
 62
     0
100
AcDbLine
 10
5.691056396162739
 20
5.525895359797274
 30
0.0
 11
5.698601396162739
 21
5.525895359797274
 31
0.0
  0
LINE
  5
6DE
330
18
100
AcDbEntity
  8
0
 62
     0
100
AcDbLine
 10
5.693524396162739
 20
5.526895359797274
 30
0.0
 11
5.696257396162739
 21
5.526895359797274
 31
0.0
  0
LWPOLYLINE
  5
6DF
330
18
100
AcDbEntity
  8
0
100
AcDbPolyline
 90
       16
 70
     1
 43
0.0
 10
5.685423388034525
 20
4.882861070438316
 42
0.11154
 10
5.682195388034525
 20
4.882845070438315
 42
0.102973
 10
5.679026388034525
 20
4.881383070438316
 42
0.092796
 10
5.676606388034525
 20
4.878777070438315
 42
0.086692
 10
5.675159388034524
 20
4.875260070438316
 42
0.086692
 10
5.674991388034525
 20
4.871461070438316
 42
0.092796
 10
5.676088388034525
 20
4.868078070438315
 42
0.102973
 10
5.678347388034524
 20
4.865417070438316
 42
0.11154
 10
5.681268388034525
 20
4.864044070438315
 42
0.11154
 10
5.684495388034525
 20
4.864060070438315
 42
0.102973
 10
5.687665388034525
 20
4.865522070438316
 42
0.092796
 10
5.690084388034525
 20
4.868128070438315
 42
0.086692
 10
5.691531388034525
 20
4.871645070438316
 42
0.086692
 10
5.691700388034525
 20
4.875444070438316
 42
0.092796
 10
5.690603388034525
 20
4.878827070438315
 42
0.102973
 10
5.688344388034524
 20
4.881487070438316
 42
0.11154
  0
LINE
  5
6F2
330
18
100
AcDbEntity
  8
0
 62
     0
100
AcDbLine
 10
5.680656388034524
 20
4.864207070438315
 30
0.0
 11
5.685049388034525
 21
4.864207070438315
 31
0.0
  0
LINE
  5
6F3
330
18
100
AcDbEntity
  8
0
 62
     0
100
AcDbLine
 10
5.678631388034525
 20
4.865207070438316
 30
0.0
 11
5.687210388034525
 21
4.865207070438316
 31
0.0
  0
LINE
  5
6F4
330
18
100
AcDbEntity
  8
0
 62
     0
100
AcDbLine
 10
5.677466388034524
 20
4.866207070438316
 30
0.0
 11
5.688490388034524
 21
4.866207070438316
 31
0.0
  0
LINE
  5
6F5
330
18
100
AcDbEntity
  8
0
 62
     0
100
AcDbLine
 10
5.676632388034525
 20
4.867207070438315
 30
0.0
 11
5.689424388034525
 21
4.867207070438315
 31
0.0
  0
LINE
  5
6F6
330
18
100
AcDbEntity
  8
0
 62
     0
100
AcDbLine
 10
5.676019388034525
 20
4.868207070438316
 30
0.0
 11
5.690134388034525
 21
4.868207070438316
 31
0.0
  0
LINE
  5
6F7
330
18
100
AcDbEntity
  8
0
 62
     0
100
AcDbLine
 10
5.675564388034525
 20
4.869207070438315
 30
0.0
 11
5.690684388034525
 21
4.869207070438315
 31
0.0
  0
LINE
  5
6F8
330
18
100
AcDbEntity
  8
0
 62
     0
100
AcDbLine
 10
5.675238388034525
 20
4.870207070438315
 30
0.0
 11
5.691110388034525
 21
4.870207070438315
 31
0.0
  0
LINE
  5
6F9
330
18
100
AcDbEntity
  8
0
 62
     0
100
AcDbLine
 10
5.675027388034525
 20
4.871207070438316
 30
0.0
 11
5.691425388034525
 21
4.871207070438316
 31
0.0
  0
LINE
  5
6FA
330
18
100
AcDbEntity
  8
0
 62
     0
100
AcDbLine
 10
5.674920388034525
 20
4.872207070438315
 30
0.0
 11
5.691640388034524
 21
4.872207070438315
 31
0.0
  0
LINE
  5
6FB
330
18
100
AcDbEntity
  8
0
 62
     0
100
AcDbLine
 10
5.674904388034524
 20
4.873207070438316
 30
0.0
 11
5.691761388034525
 21
4.873207070438316
 31
0.0
  0
LINE
  5
6FC
330
18
100
AcDbEntity
  8
0
 62
     0
100
AcDbLine
 10
5.674980388034524
 20
4.874207070438315
 30
0.0
 11
5.691790388034525
 21
4.874207070438315
 31
0.0
  0
LINE
  5
6FD
330
18
100
AcDbEntity
  8
0
 62
     0
100
AcDbLine
 10
5.675148388034525
 20
4.875207070438315
 30
0.0
 11
5.691728388034525
 21
4.875207070438315
 31
0.0
  0
LINE
  5
6FE
330
18
100
AcDbEntity
  8
0
 62
     0
100
AcDbLine
 10
5.675413388034525
 20
4.876207070438316
 30
0.0
 11
5.691570388034525
 21
4.876207070438316
 31
0.0
  0
LINE
  5
6FF
330
18
100
AcDbEntity
  8
0
 62
     0
100
AcDbLine
 10
5.675783388034525
 20
4.877207070438315
 30
0.0
 11
5.691302388034525
 21
4.877207070438315
 31
0.0
  0
LINE
  5
700
330
18
100
AcDbEntity
  8
0
 62
     0
100
AcDbLine
 10
5.676270388034525
 20
4.878207070438315
 30
0.0
 11
5.690912388034525
 21
4.878207070438315
 31
0.0
  0
LINE
  5
701
330
18
100
AcDbEntity
  8
0
 62
     0
100
AcDbLine
 10
5.676894388034524
 20
4.879207070438316
 30
0.0
 11
5.690383388034524
 21
4.879207070438316
 31
0.0
  0
LINE
  5
702
330
18
100
AcDbEntity
  8
0
 62
     0
100
AcDbLine
 10
5.677709388034525
 20
4.880207070438315
 30
0.0
 11
5.689666388034524
 21
4.880207070438315
 31
0.0
  0
LINE
  5
703
330
18
100
AcDbEntity
  8
0
 62
     0
100
AcDbLine
 10
5.678795388034525
 20
4.881207070438316
 30
0.0
 11
5.688685388034525
 21
4.881207070438316
 31
0.0
  0
LINE
  5
704
330
18
100
AcDbEntity
  8
0
 62
     0
100
AcDbLine
 10
5.680386388034525
 20
4.882207070438316
 30
0.0
 11
5.687223388034525
 21
4.882207070438316
 31
0.0
  0
LINE
  5
705
330
18
100
AcDbEntity
  8
0
100
AcDbLine
 10
4.580100333210536
 20
6.175089534588481
 30
0.0
 11
4.530368678393904
 21
6.146129806843984
 31
0.0
  0
LINE
  5
706
330
18
100
AcDbEntity
  8
0
100
AcDbLine
 10
4.530368678393905
 20
6.187039721913539
 30
0.0
 11
4.480637023577272
 21
6.158079994169042
 31
0.0
  0
LINE
  5
707
330
18
100
AcDbEntity
  8
0
100
AcDbLine
 10
4.331442059127378
 20
6.177566582683146
 30
0.0
 11
4.281710404310746
 21
6.148606854938649
 31
0.0
  0
LINE
  5
708
330
18
100
AcDbEntity
  8
0
100
AcDbLine
 10
4.217246255163735
 20
6.289026217734253
 30
0.0
 11
4.217246255163735
 21
5.949064233979315
 31
0.0
  0
LINE
  5
709
330
18
100
AcDbEntity
  8
0
100
AcDbLine
 10
4.480637023577272
 20
6.117170079099487
 30
0.0
 11
4.430905368760642
 21
6.088210351354991
 31
0.0
  0
LINE
  5
70A
330
18
100
AcDbEntity
  8
0
100
AcDbLine
 10
4.281710404310746
 20
6.001331168121502
 30
0.0
 11
4.238734304879405
 21
5.976305334100073
 31
0.0
  0
LINE
  5
70B
330
18
100
AcDbEntity
  8
0
100
AcDbLine
 10
4.281710404310746
 20
6.092355744946928
 30
0.0
 11
4.238734304879405
 21
6.067329910925499
 31
0.0
  0
LINE
  5
70C
330
18
100
AcDbEntity
  8
0
100
AcDbLine
 10
4.238734304879405
 20
6.017215249169628
 30
0.0
 11
4.217246255163735
 21
6.004702332158914
 31
0.0
  0
LINE
  5
70D
330
18
100
AcDbEntity
  8
0
100
AcDbLine
 10
4.238734304879405
 20
6.12358102091722
 30
0.0
 11
4.217246255163735
 21
6.111068103906506
 31
0.0
  0
LINE
  5
70E
330
18
100
AcDbEntity
  8
0
100
AcDbLine
 10
4.381173713944009
 20
6.059250623610494
 30
0.0
 11
4.331442059127378
 21
6.030290895865998
 31
0.0
  0
LINE
  5
70F
330
18
100
AcDbEntity
  8
0
100
AcDbLine
 10
4.381173713944009
 20
6.15027520043592
 30
0.0
 11
4.331442059127378
 21
6.121315472691424
 31
0.0
  0
LINE
  5
710
330
18
100
AcDbEntity
  8
0
100
AcDbLine
 10
4.331442059127378
 20
6.071200810935554
 30
0.0
 11
4.281710404310746
 21
6.042241083191057
 31
0.0
  0
LINE
  5
711
330
18
100
AcDbEntity
  8
0
100
AcDbLine
 10
4.430905368760641
 20
6.129120266424546
 30
0.0
 11
4.381173713944009
 21
6.10016053868005
 31
0.0
  0
LINE
  5
712
330
18
100
AcDbEntity
  8
0
100
AcDbLine
 10
4.480637023577272
 20
6.208194655924912
 30
0.0
 11
4.430905368760642
 21
6.179234928180417
 31
0.0
  0
LINE
  5
713
330
18
100
AcDbEntity
  8
0
100
AcDbLine
 10
4.480637023577272
 20
6.324787878565193
 30
0.0
 11
4.430905368760642
 21
6.295828150820697
 31
0.0
  0
LINE
  5
714
330
18
100
AcDbEntity
  8
0
100
AcDbLine
 10
4.281710404310746
 20
6.208948967587207
 30
0.0
 11
4.238734304879405
 21
6.183923133565778
 31
0.0
  0
LINE
  5
715
330
18
100
AcDbEntity
  8
0
100
AcDbLine
 10
4.281710404310746
 20
6.307132771187394
 30
0.0
 11
4.238734304879405
 21
6.282106937165965
 31
0.0
  0
LINE
  5
716
330
18
100
AcDbEntity
  8
0
100
AcDbLine
 10
4.238734304879405
 20
6.237106019439573
 30
0.0
 11
4.217246255163735
 21
6.224593102428859
 31
0.0
  0
LINE
  5
717
330
18
100
AcDbEntity
  8
0
100
AcDbLine
 10
4.381173713944009
 20
6.2668684230762
 30
0.0
 11
4.331442059127378
 21
6.237908695331703
 31
0.0
  0
LINE
  5
718
330
18
100
AcDbEntity
  8
0
100
AcDbLine
 10
4.331442059127378
 20
6.291091581205499
 30
0.0
 11
4.281710404310746
 21
6.262131853461002
 31
0.0
  0
LINE
  5
719
330
18
100
AcDbEntity
  8
0
100
AcDbLine
 10
4.430905368760641
 20
6.235486038172138
 30
0.0
 11
4.381173713944009
 21
6.206526310427642
 31
0.0
  0
LINE
  5
71A
330
18
100
AcDbEntity
  8
0
100
AcDbLine
 10
4.430905368760642
 20
6.349011036694491
 30
0.0
 11
4.416058574988809
 21
6.340365454577904
 31
0.0
  0
LINE
  5
71B
330
18
100
AcDbEntity
  8
0
100
AcDbLine
 10
4.580100333210536
 20
6.382707334054186
 30
0.0
 11
4.530368678393904
 21
6.353747606309689
 31
0.0
  0
LINE
  5
71C
330
18
100
AcDbEntity
  8
0
100
AcDbLine
 10
4.530368678393905
 20
6.293405493661131
 30
0.0
 11
4.480637023577272
 21
6.264445765916635
 31
0.0
  0
LINE
  5
71D
330
18
100
AcDbEntity
  8
0
100
AcDbLine
 10
4.580100333210536
 20
6.266114111413907
 30
0.0
 11
4.530368678393904
 21
6.237154383669409
 31
0.0
  0
LINE
  5
71E
330
18
100
AcDbEntity
  8
0
100
AcDbLine
 10
4.636108486842008
 20
6.192976008815295
 30
0.0
 11
4.217246255163735
 21
5.949064233979315
 31
0.0
  0
LINE
  5
71F
330
18
100
AcDbEntity
  8
0
100
AcDbLine
 10
4.480637023577272
 20
6.42297168216538
 30
0.0
 11
4.430905368760642
 21
6.394011954420884
 31
0.0
  0
LINE
  5
720
330
18
100
AcDbEntity
  8
0
100
AcDbLine
 10
4.636108486842008
 20
6.532937992570233
 30
0.0
 11
4.407561111966491
 21
6.399850328837378
 31
0.0
  0
LINE
  5
721
330
18
100
AcDbEntity
  8
0
100
AcDbLine
 10
4.636108486842008
 20
6.248614106994894
 30
0.0
 11
4.580100333210535
 21
6.215999449658035
 31
0.0
  0
LINE
  5
722
330
18
100
AcDbEntity
  8
0
100
AcDbLine
 10
4.636108486842008
 20
6.354979878742486
 30
0.0
 11
4.580100333210535
 21
6.322365221405628
 31
0.0
  0
LINE
  5
723
330
18
100
AcDbEntity
  8
0
100
AcDbLine
 10
4.636108486842008
 20
6.468504877264839
 30
0.0
 11
4.580100333210535
 21
6.43589021992798
 31
0.0
  0
LINE
  5
724
330
18
100
AcDbEntity
  8
0
100
AcDbLine
 10
4.530368678393905
 20
6.406930492183484
 30
0.0
 11
4.480637023577272
 21
6.377970764438988
 31
0.0
  0
LINE
  5
725
330
18
100
AcDbEntity
  8
0
100
AcDbLine
 10
4.580100333210536
 20
6.480891137654373
 30
0.0
 11
4.530368678393904
 21
6.451931409909876
 31
0.0
  0
LINE
  5
726
330
18
100
AcDbEntity
  8
0
100
AcDbLine
 10
4.636108486842007
 20
6.532937992570233
 30
0.0
 11
4.636108486842008
 21
6.192976008815295
 31
0.0
  0
LINE
  5
727
330
18
100
AcDbEntity
  8
0
100
AcDbLine
 10
3.148861567797977
 20
6.46922064453293
 30
0.0
 11
3.096761838877258
 21
6.444776390234144
 31
0.0
  0
LINE
  5
728
330
18
100
AcDbEntity
  8
0
100
AcDbLine
 10
3.100382827155467
 20
6.485525741086486
 30
0.0
 11
3.048283098234748
 21
6.461081486787699
 31
0.0
  0
LINE
  5
729
330
18
100
AcDbEntity
  8
0
100
AcDbLine
 10
2.901398480338008
 20
6.493697028703356
 30
0.0
 11
2.84929875141729
 21
6.469252774404569
 31
0.0
  0
LINE
  5
72A
330
18
100
AcDbEntity
  8
0
100
AcDbLine
 10
2.797516307951656
 20
6.614826819213045
 30
0.0
 11
2.772714796386731
 21
6.335719178210669
 31
0.0
  0
LINE
  5
72B
330
18
100
AcDbEntity
  8
0
100
AcDbLine
 10
3.044662109956541
 20
6.420332135935357
 30
0.0
 11
2.992562381035825
 21
6.395887881636572
 31
0.0
  0
LINE
  5
72C
330
18
100
AcDbEntity
  8
0
100
AcDbLine
 10
2.836263194273672
 20
6.322555118740214
 30
0.0
 11
2.8049664757012
 21
6.307871262156867
 31
0.0
  0
LINE
  5
72D
330
18
100
AcDbEntity
  8
0
100
AcDbLine
 10
2.844319894590776
 20
6.413222440120346
 30
0.0
 11
2.799297400593777
 21
6.39209869696032
 31
0.0
  0
LINE
  5
72E
330
18
100
AcDbEntity
  8
0
100
AcDbLine
 10
2.794861688554879
 20
6.34218072643253
 30
0.0
 11
2.77566336438328
 21
6.333173218564779
 31
0.0
  0
LINE
  5
72F
330
18
100
AcDbEntity
  8
0
100
AcDbLine
 10
2.80427625742029
 20
6.448129031244543
 30
0.0
 11
2.781765010421791
 21
6.437567159664531
 31
0.0
  0
LINE
  5
730
330
18
100
AcDbEntity
  8
0
100
AcDbLine
 10
2.940462652115106
 20
6.371443627337786
 30
0.0
 11
2.888362923194389
 21
6.346999373039
 31
0.0
  0
LINE
  5
731
330
18
100
AcDbEntity
  8
0
100
AcDbLine
 10
2.948519352432212
 20
6.462110948717918
 30
0.0
 11
2.896419623511494
 21
6.437666694419132
 31
0.0
  0
LINE
  5
732
330
18
100
AcDbEntity
  8
0
100
AcDbLine
 10
2.891983911472596
 20
6.387748723891343
 30
0.0
 11
2.839884182551879
 21
6.363304469592556
 31
0.0
  0
LINE
  5
733
330
18
100
AcDbEntity
  8
0
100
AcDbLine
 10
2.99618336931403
 20
6.436637232488914
 30
0.0
 11
2.944083640393314
 21
6.412192978190128
 31
0.0
  0
LINE
  5
734
330
18
100
AcDbEntity
  8
0
100
AcDbLine
 10
3.052718810273646
 20
6.51099945731549
 30
0.0
 11
3.000619081352929
 21
6.486555203016704
 31
0.0
  0
LINE
  5
735
330
18
100
AcDbEntity
  8
0
100
AcDbLine
 10
3.063038623741385
 20
6.627135072075291
 30
0.0
 11
3.010938894820668
 21
6.602690817776505
 31
0.0
  0
LINE
  5
736
330
18
100
AcDbEntity
  8
0
100
AcDbLine
 10
2.854639708058515
 20
6.529358054880147
 30
0.0
 11
2.809617214061515
 21
6.508234311720121
 31
0.0
  0
LINE
  5
737
330
18
100
AcDbEntity
  8
0
100
AcDbLine
 10
2.863330080584138
 20
6.627156504329849
 30
0.0
 11
2.818307586587139
 21
6.606032761169823
 31
0.0
  0
LINE
  5
738
330
18
100
AcDbEntity
  8
0
100
AcDbLine
 10
2.814324498494221
 20
6.561208464126127
 30
0.0
 11
2.791813251495722
 21
6.550646592546114
 31
0.0
  0
LINE
  5
739
330
18
100
AcDbEntity
  8
0
100
AcDbLine
 10
2.958839165899949
 20
6.578246563477719
 30
0.0
 11
2.906739436979232
 21
6.553802309178932
 31
0.0
  0
LINE
  5
73A
330
18
100
AcDbEntity
  8
0
100
AcDbLine
 10
2.967529538425573
 20
6.676045012927421
 30
0.0
 11
2.915429809504856
 21
6.651600758628635
 31
0.0
  0
LINE
  5
73B
330
18
100
AcDbEntity
  8
0
100
AcDbLine
 10
2.911446721411938
 20
6.606776461584938
 30
0.0
 11
2.85934699249122
 21
6.582332207286153
 31
0.0
  0
LINE
  5
73C
330
18
100
AcDbEntity
  8
0
100
AcDbLine
 10
3.005597938179442
 20
6.542585537300927
 30
0.0
 11
2.953498209258725
 21
6.518141283002142
 31
0.0
  0
LINE
  5
73D
330
18
100
AcDbEntity
  8
0
100
AcDbLine
 10
3.015646179253373
 20
6.65566497018251
 30
0.0
 11
2.963546450332655
 21
6.631220715883724
 31
0.0
  0
LINE
  5
73E
330
18
100
AcDbEntity
  8
0
100
AcDbLine
 10
3.16723808158282
 20
6.676023580672863
 30
0.0
 11
3.115138352662101
 21
6.651579326374076
 31
0.0
  0
LINE
  5
73F
330
18
100
AcDbEntity
  8
0
100
AcDbLine
 10
3.109797396020878
 20
6.5914740458985
 30
0.0
 11
3.05769766710016
 21
6.567029791599714
 31
0.0
  0
LINE
  5
740
330
18
100
AcDbEntity
  8
0
100
AcDbLine
 10
3.156918268115081
 20
6.559887965913062
 30
0.0
 11
3.104818539194363
 21
6.535443711614276
 31
0.0
  0
LINE
  5
741
330
18
100
AcDbEntity
  8
0
100
AcDbLine
 10
3.206233053718786
 20
6.482079565044055
 30
0.0
 11
2.815516035348306
 21
6.298762178298238
 31
0.0
  0
LINE
  5
742
330
18
100
AcDbEntity
  8
0
100
AcDbLine
 10
3.071728996267008
 20
6.724933521524993
 30
0.0
 11
3.019629267346291
 21
6.700489267226208
 31
0.0
  0
LINE
  5
743
330
18
100
AcDbEntity
  8
0
100
AcDbLine
 10
3.236323518490459
 20
6.820707257840165
 30
0.0
 11
2.797516307951656
 21
6.614826819213045
 31
0.0
  0
LINE
  5
744
330
18
100
AcDbEntity
  8
0
100
AcDbLine
 10
3.211157652095182
 20
6.537499293479638
 30
0.0
 11
3.152482556076182
 21
6.509969995385272
 31
0.0
  0
LINE
  5
745
330
18
100
AcDbEntity
  8
0
100
AcDbLine
 10
3.220572220960594
 20
6.643447598291652
 30
0.0
 11
3.161897124941595
 21
6.615918300197285
 31
0.0
  0
LINE
  5
746
330
18
100
AcDbEntity
  8
0
100
AcDbLine
 10
3.230620462034525
 20
6.756527031173235
 30
0.0
 11
3.171945366015525
 21
6.728997733078868
 31
0.0
  0
LINE
  5
747
330
18
100
AcDbEntity
  8
0
100
AcDbLine
 10
3.119845637094808
 20
6.704553478780082
 30
0.0
 11
3.06774590817409
 21
6.680109224481297
 31
0.0
  0
LINE
  5
748
330
18
100
AcDbEntity
  8
0
100
AcDbLine
 10
3.175928454108443
 20
6.773822030122566
 30
0.0
 11
3.123828725187725
 21
6.749377775823779
 31
0.0
  0
LINE
  5
749
330
18
100
AcDbEntity
  8
0
100
AcDbLine
 10
3.236323518490458
 20
6.820707257840165
 30
0.0
 11
3.206233053718786
 21
6.482079565044055
 31
0.0
  0
LINE
  5
74A
330
18
100
AcDbEntity
  8
0
100
AcDbLine
 10
4.274487999536507
 20
6.322359219396227
 30
0.0
 11
4.217246255163735
 21
6.289026217734253
 31
0.0
  0
LINE
  5
74B
330
18
100
AcDbEntity
  8
0
100
AcDbLine
 10
4.395489854974895
 20
6.328387881463716
 30
0.0
 11
4.381173713944009
 21
6.320051308949994
 31
0.0
  0
LINE
  5
74C
330
18
100
AcDbEntity
  8
0
100
AcDbLine
 10
4.217246255163735
 20
5.962758814486525
 30
0.0
 11
3.585942
 21
4.919619
 31
0.0
  0
LINE
  5
74D
330
18
100
AcDbEntity
  8
0
100
AcDbLine
 10
6.116438720633803
 20
5.954592335705943
 30
0.0
 11
6.068902619922951
 21
5.922154357177005
 31
0.0
  0
LINE
  5
74E
330
18
100
AcDbEntity
  8
0
100
AcDbLine
 10
6.065980516563503
 20
5.962959779156871
 30
0.0
 11
6.018444415852651
 21
5.930521800627933
 31
0.0
  0
LINE
  5
74F
330
18
100
AcDbEntity
  8
0
100
AcDbLine
 10
5.86823864551647
 20
5.939301954774511
 30
0.0
 11
5.820702544805618
 21
5.906863976245573
 31
0.0
  0
LINE
  5
750
330
18
100
AcDbEntity
  8
0
100
AcDbLine
 10
6.0213665192121
 20
5.889716378648068
 30
0.0
 11
5.973830418501249
 21
5.857278400119133
 31
0.0
  0
LINE
  5
751
330
18
100
AcDbEntity
  8
0
100
AcDbLine
 10
5.831222116368695
 20
5.759964464532322
 30
0.0
 11
5.79014332664693
 21
5.73193286583022
 31
0.0
  0
LINE
  5
752
330
18
100
AcDbEntity
  8
0
100
AcDbLine
 10
5.824720435265672
 20
5.850756544192842
 30
0.0
 11
5.783641645543908
 21
5.822724945490741
 31
0.0
  0
LINE
  5
753
330
18
100
AcDbEntity
  8
0
100
AcDbLine
 10
5.787221223287482
 20
5.772738287810086
 30
0.0
 11
5.7666818284266
 21
5.758722488459035
 31
0.0
  0
LINE
  5
754
330
18
100
AcDbEntity
  8
0
100
AcDbLine
 10
5.926294317790398
 20
5.824840421590195
 30
0.0
 11
5.878758217079547
 21
5.792402443061258
 31
0.0
  0
LINE
  5
755
330
18
100
AcDbEntity
  8
0
100
AcDbLine
 10
5.919792636687374
 20
5.915632501250716
 30
0.0
 11
5.872256535976523
 21
5.883194522721779
 31
0.0
  0
LINE
  5
756
330
18
100
AcDbEntity
  8
0
100
AcDbLine
 10
5.875836113720097
 20
5.833207865041124
 30
0.0
 11
5.828300013009246
 21
5.800769886512188
 31
0.0
  0
LINE
  5
757
330
18
100
AcDbEntity
  8
0
100
AcDbLine
 10
5.970908315141799
 20
5.898083822098998
 30
0.0
 11
5.923372214430948
 21
5.865645843570061
 31
0.0
  0
LINE
  5
758
330
18
100
AcDbEntity
  8
0
100
AcDbLine
 10
6.014864838109077
 20
5.980508458308589
 30
0.0
 11
5.967328737398226
 21
5.948070479779653
 31
0.0
  0
LINE
  5
759
330
18
100
AcDbEntity
  8
0
100
AcDbLine
 10
6.006536846056613
 20
6.096803875733439
 30
0.0
 11
5.959000745345763
 21
6.064365897204502
 31
0.0
  0
LINE
  5
75A
330
18
100
AcDbEntity
  8
0
100
AcDbLine
 10
5.816392443213209
 20
5.967051961617692
 30
0.0
 11
5.775313653491445
 21
5.939020362915589
 31
0.0
  0
LINE
  5
75B
330
18
100
AcDbEntity
  8
0
100
AcDbLine
 10
5.809379394619589
 20
6.064984981783638
 30
0.0
 11
5.768300604897825
 21
6.036953383081536
 31
0.0
  0
LINE
  5
75C
330
18
100
AcDbEntity
  8
0
100
AcDbLine
 10
5.911464644634911
 20
6.031927918675565
 30
0.0
 11
5.86392854392406
 21
5.999489940146629
 31
0.0
  0
LINE
  5
75D
330
18
100
AcDbEntity
  8
0
100
AcDbLine
 10
5.904451596041292
 20
6.129860938841511
 30
0.0
 11
5.856915495330441
 21
6.097422960312574
 31
0.0
  0
LINE
  5
75E
330
18
100
AcDbEntity
  8
0
100
AcDbLine
 10
5.860129809822245
 20
6.052536985013321
 30
0.0
 11
5.812593709111395
 21
6.020099006484384
 31
0.0
  0
LINE
  5
75F
330
18
100
AcDbEntity
  8
0
100
AcDbLine
 10
5.963310846938171
 20
6.004177911832383
 30
0.0
 11
5.915774746227321
 21
5.971739933303446
 31
0.0
  0
LINE
  5
760
330
18
100
AcDbEntity
  8
0
100
AcDbLine
 10
5.955202011243949
 20
6.117412942071193
 30
0.0
 11
5.907665910533097
 21
6.084974963542256
 31
0.0
  0
LINE
  5
761
330
18
100
AcDbEntity
  8
0
100
AcDbLine
 10
6.101609047478316
 20
6.161679832791313
 30
0.0
 11
6.054072946767464
 21
6.129241854262375
 31
0.0
  0
LINE
  5
762
330
18
100
AcDbEntity
  8
0
100
AcDbLine
 10
6.058383048359874
 20
6.069053868890257
 30
0.0
 11
6.010846947649022
 21
6.036615890361321
 31
0.0
  0
LINE
  5
763
330
18
100
AcDbEntity
  8
0
100
AcDbLine
 10
6.109937039530779
 20
6.045384415366463
 30
0.0
 11
6.062400938819927
 21
6.012946436837527
 31
0.0
  0
LINE
  5
764
330
18
100
AcDbEntity
  8
0
100
AcDbLine
 10
6.171026226206025
 20
5.976433660502659
 30
0.0
 11
5.770655932829593
 21
5.703226502448902
 31
0.0
  0
LINE
  5
765
330
18
100
AcDbEntity
  8
0
100
AcDbLine
 10
5.999523797462994
 20
6.194736895899385
 30
0.0
 11
5.951987696752144
 21
6.162298917370449
 31
0.0
  0
LINE
  5
766
330
18
100
AcDbEntity
  8
0
100
AcDbLine
 10
6.171026226206024
 20
6.332097498597365
 30
0.0
 11
5.770655932829593
 21
6.05889034054361
 31
0.0
  0
LINE
  5
767
330
18
100
AcDbEntity
  8
0
100
AcDbLine
 10
6.167052121803032
 20
6.031929646512791
 30
0.0
 11
6.113516617274353
 21
5.995397757685808
 31
0.0
  0
LINE
  5
768
330
18
100
AcDbEntity
  8
0
100
AcDbLine
 10
6.159454653599404
 20
6.138023736246177
 30
0.0
 11
6.105919149070725
 21
6.101491847419194
 31
0.0
  0
LINE
  5
769
330
18
100
AcDbEntity
  8
0
100
AcDbLine
 10
6.151345817905181
 20
6.251258766484988
 30
0.0
 11
6.097810313376502
 21
6.214726877658004
 31
0.0
  0
LINE
  5
76A
330
18
100
AcDbEntity
  8
0
100
AcDbLine
 10
6.050274212665651
 20
6.182288899129068
 30
0.0
 11
6.002738111954799
 21
6.149850920600131
 31
0.0
  0
LINE
  5
76B
330
18
100
AcDbEntity
  8
0
100
AcDbLine
 10
6.094595998884698
 20
6.259612852957259
 30
0.0
 11
6.047059898173846
 21
6.227174874428322
 31
0.0
  0
LINE
  5
76C
330
18
100
AcDbEntity
  8
0
100
AcDbLine
 10
5.79935807885501
 20
5.722812450445987
 30
0.0
 11
5.751412
 21
5.621854
 31
0.0
  0
LINE
  5
76D
330
18
100
AcDbEntity
  8
0
100
AcDbLine
 10
6.171026226206025
 20
5.976433660502659
 30
0.0
 11
6.171026226206025
 21
6.332097498597366
 31
0.0
  0
LINE
  5
76E
330
18
100
AcDbEntity
  8
0
100
AcDbLine
 10
5.770655932829593
 20
5.703226502448902
 30
0.0
 11
5.770655932829593
 21
6.05889034054361
 31
0.0
  0
ENDSEC
  0
SECTION
  2
OBJECTS
  0
DICTIONARY
  5
C
330
0
100
AcDbDictionary
281
     1
  3
ACAD_COLOR
350
774
  3
ACAD_GROUP
350
D
  3
ACAD_LAYOUT
350
15
  3
ACAD_MATERIAL
350
776
  3
ACAD_MLINESTYLE
350
12
  3
ACAD_PLOTSETTINGS
350
14
  3
ACAD_PLOTSTYLENAME
350
E
  3
ACDBHEADERROUNDTRIPXREC
350
773
  0
DICTIONARY
  5
774
102
{ACAD_REACTORS
330
C
102
}
330
C
100
AcDbDictionary
281
     1
  0
DICTIONARY
  5
D
102
{ACAD_REACTORS
330
C
102
}
330
C
100
AcDbDictionary
281
     1
  0
DICTIONARY
  5
15
102
{ACAD_REACTORS
330
C
102
}
330
C
100
AcDbDictionary
281
     1
  3
Layout1
350
17
  3
Model
350
19
  0
DICTIONARY
  5
776
102
{ACAD_REACTORS
330
C
102
}
330
C
100
AcDbDictionary
281
     1
  0
DICTIONARY
  5
12
102
{ACAD_REACTORS
330
C
102
}
330
C
100
AcDbDictionary
281
     1
  3
Standard
350
13
  0
DICTIONARY
  5
14
102
{ACAD_REACTORS
330
C
102
}
330
C
100
AcDbDictionary
281
     1
  0
ACDBDICTIONARYWDFLT
  5
E
102
{ACAD_REACTORS
330
C
102
}
330
C
100
AcDbDictionary
281
     1
  3
Normal
350
F
100
AcDbDictionaryWithDefault
340
F
  0
DICTIONARY
  5
773
102
{ACAD_REACTORS
330
C
102
}
330
C
100
AcDbDictionary
281
     1
  3
COLORDICT
350
775
  3
MATERIALDICT
350
777
  0
LAYOUT
  5
17
102
{ACAD_REACTORS
330
15
102
}
102
{ACAD_XDICTIONARY
360
778
102
}
330
15
100
AcDbPlotSettings
  1

  2

  4

  6

 40
0.0
 41
0.0
 42
0.0
 43
0.0
 44
0.0
 45
0.0
 46
0.0
 47
0.0
 48
0.0
 49
0.0
140
0.0
141
0.0
142
1.0
143
1.0
 70
   688
 72
     0
 73
     0
 74
     5
  7

 75
    16
147
1.0
148
0.0
149
0.0
100
AcDbLayout
  1
Layout1
 70
     1
 71
     1
 10
0.0
 20
0.0
 11
12.0
 21
9.0
 12
0.0
 22
0.0
 32
0.0
 14
1.000000000000000E+20
 24
1.000000000000000E+20
 34
1.000000000000000E+20
 15
-1.000000000000000E+20
 25
-1.000000000000000E+20
 35
-1.000000000000000E+20
146
0.0
 13
0.0
 23
0.0
 33
0.0
 16
1.0
 26
0.0
 36
0.0
 17
0.0
 27
1.0
 37
0.0
 76
     0
330
16
  0
LAYOUT
  5
19
102
{ACAD_REACTORS
330
15
102
}
102
{ACAD_XDICTIONARY
360
77A
102
}
330
15
100
AcDbPlotSettings
  1

  2

  4

  6

 40
0.0
 41
0.0
 42
0.0
 43
0.0
 44
0.0
 45
0.0
 46
0.0
 47
0.0
 48
0.0
 49
0.0
140
0.0
141
0.0
142
1.0
143
1.0
 70
  1712
 72
     0
 73
     0
 74
     0
  7

 75
     0
147
1.0
148
0.0
149
0.0
100
AcDbLayout
  1
Model
 70
     1
 71
     0
 10
0.0
 20
0.0
 11
0.0
 21
0.0
 12
0.0
 22
0.0
 32
0.0
 14
0.0
 24
0.0
 34
0.0
 15
0.0
 25
0.0
 35
0.0
146
0.0
 13
0.0
 23
0.0
 33
0.0
 16
1.0
 26
0.0
 36
0.0
 17
0.0
 27
1.0
 37
0.0
 76
     0
330
18
  0
MLINESTYLE
  5
13
102
{ACAD_REACTORS
330
12
102
}
330
12
100
AcDbMlineStyle
  2
Standard
 70
     0
  3

 62
   256
 51
90.0
 52
90.0
 71
     2
 49
0.5
 62
   256
  6
BYLAYER
 49
-0.5
 62
   256
  6
BYLAYER
  0
ACDBPLACEHOLDER
  5
F
102
{ACAD_REACTORS
330
E
102
}
330
E
  0
XRECORD
  5
775
102
{ACAD_REACTORS
330
773
102
}
330
773
100
AcDbXrecord
340
774
  0
XRECORD
  5
777
102
{ACAD_REACTORS
330
773
102
}
330
773
100
AcDbXrecord
340
776
  0
DICTIONARY
  5
778
330
17
100
AcDbDictionary
280
     1
281
     1
  3
ACAD_XREC_ROUNDTRIP
360
779
  0
DICTIONARY
  5
77A
330
19
100
AcDbDictionary
280
     1
281
     1
  3
ACAD_XREC_ROUNDTRIP
360
77B
  0
XRECORD
  5
779
102
{ACAD_REACTORS
330
778
102
}
330
778
100
AcDbXrecord
102
SHADEPLOT
 70
     0
102
SHADEPLOTRESLEVEL
 70
     0
102
SHADEPLOTCUSTOMDPI
 70
     0
  0
XRECORD
  5
77B
102
{ACAD_REACTORS
330
77A
102
}
330
77A
100
AcDbXrecord
102
SHADEPLOT
 70
     0
102
SHADEPLOTRESLEVEL
 70
     0
102
SHADEPLOTCUSTOMDPI
 70
     0
  0
ENDSEC
  0
EOF
